  0
SECTION
  2
HEADER
  9
$ACADVER
  1
AC1015
  9
$ACADMAINTVER
 70
    20
  9
$DWGCODEPAGE
  3
ANSI_1254
  9
$INSBASE
 10
0.0
 20
0.0
 30
0.0
  9
$EXTMIN
 10
29.65448923695685
 20
118.0901901596701
 30
0.0
  9
$EXTMAX
 10
237.198429508921
 20
176.1231421810288
 30
0.0
  9
$LIMMIN
 10
0.0
 20
0.0
  9
$LIMMAX
 10
431.7999999999999
 20
279.4
  9
$ORTHOMODE
 70
     0
  9
$REGENMODE
 70
     1
  9
$FILLMODE
 70
     1
  9
$QTEXTMODE
 70
     0
  9
$MIRRTEXT
 70
     1
  9
$LTSCALE
 40
1.0
  9
$ATTMODE
 70
     1
  9
$TEXTSIZE
 40
2.5
  9
$TRACEWID
 40
1.0
  9
$TEXTSTYLE
  7
Standard
  9
$CLAYER
  8
0
  9
$CELTYPE
  6
ByLayer
  9
$CECOLOR
 62
   256
  9
$CELTSCALE
 40
1.0
  9
$DISPSILH
 70
     0
  9
$DIMSCALE
 40
1.0
  9
$DIMASZ
 40
3.301999999999999
  9
$DIMEXO
 40
1.0
  9
$DIMDLI
 40
3.75
  9
$DIMRND
 40
0.0
  9
$DIMDLE
 40
0.0
  9
$DIMEXE
 40
1.0
  9
$DIMTP
 40
0.0
  9
$DIMTM
 40
0.0
  9
$DIMTXT
 40
3.5
  9
$DIMCEN
 40
2.5
  9
$DIMTSZ
 40
0.0
  9
$DIMTOL
 70
     0
  9
$DIMLIM
 70
     0
  9
$DIMTIH
 70
     1
  9
$DIMTOH
 70
     1
  9
$DIMSE1
 70
     0
  9
$DIMSE2
 70
     0
  9
$DIMTAD
 70
     1
  9
$DIMZIN
 70
     0
  9
$DIMBLK
  1

  9
$DIMASO
 70
     1
  9
$DIMSHO
 70
     1
  9
$DIMPOST
  1

  9
$DIMAPOST
  1

  9
$DIMALT
 70
     0
  9
$DIMALTD
 70
     3
  9
$DIMALTF
 40
0.0393700787401575
  9
$DIMLFAC
 40
1.0
  9
$DIMTOFL
 70
     1
  9
$DIMTVP
 40
0.0
  9
$DIMTIX
 70
     0
  9
$DIMSOXD
 70
     0
  9
$DIMSAH
 70
     0
  9
$DIMBLK1
  1

  9
$DIMBLK2
  1

  9
$DIMSTYLE
  2
ISO-25
  9
$DIMCLRD
 70
     0
  9
$DIMCLRE
 70
     0
  9
$DIMCLRT
 70
     0
  9
$DIMTFAC
 40
1.0
  9
$DIMGAP
 40
1.524
  9
$DIMJUST
 70
     0
  9
$DIMSD1
 70
     0
  9
$DIMSD2
 70
     0
  9
$DIMTOLJ
 70
     0
  9
$DIMTZIN
 70
     0
  9
$DIMALTZ
 70
     0
  9
$DIMALTTZ
 70
     0
  9
$DIMUPT
 70
     0
  9
$DIMDEC
 70
     3
  9
$DIMTDEC
 70
     3
  9
$DIMALTU
 70
     2
  9
$DIMALTTD
 70
     3
  9
$DIMTXSTY
  7
Standard
  9
$DIMAUNIT
 70
     0
  9
$DIMADEC
 70
     2
  9
$DIMALTRND
 40
0.0
  9
$DIMAZIN
 70
     0
  9
$DIMDSEP
 70
    44
  9
$DIMATFIT
 70
     3
  9
$DIMFRAC
 70
     0
  9
$DIMLDRBLK
  1

  9
$DIMLUNIT
 70
     2
  9
$DIMLWD
 70
    -2
  9
$DIMLWE
 70
    -2
  9
$DIMTMOVE
 70
     0
  9
$LUNITS
 70
     2
  9
$LUPREC
 70
     2
  9
$SKETCHINC
 40
1.0
  9
$FILLETRAD
 40
10.0
  9
$AUNITS
 70
     0
  9
$AUPREC
 70
     2
  9
$MENU
  1
.
  9
$ELEVATION
 40
0.0
  9
$PELEVATION
 40
0.0
  9
$THICKNESS
 40
0.0
  9
$LIMCHECK
 70
     0
  9
$CHAMFERA
 40
10.0
  9
$CHAMFERB
 40
10.0
  9
$CHAMFERC
 40
20.0
  9
$CHAMFERD
 40
0.0
  9
$SKPOLY
 70
     0
  9
$TDCREATE
 40
2458933.650776007
  9
$TDUCREATE
 40
2458933.525776007
  9
$TDUPDATE
 40
2458956.450377812
  9
$TDUUPDATE
 40
2458956.325377813
  9
$TDINDWG
 40
0.0002981713
  9
$TDUSRTIMER
 40
0.0002981713
  9
$USRTIMER
 70
     1
  9
$ANGBASE
 50
0.0
  9
$ANGDIR
 70
     0
  9
$PDMODE
 70
     0
  9
$PDSIZE
 40
-1.0
  9
$PLINEWID
 40
0.0
  9
$SPLFRAME
 70
     0
  9
$SPLINETYPE
 70
     6
  9
$SPLINESEGS
 70
     8
  9
$HANDSEED
  5
92F
  9
$SURFTAB1
 70
     6
  9
$SURFTAB2
 70
     6
  9
$SURFTYPE
 70
     6
  9
$SURFU
 70
     6
  9
$SURFV
 70
     6
  9
$UCSBASE
  2

  9
$UCSNAME
  2

  9
$UCSORG
 10
0.0
 20
0.0
 30
0.0
  9
$UCSXDIR
 10
1.0
 20
0.0
 30
0.0
  9
$UCSYDIR
 10
0.0
 20
1.0
 30
0.0
  9
$UCSORTHOREF
  2

  9
$UCSORTHOVIEW
 70
     0
  9
$UCSORGTOP
 10
0.0
 20
0.0
 30
0.0
  9
$UCSORGBOTTOM
 10
0.0
 20
0.0
 30
0.0
  9
$UCSORGLEFT
 10
0.0
 20
0.0
 30
0.0
  9
$UCSORGRIGHT
 10
0.0
 20
0.0
 30
0.0
  9
$UCSORGFRONT
 10
0.0
 20
0.0
 30
0.0
  9
$UCSORGBACK
 10
0.0
 20
0.0
 30
0.0
  9
$PUCSBASE
  2

  9
$PUCSNAME
  2

  9
$PUCSORG
 10
0.0
 20
0.0
 30
0.0
  9
$PUCSXDIR
 10
1.0
 20
0.0
 30
0.0
  9
$PUCSYDIR
 10
0.0
 20
1.0
 30
0.0
  9
$PUCSORTHOREF
  2

  9
$PUCSORTHOVIEW
 70
     0
  9
$PUCSORGTOP
 10
0.0
 20
0.0
 30
0.0
  9
$PUCSORGBOTTOM
 10
0.0
 20
0.0
 30
0.0
  9
$PUCSORGLEFT
 10
0.0
 20
0.0
 30
0.0
  9
$PUCSORGRIGHT
 10
0.0
 20
0.0
 30
0.0
  9
$PUCSORGFRONT
 10
0.0
 20
0.0
 30
0.0
  9
$PUCSORGBACK
 10
0.0
 20
0.0
 30
0.0
  9
$USERI1
 70
     0
  9
$USERI2
 70
     0
  9
$USERI3
 70
     0
  9
$USERI4
 70
     0
  9
$USERI5
 70
     0
  9
$USERR1
 40
0.0
  9
$USERR2
 40
0.0
  9
$USERR3
 40
0.0
  9
$USERR4
 40
0.0
  9
$USERR5
 40
0.0
  9
$WORLDVIEW
 70
     1
  9
$SHADEDGE
 70
     3
  9
$SHADEDIF
 70
    70
  9
$TILEMODE
 70
     1
  9
$MAXACTVP
 70
    64
  9
$PINSBASE
 10
0.0
 20
0.0
 30
0.0
  9
$PLIMCHECK
 70
     0
  9
$PEXTMIN
 10
1.000000000000000E+20
 20
1.000000000000000E+20
 30
1.000000000000000E+20
  9
$PEXTMAX
 10
-1.000000000000000E+20
 20
-1.000000000000000E+20
 30
-1.000000000000000E+20
  9
$PLIMMIN
 10
0.0
 20
0.0
  9
$PLIMMAX
 10
420.0
 20
297.0
  9
$UNITMODE
 70
     0
  9
$VISRETAIN
 70
     1
  9
$PLINEGEN
 70
     0
  9
$PSLTSCALE
 70
     1
  9
$TREEDEPTH
 70
  3020
  9
$CMLSTYLE
  2
Standard
  9
$CMLJUST
 70
     0
  9
$CMLSCALE
 40
20.0
  9
$PROXYGRAPHICS
 70
     1
  9
$MEASUREMENT
 70
     1
  9
$CELWEIGHT
370
    -1
  9
$ENDCAPS
280
     0
  9
$JOINSTYLE
280
     0
  9
$LWDISPLAY
290
     1
  9
$INSUNITS
 70
     4
  9
$HYPERLINKBASE
  1

  9
$STYLESHEET
  1

  9
$XEDIT
290
     1
  9
$CEPSNTYPE
380
     0
  9
$PSTYLEMODE
290
     1
  9
$FINGERPRINTGUID
  2
{DF9FA7A7-936F-41A0-B280-38DA42730314}
  9
$VERSIONGUID
  2
{C3661DE5-6B7C-46A7-91EC-C5BFAAE97FB2}
  9
$EXTNAMES
290
     1
  9
$PSVPSCALE
 40
0.0
  9
$OLESTARTUP
290
     0
  0
ENDSEC
  0
SECTION
  2
CLASSES
  0
CLASS
  1
ACDBDICTIONARYWDFLT
  2
AcDbDictionaryWithDefault
  3
ObjectDBX Classes
 90
        0
280
     0
281
     0
  0
CLASS
  1
VISUALSTYLE
  2
AcDbVisualStyle
  3
ObjectDBX Classes
 90
     4095
280
     0
281
     0
  0
CLASS
  1
MATERIAL
  2
AcDbMaterial
  3
ObjectDBX Classes
 90
     1153
280
     0
281
     0
  0
CLASS
  1
ACDBPLACEHOLDER
  2
AcDbPlaceHolder
  3
ObjectDBX Classes
 90
        0
280
     0
281
     0
  0
CLASS
  1
LAYOUT
  2
AcDbLayout
  3
ObjectDBX Classes
 90
        0
280
     0
281
     0
  0
CLASS
  1
TABLESTYLE
  2
AcDbTableStyle
  3
ObjectDBX Classes
 90
     4095
280
     0
281
     0
  0
CLASS
  1
SCALE
  2
AcDbScale
  3
ObjectDBX Classes
 90
     1153
280
     0
281
     0
  0
CLASS
  1
MLEADERSTYLE
  2
AcDbMLeaderStyle
  3
ACDB_MLEADERSTYLE_CLASS
 90
     4095
280
     0
281
     0
  0
CLASS
  1
CELLSTYLEMAP
  2
AcDbCellStyleMap
  3
ObjectDBX Classes
 90
     1152
280
     0
281
     0
  0
CLASS
  1
DICTIONARYVAR
  2
AcDbDictionaryVar
  3
ObjectDBX Classes
 90
        0
280
     0
281
     0
  0
ENDSEC
  0
SECTION
  2
TABLES
  0
TABLE
  2
VPORT
  5
8
330
0
100
AcDbSymbolTable
 70
     1
  0
VPORT
  5
29
330
8
100
AcDbSymbolTableRecord
100
AcDbViewportTableRecord
  2
*Active
 70
     0
 10
0.0
 20
0.0
 11
1.0
 21
1.0
 12
138.2088289763739
 22
162.9606949464227
 13
0.0
 23
0.0
 14
10.0
 24
10.0
 15
10.0
 25
10.0
 16
0.0
 26
0.0
 36
1.0
 17
0.0
 27
0.0
 37
0.0
 40
246.0095291008636
 41
1.903110047846889
 42
50.0
 43
0.0
 44
0.0
 50
0.0
 51
0.0
 71
     0
 72
  2000
 73
     1
 74
     3
 75
     0
 76
     0
 77
     0
 78
     0
281
     0
 65
     1
110
0.0
120
0.0
130
0.0
111
1.0
121
0.0
131
0.0
112
0.0
122
1.0
132
0.0
 79
     0
146
0.0
  0
ENDTAB
  0
TABLE
  2
LTYPE
  5
5
330
0
100
AcDbSymbolTable
 70
     6
  0
LTYPE
  5
14
330
5
100
AcDbSymbolTableRecord
100
AcDbLinetypeTableRecord
  2
ByBlock
 70
     0
  3

 72
    65
 73
     0
 40
0.0
  0
LTYPE
  5
15
330
5
100
AcDbSymbolTableRecord
100
AcDbLinetypeTableRecord
  2
ByLayer
 70
     0
  3

 72
    65
 73
     0
 40
0.0
  0
LTYPE
  5
16
330
5
100
AcDbSymbolTableRecord
100
AcDbLinetypeTableRecord
  2
Continuous
 70
     0
  3
Solid line
 72
    65
 73
     0
 40
0.0
  0
LTYPE
  5
3F
330
5
100
AcDbSymbolTableRecord
100
AcDbLinetypeTableRecord
  2
HIDDEN
 70
     0
  3
Hidden __ __ __ __ __ __ __ __ __ __ __ __ __ __
 72
    65
 73
     2
 40
1.905
 49
1.27
 74
     0
 49
-0.635
 74
     0
  0
LTYPE
  5
40
330
5
100
AcDbSymbolTableRecord
100
AcDbLinetypeTableRecord
  2
PHANTOM
 70
     0
  3
Phantom ______  __  __  ______  __  __  ______
 72
    65
 73
     6
 40
12.7
 49
6.349999999999999
 74
     0
 49
-1.27
 74
     0
 49
1.27
 74
     0
 49
-1.27
 74
     0
 49
1.27
 74
     0
 49
-1.27
 74
     0
  0
LTYPE
  5
41
330
5
100
AcDbSymbolTableRecord
100
AcDbLinetypeTableRecord
  2
CENTER
 70
     0
  3
Center ____ _ ____ _ ____ _ ____ _ ____ _ ____
 72
    65
 73
     4
 40
10.16
 49
6.349999999999999
 74
     0
 49
-1.27
 74
     0
 49
1.27
 74
     0
 49
-1.27
 74
     0
  0
LTYPE
  5
42
330
5
100
AcDbSymbolTableRecord
100
AcDbLinetypeTableRecord
  2
CENTERX2
 70
     0
  3
Center (2x) ________  __  ________  __  _____
 72
    65
 73
     4
 40
20.32
 49
12.7
 74
     0
 49
-2.54
 74
     0
 49
2.54
 74
     0
 49
-2.54
 74
     0
  0
LTYPE
  5
43
330
5
100
AcDbSymbolTableRecord
100
AcDbLinetypeTableRecord
  2
DOT2
 70
     0
  3
Dot (.5x) ........................................
 72
    65
 73
     2
 40
0.635
 49
0.0
 74
     0
 49
-0.635
 74
     0
  0
ENDTAB
  0
TABLE
  2
LAYER
  5
2
330
0
100
AcDbSymbolTable
 70
     1
  0
LAYER
  5
10
102
{ACAD_XDICTIONARY
360
911
102
}
330
2
100
AcDbSymbolTableRecord
100
AcDbLayerTableRecord
  2
0
 70
     0
 62
     7
  6
Continuous
370
    -3
390
F
  0
ENDTAB
  0
TABLE
  2
STYLE
  5
3
330
0
100
AcDbSymbolTable
 70
     1
  0
STYLE
  5
11
330
3
100
AcDbSymbolTableRecord
100
AcDbTextStyleTableRecord
  2
Standard
 70
     0
 40
0.0
 41
1.0
 50
0.0
 71
     0
 42
2.5
  3
txt
  4

  0
ENDTAB
  0
TABLE
  2
VIEW
  5
6
330
0
100
AcDbSymbolTable
 70
     0
  0
ENDTAB
  0
TABLE
  2
UCS
  5
7
330
0
100
AcDbSymbolTable
 70
     0
  0
ENDTAB
  0
TABLE
  2
APPID
  5
9
330
0
100
AcDbSymbolTable
 70
     2
  0
APPID
  5
12
330
9
100
AcDbSymbolTableRecord
100
AcDbRegAppTableRecord
  2
ACAD
 70
     0
  0
APPID
  5
4CA
330
9
100
AcDbSymbolTableRecord
100
AcDbRegAppTableRecord
  2
ACAD_MLEADERVER
 70
     0
  0
ENDTAB
  0
TABLE
  2
DIMSTYLE
  5
A
330
0
100
AcDbSymbolTable
 70
     1
100
AcDbDimStyleTable
 71
     0
  0
DIMSTYLE
105
27
330
A
100
AcDbSymbolTableRecord
100
AcDbDimStyleTableRecord
  2
ISO-25
 70
     0
 41
2.5
 42
0.625
 43
3.75
 44
1.25
 73
     0
 74
     0
 77
     1
 78
     8
140
2.5
141
2.5
143
0.03937007874016
147
0.625
171
     3
172
     1
271
     2
272
     2
274
     3
278
    44
283
     0
284
     8
340
11
  0
ENDTAB
  0
TABLE
  2
BLOCK_RECORD
  5
1
330
0
100
AcDbSymbolTable
 70
     5
  0
BLOCK_RECORD
  5
1F
330
1
100
AcDbSymbolTableRecord
100
AcDbBlockTableRecord
  2
*Model_Space
340
22
  0
BLOCK_RECORD
  5
1B
330
1
100
AcDbSymbolTableRecord
100
AcDbBlockTableRecord
  2
*Paper_Space
340
1E
  0
BLOCK_RECORD
  5
23
330
1
100
AcDbSymbolTableRecord
100
AcDbBlockTableRecord
  2
*Paper_Space0
340
26
  0
BLOCK_RECORD
  5
4CD
330
1
100
AcDbSymbolTableRecord
100
AcDbBlockTableRecord
  2
1
340
0
310
2800000020000000200000000100080000000000000400000000000000000000000000000000000000000000000080000080000000808000800000008000800080800000C0C0C000C0DCC000F0CAA6000020400000206000002080000020A0000020C0000020E00000400000004020000040400000406000004080000040A0
310
000040C0000040E00000600000006020000060400000606000006080000060A0000060C0000060E00000800000008020000080400000806000008080000080A0000080C0000080E00000A0000000A0200000A0400000A0600000A0800000A0A00000A0C00000A0E00000C0000000C0200000C0400000C0600000C0800000C0
310
A00000C0C00000C0E00000E0000000E0200000E0400000E0600000E0800000E0A00000E0C00000E0E00040000000400020004000400040006000400080004000A0004000C0004000E00040200000402020004020400040206000402080004020A0004020C0004020E000404000004040200040404000404060004040800040
310
40A0004040C0004040E00040600000406020004060400040606000406080004060A0004060C0004060E00040800000408020004080400040806000408080004080A0004080C0004080E00040A0000040A0200040A0400040A0600040A0800040A0A00040A0C00040A0E00040C0000040C0200040C0400040C0600040C08000
310
40C0A00040C0C00040C0E00040E0000040E0200040E0400040E0600040E0800040E0A00040E0C00040E0E00080000000800020008000400080006000800080008000A0008000C0008000E00080200000802020008020400080206000802080008020A0008020C0008020E00080400000804020008040400080406000804080
310
008040A0008040C0008040E00080600000806020008060400080606000806080008060A0008060C0008060E00080800000808020008080400080806000808080008080A0008080C0008080E00080A0000080A0200080A0400080A0600080A0800080A0A00080A0C00080A0E00080C0000080C0200080C0400080C0600080C0
310
800080C0A00080C0C00080C0E00080E0000080E0200080E0400080E0600080E0800080E0A00080E0C00080E0E000C0000000C0002000C0004000C0006000C0008000C000A000C000C000C000E000C0200000C0202000C0204000C0206000C0208000C020A000C020C000C020E000C0400000C0402000C0404000C0406000C0
310
408000C040A000C040C000C040E000C0600000C0602000C0604000C0606000C0608000C060A000C060C000C060E000C0800000C0802000C0804000C0806000C0808000C080A000C080C000C080E000C0A00000C0A02000C0A04000C0A06000C0A08000C0A0A000C0A0C000C0A0E000C0C00000C0C02000C0C04000C0C06000
310
C0C08000C0C0A000F0FBFF00A4A0A000808080000000FF0000FF000000FFFF00FF000000FF00FF00FFFF0000FFFFFF0000000000000000000000000000000000000000000000000000000000000000000000000000000000000000000000000000000000000000000000000000000000000000000000000000000000000000
310
00000000000000000000000000000000000000000000000000000000000000000000000000000000000000000000000000000000000000000000000000000000000000000000000000000000000000000000000000000000000000000000000000000000000000000000000000000000000000000000000000000000000000
310
0000000000000000000000000000000000000000000000000000000000000000000000000000000000000000000000000000000000000000000000000000000000000000000000000000000000000000000000000000000000000000000000000000000000000000000000000000000000000000FFFF00FFFF00FFFF00FFFF
310
00FF0000FF00FFFF00FFFF00FFFF00FFFF00000000FFFF00FFFF00FFFF00FFFF00FFFFFFFF00FFFF00FFFF00FFFF00FFFF00000000FFFF00FFFF00FFFF00FFFF00FFFFFFFF00FFFF00FFFF00FFFF00FFFF00000000FFFF00FFFF00FFFF00FFFF00FFFFFFFF00FFFF00FFFF00FFFF00FFFF00000000FFFF00FFFF00FFFF00FF
310
FF00FFFFFFFF00FFFF00FFFF00FFFF00FFFF00000000FFFF00FFFF00FFFF00FFFF00FFFFFFFF00FFFF00FFFF00FFFF00FFFF00000000FFFFFFFFFF00FFFFFFFFFFFFFFFFFFFFFFFFFFFFFFFF00FFFFFFFFFF00000000FFFFFFFFFFFFFFFFFFFFFFFFFFFFFFFFFFFFFFFFFFFFFFFFFFFFFFFF000000FFFF00FFFFFFFF00FFFF
310
00FFFF00FFFF00FFFF00FFFF00FFFFFFFF00FFFF0000FF00000000000000000000000000000000000000000000000000000000FF0000FFFFFFFFFFFFFFFFFFFFFFFFFFFFFFFFFFFFFFFFFFFFFFFFFFFFFFFFFFFF0000FFFFFFFFFFFFFFFFFFFFFFFFFFFFFFFFFFFFFFFFFFFFFFFFFFFFFFFFFFFF0000000000000000000000
310
00000000000000000000000000000000000000000000000000000000000000000000000000000000000000000000000000000000000000000000000000000000000000000000000000000000000000000000000000000000000000000000000000000000000000000000000000000000000000000000000000000000000000
310
00000000000000000000000000000000000000000000000000000000000000000000000000000000000000000000000000000000000000000000000000000000000000000000000000000000000000000000000000000000000000000000000000000000000000000000000000000000000000000000000000000000000000
310
0000000000000000000000000000000000000000000000000000000000000000000000000000000000000000000000000000000000000000
102
{BLKREFS
331
62B
102
}
1001
ACAD
1000
DesignCenter Data
1002
{
1070
     1
1070
     4
1002
}
  0
BLOCK_RECORD
  5
62C
330
1
100
AcDbSymbolTableRecord
100
AcDbBlockTableRecord
  2
2
340
0
310
2800000020000000200000000100080000000000000400000000000000000000000000000000000000000000000080000080000000808000800000008000800080800000C0C0C000C0DCC000F0CAA6000020400000206000002080000020A0000020C0000020E00000400000004020000040400000406000004080000040A0
310
000040C0000040E00000600000006020000060400000606000006080000060A0000060C0000060E00000800000008020000080400000806000008080000080A0000080C0000080E00000A0000000A0200000A0400000A0600000A0800000A0A00000A0C00000A0E00000C0000000C0200000C0400000C0600000C0800000C0
310
A00000C0C00000C0E00000E0000000E0200000E0400000E0600000E0800000E0A00000E0C00000E0E00040000000400020004000400040006000400080004000A0004000C0004000E00040200000402020004020400040206000402080004020A0004020C0004020E000404000004040200040404000404060004040800040
310
40A0004040C0004040E00040600000406020004060400040606000406080004060A0004060C0004060E00040800000408020004080400040806000408080004080A0004080C0004080E00040A0000040A0200040A0400040A0600040A0800040A0A00040A0C00040A0E00040C0000040C0200040C0400040C0600040C08000
310
40C0A00040C0C00040C0E00040E0000040E0200040E0400040E0600040E0800040E0A00040E0C00040E0E00080000000800020008000400080006000800080008000A0008000C0008000E00080200000802020008020400080206000802080008020A0008020C0008020E00080400000804020008040400080406000804080
310
008040A0008040C0008040E00080600000806020008060400080606000806080008060A0008060C0008060E00080800000808020008080400080806000808080008080A0008080C0008080E00080A0000080A0200080A0400080A0600080A0800080A0A00080A0C00080A0E00080C0000080C0200080C0400080C0600080C0
310
800080C0A00080C0C00080C0E00080E0000080E0200080E0400080E0600080E0800080E0A00080E0C00080E0E000C0000000C0002000C0004000C0006000C0008000C000A000C000C000C000E000C0200000C0202000C0204000C0206000C0208000C020A000C020C000C020E000C0400000C0402000C0404000C0406000C0
310
408000C040A000C040C000C040E000C0600000C0602000C0604000C0606000C0608000C060A000C060C000C060E000C0800000C0802000C0804000C0806000C0808000C080A000C080C000C080E000C0A00000C0A02000C0A04000C0A06000C0A08000C0A0A000C0A0C000C0A0E000C0C00000C0C02000C0C04000C0C06000
310
C0C08000C0C0A000F0FBFF00A4A0A000808080000000FF0000FF000000FFFF00FF000000FF00FF00FFFF0000FFFFFF0000000000000000000000000000000000000000000000000000000000000000000000000000000000000000000000FFFFFFFF00000000000000000000000000000000000000000000000000000000FF
310
FFFFFF00000000000000000000000000000000000000000000000000000000FF0000FF00000000000000000000000000000000000000000000000000000000FFFFFFFF00000000000000000000000000000000000000000000000000000000FF0000FF00000000000000000000000000000000000000000000000000000000
310
FF0000FF00000000000000000000000000000000000000000000000000000000FF0000FF00000000000000000000000000000000000000000000000000000000FF0000FF00000000000000000000000000000000000000000000000000000000FFFFFFFF000000000000000000000000000000000000000000000000000000
310
0000FFFF000000000000000000000000000000000000000000000000000000000000FFFF000000000000000000000000000000000000000000000000000000000000FFFF000000000000000000000000000000000000000000000000000000000000FFFF000000000000000000000000000000000000000000000000000000
310
000000FFFF000000000000000000000000000000000000000000000000000000000000FFFF0000000000000000000000000000000000000000000000000000000000FFFFFFFF00000000000000000000000000000000000000000000000000000000FF0000FF00000000000000000000000000000000000000000000000000
310
000000FFFFFFFF00000000000000000000000000000000000000000000000000000000FFFFFFFF00000000000000000000000000000000000000000000000000000000FF0000FF00000000000000000000000000000000000000000000000000000000FF0000FF000000000000000000000000000000000000000000000000
310
00000000FFFFFFFF00000000000000000000000000000000000000000000000000000000FF0000FF00000000000000000000000000000000000000000000000000000000FF0000FF00000000000000000000000000000000000000000000000000000000FF0000FF0000000000000000000000000000000000000000000000
310
0000000000FF0000FF00000000000000000000000000000000000000000000000000000000FF0000FF000000000000000000000000000000000000000000000000000000FFFF0000FFFF0000000000000000000000000000000000000000000000000000FF00000000FF000000000000000000000000000000000000000000
310
0000000000FFFFFFFFFFFF000000000000000000000000000000000000000000000000000000000000000000000000000000000000000000
102
{BLKREFS
331
66A
102
}
1001
ACAD
1000
DesignCenter Data
1002
{
1070
     1
1070
     4
1002
}
  0
BLOCK_RECORD
  5
66B
330
1
100
AcDbSymbolTableRecord
100
AcDbBlockTableRecord
  2
3
340
0
310
2800000020000000200000000100080000000000000400000000000000000000000000000000000000000000000080000080000000808000800000008000800080800000C0C0C000C0DCC000F0CAA6000020400000206000002080000020A0000020C0000020E00000400000004020000040400000406000004080000040A0
310
000040C0000040E00000600000006020000060400000606000006080000060A0000060C0000060E00000800000008020000080400000806000008080000080A0000080C0000080E00000A0000000A0200000A0400000A0600000A0800000A0A00000A0C00000A0E00000C0000000C0200000C0400000C0600000C0800000C0
310
A00000C0C00000C0E00000E0000000E0200000E0400000E0600000E0800000E0A00000E0C00000E0E00040000000400020004000400040006000400080004000A0004000C0004000E00040200000402020004020400040206000402080004020A0004020C0004020E000404000004040200040404000404060004040800040
310
40A0004040C0004040E00040600000406020004060400040606000406080004060A0004060C0004060E00040800000408020004080400040806000408080004080A0004080C0004080E00040A0000040A0200040A0400040A0600040A0800040A0A00040A0C00040A0E00040C0000040C0200040C0400040C0600040C08000
310
40C0A00040C0C00040C0E00040E0000040E0200040E0400040E0600040E0800040E0A00040E0C00040E0E00080000000800020008000400080006000800080008000A0008000C0008000E00080200000802020008020400080206000802080008020A0008020C0008020E00080400000804020008040400080406000804080
310
008040A0008040C0008040E00080600000806020008060400080606000806080008060A0008060C0008060E00080800000808020008080400080806000808080008080A0008080C0008080E00080A0000080A0200080A0400080A0600080A0800080A0A00080A0C00080A0E00080C0000080C0200080C0400080C0600080C0
310
800080C0A00080C0C00080C0E00080E0000080E0200080E0400080E0600080E0800080E0A00080E0C00080E0E000C0000000C0002000C0004000C0006000C0008000C000A000C000C000C000E000C0200000C0202000C0204000C0206000C0208000C020A000C020C000C020E000C0400000C0402000C0404000C0406000C0
310
408000C040A000C040C000C040E000C0600000C0602000C0604000C0606000C0608000C060A000C060C000C060E000C0800000C0802000C0804000C0806000C0808000C080A000C080C000C080E000C0A00000C0A02000C0A04000C0A06000C0A08000C0A0A000C0A0C000C0A0E000C0C00000C0C02000C0C04000C0C06000
310
C0C08000C0C0A000F0FBFF00A4A0A000808080000000FF0000FF000000FFFF00FF000000FF00FF00FFFF0000FFFFFF0000000000000000000000000000000000000000000000000000000000000000000000000000000000000000000000000000000000000000000000000000000000000000000000000000000000000000
310
00000000000000000000000000000000000000000000000000000000000000000000000000000000000000000000000000000000000000000000000000000000000000000000000000000000000000000000000000000000000000000000000000000000000000000000000000000000000000000000000000000000000000
310
00000000000000000000000000000000000000000000000000000000000000000000000000000000000000000000000000000000000000000000000000000000000000000000000000000000000000000000000000000000000000000000000000000000000000000000000000000000000000000000000000000000000000
310
00000000000000000000000000000000000000000000000000000000000000000000000000000000000000000000000000000000000000000000000000000000000000000000000000000000000000000000000000000000000000000000000000000000000000000000000000000000000000000000000000000000000000
310
000000000000000000000000000000000000000000FFFFFFFFFFFFFFFFFFFFFFFFFFFFFFFFFFFFFFFFFFFFFFFFFFFFFFFFFFFF0000FFFFFFFFFFFFFFFFFFFFFFFFFFFFFFFFFFFFFFFFFFFFFFFFFFFFFFFFFFFF0000000000000000000000000000000000000000000000000000000000000000000000000000000000000000
310
00000000000000000000000000000000000000000000000000000000000000000000000000000000000000000000000000000000000000000000000000000000000000000000000000000000000000000000000000000000000000000000000000000000000000000000000000000000000000000000000000000000000000
310
00000000000000000000000000000000000000000000000000000000000000000000000000000000000000000000000000000000000000000000000000000000000000000000000000000000000000000000000000000000000000000000000000000000000000000000000000000000000000000000000000000000000000
310
00000000000000000000000000000000000000000000000000000000000000000000000000000000000000000000000000000000000000000000000000000000000000000000000000000000000000000000000000000000000000000000000000000000000000000000000000000000000000000000000000000000000000
310
0000000000000000000000000000000000000000000000000000000000000000000000000000000000000000000000000000000000000000
102
{BLKREFS
331
672
102
}
1001
ACAD
1000
DesignCenter Data
1002
{
1070
     1
1070
     4
1002
}
  0
BLOCK_RECORD
  5
673
330
1
100
AcDbSymbolTableRecord
100
AcDbBlockTableRecord
  2
4
340
0
310
2800000020000000200000000100080000000000000400000000000000000000000000000000000000000000000080000080000000808000800000008000800080800000C0C0C000C0DCC000F0CAA6000020400000206000002080000020A0000020C0000020E00000400000004020000040400000406000004080000040A0
310
000040C0000040E00000600000006020000060400000606000006080000060A0000060C0000060E00000800000008020000080400000806000008080000080A0000080C0000080E00000A0000000A0200000A0400000A0600000A0800000A0A00000A0C00000A0E00000C0000000C0200000C0400000C0600000C0800000C0
310
A00000C0C00000C0E00000E0000000E0200000E0400000E0600000E0800000E0A00000E0C00000E0E00040000000400020004000400040006000400080004000A0004000C0004000E00040200000402020004020400040206000402080004020A0004020C0004020E000404000004040200040404000404060004040800040
310
40A0004040C0004040E00040600000406020004060400040606000406080004060A0004060C0004060E00040800000408020004080400040806000408080004080A0004080C0004080E00040A0000040A0200040A0400040A0600040A0800040A0A00040A0C00040A0E00040C0000040C0200040C0400040C0600040C08000
310
40C0A00040C0C00040C0E00040E0000040E0200040E0400040E0600040E0800040E0A00040E0C00040E0E00080000000800020008000400080006000800080008000A0008000C0008000E00080200000802020008020400080206000802080008020A0008020C0008020E00080400000804020008040400080406000804080
310
008040A0008040C0008040E00080600000806020008060400080606000806080008060A0008060C0008060E00080800000808020008080400080806000808080008080A0008080C0008080E00080A0000080A0200080A0400080A0600080A0800080A0A00080A0C00080A0E00080C0000080C0200080C0400080C0600080C0
310
800080C0A00080C0C00080C0E00080E0000080E0200080E0400080E0600080E0800080E0A00080E0C00080E0E000C0000000C0002000C0004000C0006000C0008000C000A000C000C000C000E000C0200000C0202000C0204000C0206000C0208000C020A000C020C000C020E000C0400000C0402000C0404000C0406000C0
310
408000C040A000C040C000C040E000C0600000C0602000C0604000C0606000C0608000C060A000C060C000C060E000C0800000C0802000C0804000C0806000C0808000C080A000C080C000C080E000C0A00000C0A02000C0A04000C0A06000C0A08000C0A0A000C0A0C000C0A0E000C0C00000C0C02000C0C04000C0C06000
310
C0C08000C0C0A000F0FBFF00A4A0A000808080000000FF0000FF000000FFFF00FF000000FF00FF00FFFF0000FFFFFF0000000000000000000000000000000000000000000000000000000000000000000000000000000000000000000000000000000000000000000000000000000000000000000000000000000000000000
310
000000000000000000000000FFFF000000000000000000000000000000000000000000000000000000000000FFFFFF0000000000000000000000000000000000000000000000000000FFFFFFFFFFFF000000000000000000000000000000000000000000000000FF00FFFFFFFFFFFF00000000000000000000000000000000
310
00000000000000FFFFFFFFFFFFFFFFFF000000000000000000000000000000000000000000FFFFFFFFFFFFFFFFFFFF00000000000000000000000000000000000000FFFF00FFFFFFFFFFFFFFFFFFFFFF000000000000000000000000000000000000FFFFFFFFFFFFFFFFFFFFFF00FFFF000000000000000000000000000000
310
FFFFFFFFFFFFFFFF00FFFFFFFFFFFFFFFF00000000000000000000000000FF00FFFFFFFFFFFFFFFF00FFFFFFFFFF00FFFF00000000000000000000000000FFFFFFFFFFFFFFFFFFFFFFFFFFFFFF0000FFFF00000000000000000000FFFFFFFFFFFFFFFFFFFFFFFFFFFFFFFFFF00FFFFFFFFFF00000000000000FF00FFFFFFFF
310
FFFFFFFFFFFFFFFFFFFF0000FFFFFFFF00FFFF000000000000FFFFFFFFFFFFFFFFFFFFFFFFFFFFFFFF0000FFFFFF0000FFFF0000000000FF00FFFFFFFFFFFFFFFFFFFFFFFFFFFF0000FFFFFF0000FFFF000000000000FFFFFFFFFFFFFFFF00FFFFFFFFFF000000FFFFFF0000FFFF0000000000000000FFFFFFFFFFFFFFFFFF
310
FFFFFF00FF0000FFFF0000FFFF00000000000000000000FFFFFFFFFFFFFFFFFFFFFFFF0000FFFFFF0000FF000000000000000000000000FFFFFFFFFFFFFFFFFF000000FFFFFF0000FFFF0000000000000000000000000000FFFFFFFFFFFFFF0000FFFFFF0000FFFF000000000000000000000000000000FFFFFFFFFFFF0000
310
00FFFF0000FFFF0000000000000000000000000000000000FFFFFFFFFF0000FFFF0000FFFF00000000000000000000000000000000000000FFFFFFFF00FFFFFF0000FF000000000000000000000000000000000000000000FF000000FFFF0000FFFF00000000000000000000000000000000000000000000FF00FFFF0000FF
310
FF000000000000000000000000000000000000000000000000FFFF0000FFFF00000000000000000000000000000000000000000000000000FFFF00FFFF00000000000000000000000000000000000000000000000000000000FFFF000000000000000000000000000000000000000000000000000000000000000000000000
310
0000000000000000000000000000000000000000000000000000000000000000000000000000000000000000000000000000000000000000
102
{BLKREFS
331
910
102
}
1001
ACAD
1000
DesignCenter Data
1002
{
1070
     1
1070
     4
1002
}
  0
ENDTAB
  0
ENDSEC
  0
SECTION
  2
BLOCKS
  0
BLOCK
  5
20
330
1F
100
AcDbEntity
  8
0
100
AcDbBlockBegin
  2
*Model_Space
 70
     0
 10
0.0
 20
0.0
 30
0.0
  3
*Model_Space
  1

  0
ENDBLK
  5
21
330
1F
100
AcDbEntity
  8
0
100
AcDbBlockEnd
  0
BLOCK
  5
1C
330
1B
100
AcDbEntity
 67
     1
  8
0
100
AcDbBlockBegin
  2
*Paper_Space
 70
     0
 10
0.0
 20
0.0
 30
0.0
  3
*Paper_Space
  1

  0
ENDBLK
  5
1D
330
1B
100
AcDbEntity
 67
     1
  8
0
100
AcDbBlockEnd
  0
BLOCK
  5
24
330
23
100
AcDbEntity
 67
     1
  8
0
100
AcDbBlockBegin
  2
*Paper_Space0
 70
     0
 10
0.0
 20
0.0
 30
0.0
  3
*Paper_Space0
  1

  0
ENDBLK
  5
25
330
23
100
AcDbEntity
 67
     1
  8
0
100
AcDbBlockEnd
  0
BLOCK
  5
4CE
330
4CD
100
AcDbEntity
  8
0
100
AcDbBlockBegin
  2
1
 70
     0
 10
0.0
 20
0.0
 30
0.0
  3
1
  1

  0
LINE
  5
4D0
330
4CD
100
AcDbEntity
  8
0
  6
Continuous
 62
     7
370
    15
100
AcDbLine
 10
135.6498984586401
 20
161.806958842819
 30
0.0
 11
54.24989702144053
 21
161.806958842819
 31
0.0
  0
LINE
  5
4D1
330
4CD
100
AcDbEntity
  8
0
  6
Continuous
 62
     7
370
    15
100
AcDbLine
 10
135.6498984586401
 20
163.006958842819
 30
0.0
 11
54.24989702144053
 21
163.006958842819
 31
0.0
  0
LINE
  5
4D2
330
4CD
100
AcDbEntity
  8
0
  6
Continuous
 62
     7
370
    15
100
AcDbLine
 10
135.6498984586401
 20
161.806958842819
 30
0.0
 11
135.6498984586401
 21
163.006958842819
 31
0.0
  0
LINE
  5
4D3
330
4CD
100
AcDbEntity
  8
0
  6
Continuous
 62
     7
370
    15
100
AcDbLine
 10
54.24989702144053
 20
163.006958842819
 30
0.0
 11
54.24989702144053
 21
161.806958842819
 31
0.0
  0
LINE
  5
4D4
330
4CD
100
AcDbEntity
  8
0
  6
Continuous
 62
     7
370
    15
100
AcDbLine
 10
116.6998941365758
 20
153.1069588428189
 30
0.0
 11
114.1998941365759
 21
153.1069588428189
 31
0.0
  0
LINE
  5
4D5
330
4CD
100
AcDbEntity
  8
0
  6
Continuous
 62
     7
370
    15
100
AcDbLine
 10
116.6998941365758
 20
151.806958842819
 30
0.0
 11
116.6998941365758
 21
153.1069588428189
 31
0.0
  0
LINE
  5
4D6
330
4CD
100
AcDbEntity
  8
0
  6
Continuous
 62
     7
370
    15
100
AcDbLine
 10
116.6998941365758
 20
151.806958842819
 30
0.0
 11
114.1998941365759
 21
151.806958842819
 31
0.0
  0
LINE
  5
4D7
330
4CD
100
AcDbEntity
  8
0
  6
Continuous
 62
     7
370
    15
100
AcDbLine
 10
114.1998941365759
 20
151.806958842819
 30
0.0
 11
114.1998941365759
 21
153.1069588428189
 31
0.0
  0
LINE
  5
4D8
330
4CD
100
AcDbEntity
  8
0
  6
Continuous
 62
     7
370
    15
100
AcDbLine
 10
124.8998941365758
 20
153.1069588428189
 30
0.0
 11
122.3998941365759
 21
153.1069588428189
 31
0.0
  0
LINE
  5
4D9
330
4CD
100
AcDbEntity
  8
0
  6
Continuous
 62
     7
370
    15
100
AcDbLine
 10
124.8998941365758
 20
151.806958842819
 30
0.0
 11
122.3998941365759
 21
151.806958842819
 31
0.0
  0
LINE
  5
4DA
330
4CD
100
AcDbEntity
  8
0
  6
Continuous
 62
     7
370
    15
100
AcDbLine
 10
122.3998941365759
 20
151.806958842819
 30
0.0
 11
122.3998941365759
 21
153.1069588428189
 31
0.0
  0
LINE
  5
4DB
330
4CD
100
AcDbEntity
  8
0
  6
Continuous
 62
     7
370
    15
100
AcDbLine
 10
124.8998941365758
 20
151.806958842819
 30
0.0
 11
124.8998941365758
 21
153.1069588428189
 31
0.0
  0
LINE
  5
4DC
330
4CD
100
AcDbEntity
  8
0
  6
Continuous
 62
     7
370
    15
100
AcDbLine
 10
92.0998941365759
 20
153.1069588428189
 30
0.0
 11
89.59989413657595
 21
153.1069588428189
 31
0.0
  0
LINE
  5
4DD
330
4CD
100
AcDbEntity
  8
0
  6
Continuous
 62
     7
370
    15
100
AcDbLine
 10
92.0998941365759
 20
151.806958842819
 30
0.0
 11
92.0998941365759
 21
153.1069588428189
 31
0.0
  0
LINE
  5
4DE
330
4CD
100
AcDbEntity
  8
0
  6
Continuous
 62
     7
370
    15
100
AcDbLine
 10
92.0998941365759
 20
151.806958842819
 30
0.0
 11
89.59989413657595
 21
151.806958842819
 31
0.0
  0
LINE
  5
4DF
330
4CD
100
AcDbEntity
  8
0
  6
Continuous
 62
     7
370
    15
100
AcDbLine
 10
89.59989413657595
 20
151.806958842819
 30
0.0
 11
89.59989413657595
 21
153.1069588428189
 31
0.0
  0
LINE
  5
4E0
330
4CD
100
AcDbEntity
  8
0
  6
Continuous
 62
     7
370
    15
100
AcDbLine
 10
100.2998941365759
 20
151.806958842819
 30
0.0
 11
100.2998941365759
 21
153.1069588428189
 31
0.0
  0
LINE
  5
4E1
330
4CD
100
AcDbEntity
  8
0
  6
Continuous
 62
     7
370
    15
100
AcDbLine
 10
100.2998941365759
 20
151.806958842819
 30
0.0
 11
97.79989413657595
 21
151.806958842819
 31
0.0
  0
LINE
  5
4E2
330
4CD
100
AcDbEntity
  8
0
  6
Continuous
 62
     7
370
    15
100
AcDbLine
 10
97.79989413657595
 20
151.806958842819
 30
0.0
 11
97.79989413657595
 21
153.1069588428189
 31
0.0
  0
LINE
  5
4E3
330
4CD
100
AcDbEntity
  8
0
  6
Continuous
 62
     7
370
    15
100
AcDbLine
 10
100.2998941365759
 20
153.1069588428189
 30
0.0
 11
97.79989413657595
 21
153.1069588428189
 31
0.0
  0
LINE
  5
4E4
330
4CD
100
AcDbEntity
  8
0
  6
Continuous
 62
     7
370
    15
100
AcDbLine
 10
67.49989413657594
 20
151.806958842819
 30
0.0
 11
64.999894136576
 21
151.806958842819
 31
0.0
  0
LINE
  5
4E5
330
4CD
100
AcDbEntity
  8
0
  6
Continuous
 62
     7
370
    15
100
AcDbLine
 10
67.49989413657594
 20
153.1069588428189
 30
0.0
 11
64.999894136576
 21
153.1069588428189
 31
0.0
  0
LINE
  5
4E6
330
4CD
100
AcDbEntity
  8
0
  6
Continuous
 62
     7
370
    15
100
AcDbLine
 10
67.49989413657594
 20
151.806958842819
 30
0.0
 11
67.49989413657594
 21
153.1069588428189
 31
0.0
  0
LINE
  5
4E7
330
4CD
100
AcDbEntity
  8
0
  6
Continuous
 62
     7
370
    15
100
AcDbLine
 10
64.999894136576
 20
151.806958842819
 30
0.0
 11
64.999894136576
 21
153.1069588428189
 31
0.0
  0
LINE
  5
4E8
330
4CD
100
AcDbEntity
  8
0
  6
Continuous
 62
     7
370
    15
100
AcDbLine
 10
59.29989413657597
 20
153.1069588428189
 30
0.0
 11
56.79989413657601
 21
153.1069588428189
 31
0.0
  0
LINE
  5
4E9
330
4CD
100
AcDbEntity
  8
0
  6
Continuous
 62
     7
370
    15
100
AcDbLine
 10
59.29989413657597
 20
151.806958842819
 30
0.0
 11
59.29989413657597
 21
153.1069588428189
 31
0.0
  0
LINE
  5
4EA
330
4CD
100
AcDbEntity
  8
0
  6
Continuous
 62
     7
370
    15
100
AcDbLine
 10
59.29989413657597
 20
151.806958842819
 30
0.0
 11
56.79989413657601
 21
151.806958842819
 31
0.0
  0
LINE
  5
4EB
330
4CD
100
AcDbEntity
  8
0
  6
Continuous
 62
     7
370
    15
100
AcDbLine
 10
56.79989413657601
 20
151.806958842819
 30
0.0
 11
56.79989413657601
 21
153.1069588428189
 31
0.0
  0
LINE
  5
4EC
330
4CD
100
AcDbEntity
  8
0
  6
Continuous
 62
     7
370
    15
100
AcDbLine
 10
108.4998941365759
 20
153.1069588428189
 30
0.0
 11
105.9998941365759
 21
153.1069588428189
 31
0.0
  0
LINE
  5
4ED
330
4CD
100
AcDbEntity
  8
0
  6
Continuous
 62
     7
370
    15
100
AcDbLine
 10
108.4998941365759
 20
151.806958842819
 30
0.0
 11
108.4998941365759
 21
153.1069588428189
 31
0.0
  0
LINE
  5
4EE
330
4CD
100
AcDbEntity
  8
0
  6
Continuous
 62
     7
370
    15
100
AcDbLine
 10
108.4998941365759
 20
151.806958842819
 30
0.0
 11
105.9998941365759
 21
151.806958842819
 31
0.0
  0
LINE
  5
4EF
330
4CD
100
AcDbEntity
  8
0
  6
Continuous
 62
     7
370
    15
100
AcDbLine
 10
105.9998941365759
 20
151.806958842819
 30
0.0
 11
105.9998941365759
 21
153.1069588428189
 31
0.0
  0
LINE
  5
4F0
330
4CD
100
AcDbEntity
  8
0
  6
Continuous
 62
     7
370
    15
100
AcDbLine
 10
83.89989413657593
 20
151.806958842819
 30
0.0
 11
81.39989413657596
 21
151.806958842819
 31
0.0
  0
LINE
  5
4F1
330
4CD
100
AcDbEntity
  8
0
  6
Continuous
 62
     7
370
    15
100
AcDbLine
 10
83.89989413657593
 20
153.1069588428189
 30
0.0
 11
81.39989413657596
 21
153.1069588428189
 31
0.0
  0
LINE
  5
4F2
330
4CD
100
AcDbEntity
  8
0
  6
Continuous
 62
     7
370
    15
100
AcDbLine
 10
83.89989413657593
 20
151.806958842819
 30
0.0
 11
83.89989413657593
 21
153.1069588428189
 31
0.0
  0
LINE
  5
4F3
330
4CD
100
AcDbEntity
  8
0
  6
Continuous
 62
     7
370
    15
100
AcDbLine
 10
81.39989413657596
 20
151.806958842819
 30
0.0
 11
81.39989413657596
 21
153.1069588428189
 31
0.0
  0
LINE
  5
4F4
330
4CD
100
AcDbEntity
  8
0
  6
Continuous
 62
     7
370
    15
100
AcDbLine
 10
75.69989413657594
 20
153.1069588428189
 30
0.0
 11
73.19989413657599
 21
153.1069588428189
 31
0.0
  0
LINE
  5
4F5
330
4CD
100
AcDbEntity
  8
0
  6
Continuous
 62
     7
370
    15
100
AcDbLine
 10
75.69989413657594
 20
151.806958842819
 30
0.0
 11
73.19989413657599
 21
151.806958842819
 31
0.0
  0
LINE
  5
4F6
330
4CD
100
AcDbEntity
  8
0
  6
Continuous
 62
     7
370
    15
100
AcDbLine
 10
75.69989413657594
 20
151.806958842819
 30
0.0
 11
75.69989413657594
 21
153.1069588428189
 31
0.0
  0
LINE
  5
4F7
330
4CD
100
AcDbEntity
  8
0
  6
Continuous
 62
     7
370
    15
100
AcDbLine
 10
73.19989413657599
 20
151.806958842819
 30
0.0
 11
73.19989413657599
 21
153.1069588428189
 31
0.0
  0
LINE
  5
4F8
330
4CD
100
AcDbEntity
  8
0
  6
Continuous
 62
     7
370
    15
100
AcDbLine
 10
133.0998941365758
 20
151.806958842819
 30
0.0
 11
130.5998941365758
 21
151.806958842819
 31
0.0
  0
LINE
  5
4F9
330
4CD
100
AcDbEntity
  8
0
  6
Continuous
 62
     7
370
    15
100
AcDbLine
 10
130.5998941365758
 20
151.806958842819
 30
0.0
 11
130.5998941365758
 21
153.1069588428189
 31
0.0
  0
LINE
  5
4FA
330
4CD
100
AcDbEntity
  8
0
  6
Continuous
 62
     7
370
    15
100
AcDbLine
 10
133.0998941365758
 20
153.1069588428189
 30
0.0
 11
130.5998941365758
 21
153.1069588428189
 31
0.0
  0
LINE
  5
4FB
330
4CD
100
AcDbEntity
  8
0
  6
Continuous
 62
     7
370
    15
100
AcDbLine
 10
133.0998941365758
 20
151.806958842819
 30
0.0
 11
133.0998941365758
 21
153.1069588428189
 31
0.0
  0
LINE
  5
4FC
330
4CD
100
AcDbEntity
  8
0
  6
Continuous
 62
     7
370
    15
100
AcDbLine
 10
134.4999013435049
 20
155.3403402871623
 30
0.0
 11
135.6498984586401
 21
155.3403402871623
 31
0.0
  0
LINE
  5
4FD
330
4CD
100
AcDbEntity
  8
0
  6
Continuous
 62
     7
370
    15
100
AcDbLine
 10
134.4999013435049
 20
151.6369485930031
 30
0.0
 11
134.4999013435049
 21
155.3403402871623
 31
0.0
  0
ARC
  5
4FE
330
4CD
100
AcDbEntity
  8
0
  6
Continuous
 62
     7
370
    15
100
AcDbCircle
 10
133.9998988208556
 20
151.6369451320286
 30
0.0
 40
0.500002522661346
100
AcDbArc
 50
314.9998148888401
 51
0.0003965964640602
  0
LINE
  5
4FF
330
4CD
100
AcDbEntity
  8
0
  6
Continuous
 62
     7
370
    15
100
AcDbLine
 10
134.2963487985734
 20
151.2262862731481
 30
0.0
 11
134.3534528529662
 21
151.2833888153863
 31
0.0
  0
ARC
  5
500
330
4CD
100
AcDbEntity
  8
0
  6
Continuous
 62
     7
370
    15
100
AcDbCircle
 10
134.6498979033253
 20
150.8727324871922
 30
0.0
 40
0.4999972490596443
100
AcDbArc
 50
134.9996206871255
 51
180.0000268516886
  0
LINE
  5
501
330
4CD
100
AcDbEntity
  8
0
  6
Continuous
 62
     7
370
    15
100
AcDbLine
 10
134.1499006542657
 20
148.8583632460377
 30
0.0
 11
134.1499006542657
 21
150.8727322528683
 31
0.0
  0
LINE
  5
502
330
4CD
100
AcDbEntity
  8
0
  6
Continuous
 62
     7
370
    15
100
AcDbLine
 10
133.7999021801447
 20
148.5083647719166
 30
0.0
 11
134.1499006542657
 21
148.8583632460377
 31
0.0
  0
LINE
  5
503
330
4CD
100
AcDbEntity
  8
0
  6
Continuous
 62
     7
370
    15
100
AcDbLine
 10
133.7999021801447
 20
148.5083647719166
 30
0.0
 11
129.8998957666849
 21
148.5083647719166
 31
0.0
  0
LINE
  5
504
330
4CD
100
AcDbEntity
  8
0
  6
Continuous
 62
     7
370
    15
100
AcDbLine
 10
129.5498951523853
 20
148.8583653862161
 30
0.0
 11
129.8998957666849
 21
148.5083647719166
 31
0.0
  0
LINE
  5
505
330
4CD
100
AcDbEntity
  8
0
  6
Continuous
 62
     7
370
    15
100
AcDbLine
 10
129.5498951523849
 20
150.8727327528047
 30
0.0
 11
129.5498972925638
 21
148.8583632460377
 31
0.0
  0
ARC
  5
506
330
4CD
100
AcDbEntity
  8
0
  6
Continuous
 62
     7
370
    15
100
AcDbCircle
 10
129.0498929851723
 20
150.8727324871896
 30
0.0
 40
0.500002167213022
100
AcDbArc
 50
0.0000304371148188
 51
45.00047442048413
  0
LINE
  5
507
330
4CD
100
AcDbEntity
  8
0
  6
Continuous
 62
     7
370
    15
100
AcDbLine
 10
129.3463380621407
 20
151.2833911265057
 30
0.0
 11
129.4034449806992
 21
151.2262903377271
 31
0.0
  0
ARC
  5
508
330
4CD
100
AcDbEntity
  8
0
  6
Continuous
 62
     7
370
    15
100
AcDbCircle
 10
129.6998901566041
 20
151.6369432209689
 30
0.0
 40
0.4999981855165049
100
AcDbArc
 50
179.9999468885394
 51
224.9999999999916
  0
LINE
  5
509
330
4CD
100
AcDbEntity
  8
0
  6
Continuous
 62
     7
370
    15
100
AcDbLine
 10
129.1998988184427
 20
155.3403412109067
 30
0.0
 11
129.1998919710878
 21
151.6369436844522
 31
0.0
  0
LINE
  5
50A
330
4CD
100
AcDbEntity
  8
0
  6
Continuous
 62
     7
370
    15
100
AcDbLine
 10
126.2998931247266
 20
155.3403412109067
 30
0.0
 11
129.1998988184427
 21
155.3403412109067
 31
0.0
  0
LINE
  5
50B
330
4CD
100
AcDbEntity
  8
0
  6
Continuous
 62
     7
370
    15
100
AcDbLine
 10
126.2998931247266
 20
151.6369500518446
 30
0.0
 11
126.2998931247266
 21
155.3403412109067
 31
0.0
  0
ARC
  5
50C
330
4CD
100
AcDbEntity
  8
0
  6
Continuous
 62
     7
370
    15
100
AcDbCircle
 10
125.7998946110857
 20
151.6369465908652
 30
0.0
 40
0.4999985136888523
100
AcDbArc
 50
314.9998166532951
 51
0.0003966002009163
  0
LINE
  5
50D
330
4CD
100
AcDbEntity
  8
0
  6
Continuous
 62
     7
370
    15
100
AcDbLine
 10
126.0963417617918
 20
151.226285877783
 30
0.0
 11
126.1534458193277
 21
151.2833931198856
 31
0.0
  0
ARC
  5
50E
330
4CD
100
AcDbEntity
  8
0
  6
Continuous
 62
     7
370
    15
100
AcDbCircle
 10
126.4498959574181
 20
150.8727332922246
 30
0.0
 40
0.5000000000000642
100
AcDbArc
 50
135.0001304613324
 51
180.0000729765038
  0
LINE
  5
50F
330
4CD
100
AcDbEntity
  8
0
  6
Continuous
 62
     7
370
    15
100
AcDbLine
 10
125.9498959574197
 20
148.8583632460377
 30
0.0
 11
125.9498959574197
 21
150.8727326553844
 31
0.0
  0
LINE
  5
510
330
4CD
100
AcDbEntity
  8
0
  6
Continuous
 62
     7
370
    15
100
AcDbLine
 10
125.5998974832986
 20
148.5083647719166
 30
0.0
 11
125.9498959574197
 21
148.8583632460377
 31
0.0
  0
LINE
  5
511
330
4CD
100
AcDbEntity
  8
0
  6
Continuous
 62
     7
370
    15
100
AcDbLine
 10
125.5998974832986
 20
148.5083647719166
 30
0.0
 11
121.6998910698389
 21
148.5083647719166
 31
0.0
  0
ARC
  5
512
330
4CD
100
AcDbEntity
  8
0
  6
Continuous
 62
     7
370
    15
100
AcDbCircle
 10
120.8498946457389
 20
150.8727324871896
 30
0.0
 40
0.500000506645891
100
AcDbArc
 50
359.9999636396808
 51
45.00078695292927
  0
LINE
  5
513
330
4CD
100
AcDbEntity
  8
0
  6
Continuous
 62
     7
370
    15
100
AcDbLine
 10
121.1463431149896
 20
151.2833900826744
 30
0.0
 11
121.2034435385188
 21
151.2262910920343
 31
0.0
  0
ARC
  5
514
330
4CD
100
AcDbEntity
  8
0
  6
Continuous
 62
     7
370
    15
100
AcDbCircle
 10
121.4998946519457
 20
151.6369460557599
 30
0.0
 40
0.5000005153938929
100
AcDbArc
 50
180.0
 51
225.0003594523993
  0
LINE
  5
515
330
4CD
100
AcDbEntity
  8
0
  6
Continuous
 62
     7
370
    15
100
AcDbLine
 10
120.9998941365758
 20
155.3403412109067
 30
0.0
 11
120.9998941365518
 21
151.6369460557599
 31
0.0
  0
LINE
  5
516
330
4CD
100
AcDbEntity
  8
0
  6
Continuous
 62
     7
370
    15
100
AcDbLine
 10
118.0998931247266
 20
155.3403412109067
 30
0.0
 11
120.9998941365758
 21
155.3403412109067
 31
0.0
  0
LINE
  5
517
330
4CD
100
AcDbEntity
  8
0
  6
Continuous
 62
     7
370
    15
100
AcDbLine
 10
118.0998931247266
 20
151.6369500518446
 30
0.0
 11
118.0998931247266
 21
155.3403412109067
 31
0.0
  0
ARC
  5
518
330
4CD
100
AcDbEntity
  8
0
  6
Continuous
 62
     7
370
    15
100
AcDbCircle
 10
117.5998946110857
 20
151.6369465908652
 30
0.0
 40
0.4999985136888624
100
AcDbArc
 50
314.9998166532962
 51
0.0003966002009163
  0
LINE
  5
519
330
4CD
100
AcDbEntity
  8
0
  6
Continuous
 62
     7
370
    15
100
AcDbLine
 10
117.8963417617918
 20
151.226285877783
 30
0.0
 11
117.9534458193277
 21
151.2833931198856
 31
0.0
  0
ARC
  5
51A
330
4CD
100
AcDbEntity
  8
0
  6
Continuous
 62
     7
370
    15
100
AcDbCircle
 10
118.2498959574181
 20
150.8727332922246
 30
0.0
 40
0.5000000000000542
100
AcDbArc
 50
135.0001304613312
 51
180.0000729765038
  0
LINE
  5
51B
330
4CD
100
AcDbEntity
  8
0
  6
Continuous
 62
     7
370
    15
100
AcDbLine
 10
117.7498959574198
 20
148.8583632460377
 30
0.0
 11
117.7498959574198
 21
150.8727326553844
 31
0.0
  0
LINE
  5
51C
330
4CD
100
AcDbEntity
  8
0
  6
Continuous
 62
     7
370
    15
100
AcDbLine
 10
117.3998974832987
 20
148.5083647719166
 30
0.0
 11
117.7498959574198
 21
148.8583632460377
 31
0.0
  0
LINE
  5
51D
330
4CD
100
AcDbEntity
  8
0
  6
Continuous
 62
     7
370
    15
100
AcDbLine
 10
117.3998974832987
 20
148.5083647719166
 30
0.0
 11
113.4998910698389
 21
148.5083647719166
 31
0.0
  0
ARC
  5
51E
330
4CD
100
AcDbEntity
  8
0
  6
Continuous
 62
     7
370
    15
100
AcDbCircle
 10
112.6498946457389
 20
150.8727324871896
 30
0.0
 40
0.5000005066458768
100
AcDbArc
 50
359.9999636396808
 51
45.00078695293042
  0
LINE
  5
51F
330
4CD
100
AcDbEntity
  8
0
  6
Continuous
 62
     7
370
    15
100
AcDbLine
 10
112.9463431149896
 20
151.2833900826744
 30
0.0
 11
113.0034435385188
 21
151.2262910920343
 31
0.0
  0
ARC
  5
520
330
4CD
100
AcDbEntity
  8
0
  6
Continuous
 62
     7
370
    15
100
AcDbCircle
 10
113.2998946519457
 20
151.6369460557599
 30
0.0
 40
0.5000005153938929
100
AcDbArc
 50
180.0
 51
225.0003594523981
  0
LINE
  5
521
330
4CD
100
AcDbEntity
  8
0
  6
Continuous
 62
     7
370
    15
100
AcDbLine
 10
112.7998941365758
 20
155.3403412109067
 30
0.0
 11
112.7998941365518
 21
151.6369460557599
 31
0.0
  0
LINE
  5
522
330
4CD
100
AcDbEntity
  8
0
  6
Continuous
 62
     7
370
    15
100
AcDbLine
 10
109.8998931247266
 20
155.3403412109067
 30
0.0
 11
112.7998941365758
 21
155.3403412109067
 31
0.0
  0
LINE
  5
523
330
4CD
100
AcDbEntity
  8
0
  6
Continuous
 62
     7
370
    15
100
AcDbLine
 10
109.8998931247266
 20
151.6369500518446
 30
0.0
 11
109.8998931247266
 21
155.3403412109067
 31
0.0
  0
ARC
  5
524
330
4CD
100
AcDbEntity
  8
0
  6
Continuous
 62
     7
370
    15
100
AcDbCircle
 10
109.3998946110857
 20
151.6369465908652
 30
0.0
 40
0.4999985136888624
100
AcDbArc
 50
314.9998166532962
 51
0.0003966002009163
  0
LINE
  5
525
330
4CD
100
AcDbEntity
  8
0
  6
Continuous
 62
     7
370
    15
100
AcDbLine
 10
109.6963417617918
 20
151.226285877783
 30
0.0
 11
109.7534458193277
 21
151.2833931198856
 31
0.0
  0
ARC
  5
526
330
4CD
100
AcDbEntity
  8
0
  6
Continuous
 62
     7
370
    15
100
AcDbCircle
 10
110.0498959574182
 20
150.8727332922246
 30
0.0
 40
0.5000000000000642
100
AcDbArc
 50
135.0001304613324
 51
180.0000729765038
  0
LINE
  5
527
330
4CD
100
AcDbEntity
  8
0
  6
Continuous
 62
     7
370
    15
100
AcDbLine
 10
109.5498959574198
 20
148.8583632460377
 30
0.0
 11
109.5498959574198
 21
150.8727326553844
 31
0.0
  0
LINE
  5
528
330
4CD
100
AcDbEntity
  8
0
  6
Continuous
 62
     7
370
    15
100
AcDbLine
 10
109.1998974832987
 20
148.5083647719166
 30
0.0
 11
109.5498959574198
 21
148.8583632460377
 31
0.0
  0
LINE
  5
529
330
4CD
100
AcDbEntity
  8
0
  6
Continuous
 62
     7
370
    15
100
AcDbLine
 10
109.1998974832987
 20
148.5083647719166
 30
0.0
 11
105.2998910698389
 21
148.5083647719166
 31
0.0
  0
ARC
  5
52A
330
4CD
100
AcDbEntity
  8
0
  6
Continuous
 62
     7
370
    15
100
AcDbCircle
 10
104.4498946457389
 20
150.8727324871896
 30
0.0
 40
0.5000005066458768
100
AcDbArc
 50
359.9999636396808
 51
45.00078695293042
  0
LINE
  5
52B
330
4CD
100
AcDbEntity
  8
0
  6
Continuous
 62
     7
370
    15
100
AcDbLine
 10
104.7463431149896
 20
151.2833900826744
 30
0.0
 11
104.8034435385188
 21
151.2262910920343
 31
0.0
  0
ARC
  5
52C
330
4CD
100
AcDbEntity
  8
0
  6
Continuous
 62
     7
370
    15
100
AcDbCircle
 10
105.0998946519458
 20
151.6369460557599
 30
0.0
 40
0.5000005153938929
100
AcDbArc
 50
180.0
 51
225.0003594523981
  0
LINE
  5
52D
330
4CD
100
AcDbEntity
  8
0
  6
Continuous
 62
     7
370
    15
100
AcDbLine
 10
104.5998941365758
 20
155.3403412109067
 30
0.0
 11
104.5998941365519
 21
151.6369460557599
 31
0.0
  0
LINE
  5
52E
330
4CD
100
AcDbEntity
  8
0
  6
Continuous
 62
     7
370
    15
100
AcDbLine
 10
101.6998931247267
 20
155.3403412109067
 30
0.0
 11
104.5998941365758
 21
155.3403412109067
 31
0.0
  0
LINE
  5
52F
330
4CD
100
AcDbEntity
  8
0
  6
Continuous
 62
     7
370
    15
100
AcDbLine
 10
101.6998931247267
 20
151.6369500518446
 30
0.0
 11
101.6998931247267
 21
155.3403412109067
 31
0.0
  0
ARC
  5
530
330
4CD
100
AcDbEntity
  8
0
  6
Continuous
 62
     7
370
    15
100
AcDbCircle
 10
101.1998946110858
 20
151.6369465908652
 30
0.0
 40
0.4999985136888523
100
AcDbArc
 50
314.9998166532951
 51
0.0003966002009163
  0
LINE
  5
531
330
4CD
100
AcDbEntity
  8
0
  6
Continuous
 62
     7
370
    15
100
AcDbLine
 10
101.4963417617918
 20
151.226285877783
 30
0.0
 11
101.5534458193277
 21
151.2833931198856
 31
0.0
  0
ARC
  5
532
330
4CD
100
AcDbEntity
  8
0
  6
Continuous
 62
     7
370
    15
100
AcDbCircle
 10
101.8498959574182
 20
150.8727332922246
 30
0.0
 40
0.5000000000000642
100
AcDbArc
 50
135.0001304613324
 51
180.0000729765038
  0
LINE
  5
533
330
4CD
100
AcDbEntity
  8
0
  6
Continuous
 62
     7
370
    15
100
AcDbLine
 10
101.3498959574198
 20
148.8583632460377
 30
0.0
 11
101.3498959574198
 21
150.8727326553844
 31
0.0
  0
LINE
  5
534
330
4CD
100
AcDbEntity
  8
0
  6
Continuous
 62
     7
370
    15
100
AcDbLine
 10
100.9998974832987
 20
148.5083647719166
 30
0.0
 11
101.3498959574198
 21
148.8583632460377
 31
0.0
  0
LINE
  5
535
330
4CD
100
AcDbEntity
  8
0
  6
Continuous
 62
     7
370
    15
100
AcDbLine
 10
100.9998974832987
 20
148.5083647719166
 30
0.0
 11
97.09989106983893
 21
148.5083647719166
 31
0.0
  0
LINE
  5
536
330
4CD
100
AcDbEntity
  8
0
  6
Continuous
 62
     7
370
    15
100
AcDbLine
 10
96.74989515238472
 20
150.8727321698857
 30
0.0
 11
96.74989259571784
 21
148.8583632460377
 31
0.0
  0
ARC
  5
537
330
4CD
100
AcDbEntity
  8
0
  6
Continuous
 62
     7
370
    15
100
AcDbCircle
 10
96.24989464573893
 20
150.8727324871896
 30
0.0
 40
0.500000506645891
100
AcDbArc
 50
359.9999636396808
 51
45.00078695293042
  0
LINE
  5
538
330
4CD
100
AcDbEntity
  8
0
  6
Continuous
 62
     7
370
    15
100
AcDbLine
 10
96.54634311498965
 20
151.2833900826744
 30
0.0
 11
96.60344353851888
 21
151.2262910920343
 31
0.0
  0
ARC
  5
539
330
4CD
100
AcDbEntity
  8
0
  6
Continuous
 62
     7
370
    15
100
AcDbCircle
 10
96.89989465194578
 20
151.6369460557599
 30
0.0
 40
0.5000005153938929
100
AcDbArc
 50
180.0
 51
225.0003594523993
  0
LINE
  5
53A
330
4CD
100
AcDbEntity
  8
0
  6
Continuous
 62
     7
370
    15
100
AcDbLine
 10
96.39989413657588
 20
155.3403412109067
 30
0.0
 11
96.3998941365519
 21
151.6369460557599
 31
0.0
  0
LINE
  5
53B
330
4CD
100
AcDbEntity
  8
0
  6
Continuous
 62
     7
370
    15
100
AcDbLine
 10
93.4998931247267
 20
155.3403412109067
 30
0.0
 11
96.39989413657588
 21
155.3403412109067
 31
0.0
  0
LINE
  5
53C
330
4CD
100
AcDbEntity
  8
0
  6
Continuous
 62
     7
370
    15
100
AcDbLine
 10
93.4998931247267
 20
151.6369500518446
 30
0.0
 11
93.4998931247267
 21
155.3403412109067
 31
0.0
  0
ARC
  5
53D
330
4CD
100
AcDbEntity
  8
0
  6
Continuous
 62
     7
370
    15
100
AcDbCircle
 10
92.99989461108578
 20
151.6369465908652
 30
0.0
 40
0.4999985136888523
100
AcDbArc
 50
314.9998166532951
 51
0.0003966002009163
  0
LINE
  5
53E
330
4CD
100
AcDbEntity
  8
0
  6
Continuous
 62
     7
370
    15
100
AcDbLine
 10
93.29634176179188
 20
151.226285877783
 30
0.0
 11
93.35344581932778
 21
151.2833931198856
 31
0.0
  0
ARC
  5
53F
330
4CD
100
AcDbEntity
  8
0
  6
Continuous
 62
     7
370
    15
100
AcDbCircle
 10
93.64989595741821
 20
150.8727332922246
 30
0.0
 40
0.5000000000000642
100
AcDbArc
 50
135.0001304613324
 51
180.0000729765038
  0
LINE
  5
540
330
4CD
100
AcDbEntity
  8
0
  6
Continuous
 62
     7
370
    15
100
AcDbLine
 10
93.14989595741982
 20
148.8583632460377
 30
0.0
 11
93.14989595741982
 21
150.8727326553844
 31
0.0
  0
LINE
  5
541
330
4CD
100
AcDbEntity
  8
0
  6
Continuous
 62
     7
370
    15
100
AcDbLine
 10
92.79989748329873
 20
148.5083647719166
 30
0.0
 11
93.14989595741982
 21
148.8583632460377
 31
0.0
  0
LINE
  5
542
330
4CD
100
AcDbEntity
  8
0
  6
Continuous
 62
     7
370
    15
100
AcDbLine
 10
92.79989748329873
 20
148.5083647719166
 30
0.0
 11
88.89989106983895
 21
148.5083647719166
 31
0.0
  0
ARC
  5
543
330
4CD
100
AcDbEntity
  8
0
  6
Continuous
 62
     7
370
    15
100
AcDbCircle
 10
88.04989464573894
 20
150.8727324871896
 30
0.0
 40
0.500000506645891
100
AcDbArc
 50
359.9999636396808
 51
45.00078695292927
  0
LINE
  5
544
330
4CD
100
AcDbEntity
  8
0
  6
Continuous
 62
     7
370
    15
100
AcDbLine
 10
88.34634311498964
 20
151.2833900826744
 30
0.0
 11
88.40344353851889
 21
151.2262910920343
 31
0.0
  0
ARC
  5
545
330
4CD
100
AcDbEntity
  8
0
  6
Continuous
 62
     7
370
    15
100
AcDbCircle
 10
88.6998946519458
 20
151.6369460557599
 30
0.0
 40
0.5000005153938929
100
AcDbArc
 50
180.0
 51
225.0003594523993
  0
LINE
  5
546
330
4CD
100
AcDbEntity
  8
0
  6
Continuous
 62
     7
370
    15
100
AcDbLine
 10
88.19989413657589
 20
155.3403412109067
 30
0.0
 11
88.19989413655191
 21
151.6369460557599
 31
0.0
  0
LINE
  5
547
330
4CD
100
AcDbEntity
  8
0
  6
Continuous
 62
     7
370
    15
100
AcDbLine
 10
85.29989312472672
 20
155.3403412109067
 30
0.0
 11
88.19989413657589
 21
155.3403412109067
 31
0.0
  0
LINE
  5
548
330
4CD
100
AcDbEntity
  8
0
  6
Continuous
 62
     7
370
    15
100
AcDbLine
 10
85.29989312472672
 20
151.6369500518446
 30
0.0
 11
85.29989312472672
 21
155.3403412109067
 31
0.0
  0
ARC
  5
549
330
4CD
100
AcDbEntity
  8
0
  6
Continuous
 62
     7
370
    15
100
AcDbCircle
 10
84.7998946110858
 20
151.6369465908652
 30
0.0
 40
0.4999985136888624
100
AcDbArc
 50
314.9998166532962
 51
0.0003966002009163
  0
LINE
  5
54A
330
4CD
100
AcDbEntity
  8
0
  6
Continuous
 62
     7
370
    15
100
AcDbLine
 10
85.0963417617919
 20
151.226285877783
 30
0.0
 11
85.15344581932779
 21
151.2833931198856
 31
0.0
  0
ARC
  5
54B
330
4CD
100
AcDbEntity
  8
0
  6
Continuous
 62
     7
370
    15
100
AcDbCircle
 10
85.44989595741823
 20
150.8727332922246
 30
0.0
 40
0.5000000000000542
100
AcDbArc
 50
135.0001304613312
 51
180.0000729765038
  0
LINE
  5
54C
330
4CD
100
AcDbEntity
  8
0
  6
Continuous
 62
     7
370
    15
100
AcDbLine
 10
84.94989595741984
 20
148.8583632460377
 30
0.0
 11
84.94989595741984
 21
150.8727326553844
 31
0.0
  0
LINE
  5
54D
330
4CD
100
AcDbEntity
  8
0
  6
Continuous
 62
     7
370
    15
100
AcDbLine
 10
84.59989748329874
 20
148.5083647719166
 30
0.0
 11
84.94989595741984
 21
148.8583632460377
 31
0.0
  0
LINE
  5
54E
330
4CD
100
AcDbEntity
  8
0
  6
Continuous
 62
     7
370
    15
100
AcDbLine
 10
84.59989748329874
 20
148.5083647719166
 30
0.0
 11
80.69989106983896
 21
148.5083647719166
 31
0.0
  0
LINE
  5
54F
330
4CD
100
AcDbEntity
  8
0
  6
Continuous
 62
     7
370
    15
100
AcDbLine
 10
80.34989515238519
 20
148.8583606893704
 30
0.0
 11
80.69989106983896
 21
148.5083647719166
 31
0.0
  0
LINE
  5
550
330
4CD
100
AcDbEntity
  8
0
  6
Continuous
 62
     7
370
    15
100
AcDbLine
 10
80.34989515238475
 20
150.8727321698857
 30
0.0
 11
80.34989259571787
 21
148.8583632460377
 31
0.0
  0
ARC
  5
551
330
4CD
100
AcDbEntity
  8
0
  6
Continuous
 62
     7
370
    15
100
AcDbCircle
 10
79.84989464573897
 20
150.8727324871896
 30
0.0
 40
0.5000005066458768
100
AcDbArc
 50
359.9999636396808
 51
45.00078695293042
  0
LINE
  5
552
330
4CD
100
AcDbEntity
  8
0
  6
Continuous
 62
     7
370
    15
100
AcDbLine
 10
80.14634311498966
 20
151.2833900826744
 30
0.0
 11
80.20344353851891
 21
151.2262910920343
 31
0.0
  0
ARC
  5
553
330
4CD
100
AcDbEntity
  8
0
  6
Continuous
 62
     7
370
    15
100
AcDbCircle
 10
80.49989465194583
 20
151.6369460557599
 30
0.0
 40
0.5000005153938929
100
AcDbArc
 50
180.0
 51
225.0003594523981
  0
LINE
  5
554
330
4CD
100
AcDbEntity
  8
0
  6
Continuous
 62
     7
370
    15
100
AcDbLine
 10
79.99989413657591
 20
155.3403412109067
 30
0.0
 11
79.99989413655193
 21
151.6369460557599
 31
0.0
  0
LINE
  5
555
330
4CD
100
AcDbEntity
  8
0
  6
Continuous
 62
     7
370
    15
100
AcDbLine
 10
77.09989312472673
 20
155.3403412109067
 30
0.0
 11
79.99989413657591
 21
155.3403412109067
 31
0.0
  0
LINE
  5
556
330
4CD
100
AcDbEntity
  8
0
  6
Continuous
 62
     7
370
    15
100
AcDbLine
 10
77.09989312472673
 20
151.6369500518446
 30
0.0
 11
77.09989312472673
 21
155.3403412109067
 31
0.0
  0
ARC
  5
557
330
4CD
100
AcDbEntity
  8
0
  6
Continuous
 62
     7
370
    15
100
AcDbCircle
 10
76.59989461108581
 20
151.6369465908652
 30
0.0
 40
0.4999985136888624
100
AcDbArc
 50
314.9998166532962
 51
0.0003966002009163
  0
LINE
  5
558
330
4CD
100
AcDbEntity
  8
0
  6
Continuous
 62
     7
370
    15
100
AcDbLine
 10
76.89634176179191
 20
151.226285877783
 30
0.0
 11
76.95344581932781
 21
151.2833931198856
 31
0.0
  0
ARC
  5
559
330
4CD
100
AcDbEntity
  8
0
  6
Continuous
 62
     7
370
    15
100
AcDbCircle
 10
77.24989595741824
 20
150.8727332922246
 30
0.0
 40
0.5000000000000642
100
AcDbArc
 50
135.0001304613324
 51
180.0000729765038
  0
LINE
  5
55A
330
4CD
100
AcDbEntity
  8
0
  6
Continuous
 62
     7
370
    15
100
AcDbLine
 10
76.74989595741985
 20
148.8583632460377
 30
0.0
 11
76.74989595741985
 21
150.8727326553844
 31
0.0
  0
LINE
  5
55B
330
4CD
100
AcDbEntity
  8
0
  6
Continuous
 62
     7
370
    15
100
AcDbLine
 10
76.39989748329876
 20
148.5083647719166
 30
0.0
 11
76.74989595741985
 21
148.8583632460377
 31
0.0
  0
LINE
  5
55C
330
4CD
100
AcDbEntity
  8
0
  6
Continuous
 62
     7
370
    15
100
AcDbLine
 10
76.39989748329876
 20
148.5083647719166
 30
0.0
 11
72.49989106983898
 21
148.5083647719166
 31
0.0
  0
ARC
  5
55D
330
4CD
100
AcDbEntity
  8
0
  6
Continuous
 62
     7
370
    15
100
AcDbCircle
 10
71.64989464573898
 20
150.8727324871896
 30
0.0
 40
0.5000005066458768
100
AcDbArc
 50
359.9999636396808
 51
45.00078695293042
  0
LINE
  5
55E
330
4CD
100
AcDbEntity
  8
0
  6
Continuous
 62
     7
370
    15
100
AcDbLine
 10
71.94634311498967
 20
151.2833900826744
 30
0.0
 11
72.00344353851892
 21
151.2262910920343
 31
0.0
  0
ARC
  5
55F
330
4CD
100
AcDbEntity
  8
0
  6
Continuous
 62
     7
370
    15
100
AcDbCircle
 10
72.29989465194583
 20
151.6369460557599
 30
0.0
 40
0.5000005153938929
100
AcDbArc
 50
180.0
 51
225.0003594523981
  0
LINE
  5
560
330
4CD
100
AcDbEntity
  8
0
  6
Continuous
 62
     7
370
    15
100
AcDbLine
 10
71.79989413657591
 20
155.3403412109067
 30
0.0
 11
71.79989413655194
 21
151.6369460557599
 31
0.0
  0
LINE
  5
561
330
4CD
100
AcDbEntity
  8
0
  6
Continuous
 62
     7
370
    15
100
AcDbLine
 10
68.89989312472675
 20
155.3403412109067
 30
0.0
 11
71.79989413657591
 21
155.3403412109067
 31
0.0
  0
LINE
  5
562
330
4CD
100
AcDbEntity
  8
0
  6
Continuous
 62
     7
370
    15
100
AcDbLine
 10
68.89989312472675
 20
151.6369500518446
 30
0.0
 11
68.89989312472675
 21
155.3403412109067
 31
0.0
  0
ARC
  5
563
330
4CD
100
AcDbEntity
  8
0
  6
Continuous
 62
     7
370
    15
100
AcDbCircle
 10
68.39989461108584
 20
151.6369465908652
 30
0.0
 40
0.4999985136888523
100
AcDbArc
 50
314.9998166532951
 51
0.0003966002009163
  0
LINE
  5
564
330
4CD
100
AcDbEntity
  8
0
  6
Continuous
 62
     7
370
    15
100
AcDbLine
 10
68.69634176179193
 20
151.226285877783
 30
0.0
 11
68.75344581932782
 21
151.2833931198856
 31
0.0
  0
ARC
  5
565
330
4CD
100
AcDbEntity
  8
0
  6
Continuous
 62
     7
370
    15
100
AcDbCircle
 10
69.04989595741826
 20
150.8727332922246
 30
0.0
 40
0.5000000000000642
100
AcDbArc
 50
135.0001304613324
 51
180.0000729765038
  0
LINE
  5
566
330
4CD
100
AcDbEntity
  8
0
  6
Continuous
 62
     7
370
    15
100
AcDbLine
 10
68.54989595741987
 20
148.8583632460377
 30
0.0
 11
68.54989595741987
 21
150.8727326553844
 31
0.0
  0
LINE
  5
567
330
4CD
100
AcDbEntity
  8
0
  6
Continuous
 62
     7
370
    15
100
AcDbLine
 10
68.19989748329877
 20
148.5083647719166
 30
0.0
 11
68.54989595741987
 21
148.8583632460377
 31
0.0
  0
LINE
  5
568
330
4CD
100
AcDbEntity
  8
0
  6
Continuous
 62
     7
370
    15
100
AcDbLine
 10
68.19989748329877
 20
148.5083647719166
 30
0.0
 11
64.29989106983899
 21
148.5083647719166
 31
0.0
  0
ARC
  5
569
330
4CD
100
AcDbEntity
  8
0
  6
Continuous
 62
     7
370
    15
100
AcDbCircle
 10
63.44989464573899
 20
150.8727324871896
 30
0.0
 40
0.5000005066458839
100
AcDbArc
 50
359.9999636396808
 51
45.00078695292984
  0
LINE
  5
56A
330
4CD
100
AcDbEntity
  8
0
  6
Continuous
 62
     7
370
    15
100
AcDbLine
 10
63.74634311498969
 20
151.2833900826744
 30
0.0
 11
63.80344353851894
 21
151.2262910920343
 31
0.0
  0
ARC
  5
56B
330
4CD
100
AcDbEntity
  8
0
  6
Continuous
 62
     7
370
    15
100
AcDbCircle
 10
64.09989465194584
 20
151.6369460557599
 30
0.0
 40
0.5000005153938929
100
AcDbArc
 50
180.0
 51
225.0003594523987
  0
LINE
  5
56C
330
4CD
100
AcDbEntity
  8
0
  6
Continuous
 62
     7
370
    15
100
AcDbLine
 10
63.59989413657594
 20
155.3403412109067
 30
0.0
 11
63.59989413655195
 21
151.6369460557599
 31
0.0
  0
LINE
  5
56D
330
4CD
100
AcDbEntity
  8
0
  6
Continuous
 62
     7
370
    15
100
AcDbLine
 10
60.69989312472653
 20
155.3403412109067
 30
0.0
 11
63.59989413657594
 21
155.3403412109067
 31
0.0
  0
LINE
  5
56E
330
4CD
100
AcDbEntity
  8
0
  6
Continuous
 62
     7
370
    15
100
AcDbLine
 10
60.69989312472653
 20
151.6369500518446
 30
0.0
 11
60.69989312472653
 21
155.3403412109067
 31
0.0
  0
ARC
  5
56F
330
4CD
100
AcDbEntity
  8
0
  6
Continuous
 62
     7
370
    15
100
AcDbCircle
 10
60.19989461108585
 20
151.6369465908652
 30
0.0
 40
0.4999985136886966
100
AcDbArc
 50
314.9998166532772
 51
0.0003966002009165
  0
LINE
  5
570
330
4CD
100
AcDbEntity
  8
0
  6
Continuous
 62
     7
370
    15
100
AcDbLine
 10
60.49634176179171
 20
151.226285877783
 30
0.0
 11
60.55344581932761
 21
151.2833931198856
 31
0.0
  0
ARC
  5
571
330
4CD
100
AcDbEntity
  8
0
  6
Continuous
 62
     7
370
    15
100
AcDbCircle
 10
60.84989595741805
 20
150.8727332922246
 30
0.0
 40
0.5000000000000642
100
AcDbArc
 50
135.0001304613324
 51
180.0000729765038
  0
LINE
  5
572
330
4CD
100
AcDbEntity
  8
0
  6
Continuous
 62
     7
370
    15
100
AcDbLine
 10
60.34989595741965
 20
148.8583632460377
 30
0.0
 11
60.34989595741965
 21
150.8727326553844
 31
0.0
  0
LINE
  5
573
330
4CD
100
AcDbEntity
  8
0
  6
Continuous
 62
     7
370
    15
100
AcDbLine
 10
59.99989748329856
 20
148.5083647719166
 30
0.0
 11
60.34989595741965
 21
148.8583632460377
 31
0.0
  0
LINE
  5
574
330
4CD
100
AcDbEntity
  8
0
  6
Continuous
 62
     7
370
    15
100
AcDbLine
 10
59.99989748329856
 20
148.5083647719166
 30
0.0
 11
56.09989106983878
 21
148.5083647719166
 31
0.0
  0
LINE
  5
575
330
4CD
100
AcDbEntity
  8
0
  6
Continuous
 62
     7
370
    15
100
AcDbLine
 10
55.74989515238502
 20
148.8583606893704
 30
0.0
 11
56.09989106983878
 21
148.5083647719166
 31
0.0
  0
ARC
  5
576
330
4CD
100
AcDbEntity
  8
0
  6
Continuous
 62
     7
370
    15
100
AcDbCircle
 10
55.24989464573901
 20
150.8727324871896
 30
0.0
 40
0.5000005066456565
100
AcDbArc
 50
359.9999636396808
 51
45.00078695294827
  0
LINE
  5
577
330
4CD
100
AcDbEntity
  8
0
  6
Continuous
 62
     7
370
    15
100
AcDbLine
 10
55.54634311498971
 20
151.2833900826744
 30
0.0
 11
55.60344353851873
 21
151.2262910920343
 31
0.0
  0
ARC
  5
578
330
4CD
100
AcDbEntity
  8
0
  6
Continuous
 62
     7
370
    15
100
AcDbCircle
 10
55.89989465194586
 20
151.6369460557599
 30
0.0
 40
0.5000005153941203
100
AcDbArc
 50
180.0
 51
225.0003594523987
  0
LINE
  5
579
330
4CD
100
AcDbEntity
  8
0
  6
Continuous
 62
     7
370
    15
100
AcDbLine
 10
55.39989413657572
 20
155.3403412109067
 30
0.0
 11
55.39989413655174
 21
151.6369460557599
 31
0.0
  0
LINE
  5
57A
330
4CD
100
AcDbEntity
  8
0
  6
Continuous
 62
     7
370
    15
100
AcDbLine
 10
54.24989702144053
 20
155.3403412109067
 30
0.0
 11
55.39989413657572
 21
155.3403412109067
 31
0.0
  0
LINE
  5
57B
330
4CD
100
AcDbEntity
  8
0
  6
Continuous
 62
     7
370
    15
100
AcDbLine
 10
121.3498951523847
 20
150.8727321698857
 30
0.0
 11
121.3498925957178
 21
148.8583632460377
 31
0.0
  0
LINE
  5
57C
330
4CD
100
AcDbEntity
  8
0
  6
Continuous
 62
     7
370
    15
100
AcDbLine
 10
72.14989515238521
 20
148.8583606893704
 30
0.0
 11
72.49989106983898
 21
148.5083647719166
 31
0.0
  0
LINE
  5
57D
330
4CD
100
AcDbEntity
  8
0
  6
Continuous
 62
     7
370
    15
100
AcDbLine
 10
121.3498951523851
 20
148.8583606893704
 30
0.0
 11
121.6998910698389
 21
148.5083647719166
 31
0.0
  0
LINE
  5
57E
330
4CD
100
AcDbEntity
  8
0
  6
Continuous
 62
     7
370
    15
100
AcDbLine
 10
104.9498951523847
 20
150.8727321698857
 30
0.0
 11
104.9498925957178
 21
148.8583632460377
 31
0.0
  0
LINE
  5
57F
330
4CD
100
AcDbEntity
  8
0
  6
Continuous
 62
     7
370
    15
100
AcDbLine
 10
113.1498951523847
 20
150.8727321698857
 30
0.0
 11
113.1498925957178
 21
148.8583632460377
 31
0.0
  0
LINE
  5
580
330
4CD
100
AcDbEntity
  8
0
  6
Continuous
 62
     7
370
    15
100
AcDbLine
 10
96.74989515238516
 20
148.8583606893704
 30
0.0
 11
97.09989106983893
 21
148.5083647719166
 31
0.0
  0
LINE
  5
581
330
4CD
100
AcDbEntity
  8
0
  6
Continuous
 62
     7
370
    15
100
AcDbLine
 10
88.54989515238473
 20
150.8727321698857
 30
0.0
 11
88.54989259571786
 21
148.8583632460377
 31
0.0
  0
LINE
  5
582
330
4CD
100
AcDbEntity
  8
0
  6
Continuous
 62
     7
370
    15
100
AcDbLine
 10
113.1498951523851
 20
148.8583606893704
 30
0.0
 11
113.4998910698389
 21
148.5083647719166
 31
0.0
  0
LINE
  5
583
330
4CD
100
AcDbEntity
  8
0
  6
Continuous
 62
     7
370
    15
100
AcDbLine
 10
88.54989515238518
 20
148.8583606893704
 30
0.0
 11
88.89989106983895
 21
148.5083647719166
 31
0.0
  0
LINE
  5
584
330
4CD
100
AcDbEntity
  8
0
  6
Continuous
 62
     7
370
    15
100
AcDbLine
 10
63.94989515238478
 20
150.8727321698857
 30
0.0
 11
63.9498925957179
 21
148.8583632460377
 31
0.0
  0
LINE
  5
585
330
4CD
100
AcDbEntity
  8
0
  6
Continuous
 62
     7
370
    15
100
AcDbLine
 10
72.14989515238475
 20
150.8727321698857
 30
0.0
 11
72.14989259571789
 21
148.8583632460377
 31
0.0
  0
LINE
  5
586
330
4CD
100
AcDbEntity
  8
0
  6
Continuous
 62
     7
370
    15
100
AcDbLine
 10
55.74989515238456
 20
150.8727321698857
 30
0.0
 11
55.74989259571768
 21
148.8583632460377
 31
0.0
  0
LINE
  5
587
330
4CD
100
AcDbEntity
  8
0
  6
Continuous
 62
     7
370
    15
100
AcDbLine
 10
104.9498951523851
 20
148.8583606893704
 30
0.0
 11
105.2998910698389
 21
148.5083647719166
 31
0.0
  0
LINE
  5
588
330
4CD
100
AcDbEntity
  8
0
  6
Continuous
 62
     7
370
    15
100
AcDbLine
 10
63.94989515238522
 20
148.8583606893704
 30
0.0
 11
64.29989106983899
 21
148.5083647719166
 31
0.0
  0
LINE
  5
589
330
4CD
100
AcDbEntity
  8
0
  6
Continuous
 62
     7
370
    15
100
AcDbLine
 10
135.6498984586401
 20
155.3403402871623
 30
0.0
 11
135.6498984586401
 21
161.806958842819
 31
0.0
  0
LINE
  5
58A
330
4CD
100
AcDbEntity
  8
0
  6
Continuous
 62
     7
370
    15
100
AcDbLine
 10
54.24989702144053
 20
161.806958842819
 30
0.0
 11
54.24989702144053
 21
155.3403412109067
 31
0.0
  0
LINE
  5
58B
330
4CD
100
AcDbEntity
  8
0
  6
Continuous
 62
     7
370
    15
100
AcDbLine
 10
131.3781109760839
 20
132.8446230392459
 30
0.0
 11
132.3217350675419
 21
132.8446230392459
 31
0.0
  0
ARC
  5
58C
330
4CD
100
AcDbEntity
  8
0
  6
Continuous
 62
     7
370
    15
100
AcDbCircle
 10
131.3781109760839
 20
133.5446230392459
 30
0.0
 40
0.7000000000000455
100
AcDbArc
 50
189.9999835369507
 51
270.0000000000008
  0
LINE
  5
58D
330
4CD
100
AcDbEntity
  8
0
  6
Continuous
 62
     7
370
    15
100
AcDbLine
 10
130.3499204732395
 20
135.3446478221227
 30
0.0
 11
130.6887455140489
 21
133.4230695129575
 31
0.0
  0
LINE
  5
58E
330
4CD
100
AcDbEntity
  8
0
  6
Continuous
 62
     7
370
    15
100
AcDbLine
 10
130.3499200063685
 20
141.0691035955382
 30
0.0
 11
130.3499204732395
 21
135.3446478221227
 31
0.0
  0
LINE
  5
58F
330
4CD
100
AcDbEntity
  8
0
  6
Continuous
 62
     7
370
    15
100
AcDbLine
 10
133.3499262766068
 20
141.069068395684
 30
0.0
 11
130.3499200063685
 21
141.0691035955382
 31
0.0
  0
LINE
  5
590
330
4CD
100
AcDbEntity
  8
0
  6
Continuous
 62
     7
370
    15
100
AcDbLine
 10
133.3499289384781
 20
135.3446478221249
 30
0.0
 11
133.3499262766068
 21
141.069068395684
 31
0.0
  0
LINE
  5
591
330
4CD
100
AcDbEntity
  8
0
  6
Continuous
 62
     7
370
    15
100
AcDbLine
 10
133.0111005295772
 20
133.4230695129575
 30
0.0
 11
133.3499289384781
 21
135.3446478221249
 31
0.0
  0
ARC
  5
592
330
4CD
100
AcDbEntity
  8
0
  6
Continuous
 62
     7
370
    15
100
AcDbCircle
 10
132.3217350675419
 20
133.5446230392459
 30
0.0
 40
0.7000000000001626
100
AcDbArc
 50
270.0000000000008
 51
350.0000164630546
  0
LINE
  5
593
330
4CD
100
AcDbEntity
  8
0
  6
Continuous
 62
     7
370
    15
100
AcDbLine
 10
123.1781109760839
 20
132.8446230392459
 30
0.0
 11
124.1217350675419
 21
132.8446230392459
 31
0.0
  0
ARC
  5
594
330
4CD
100
AcDbEntity
  8
0
  6
Continuous
 62
     7
370
    15
100
AcDbCircle
 10
123.1781109760839
 20
133.5446230392459
 30
0.0
 40
0.7000000000000455
100
AcDbArc
 50
189.9999835369505
 51
270.0000000000008
  0
LINE
  5
595
330
4CD
100
AcDbEntity
  8
0
  6
Continuous
 62
     7
370
    15
100
AcDbLine
 10
122.1499204732395
 20
135.3446478221227
 30
0.0
 11
122.4887455140489
 21
133.4230695129575
 31
0.0
  0
LINE
  5
596
330
4CD
100
AcDbEntity
  8
0
  6
Continuous
 62
     7
370
    15
100
AcDbLine
 10
122.1499200063685
 20
141.0691035955382
 30
0.0
 11
122.1499204732395
 21
135.3446478221227
 31
0.0
  0
LINE
  5
597
330
4CD
100
AcDbEntity
  8
0
  6
Continuous
 62
     7
370
    15
100
AcDbLine
 10
125.1499262766072
 20
141.069068395684
 30
0.0
 11
122.1499200063685
 21
141.0691035955382
 31
0.0
  0
LINE
  5
598
330
4CD
100
AcDbEntity
  8
0
  6
Continuous
 62
     7
370
    15
100
AcDbLine
 10
125.1499289384786
 20
135.3446478221249
 30
0.0
 11
125.1499262766072
 21
141.069068395684
 31
0.0
  0
LINE
  5
599
330
4CD
100
AcDbEntity
  8
0
  6
Continuous
 62
     7
370
    15
100
AcDbLine
 10
124.8111005295772
 20
133.4230695129575
 30
0.0
 11
125.1499289384786
 21
135.3446478221249
 31
0.0
  0
ARC
  5
59A
330
4CD
100
AcDbEntity
  8
0
  6
Continuous
 62
     7
370
    15
100
AcDbCircle
 10
124.1217350675419
 20
133.5446230392459
 30
0.0
 40
0.7000000000001485
100
AcDbArc
 50
270.0000000000008
 51
350.0000164630544
  0
LINE
  5
59B
330
4CD
100
AcDbEntity
  8
0
  6
Continuous
 62
     7
370
    15
100
AcDbLine
 10
98.57811097608403
 20
132.8446230392459
 30
0.0
 11
99.52173506754199
 21
132.8446230392459
 31
0.0
  0
ARC
  5
59C
330
4CD
100
AcDbEntity
  8
0
  6
Continuous
 62
     7
370
    15
100
AcDbCircle
 10
98.57811097608403
 20
133.5446230392459
 30
0.0
 40
0.7000000000000455
100
AcDbArc
 50
189.9999835369503
 51
270.0000000000008
  0
LINE
  5
59D
330
4CD
100
AcDbEntity
  8
0
  6
Continuous
 62
     7
370
    15
100
AcDbLine
 10
97.54992047323959
 20
135.3446478221227
 30
0.0
 11
97.888745514049
 21
133.4230695129575
 31
0.0
  0
LINE
  5
59E
330
4CD
100
AcDbEntity
  8
0
  6
Continuous
 62
     7
370
    15
100
AcDbLine
 10
97.5499200063686
 20
141.0691035955382
 30
0.0
 11
97.54992047323959
 21
135.3446478221227
 31
0.0
  0
LINE
  5
59F
330
4CD
100
AcDbEntity
  8
0
  6
Continuous
 62
     7
370
    15
100
AcDbLine
 10
100.5499262766073
 20
141.069068395684
 30
0.0
 11
97.5499200063686
 21
141.0691035955382
 31
0.0
  0
LINE
  5
5A0
330
4CD
100
AcDbEntity
  8
0
  6
Continuous
 62
     7
370
    15
100
AcDbLine
 10
100.5499289384786
 20
135.3446478221249
 30
0.0
 11
100.5499262766073
 21
141.069068395684
 31
0.0
  0
ARC
  5
5A1
330
4CD
100
AcDbEntity
  8
0
  6
Continuous
 62
     7
370
    15
100
AcDbCircle
 10
99.52173506754199
 20
133.5446230392459
 30
0.0
 40
0.7000000000001485
100
AcDbArc
 50
270.0000000000008
 51
350.0000164630544
  0
LINE
  5
5A2
330
4CD
100
AcDbEntity
  8
0
  6
Continuous
 62
     7
370
    15
100
AcDbLine
 10
100.2111005295772
 20
133.4230695129575
 30
0.0
 11
100.5499289384786
 21
135.3446478221249
 31
0.0
  0
LINE
  5
5A3
330
4CD
100
AcDbEntity
  8
0
  6
Continuous
 62
     7
370
    15
100
AcDbLine
 10
106.778110976084
 20
132.8446230392459
 30
0.0
 11
107.721735067542
 21
132.8446230392459
 31
0.0
  0
ARC
  5
5A4
330
4CD
100
AcDbEntity
  8
0
  6
Continuous
 62
     7
370
    15
100
AcDbCircle
 10
106.778110976084
 20
133.5446230392459
 30
0.0
 40
0.7000000000000455
100
AcDbArc
 50
189.9999835369505
 51
270.0000000000008
  0
LINE
  5
5A5
330
4CD
100
AcDbEntity
  8
0
  6
Continuous
 62
     7
370
    15
100
AcDbLine
 10
105.7499204732396
 20
135.3446478221227
 30
0.0
 11
106.088745514049
 21
133.4230695129575
 31
0.0
  0
LINE
  5
5A6
330
4CD
100
AcDbEntity
  8
0
  6
Continuous
 62
     7
370
    15
100
AcDbLine
 10
105.7499200063686
 20
141.0691035955382
 30
0.0
 11
105.7499204732396
 21
135.3446478221227
 31
0.0
  0
LINE
  5
5A7
330
4CD
100
AcDbEntity
  8
0
  6
Continuous
 62
     7
370
    15
100
AcDbLine
 10
108.7499262766072
 20
141.069068395684
 30
0.0
 11
105.7499200063686
 21
141.0691035955382
 31
0.0
  0
LINE
  5
5A8
330
4CD
100
AcDbEntity
  8
0
  6
Continuous
 62
     7
370
    15
100
AcDbLine
 10
108.7499289384786
 20
135.3446478221249
 30
0.0
 11
108.7499262766072
 21
141.069068395684
 31
0.0
  0
ARC
  5
5A9
330
4CD
100
AcDbEntity
  8
0
  6
Continuous
 62
     7
370
    15
100
AcDbCircle
 10
107.721735067542
 20
133.5446230392459
 30
0.0
 40
0.7000000000001485
100
AcDbArc
 50
270.0000000000008
 51
350.0000164630544
  0
LINE
  5
5AA
330
4CD
100
AcDbEntity
  8
0
  6
Continuous
 62
     7
370
    15
100
AcDbLine
 10
108.4111005295772
 20
133.4230695129575
 30
0.0
 11
108.7499289384786
 21
135.3446478221249
 31
0.0
  0
LINE
  5
5AB
330
4CD
100
AcDbEntity
  8
0
  6
Continuous
 62
     7
370
    15
100
AcDbLine
 10
114.978110976084
 20
132.8446230392459
 30
0.0
 11
115.9217350675419
 21
132.8446230392459
 31
0.0
  0
ARC
  5
5AC
330
4CD
100
AcDbEntity
  8
0
  6
Continuous
 62
     7
370
    15
100
AcDbCircle
 10
114.978110976084
 20
133.5446230392459
 30
0.0
 40
0.7000000000000455
100
AcDbArc
 50
189.9999835369505
 51
270.0000000000008
  0
LINE
  5
5AD
330
4CD
100
AcDbEntity
  8
0
  6
Continuous
 62
     7
370
    15
100
AcDbLine
 10
113.9499204732395
 20
135.3446478221227
 30
0.0
 11
114.2887455140489
 21
133.4230695129575
 31
0.0
  0
LINE
  5
5AE
330
4CD
100
AcDbEntity
  8
0
  6
Continuous
 62
     7
370
    15
100
AcDbLine
 10
113.9499200063686
 20
141.0691035955382
 30
0.0
 11
113.9499204732395
 21
135.3446478221227
 31
0.0
  0
LINE
  5
5AF
330
4CD
100
AcDbEntity
  8
0
  6
Continuous
 62
     7
370
    15
100
AcDbLine
 10
116.9499262766072
 20
141.069068395684
 30
0.0
 11
113.9499200063686
 21
141.0691035955382
 31
0.0
  0
LINE
  5
5B0
330
4CD
100
AcDbEntity
  8
0
  6
Continuous
 62
     7
370
    15
100
AcDbLine
 10
116.9499289384786
 20
135.3446478221249
 30
0.0
 11
116.9499262766072
 21
141.069068395684
 31
0.0
  0
LINE
  5
5B1
330
4CD
100
AcDbEntity
  8
0
  6
Continuous
 62
     7
370
    15
100
AcDbLine
 10
116.6111005295772
 20
133.4230695129575
 30
0.0
 11
116.9499289384786
 21
135.3446478221249
 31
0.0
  0
ARC
  5
5B2
330
4CD
100
AcDbEntity
  8
0
  6
Continuous
 62
     7
370
    15
100
AcDbCircle
 10
115.9217350675419
 20
133.5446230392459
 30
0.0
 40
0.7000000000001485
100
AcDbArc
 50
270.0000000000008
 51
350.0000164630544
  0
LINE
  5
5B3
330
4CD
100
AcDbEntity
  8
0
  6
Continuous
 62
     7
370
    15
100
AcDbLine
 10
90.37811097608402
 20
132.8446230392459
 30
0.0
 11
91.32173506754201
 21
132.8446230392459
 31
0.0
  0
ARC
  5
5B4
330
4CD
100
AcDbEntity
  8
0
  6
Continuous
 62
     7
370
    15
100
AcDbCircle
 10
90.37811097608402
 20
133.5446230392459
 30
0.0
 40
0.7000000000000455
100
AcDbArc
 50
189.9999835369505
 51
270.0000000000008
  0
LINE
  5
5B5
330
4CD
100
AcDbEntity
  8
0
  6
Continuous
 62
     7
370
    15
100
AcDbLine
 10
89.34992047323961
 20
135.3446478221227
 30
0.0
 11
89.68874551404901
 21
133.4230695129575
 31
0.0
  0
LINE
  5
5B6
330
4CD
100
AcDbEntity
  8
0
  6
Continuous
 62
     7
370
    15
100
AcDbLine
 10
89.34992000636862
 20
141.0691035955382
 30
0.0
 11
89.34992047323961
 21
135.3446478221227
 31
0.0
  0
LINE
  5
5B7
330
4CD
100
AcDbEntity
  8
0
  6
Continuous
 62
     7
370
    15
100
AcDbLine
 10
92.34992627660728
 20
141.069068395684
 30
0.0
 11
89.34992000636862
 21
141.0691035955382
 31
0.0
  0
LINE
  5
5B8
330
4CD
100
AcDbEntity
  8
0
  6
Continuous
 62
     7
370
    15
100
AcDbLine
 10
92.34992893847868
 20
135.3446478221249
 30
0.0
 11
92.34992627660728
 21
141.069068395684
 31
0.0
  0
ARC
  5
5B9
330
4CD
100
AcDbEntity
  8
0
  6
Continuous
 62
     7
370
    15
100
AcDbCircle
 10
91.32173506754201
 20
133.5446230392459
 30
0.0
 40
0.7000000000001485
100
AcDbArc
 50
270.0000000000008
 51
350.0000164630544
  0
LINE
  5
5BA
330
4CD
100
AcDbEntity
  8
0
  6
Continuous
 62
     7
370
    15
100
AcDbLine
 10
92.01110052957725
 20
133.4230695129575
 30
0.0
 11
92.34992893847868
 21
135.3446478221249
 31
0.0
  0
LINE
  5
5BB
330
4CD
100
AcDbEntity
  8
0
  6
Continuous
 62
     7
370
    15
100
AcDbLine
 10
57.57811097608409
 20
132.8446230392459
 30
0.0
 11
58.52173506754207
 21
132.8446230392459
 31
0.0
  0
ARC
  5
5BC
330
4CD
100
AcDbEntity
  8
0
  6
Continuous
 62
     7
370
    15
100
AcDbCircle
 10
57.57811097608409
 20
133.5446230392459
 30
0.0
 40
0.7000000000001485
100
AcDbArc
 50
189.9999835369472
 51
270.0000000000008
  0
LINE
  5
5BD
330
4CD
100
AcDbEntity
  8
0
  6
Continuous
 62
     7
370
    15
100
AcDbLine
 10
56.54992047323967
 20
135.3446478221227
 30
0.0
 11
56.88874551404885
 21
133.4230695129575
 31
0.0
  0
LINE
  5
5BE
330
4CD
100
AcDbEntity
  8
0
  6
Continuous
 62
     7
370
    15
100
AcDbLine
 10
56.54992000636869
 20
141.0691035955382
 30
0.0
 11
56.54992047323967
 21
135.3446478221227
 31
0.0
  0
LINE
  5
5BF
330
4CD
100
AcDbEntity
  8
0
  6
Continuous
 62
     7
370
    15
100
AcDbLine
 10
59.54992627660735
 20
141.069068395684
 30
0.0
 11
56.54992000636869
 21
141.0691035955382
 31
0.0
  0
ARC
  5
5C0
330
4CD
100
AcDbEntity
  8
0
  6
Continuous
 62
     7
370
    15
100
AcDbCircle
 10
58.52173506754207
 20
133.5446230392459
 30
0.0
 40
0.7000000000001485
100
AcDbArc
 50
270.0000000000008
 51
350.0000164630544
  0
LINE
  5
5C1
330
4CD
100
AcDbEntity
  8
0
  6
Continuous
 62
     7
370
    15
100
AcDbLine
 10
59.54992893847851
 20
135.3446478221249
 30
0.0
 11
59.54992627660735
 21
141.069068395684
 31
0.0
  0
LINE
  5
5C2
330
4CD
100
AcDbEntity
  8
0
  6
Continuous
 62
     7
370
    15
100
AcDbLine
 10
59.21110052957732
 20
133.4230695129575
 30
0.0
 11
59.54992893847851
 21
135.3446478221249
 31
0.0
  0
LINE
  5
5C3
330
4CD
100
AcDbEntity
  8
0
  6
Continuous
 62
     7
370
    15
100
AcDbLine
 10
82.17811097608404
 20
132.8446230392459
 30
0.0
 11
83.12173506754204
 21
132.8446230392459
 31
0.0
  0
ARC
  5
5C4
330
4CD
100
AcDbEntity
  8
0
  6
Continuous
 62
     7
370
    15
100
AcDbCircle
 10
82.17811097608404
 20
133.5446230392459
 30
0.0
 40
0.7000000000000455
100
AcDbArc
 50
189.9999835369505
 51
270.0000000000008
  0
LINE
  5
5C5
330
4CD
100
AcDbEntity
  8
0
  6
Continuous
 62
     7
370
    15
100
AcDbLine
 10
81.14992047323964
 20
135.3446478221227
 30
0.0
 11
81.48874551404903
 21
133.4230695129575
 31
0.0
  0
LINE
  5
5C6
330
4CD
100
AcDbEntity
  8
0
  6
Continuous
 62
     7
370
    15
100
AcDbLine
 10
81.14992000636865
 20
141.0691035955382
 30
0.0
 11
81.14992047323964
 21
135.3446478221227
 31
0.0
  0
LINE
  5
5C7
330
4CD
100
AcDbEntity
  8
0
  6
Continuous
 62
     7
370
    15
100
AcDbLine
 10
84.1499262766073
 20
141.069068395684
 30
0.0
 11
81.14992000636865
 21
141.0691035955382
 31
0.0
  0
LINE
  5
5C8
330
4CD
100
AcDbEntity
  8
0
  6
Continuous
 62
     7
370
    15
100
AcDbLine
 10
84.1499289384787
 20
135.3446478221249
 30
0.0
 11
84.1499262766073
 21
141.069068395684
 31
0.0
  0
ARC
  5
5C9
330
4CD
100
AcDbEntity
  8
0
  6
Continuous
 62
     7
370
    15
100
AcDbCircle
 10
83.12173506754204
 20
133.5446230392459
 30
0.0
 40
0.7000000000001485
100
AcDbArc
 50
270.0000000000008
 51
350.0000164630544
  0
LINE
  5
5CA
330
4CD
100
AcDbEntity
  8
0
  6
Continuous
 62
     7
370
    15
100
AcDbLine
 10
83.81110052957728
 20
133.4230695129575
 30
0.0
 11
84.1499289384787
 21
135.3446478221249
 31
0.0
  0
LINE
  5
5CB
330
4CD
100
AcDbEntity
  8
0
  6
Continuous
 62
     7
370
    15
100
AcDbLine
 10
65.77811097608408
 20
132.8446230392459
 30
0.0
 11
66.72173506754205
 21
132.8446230392459
 31
0.0
  0
ARC
  5
5CC
330
4CD
100
AcDbEntity
  8
0
  6
Continuous
 62
     7
370
    15
100
AcDbCircle
 10
65.77811097608408
 20
133.5446230392459
 30
0.0
 40
0.7000000000000455
100
AcDbArc
 50
189.9999835369503
 51
270.0000000000008
  0
LINE
  5
5CD
330
4CD
100
AcDbEntity
  8
0
  6
Continuous
 62
     7
370
    15
100
AcDbLine
 10
64.74992047323965
 20
135.3446478221227
 30
0.0
 11
65.08874551404905
 21
133.4230695129575
 31
0.0
  0
LINE
  5
5CE
330
4CD
100
AcDbEntity
  8
0
  6
Continuous
 62
     7
370
    15
100
AcDbLine
 10
64.74992000636866
 20
141.0691035955382
 30
0.0
 11
64.74992047323965
 21
135.3446478221227
 31
0.0
  0
LINE
  5
5CF
330
4CD
100
AcDbEntity
  8
0
  6
Continuous
 62
     7
370
    15
100
AcDbLine
 10
67.74992627660734
 20
141.069068395684
 30
0.0
 11
64.74992000636866
 21
141.0691035955382
 31
0.0
  0
ARC
  5
5D0
330
4CD
100
AcDbEntity
  8
0
  6
Continuous
 62
     7
370
    15
100
AcDbCircle
 10
66.72173506754205
 20
133.5446230392459
 30
0.0
 40
0.7000000000001485
100
AcDbArc
 50
270.0000000000008
 51
350.0000164630544
  0
LINE
  5
5D1
330
4CD
100
AcDbEntity
  8
0
  6
Continuous
 62
     7
370
    15
100
AcDbLine
 10
67.74992893847873
 20
135.3446478221249
 30
0.0
 11
67.74992627660734
 21
141.069068395684
 31
0.0
  0
LINE
  5
5D2
330
4CD
100
AcDbEntity
  8
0
  6
Continuous
 62
     7
370
    15
100
AcDbLine
 10
67.41110052957729
 20
133.4230695129575
 30
0.0
 11
67.74992893847873
 21
135.3446478221249
 31
0.0
  0
LINE
  5
5D3
330
4CD
100
AcDbEntity
  8
0
  6
Continuous
 62
     7
370
    15
100
AcDbLine
 10
73.97811097608405
 20
132.8446230392459
 30
0.0
 11
74.92173506754205
 21
132.8446230392459
 31
0.0
  0
ARC
  5
5D4
330
4CD
100
AcDbEntity
  8
0
  6
Continuous
 62
     7
370
    15
100
AcDbCircle
 10
73.97811097608405
 20
133.5446230392459
 30
0.0
 40
0.7000000000000455
100
AcDbArc
 50
189.9999835369505
 51
270.0000000000008
  0
LINE
  5
5D5
330
4CD
100
AcDbEntity
  8
0
  6
Continuous
 62
     7
370
    15
100
AcDbLine
 10
72.94992047323964
 20
135.3446478221227
 30
0.0
 11
73.28874551404904
 21
133.4230695129575
 31
0.0
  0
LINE
  5
5D6
330
4CD
100
AcDbEntity
  8
0
  6
Continuous
 62
     7
370
    15
100
AcDbLine
 10
72.94992000636866
 20
141.0691035955382
 30
0.0
 11
72.94992047323964
 21
135.3446478221227
 31
0.0
  0
LINE
  5
5D7
330
4CD
100
AcDbEntity
  8
0
  6
Continuous
 62
     7
370
    15
100
AcDbLine
 10
75.94992627660731
 20
141.069068395684
 30
0.0
 11
72.94992000636866
 21
141.0691035955382
 31
0.0
  0
ARC
  5
5D8
330
4CD
100
AcDbEntity
  8
0
  6
Continuous
 62
     7
370
    15
100
AcDbCircle
 10
74.92173506754205
 20
133.5446230392459
 30
0.0
 40
0.7000000000001485
100
AcDbArc
 50
270.0000000000008
 51
350.0000164630544
  0
LINE
  5
5D9
330
4CD
100
AcDbEntity
  8
0
  6
Continuous
 62
     7
370
    15
100
AcDbLine
 10
75.9499289384787
 20
135.3446478221249
 30
0.0
 11
75.94992627660731
 21
141.069068395684
 31
0.0
  0
LINE
  5
5DA
330
4CD
100
AcDbEntity
  8
0
  6
Continuous
 62
     7
370
    15
100
AcDbLine
 10
75.61110052957729
 20
133.4230695129575
 30
0.0
 11
75.9499289384787
 21
135.3446478221249
 31
0.0
  0
LINE
  5
5DB
330
4CD
100
AcDbEntity
  8
0
  6
Continuous
 62
     7
370
    15
100
AcDbLine
 10
56.54991998190158
 20
141.3691035955537
 30
0.0
 11
56.54992000636869
 21
141.0691035955382
 31
0.0
  0
LINE
  5
5DC
330
4CD
100
AcDbEntity
  8
0
  6
Continuous
 62
     7
370
    15
100
AcDbLine
 10
59.54992606172545
 20
141.3690683957058
 30
0.0
 11
56.54991998190158
 21
141.3691035955537
 31
0.0
  0
LINE
  5
5DD
330
4CD
100
AcDbEntity
  8
0
  6
Continuous
 62
     7
370
    15
100
AcDbLine
 10
59.54992627660735
 20
141.069068395684
 30
0.0
 11
59.54992606172545
 21
141.3690683957058
 31
0.0
  0
LINE
  5
5DE
330
4CD
100
AcDbEntity
  8
0
  6
Continuous
 62
     7
370
    15
100
AcDbLine
 10
64.74991998190157
 20
141.3691035955537
 30
0.0
 11
64.74992000636866
 21
141.0691035955382
 31
0.0
  0
LINE
  5
5DF
330
4CD
100
AcDbEntity
  8
0
  6
Continuous
 62
     7
370
    15
100
AcDbLine
 10
67.74992606172545
 20
141.3690683957058
 30
0.0
 11
64.74991998190157
 21
141.3691035955537
 31
0.0
  0
LINE
  5
5E0
330
4CD
100
AcDbEntity
  8
0
  6
Continuous
 62
     7
370
    15
100
AcDbLine
 10
67.74992627660734
 20
141.069068395684
 30
0.0
 11
67.74992606172545
 21
141.3690683957058
 31
0.0
  0
LINE
  5
5E1
330
4CD
100
AcDbEntity
  8
0
  6
Continuous
 62
     7
370
    15
100
AcDbLine
 10
72.94991998190155
 20
141.3691035955537
 30
0.0
 11
72.94992000636866
 21
141.0691035955382
 31
0.0
  0
LINE
  5
5E2
330
4CD
100
AcDbEntity
  8
0
  6
Continuous
 62
     7
370
    15
100
AcDbLine
 10
75.94992606172543
 20
141.3690683957058
 30
0.0
 11
72.94991998190155
 21
141.3691035955537
 31
0.0
  0
LINE
  5
5E3
330
4CD
100
AcDbEntity
  8
0
  6
Continuous
 62
     7
370
    15
100
AcDbLine
 10
75.94992627660731
 20
141.069068395684
 30
0.0
 11
75.94992606172543
 21
141.3690683957058
 31
0.0
  0
LINE
  5
5E4
330
4CD
100
AcDbEntity
  8
0
  6
Continuous
 62
     7
370
    15
100
AcDbLine
 10
97.54991998190151
 20
141.3691035955537
 30
0.0
 11
97.5499200063686
 21
141.0691035955382
 31
0.0
  0
LINE
  5
5E5
330
4CD
100
AcDbEntity
  8
0
  6
Continuous
 62
     7
370
    15
100
AcDbLine
 10
100.5499260617254
 20
141.3690683957058
 30
0.0
 11
97.54991998190151
 21
141.3691035955537
 31
0.0
  0
LINE
  5
5E6
330
4CD
100
AcDbEntity
  8
0
  6
Continuous
 62
     7
370
    15
100
AcDbLine
 10
100.5499262766073
 20
141.069068395684
 30
0.0
 11
100.5499260617254
 21
141.3690683957058
 31
0.0
  0
LINE
  5
5E7
330
4CD
100
AcDbEntity
  8
0
  6
Continuous
 62
     7
370
    15
100
AcDbLine
 10
81.14991998190154
 20
141.3691035955537
 30
0.0
 11
81.14992000636865
 21
141.0691035955382
 31
0.0
  0
LINE
  5
5E8
330
4CD
100
AcDbEntity
  8
0
  6
Continuous
 62
     7
370
    15
100
AcDbLine
 10
84.14992606172541
 20
141.3690683957058
 30
0.0
 11
81.14991998190154
 21
141.3691035955537
 31
0.0
  0
LINE
  5
5E9
330
4CD
100
AcDbEntity
  8
0
  6
Continuous
 62
     7
370
    15
100
AcDbLine
 10
84.1499262766073
 20
141.069068395684
 30
0.0
 11
84.14992606172541
 21
141.3690683957058
 31
0.0
  0
LINE
  5
5EA
330
4CD
100
AcDbEntity
  8
0
  6
Continuous
 62
     7
370
    15
100
AcDbLine
 10
130.3499199819014
 20
141.3691035955537
 30
0.0
 11
130.3499200063685
 21
141.0691035955382
 31
0.0
  0
LINE
  5
5EB
330
4CD
100
AcDbEntity
  8
0
  6
Continuous
 62
     7
370
    15
100
AcDbLine
 10
133.3499260617249
 20
141.3690683957058
 30
0.0
 11
130.3499199819014
 21
141.3691035955537
 31
0.0
  0
LINE
  5
5EC
330
4CD
100
AcDbEntity
  8
0
  6
Continuous
 62
     7
370
    15
100
AcDbLine
 10
133.3499262766068
 20
141.069068395684
 30
0.0
 11
133.3499260617249
 21
141.3690683957058
 31
0.0
  0
LINE
  5
5ED
330
4CD
100
AcDbEntity
  8
0
  6
Continuous
 62
     7
370
    15
100
AcDbLine
 10
89.34991998190154
 20
141.3691035955537
 30
0.0
 11
89.34992000636862
 21
141.0691035955382
 31
0.0
  0
LINE
  5
5EE
330
4CD
100
AcDbEntity
  8
0
  6
Continuous
 62
     7
370
    15
100
AcDbLine
 10
92.34992606172539
 20
141.3690683957058
 30
0.0
 11
89.34991998190154
 21
141.3691035955537
 31
0.0
  0
LINE
  5
5EF
330
4CD
100
AcDbEntity
  8
0
  6
Continuous
 62
     7
370
    15
100
AcDbLine
 10
92.34992627660728
 20
141.069068395684
 30
0.0
 11
92.34992606172539
 21
141.3690683957058
 31
0.0
  0
LINE
  5
5F0
330
4CD
100
AcDbEntity
  8
0
  6
Continuous
 62
     7
370
    15
100
AcDbLine
 10
122.1499199819015
 20
141.3691035955537
 30
0.0
 11
122.1499200063685
 21
141.0691035955382
 31
0.0
  0
LINE
  5
5F1
330
4CD
100
AcDbEntity
  8
0
  6
Continuous
 62
     7
370
    15
100
AcDbLine
 10
125.1499260617253
 20
141.3690683957058
 30
0.0
 11
122.1499199819015
 21
141.3691035955537
 31
0.0
  0
LINE
  5
5F2
330
4CD
100
AcDbEntity
  8
0
  6
Continuous
 62
     7
370
    15
100
AcDbLine
 10
125.1499262766072
 20
141.069068395684
 30
0.0
 11
125.1499260617253
 21
141.3690683957058
 31
0.0
  0
LINE
  5
5F3
330
4CD
100
AcDbEntity
  8
0
  6
Continuous
 62
     7
370
    15
100
AcDbLine
 10
105.7499199819015
 20
141.3691035955537
 30
0.0
 11
105.7499200063686
 21
141.0691035955382
 31
0.0
  0
LINE
  5
5F4
330
4CD
100
AcDbEntity
  8
0
  6
Continuous
 62
     7
370
    15
100
AcDbLine
 10
108.7499260617254
 20
141.3690683957058
 30
0.0
 11
105.7499199819015
 21
141.3691035955537
 31
0.0
  0
LINE
  5
5F5
330
4CD
100
AcDbEntity
  8
0
  6
Continuous
 62
     7
370
    15
100
AcDbLine
 10
108.7499262766072
 20
141.069068395684
 30
0.0
 11
108.7499260617254
 21
141.3690683957058
 31
0.0
  0
LINE
  5
5F6
330
4CD
100
AcDbEntity
  8
0
  6
Continuous
 62
     7
370
    15
100
AcDbLine
 10
113.9499199819015
 20
141.3691035955537
 30
0.0
 11
113.9499200063686
 21
141.0691035955382
 31
0.0
  0
LINE
  5
5F7
330
4CD
100
AcDbEntity
  8
0
  6
Continuous
 62
     7
370
    15
100
AcDbLine
 10
116.9499260617253
 20
141.3690683957058
 30
0.0
 11
113.9499199819015
 21
141.3691035955537
 31
0.0
  0
LINE
  5
5F8
330
4CD
100
AcDbEntity
  8
0
  6
Continuous
 62
     7
370
    15
100
AcDbLine
 10
116.9499262766072
 20
141.069068395684
 30
0.0
 11
116.9499260617253
 21
141.3690683957058
 31
0.0
  0
LINE
  5
5F9
330
4CD
100
AcDbEntity
  8
0
  6
Continuous
 62
     7
370
    15
100
AcDbLine
 10
130.3499199574343
 20
141.6691035955746
 30
0.0
 11
133.3499209480396
 21
141.6690683957864
 31
0.0
  0
LINE
  5
5FA
330
4CD
100
AcDbEntity
  8
0
  6
Continuous
 62
     7
370
    15
100
AcDbLine
 10
130.3499199819012
 20
141.3691035955537
 30
0.0
 11
130.3499199574343
 21
141.6691035955746
 31
0.0
  0
LWPOLYLINE
  5
5FB
330
4CD
100
AcDbEntity
  8
0
  6
Continuous
 62
     7
370
    15
100
AcDbPolyline
 90
        9
 70
   128
 43
0.0
 10
133.3499209480396
 20
141.6690683957864
 10
133.3499210840901
 20
141.610541299173
 10
133.3499214031707
 20
141.5542633660584
 10
133.3499218930188
 20
141.5023973258518
 10
133.3499225348103
 20
141.4569363613922
 10
133.3499233038814
 20
141.419627512049
 10
133.3499241706771
 20
141.3919045359801
 10
133.3499251018869
 20
141.3748328116088
 10
133.3499260617249
 20
141.3690683957058
  0
LINE
  5
5FC
330
4CD
100
AcDbEntity
  8
0
  6
Continuous
 62
     7
370
    15
100
AcDbLine
 10
105.7499199574344
 20
141.6691035955746
 30
0.0
 11
108.7499209480394
 21
141.6690683957864
 31
0.0
  0
LINE
  5
5FD
330
4CD
100
AcDbEntity
  8
0
  6
Continuous
 62
     7
370
    15
100
AcDbLine
 10
105.7499199819013
 20
141.3691035955537
 30
0.0
 11
105.7499199574344
 21
141.6691035955746
 31
0.0
  0
LWPOLYLINE
  5
5FE
330
4CD
100
AcDbEntity
  8
0
  6
Continuous
 62
     7
370
    15
100
AcDbPolyline
 90
        9
 70
   128
 43
0.0
 10
108.7499209480394
 20
141.6690683957864
 10
108.7499210840899
 20
141.610541299173
 10
108.7499214031705
 20
141.5542633660584
 10
108.7499218930189
 20
141.5023973258518
 10
108.7499225348104
 20
141.4569363613922
 10
108.7499233038814
 20
141.419627512049
 10
108.7499241706771
 20
141.3919045359801
 10
108.7499251018869
 20
141.3748328116088
 10
108.7499260617254
 20
141.3690683957058
  0
LINE
  5
5FF
330
4CD
100
AcDbEntity
  8
0
  6
Continuous
 62
     7
370
    15
100
AcDbLine
 10
113.9499199574344
 20
141.6691035955746
 30
0.0
 11
116.9499209480394
 21
141.6690683957864
 31
0.0
  0
LINE
  5
600
330
4CD
100
AcDbEntity
  8
0
  6
Continuous
 62
     7
370
    15
100
AcDbLine
 10
113.9499199819012
 20
141.3691035955537
 30
0.0
 11
113.9499199574344
 21
141.6691035955746
 31
0.0
  0
LWPOLYLINE
  5
601
330
4CD
100
AcDbEntity
  8
0
  6
Continuous
 62
     7
370
    15
100
AcDbPolyline
 90
        9
 70
   128
 43
0.0
 10
116.9499209480394
 20
141.6690683957864
 10
116.9499210840899
 20
141.610541299173
 10
116.9499214031705
 20
141.5542633660584
 10
116.9499218930188
 20
141.5023973258518
 10
116.9499225348104
 20
141.4569363613922
 10
116.9499233038814
 20
141.419627512049
 10
116.9499241706771
 20
141.3919045359801
 10
116.9499251018869
 20
141.3748328116088
 10
116.9499260617253
 20
141.3690683957058
  0
LINE
  5
602
330
4CD
100
AcDbEntity
  8
0
  6
Continuous
 62
     7
370
    15
100
AcDbLine
 10
89.34991995743443
 20
141.6691035955746
 30
0.0
 11
92.34992094803947
 21
141.6690683957864
 31
0.0
  0
LINE
  5
603
330
4CD
100
AcDbEntity
  8
0
  6
Continuous
 62
     7
370
    15
100
AcDbLine
 10
89.34991998190131
 20
141.3691035955537
 30
0.0
 11
89.34991995743443
 21
141.6691035955746
 31
0.0
  0
LWPOLYLINE
  5
604
330
4CD
100
AcDbEntity
  8
0
  6
Continuous
 62
     7
370
    15
100
AcDbPolyline
 90
        9
 70
   128
 43
0.0
 10
92.34992094803947
 20
141.6690683957864
 10
92.34992108408999
 20
141.610541299173
 10
92.34992140317052
 20
141.5542633660584
 10
92.34992189301891
 20
141.5023973258518
 10
92.34992253481042
 20
141.4569363613922
 10
92.34992330388145
 20
141.419627512049
 10
92.3499241706772
 20
141.3919045359801
 10
92.34992510188696
 20
141.3748328116088
 10
92.34992606172539
 20
141.3690683957058
  0
LINE
  5
605
330
4CD
100
AcDbEntity
  8
0
  6
Continuous
 62
     7
370
    15
100
AcDbLine
 10
122.1499199574344
 20
141.6691035955746
 30
0.0
 11
125.1499209480394
 21
141.6690683957864
 31
0.0
  0
LINE
  5
606
330
4CD
100
AcDbEntity
  8
0
  6
Continuous
 62
     7
370
    15
100
AcDbLine
 10
122.1499199819012
 20
141.3691035955537
 30
0.0
 11
122.1499199574344
 21
141.6691035955746
 31
0.0
  0
LWPOLYLINE
  5
607
330
4CD
100
AcDbEntity
  8
0
  6
Continuous
 62
     7
370
    15
100
AcDbPolyline
 90
        9
 70
   128
 43
0.0
 10
125.1499209480394
 20
141.6690683957864
 10
125.1499210840899
 20
141.610541299173
 10
125.1499214031704
 20
141.5542633660584
 10
125.1499218930188
 20
141.5023973258518
 10
125.1499225348103
 20
141.4569363613922
 10
125.1499233038814
 20
141.419627512049
 10
125.1499241706771
 20
141.3919045359801
 10
125.1499251018869
 20
141.3748328116088
 10
125.1499260617253
 20
141.3690683957058
  0
LINE
  5
608
330
4CD
100
AcDbEntity
  8
0
  6
Continuous
 62
     7
370
    15
100
AcDbLine
 10
56.5499199574345
 20
141.6691035955746
 30
0.0
 11
59.54992094803954
 21
141.6690683957864
 31
0.0
  0
LINE
  5
609
330
4CD
100
AcDbEntity
  8
0
  6
Continuous
 62
     7
370
    15
100
AcDbLine
 10
56.54991998190115
 20
141.3691035955537
 30
0.0
 11
56.5499199574345
 21
141.6691035955746
 31
0.0
  0
LWPOLYLINE
  5
60A
330
4CD
100
AcDbEntity
  8
0
  6
Continuous
 62
     7
370
    15
100
AcDbPolyline
 90
        9
 70
   128
 43
0.0
 10
59.54992094803954
 20
141.6690683957864
 10
59.54992108409005
 20
141.610541299173
 10
59.54992140317059
 20
141.5542633660584
 10
59.54992189301897
 20
141.5023973258518
 10
59.54992253481026
 20
141.4569363613922
 10
59.54992330388151
 20
141.419627512049
 10
59.54992417067703
 20
141.3919045359801
 10
59.54992510188702
 20
141.3748328116088
 10
59.54992606172545
 20
141.3690683957058
  0
LINE
  5
60B
330
4CD
100
AcDbEntity
  8
0
  6
Continuous
 62
     7
370
    15
100
AcDbLine
 10
81.14991995743444
 20
141.6691035955746
 30
0.0
 11
84.14992094803949
 21
141.6690683957864
 31
0.0
  0
LINE
  5
60C
330
4CD
100
AcDbEntity
  8
0
  6
Continuous
 62
     7
370
    15
100
AcDbLine
 10
81.14991998190133
 20
141.3691035955537
 30
0.0
 11
81.14991995743444
 21
141.6691035955746
 31
0.0
  0
LWPOLYLINE
  5
60D
330
4CD
100
AcDbEntity
  8
0
  6
Continuous
 62
     7
370
    15
100
AcDbPolyline
 90
        9
 70
   128
 43
0.0
 10
84.14992094803949
 20
141.6690683957864
 10
84.14992108409
 20
141.610541299173
 10
84.14992140317053
 20
141.5542633660584
 10
84.14992189301893
 20
141.5023973258518
 10
84.14992253481043
 20
141.4569363613922
 10
84.14992330388146
 20
141.419627512049
 10
84.1499241706772
 20
141.3919045359801
 10
84.14992510188698
 20
141.3748328116088
 10
84.14992606172541
 20
141.3690683957058
  0
LINE
  5
60E
330
4CD
100
AcDbEntity
  8
0
  6
Continuous
 62
     7
370
    15
100
AcDbLine
 10
64.74991995743448
 20
141.6691035955746
 30
0.0
 11
67.74992094803953
 21
141.6690683957864
 31
0.0
  0
LINE
  5
60F
330
4CD
100
AcDbEntity
  8
0
  6
Continuous
 62
     7
370
    15
100
AcDbLine
 10
64.74991998190136
 20
141.3691035955537
 30
0.0
 11
64.74991995743448
 21
141.6691035955746
 31
0.0
  0
LWPOLYLINE
  5
610
330
4CD
100
AcDbEntity
  8
0
  6
Continuous
 62
     7
370
    15
100
AcDbPolyline
 90
        9
 70
   128
 43
0.0
 10
67.74992094803953
 20
141.6690683957864
 10
67.74992108409003
 20
141.610541299173
 10
67.74992140317057
 20
141.5542633660584
 10
67.74992189301895
 20
141.5023973258518
 10
67.74992253481046
 20
141.4569363613922
 10
67.74992330388148
 20
141.419627512049
 10
67.74992417067723
 20
141.3919045359801
 10
67.74992510188702
 20
141.3748328116088
 10
67.74992606172545
 20
141.3690683957058
  0
LINE
  5
611
330
4CD
100
AcDbEntity
  8
0
  6
Continuous
 62
     7
370
    15
100
AcDbLine
 10
72.94991995743446
 20
141.6691035955746
 30
0.0
 11
75.9499209480395
 21
141.6690683957864
 31
0.0
  0
LINE
  5
612
330
4CD
100
AcDbEntity
  8
0
  6
Continuous
 62
     7
370
    15
100
AcDbLine
 10
72.94991998190134
 20
141.3691035955537
 30
0.0
 11
72.94991995743446
 21
141.6691035955746
 31
0.0
  0
LWPOLYLINE
  5
613
330
4CD
100
AcDbEntity
  8
0
  6
Continuous
 62
     7
370
    15
100
AcDbPolyline
 90
        9
 70
   128
 43
0.0
 10
75.9499209480395
 20
141.6690683957864
 10
75.94992108409002
 20
141.610541299173
 10
75.94992140317055
 20
141.5542633660584
 10
75.94992189301894
 20
141.5023973258518
 10
75.94992253481045
 20
141.4569363613922
 10
75.94992330388148
 20
141.419627512049
 10
75.94992417067722
 20
141.3919045359801
 10
75.949925101887
 20
141.3748328116088
 10
75.94992606172543
 20
141.3690683957058
  0
LINE
  5
614
330
4CD
100
AcDbEntity
  8
0
  6
Continuous
 62
     7
370
    15
100
AcDbLine
 10
97.54991995743443
 20
141.6691035955746
 30
0.0
 11
100.5499209480394
 21
141.6690683957864
 31
0.0
  0
LINE
  5
615
330
4CD
100
AcDbEntity
  8
0
  6
Continuous
 62
     7
370
    15
100
AcDbLine
 10
97.5499199819013
 20
141.3691035955537
 30
0.0
 11
97.54991995743443
 21
141.6691035955746
 31
0.0
  0
LWPOLYLINE
  5
616
330
4CD
100
AcDbEntity
  8
0
  6
Continuous
 62
     7
370
    15
100
AcDbPolyline
 90
        9
 70
   128
 43
0.0
 10
100.5499209480394
 20
141.6690683957864
 10
100.5499210840899
 20
141.610541299173
 10
100.5499214031705
 20
141.5542633660584
 10
100.5499218930189
 20
141.5023973258518
 10
100.5499225348104
 20
141.4569363613922
 10
100.5499233038814
 20
141.419627512049
 10
100.5499241706772
 20
141.3919045359801
 10
100.5499251018869
 20
141.3748328116088
 10
100.5499260617254
 20
141.3690683957058
  0
LINE
  5
617
330
4CD
100
AcDbEntity
  8
0
  6
Continuous
 62
     7
370
    15
100
AcDbLine
 10
97.54991995743443
 20
141.6691035955746
 30
0.0
 11
97.54991977150403
 21
148.5083647719166
 31
0.0
  0
LINE
  5
618
330
4CD
100
AcDbEntity
  8
0
  6
Continuous
 62
     7
370
    15
100
AcDbLine
 10
100.5499209480397
 20
148.5083647719166
 30
0.0
 11
100.5499209480394
 21
141.6690683957864
 31
0.0
  0
LINE
  5
619
330
4CD
100
AcDbEntity
  8
0
  6
Continuous
 62
     7
370
    15
100
AcDbLine
 10
130.3499199574343
 20
141.6691035955746
 30
0.0
 11
130.3499196688445
 21
148.5083647719166
 31
0.0
  0
LINE
  5
61A
330
4CD
100
AcDbEntity
  8
0
  6
Continuous
 62
     7
370
    15
100
AcDbLine
 10
133.3499209480396
 20
148.5083647719166
 30
0.0
 11
133.3499209480396
 21
141.6690683957864
 31
0.0
  0
LINE
  5
61B
330
4CD
100
AcDbEntity
  8
0
  6
Continuous
 62
     7
370
    15
100
AcDbLine
 10
56.5499199574345
 20
141.6691035955746
 30
0.0
 11
56.54991977150412
 21
148.5083647719166
 31
0.0
  0
LINE
  5
61C
330
4CD
100
AcDbEntity
  8
0
  6
Continuous
 62
     7
370
    15
100
AcDbLine
 10
59.54992094803954
 20
148.5083647719166
 30
0.0
 11
59.54992094803954
 21
141.6690683957864
 31
0.0
  0
LINE
  5
61D
330
4CD
100
AcDbEntity
  8
0
  6
Continuous
 62
     7
370
    15
100
AcDbLine
 10
81.14991995743444
 20
141.6691035955746
 30
0.0
 11
81.14991977150408
 21
148.5083647719166
 31
0.0
  0
LINE
  5
61E
330
4CD
100
AcDbEntity
  8
0
  6
Continuous
 62
     7
370
    15
100
AcDbLine
 10
84.14992094803972
 20
148.5083647719166
 30
0.0
 11
84.14992094803949
 21
141.6690683957864
 31
0.0
  0
LINE
  5
61F
330
4CD
100
AcDbEntity
  8
0
  6
Continuous
 62
     7
370
    15
100
AcDbLine
 10
72.94991995743446
 20
141.6691035955746
 30
0.0
 11
72.94991977150409
 21
148.5083647719166
 31
0.0
  0
LINE
  5
620
330
4CD
100
AcDbEntity
  8
0
  6
Continuous
 62
     7
370
    15
100
AcDbLine
 10
75.94992094803973
 20
148.5083647719166
 30
0.0
 11
75.9499209480395
 21
141.6690683957864
 31
0.0
  0
LINE
  5
621
330
4CD
100
AcDbEntity
  8
0
  6
Continuous
 62
     7
370
    15
100
AcDbLine
 10
122.1499199574344
 20
141.6691035955746
 30
0.0
 11
122.149919771504
 21
148.5083647719166
 31
0.0
  0
LINE
  5
622
330
4CD
100
AcDbEntity
  8
0
  6
Continuous
 62
     7
370
    15
100
AcDbLine
 10
125.1499209480396
 20
148.5083647719166
 30
0.0
 11
125.1499209480394
 21
141.6690683957864
 31
0.0
  0
LINE
  5
623
330
4CD
100
AcDbEntity
  8
0
  6
Continuous
 62
     7
370
    15
100
AcDbLine
 10
89.34991995743443
 20
141.6691035955746
 30
0.0
 11
89.34991977150405
 21
148.5083647719166
 31
0.0
  0
LINE
  5
624
330
4CD
100
AcDbEntity
  8
0
  6
Continuous
 62
     7
370
    15
100
AcDbLine
 10
92.3499209480397
 20
148.5083647719166
 30
0.0
 11
92.34992094803947
 21
141.6690683957864
 31
0.0
  0
LINE
  5
625
330
4CD
100
AcDbEntity
  8
0
  6
Continuous
 62
     7
370
    15
100
AcDbLine
 10
105.7499199574344
 20
141.6691035955746
 30
0.0
 11
105.749919771504
 21
148.5083647719166
 31
0.0
  0
LINE
  5
626
330
4CD
100
AcDbEntity
  8
0
  6
Continuous
 62
     7
370
    15
100
AcDbLine
 10
108.7499209480397
 20
148.5083647719166
 30
0.0
 11
108.7499209480394
 21
141.6690683957864
 31
0.0
  0
LINE
  5
627
330
4CD
100
AcDbEntity
  8
0
  6
Continuous
 62
     7
370
    15
100
AcDbLine
 10
64.74991995743448
 20
141.6691035955746
 30
0.0
 11
64.74991977150409
 21
148.5083647719166
 31
0.0
  0
LINE
  5
628
330
4CD
100
AcDbEntity
  8
0
  6
Continuous
 62
     7
370
    15
100
AcDbLine
 10
67.74992094803974
 20
148.5083647719166
 30
0.0
 11
67.74992094803953
 21
141.6690683957864
 31
0.0
  0
LINE
  5
629
330
4CD
100
AcDbEntity
  8
0
  6
Continuous
 62
     7
370
    15
100
AcDbLine
 10
113.9499199574344
 20
141.6691035955746
 30
0.0
 11
113.949919771504
 21
148.5083647719166
 31
0.0
  0
LINE
  5
62A
330
4CD
100
AcDbEntity
  8
0
  6
Continuous
 62
     7
370
    15
100
AcDbLine
 10
116.9499209480396
 20
148.5083647719166
 30
0.0
 11
116.9499209480394
 21
141.6690683957864
 31
0.0
  0
ENDBLK
  5
4CF
330
4CD
100
AcDbEntity
  8
0
100
AcDbBlockEnd
  0
BLOCK
  5
62D
330
62C
100
AcDbEntity
  8
0
100
AcDbBlockBegin
  2
2
 70
     0
 10
0.0
 20
0.0
 30
0.0
  3
2
  1

  0
LINE
  5
62F
330
62C
100
AcDbEntity
  8
0
  6
Continuous
 62
     7
370
    15
100
AcDbLine
 10
33.40448923695685
 20
155.3403402871623
 30
0.0
 11
33.40448923695685
 21
161.806958842819
 31
0.0
  0
LINE
  5
630
330
62C
100
AcDbEntity
  8
0
  6
Continuous
 62
     7
370
    15
100
AcDbLine
 10
30.40448923695685
 20
155.3403402871623
 30
0.0
 11
30.40448923695685
 21
161.806958842819
 31
0.0
  0
LINE
  5
631
330
62C
100
AcDbEntity
  8
0
  6
Continuous
 62
     7
370
    15
100
AcDbLine
 10
30.40448923695685
 20
161.806958842819
 30
0.0
 11
29.65448923695685
 21
161.806958842819
 31
0.0
  0
LINE
  5
632
330
62C
100
AcDbEntity
  8
0
  6
Continuous
 62
     7
370
    15
100
AcDbLine
 10
29.65448923695685
 20
161.806958842819
 30
0.0
 11
29.65448923695685
 21
163.006958842819
 31
0.0
  0
LINE
  5
633
330
62C
100
AcDbEntity
  8
0
  6
Continuous
 62
     7
370
    15
100
AcDbLine
 10
29.65448923695685
 20
163.006958842819
 30
0.0
 11
34.15448923695685
 21
163.006958842819
 31
0.0
  0
LINE
  5
634
330
62C
100
AcDbEntity
  8
0
  6
Continuous
 62
     7
370
    15
100
AcDbLine
 10
34.15448923695685
 20
163.006958842819
 30
0.0
 11
34.15448923695685
 21
161.806958842819
 31
0.0
  0
LINE
  5
635
330
62C
100
AcDbEntity
  8
0
  6
Continuous
 62
     7
370
    15
100
AcDbLine
 10
34.15448923695685
 20
161.806958842819
 30
0.0
 11
33.40448923695685
 21
161.806958842819
 31
0.0
  0
LINE
  5
636
330
62C
100
AcDbEntity
  8
0
  6
Continuous
 62
     7
370
    15
100
AcDbLine
 10
33.40448923695685
 20
155.3403402871623
 30
0.0
 11
30.40448923695685
 21
155.3403402871623
 31
0.0
  0
LINE
  5
637
330
62C
100
AcDbEntity
  8
0
  6
Continuous
 62
     7
370
    15
100
AcDbLine
 10
33.40448923695685
 20
151.6369485930031
 30
0.0
 11
30.40448923695685
 21
151.6369485930031
 31
0.0
  0
LINE
  5
638
330
62C
100
AcDbEntity
  8
0
  6
Continuous
 62
     7
370
    15
100
AcDbLine
 10
30.40448923695685
 20
151.6369485930031
 30
0.0
 11
30.40448923695685
 21
155.3403402871623
 31
0.0
  0
LINE
  5
639
330
62C
100
AcDbEntity
  8
0
  6
Continuous
 62
     7
370
    15
100
AcDbLine
 10
33.40448923695685
 20
151.6369485930031
 30
0.0
 11
33.40448923695685
 21
155.3403402871623
 31
0.0
  0
LINE
  5
63A
330
62C
100
AcDbEntity
  8
0
  6
Continuous
 62
     7
370
    15
100
AcDbLine
 10
30.40448923695685
 20
151.2833888153863
 30
0.0
 11
33.40448923695685
 21
151.2833888153863
 31
0.0
  0
LINE
  5
63B
330
62C
100
AcDbEntity
  8
0
  6
Continuous
 62
     7
370
    15
100
AcDbLine
 10
30.40448923695685
 20
151.2833888153863
 30
0.0
 11
30.40448923695685
 21
151.6369485930031
 31
0.0
  0
LINE
  5
63C
330
62C
100
AcDbEntity
  8
0
  6
Continuous
 62
     7
370
    15
100
AcDbLine
 10
33.40448923695685
 20
151.2833888153863
 30
0.0
 11
33.40448923695685
 21
151.6369485930031
 31
0.0
  0
LINE
  5
63D
330
62C
100
AcDbEntity
  8
0
  6
Continuous
 62
     7
370
    15
100
AcDbLine
 10
30.40448923695685
 20
151.2262862731481
 30
0.0
 11
33.40448923695685
 21
151.2262862731481
 31
0.0
  0
LINE
  5
63E
330
62C
100
AcDbEntity
  8
0
  6
Continuous
 62
     7
370
    15
100
AcDbLine
 10
30.40448923695685
 20
151.2262862731481
 30
0.0
 11
30.40448923695685
 21
151.2833888153863
 31
0.0
  0
LINE
  5
63F
330
62C
100
AcDbEntity
  8
0
  6
Continuous
 62
     7
370
    15
100
AcDbLine
 10
33.40448923695685
 20
151.2833888153863
 30
0.0
 11
33.40448923695685
 21
151.2262862731481
 31
0.0
  0
LINE
  5
640
330
62C
100
AcDbEntity
  8
0
  6
Continuous
 62
     7
370
    15
100
AcDbLine
 10
30.40448923695685
 20
150.8727322528683
 30
0.0
 11
33.40448923695685
 21
150.8727322528683
 31
0.0
  0
LINE
  5
641
330
62C
100
AcDbEntity
  8
0
  6
Continuous
 62
     7
370
    15
100
AcDbLine
 10
30.40448923695685
 20
150.8727322528683
 30
0.0
 11
30.40448923695685
 21
151.2262862731481
 31
0.0
  0
LINE
  5
642
330
62C
100
AcDbEntity
  8
0
  6
Continuous
 62
     7
370
    15
100
AcDbLine
 10
33.40448923695685
 20
151.2262862731481
 30
0.0
 11
33.40448923695685
 21
150.8727322528683
 31
0.0
  0
LINE
  5
643
330
62C
100
AcDbEntity
  8
0
  6
Continuous
 62
     7
370
    15
100
AcDbLine
 10
33.40448923695685
 20
148.8583632460377
 30
0.0
 11
30.40448923695685
 21
148.8583632460377
 31
0.0
  0
LINE
  5
644
330
62C
100
AcDbEntity
  8
0
  6
Continuous
 62
     7
370
    15
100
AcDbLine
 10
30.40448923695685
 20
148.8583632460377
 30
0.0
 11
30.40448923695685
 21
150.8727322528683
 31
0.0
  0
LINE
  5
645
330
62C
100
AcDbEntity
  8
0
  6
Continuous
 62
     7
370
    15
100
AcDbLine
 10
33.40448923695685
 20
148.8583632460377
 30
0.0
 11
33.40448923695685
 21
150.8727322528683
 31
0.0
  0
LINE
  5
646
330
62C
100
AcDbEntity
  8
0
  6
Continuous
 62
     7
370
    15
100
AcDbLine
 10
33.40448923695685
 20
148.5083647719166
 30
0.0
 11
30.40448923695685
 21
148.5083647719166
 31
0.0
  0
LINE
  5
647
330
62C
100
AcDbEntity
  8
0
  6
Continuous
 62
     7
370
    15
100
AcDbLine
 10
30.40448923695685
 20
148.5083647719166
 30
0.0
 11
30.40448923695685
 21
148.8583632460377
 31
0.0
  0
LINE
  5
648
330
62C
100
AcDbEntity
  8
0
  6
Continuous
 62
     7
370
    15
100
AcDbLine
 10
33.40448923695685
 20
148.8583632460377
 30
0.0
 11
33.40448923695685
 21
148.5083647719166
 31
0.0
  0
LINE
  5
649
330
62C
100
AcDbEntity
  8
0
  6
Continuous
 62
     7
370
    15
100
AcDbLine
 10
30.90448923695679
 20
141.3690683957058
 30
0.0
 11
30.85668445218184
 21
141.3690683957058
 31
0.0
  0
ARC
  5
64A
330
62C
100
AcDbEntity
  8
0
  6
Continuous
 62
     7
370
    15
100
AcDbCircle
 10
30.9044892369568
 20
141.669068395729
 30
0.0
 40
0.3000000000399978
100
AcDbArc
 50
270.0000000000001
 51
0.0009356025245219
  0
LINE
  5
64B
330
62C
100
AcDbEntity
  8
0
  6
Continuous
 62
     7
370
    15
100
AcDbLine
 10
31.20448923695685
 20
148.5083647719166
 30
0.0
 11
31.2044892369568
 21
141.6690683957864
 31
0.0
  0
LINE
  5
64C
330
62C
100
AcDbEntity
  8
0
  6
Continuous
 62
     7
370
    15
100
AcDbLine
 10
32.60448313344117
 20
141.669068395729
 30
0.0
 11
32.60448313344117
 21
148.5083647719166
 31
0.0
  0
ARC
  5
64D
330
62C
100
AcDbEntity
  8
0
  6
Continuous
 62
     7
370
    15
100
AcDbCircle
 10
32.90448313344118
 20
141.669068395729
 30
0.0
 40
0.300000000023252
100
AcDbArc
 50
180.0
 51
269.9999999999994
  0
LINE
  5
64E
330
62C
100
AcDbEntity
  8
0
  6
Continuous
 62
     7
370
    15
100
AcDbLine
 10
32.9522879182162
 20
141.3690683957058
 30
0.0
 11
32.90448313344117
 21
141.3690683957058
 31
0.0
  0
ARC
  5
64F
330
62C
100
AcDbEntity
  8
0
  6
Continuous
 62
     7
370
    15
100
AcDbCircle
 10
32.95228791821612
 20
141.0690683956827
 30
0.0
 40
0.3000000000231383
100
AcDbArc
 50
0.0000000012701863
 51
89.99999999998507
  0
LINE
  5
650
330
62C
100
AcDbEntity
  8
0
  6
Continuous
 62
     7
370
    15
100
AcDbLine
 10
33.25228791821611
 20
141.0690683956894
 30
0.0
 11
33.25228791821613
 21
135.3446480681024
 31
0.0
  0
LINE
  5
651
330
62C
100
AcDbEntity
  8
0
  6
Continuous
 62
     7
370
    15
100
AcDbLine
 10
33.25228791821613
 20
135.3446480681024
 30
0.0
 11
30.55668445218185
 21
135.3446478221249
 31
0.0
  0
LINE
  5
652
330
62C
100
AcDbEntity
  8
0
  6
Continuous
 62
     7
370
    15
100
AcDbLine
 10
30.55668445218185
 20
135.3446478221249
 30
0.0
 11
30.55668445218186
 21
141.069068395684
 31
0.0
  0
ARC
  5
653
330
62C
100
AcDbEntity
  8
0
  6
Continuous
 62
     7
370
    15
100
AcDbCircle
 10
30.85668445218184
 20
141.0690683956826
 30
0.0
 40
0.300000000023252
100
AcDbArc
 50
90.00000000000069
 51
179.9999999997449
  0
LINE
  5
654
330
62C
100
AcDbEntity
  8
0
  6
Continuous
 62
     7
370
    15
100
AcDbLine
 10
33.25228791821613
 20
135.3446480681024
 30
0.0
 11
33.25228791821614
 21
133.4230695129575
 31
0.0
  0
LINE
  5
655
330
62C
100
AcDbEntity
  8
0
  6
Continuous
 62
     7
370
    15
100
AcDbLine
 10
33.25228791821614
 20
133.4230695129575
 30
0.0
 11
30.55668445218187
 21
133.4230695129575
 31
0.0
  0
LINE
  5
656
330
62C
100
AcDbEntity
  8
0
  6
Continuous
 62
     7
370
    15
100
AcDbLine
 10
30.55668445218187
 20
133.4230695129575
 30
0.0
 11
30.55668445218185
 21
135.3446478221249
 31
0.0
  0
LINE
  5
657
330
62C
100
AcDbEntity
  8
0
  6
Continuous
 62
     7
370
    15
100
AcDbLine
 10
32.95228791821628
 20
141.3691035955537
 30
0.0
 11
32.9522879182162
 21
141.3690683957058
 31
0.0
  0
ARC
  5
658
330
62C
100
AcDbEntity
  8
0
  6
Continuous
 62
     7
370
    15
100
AcDbCircle
 10
32.95228791821628
 20
141.0691035955329
 30
0.0
 40
0.3000000000208455
100
AcDbArc
 50
0.0
 51
90.00000000000136
  0
LINE
  5
659
330
62C
100
AcDbEntity
  8
0
  6
Continuous
 62
     7
370
    15
100
AcDbLine
 10
33.25228791821627
 20
141.0691035955329
 30
0.0
 11
33.25228791821611
 21
141.0690683956894
 31
0.0
  0
ARC
  5
65A
330
62C
100
AcDbEntity
  8
0
  6
Continuous
 62
     7
370
    15
100
AcDbCircle
 10
30.856684452182
 20
141.0691035955328
 30
0.0
 40
0.3000000000209591
100
AcDbArc
 50
90.00000000001493
 51
179.9999999989632
  0
LINE
  5
65B
330
62C
100
AcDbEntity
  8
0
  6
Continuous
 62
     7
370
    15
100
AcDbLine
 10
30.85668445218184
 20
141.3690683957058
 30
0.0
 11
30.85668445218193
 21
141.3691035955537
 31
0.0
  0
LINE
  5
65C
330
62C
100
AcDbEntity
  8
0
  6
Continuous
 62
     7
370
    15
100
AcDbLine
 10
30.55668445218186
 20
141.069068395684
 30
0.0
 11
30.55668445218203
 21
141.0691035955382
 31
0.0
  0
ARC
  5
65D
330
62C
100
AcDbEntity
  8
0
  6
Continuous
 62
     7
370
    15
100
AcDbCircle
 10
32.90448313344133
 20
141.6691035955746
 30
0.0
 40
0.3000000000209307
100
AcDbArc
 50
179.9999300720279
 51
270.0000000000008
  0
LINE
  5
65E
330
62C
100
AcDbEntity
  8
0
  6
Continuous
 62
     7
370
    15
100
AcDbLine
 10
32.90448313344133
 20
141.3691035955537
 30
0.0
 11
32.90448313344117
 21
141.3690683957058
 31
0.0
  0
LINE
  5
65F
330
62C
100
AcDbEntity
  8
0
  6
Continuous
 62
     7
370
    15
100
AcDbLine
 10
32.95228791821628
 20
141.3691035955537
 30
0.0
 11
32.90448313344133
 21
141.3691035955537
 31
0.0
  0
LINE
  5
660
330
62C
100
AcDbEntity
  8
0
  6
Continuous
 62
     7
370
    15
100
AcDbLine
 10
30.90448923695679
 20
141.3690683957058
 30
0.0
 11
30.90448923695696
 21
141.3691035955537
 31
0.0
  0
ARC
  5
661
330
62C
100
AcDbEntity
  8
0
  6
Continuous
 62
     7
370
    15
100
AcDbCircle
 10
30.90448923695696
 20
141.6691035955746
 30
0.0
 40
0.3000000000209307
100
AcDbArc
 50
270.0000000000008
 51
0.0
  0
LINE
  5
662
330
62C
100
AcDbEntity
  8
0
  6
Continuous
 62
     7
370
    15
100
AcDbLine
 10
30.85668445218193
 20
141.3691035955537
 30
0.0
 11
30.90448923695696
 21
141.3691035955537
 31
0.0
  0
LINE
  5
663
330
62C
100
AcDbEntity
  8
0
  6
Continuous
 62
     7
370
    15
100
AcDbLine
 10
33.40448923695685
 20
153.1069588428189
 30
0.0
 11
33.75448923695685
 21
153.1069588428189
 31
0.0
  0
LINE
  5
664
330
62C
100
AcDbEntity
  8
0
  6
Continuous
 62
     7
370
    15
100
AcDbLine
 10
33.75448923695685
 20
153.1069588428189
 30
0.0
 11
33.40448923695685
 21
151.806958842819
 31
0.0
  0
LINE
  5
665
330
62C
100
AcDbEntity
  8
0
  6
Continuous
 62
     7
370
    15
100
AcDbLine
 10
30.40448923695685
 20
151.806958842819
 30
0.0
 11
30.05448923695685
 21
153.1069588428189
 31
0.0
  0
LINE
  5
666
330
62C
100
AcDbEntity
  8
0
  6
Continuous
 62
     7
370
    15
100
AcDbLine
 10
30.05448923695685
 20
153.1069588428189
 30
0.0
 11
30.40448923695685
 21
153.1069588428189
 31
0.0
  0
LINE
  5
667
330
62C
100
AcDbEntity
  8
0
  6
Continuous
 62
     7
370
    15
100
AcDbLine
 10
30.55668445218192
 20
132.8446230392459
 30
0.0
 11
33.25228791821621
 21
132.8446230392459
 31
0.0
  0
LINE
  5
668
330
62C
100
AcDbEntity
  8
0
  6
Continuous
 62
     7
370
    15
100
AcDbLine
 10
30.55668445218187
 20
133.4230695129575
 30
0.0
 11
30.55668445218192
 21
132.8446230392459
 31
0.0
  0
LINE
  5
669
330
62C
100
AcDbEntity
  8
0
  6
Continuous
 62
     7
370
    15
100
AcDbLine
 10
33.25228791821614
 20
133.4230695129575
 30
0.0
 11
33.25228791821621
 21
132.8446230392459
 31
0.0
  0
ENDBLK
  5
62E
330
62C
100
AcDbEntity
  8
0
100
AcDbBlockEnd
  0
BLOCK
  5
66C
330
66B
100
AcDbEntity
  8
0
100
AcDbBlockBegin
  2
3
 70
     0
 10
0.0
 20
0.0
 30
0.0
  3
3
  1

  0
LINE
  5
66E
330
66B
100
AcDbEntity
  8
0
  6
Continuous
 62
     7
370
    15
100
AcDbLine
 10
135.6498984586401
 20
119.382815925174
 30
0.0
 11
54.24989702144053
 21
119.382815925174
 31
0.0
  0
LINE
  5
66F
330
66B
100
AcDbEntity
  8
0
  6
Continuous
 62
     7
370
    15
100
AcDbLine
 10
135.6498984586401
 20
119.382815925174
 30
0.0
 11
135.6498984586401
 21
123.882815925174
 31
0.0
  0
LINE
  5
670
330
66B
100
AcDbEntity
  8
0
  6
Continuous
 62
     7
370
    15
100
AcDbLine
 10
54.24989702144053
 20
123.882815925174
 30
0.0
 11
54.24989702144053
 21
119.382815925174
 31
0.0
  0
LINE
  5
671
330
66B
100
AcDbEntity
  8
0
  6
Continuous
 62
     7
370
    15
100
AcDbLine
 10
54.24989702144053
 20
123.882815925174
 30
0.0
 11
135.6498984586401
 21
123.882815925174
 31
0.0
  0
ENDBLK
  5
66D
330
66B
100
AcDbEntity
  8
0
100
AcDbBlockEnd
  0
BLOCK
  5
674
330
673
100
AcDbEntity
  8
0
100
AcDbBlockBegin
  2
4
 70
     0
 10
0.0
 20
0.0
 30
0.0
  3
4
  1

  0
LINE
  5
676
330
673
100
AcDbEntity
  8
0
  6
Continuous
 62
     7
370
    15
100
AcDbLine
 10
234.8720074602743
 20
125.6900772978899
 30
0.0
 11
234.4760834518995
 21
125.918644727272
 31
0.0
  0
LINE
  5
677
330
673
100
AcDbEntity
  8
0
  6
Continuous
 62
     7
370
    15
100
AcDbLine
 10
232.6510020019015
 20
118.1218289318666
 30
0.0
 11
234.5570814921244
 21
119.2221851998304
 31
0.0
  0
LINE
  5
678
330
673
100
AcDbEntity
  8
0
  6
Continuous
 62
     7
370
    15
100
AcDbLine
 10
229.0737318545447
 20
129.037350556363
 30
0.0
 11
228.6778078461698
 21
129.2659179857451
 31
0.0
  0
LINE
  5
679
330
673
100
AcDbEntity
  8
0
  6
Continuous
 62
     7
370
    15
100
AcDbLine
 10
226.8527263961718
 20
121.4691021903397
 30
0.0
 11
228.7588058863947
 21
122.5694584583035
 31
0.0
  0
LINE
  5
67A
330
673
100
AcDbEntity
  8
0
  6
Continuous
 62
     7
370
    15
100
AcDbLine
 10
223.2754562488151
 20
132.3846238148361
 30
0.0
 11
222.8795322404401
 21
132.6131912442182
 31
0.0
  0
LINE
  5
67B
330
673
100
AcDbEntity
  8
0
  6
Continuous
 62
     7
370
    15
100
AcDbLine
 10
221.0544507904422
 20
124.8163754488128
 30
0.0
 11
222.9605302806651
 21
125.9167317167766
 31
0.0
  0
LINE
  5
67C
330
673
100
AcDbEntity
  8
0
  6
Continuous
 62
     7
370
    15
100
AcDbLine
 10
217.4771806430854
 20
135.7318970733092
 30
0.0
 11
217.0812566347104
 21
135.9604645026913
 31
0.0
  0
LINE
  5
67D
330
673
100
AcDbEntity
  8
0
  6
Continuous
 62
     7
370
    15
100
AcDbLine
 10
215.2561751847124
 20
128.1636487072859
 30
0.0
 11
217.1622546749354
 21
129.2640049752497
 31
0.0
  0
LINE
  5
67E
330
673
100
AcDbEntity
  8
0
  6
Continuous
 62
     7
370
    15
100
AcDbLine
 10
211.6789050373558
 20
139.0791703317823
 30
0.0
 11
211.2829810289805
 21
139.3077377611645
 31
0.0
  0
LINE
  5
67F
330
673
100
AcDbEntity
  8
0
  6
Continuous
 62
     7
370
    15
100
AcDbLine
 10
209.4578995789828
 20
131.510921965759
 30
0.0
 11
211.3639790692058
 21
132.6112782337228
 31
0.0
  0
LINE
  5
680
330
673
100
AcDbEntity
  8
0
  6
Continuous
 62
     7
370
    15
100
AcDbLine
 10
205.8806294316261
 20
142.4264435902554
 30
0.0
 11
205.484705423251
 21
142.6550110196375
 31
0.0
  0
LINE
  5
681
330
673
100
AcDbEntity
  8
0
  6
Continuous
 62
     7
370
    15
100
AcDbLine
 10
203.6596239732531
 20
134.8581952242321
 30
0.0
 11
205.5657034634761
 21
135.9585514921959
 31
0.0
  0
LINE
  5
682
330
673
100
AcDbEntity
  8
0
  6
Continuous
 62
     7
370
    15
100
AcDbLine
 10
200.0823538258964
 20
145.7737168487285
 30
0.0
 11
199.6864298175214
 21
146.0022842781107
 31
0.0
  0
LINE
  5
683
330
673
100
AcDbEntity
  8
0
  6
Continuous
 62
     7
370
    15
100
AcDbLine
 10
197.8613483675234
 20
138.2054684827052
 30
0.0
 11
199.7674278577464
 21
139.305824750669
 31
0.0
  0
LINE
  5
684
330
673
100
AcDbEntity
  8
0
  6
Continuous
 62
     7
370
    15
100
AcDbLine
 10
194.2840782201667
 20
149.1209901072016
 30
0.0
 11
193.8881542117917
 21
149.3495575365838
 31
0.0
  0
LINE
  5
685
330
673
100
AcDbEntity
  8
0
  6
Continuous
 62
     7
370
    15
100
AcDbLine
 10
192.0630727617938
 20
141.5527417411783
 30
0.0
 11
193.9691522520167
 21
142.6530980091421
 31
0.0
  0
LINE
  5
686
330
673
100
AcDbEntity
  8
0
  6
Continuous
 62
     7
370
    15
100
AcDbLine
 10
188.485802614437
 20
152.4682633656747
 30
0.0
 11
188.0898786060621
 21
152.6968307950568
 31
0.0
  0
LINE
  5
687
330
673
100
AcDbEntity
  8
0
  6
Continuous
 62
     7
370
    15
100
AcDbLine
 10
186.2647971560641
 20
144.9000149996514
 30
0.0
 11
188.170876646287
 21
146.0003712676153
 31
0.0
  0
LINE
  5
688
330
673
100
AcDbEntity
  8
0
  6
Continuous
 62
     7
370
    15
100
AcDbLine
 10
182.6875270087074
 20
155.8155366241478
 30
0.0
 11
182.2916030003323
 21
156.0441040535299
 31
0.0
  0
LINE
  5
689
330
673
100
AcDbEntity
  8
0
  6
Continuous
 62
     7
370
    15
100
AcDbLine
 10
180.4665215503343
 20
148.2472882581246
 30
0.0
 11
182.3726010405573
 21
149.3476445260884
 31
0.0
  0
LINE
  5
68A
330
673
100
AcDbEntity
  8
0
  6
Continuous
 62
     7
370
    15
100
AcDbLine
 10
236.6680994230311
 20
136.329071461386
 30
0.0
 11
236.6680994230311
 21
141.6093294269773
 31
0.0
  0
LINE
  5
68B
330
673
100
AcDbEntity
  8
0
  6
Continuous
 62
     7
370
    15
100
AcDbLine
 10
236.6680994230311
 20
136.329071461386
 30
0.0
 11
234.5467790794715
 21
135.1044592936519
 31
0.0
  0
LINE
  5
68C
330
673
100
AcDbEntity
  8
0
  6
Continuous
 62
     7
370
    15
100
AcDbLine
 10
234.5467790794715
 20
135.1044592936519
 30
0.0
 11
234.5467790794715
 21
140.3847172592432
 31
0.0
  0
LINE
  5
68D
330
673
100
AcDbEntity
  8
0
  6
Continuous
 62
     7
370
    15
100
AcDbLine
 10
234.5467790794715
 20
140.3847172592432
 30
0.0
 11
234.0164489935816
 21
140.0785642173097
 31
0.0
  0
LINE
  5
68E
330
673
100
AcDbEntity
  8
0
  6
Continuous
 62
     7
370
    15
100
AcDbLine
 10
234.0164489935816
 20
140.0785642173097
 30
0.0
 11
234.0164489935816
 21
141.0584131915726
 31
0.0
  0
LINE
  5
68F
330
673
100
AcDbEntity
  8
0
  6
Continuous
 62
     7
370
    15
100
AcDbLine
 10
234.0164489935816
 20
141.0584131915726
 30
0.0
 11
237.198429508921
 21
142.8953314431737
 31
0.0
  0
LINE
  5
690
330
673
100
AcDbEntity
  8
0
  6
Continuous
 62
     7
370
    15
100
AcDbLine
 10
237.198429508921
 20
142.8953314431737
 30
0.0
 11
237.198429508921
 21
141.9154824689108
 31
0.0
  0
LINE
  5
691
330
673
100
AcDbEntity
  8
0
  6
Continuous
 62
     7
370
    15
100
AcDbLine
 10
237.198429508921
 20
141.9154824689108
 30
0.0
 11
236.6680994230311
 21
141.6093294269773
 31
0.0
  0
LINE
  5
692
330
673
100
AcDbEntity
  8
0
  6
Continuous
 62
     7
370
    15
100
AcDbLine
 10
234.0164489935816
 20
140.0785642173097
 30
0.0
 11
176.457955988743
 21
173.3063749551647
 31
0.0
  0
LINE
  5
693
330
673
100
AcDbEntity
  8
0
  6
Continuous
 62
     7
370
    15
100
AcDbLine
 10
176.457955988743
 20
174.2862239294276
 30
0.0
 11
176.457955988743
 21
173.3063749551647
 31
0.0
  0
LINE
  5
694
330
673
100
AcDbEntity
  8
0
  6
Continuous
 62
     7
370
    15
100
AcDbLine
 10
234.0164489935816
 20
141.0584131915726
 30
0.0
 11
176.457955988743
 21
174.2862239294276
 31
0.0
  0
LINE
  5
695
330
673
100
AcDbEntity
  8
0
  6
Continuous
 62
     7
370
    15
100
AcDbLine
 10
179.6399365040825
 20
176.1231421810288
 30
0.0
 11
176.457955988743
 21
174.2862239294276
 31
0.0
  0
LINE
  5
696
330
673
100
AcDbEntity
  8
0
  6
Continuous
 62
     7
370
    15
100
AcDbLine
 10
179.6399365040825
 20
176.1231421810288
 30
0.0
 11
237.198429508921
 21
142.8953314431737
 31
0.0
  0
LINE
  5
697
330
673
100
AcDbEntity
  8
0
  6
Continuous
 62
     7
370
    15
100
AcDbLine
 10
180.5591732797177
 20
163.3856905735018
 30
0.0
 11
178.7914063267514
 21
164.4062007132802
 31
0.0
  0
LINE
  5
698
330
673
100
AcDbEntity
  8
0
  6
Continuous
 62
     7
370
    15
100
AcDbLine
 10
180.5591732797177
 20
164.4471936289532
 30
0.0
 11
180.5591732797177
 21
163.3856905735018
 31
0.0
  0
LINE
  5
699
330
673
100
AcDbEntity
  8
0
  6
Continuous
 62
     7
370
    15
100
AcDbLine
 10
180.5591732797177
 20
164.4471936289532
 30
0.0
 11
178.7914063267514
 21
165.4677037687316
 31
0.0
  0
LINE
  5
69A
330
673
100
AcDbEntity
  8
0
  6
Continuous
 62
     7
370
    15
100
AcDbLine
 10
186.3574488854474
 20
160.0384173150287
 30
0.0
 11
184.5896819324811
 21
161.0589274548071
 31
0.0
  0
LINE
  5
69B
330
673
100
AcDbEntity
  8
0
  6
Continuous
 62
     7
370
    15
100
AcDbLine
 10
186.3574488854474
 20
161.0999203704801
 30
0.0
 11
186.3574488854474
 21
160.0384173150287
 31
0.0
  0
LINE
  5
69C
330
673
100
AcDbEntity
  8
0
  6
Continuous
 62
     7
370
    15
100
AcDbLine
 10
186.3574488854474
 20
161.0999203704801
 30
0.0
 11
184.5896819324811
 21
162.1204305102585
 31
0.0
  0
LINE
  5
69D
330
673
100
AcDbEntity
  8
0
  6
Continuous
 62
     7
370
    15
100
AcDbLine
 10
192.1557244911771
 20
156.6911440565556
 30
0.0
 11
190.3879575382108
 21
157.711654196334
 31
0.0
  0
LINE
  5
69E
330
673
100
AcDbEntity
  8
0
  6
Continuous
 62
     7
370
    15
100
AcDbLine
 10
192.1557244911771
 20
157.752647112007
 30
0.0
 11
192.1557244911771
 21
156.6911440565556
 31
0.0
  0
LINE
  5
69F
330
673
100
AcDbEntity
  8
0
  6
Continuous
 62
     7
370
    15
100
AcDbLine
 10
192.1557244911771
 20
157.752647112007
 30
0.0
 11
190.3879575382108
 21
158.7731572517853
 31
0.0
  0
LINE
  5
6A0
330
673
100
AcDbEntity
  8
0
  6
Continuous
 62
     7
370
    15
100
AcDbLine
 10
197.9540000969068
 20
153.3438707980825
 30
0.0
 11
196.1862331439404
 21
154.3643809378608
 31
0.0
  0
LINE
  5
6A1
330
673
100
AcDbEntity
  8
0
  6
Continuous
 62
     7
370
    15
100
AcDbLine
 10
197.9540000969068
 20
154.4053738535339
 30
0.0
 11
197.9540000969068
 21
153.3438707980825
 31
0.0
  0
LINE
  5
6A2
330
673
100
AcDbEntity
  8
0
  6
Continuous
 62
     7
370
    15
100
AcDbLine
 10
197.9540000969068
 20
154.4053738535339
 30
0.0
 11
196.1862331439404
 21
155.4258839933122
 31
0.0
  0
LINE
  5
6A3
330
673
100
AcDbEntity
  8
0
  6
Continuous
 62
     7
370
    15
100
AcDbLine
 10
203.7522757026364
 20
149.9965975396094
 30
0.0
 11
201.9845087496701
 21
151.0171076793878
 31
0.0
  0
LINE
  5
6A4
330
673
100
AcDbEntity
  8
0
  6
Continuous
 62
     7
370
    15
100
AcDbLine
 10
203.7522757026364
 20
151.0581005950608
 30
0.0
 11
203.7522757026364
 21
149.9965975396094
 31
0.0
  0
LINE
  5
6A5
330
673
100
AcDbEntity
  8
0
  6
Continuous
 62
     7
370
    15
100
AcDbLine
 10
203.7522757026364
 20
151.0581005950608
 30
0.0
 11
201.9845087496701
 21
152.0786107348392
 31
0.0
  0
LINE
  5
6A6
330
673
100
AcDbEntity
  8
0
  6
Continuous
 62
     7
370
    15
100
AcDbLine
 10
209.5505513083661
 20
146.6493242811363
 30
0.0
 11
207.7827843553998
 21
147.6698344209147
 31
0.0
  0
LINE
  5
6A7
330
673
100
AcDbEntity
  8
0
  6
Continuous
 62
     7
370
    15
100
AcDbLine
 10
209.5505513083661
 20
147.7108273365877
 30
0.0
 11
209.5505513083661
 21
146.6493242811363
 31
0.0
  0
LINE
  5
6A8
330
673
100
AcDbEntity
  8
0
  6
Continuous
 62
     7
370
    15
100
AcDbLine
 10
209.5505513083661
 20
147.7108273365877
 30
0.0
 11
207.7827843553998
 21
148.731337476366
 31
0.0
  0
LINE
  5
6A9
330
673
100
AcDbEntity
  8
0
  6
Continuous
 62
     7
370
    15
100
AcDbLine
 10
215.3488269140957
 20
143.3020510226632
 30
0.0
 11
213.5810599611294
 21
144.3225611624416
 31
0.0
  0
LINE
  5
6AA
330
673
100
AcDbEntity
  8
0
  6
Continuous
 62
     7
370
    15
100
AcDbLine
 10
215.3488269140957
 20
144.3635540781146
 30
0.0
 11
215.3488269140957
 21
143.3020510226632
 31
0.0
  0
LINE
  5
6AB
330
673
100
AcDbEntity
  8
0
  6
Continuous
 62
     7
370
    15
100
AcDbLine
 10
215.3488269140957
 20
144.3635540781146
 30
0.0
 11
213.5810599611294
 21
145.3840642178929
 31
0.0
  0
LINE
  5
6AC
330
673
100
AcDbEntity
  8
0
  6
Continuous
 62
     7
370
    15
100
AcDbLine
 10
232.7436537312848
 20
134.3217343026953
 30
0.0
 11
230.9758867783185
 21
135.3422444424736
 31
0.0
  0
LINE
  5
6AD
330
673
100
AcDbEntity
  8
0
  6
Continuous
 62
     7
370
    15
100
AcDbLine
 10
232.7436537312848
 20
133.2602312472439
 30
0.0
 11
230.9758867783185
 21
134.2807413870222
 31
0.0
  0
LINE
  5
6AE
330
673
100
AcDbEntity
  8
0
  6
Continuous
 62
     7
370
    15
100
AcDbLine
 10
232.7436537312848
 20
134.3217343026953
 30
0.0
 11
232.7436537312848
 21
133.2602312472439
 31
0.0
  0
LINE
  5
6AF
330
673
100
AcDbEntity
  8
0
  6
Continuous
 62
     7
370
    15
100
AcDbLine
 10
226.9453781255552
 20
136.607504505717
 30
0.0
 11
225.1776111725888
 21
137.6280146454953
 31
0.0
  0
LINE
  5
6B0
330
673
100
AcDbEntity
  8
0
  6
Continuous
 62
     7
370
    15
100
AcDbLine
 10
226.9453781255552
 20
137.6690075611684
 30
0.0
 11
226.9453781255552
 21
136.607504505717
 31
0.0
  0
LINE
  5
6B1
330
673
100
AcDbEntity
  8
0
  6
Continuous
 62
     7
370
    15
100
AcDbLine
 10
226.9453781255552
 20
137.6690075611684
 30
0.0
 11
225.1776111725888
 21
138.6895177009467
 31
0.0
  0
LINE
  5
6B2
330
673
100
AcDbEntity
  8
0
  6
Continuous
 62
     7
370
    15
100
AcDbLine
 10
221.1471025198255
 20
139.9547777641901
 30
0.0
 11
219.379335566859
 21
140.9752879039684
 31
0.0
  0
LINE
  5
6B3
330
673
100
AcDbEntity
  8
0
  6
Continuous
 62
     7
370
    15
100
AcDbLine
 10
221.1471025198255
 20
141.0162808196414
 30
0.0
 11
221.1471025198255
 21
139.9547777641901
 31
0.0
  0
LINE
  5
6B4
330
673
100
AcDbEntity
  8
0
  6
Continuous
 62
     7
370
    15
100
AcDbLine
 10
221.1471025198255
 20
141.0162808196414
 30
0.0
 11
219.379335566859
 21
142.0367909594198
 31
0.0
  0
LINE
  5
6B5
330
673
100
AcDbEntity
  8
0
  6
Continuous
 62
     7
370
    15
100
AcDbLine
 10
233.7336083210144
 20
135.5738927803365
 30
0.0
 11
234.5467790794715
 21
135.1044592936519
 31
0.0
  0
LINE
  5
6B6
330
673
100
AcDbEntity
  8
0
  6
Continuous
 62
     7
370
    15
100
AcDbLine
 10
233.7336083210144
 20
132.5499223196566
 30
0.0
 11
233.7336083210144
 21
135.5738927803365
 31
0.0
  0
ARC
  5
6B7
330
673
100
AcDbEntity
  8
0
  6
Continuous
 62
     7
370
    15
100
AcDbCircle
 10
233.4832766306586
 20
132.5252851183392
 30
0.0
 40
0.2515411435236644
100
AcDbArc
 50
305.6978531816522
 51
5.620847597904967
  0
LINE
  5
6B8
330
673
100
AcDbEntity
  8
0
  6
Continuous
 62
     7
370
    15
100
AcDbLine
 10
233.5896749361655
 20
132.2976907500235
 30
0.0
 11
233.63005360026
 21
132.3210071996114
 31
0.0
  0
ARC
  5
6B9
330
673
100
AcDbEntity
  8
0
  6
Continuous
 62
     7
370
    15
100
AcDbCircle
 10
233.7364478111268
 20
132.0934154420733
 30
0.0
 40
0.2515366340367927
100
AcDbArc
 50
125.6974427479493
 51
185.6205025999523
  0
LINE
  5
6BA
330
673
100
AcDbEntity
  8
0
  6
Continuous
 62
     7
370
    15
100
AcDbLine
 10
233.4861204602334
 20
130.423965685471
 30
0.0
 11
233.4861204602334
 21
132.0687801897459
 31
0.0
  0
LINE
  5
6BB
330
673
100
AcDbEntity
  8
0
  6
Continuous
 62
     7
370
    15
100
AcDbLine
 10
233.2386341657775
 20
130.2810484439523
 30
0.0
 11
233.4861204602334
 21
130.423965685471
 31
0.0
  0
LINE
  5
6BC
330
673
100
AcDbEntity
  8
0
  6
Continuous
 62
     7
370
    15
100
AcDbLine
 10
233.2386341657775
 20
130.2810484439523
 30
0.0
 11
230.480913184149
 21
131.8730468800069
 31
0.0
  0
LINE
  5
6BD
330
673
100
AcDbEntity
  8
0
  6
Continuous
 62
     7
370
    15
100
AcDbLine
 10
230.2334253763584
 20
132.3017083360961
 30
0.0
 11
230.480913184149
 21
131.8730468800069
 31
0.0
  0
LINE
  5
6BE
330
673
100
AcDbEntity
  8
0
  6
Continuous
 62
     7
370
    15
100
AcDbLine
 10
230.233425376358
 20
133.9465215010467
 30
0.0
 11
230.2334268896931
 21
132.3017057149236
 31
0.0
  0
ARC
  5
6BF
330
673
100
AcDbEntity
  8
0
  6
Continuous
 62
     7
370
    15
100
AcDbCircle
 10
229.5124376418322
 20
133.9218915155717
 30
0.0
 40
0.7214083098503781
100
AcDbArc
 50
1.956545967420905
 51
31.14400349253115
  0
LINE
  5
6C0
330
673
100
AcDbEntity
  8
0
  6
Continuous
 62
     7
370
    15
100
AcDbLine
 10
230.0894887774878
 20
134.3649336527634
 30
0.0
 11
230.1298694668531
 21
134.2949972525586
 31
0.0
  0
ARC
  5
6C1
330
673
100
AcDbEntity
  8
0
  6
Continuous
 62
     7
370
    15
100
AcDbCircle
 10
230.706915223963
 20
134.7380322293444
 30
0.0
 40
0.7214000032254832
100
AcDbArc
 50
181.9564580470332
 51
211.1437376919604
  0
LINE
  5
6C2
330
673
100
AcDbEntity
  8
0
  6
Continuous
 62
     7
370
    15
100
AcDbLine
 10
229.985940595237
 20
137.7373760616823
 30
0.0
 11
229.985935753426
 21
134.7134036338134
 31
0.0
  0
LINE
  5
6C3
330
673
100
AcDbEntity
  8
0
  6
Continuous
 62
     7
370
    15
100
AcDbLine
 10
227.9353269037309
 20
138.9211701480232
 30
0.0
 11
229.985940595237
 21
137.7373760616823
 31
0.0
  0
LINE
  5
6C4
330
673
100
AcDbEntity
  8
0
  6
Continuous
 62
     7
370
    15
100
AcDbLine
 10
227.9353269037309
 20
135.8972001242721
 30
0.0
 11
227.9353269037309
 21
138.9211701480232
 31
0.0
  0
ARC
  5
6C5
330
673
100
AcDbEntity
  8
0
  6
Continuous
 62
     7
370
    15
100
AcDbCircle
 10
227.6849972153327
 20
135.8725631218043
 30
0.0
 40
0.2515391317153512
100
AcDbArc
 50
305.6978559792989
 51
5.620847185220459
  0
LINE
  5
6C6
330
673
100
AcDbEntity
  8
0
  6
Continuous
 62
     7
370
    15
100
AcDbLine
 10
227.7913943546799
 20
135.6449665581077
 30
0.0
 11
227.8317730209967
 21
135.6682868440436
 31
0.0
  0
ARC
  5
6C7
330
673
100
AcDbEntity
  8
0
  6
Continuous
 62
     7
370
    15
100
AcDbCircle
 10
227.9381719321038
 20
135.4406908995934
 30
0.0
 40
0.2515396626694669
100
AcDbArc
 50
125.6982660277185
 51
185.6204239756108
  0
LINE
  5
6C8
330
673
100
AcDbEntity
  8
0
  6
Continuous
 62
     7
370
    15
100
AcDbLine
 10
227.6878415333321
 20
133.7712408612156
 30
0.0
 11
227.6878415333321
 21
135.4160556941614
 31
0.0
  0
LINE
  5
6C9
330
673
100
AcDbEntity
  8
0
  6
Continuous
 62
     7
370
    15
100
AcDbLine
 10
227.4403552388761
 20
133.628323619697
 30
0.0
 11
227.6878415333321
 21
133.7712408612156
 31
0.0
  0
LINE
  5
6CA
330
673
100
AcDbEntity
  8
0
  6
Continuous
 62
     7
370
    15
100
AcDbLine
 10
227.4403552388761
 20
133.628323619697
 30
0.0
 11
224.6826342572477
 21
135.2203220557516
 31
0.0
  0
LINE
  5
6CB
330
673
100
AcDbEntity
  8
0
  6
Continuous
 62
     7
370
    15
100
AcDbLine
 10
224.4351497706285
 20
135.648977759403
 30
0.0
 11
224.6826342572477
 21
135.2203220557516
 31
0.0
  0
LINE
  5
6CC
330
673
100
AcDbEntity
  8
0
  6
Continuous
 62
     7
370
    15
100
AcDbLine
 10
224.4351497706282
 20
137.2937942835427
 30
0.0
 11
224.4351479627917
 21
135.6489808906683
 31
0.0
  0
ARC
  5
6CD
330
673
100
AcDbEntity
  8
0
  6
Continuous
 62
     7
370
    15
100
AcDbCircle
 10
223.7141635660808
 20
137.2691647452787
 30
0.0
 40
0.7214067654955747
100
AcDbArc
 50
1.956514618292954
 51
31.14419206750832
  0
LINE
  5
6CE
330
673
100
AcDbEntity
  8
0
  6
Continuous
 62
     7
370
    15
100
AcDbLine
 10
224.2912167446618
 20
137.7122039963123
 30
0.0
 11
224.331592841348
 21
137.6422717156582
 31
0.0
  0
ARC
  5
6CF
330
673
100
AcDbEntity
  8
0
  6
Continuous
 62
     7
370
    15
100
AcDbCircle
 10
224.9086464121778
 20
138.085307473901
 30
0.0
 40
0.7214052947668833
100
AcDbArc
 50
181.95651789592
 51
211.1439385321336
  0
LINE
  5
6D0
330
673
100
AcDbEntity
  8
0
  6
Continuous
 62
     7
370
    15
100
AcDbLine
 10
224.1876616789276
 20
141.0846512313124
 30
0.0
 11
224.1876616789106
 21
138.0606779446049
 31
0.0
  0
LINE
  5
6D1
330
673
100
AcDbEntity
  8
0
  6
Continuous
 62
     7
370
    15
100
AcDbLine
 10
222.1370512980012
 20
142.2684434064963
 30
0.0
 11
224.1876616789276
 21
141.0846512313124
 31
0.0
  0
LINE
  5
6D2
330
673
100
AcDbEntity
  8
0
  6
Continuous
 62
     7
370
    15
100
AcDbLine
 10
222.1370512980012
 20
139.2444733827452
 30
0.0
 11
222.1370512980012
 21
142.2684434064963
 31
0.0
  0
ARC
  5
6D3
330
673
100
AcDbEntity
  8
0
  6
Continuous
 62
     7
370
    15
100
AcDbCircle
 10
221.8867216096029
 20
139.2198363802775
 30
0.0
 40
0.2515391317154878
100
AcDbArc
 50
305.6978559793229
 51
5.62084718521148
  0
LINE
  5
6D4
330
673
100
AcDbEntity
  8
0
  6
Continuous
 62
     7
370
    15
100
AcDbLine
 10
221.9931187489502
 20
138.9922398165808
 30
0.0
 11
222.0334974152671
 21
139.0155601025167
 31
0.0
  0
ARC
  5
6D5
330
673
100
AcDbEntity
  8
0
  6
Continuous
 62
     7
370
    15
100
AcDbCircle
 10
222.1398963263739
 20
138.7879641580666
 30
0.0
 40
0.2515396626692519
100
AcDbArc
 50
125.6982660277059
 51
185.6204239756481
  0
LINE
  5
6D6
330
673
100
AcDbEntity
  8
0
  6
Continuous
 62
     7
370
    15
100
AcDbLine
 10
221.8895659276025
 20
137.1185141196888
 30
0.0
 11
221.8895659276025
 21
138.7633289526345
 31
0.0
  0
LINE
  5
6D7
330
673
100
AcDbEntity
  8
0
  6
Continuous
 62
     7
370
    15
100
AcDbLine
 10
221.6420796331464
 20
136.9755968781701
 30
0.0
 11
221.8895659276025
 21
137.1185141196888
 31
0.0
  0
LINE
  5
6D8
330
673
100
AcDbEntity
  8
0
  6
Continuous
 62
     7
370
    15
100
AcDbLine
 10
221.6420796331464
 20
136.9755968781701
 30
0.0
 11
218.884358651518
 21
138.5675953142247
 31
0.0
  0
LINE
  5
6D9
330
673
100
AcDbEntity
  8
0
  6
Continuous
 62
     7
370
    15
100
AcDbLine
 10
218.6368741648988
 20
138.9962510178761
 30
0.0
 11
218.884358651518
 21
138.5675953142247
 31
0.0
  0
LINE
  5
6DA
330
673
100
AcDbEntity
  8
0
  6
Continuous
 62
     7
370
    15
100
AcDbLine
 10
218.6368741648985
 20
140.6410675420158
 30
0.0
 11
218.6368723570621
 21
138.9962541491414
 31
0.0
  0
ARC
  5
6DB
330
673
100
AcDbEntity
  8
0
  6
Continuous
 62
     7
370
    15
100
AcDbCircle
 10
217.9158879603516
 20
140.6164380037519
 30
0.0
 40
0.721406765495086
100
AcDbArc
 50
1.956514618280728
 51
31.14419206751657
  0
LINE
  5
6DC
330
673
100
AcDbEntity
  8
0
  6
Continuous
 62
     7
370
    15
100
AcDbLine
 10
218.4929411389322
 20
141.0594772547853
 30
0.0
 11
218.5333172356183
 21
140.9895449741313
 31
0.0
  0
ARC
  5
6DD
330
673
100
AcDbEntity
  8
0
  6
Continuous
 62
     7
370
    15
100
AcDbCircle
 10
219.110370806449
 20
141.4325807323743
 30
0.0
 40
0.7214052947677601
100
AcDbArc
 50
181.9565178959356
 51
211.1439385321179
  0
LINE
  5
6DE
330
673
100
AcDbEntity
  8
0
  6
Continuous
 62
     7
370
    15
100
AcDbLine
 10
218.3893860731979
 20
144.4319244897855
 30
0.0
 11
218.3893860731809
 21
141.407951203078
 31
0.0
  0
LINE
  5
6DF
330
673
100
AcDbEntity
  8
0
  6
Continuous
 62
     7
370
    15
100
AcDbLine
 10
216.3387756922716
 20
145.6157166649694
 30
0.0
 11
218.3893860731979
 21
144.4319244897855
 31
0.0
  0
LINE
  5
6E0
330
673
100
AcDbEntity
  8
0
  6
Continuous
 62
     7
370
    15
100
AcDbLine
 10
216.3387756922716
 20
142.5917466412183
 30
0.0
 11
216.3387756922716
 21
145.6157166649694
 31
0.0
  0
ARC
  5
6E1
330
673
100
AcDbEntity
  8
0
  6
Continuous
 62
     7
370
    15
100
AcDbCircle
 10
216.0884460038733
 20
142.5671096387506
 30
0.0
 40
0.2515391317154711
100
AcDbArc
 50
305.6978559793176
 51
5.62084718521148
  0
LINE
  5
6E2
330
673
100
AcDbEntity
  8
0
  6
Continuous
 62
     7
370
    15
100
AcDbLine
 10
216.1948431432206
 20
142.3395130750539
 30
0.0
 11
216.2352218095375
 21
142.3628333609898
 31
0.0
  0
ARC
  5
6E3
330
673
100
AcDbEntity
  8
0
  6
Continuous
 62
     7
370
    15
100
AcDbCircle
 10
216.3416207206445
 20
142.1352374165395
 30
0.0
 40
0.2515396626695747
100
AcDbArc
 50
125.6982660277177
 51
185.6204239755818
  0
LINE
  5
6E4
330
673
100
AcDbEntity
  8
0
  6
Continuous
 62
     7
370
    15
100
AcDbLine
 10
216.0912903218727
 20
140.4657873781619
 30
0.0
 11
216.0912903218727
 21
142.1106022111076
 31
0.0
  0
LINE
  5
6E5
330
673
100
AcDbEntity
  8
0
  6
Continuous
 62
     7
370
    15
100
AcDbLine
 10
215.8438040274167
 20
140.3228701366432
 30
0.0
 11
216.0912903218727
 21
140.4657873781619
 31
0.0
  0
LINE
  5
6E6
330
673
100
AcDbEntity
  8
0
  6
Continuous
 62
     7
370
    15
100
AcDbLine
 10
215.8438040274167
 20
140.3228701366432
 30
0.0
 11
213.0860830457883
 21
141.9148685726978
 31
0.0
  0
LINE
  5
6E7
330
673
100
AcDbEntity
  8
0
  6
Continuous
 62
     7
370
    15
100
AcDbLine
 10
212.8385985591692
 20
142.3435242763492
 30
0.0
 11
213.0860830457883
 21
141.9148685726978
 31
0.0
  0
LINE
  5
6E8
330
673
100
AcDbEntity
  8
0
  6
Continuous
 62
     7
370
    15
100
AcDbLine
 10
212.8385985591689
 20
143.9883408004889
 30
0.0
 11
212.8385967513323
 21
142.3435274076145
 31
0.0
  0
ARC
  5
6E9
330
673
100
AcDbEntity
  8
0
  6
Continuous
 62
     7
370
    15
100
AcDbCircle
 10
212.117612354622
 20
143.963711262225
 30
0.0
 40
0.7214067654950389
100
AcDbArc
 50
1.956514618283138
 51
31.14419206752084
  0
LINE
  5
6EA
330
673
100
AcDbEntity
  8
0
  6
Continuous
 62
     7
370
    15
100
AcDbLine
 10
212.6946655332025
 20
144.4067505132584
 30
0.0
 11
212.7350416298887
 21
144.3368182326044
 31
0.0
  0
ARC
  5
6EB
330
673
100
AcDbEntity
  8
0
  6
Continuous
 62
     7
370
    15
100
AcDbCircle
 10
213.3120952007193
 20
144.7798539908474
 30
0.0
 40
0.7214052947677844
100
AcDbArc
 50
181.9565178959401
 51
211.1439385321168
  0
LINE
  5
6EC
330
673
100
AcDbEntity
  8
0
  6
Continuous
 62
     7
370
    15
100
AcDbLine
 10
212.5911104674683
 20
147.7791977482586
 30
0.0
 11
212.5911104674513
 21
144.7552244615511
 31
0.0
  0
LINE
  5
6ED
330
673
100
AcDbEntity
  8
0
  6
Continuous
 62
     7
370
    15
100
AcDbLine
 10
210.5405000865418
 20
148.9629899234425
 30
0.0
 11
212.5911104674683
 21
147.7791977482586
 31
0.0
  0
LINE
  5
6EE
330
673
100
AcDbEntity
  8
0
  6
Continuous
 62
     7
370
    15
100
AcDbLine
 10
210.5405000865418
 20
145.9390198996914
 30
0.0
 11
210.5405000865418
 21
148.9629899234425
 31
0.0
  0
ARC
  5
6EF
330
673
100
AcDbEntity
  8
0
  6
Continuous
 62
     7
370
    15
100
AcDbCircle
 10
210.2901703981438
 20
145.9143828972235
 30
0.0
 40
0.2515391317152101
100
AcDbArc
 50
305.6978559793125
 51
5.62084718526292
  0
LINE
  5
6F0
330
673
100
AcDbEntity
  8
0
  6
Continuous
 62
     7
370
    15
100
AcDbLine
 10
210.3965675374909
 20
145.686786333527
 30
0.0
 11
210.4369462038078
 21
145.7101066194629
 31
0.0
  0
ARC
  5
6F1
330
673
100
AcDbEntity
  8
0
  6
Continuous
 62
     7
370
    15
100
AcDbCircle
 10
210.5433451149149
 20
145.4825106750126
 30
0.0
 40
0.2515396626696652
100
AcDbArc
 50
125.6982660277259
 51
185.6204239755671
  0
LINE
  5
6F2
330
673
100
AcDbEntity
  8
0
  6
Continuous
 62
     7
370
    15
100
AcDbLine
 10
210.293014716143
 20
143.813060636635
 30
0.0
 11
210.293014716143
 21
145.4578754695807
 31
0.0
  0
LINE
  5
6F3
330
673
100
AcDbEntity
  8
0
  6
Continuous
 62
     7
370
    15
100
AcDbLine
 10
210.0455284216871
 20
143.6701433951163
 30
0.0
 11
210.293014716143
 21
143.813060636635
 31
0.0
  0
LINE
  5
6F4
330
673
100
AcDbEntity
  8
0
  6
Continuous
 62
     7
370
    15
100
AcDbLine
 10
210.0455284216871
 20
143.6701433951163
 30
0.0
 11
207.2878074400587
 21
145.2621418311709
 31
0.0
  0
LINE
  5
6F5
330
673
100
AcDbEntity
  8
0
  6
Continuous
 62
     7
370
    15
100
AcDbLine
 10
207.0403229534396
 20
145.6907975348223
 30
0.0
 11
207.2878074400587
 21
145.2621418311709
 31
0.0
  0
LINE
  5
6F6
330
673
100
AcDbEntity
  8
0
  6
Continuous
 62
     7
370
    15
100
AcDbLine
 10
207.0403229534392
 20
147.335614058962
 30
0.0
 11
207.0403211456027
 21
145.6908006660876
 31
0.0
  0
ARC
  5
6F7
330
673
100
AcDbEntity
  8
0
  6
Continuous
 62
     7
370
    15
100
AcDbCircle
 10
206.319336748895
 20
147.3109845206987
 30
0.0
 40
0.7214067654923378
100
AcDbArc
 50
1.956514618238495
 51
31.14419206759275
  0
LINE
  5
6F8
330
673
100
AcDbEntity
  8
0
  6
Continuous
 62
     7
370
    15
100
AcDbLine
 10
206.8963899274728
 20
147.7540237717315
 30
0.0
 11
206.9367660241589
 21
147.6840914910775
 31
0.0
  0
ARC
  5
6F9
330
673
100
AcDbEntity
  8
0
  6
Continuous
 62
     7
370
    15
100
AcDbCircle
 10
207.5138195949902
 20
148.1271272493207
 30
0.0
 40
0.7214052947683227
100
AcDbArc
 50
181.9565178959431
 51
211.1439385321023
  0
LINE
  5
6FA
330
673
100
AcDbEntity
  8
0
  6
Continuous
 62
     7
370
    15
100
AcDbLine
 10
206.7928348617386
 20
151.1264710067317
 30
0.0
 11
206.7928348617216
 21
148.1024977200242
 31
0.0
  0
LINE
  5
6FB
330
673
100
AcDbEntity
  8
0
  6
Continuous
 62
     7
370
    15
100
AcDbLine
 10
204.7422244808121
 20
152.3102631819156
 30
0.0
 11
206.7928348617386
 21
151.1264710067317
 31
0.0
  0
LINE
  5
6FC
330
673
100
AcDbEntity
  8
0
  6
Continuous
 62
     7
370
    15
100
AcDbLine
 10
204.7422244808121
 20
149.2862931581645
 30
0.0
 11
204.7422244808121
 21
152.3102631819156
 31
0.0
  0
ARC
  5
6FD
330
673
100
AcDbEntity
  8
0
  6
Continuous
 62
     7
370
    15
100
AcDbCircle
 10
204.4918947924142
 20
149.2616561556966
 30
0.0
 40
0.2515391317151416
100
AcDbArc
 50
305.6978559792772
 51
5.620847185264189
  0
LINE
  5
6FE
330
673
100
AcDbEntity
  8
0
  6
Continuous
 62
     7
370
    15
100
AcDbLine
 10
204.5982919317612
 20
149.0340595920002
 30
0.0
 11
204.638670598078
 21
149.057379877936
 31
0.0
  0
ARC
  5
6FF
330
673
100
AcDbEntity
  8
0
  6
Continuous
 62
     7
370
    15
100
AcDbCircle
 10
204.7450695091856
 20
148.8297839334856
 30
0.0
 40
0.2515396626700133
100
AcDbArc
 50
125.6982660277897
 51
185.6204239755395
  0
LINE
  5
700
330
673
100
AcDbEntity
  8
0
  6
Continuous
 62
     7
370
    15
100
AcDbLine
 10
204.4947391104134
 20
147.1603338951081
 30
0.0
 11
204.4947391104134
 21
148.8051487280539
 31
0.0
  0
LINE
  5
701
330
673
100
AcDbEntity
  8
0
  6
Continuous
 62
     7
370
    15
100
AcDbLine
 10
204.2472528159575
 20
147.0174166535894
 30
0.0
 11
204.4947391104134
 21
147.1603338951081
 31
0.0
  0
LINE
  5
702
330
673
100
AcDbEntity
  8
0
  6
Continuous
 62
     7
370
    15
100
AcDbLine
 10
204.2472528159575
 20
147.0174166535894
 30
0.0
 11
201.489531834329
 21
148.609415089644
 31
0.0
  0
LINE
  5
703
330
673
100
AcDbEntity
  8
0
  6
Continuous
 62
     7
370
    15
100
AcDbLine
 10
201.2420473477098
 20
149.0380707932954
 30
0.0
 11
201.489531834329
 21
148.609415089644
 31
0.0
  0
LINE
  5
704
330
673
100
AcDbEntity
  8
0
  6
Continuous
 62
     7
370
    15
100
AcDbLine
 10
201.2420473477095
 20
150.6828873174351
 30
0.0
 11
201.242045539873
 21
149.0380739245607
 31
0.0
  0
ARC
  5
705
330
673
100
AcDbEntity
  8
0
  6
Continuous
 62
     7
370
    15
100
AcDbCircle
 10
200.5210611431639
 20
150.6582577791714
 30
0.0
 40
0.7214067654937452
100
AcDbArc
 50
1.956514618270814
 51
31.14419206756452
  0
LINE
  5
706
330
673
100
AcDbEntity
  8
0
  6
Continuous
 62
     7
370
    15
100
AcDbLine
 10
201.0981143217431
 20
151.1012970302047
 30
0.0
 11
201.1384904184292
 21
151.0313647495506
 31
0.0
  0
ARC
  5
707
330
673
100
AcDbEntity
  8
0
  6
Continuous
 62
     7
370
    15
100
AcDbCircle
 10
201.7155439892621
 20
151.4744005077941
 30
0.0
 40
0.7214052947698692
100
AcDbArc
 50
181.9565178959683
 51
211.1439385320582
  0
LINE
  5
708
330
673
100
AcDbEntity
  8
0
  6
Continuous
 62
     7
370
    15
100
AcDbLine
 10
200.9945592560089
 20
154.4737442652048
 30
0.0
 11
200.9945592559919
 21
151.4497709784973
 31
0.0
  0
LINE
  5
709
330
673
100
AcDbEntity
  8
0
  6
Continuous
 62
     7
370
    15
100
AcDbLine
 10
198.9439488750825
 20
155.6575364403887
 30
0.0
 11
200.9945592560089
 21
154.4737442652048
 31
0.0
  0
LINE
  5
70A
330
673
100
AcDbEntity
  8
0
  6
Continuous
 62
     7
370
    15
100
AcDbLine
 10
198.9439488750825
 20
152.6335664166376
 30
0.0
 11
198.9439488750825
 21
155.6575364403887
 31
0.0
  0
ARC
  5
70B
330
673
100
AcDbEntity
  8
0
  6
Continuous
 62
     7
370
    15
100
AcDbCircle
 10
198.6936191866847
 20
152.6089294141697
 30
0.0
 40
0.2515391317150568
100
AcDbArc
 50
305.6978559792547
 51
5.620847185266091
  0
LINE
  5
70C
330
673
100
AcDbEntity
  8
0
  6
Continuous
 62
     7
370
    15
100
AcDbLine
 10
198.8000163260315
 20
152.3813328504732
 30
0.0
 11
198.8403949923484
 21
152.4046531364091
 31
0.0
  0
ARC
  5
70D
330
673
100
AcDbEntity
  8
0
  6
Continuous
 62
     7
370
    15
100
AcDbCircle
 10
198.9467939034554
 20
152.177057191959
 30
0.0
 40
0.2515396626695066
100
AcDbArc
 50
125.6982660277366
 51
185.6204239756224
  0
LINE
  5
70E
330
673
100
AcDbEntity
  8
0
  6
Continuous
 62
     7
370
    15
100
AcDbLine
 10
198.6964635046837
 20
150.5076071535812
 30
0.0
 11
198.6964635046837
 21
152.1524219865269
 31
0.0
  0
LINE
  5
70F
330
673
100
AcDbEntity
  8
0
  6
Continuous
 62
     7
370
    15
100
AcDbLine
 10
198.4489772102278
 20
150.3646899120626
 30
0.0
 11
198.6964635046837
 21
150.5076071535812
 31
0.0
  0
LINE
  5
710
330
673
100
AcDbEntity
  8
0
  6
Continuous
 62
     7
370
    15
100
AcDbLine
 10
198.4489772102278
 20
150.3646899120626
 30
0.0
 11
195.6912562285993
 21
151.9566883481171
 31
0.0
  0
LINE
  5
711
330
673
100
AcDbEntity
  8
0
  6
Continuous
 62
     7
370
    15
100
AcDbLine
 10
195.4437717419801
 20
152.3853440517685
 30
0.0
 11
195.6912562285993
 21
151.9566883481171
 31
0.0
  0
LINE
  5
712
330
673
100
AcDbEntity
  8
0
  6
Continuous
 62
     7
370
    15
100
AcDbLine
 10
195.4437717419798
 20
154.0301605759082
 30
0.0
 11
195.4437699341434
 21
152.3853471830338
 31
0.0
  0
ARC
  5
713
330
673
100
AcDbEntity
  8
0
  6
Continuous
 62
     7
370
    15
100
AcDbCircle
 10
194.7227855374329
 20
154.0055310376444
 30
0.0
 40
0.721406765495019
100
AcDbArc
 50
1.956514618276447
 51
31.14419206751388
  0
LINE
  5
714
330
673
100
AcDbEntity
  8
0
  6
Continuous
 62
     7
370
    15
100
AcDbLine
 10
195.2998387160134
 20
154.4485702886778
 30
0.0
 11
195.3402148126996
 21
154.3786380080237
 31
0.0
  0
ARC
  5
715
330
673
100
AcDbEntity
  8
0
  6
Continuous
 62
     7
370
    15
100
AcDbCircle
 10
195.9172683835319
 20
154.8216737662671
 30
0.0
 40
0.7214052947693473
100
AcDbArc
 50
181.956517895963
 51
211.1439385320734
  0
LINE
  5
716
330
673
100
AcDbEntity
  8
0
  6
Continuous
 62
     7
370
    15
100
AcDbLine
 10
195.1962836502792
 20
157.821017523678
 30
0.0
 11
195.1962836502623
 21
154.7970442369704
 31
0.0
  0
LINE
  5
717
330
673
100
AcDbEntity
  8
0
  6
Continuous
 62
     7
370
    15
100
AcDbLine
 10
193.1456732693528
 20
159.0048096988618
 30
0.0
 11
195.1962836502792
 21
157.821017523678
 31
0.0
  0
LINE
  5
718
330
673
100
AcDbEntity
  8
0
  6
Continuous
 62
     7
370
    15
100
AcDbLine
 10
193.1456732693528
 20
155.9808396751107
 30
0.0
 11
193.1456732693528
 21
159.0048096988618
 31
0.0
  0
ARC
  5
719
330
673
100
AcDbEntity
  8
0
  6
Continuous
 62
     7
370
    15
100
AcDbCircle
 10
192.895343580955
 20
155.9562026726428
 30
0.0
 40
0.2515391317150508
100
AcDbArc
 50
305.6978559792509
 51
5.620847185260283
  0
LINE
  5
71A
330
673
100
AcDbEntity
  8
0
  6
Continuous
 62
     7
370
    15
100
AcDbLine
 10
193.0017407203018
 20
155.7286061089463
 30
0.0
 11
193.0421193866187
 21
155.7519263948822
 31
0.0
  0
ARC
  5
71B
330
673
100
AcDbEntity
  8
0
  6
Continuous
 62
     7
370
    15
100
AcDbCircle
 10
193.1485182977257
 20
155.5243304504321
 30
0.0
 40
0.2515396626694755
100
AcDbArc
 50
125.6982660277276
 51
185.6204239756166
  0
LINE
  5
71C
330
673
100
AcDbEntity
  8
0
  6
Continuous
 62
     7
370
    15
100
AcDbLine
 10
192.898187898954
 20
153.8548804120543
 30
0.0
 11
192.898187898954
 21
155.499695245
 31
0.0
  0
LINE
  5
71D
330
673
100
AcDbEntity
  8
0
  6
Continuous
 62
     7
370
    15
100
AcDbLine
 10
192.650701604498
 20
153.7119631705356
 30
0.0
 11
192.898187898954
 21
153.8548804120543
 31
0.0
  0
LINE
  5
71E
330
673
100
AcDbEntity
  8
0
  6
Continuous
 62
     7
370
    15
100
AcDbLine
 10
192.650701604498
 20
153.7119631705356
 30
0.0
 11
189.8929806228696
 21
155.3039616065902
 31
0.0
  0
LINE
  5
71F
330
673
100
AcDbEntity
  8
0
  6
Continuous
 62
     7
370
    15
100
AcDbLine
 10
189.6454961362504
 20
155.7326173102417
 30
0.0
 11
189.8929806228696
 21
155.3039616065902
 31
0.0
  0
LINE
  5
720
330
673
100
AcDbEntity
  8
0
  6
Continuous
 62
     7
370
    15
100
AcDbLine
 10
189.6454961362501
 20
157.3774338343813
 30
0.0
 11
189.6454943284137
 21
155.7326204415069
 31
0.0
  0
ARC
  5
721
330
673
100
AcDbEntity
  8
0
  6
Continuous
 62
     7
370
    15
100
AcDbCircle
 10
188.924509931703
 20
157.3528042961174
 30
0.0
 40
0.7214067654953161
100
AcDbArc
 50
1.956514618286879
 51
31.14419206751419
  0
LINE
  5
722
330
673
100
AcDbEntity
  8
0
  6
Continuous
 62
     7
370
    15
100
AcDbLine
 10
189.5015631102837
 20
157.7958435471508
 30
0.0
 11
189.5419392069699
 21
157.7259112664968
 31
0.0
  0
ARC
  5
723
330
673
100
AcDbEntity
  8
0
  6
Continuous
 62
     7
370
    15
100
AcDbCircle
 10
190.1189927778029
 20
158.1689470247405
 30
0.0
 40
0.7214052947700833
100
AcDbArc
 50
181.9565178959835
 51
211.1439385320697
  0
LINE
  5
724
330
673
100
AcDbEntity
  8
0
  6
Continuous
 62
     7
370
    15
100
AcDbLine
 10
189.3980080445495
 20
161.168290782151
 30
0.0
 11
189.3980080445325
 21
158.1443174954435
 31
0.0
  0
LINE
  5
725
330
673
100
AcDbEntity
  8
0
  6
Continuous
 62
     7
370
    15
100
AcDbLine
 10
187.3473976636232
 20
162.3520829573349
 30
0.0
 11
189.3980080445495
 21
161.168290782151
 31
0.0
  0
LINE
  5
726
330
673
100
AcDbEntity
  8
0
  6
Continuous
 62
     7
370
    15
100
AcDbLine
 10
187.3473976636232
 20
159.3281129335838
 30
0.0
 11
187.3473976636232
 21
162.3520829573349
 31
0.0
  0
ARC
  5
727
330
673
100
AcDbEntity
  8
0
  6
Continuous
 62
     7
370
    15
100
AcDbCircle
 10
187.0970679752248
 20
159.3034759311161
 30
0.0
 40
0.2515391317155671
100
AcDbArc
 50
305.6978559793259
 51
5.620847185197327
  0
LINE
  5
728
330
673
100
AcDbEntity
  8
0
  6
Continuous
 62
     7
370
    15
100
AcDbLine
 10
187.2034651145722
 20
159.0758793674194
 30
0.0
 11
187.2438437808891
 21
159.0991996533553
 31
0.0
  0
ARC
  5
729
330
673
100
AcDbEntity
  8
0
  6
Continuous
 62
     7
370
    15
100
AcDbCircle
 10
187.350242691996
 20
158.8716037089052
 30
0.0
 40
0.2515396626694207
100
AcDbArc
 50
125.6982660277261
 51
185.6204239756185
  0
LINE
  5
72A
330
673
100
AcDbEntity
  8
0
  6
Continuous
 62
     7
370
    15
100
AcDbLine
 10
187.0999122932244
 20
157.2021536705274
 30
0.0
 11
187.0999122932244
 21
158.8469685034732
 31
0.0
  0
LINE
  5
72B
330
673
100
AcDbEntity
  8
0
  6
Continuous
 62
     7
370
    15
100
AcDbLine
 10
186.8524259987684
 20
157.0592364290087
 30
0.0
 11
187.0999122932244
 21
157.2021536705274
 31
0.0
  0
LINE
  5
72C
330
673
100
AcDbEntity
  8
0
  6
Continuous
 62
     7
370
    15
100
AcDbLine
 10
186.8524259987684
 20
157.0592364290087
 30
0.0
 11
184.09470501714
 21
158.6512348650634
 31
0.0
  0
LINE
  5
72D
330
673
100
AcDbEntity
  8
0
  6
Continuous
 62
     7
370
    15
100
AcDbLine
 10
183.8472205305208
 20
159.0798905687147
 30
0.0
 11
184.09470501714
 21
158.6512348650634
 31
0.0
  0
LINE
  5
72E
330
673
100
AcDbEntity
  8
0
  6
Continuous
 62
     7
370
    15
100
AcDbLine
 10
183.8472205305205
 20
160.7247070928544
 30
0.0
 11
183.847218722684
 21
159.07989369998
 31
0.0
  0
ARC
  5
72F
330
673
100
AcDbEntity
  8
0
  6
Continuous
 62
     7
370
    15
100
AcDbCircle
 10
183.1262343259734
 20
160.7000775545905
 30
0.0
 40
0.7214067654952289
100
AcDbArc
 50
1.956514618284932
 51
31.14419206751963
  0
LINE
  5
730
330
673
100
AcDbEntity
  8
0
  6
Continuous
 62
     7
370
    15
100
AcDbLine
 10
183.7032875045541
 20
161.143116805624
 30
0.0
 11
183.7436636012403
 21
161.07318452497
 31
0.0
  0
ARC
  5
731
330
673
100
AcDbEntity
  8
0
  6
Continuous
 62
     7
370
    15
100
AcDbCircle
 10
184.3207171720711
 20
161.516220283213
 30
0.0
 40
0.721405294767977
100
AcDbArc
 50
181.9565178959327
 51
211.1439385321105
  0
LINE
  5
732
330
673
100
AcDbEntity
  8
0
  6
Continuous
 62
     7
370
    15
100
AcDbLine
 10
183.5997324388199
 20
164.5155640406242
 30
0.0
 11
183.5997324388029
 21
161.4915907539167
 31
0.0
  0
LINE
  5
733
330
673
100
AcDbEntity
  8
0
  6
Continuous
 62
     7
370
    15
100
AcDbLine
 10
181.5491220578933
 20
165.6993562158081
 30
0.0
 11
183.5997324388199
 21
164.5155640406242
 31
0.0
  0
LINE
  5
734
330
673
100
AcDbEntity
  8
0
  6
Continuous
 62
     7
370
    15
100
AcDbLine
 10
181.5491220578933
 20
162.675386192057
 30
0.0
 11
181.5491220578933
 21
165.6993562158081
 31
0.0
  0
ARC
  5
735
330
673
100
AcDbEntity
  8
0
  6
Continuous
 62
     7
370
    15
100
AcDbCircle
 10
181.2987923694946
 20
162.6507491895895
 30
0.0
 40
0.2515391317158437
100
AcDbArc
 50
305.6978559793723
 51
5.620847185170389
  0
LINE
  5
736
330
673
100
AcDbEntity
  8
0
  6
Continuous
 62
     7
370
    15
100
AcDbLine
 10
181.4051895088423
 20
162.4231526258927
 30
0.0
 11
181.4455681751592
 21
162.4464729118285
 31
0.0
  0
ARC
  5
737
330
673
100
AcDbEntity
  8
0
  6
Continuous
 62
     7
370
    15
100
AcDbCircle
 10
181.5519670862669
 20
162.2188769673781
 30
0.0
 40
0.2515396626701685
100
AcDbArc
 50
125.6982660278189
 51
185.6204239755428
  0
LINE
  5
738
330
673
100
AcDbEntity
  8
0
  6
Continuous
 62
     7
370
    15
100
AcDbLine
 10
181.3016366874945
 20
160.5494269290006
 30
0.0
 11
181.3016366874945
 21
162.1942417619463
 31
0.0
  0
LINE
  5
739
330
673
100
AcDbEntity
  8
0
  6
Continuous
 62
     7
370
    15
100
AcDbLine
 10
181.0541503930386
 20
160.406509687482
 30
0.0
 11
181.3016366874945
 21
160.5494269290006
 31
0.0
  0
LINE
  5
73A
330
673
100
AcDbEntity
  8
0
  6
Continuous
 62
     7
370
    15
100
AcDbLine
 10
181.0541503930386
 20
160.406509687482
 30
0.0
 11
178.2964294114101
 21
161.9985081235365
 31
0.0
  0
LINE
  5
73B
330
673
100
AcDbEntity
  8
0
  6
Continuous
 62
     7
370
    15
100
AcDbLine
 10
178.0489449247909
 20
162.427163827188
 30
0.0
 11
178.2964294114101
 21
161.9985081235365
 31
0.0
  0
LINE
  5
73C
330
673
100
AcDbEntity
  8
0
  6
Continuous
 62
     7
370
    15
100
AcDbLine
 10
178.0489449247907
 20
164.0719803513276
 30
0.0
 11
178.0489431169542
 21
162.4271669584532
 31
0.0
  0
ARC
  5
73D
330
673
100
AcDbEntity
  8
0
  6
Continuous
 62
     7
370
    15
100
AcDbCircle
 10
177.3279587202461
 20
164.0473508130642
 30
0.0
 40
0.7214067654927456
100
AcDbArc
 50
1.956514618253207
 51
31.14419206758606
  0
LINE
  5
73E
330
673
100
AcDbEntity
  8
0
  6
Continuous
 62
     7
370
    15
100
AcDbLine
 10
177.9050118988244
 20
164.4903900640971
 30
0.0
 11
177.9453879955104
 21
164.4204577834431
 31
0.0
  0
ARC
  5
73F
330
673
100
AcDbEntity
  8
0
  6
Continuous
 62
     7
370
    15
100
AcDbCircle
 10
178.5224415663402
 20
164.863493541686
 30
0.0
 40
0.7214052947668077
100
AcDbArc
 50
181.9565178959246
 51
211.1439385321534
  0
LINE
  5
740
330
673
100
AcDbEntity
  8
0
  6
Continuous
 62
     7
370
    15
100
AcDbLine
 10
177.8014568330901
 20
167.8628372990974
 30
0.0
 11
177.8014568330731
 21
164.8388640123898
 31
0.0
  0
LINE
  5
741
330
673
100
AcDbEntity
  8
0
  6
Continuous
 62
     7
370
    15
100
AcDbLine
 10
176.988286074633
 20
168.3322707857819
 30
0.0
 11
177.8014568330901
 21
167.8628372990974
 31
0.0
  0
LINE
  5
742
330
673
100
AcDbEntity
  8
0
  6
Continuous
 62
     7
370
    15
100
AcDbLine
 10
176.988286074633
 20
173.0002219132313
 30
0.0
 11
176.988286074633
 21
168.3322707857819
 31
0.0
  0
LINE
  5
743
330
673
100
AcDbEntity
  8
0
  6
Continuous
 62
     7
370
    15
100
AcDbLine
 10
235.854928664574
 20
133.7745344873907
 30
0.0
 11
233.7336083210144
 21
132.5499223196566
 31
0.0
  0
LINE
  5
744
330
673
100
AcDbEntity
  8
0
  6
Continuous
 62
     7
370
    15
100
AcDbLine
 10
235.854928664574
 20
133.7745344873907
 30
0.0
 11
235.854928664574
 21
135.8596379747014
 31
0.0
  0
LINE
  5
745
330
673
100
AcDbEntity
  8
0
  6
Continuous
 62
     7
370
    15
100
AcDbLine
 10
232.4961663578695
 20
134.1788628831263
 30
0.0
 11
230.7283994049032
 21
135.1993730229046
 31
0.0
  0
LINE
  5
746
330
673
100
AcDbEntity
  8
0
  6
Continuous
 62
     7
370
    15
100
AcDbLine
 10
232.7436537312848
 20
133.2602312472439
 30
0.0
 11
232.4961663578695
 21
134.1788628831263
 31
0.0
  0
LINE
  5
747
330
673
100
AcDbEntity
  8
0
  6
Continuous
 62
     7
370
    15
100
AcDbLine
 10
230.9758867783185
 20
134.2807413870222
 30
0.0
 11
230.7283994049032
 21
135.1993730229046
 31
0.0
  0
LINE
  5
748
330
673
100
AcDbEntity
  8
0
  6
Continuous
 62
     7
370
    15
100
AcDbLine
 10
232.4961663578695
 20
134.1788628831263
 30
0.0
 11
232.7436537312848
 21
134.3217343026953
 31
0.0
  0
LINE
  5
749
330
673
100
AcDbEntity
  8
0
  6
Continuous
 62
     7
370
    15
100
AcDbLine
 10
230.7283994049032
 20
135.1993730229046
 30
0.0
 11
230.9758867783185
 21
135.3422444424736
 31
0.0
  0
LINE
  5
74A
330
673
100
AcDbEntity
  8
0
  6
Continuous
 62
     7
370
    15
100
AcDbLine
 10
233.63005360026
 20
132.3210071996114
 30
0.0
 11
235.7513739438196
 21
133.5456193673454
 31
0.0
  0
ARC
  5
74B
330
673
100
AcDbEntity
  8
0
  6
Continuous
 62
     7
370
    15
100
AcDbCircle
 10
235.604596974218
 20
133.7498972860734
 30
0.0
 40
0.2515411435238152
100
AcDbArc
 50
305.697853181674
 51
5.620847597895989
  0
LINE
  5
74C
330
673
100
AcDbEntity
  8
0
  6
Continuous
 62
     7
370
    15
100
AcDbLine
 10
233.5896749361655
 20
132.2976907500235
 30
0.0
 11
235.7109952797252
 21
133.5223029177576
 31
0.0
  0
LINE
  5
74D
330
673
100
AcDbEntity
  8
0
  6
Continuous
 62
     7
370
    15
100
AcDbLine
 10
235.7513739438196
 20
133.5456193673454
 30
0.0
 11
235.7109952797252
 21
133.5223029177576
 31
0.0
  0
LINE
  5
74E
330
673
100
AcDbEntity
  8
0
  6
Continuous
 62
     7
370
    15
100
AcDbLine
 10
233.4861204602334
 20
132.0687801897459
 30
0.0
 11
235.607440803793
 21
133.2933923574799
 31
0.0
  0
ARC
  5
74F
330
673
100
AcDbEntity
  8
0
  6
Continuous
 62
     7
370
    15
100
AcDbCircle
 10
235.8577681549283
 20
133.318027609698
 30
0.0
 40
0.2515366342667717
100
AcDbArc
 50
125.6974427781423
 51
185.6205025697586
  0
LINE
  5
750
330
673
100
AcDbEntity
  8
0
  6
Continuous
 62
     7
370
    15
100
AcDbLine
 10
235.607440803793
 20
131.648577853205
 30
0.0
 11
233.4861204602334
 21
130.423965685471
 31
0.0
  0
LINE
  5
751
330
673
100
AcDbEntity
  8
0
  6
Continuous
 62
     7
370
    15
100
AcDbLine
 10
235.607440803793
 20
131.648577853205
 30
0.0
 11
235.607440803793
 21
133.2933923574799
 31
0.0
  0
LINE
  5
752
330
673
100
AcDbEntity
  8
0
  6
Continuous
 62
     7
370
    15
100
AcDbLine
 10
235.3599545093371
 20
131.5056606116864
 30
0.0
 11
233.2386341657775
 21
130.2810484439523
 31
0.0
  0
LINE
  5
753
330
673
100
AcDbEntity
  8
0
  6
Continuous
 62
     7
370
    15
100
AcDbLine
 10
235.607440803793
 20
131.648577853205
 30
0.0
 11
235.3599545093371
 21
131.5056606116864
 31
0.0
  0
LINE
  5
754
330
673
100
AcDbEntity
  8
0
  6
Continuous
 62
     7
370
    15
100
AcDbLine
 10
233.274006391664
 20
124.839305689186
 30
0.0
 11
233.2402033041765
 21
124.8197915821489
 31
0.0
  0
ARC
  5
755
330
673
100
AcDbEntity
  8
0
  6
Continuous
 62
     7
370
    15
100
AcDbCircle
 10
233.0255636718276
 20
125.2276884829957
 30
0.0
 40
0.4610476977137447
100
AcDbArc
 50
302.6064450637631
 51
357.3946824979047
  0
LINE
  5
756
330
673
100
AcDbEntity
  8
0
  6
Continuous
 62
     7
370
    15
100
AcDbLine
 10
233.4861348100985
 20
130.4239275246521
 30
0.0
 11
233.4861348100985
 21
125.2067312370179
 31
0.0
  0
LINE
  5
757
330
673
100
AcDbEntity
  8
0
  6
Continuous
 62
     7
370
    15
100
AcDbLine
 10
234.4760834518996
 20
125.7782124240557
 30
0.0
 11
234.4760834518996
 21
130.9954127111598
 31
0.0
  0
ARC
  5
758
330
673
100
AcDbEntity
  8
0
  6
Continuous
 62
     7
370
    15
100
AcDbCircle
 10
234.6054058974229
 20
125.7572343238497
 30
0.0
 40
0.13101288335263
100
AcDbArc
 50
170.7859978946662
 51
309.2032503544615
  0
LINE
  5
759
330
673
100
AcDbEntity
  8
0
  6
Continuous
 62
     7
370
    15
100
AcDbLine
 10
234.7220187256877
 20
125.675225416566
 30
0.0
 11
234.6882156382
 21
125.6557113095288
 31
0.0
  0
ARC
  5
75A
330
673
100
AcDbEntity
  8
0
  6
Continuous
 62
     7
370
    15
100
AcDbCircle
 10
234.8048284664646
 20
125.5737024022458
 30
0.0
 40
0.1310128833519891
100
AcDbArc
 50
350.7859978967056
 51
129.203250354601
  0
LINE
  5
75B
330
673
100
AcDbEntity
  8
0
  6
Continuous
 62
     7
370
    15
100
AcDbLine
 10
234.934150911988
 20
125.5527243020445
 30
0.0
 11
234.9341528248842
 21
120.8785003758899
 31
0.0
  0
LINE
  5
75C
330
673
100
AcDbEntity
  8
0
  6
Continuous
 62
     7
370
    15
100
AcDbLine
 10
234.9341528248842
 20
120.8785003758899
 30
0.0
 11
233.0280733039924
 21
119.7781439247802
 31
0.0
  0
LINE
  5
75D
330
673
100
AcDbEntity
  8
0
  6
Continuous
 62
     7
370
    15
100
AcDbLine
 10
233.0280733039924
 20
119.7781439247802
 30
0.0
 11
233.028071421765
 21
124.4523680340763
 31
0.0
  0
ARC
  5
75E
330
673
100
AcDbEntity
  8
0
  6
Continuous
 62
     7
370
    15
100
AcDbCircle
 10
233.4886359810125
 20
124.4314101304287
 30
0.0
 40
0.4610411553865863
100
AcDbArc
 50
122.6054835579845
 51
177.3945636857474
  0
LINE
  5
75F
330
673
100
AcDbEntity
  8
0
  6
Continuous
 62
     7
370
    15
100
AcDbLine
 10
231.3648137660752
 20
126.4313725511849
 30
0.0
 11
233.4861348100985
 21
125.2067312370179
 31
0.0
  0
LINE
  5
760
330
673
100
AcDbEntity
  8
0
  6
Continuous
 62
     7
370
    15
100
AcDbLine
 10
231.3648137660752
 20
126.4313725511849
 30
0.0
 11
231.3648135858771
 21
131.3627820393819
 31
0.0
  0
LINE
  5
761
330
673
100
AcDbEntity
  8
0
  6
Continuous
 62
     7
370
    15
100
AcDbLine
 10
226.6978907521399
 20
137.5261361415994
 30
0.0
 11
226.9453781255552
 21
137.6690075611684
 31
0.0
  0
LINE
  5
762
330
673
100
AcDbEntity
  8
0
  6
Continuous
 62
     7
370
    15
100
AcDbLine
 10
226.6978907521399
 20
137.5261361415994
 30
0.0
 11
224.9301237991736
 21
138.5466462813777
 31
0.0
  0
LINE
  5
763
330
673
100
AcDbEntity
  8
0
  6
Continuous
 62
     7
370
    15
100
AcDbLine
 10
224.9301237991736
 20
138.5466462813777
 30
0.0
 11
225.1776111725888
 21
138.6895177009467
 31
0.0
  0
LINE
  5
764
330
673
100
AcDbEntity
  8
0
  6
Continuous
 62
     7
370
    15
100
AcDbLine
 10
226.9453781255552
 20
136.607504505717
 30
0.0
 11
226.6978907521399
 21
137.5261361415994
 31
0.0
  0
LINE
  5
765
330
673
100
AcDbEntity
  8
0
  6
Continuous
 62
     7
370
    15
100
AcDbLine
 10
225.1776111725888
 20
137.6280146454953
 30
0.0
 11
224.9301237991736
 21
138.5466462813777
 31
0.0
  0
LINE
  5
766
330
673
100
AcDbEntity
  8
0
  6
Continuous
 62
     7
370
    15
100
AcDbLine
 10
227.8317730209967
 20
135.6682868440436
 30
0.0
 11
229.9530933645564
 21
136.8928990117776
 31
0.0
  0
LWPOLYLINE
  5
767
330
673
100
AcDbEntity
  8
0
  6
Continuous
 62
     7
370
    15
100
AcDbPolyline
 90
        3
 70
   128
 43
0.0
 10
229.9530933645564
 20
136.8928990117776
 10
229.9763941280939
 20
136.9091347612106
 10
229.9859392792216
 20
136.9176706406824
  0
LINE
  5
768
330
673
100
AcDbEntity
  8
0
  6
Continuous
 62
     7
370
    15
100
AcDbLine
 10
227.7913943546799
 20
135.6449665581077
 30
0.0
 11
229.9127146982395
 21
136.8695787258417
 31
0.0
  0
LINE
  5
769
330
673
100
AcDbEntity
  8
0
  6
Continuous
 62
     7
370
    15
100
AcDbLine
 10
229.9530933645564
 20
136.8928990117776
 30
0.0
 11
229.9127146982395
 21
136.8695787258417
 31
0.0
  0
LINE
  5
76A
330
673
100
AcDbEntity
  8
0
  6
Continuous
 62
     7
370
    15
100
AcDbLine
 10
227.6878415333321
 20
135.4160556941614
 30
0.0
 11
229.8091618768917
 21
136.6406678618955
 31
0.0
  0
ARC
  5
76B
330
673
100
AcDbEntity
  8
0
  6
Continuous
 62
     7
370
    15
100
AcDbCircle
 10
230.0594922756537
 20
136.6653030673319
 30
0.0
 40
0.251539662660244
100
AcDbArc
 50
125.6982660265256
 51
185.6204239768321
  0
LINE
  5
76C
330
673
100
AcDbEntity
  8
0
  6
Continuous
 62
     7
370
    15
100
AcDbLine
 10
229.8091618768917
 20
134.9958530289497
 30
0.0
 11
227.6878415333321
 21
133.7712408612156
 31
0.0
  0
LINE
  5
76D
330
673
100
AcDbEntity
  8
0
  6
Continuous
 62
     7
370
    15
100
AcDbLine
 10
229.8091618768917
 20
134.9958530289497
 30
0.0
 11
229.8091618768917
 21
136.6406678618955
 31
0.0
  0
LINE
  5
76E
330
673
100
AcDbEntity
  8
0
  6
Continuous
 62
     7
370
    15
100
AcDbLine
 10
229.5616755824357
 20
134.852935787431
 30
0.0
 11
227.4403552388761
 21
133.628323619697
 31
0.0
  0
LINE
  5
76F
330
673
100
AcDbEntity
  8
0
  6
Continuous
 62
     7
370
    15
100
AcDbLine
 10
229.8091618768917
 20
134.9958530289497
 30
0.0
 11
229.5616755824357
 21
134.852935787431
 31
0.0
  0
LINE
  5
770
330
673
100
AcDbEntity
  8
0
  6
Continuous
 62
     7
370
    15
100
AcDbLine
 10
233.028071421765
 20
124.4523680340763
 30
0.0
 11
230.9067466444775
 21
125.6770115034646
 31
0.0
  0
LINE
  5
771
330
673
100
AcDbEntity
  8
0
  6
Continuous
 62
     7
370
    15
100
AcDbLine
 10
233.2402033041765
 20
124.8197915821489
 30
0.0
 11
231.1188786615325
 21
126.0444349738039
 31
0.0
  0
ARC
  5
772
330
673
100
AcDbEntity
  8
0
  6
Continuous
 62
     7
370
    15
100
AcDbCircle
 10
231.3673114439582
 20
125.6560532879123
 30
0.0
 40
0.461041409550005
100
AcDbArc
 50
122.6054789306465
 51
177.3945263210849
  0
LINE
  5
773
330
673
100
AcDbEntity
  8
0
  6
Continuous
 62
     7
370
    15
100
AcDbLine
 10
233.274006391664
 20
124.839305689186
 30
0.0
 11
231.1526817490199
 21
126.0639490808412
 31
0.0
  0
ARC
  5
774
330
673
100
AcDbEntity
  8
0
  6
Continuous
 62
     7
370
    15
100
AcDbCircle
 10
230.9042489665949
 20
126.4523307667326
 30
0.0
 40
0.4610414095494151
100
AcDbArc
 50
302.6054789305881
 51
357.394526321655
  0
LINE
  5
775
330
673
100
AcDbEntity
  8
0
  6
Continuous
 62
     7
370
    15
100
AcDbLine
 10
231.633787451518
 20
118.5416757486019
 30
0.0
 11
232.3010304454788
 21
118.1564845672131
 31
0.0
  0
ARC
  5
776
330
673
100
AcDbEntity
  8
0
  6
Continuous
 62
     7
370
    15
100
AcDbCircle
 10
232.2285634533624
 20
119.4608214386563
 30
0.0
 40
1.094800115050939
100
AcDbArc
 50
188.690385333608
 51
237.0932335995577
  0
LINE
  5
777
330
673
100
AcDbEntity
  8
0
  6
Continuous
 62
     7
370
    15
100
AcDbLine
 10
230.9067469746051
 20
121.0027595480573
 30
0.0
 11
231.1463324585973
 21
119.2954026794867
 31
0.0
  0
LINE
  5
778
330
673
100
AcDbEntity
  8
0
  6
Continuous
 62
     7
370
    15
100
AcDbLine
 10
232.7884854383998
 20
118.347407942882
 30
0.0
 11
233.0280733039924
 21
119.7781439247802
 31
0.0
  0
LWPOLYLINE
  5
779
330
673
100
AcDbEntity
  8
0
  6
Continuous
 62
     7
370
    15
100
AcDbPolyline
 90
        9
 70
   128
 43
0.0
 10
232.7884854383998
 20
118.347407942882
 10
232.766154605114
 20
118.2640614247614
 10
232.7296912037997
 20
118.1948133696144
 10
232.6802031569098
 20
118.1417678454189
 10
232.619194134324
 20
118.1065366142473
 10
232.5485178650826
 20
118.0901901596701
 10
232.470321812744
 20
118.0932251606418
 10
232.386981925765
 20
118.115549400156
 10
232.3010304454788
 20
118.1564845672131
  0
LINE
  5
77A
330
673
100
AcDbEntity
  8
0
  6
Continuous
 62
     7
370
    15
100
AcDbLine
 10
230.9067466444775
 20
125.6770115034646
 30
0.0
 11
230.9067469746051
 21
121.0027595480573
 31
0.0
  0
LINE
  5
77B
330
673
100
AcDbEntity
  8
0
  6
Continuous
 62
     7
370
    15
100
AcDbLine
 10
231.1188786615325
 20
126.0444349738039
 30
0.0
 11
231.1526817490199
 21
126.0639490808412
 31
0.0
  0
LINE
  5
77C
330
673
100
AcDbEntity
  8
0
  6
Continuous
 62
     7
370
    15
100
AcDbLine
 10
227.4419276984472
 20
128.1670648406218
 30
0.0
 11
227.4757307859347
 21
128.186578947659
 31
0.0
  0
ARC
  5
77D
330
673
100
AcDbEntity
  8
0
  6
Continuous
 62
     7
370
    15
100
AcDbCircle
 10
227.2272880660965
 20
128.574961741469
 30
0.0
 40
0.4610476977149701
100
AcDbArc
 50
302.6064450639219
 51
357.3946824978992
  0
LINE
  5
77E
330
673
100
AcDbEntity
  8
0
  6
Continuous
 62
     7
370
    15
100
AcDbLine
 10
227.6878592043688
 20
133.7712046176684
 30
0.0
 11
227.6878592043686
 21
128.5540044954912
 31
0.0
  0
LINE
  5
77F
330
673
100
AcDbEntity
  8
0
  6
Continuous
 62
     7
370
    15
100
AcDbLine
 10
228.6778078461698
 20
129.1254856825289
 30
0.0
 11
228.6778078461698
 21
134.3426898041759
 31
0.0
  0
ARC
  5
780
330
673
100
AcDbEntity
  8
0
  6
Continuous
 62
     7
370
    15
100
AcDbCircle
 10
228.8071302916932
 20
129.1045075823231
 30
0.0
 40
0.1310128833528212
100
AcDbArc
 50
170.7859978947845
 51
309.2032503544003
  0
LINE
  5
781
330
673
100
AcDbEntity
  8
0
  6
Continuous
 62
     7
370
    15
100
AcDbLine
 10
228.9237431199581
 20
129.022498675039
 30
0.0
 11
228.8899400324703
 21
129.002984568002
 31
0.0
  0
ARC
  5
782
330
673
100
AcDbEntity
  8
0
  6
Continuous
 62
     7
370
    15
100
AcDbCircle
 10
229.0065528607351
 20
128.9209756607188
 30
0.0
 40
0.1310128833519785
100
AcDbArc
 50
350.7859978966771
 51
129.203250354636
  0
LINE
  5
783
330
673
100
AcDbEntity
  8
0
  6
Continuous
 62
     7
370
    15
100
AcDbLine
 10
229.1358753062584
 20
128.8999975605175
 30
0.0
 11
229.1358771884857
 21
124.225773451217
 31
0.0
  0
LINE
  5
784
330
673
100
AcDbEntity
  8
0
  6
Continuous
 62
     7
370
    15
100
AcDbLine
 10
229.1358771884857
 20
124.225773451217
 30
0.0
 11
227.2297976982629
 21
123.1254171832531
 31
0.0
  0
LINE
  5
785
330
673
100
AcDbEntity
  8
0
  6
Continuous
 62
     7
370
    15
100
AcDbLine
 10
227.2297976982629
 20
123.1254171832531
 30
0.0
 11
227.2297958160356
 21
127.7996412925492
 31
0.0
  0
ARC
  5
786
330
673
100
AcDbEntity
  8
0
  6
Continuous
 62
     7
370
    15
100
AcDbCircle
 10
227.6903603752824
 20
127.7786833889021
 30
0.0
 40
0.46104115538571
100
AcDbArc
 50
122.6054835579255
 51
177.3945636858097
  0
LINE
  5
787
330
673
100
AcDbEntity
  8
0
  6
Continuous
 62
     7
370
    15
100
AcDbLine
 10
225.5665381603455
 20
129.778645809658
 30
0.0
 11
227.6878592043686
 21
128.5540044954912
 31
0.0
  0
LINE
  5
788
330
673
100
AcDbEntity
  8
0
  6
Continuous
 62
     7
370
    15
100
AcDbLine
 10
225.5665381603455
 20
129.778645809658
 30
0.0
 11
225.566538044249
 21
134.7100552608498
 31
0.0
  0
LINE
  5
789
330
673
100
AcDbEntity
  8
0
  6
Continuous
 62
     7
370
    15
100
AcDbLine
 10
220.8996151464102
 20
140.8734094000725
 30
0.0
 11
219.1318481934438
 21
141.8939195398508
 31
0.0
  0
LINE
  5
78A
330
673
100
AcDbEntity
  8
0
  6
Continuous
 62
     7
370
    15
100
AcDbLine
 10
221.1471025198255
 20
139.9547777641901
 30
0.0
 11
220.8996151464102
 21
140.8734094000725
 31
0.0
  0
LINE
  5
78B
330
673
100
AcDbEntity
  8
0
  6
Continuous
 62
     7
370
    15
100
AcDbLine
 10
219.379335566859
 20
140.9752879039684
 30
0.0
 11
219.1318481934438
 21
141.8939195398508
 31
0.0
  0
LINE
  5
78C
330
673
100
AcDbEntity
  8
0
  6
Continuous
 62
     7
370
    15
100
AcDbLine
 10
220.8996151464102
 20
140.8734094000725
 30
0.0
 11
221.1471025198255
 21
141.0162808196414
 31
0.0
  0
LINE
  5
78D
330
673
100
AcDbEntity
  8
0
  6
Continuous
 62
     7
370
    15
100
AcDbLine
 10
219.1318481934438
 20
141.8939195398508
 30
0.0
 11
219.379335566859
 21
142.0367909594198
 31
0.0
  0
LINE
  5
78E
330
673
100
AcDbEntity
  8
0
  6
Continuous
 62
     7
370
    15
100
AcDbLine
 10
222.0334974152671
 20
139.0155601025167
 30
0.0
 11
224.1548177588267
 21
140.2401722702507
 31
0.0
  0
LWPOLYLINE
  5
78F
330
673
100
AcDbEntity
  8
0
  6
Continuous
 62
     7
370
    15
100
AcDbPolyline
 90
        3
 70
   128
 43
0.0
 10
224.1548177588267
 20
140.2401722702507
 10
224.1781185223643
 20
140.2564080196837
 10
224.1876616789274
 20
140.2649419795485
  0
LINE
  5
790
330
673
100
AcDbEntity
  8
0
  6
Continuous
 62
     7
370
    15
100
AcDbLine
 10
221.9931187489502
 20
138.9922398165808
 30
0.0
 11
224.1144390925098
 21
140.2168519843149
 31
0.0
  0
LINE
  5
791
330
673
100
AcDbEntity
  8
0
  6
Continuous
 62
     7
370
    15
100
AcDbLine
 10
224.1548177588267
 20
140.2401722702507
 30
0.0
 11
224.1144390925098
 21
140.2168519843149
 31
0.0
  0
LINE
  5
792
330
673
100
AcDbEntity
  8
0
  6
Continuous
 62
     7
370
    15
100
AcDbLine
 10
221.8895659276025
 20
138.7633289526345
 30
0.0
 11
224.0108862711621
 21
139.9879411203686
 31
0.0
  0
ARC
  5
793
330
673
100
AcDbEntity
  8
0
  6
Continuous
 62
     7
370
    15
100
AcDbCircle
 10
224.2612166699241
 20
140.012576325805
 30
0.0
 40
0.2515396626602872
100
AcDbArc
 50
125.6982660265308
 51
185.6204239768244
  0
LINE
  5
794
330
673
100
AcDbEntity
  8
0
  6
Continuous
 62
     7
370
    15
100
AcDbLine
 10
224.0108862711621
 20
138.3431262874228
 30
0.0
 11
221.8895659276025
 21
137.1185141196888
 31
0.0
  0
LINE
  5
795
330
673
100
AcDbEntity
  8
0
  6
Continuous
 62
     7
370
    15
100
AcDbLine
 10
224.0108862711621
 20
138.3431262874228
 30
0.0
 11
224.0108862711621
 21
139.9879411203686
 31
0.0
  0
LINE
  5
796
330
673
100
AcDbEntity
  8
0
  6
Continuous
 62
     7
370
    15
100
AcDbLine
 10
234.6945649286227
 20
119.4477642108458
 30
0.0
 11
232.7884854383998
 21
118.347407942882
 31
0.0
  0
LINE
  5
797
330
673
100
AcDbEntity
  8
0
  6
Continuous
 62
     7
370
    15
100
AcDbLine
 10
234.9341528248842
 20
120.8785003758899
 30
0.0
 11
234.6945649286227
 21
119.4477642108458
 31
0.0
  0
LINE
  5
798
330
673
100
AcDbEntity
  8
0
  6
Continuous
 62
     7
370
    15
100
AcDbLine
 10
223.763399976706
 20
138.2002090459042
 30
0.0
 11
221.6420796331464
 21
136.9755968781701
 31
0.0
  0
LINE
  5
799
330
673
100
AcDbEntity
  8
0
  6
Continuous
 62
     7
370
    15
100
AcDbLine
 10
224.0108862711621
 20
138.3431262874228
 30
0.0
 11
223.763399976706
 21
138.2002090459042
 31
0.0
  0
LINE
  5
79A
330
673
100
AcDbEntity
  8
0
  6
Continuous
 62
     7
370
    15
100
AcDbLine
 10
227.2297958160356
 20
127.7996412925492
 30
0.0
 11
225.1084710387477
 21
129.0242847619378
 31
0.0
  0
LINE
  5
79B
330
673
100
AcDbEntity
  8
0
  6
Continuous
 62
     7
370
    15
100
AcDbLine
 10
227.4419276984472
 20
128.1670648406218
 30
0.0
 11
225.3206030558028
 21
129.3917082322771
 31
0.0
  0
ARC
  5
79C
330
673
100
AcDbEntity
  8
0
  6
Continuous
 62
     7
370
    15
100
AcDbCircle
 10
225.5690358382291
 20
129.0033265463849
 30
0.0
 40
0.4610414095506636
100
AcDbArc
 50
122.6054789306725
 51
177.3945263210232
  0
LINE
  5
79D
330
673
100
AcDbEntity
  8
0
  6
Continuous
 62
     7
370
    15
100
AcDbLine
 10
227.4757307859347
 20
128.186578947659
 30
0.0
 11
225.3544061432903
 21
129.4112223393143
 31
0.0
  0
ARC
  5
79E
330
673
100
AcDbEntity
  8
0
  6
Continuous
 62
     7
370
    15
100
AcDbCircle
 10
225.1059733608649
 20
129.7996040252059
 30
0.0
 40
0.4610414095497745
100
AcDbArc
 50
302.6054789306203
 51
357.3945263216379
  0
ARC
  5
79F
330
673
100
AcDbEntity
  8
0
  6
Continuous
 62
     7
370
    15
100
AcDbCircle
 10
234.3935635937131
 20
119.4765297645368
 30
0.0
 40
0.3023727181750282
100
AcDbArc
 50
302.7369283051136
 51
354.5410385237259
  0
LINE
  5
7A0
330
673
100
AcDbEntity
  8
0
  6
Continuous
 62
     7
370
    15
100
AcDbLine
 10
225.8355118457883
 20
121.888949007075
 30
0.0
 11
226.5027548397491
 21
121.5037578256862
 31
0.0
  0
ARC
  5
7A1
330
673
100
AcDbEntity
  8
0
  6
Continuous
 62
     7
370
    15
100
AcDbCircle
 10
226.4302878476331
 20
122.8080946971296
 30
0.0
 40
1.094800115051303
100
AcDbArc
 50
188.6903853336134
 51
237.0932335995489
  0
LINE
  5
7A2
330
673
100
AcDbEntity
  8
0
  6
Continuous
 62
     7
370
    15
100
AcDbLine
 10
225.1084713688754
 20
124.3500328065304
 30
0.0
 11
225.3480568528676
 21
122.6426759379598
 31
0.0
  0
LINE
  5
7A3
330
673
100
AcDbEntity
  8
0
  6
Continuous
 62
     7
370
    15
100
AcDbLine
 10
226.9902098326701
 20
121.6946812013551
 30
0.0
 11
227.2297976982629
 21
123.1254171832531
 31
0.0
  0
LWPOLYLINE
  5
7A4
330
673
100
AcDbEntity
  8
0
  6
Continuous
 62
     7
370
    15
100
AcDbPolyline
 90
        9
 70
   128
 43
0.0
 10
226.9902098326701
 20
121.6946812013551
 10
226.9678789993843
 20
121.6113346832345
 10
226.9314155980701
 20
121.5420866280875
 10
226.8819275511802
 20
121.489041103892
 10
226.8209185285943
 20
121.4538098727204
 10
226.7502422593528
 20
121.4374634181432
 10
226.6720462070143
 20
121.4404984191149
 10
226.5887063200354
 20
121.462822658629
 10
226.5027548397491
 20
121.5037578256862
  0
LINE
  5
7A5
330
673
100
AcDbEntity
  8
0
  6
Continuous
 62
     7
370
    15
100
AcDbLine
 10
225.1084710387477
 20
129.0242847619378
 30
0.0
 11
225.1084713688754
 21
124.3500328065304
 31
0.0
  0
LINE
  5
7A6
330
673
100
AcDbEntity
  8
0
  6
Continuous
 62
     7
370
    15
100
AcDbLine
 10
225.3206030558028
 20
129.3917082322771
 30
0.0
 11
225.3544061432903
 21
129.4112223393143
 31
0.0
  0
LINE
  5
7A7
330
673
100
AcDbEntity
  8
0
  6
Continuous
 62
     7
370
    15
100
AcDbLine
 10
221.6436520927175
 20
131.514338099095
 30
0.0
 11
221.677455180205
 21
131.5338522061321
 31
0.0
  0
ARC
  5
7A8
330
673
100
AcDbEntity
  8
0
  6
Continuous
 62
     7
370
    15
100
AcDbCircle
 10
221.4290124603671
 20
131.922234999942
 30
0.0
 40
0.461047697714719
100
AcDbArc
 50
302.6064450639076
 51
357.3946824979154
  0
LINE
  5
7A9
330
673
100
AcDbEntity
  8
0
  6
Continuous
 62
     7
370
    15
100
AcDbLine
 10
221.8895835986391
 20
137.1184778761416
 30
0.0
 11
221.889583598639
 21
131.9012777539643
 31
0.0
  0
LINE
  5
7AA
330
673
100
AcDbEntity
  8
0
  6
Continuous
 62
     7
370
    15
100
AcDbLine
 10
222.8795322404401
 20
132.472758941002
 30
0.0
 11
222.8795322404401
 21
137.689963062649
 31
0.0
  0
ARC
  5
7AB
330
673
100
AcDbEntity
  8
0
  6
Continuous
 62
     7
370
    15
100
AcDbCircle
 10
223.0088546859636
 20
132.4517808407962
 30
0.0
 40
0.1310128833527754
100
AcDbArc
 50
170.7859978947702
 51
309.2032503543365
  0
LINE
  5
7AC
330
673
100
AcDbEntity
  8
0
  6
Continuous
 62
     7
370
    15
100
AcDbLine
 10
223.1254675142285
 20
132.3697719335121
 30
0.0
 11
223.0916644267406
 21
132.350257826475
 31
0.0
  0
ARC
  5
7AD
330
673
100
AcDbEntity
  8
0
  6
Continuous
 62
     7
370
    15
100
AcDbCircle
 10
223.2082772550054
 20
132.2682489191919
 30
0.0
 40
0.1310128833520171
100
AcDbArc
 50
350.7859978967076
 51
129.2032503546106
  0
LINE
  5
7AE
330
673
100
AcDbEntity
  8
0
  6
Continuous
 62
     7
370
    15
100
AcDbLine
 10
223.3375997005288
 20
132.2472708189906
 30
0.0
 11
223.3376015827561
 21
127.5730467096901
 31
0.0
  0
LINE
  5
7AF
330
673
100
AcDbEntity
  8
0
  6
Continuous
 62
     7
370
    15
100
AcDbLine
 10
223.3376015827561
 20
127.5730467096901
 30
0.0
 11
221.4315220925332
 21
126.4726904417262
 31
0.0
  0
LINE
  5
7B0
330
673
100
AcDbEntity
  8
0
  6
Continuous
 62
     7
370
    15
100
AcDbLine
 10
221.4315220925332
 20
126.4726904417262
 30
0.0
 11
221.431520210306
 21
131.1469145510223
 31
0.0
  0
ARC
  5
7B1
330
673
100
AcDbEntity
  8
0
  6
Continuous
 62
     7
370
    15
100
AcDbCircle
 10
221.8920847695525
 20
131.1259566473754
 30
0.0
 40
0.4610411553855345
100
AcDbArc
 50
122.6054835579173
 51
177.3945636858228
  0
LINE
  5
7B2
330
673
100
AcDbEntity
  8
0
  6
Continuous
 62
     7
370
    15
100
AcDbLine
 10
219.7682625546159
 20
133.1259190681311
 30
0.0
 11
221.889583598639
 21
131.9012777539643
 31
0.0
  0
LINE
  5
7B3
330
673
100
AcDbEntity
  8
0
  6
Continuous
 62
     7
370
    15
100
AcDbLine
 10
219.7682625546159
 20
133.1259190681311
 30
0.0
 11
219.7682624385193
 21
138.0573285193229
 31
0.0
  0
LINE
  5
7B4
330
673
100
AcDbEntity
  8
0
  6
Continuous
 62
     7
370
    15
100
AcDbLine
 10
215.3488269140957
 20
143.3020510226632
 30
0.0
 11
215.1013395406804
 21
144.2206826585456
 31
0.0
  0
LINE
  5
7B5
330
673
100
AcDbEntity
  8
0
  6
Continuous
 62
     7
370
    15
100
AcDbLine
 10
215.1013395406804
 20
144.2206826585456
 30
0.0
 11
215.3488269140957
 21
144.3635540781146
 31
0.0
  0
LINE
  5
7B6
330
673
100
AcDbEntity
  8
0
  6
Continuous
 62
     7
370
    15
100
AcDbLine
 10
215.1013395406804
 20
144.2206826585456
 30
0.0
 11
213.3335725877141
 21
145.241192798324
 31
0.0
  0
LINE
  5
7B7
330
673
100
AcDbEntity
  8
0
  6
Continuous
 62
     7
370
    15
100
AcDbLine
 10
213.5810599611294
 20
144.3225611624416
 30
0.0
 11
213.3335725877141
 21
145.241192798324
 31
0.0
  0
LINE
  5
7B8
330
673
100
AcDbEntity
  8
0
  6
Continuous
 62
     7
370
    15
100
AcDbLine
 10
213.3335725877141
 20
145.241192798324
 30
0.0
 11
213.5810599611294
 21
145.3840642178929
 31
0.0
  0
LINE
  5
7B9
330
673
100
AcDbEntity
  8
0
  6
Continuous
 62
     7
370
    15
100
AcDbLine
 10
216.2352218095375
 20
142.3628333609898
 30
0.0
 11
218.3565421530971
 21
143.5874455287239
 31
0.0
  0
LWPOLYLINE
  5
7BA
330
673
100
AcDbEntity
  8
0
  6
Continuous
 62
     7
370
    15
100
AcDbPolyline
 90
        3
 70
   128
 43
0.0
 10
218.3565421530971
 20
143.5874455287239
 10
218.3798429166346
 20
143.6036812781568
 10
218.3893860731978
 20
143.6122152380217
  0
LINE
  5
7BB
330
673
100
AcDbEntity
  8
0
  6
Continuous
 62
     7
370
    15
100
AcDbLine
 10
216.1948431432206
 20
142.3395130750539
 30
0.0
 11
218.3161634867802
 21
143.564125242788
 31
0.0
  0
LINE
  5
7BC
330
673
100
AcDbEntity
  8
0
  6
Continuous
 62
     7
370
    15
100
AcDbLine
 10
218.3565421530971
 20
143.5874455287239
 30
0.0
 11
218.3161634867802
 21
143.564125242788
 31
0.0
  0
LINE
  5
7BD
330
673
100
AcDbEntity
  8
0
  6
Continuous
 62
     7
370
    15
100
AcDbLine
 10
216.0912903218727
 20
142.1106022111076
 30
0.0
 11
218.2126106654323
 21
143.3352143788417
 31
0.0
  0
ARC
  5
7BE
330
673
100
AcDbEntity
  8
0
  6
Continuous
 62
     7
370
    15
100
AcDbCircle
 10
218.4629410641949
 20
143.3598495842778
 30
0.0
 40
0.2515396626607928
100
AcDbArc
 50
125.6982660265553
 51
185.6204239767356
  0
LINE
  5
7BF
330
673
100
AcDbEntity
  8
0
  6
Continuous
 62
     7
370
    15
100
AcDbLine
 10
218.2126106654323
 20
141.6903995458959
 30
0.0
 11
216.0912903218727
 21
140.4657873781619
 31
0.0
  0
LINE
  5
7C0
330
673
100
AcDbEntity
  8
0
  6
Continuous
 62
     7
370
    15
100
AcDbLine
 10
218.2126106654323
 20
141.6903995458959
 30
0.0
 11
218.2126106654323
 21
143.3352143788417
 31
0.0
  0
LINE
  5
7C1
330
673
100
AcDbEntity
  8
0
  6
Continuous
 62
     7
370
    15
100
AcDbLine
 10
228.896289322893
 20
122.7950374693189
 30
0.0
 11
226.9902098326701
 21
121.6946812013551
 31
0.0
  0
LINE
  5
7C2
330
673
100
AcDbEntity
  8
0
  6
Continuous
 62
     7
370
    15
100
AcDbLine
 10
229.1358771884857
 20
124.225773451217
 30
0.0
 11
228.896289322893
 21
122.7950374693189
 31
0.0
  0
LINE
  5
7C3
330
673
100
AcDbEntity
  8
0
  6
Continuous
 62
     7
370
    15
100
AcDbLine
 10
217.9651243709764
 20
141.5474823043773
 30
0.0
 11
215.8438040274167
 21
140.3228701366432
 31
0.0
  0
LINE
  5
7C4
330
673
100
AcDbEntity
  8
0
  6
Continuous
 62
     7
370
    15
100
AcDbLine
 10
218.2126106654323
 20
141.6903995458959
 30
0.0
 11
217.9651243709764
 21
141.5474823043773
 31
0.0
  0
LINE
  5
7C5
330
673
100
AcDbEntity
  8
0
  6
Continuous
 62
     7
370
    15
100
AcDbLine
 10
221.431520210306
 20
131.1469145510223
 30
0.0
 11
219.3101954330181
 21
132.3715580204109
 31
0.0
  0
LINE
  5
7C6
330
673
100
AcDbEntity
  8
0
  6
Continuous
 62
     7
370
    15
100
AcDbLine
 10
221.6436520927175
 20
131.514338099095
 30
0.0
 11
219.5223274500732
 21
132.7389814907502
 31
0.0
  0
ARC
  5
7C7
330
673
100
AcDbEntity
  8
0
  6
Continuous
 62
     7
370
    15
100
AcDbCircle
 10
219.7707602324995
 20
132.3505998048581
 30
0.0
 40
0.4610414095507078
100
AcDbArc
 50
122.6054789306785
 51
177.3945263210306
  0
LINE
  5
7C8
330
673
100
AcDbEntity
  8
0
  6
Continuous
 62
     7
370
    15
100
AcDbLine
 10
221.677455180205
 20
131.5338522061321
 30
0.0
 11
219.5561305375606
 21
132.7584955977874
 31
0.0
  0
ARC
  5
7C9
330
673
100
AcDbEntity
  8
0
  6
Continuous
 62
     7
370
    15
100
AcDbCircle
 10
219.3076977551347
 20
133.1468772836793
 30
0.0
 40
0.4610414095502969
100
AcDbArc
 50
302.605478930648
 51
357.3945263215982
  0
ARC
  5
7CA
330
673
100
AcDbEntity
  8
0
  6
Continuous
 62
     7
370
    15
100
AcDbCircle
 10
228.5952879879813
 20
122.8238030230111
 30
0.0
 40
0.3023727181772078
100
AcDbArc
 50
302.7369283053161
 51
354.541038523528
  0
LINE
  5
7CB
330
673
100
AcDbEntity
  8
0
  6
Continuous
 62
     7
370
    15
100
AcDbLine
 10
220.0372362400587
 20
125.2362222655481
 30
0.0
 11
220.7044792340195
 21
124.8510310841593
 31
0.0
  0
ARC
  5
7CC
330
673
100
AcDbEntity
  8
0
  6
Continuous
 62
     7
370
    15
100
AcDbCircle
 10
220.6320122419037
 20
126.155367955603
 30
0.0
 40
1.094800115051689
100
AcDbArc
 50
188.6903853336244
 51
237.093233599544
  0
LINE
  5
7CD
330
673
100
AcDbEntity
  8
0
  6
Continuous
 62
     7
370
    15
100
AcDbLine
 10
219.3101957631458
 20
127.6973060650035
 30
0.0
 11
219.5497812471379
 21
125.989949196433
 31
0.0
  0
LINE
  5
7CE
330
673
100
AcDbEntity
  8
0
  6
Continuous
 62
     7
370
    15
100
AcDbLine
 10
221.1919342269404
 20
125.0419544598282
 30
0.0
 11
221.4315220925332
 21
126.4726904417262
 31
0.0
  0
LWPOLYLINE
  5
7CF
330
673
100
AcDbEntity
  8
0
  6
Continuous
 62
     7
370
    15
100
AcDbPolyline
 90
        9
 70
   128
 43
0.0
 10
221.1919342269404
 20
125.0419544598282
 10
221.1696033936545
 20
124.9586079417076
 10
221.1331399923404
 20
124.8893598865606
 10
221.0836519454506
 20
124.8363143623651
 10
221.0226429228647
 20
124.8010831311935
 10
220.9519666536231
 20
124.7847366766163
 10
220.8737706012847
 20
124.787771677588
 10
220.7904307143057
 20
124.8100959171021
 10
220.7044792340195
 20
124.8510310841593
  0
LINE
  5
7D0
330
673
100
AcDbEntity
  8
0
  6
Continuous
 62
     7
370
    15
100
AcDbLine
 10
219.3101954330181
 20
132.3715580204109
 30
0.0
 11
219.3101957631458
 21
127.6973060650035
 31
0.0
  0
LINE
  5
7D1
330
673
100
AcDbEntity
  8
0
  6
Continuous
 62
     7
370
    15
100
AcDbLine
 10
219.5223274500732
 20
132.7389814907502
 30
0.0
 11
219.5561305375606
 21
132.7584955977874
 31
0.0
  0
LINE
  5
7D2
330
673
100
AcDbEntity
  8
0
  6
Continuous
 62
     7
370
    15
100
AcDbLine
 10
215.8453764869879
 20
134.8616113575681
 30
0.0
 11
215.8791795744753
 21
134.8811254646052
 31
0.0
  0
ARC
  5
7D3
330
673
100
AcDbEntity
  8
0
  6
Continuous
 62
     7
370
    15
100
AcDbCircle
 10
215.6307368546375
 20
135.2695082584151
 30
0.0
 40
0.4610476977146811
100
AcDbArc
 50
302.6064450639065
 51
357.3946824979117
  0
LINE
  5
7D4
330
673
100
AcDbEntity
  8
0
  6
Continuous
 62
     7
370
    15
100
AcDbLine
 10
216.0913079929094
 20
140.4657511346146
 30
0.0
 11
216.0913079929093
 21
135.2485510124374
 31
0.0
  0
LINE
  5
7D5
330
673
100
AcDbEntity
  8
0
  6
Continuous
 62
     7
370
    15
100
AcDbLine
 10
217.0812566347104
 20
135.8200321994751
 30
0.0
 11
217.0812566347104
 21
141.0372363211222
 31
0.0
  0
ARC
  5
7D6
330
673
100
AcDbEntity
  8
0
  6
Continuous
 62
     7
370
    15
100
AcDbCircle
 10
217.2105790802339
 20
135.7990540992693
 30
0.0
 40
0.1310128833528249
100
AcDbArc
 50
170.7859978947619
 51
309.203250354319
  0
LINE
  5
7D7
330
673
100
AcDbEntity
  8
0
  6
Continuous
 62
     7
370
    15
100
AcDbLine
 10
217.3271919084988
 20
135.7170451919852
 30
0.0
 11
217.2933888210109
 21
135.6975310849481
 31
0.0
  0
ARC
  5
7D8
330
673
100
AcDbEntity
  8
0
  6
Continuous
 62
     7
370
    15
100
AcDbCircle
 10
217.4100016492757
 20
135.615522177665
 30
0.0
 40
0.1310128833520361
100
AcDbArc
 50
350.7859978967341
 51
129.2032503545756
  0
LINE
  5
7D9
330
673
100
AcDbEntity
  8
0
  6
Continuous
 62
     7
370
    15
100
AcDbLine
 10
217.5393240947991
 20
135.5945440774637
 30
0.0
 11
217.5393259770264
 21
130.9203199681632
 31
0.0
  0
LINE
  5
7DA
330
673
100
AcDbEntity
  8
0
  6
Continuous
 62
     7
370
    15
100
AcDbLine
 10
217.5393259770264
 20
130.9203199681632
 30
0.0
 11
215.6332464868036
 21
129.8199637001993
 31
0.0
  0
LINE
  5
7DB
330
673
100
AcDbEntity
  8
0
  6
Continuous
 62
     7
370
    15
100
AcDbLine
 10
215.6332464868036
 20
129.8199637001993
 30
0.0
 11
215.6332446045763
 21
134.4941878094954
 31
0.0
  0
ARC
  5
7DC
330
673
100
AcDbEntity
  8
0
  6
Continuous
 62
     7
370
    15
100
AcDbCircle
 10
216.0938091638226
 20
134.4732299058486
 30
0.0
 40
0.4610411553852933
100
AcDbArc
 50
122.6054835578981
 51
177.3945636858355
  0
LINE
  5
7DD
330
673
100
AcDbEntity
  8
0
  6
Continuous
 62
     7
370
    15
100
AcDbLine
 10
213.9699869488862
 20
136.4731923266043
 30
0.0
 11
216.0913079929093
 21
135.2485510124374
 31
0.0
  0
LINE
  5
7DE
330
673
100
AcDbEntity
  8
0
  6
Continuous
 62
     7
370
    15
100
AcDbLine
 10
213.9699869488862
 20
136.4731923266043
 30
0.0
 11
213.9699868327896
 21
141.4046017777962
 31
0.0
  0
LINE
  5
7DF
330
673
100
AcDbEntity
  8
0
  6
Continuous
 62
     7
370
    15
100
AcDbLine
 10
209.3030639349508
 20
147.5679559170187
 30
0.0
 11
207.5352969819845
 21
148.5884660567971
 31
0.0
  0
LINE
  5
7E0
330
673
100
AcDbEntity
  8
0
  6
Continuous
 62
     7
370
    15
100
AcDbLine
 10
209.5505513083661
 20
146.6493242811363
 30
0.0
 11
209.3030639349508
 21
147.5679559170187
 31
0.0
  0
LINE
  5
7E1
330
673
100
AcDbEntity
  8
0
  6
Continuous
 62
     7
370
    15
100
AcDbLine
 10
207.7827843553998
 20
147.6698344209147
 30
0.0
 11
207.5352969819845
 21
148.5884660567971
 31
0.0
  0
LINE
  5
7E2
330
673
100
AcDbEntity
  8
0
  6
Continuous
 62
     7
370
    15
100
AcDbLine
 10
209.3030639349508
 20
147.5679559170187
 30
0.0
 11
209.5505513083661
 21
147.7108273365877
 31
0.0
  0
LINE
  5
7E3
330
673
100
AcDbEntity
  8
0
  6
Continuous
 62
     7
370
    15
100
AcDbLine
 10
207.5352969819845
 20
148.5884660567971
 30
0.0
 11
207.7827843553998
 21
148.731337476366
 31
0.0
  0
LINE
  5
7E4
330
673
100
AcDbEntity
  8
0
  6
Continuous
 62
     7
370
    15
100
AcDbLine
 10
210.4369462038078
 20
145.7101066194629
 30
0.0
 11
212.5582665473674
 21
146.934718787197
 31
0.0
  0
LWPOLYLINE
  5
7E5
330
673
100
AcDbEntity
  8
0
  6
Continuous
 62
     7
370
    15
100
AcDbPolyline
 90
        3
 70
   128
 43
0.0
 10
212.5582665473674
 20
146.934718787197
 10
212.581567310905
 20
146.9509545366299
 10
212.5911104674682
 20
146.9594884964948
  0
LINE
  5
7E6
330
673
100
AcDbEntity
  8
0
  6
Continuous
 62
     7
370
    15
100
AcDbLine
 10
210.3965675374909
 20
145.686786333527
 30
0.0
 11
212.5178878810505
 21
146.9113985012611
 31
0.0
  0
LINE
  5
7E7
330
673
100
AcDbEntity
  8
0
  6
Continuous
 62
     7
370
    15
100
AcDbLine
 10
212.5582665473674
 20
146.934718787197
 30
0.0
 11
212.5178878810505
 21
146.9113985012611
 31
0.0
  0
LINE
  5
7E8
330
673
100
AcDbEntity
  8
0
  6
Continuous
 62
     7
370
    15
100
AcDbLine
 10
210.293014716143
 20
145.4578754695807
 30
0.0
 11
212.4143350597026
 21
146.6824876373148
 31
0.0
  0
ARC
  5
7E9
330
673
100
AcDbEntity
  8
0
  6
Continuous
 62
     7
370
    15
100
AcDbCircle
 10
212.6646654584652
 20
146.7071228427509
 30
0.0
 40
0.2515396626608223
100
AcDbArc
 50
125.6982660265696
 51
185.6204239767408
  0
LINE
  5
7EA
330
673
100
AcDbEntity
  8
0
  6
Continuous
 62
     7
370
    15
100
AcDbLine
 10
212.4143350597026
 20
145.037672804369
 30
0.0
 11
210.293014716143
 21
143.813060636635
 31
0.0
  0
LINE
  5
7EB
330
673
100
AcDbEntity
  8
0
  6
Continuous
 62
     7
370
    15
100
AcDbLine
 10
212.4143350597026
 20
145.037672804369
 30
0.0
 11
212.4143350597026
 21
146.6824876373148
 31
0.0
  0
LINE
  5
7EC
330
673
100
AcDbEntity
  8
0
  6
Continuous
 62
     7
370
    15
100
AcDbLine
 10
223.0980137171634
 20
126.142310727792
 30
0.0
 11
221.1919342269404
 21
125.0419544598282
 31
0.0
  0
LINE
  5
7ED
330
673
100
AcDbEntity
  8
0
  6
Continuous
 62
     7
370
    15
100
AcDbLine
 10
223.3376015827561
 20
127.5730467096901
 30
0.0
 11
223.0980137171634
 21
126.142310727792
 31
0.0
  0
LINE
  5
7EE
330
673
100
AcDbEntity
  8
0
  6
Continuous
 62
     7
370
    15
100
AcDbLine
 10
212.1668487652467
 20
144.8947555628504
 30
0.0
 11
210.0455284216871
 21
143.6701433951163
 31
0.0
  0
LINE
  5
7EF
330
673
100
AcDbEntity
  8
0
  6
Continuous
 62
     7
370
    15
100
AcDbLine
 10
212.4143350597026
 20
145.037672804369
 30
0.0
 11
212.1668487652467
 21
144.8947555628504
 31
0.0
  0
LINE
  5
7F0
330
673
100
AcDbEntity
  8
0
  6
Continuous
 62
     7
370
    15
100
AcDbLine
 10
215.6332446045763
 20
134.4941878094954
 30
0.0
 11
213.5119198272885
 21
135.718831278884
 31
0.0
  0
LINE
  5
7F1
330
673
100
AcDbEntity
  8
0
  6
Continuous
 62
     7
370
    15
100
AcDbLine
 10
215.8453764869879
 20
134.8616113575681
 30
0.0
 11
213.7240518443435
 21
136.0862547492233
 31
0.0
  0
ARC
  5
7F2
330
673
100
AcDbEntity
  8
0
  6
Continuous
 62
     7
370
    15
100
AcDbCircle
 10
213.9724846267694
 20
135.6978730633315
 30
0.0
 40
0.4610414095502098
100
AcDbArc
 50
122.6054789306499
 51
177.394526321063
  0
LINE
  5
7F3
330
673
100
AcDbEntity
  8
0
  6
Continuous
 62
     7
370
    15
100
AcDbLine
 10
215.8791795744753
 20
134.8811254646052
 30
0.0
 11
213.7578549318309
 21
136.1057688562605
 31
0.0
  0
ARC
  5
7F4
330
673
100
AcDbEntity
  8
0
  6
Continuous
 62
     7
370
    15
100
AcDbCircle
 10
213.5094221494049
 20
136.4941505421525
 30
0.0
 40
0.4610414095504714
100
AcDbArc
 50
302.6054789306553
 51
357.3945263215993
  0
ARC
  5
7F5
330
673
100
AcDbEntity
  8
0
  6
Continuous
 62
     7
370
    15
100
AcDbCircle
 10
222.7970123822514
 20
126.1710762814845
 30
0.0
 40
0.3023727181775232
100
AcDbArc
 50
302.7369283053411
 51
354.5410385234821
  0
LINE
  5
7F6
330
673
100
AcDbEntity
  8
0
  6
Continuous
 62
     7
370
    15
100
AcDbLine
 10
214.238960634329
 20
128.5834955240212
 30
0.0
 11
214.9062036282898
 21
128.1983043426324
 31
0.0
  0
ARC
  5
7F7
330
673
100
AcDbEntity
  8
0
  6
Continuous
 62
     7
370
    15
100
AcDbCircle
 10
214.8337366361737
 20
129.5026412140759
 30
0.0
 40
1.094800115051332
100
AcDbArc
 50
188.6903853336198
 51
237.0932335995534
  0
LINE
  5
7F8
330
673
100
AcDbEntity
  8
0
  6
Continuous
 62
     7
370
    15
100
AcDbLine
 10
213.5119201574162
 20
131.0445793234766
 30
0.0
 11
213.7515056414082
 21
129.337222454906
 31
0.0
  0
LINE
  5
7F9
330
673
100
AcDbEntity
  8
0
  6
Continuous
 62
     7
370
    15
100
AcDbLine
 10
215.3936586212108
 20
128.3892277183013
 30
0.0
 11
215.6332464868036
 21
129.8199637001993
 31
0.0
  0
LWPOLYLINE
  5
7FA
330
673
100
AcDbEntity
  8
0
  6
Continuous
 62
     7
370
    15
100
AcDbPolyline
 90
        9
 70
   128
 43
0.0
 10
215.3936586212108
 20
128.3892277183013
 10
215.3713277879249
 20
128.3058812001807
 10
215.3348643866107
 20
128.2366331450337
 10
215.2853763397209
 20
128.1835876208383
 10
215.2243673171349
 20
128.1483563896666
 10
215.1536910478935
 20
128.1320099350895
 10
215.0754949955549
 20
128.1350449360611
 10
214.992155108576
 20
128.1573691755753
 10
214.9062036282898
 20
128.1983043426324
  0
LINE
  5
7FB
330
673
100
AcDbEntity
  8
0
  6
Continuous
 62
     7
370
    15
100
AcDbLine
 10
213.5119198272885
 20
135.718831278884
 30
0.0
 11
213.5119201574162
 21
131.0445793234766
 31
0.0
  0
LINE
  5
7FC
330
673
100
AcDbEntity
  8
0
  6
Continuous
 62
     7
370
    15
100
AcDbLine
 10
213.7240518443435
 20
136.0862547492233
 30
0.0
 11
213.7578549318309
 21
136.1057688562605
 31
0.0
  0
LINE
  5
7FD
330
673
100
AcDbEntity
  8
0
  6
Continuous
 62
     7
370
    15
100
AcDbLine
 10
210.0471008812581
 20
138.2088846160411
 30
0.0
 11
210.0809039687455
 21
138.2283987230783
 31
0.0
  0
ARC
  5
7FE
330
673
100
AcDbEntity
  8
0
  6
Continuous
 62
     7
370
    15
100
AcDbCircle
 10
209.8324612489079
 20
138.6167815168882
 30
0.0
 40
0.4610476977145419
100
AcDbArc
 50
302.6064450638797
 51
357.394682497918
  0
LINE
  5
7FF
330
673
100
AcDbEntity
  8
0
  6
Continuous
 62
     7
370
    15
100
AcDbLine
 10
210.2930323871798
 20
143.8130243930879
 30
0.0
 11
210.2930323871797
 21
138.5958242709105
 31
0.0
  0
LINE
  5
800
330
673
100
AcDbEntity
  8
0
  6
Continuous
 62
     7
370
    15
100
AcDbLine
 10
211.2829810289808
 20
139.1673054579482
 30
0.0
 11
211.2829810289808
 21
144.3845095795953
 31
0.0
  0
ARC
  5
801
330
673
100
AcDbEntity
  8
0
  6
Continuous
 62
     7
370
    15
100
AcDbCircle
 10
211.4123034745042
 20
139.1463273577423
 30
0.0
 40
0.1310128833527778
100
AcDbArc
 50
170.7859978947334
 51
309.2032503543618
  0
LINE
  5
802
330
673
100
AcDbEntity
  8
0
  6
Continuous
 62
     7
370
    15
100
AcDbLine
 10
211.528916302769
 20
139.0643184504583
 30
0.0
 11
211.4951132152812
 21
139.0448043434212
 31
0.0
  0
ARC
  5
803
330
673
100
AcDbEntity
  8
0
  6
Continuous
 62
     7
370
    15
100
AcDbCircle
 10
211.6117260435461
 20
138.9627954361382
 30
0.0
 40
0.1310128833519704
100
AcDbArc
 50
350.7859978966751
 51
129.2032503546709
  0
LINE
  5
804
330
673
100
AcDbEntity
  8
0
  6
Continuous
 62
     7
370
    15
100
AcDbLine
 10
211.7410484890694
 20
138.9418173359368
 30
0.0
 11
211.7410503712967
 21
134.2675932266363
 31
0.0
  0
LINE
  5
805
330
673
100
AcDbEntity
  8
0
  6
Continuous
 62
     7
370
    15
100
AcDbLine
 10
211.7410503712967
 20
134.2675932266363
 30
0.0
 11
209.834970881074
 21
133.1672369586724
 31
0.0
  0
LINE
  5
806
330
673
100
AcDbEntity
  8
0
  6
Continuous
 62
     7
370
    15
100
AcDbLine
 10
209.834970881074
 20
133.1672369586724
 30
0.0
 11
209.8349689988466
 21
137.8414610679685
 31
0.0
  0
ARC
  5
807
330
673
100
AcDbEntity
  8
0
  6
Continuous
 62
     7
370
    15
100
AcDbCircle
 10
210.2955335580936
 20
137.8205031643213
 30
0.0
 40
0.4610411553860327
100
AcDbArc
 50
122.6054835579489
 51
177.3945636857832
  0
LINE
  5
808
330
673
100
AcDbEntity
  8
0
  6
Continuous
 62
     7
370
    15
100
AcDbLine
 10
208.1717113431566
 20
139.8204655850774
 30
0.0
 11
210.2930323871797
 21
138.5958242709105
 31
0.0
  0
LINE
  5
809
330
673
100
AcDbEntity
  8
0
  6
Continuous
 62
     7
370
    15
100
AcDbLine
 10
208.1717113431566
 20
139.8204655850774
 30
0.0
 11
208.17171122706
 21
144.7518750362693
 31
0.0
  0
LINE
  5
80A
330
673
100
AcDbEntity
  8
0
  6
Continuous
 62
     7
370
    15
100
AcDbLine
 10
203.5047883292211
 20
150.9152291754918
 30
0.0
 11
201.7370213762548
 21
151.9357393152702
 31
0.0
  0
LINE
  5
80B
330
673
100
AcDbEntity
  8
0
  6
Continuous
 62
     7
370
    15
100
AcDbLine
 10
203.7522757026364
 20
149.9965975396094
 30
0.0
 11
203.5047883292211
 21
150.9152291754918
 31
0.0
  0
LINE
  5
80C
330
673
100
AcDbEntity
  8
0
  6
Continuous
 62
     7
370
    15
100
AcDbLine
 10
201.9845087496701
 20
151.0171076793878
 30
0.0
 11
201.7370213762548
 21
151.9357393152702
 31
0.0
  0
LINE
  5
80D
330
673
100
AcDbEntity
  8
0
  6
Continuous
 62
     7
370
    15
100
AcDbLine
 10
203.5047883292211
 20
150.9152291754918
 30
0.0
 11
203.7522757026364
 21
151.0581005950608
 31
0.0
  0
LINE
  5
80E
330
673
100
AcDbEntity
  8
0
  6
Continuous
 62
     7
370
    15
100
AcDbLine
 10
201.7370213762548
 20
151.9357393152702
 30
0.0
 11
201.9845087496701
 21
152.0786107348392
 31
0.0
  0
LINE
  5
80F
330
673
100
AcDbEntity
  8
0
  6
Continuous
 62
     7
370
    15
100
AcDbLine
 10
204.638670598078
 20
149.057379877936
 30
0.0
 11
206.7599909416376
 21
150.28199204567
 31
0.0
  0
LWPOLYLINE
  5
810
330
673
100
AcDbEntity
  8
0
  6
Continuous
 62
     7
370
    15
100
AcDbPolyline
 90
        3
 70
   128
 43
0.0
 10
206.7599909416376
 20
150.28199204567
 10
206.7832917051753
 20
150.298227795103
 10
206.7928348617385
 20
150.3067617549679
  0
LINE
  5
811
330
673
100
AcDbEntity
  8
0
  6
Continuous
 62
     7
370
    15
100
AcDbLine
 10
204.5982919317612
 20
149.0340595920002
 30
0.0
 11
206.7196122753208
 21
150.2586717597342
 31
0.0
  0
LINE
  5
812
330
673
100
AcDbEntity
  8
0
  6
Continuous
 62
     7
370
    15
100
AcDbLine
 10
206.7599909416376
 20
150.28199204567
 30
0.0
 11
206.7196122753208
 21
150.2586717597342
 31
0.0
  0
LINE
  5
813
330
673
100
AcDbEntity
  8
0
  6
Continuous
 62
     7
370
    15
100
AcDbLine
 10
204.4947391104134
 20
148.8051487280539
 30
0.0
 11
206.616059453973
 21
150.0297608957879
 31
0.0
  0
ARC
  5
814
330
673
100
AcDbEntity
  8
0
  6
Continuous
 62
     7
370
    15
100
AcDbCircle
 10
206.8663898527357
 20
150.054396101224
 30
0.0
 40
0.2515396626609255
100
AcDbArc
 50
125.6982660265974
 51
185.6204239767325
  0
LINE
  5
815
330
673
100
AcDbEntity
  8
0
  6
Continuous
 62
     7
370
    15
100
AcDbLine
 10
206.616059453973
 20
148.3849460628422
 30
0.0
 11
204.4947391104134
 21
147.1603338951081
 31
0.0
  0
LINE
  5
816
330
673
100
AcDbEntity
  8
0
  6
Continuous
 62
     7
370
    15
100
AcDbLine
 10
206.616059453973
 20
148.3849460628422
 30
0.0
 11
206.616059453973
 21
150.0297608957879
 31
0.0
  0
LINE
  5
817
330
673
100
AcDbEntity
  8
0
  6
Continuous
 62
     7
370
    15
100
AcDbLine
 10
217.2997381114337
 20
129.4895839862651
 30
0.0
 11
215.3936586212108
 21
128.3892277183013
 31
0.0
  0
LINE
  5
818
330
673
100
AcDbEntity
  8
0
  6
Continuous
 62
     7
370
    15
100
AcDbLine
 10
217.5393259770264
 20
130.9203199681632
 30
0.0
 11
217.2997381114337
 21
129.4895839862651
 31
0.0
  0
LINE
  5
819
330
673
100
AcDbEntity
  8
0
  6
Continuous
 62
     7
370
    15
100
AcDbLine
 10
206.3685731595171
 20
148.2420288213235
 30
0.0
 11
204.2472528159575
 21
147.0174166535894
 31
0.0
  0
LINE
  5
81A
330
673
100
AcDbEntity
  8
0
  6
Continuous
 62
     7
370
    15
100
AcDbLine
 10
206.616059453973
 20
148.3849460628422
 30
0.0
 11
206.3685731595171
 21
148.2420288213235
 31
0.0
  0
LINE
  5
81B
330
673
100
AcDbEntity
  8
0
  6
Continuous
 62
     7
370
    15
100
AcDbLine
 10
209.8349689988466
 20
137.8414610679685
 30
0.0
 11
207.7136442215588
 21
139.0661045373571
 31
0.0
  0
LINE
  5
81C
330
673
100
AcDbEntity
  8
0
  6
Continuous
 62
     7
370
    15
100
AcDbLine
 10
210.0471008812581
 20
138.2088846160411
 30
0.0
 11
207.9257762386138
 21
139.4335280076964
 31
0.0
  0
ARC
  5
81D
330
673
100
AcDbEntity
  8
0
  6
Continuous
 62
     7
370
    15
100
AcDbCircle
 10
208.1742090210394
 20
139.0451463218047
 30
0.0
 40
0.4610414095499206
100
AcDbArc
 50
122.6054789306316
 51
177.3945263210827
  0
LINE
  5
81E
330
673
100
AcDbEntity
  8
0
  6
Continuous
 62
     7
370
    15
100
AcDbLine
 10
210.0809039687455
 20
138.2283987230783
 30
0.0
 11
207.9595793261012
 21
139.4530421147336
 31
0.0
  0
ARC
  5
81F
330
673
100
AcDbEntity
  8
0
  6
Continuous
 62
     7
370
    15
100
AcDbCircle
 10
207.7111465436756
 20
139.8414238006255
 30
0.0
 40
0.4610414095501265
100
AcDbArc
 50
302.605478930628
 51
357.3945263216115
  0
ARC
  5
820
330
673
100
AcDbEntity
  8
0
  6
Continuous
 62
     7
370
    15
100
AcDbCircle
 10
216.9987367765218
 20
129.5183495399574
 30
0.0
 40
0.3023727181773336
100
AcDbArc
 50
302.7369283053449
 51
354.5410385235113
  0
LINE
  5
821
330
673
100
AcDbEntity
  8
0
  6
Continuous
 62
     7
370
    15
100
AcDbLine
 10
208.4406850285994
 20
131.9307687824943
 30
0.0
 11
209.1079280225602
 21
131.5455776011056
 31
0.0
  0
ARC
  5
822
330
673
100
AcDbEntity
  8
0
  6
Continuous
 62
     7
370
    15
100
AcDbCircle
 10
209.0354610304435
 20
132.8499144725486
 30
0.0
 40
1.094800115050698
100
AcDbArc
 50
188.6903853336054
 51
237.0932335995691
  0
LINE
  5
823
330
673
100
AcDbEntity
  8
0
  6
Continuous
 62
     7
370
    15
100
AcDbLine
 10
207.7136445516864
 20
134.3918525819497
 30
0.0
 11
207.9532300356786
 21
132.6844957133791
 31
0.0
  0
LINE
  5
824
330
673
100
AcDbEntity
  8
0
  6
Continuous
 62
     7
370
    15
100
AcDbLine
 10
209.5953830154811
 20
131.7365009767744
 30
0.0
 11
209.834970881074
 21
133.1672369586724
 31
0.0
  0
LWPOLYLINE
  5
825
330
673
100
AcDbEntity
  8
0
  6
Continuous
 62
     7
370
    15
100
AcDbPolyline
 90
        9
 70
   128
 43
0.0
 10
209.5953830154811
 20
131.7365009767744
 10
209.5730521821952
 20
131.6531544586538
 10
209.5365887808811
 20
131.5839064035068
 10
209.4871007339913
 20
131.5308608793114
 10
209.4260917114052
 20
131.4956296481397
 10
209.3554154421639
 20
131.4792831935626
 10
209.2772193898252
 20
131.4823181945342
 10
209.1938795028464
 20
131.5046424340484
 10
209.1079280225602
 20
131.5455776011056
  0
LINE
  5
826
330
673
100
AcDbEntity
  8
0
  6
Continuous
 62
     7
370
    15
100
AcDbLine
 10
207.7136442215588
 20
139.0661045373571
 30
0.0
 11
207.7136445516864
 21
134.3918525819497
 31
0.0
  0
LINE
  5
827
330
673
100
AcDbEntity
  8
0
  6
Continuous
 62
     7
370
    15
100
AcDbLine
 10
207.9257762386138
 20
139.4335280076964
 30
0.0
 11
207.9595793261012
 21
139.4530421147336
 31
0.0
  0
LINE
  5
828
330
673
100
AcDbEntity
  8
0
  6
Continuous
 62
     7
370
    15
100
AcDbLine
 10
204.2488252755284
 20
141.5561578745142
 30
0.0
 11
204.2826283630159
 21
141.5756719815514
 31
0.0
  0
ARC
  5
829
330
673
100
AcDbEntity
  8
0
  6
Continuous
 62
     7
370
    15
100
AcDbCircle
 10
204.0341856431787
 20
141.9640547753609
 30
0.0
 40
0.4610476977139923
100
AcDbArc
 50
302.6064450638647
 51
357.3946824979643
  0
LINE
  5
82A
330
673
100
AcDbEntity
  8
0
  6
Continuous
 62
     7
370
    15
100
AcDbLine
 10
204.4947567814501
 20
147.1602976515609
 30
0.0
 11
204.4947567814499
 21
141.9430975293836
 31
0.0
  0
LINE
  5
82B
330
673
100
AcDbEntity
  8
0
  6
Continuous
 62
     7
370
    15
100
AcDbLine
 10
205.4847054232511
 20
142.5145787164213
 30
0.0
 11
205.4847054232511
 21
147.7317828380684
 31
0.0
  0
ARC
  5
82C
330
673
100
AcDbEntity
  8
0
  6
Continuous
 62
     7
370
    15
100
AcDbCircle
 10
205.6140278687746
 20
142.4936006162154
 30
0.0
 40
0.1310128833527968
100
AcDbArc
 50
170.7859978947599
 51
309.2032503543872
  0
LINE
  5
82D
330
673
100
AcDbEntity
  8
0
  6
Continuous
 62
     7
370
    15
100
AcDbLine
 10
205.7306406970394
 20
142.4115917089314
 30
0.0
 11
205.6968376095516
 21
142.3920776018944
 31
0.0
  0
ARC
  5
82E
330
673
100
AcDbEntity
  8
0
  6
Continuous
 62
     7
370
    15
100
AcDbCircle
 10
205.8134504378165
 20
142.3100686946114
 30
0.0
 40
0.1310128833519484
100
AcDbArc
 50
350.7859978966363
 51
129.2032503546788
  0
LINE
  5
82F
330
673
100
AcDbEntity
  8
0
  6
Continuous
 62
     7
370
    15
100
AcDbLine
 10
205.9427728833397
 20
142.2890905944099
 30
0.0
 11
205.9427747655671
 21
137.6148664851094
 31
0.0
  0
LINE
  5
830
330
673
100
AcDbEntity
  8
0
  6
Continuous
 62
     7
370
    15
100
AcDbLine
 10
205.9427747655671
 20
137.6148664851094
 30
0.0
 11
204.0366952753443
 21
136.5145102171455
 31
0.0
  0
LINE
  5
831
330
673
100
AcDbEntity
  8
0
  6
Continuous
 62
     7
370
    15
100
AcDbLine
 10
204.0366952753443
 20
136.5145102171455
 30
0.0
 11
204.0366933931169
 21
141.1887343264416
 31
0.0
  0
ARC
  5
832
330
673
100
AcDbEntity
  8
0
  6
Continuous
 62
     7
370
    15
100
AcDbCircle
 10
204.497257952364
 20
141.1677764227943
 30
0.0
 40
0.4610411553860899
100
AcDbArc
 50
122.605483557948
 51
177.3945636857763
  0
LINE
  5
833
330
673
100
AcDbEntity
  8
0
  6
Continuous
 62
     7
370
    15
100
AcDbLine
 10
202.3734357374268
 20
143.1677388435504
 30
0.0
 11
204.4947567814499
 21
141.9430975293836
 31
0.0
  0
LINE
  5
834
330
673
100
AcDbEntity
  8
0
  6
Continuous
 62
     7
370
    15
100
AcDbLine
 10
202.3734357374268
 20
143.1677388435504
 30
0.0
 11
202.3734356213304
 21
148.0991482947421
 31
0.0
  0
LINE
  5
835
330
673
100
AcDbEntity
  8
0
  6
Continuous
 62
     7
370
    15
100
AcDbLine
 10
197.7065127234915
 20
154.2625024339649
 30
0.0
 11
195.9387457705251
 21
155.2830125737432
 31
0.0
  0
LINE
  5
836
330
673
100
AcDbEntity
  8
0
  6
Continuous
 62
     7
370
    15
100
AcDbLine
 10
197.9540000969068
 20
153.3438707980825
 30
0.0
 11
197.7065127234915
 21
154.2625024339649
 31
0.0
  0
LINE
  5
837
330
673
100
AcDbEntity
  8
0
  6
Continuous
 62
     7
370
    15
100
AcDbLine
 10
196.1862331439404
 20
154.3643809378608
 30
0.0
 11
195.9387457705251
 21
155.2830125737432
 31
0.0
  0
LINE
  5
838
330
673
100
AcDbEntity
  8
0
  6
Continuous
 62
     7
370
    15
100
AcDbLine
 10
197.7065127234915
 20
154.2625024339649
 30
0.0
 11
197.9540000969068
 21
154.4053738535339
 31
0.0
  0
LINE
  5
839
330
673
100
AcDbEntity
  8
0
  6
Continuous
 62
     7
370
    15
100
AcDbLine
 10
195.9387457705251
 20
155.2830125737432
 30
0.0
 11
196.1862331439404
 21
155.4258839933122
 31
0.0
  0
LINE
  5
83A
330
673
100
AcDbEntity
  8
0
  6
Continuous
 62
     7
370
    15
100
AcDbLine
 10
198.8403949923484
 20
152.4046531364091
 30
0.0
 11
200.961715335908
 21
153.6292653041431
 31
0.0
  0
LWPOLYLINE
  5
83B
330
673
100
AcDbEntity
  8
0
  6
Continuous
 62
     7
370
    15
100
AcDbPolyline
 90
        3
 70
   128
 43
0.0
 10
200.961715335908
 20
153.6292653041431
 10
200.9850160994456
 20
153.6455010535761
 10
200.9945592560089
 20
153.654035013441
  0
LINE
  5
83C
330
673
100
AcDbEntity
  8
0
  6
Continuous
 62
     7
370
    15
100
AcDbLine
 10
198.8000163260315
 20
152.3813328504732
 30
0.0
 11
200.9213366695911
 21
153.6059450182072
 31
0.0
  0
LINE
  5
83D
330
673
100
AcDbEntity
  8
0
  6
Continuous
 62
     7
370
    15
100
AcDbLine
 10
200.961715335908
 20
153.6292653041431
 30
0.0
 11
200.9213366695911
 21
153.6059450182072
 31
0.0
  0
LINE
  5
83E
330
673
100
AcDbEntity
  8
0
  6
Continuous
 62
     7
370
    15
100
AcDbLine
 10
198.6964635046837
 20
152.1524219865269
 30
0.0
 11
200.8177838482433
 21
153.377034154261
 31
0.0
  0
ARC
  5
83F
330
673
100
AcDbEntity
  8
0
  6
Continuous
 62
     7
370
    15
100
AcDbCircle
 10
201.0681142470055
 20
153.4016693596973
 30
0.0
 40
0.251539662660392
100
AcDbArc
 50
125.6982660265353
 51
185.6204239768025
  0
LINE
  5
840
330
673
100
AcDbEntity
  8
0
  6
Continuous
 62
     7
370
    15
100
AcDbLine
 10
200.8177838482433
 20
151.7322193213152
 30
0.0
 11
198.6964635046837
 21
150.5076071535812
 31
0.0
  0
LINE
  5
841
330
673
100
AcDbEntity
  8
0
  6
Continuous
 62
     7
370
    15
100
AcDbLine
 10
200.8177838482433
 20
151.7322193213152
 30
0.0
 11
200.8177838482433
 21
153.377034154261
 31
0.0
  0
LINE
  5
842
330
673
100
AcDbEntity
  8
0
  6
Continuous
 62
     7
370
    15
100
AcDbLine
 10
211.501462505704
 20
132.8368572447382
 30
0.0
 11
209.5953830154811
 21
131.7365009767744
 31
0.0
  0
LINE
  5
843
330
673
100
AcDbEntity
  8
0
  6
Continuous
 62
     7
370
    15
100
AcDbLine
 10
211.7410503712967
 20
134.2675932266363
 30
0.0
 11
211.501462505704
 21
132.8368572447382
 31
0.0
  0
LINE
  5
844
330
673
100
AcDbEntity
  8
0
  6
Continuous
 62
     7
370
    15
100
AcDbLine
 10
200.5702975537874
 20
151.5893020797966
 30
0.0
 11
198.4489772102278
 21
150.3646899120626
 31
0.0
  0
LINE
  5
845
330
673
100
AcDbEntity
  8
0
  6
Continuous
 62
     7
370
    15
100
AcDbLine
 10
200.8177838482433
 20
151.7322193213152
 30
0.0
 11
200.5702975537874
 21
151.5893020797966
 31
0.0
  0
LINE
  5
846
330
673
100
AcDbEntity
  8
0
  6
Continuous
 62
     7
370
    15
100
AcDbLine
 10
204.0366933931169
 20
141.1887343264416
 30
0.0
 11
201.9153686158292
 21
142.4133777958302
 31
0.0
  0
LINE
  5
847
330
673
100
AcDbEntity
  8
0
  6
Continuous
 62
     7
370
    15
100
AcDbLine
 10
204.2488252755284
 20
141.5561578745142
 30
0.0
 11
202.1275006328842
 21
142.7808012661694
 31
0.0
  0
ARC
  5
848
330
673
100
AcDbEntity
  8
0
  6
Continuous
 62
     7
370
    15
100
AcDbCircle
 10
202.3759334153095
 20
142.3924195802779
 30
0.0
 40
0.4610414095496946
100
AcDbArc
 50
122.6054789306154
 51
177.3945263210884
  0
LINE
  5
849
330
673
100
AcDbEntity
  8
0
  6
Continuous
 62
     7
370
    15
100
AcDbLine
 10
204.2826283630159
 20
141.5756719815514
 30
0.0
 11
202.1613037203715
 21
142.8003153732067
 31
0.0
  0
ARC
  5
84A
330
673
100
AcDbEntity
  8
0
  6
Continuous
 62
     7
370
    15
100
AcDbCircle
 10
201.9128709379464
 20
143.1886970590982
 30
0.0
 40
0.4610414095495003
100
AcDbArc
 50
302.6054789305981
 51
357.3945263216503
  0
ARC
  5
84B
330
673
100
AcDbEntity
  8
0
  6
Continuous
 62
     7
370
    15
100
AcDbCircle
 10
211.200461170792
 20
132.8656227984306
 30
0.0
 40
0.3023727181774822
100
AcDbArc
 50
302.7369283053588
 51
354.5410385235085
  0
LINE
  5
84C
330
673
100
AcDbEntity
  8
0
  6
Continuous
 62
     7
370
    15
100
AcDbLine
 10
202.6424094228697
 20
135.2780420409675
 30
0.0
 11
203.3096524168305
 21
134.8928508595786
 31
0.0
  0
ARC
  5
84D
330
673
100
AcDbEntity
  8
0
  6
Continuous
 62
     7
370
    15
100
AcDbCircle
 10
203.2371854247135
 20
136.1971877310216
 30
0.0
 40
1.094800115050383
100
AcDbArc
 50
188.6903853336003
 51
237.0932335995792
  0
LINE
  5
84E
330
673
100
AcDbEntity
  8
0
  6
Continuous
 62
     7
370
    15
100
AcDbLine
 10
201.9153689459567
 20
137.7391258404228
 30
0.0
 11
202.1549544299489
 21
136.0317689718523
 31
0.0
  0
LINE
  5
84F
330
673
100
AcDbEntity
  8
0
  6
Continuous
 62
     7
370
    15
100
AcDbLine
 10
203.7971074097514
 20
135.0837742352475
 30
0.0
 11
204.0366952753443
 21
136.5145102171455
 31
0.0
  0
LWPOLYLINE
  5
850
330
673
100
AcDbEntity
  8
0
  6
Continuous
 62
     7
370
    15
100
AcDbPolyline
 90
        9
 70
   128
 43
0.0
 10
203.7971074097514
 20
135.0837742352475
 10
203.7747765764656
 20
135.0004277171269
 10
203.7383131751515
 20
134.9311796619799
 10
203.6888251282614
 20
134.8781341377844
 10
203.6278161056756
 20
134.8429029066128
 10
203.5571398364342
 20
134.8265564520357
 10
203.4789437840956
 20
134.8295914530073
 10
203.3956038971167
 20
134.8519156925215
 10
203.3096524168305
 20
134.8928508595786
  0
LINE
  5
851
330
673
100
AcDbEntity
  8
0
  6
Continuous
 62
     7
370
    15
100
AcDbLine
 10
201.9153686158292
 20
142.4133777958302
 30
0.0
 11
201.9153689459567
 21
137.7391258404228
 31
0.0
  0
LINE
  5
852
330
673
100
AcDbEntity
  8
0
  6
Continuous
 62
     7
370
    15
100
AcDbLine
 10
202.1275006328842
 20
142.7808012661694
 30
0.0
 11
202.1613037203715
 21
142.8003153732067
 31
0.0
  0
LINE
  5
853
330
673
100
AcDbEntity
  8
0
  6
Continuous
 62
     7
370
    15
100
AcDbLine
 10
198.4505496697988
 20
144.9034311329874
 30
0.0
 11
198.4843527572863
 21
144.9229452400245
 31
0.0
  0
ARC
  5
854
330
673
100
AcDbEntity
  8
0
  6
Continuous
 62
     7
370
    15
100
AcDbCircle
 10
198.235910037448
 20
145.3113280338346
 30
0.0
 40
0.4610476977151444
100
AcDbArc
 50
302.606445063937
 51
357.3946824978896
  0
LINE
  5
855
330
673
100
AcDbEntity
  8
0
  6
Continuous
 62
     7
370
    15
100
AcDbLine
 10
198.6964811757204
 20
150.507570910034
 30
0.0
 11
198.6964811757203
 21
145.2903707878567
 31
0.0
  0
LINE
  5
856
330
673
100
AcDbEntity
  8
0
  6
Continuous
 62
     7
370
    15
100
AcDbLine
 10
199.6864298175214
 20
145.8618519748944
 30
0.0
 11
199.6864298175214
 21
151.0790560965415
 31
0.0
  0
ARC
  5
857
330
673
100
AcDbEntity
  8
0
  6
Continuous
 62
     7
370
    15
100
AcDbCircle
 10
199.8157522630448
 20
145.8408738746886
 30
0.0
 40
0.1310128833528473
100
AcDbArc
 50
170.7859978947987
 51
309.203250354375
  0
LINE
  5
858
330
673
100
AcDbEntity
  8
0
  6
Continuous
 62
     7
370
    15
100
AcDbLine
 10
199.9323650913097
 20
145.7588649674045
 30
0.0
 11
199.8985620038219
 21
145.7393508603675
 31
0.0
  0
ARC
  5
859
330
673
100
AcDbEntity
  8
0
  6
Continuous
 62
     7
370
    15
100
AcDbCircle
 10
200.0151748320868
 20
145.6573419530845
 30
0.0
 40
0.1310128833519084
100
AcDbArc
 50
350.785997896624
 51
129.203250354677
  0
LINE
  5
85A
330
673
100
AcDbEntity
  8
0
  6
Continuous
 62
     7
370
    15
100
AcDbLine
 10
200.1444972776101
 20
145.636363852883
 30
0.0
 11
200.1444991598373
 21
140.9621397435825
 31
0.0
  0
LINE
  5
85B
330
673
100
AcDbEntity
  8
0
  6
Continuous
 62
     7
370
    15
100
AcDbLine
 10
200.1444991598373
 20
140.9621397435825
 30
0.0
 11
198.2384196696145
 21
139.8617834756186
 31
0.0
  0
LINE
  5
85C
330
673
100
AcDbEntity
  8
0
  6
Continuous
 62
     7
370
    15
100
AcDbLine
 10
198.2384196696145
 20
139.8617834756186
 30
0.0
 11
198.2384177873873
 21
144.5360075849147
 31
0.0
  0
ARC
  5
85D
330
673
100
AcDbEntity
  8
0
  6
Continuous
 62
     7
370
    15
100
AcDbCircle
 10
198.6989823466343
 20
144.5150496812675
 30
0.0
 40
0.4610411553860114
100
AcDbArc
 50
122.6054835579459
 51
177.3945636857899
  0
LINE
  5
85E
330
673
100
AcDbEntity
  8
0
  6
Continuous
 62
     7
370
    15
100
AcDbLine
 10
196.5751601316972
 20
146.5150121020235
 30
0.0
 11
198.6964811757203
 21
145.2903707878567
 31
0.0
  0
LINE
  5
85F
330
673
100
AcDbEntity
  8
0
  6
Continuous
 62
     7
370
    15
100
AcDbLine
 10
196.5751601316972
 20
146.5150121020235
 30
0.0
 11
196.5751600156006
 21
151.4464215532153
 31
0.0
  0
LINE
  5
860
330
673
100
AcDbEntity
  8
0
  6
Continuous
 62
     7
370
    15
100
AcDbLine
 10
192.1557244911771
 20
156.6911440565556
 30
0.0
 11
191.9082371177618
 21
157.609775692438
 31
0.0
  0
LINE
  5
861
330
673
100
AcDbEntity
  8
0
  6
Continuous
 62
     7
370
    15
100
AcDbLine
 10
191.9082371177618
 20
157.609775692438
 30
0.0
 11
192.1557244911771
 21
157.752647112007
 31
0.0
  0
LINE
  5
862
330
673
100
AcDbEntity
  8
0
  6
Continuous
 62
     7
370
    15
100
AcDbLine
 10
191.9082371177618
 20
157.609775692438
 30
0.0
 11
190.1404701647955
 21
158.6302858322164
 31
0.0
  0
LINE
  5
863
330
673
100
AcDbEntity
  8
0
  6
Continuous
 62
     7
370
    15
100
AcDbLine
 10
190.3879575382108
 20
157.711654196334
 30
0.0
 11
190.1404701647955
 21
158.6302858322164
 31
0.0
  0
LINE
  5
864
330
673
100
AcDbEntity
  8
0
  6
Continuous
 62
     7
370
    15
100
AcDbLine
 10
190.1404701647955
 20
158.6302858322164
 30
0.0
 11
190.3879575382108
 21
158.7731572517853
 31
0.0
  0
LINE
  5
865
330
673
100
AcDbEntity
  8
0
  6
Continuous
 62
     7
370
    15
100
AcDbLine
 10
193.0421193866187
 20
155.7519263948822
 30
0.0
 11
195.1634397301783
 21
156.9765385626163
 31
0.0
  0
LWPOLYLINE
  5
866
330
673
100
AcDbEntity
  8
0
  6
Continuous
 62
     7
370
    15
100
AcDbPolyline
 90
        3
 70
   128
 43
0.0
 10
195.1634397301783
 20
156.9765385626163
 10
195.1867404937159
 20
156.9927743120492
 10
195.196283650279
 20
157.0013082719141
  0
LINE
  5
867
330
673
100
AcDbEntity
  8
0
  6
Continuous
 62
     7
370
    15
100
AcDbLine
 10
193.0017407203018
 20
155.7286061089463
 30
0.0
 11
195.1230610638614
 21
156.9532182766804
 31
0.0
  0
LINE
  5
868
330
673
100
AcDbEntity
  8
0
  6
Continuous
 62
     7
370
    15
100
AcDbLine
 10
195.1634397301783
 20
156.9765385626163
 30
0.0
 11
195.1230610638614
 21
156.9532182766804
 31
0.0
  0
LINE
  5
869
330
673
100
AcDbEntity
  8
0
  6
Continuous
 62
     7
370
    15
100
AcDbLine
 10
192.898187898954
 20
155.499695245
 30
0.0
 11
195.0195082425137
 21
156.7243074127341
 31
0.0
  0
ARC
  5
86A
330
673
100
AcDbEntity
  8
0
  6
Continuous
 62
     7
370
    15
100
AcDbCircle
 10
195.2698386412757
 20
156.7489426181705
 30
0.0
 40
0.2515396626603233
100
AcDbArc
 50
125.6982660265285
 51
185.6204239768244
  0
LINE
  5
86B
330
673
100
AcDbEntity
  8
0
  6
Continuous
 62
     7
370
    15
100
AcDbLine
 10
195.0195082425137
 20
155.0794925797883
 30
0.0
 11
192.898187898954
 21
153.8548804120543
 31
0.0
  0
LINE
  5
86C
330
673
100
AcDbEntity
  8
0
  6
Continuous
 62
     7
370
    15
100
AcDbLine
 10
195.0195082425137
 20
155.0794925797883
 30
0.0
 11
195.0195082425137
 21
156.7243074127341
 31
0.0
  0
LINE
  5
86D
330
673
100
AcDbEntity
  8
0
  6
Continuous
 62
     7
370
    15
100
AcDbLine
 10
205.7031868999743
 20
136.1841305032113
 30
0.0
 11
203.7971074097514
 21
135.0837742352475
 31
0.0
  0
LINE
  5
86E
330
673
100
AcDbEntity
  8
0
  6
Continuous
 62
     7
370
    15
100
AcDbLine
 10
205.9427747655671
 20
137.6148664851094
 30
0.0
 11
205.7031868999743
 21
136.1841305032113
 31
0.0
  0
LINE
  5
86F
330
673
100
AcDbEntity
  8
0
  6
Continuous
 62
     7
370
    15
100
AcDbLine
 10
194.7720219480576
 20
154.9365753382697
 30
0.0
 11
192.650701604498
 21
153.7119631705356
 31
0.0
  0
LINE
  5
870
330
673
100
AcDbEntity
  8
0
  6
Continuous
 62
     7
370
    15
100
AcDbLine
 10
195.0195082425137
 20
155.0794925797883
 30
0.0
 11
194.7720219480576
 21
154.9365753382697
 31
0.0
  0
LINE
  5
871
330
673
100
AcDbEntity
  8
0
  6
Continuous
 62
     7
370
    15
100
AcDbLine
 10
198.2384177873873
 20
144.5360075849147
 30
0.0
 11
196.1170930100995
 21
145.7606510543033
 31
0.0
  0
LINE
  5
872
330
673
100
AcDbEntity
  8
0
  6
Continuous
 62
     7
370
    15
100
AcDbLine
 10
198.4505496697988
 20
144.9034311329874
 30
0.0
 11
196.3292250271545
 21
146.1280745246426
 31
0.0
  0
ARC
  5
873
330
673
100
AcDbEntity
  8
0
  6
Continuous
 62
     7
370
    15
100
AcDbCircle
 10
196.57765780958
 20
145.739692838751
 30
0.0
 40
0.4610414095498057
100
AcDbArc
 50
122.6054789306156
 51
177.3945263210856
  0
LINE
  5
874
330
673
100
AcDbEntity
  8
0
  6
Continuous
 62
     7
370
    15
100
AcDbLine
 10
198.4843527572863
 20
144.9229452400245
 30
0.0
 11
196.3630281146419
 21
146.1475886316798
 31
0.0
  0
ARC
  5
875
330
673
100
AcDbEntity
  8
0
  6
Continuous
 62
     7
370
    15
100
AcDbCircle
 10
196.1145953322168
 20
146.5359703175713
 30
0.0
 40
0.461041409549461
100
AcDbArc
 50
302.605478930597
 51
357.3945263216537
  0
ARC
  5
876
330
673
100
AcDbEntity
  8
0
  6
Continuous
 62
     7
370
    15
100
AcDbCircle
 10
205.4021855650622
 20
136.2128960569038
 30
0.0
 40
0.3023727181776525
100
AcDbArc
 50
302.7369283053773
 51
354.5410385234954
  0
LINE
  5
877
330
673
100
AcDbEntity
  8
0
  6
Continuous
 62
     7
370
    15
100
AcDbLine
 10
196.8441338171399
 20
138.6253152994406
 30
0.0
 11
197.5113768111008
 21
138.2401241180517
 31
0.0
  0
ARC
  5
878
330
673
100
AcDbEntity
  8
0
  6
Continuous
 62
     7
370
    15
100
AcDbCircle
 10
197.4389098189844
 20
139.5444609894949
 30
0.0
 40
1.094800115050914
100
AcDbArc
 50
188.6903853336051
 51
237.0932335995561
  0
LINE
  5
879
330
673
100
AcDbEntity
  8
0
  6
Continuous
 62
     7
370
    15
100
AcDbLine
 10
196.1170933402271
 20
141.0863990988959
 30
0.0
 11
196.3566788242192
 21
139.3790422303254
 31
0.0
  0
LINE
  5
87A
330
673
100
AcDbEntity
  8
0
  6
Continuous
 62
     7
370
    15
100
AcDbLine
 10
197.9988318040218
 20
138.4310474937206
 30
0.0
 11
198.2384196696145
 21
139.8617834756186
 31
0.0
  0
LWPOLYLINE
  5
87B
330
673
100
AcDbEntity
  8
0
  6
Continuous
 62
     7
370
    15
100
AcDbPolyline
 90
        9
 70
   128
 43
0.0
 10
197.9988318040218
 20
138.4310474937206
 10
197.9765009707359
 20
138.3477009756
 10
197.9400375694217
 20
138.278452920453
 10
197.8905495225318
 20
138.2254073962575
 10
197.8295404999459
 20
138.1901761650859
 10
197.7588642307045
 20
138.1738297105088
 10
197.6806681783659
 20
138.1768647114804
 10
197.597328291387
 20
138.1991889509946
 10
197.5113768111008
 20
138.2401241180517
  0
LINE
  5
87C
330
673
100
AcDbEntity
  8
0
  6
Continuous
 62
     7
370
    15
100
AcDbLine
 10
196.1170930100995
 20
145.7606510543033
 30
0.0
 11
196.1170933402271
 21
141.0863990988959
 31
0.0
  0
LINE
  5
87D
330
673
100
AcDbEntity
  8
0
  6
Continuous
 62
     7
370
    15
100
AcDbLine
 10
196.3292250271545
 20
146.1280745246426
 30
0.0
 11
196.3630281146419
 21
146.1475886316798
 31
0.0
  0
LINE
  5
87E
330
673
100
AcDbEntity
  8
0
  6
Continuous
 62
     7
370
    15
100
AcDbLine
 10
192.6522740640691
 20
148.2507043914605
 30
0.0
 11
192.6860771515566
 21
148.2702184984976
 31
0.0
  0
ARC
  5
87F
330
673
100
AcDbEntity
  8
0
  6
Continuous
 62
     7
370
    15
100
AcDbCircle
 10
192.4376344317187
 20
148.6586012923075
 30
0.0
 40
0.4610476977147043
100
AcDbArc
 50
302.6064450639095
 51
357.394682497926
  0
LINE
  5
880
330
673
100
AcDbEntity
  8
0
  6
Continuous
 62
     7
370
    15
100
AcDbLine
 10
192.8982055699908
 20
153.8548441685071
 30
0.0
 11
192.8982055699906
 21
148.6376440463298
 31
0.0
  0
LINE
  5
881
330
673
100
AcDbEntity
  8
0
  6
Continuous
 62
     7
370
    15
100
AcDbLine
 10
193.8881542117917
 20
149.2091252333675
 30
0.0
 11
193.8881542117917
 21
154.4263293550145
 31
0.0
  0
ARC
  5
882
330
673
100
AcDbEntity
  8
0
  6
Continuous
 62
     7
370
    15
100
AcDbCircle
 10
194.0174766573152
 20
149.1881471331617
 30
0.0
 40
0.1310128833528293
100
AcDbArc
 50
170.7859978947722
 51
309.2032503543653
  0
LINE
  5
883
330
673
100
AcDbEntity
  8
0
  6
Continuous
 62
     7
370
    15
100
AcDbLine
 10
194.1340894855801
 20
149.1061382258776
 30
0.0
 11
194.1002863980923
 21
149.0866241188406
 31
0.0
  0
ARC
  5
884
330
673
100
AcDbEntity
  8
0
  6
Continuous
 62
     7
370
    15
100
AcDbCircle
 10
194.2168992263571
 20
149.0046152115575
 30
0.0
 40
0.1310128833519656
100
AcDbArc
 50
350.7859978966913
 51
129.2032503546263
  0
LINE
  5
885
330
673
100
AcDbEntity
  8
0
  6
Continuous
 62
     7
370
    15
100
AcDbLine
 10
194.3462216718804
 20
148.9836371113561
 30
0.0
 11
194.3462235541077
 21
144.3094130020556
 31
0.0
  0
LINE
  5
886
330
673
100
AcDbEntity
  8
0
  6
Continuous
 62
     7
370
    15
100
AcDbLine
 10
194.3462235541077
 20
144.3094130020556
 30
0.0
 11
192.4401440638849
 21
143.2090567340917
 31
0.0
  0
LINE
  5
887
330
673
100
AcDbEntity
  8
0
  6
Continuous
 62
     7
370
    15
100
AcDbLine
 10
192.4401440638849
 20
143.2090567340917
 30
0.0
 11
192.4401421816576
 21
147.8832808433878
 31
0.0
  0
ARC
  5
888
330
673
100
AcDbEntity
  8
0
  6
Continuous
 62
     7
370
    15
100
AcDbCircle
 10
192.9007067409044
 20
147.8623229397407
 30
0.0
 40
0.4610411553858249
100
AcDbArc
 50
122.6054835579375
 51
177.3945636858068
  0
LINE
  5
889
330
673
100
AcDbEntity
  8
0
  6
Continuous
 62
     7
370
    15
100
AcDbLine
 10
190.7768845259675
 20
149.8622853604967
 30
0.0
 11
192.8982055699906
 21
148.6376440463298
 31
0.0
  0
LINE
  5
88A
330
673
100
AcDbEntity
  8
0
  6
Continuous
 62
     7
370
    15
100
AcDbLine
 10
190.7768845259675
 20
149.8622853604967
 30
0.0
 11
190.7768844098709
 21
154.7936948116886
 31
0.0
  0
LINE
  5
88B
330
673
100
AcDbEntity
  8
0
  6
Continuous
 62
     7
370
    15
100
AcDbLine
 10
186.3574488854474
 20
160.0384173150287
 30
0.0
 11
186.1099615120322
 21
160.9570489509111
 31
0.0
  0
LINE
  5
88C
330
673
100
AcDbEntity
  8
0
  6
Continuous
 62
     7
370
    15
100
AcDbLine
 10
186.1099615120322
 20
160.9570489509111
 30
0.0
 11
186.3574488854474
 21
161.0999203704801
 31
0.0
  0
LINE
  5
88D
330
673
100
AcDbEntity
  8
0
  6
Continuous
 62
     7
370
    15
100
AcDbLine
 10
186.1099615120322
 20
160.9570489509111
 30
0.0
 11
184.3421945590658
 21
161.9775590906895
 31
0.0
  0
LINE
  5
88E
330
673
100
AcDbEntity
  8
0
  6
Continuous
 62
     7
370
    15
100
AcDbLine
 10
184.5896819324811
 20
161.0589274548071
 30
0.0
 11
184.3421945590658
 21
161.9775590906895
 31
0.0
  0
LINE
  5
88F
330
673
100
AcDbEntity
  8
0
  6
Continuous
 62
     7
370
    15
100
AcDbLine
 10
184.3421945590658
 20
161.9775590906895
 30
0.0
 11
184.5896819324811
 21
162.1204305102585
 31
0.0
  0
LINE
  5
890
330
673
100
AcDbEntity
  8
0
  6
Continuous
 62
     7
370
    15
100
AcDbLine
 10
187.2438437808891
 20
159.0991996533553
 30
0.0
 11
189.3651641244487
 21
160.3238118210894
 31
0.0
  0
LWPOLYLINE
  5
891
330
673
100
AcDbEntity
  8
0
  6
Continuous
 62
     7
370
    15
100
AcDbPolyline
 90
        3
 70
   128
 43
0.0
 10
189.3651641244487
 20
160.3238118210894
 10
189.3884648879862
 20
160.3400475705223
 10
189.3980080445494
 20
160.3485815303872
  0
LINE
  5
892
330
673
100
AcDbEntity
  8
0
  6
Continuous
 62
     7
370
    15
100
AcDbLine
 10
187.2034651145722
 20
159.0758793674194
 30
0.0
 11
189.3247854581318
 21
160.3004915351535
 31
0.0
  0
LINE
  5
893
330
673
100
AcDbEntity
  8
0
  6
Continuous
 62
     7
370
    15
100
AcDbLine
 10
189.3651641244487
 20
160.3238118210894
 30
0.0
 11
189.3247854581318
 21
160.3004915351535
 31
0.0
  0
LINE
  5
894
330
673
100
AcDbEntity
  8
0
  6
Continuous
 62
     7
370
    15
100
AcDbLine
 10
187.0999122932244
 20
158.8469685034732
 30
0.0
 11
189.221232636784
 21
160.0715806712072
 31
0.0
  0
ARC
  5
895
330
673
100
AcDbEntity
  8
0
  6
Continuous
 62
     7
370
    15
100
AcDbCircle
 10
189.471563035546
 20
160.0962158766436
 30
0.0
 40
0.2515396626602872
100
AcDbArc
 50
125.698266026527
 51
185.6204239768244
  0
LINE
  5
896
330
673
100
AcDbEntity
  8
0
  6
Continuous
 62
     7
370
    15
100
AcDbLine
 10
189.221232636784
 20
158.4267658382614
 30
0.0
 11
187.0999122932244
 21
157.2021536705274
 31
0.0
  0
LINE
  5
897
330
673
100
AcDbEntity
  8
0
  6
Continuous
 62
     7
370
    15
100
AcDbLine
 10
189.221232636784
 20
158.4267658382614
 30
0.0
 11
189.221232636784
 21
160.0715806712072
 31
0.0
  0
LINE
  5
898
330
673
100
AcDbEntity
  8
0
  6
Continuous
 62
     7
370
    15
100
AcDbLine
 10
199.9049112942447
 20
139.5314037616844
 30
0.0
 11
197.9988318040218
 21
138.4310474937206
 31
0.0
  0
LINE
  5
899
330
673
100
AcDbEntity
  8
0
  6
Continuous
 62
     7
370
    15
100
AcDbLine
 10
200.1444991598373
 20
140.9621397435825
 30
0.0
 11
199.9049112942447
 21
139.5314037616844
 31
0.0
  0
LINE
  5
89A
330
673
100
AcDbEntity
  8
0
  6
Continuous
 62
     7
370
    15
100
AcDbLine
 10
188.973746342328
 20
158.2838485967428
 30
0.0
 11
186.8524259987684
 21
157.0592364290087
 31
0.0
  0
LINE
  5
89B
330
673
100
AcDbEntity
  8
0
  6
Continuous
 62
     7
370
    15
100
AcDbLine
 10
189.221232636784
 20
158.4267658382614
 30
0.0
 11
188.973746342328
 21
158.2838485967428
 31
0.0
  0
LINE
  5
89C
330
673
100
AcDbEntity
  8
0
  6
Continuous
 62
     7
370
    15
100
AcDbLine
 10
192.4401421816576
 20
147.8832808433878
 30
0.0
 11
190.3188174043698
 21
149.1079243127764
 31
0.0
  0
LINE
  5
89D
330
673
100
AcDbEntity
  8
0
  6
Continuous
 62
     7
370
    15
100
AcDbLine
 10
192.6522740640691
 20
148.2507043914605
 30
0.0
 11
190.5309494214248
 21
149.4753477831157
 31
0.0
  0
ARC
  5
89E
330
673
100
AcDbEntity
  8
0
  6
Continuous
 62
     7
370
    15
100
AcDbCircle
 10
190.7793822038507
 20
149.086966097224
 30
0.0
 40
0.4610414095501503
100
AcDbArc
 50
122.6054789306605
 51
177.3945263210769
  0
LINE
  5
89F
330
673
100
AcDbEntity
  8
0
  6
Continuous
 62
     7
370
    15
100
AcDbLine
 10
192.6860771515566
 20
148.2702184984976
 30
0.0
 11
190.5647525089122
 21
149.4948618901529
 31
0.0
  0
ARC
  5
8A0
330
673
100
AcDbEntity
  8
0
  6
Continuous
 62
     7
370
    15
100
AcDbCircle
 10
190.3163197264871
 20
149.8832435760444
 30
0.0
 40
0.4610414095494518
100
AcDbArc
 50
302.605478930599
 51
357.3945263216643
  0
ARC
  5
8A1
330
673
100
AcDbEntity
  8
0
  6
Continuous
 62
     7
370
    15
100
AcDbCircle
 10
199.6039099593327
 20
139.5601693153768
 30
0.0
 40
0.3023727181775146
100
AcDbArc
 50
302.7369283053485
 51
354.5410385234982
  0
LINE
  5
8A2
330
673
100
AcDbEntity
  8
0
  6
Continuous
 62
     7
370
    15
100
AcDbLine
 10
191.0458582114103
 20
141.9725885579136
 30
0.0
 11
191.7131012053711
 21
141.5873973765249
 31
0.0
  0
ARC
  5
8A3
330
673
100
AcDbEntity
  8
0
  6
Continuous
 62
     7
370
    15
100
AcDbCircle
 10
191.6406342132548
 20
142.891734247968
 30
0.0
 40
1.094800115050994
100
AcDbArc
 50
188.6903853336029
 51
237.0932335995507
  0
LINE
  5
8A4
330
673
100
AcDbEntity
  8
0
  6
Continuous
 62
     7
370
    15
100
AcDbLine
 10
190.3188177344974
 20
144.433672357369
 30
0.0
 11
190.5584032184896
 21
142.7263154887985
 31
0.0
  0
LINE
  5
8A5
330
673
100
AcDbEntity
  8
0
  6
Continuous
 62
     7
370
    15
100
AcDbLine
 10
192.200556198292
 20
141.7783207521937
 30
0.0
 11
192.4401440638849
 21
143.2090567340917
 31
0.0
  0
LWPOLYLINE
  5
8A6
330
673
100
AcDbEntity
  8
0
  6
Continuous
 62
     7
370
    15
100
AcDbPolyline
 90
        9
 70
   128
 43
0.0
 10
192.200556198292
 20
141.7783207521937
 10
192.1782253650063
 20
141.6949742340732
 10
192.141761963692
 20
141.6257261789261
 10
192.0922739168021
 20
141.5726806547307
 10
192.0312648942163
 20
141.5374494235591
 10
191.9605886249749
 20
141.5211029689819
 10
191.8823925726363
 20
141.5241379699535
 10
191.7990526856573
 20
141.5464622094677
 10
191.7131012053711
 20
141.5873973765249
  0
LINE
  5
8A7
330
673
100
AcDbEntity
  8
0
  6
Continuous
 62
     7
370
    15
100
AcDbLine
 10
190.3188174043698
 20
149.1079243127764
 30
0.0
 11
190.3188177344974
 21
144.433672357369
 31
0.0
  0
LINE
  5
8A8
330
673
100
AcDbEntity
  8
0
  6
Continuous
 62
     7
370
    15
100
AcDbLine
 10
190.5309494214248
 20
149.4753477831157
 30
0.0
 11
190.5647525089122
 21
149.4948618901529
 31
0.0
  0
LINE
  5
8A9
330
673
100
AcDbEntity
  8
0
  6
Continuous
 62
     7
370
    15
100
AcDbLine
 10
186.8539984583395
 20
151.5979776499336
 30
0.0
 11
186.8878015458269
 21
151.6174917569707
 31
0.0
  0
ARC
  5
8AA
330
673
100
AcDbEntity
  8
0
  6
Continuous
 62
     7
370
    15
100
AcDbCircle
 10
186.6393588259891
 20
152.0058745507806
 30
0.0
 40
0.4610476977146798
100
AcDbArc
 50
302.6064450639065
 51
357.3946824979188
  0
LINE
  5
8AB
330
673
100
AcDbEntity
  8
0
  6
Continuous
 62
     7
370
    15
100
AcDbLine
 10
187.099929964261
 20
157.2021174269802
 30
0.0
 11
187.0999299642609
 21
151.9849173048029
 31
0.0
  0
LINE
  5
8AC
330
673
100
AcDbEntity
  8
0
  6
Continuous
 62
     7
370
    15
100
AcDbLine
 10
188.0898786060621
 20
152.5563984918406
 30
0.0
 11
188.0898786060621
 21
157.7736026134876
 31
0.0
  0
ARC
  5
8AD
330
673
100
AcDbEntity
  8
0
  6
Continuous
 62
     7
370
    15
100
AcDbCircle
 10
188.2192010515855
 20
152.5354203916348
 30
0.0
 40
0.1310128833527968
100
AcDbArc
 50
170.7859978947599
 51
309.2032503543365
  0
LINE
  5
8AE
330
673
100
AcDbEntity
  8
0
  6
Continuous
 62
     7
370
    15
100
AcDbLine
 10
188.3358138798504
 20
152.4534114843507
 30
0.0
 11
188.3020107923625
 21
152.4338973773136
 31
0.0
  0
ARC
  5
8AF
330
673
100
AcDbEntity
  8
0
  6
Continuous
 62
     7
370
    15
100
AcDbCircle
 10
188.4186236206274
 20
152.3518884700306
 30
0.0
 40
0.1310128833520217
100
AcDbArc
 50
350.7859978966953
 51
129.2032503546185
  0
LINE
  5
8B0
330
673
100
AcDbEntity
  8
0
  6
Continuous
 62
     7
370
    15
100
AcDbLine
 10
188.5479460661508
 20
152.3309103698292
 30
0.0
 11
188.547947948378
 21
147.6566862605287
 31
0.0
  0
LINE
  5
8B1
330
673
100
AcDbEntity
  8
0
  6
Continuous
 62
     7
370
    15
100
AcDbLine
 10
188.547947948378
 20
147.6566862605287
 30
0.0
 11
186.6418684581552
 21
146.5563299925648
 31
0.0
  0
LINE
  5
8B2
330
673
100
AcDbEntity
  8
0
  6
Continuous
 62
     7
370
    15
100
AcDbLine
 10
186.6418684581552
 20
146.5563299925648
 30
0.0
 11
186.6418665759279
 21
151.2305541018609
 31
0.0
  0
ARC
  5
8B3
330
673
100
AcDbEntity
  8
0
  6
Continuous
 62
     7
370
    15
100
AcDbCircle
 10
187.1024311351748
 20
151.2095961982138
 30
0.0
 40
0.4610411553859126
100
AcDbArc
 50
122.6054835579426
 51
177.3945636858002
  0
LINE
  5
8B4
330
673
100
AcDbEntity
  8
0
  6
Continuous
 62
     7
370
    15
100
AcDbLine
 10
184.9786089202379
 20
153.2095586189698
 30
0.0
 11
187.0999299642609
 21
151.9849173048029
 31
0.0
  0
LINE
  5
8B5
330
673
100
AcDbEntity
  8
0
  6
Continuous
 62
     7
370
    15
100
AcDbLine
 10
184.9786089202379
 20
153.2095586189698
 30
0.0
 11
184.9786088041413
 21
158.1409680701616
 31
0.0
  0
LINE
  5
8B6
330
673
100
AcDbEntity
  8
0
  6
Continuous
 62
     7
370
    15
100
AcDbLine
 10
180.3116859063024
 20
164.3043222093842
 30
0.0
 11
178.5439189533361
 21
165.3248323491626
 31
0.0
  0
LINE
  5
8B7
330
673
100
AcDbEntity
  8
0
  6
Continuous
 62
     7
370
    15
100
AcDbLine
 10
180.5591732797177
 20
163.3856905735018
 30
0.0
 11
180.3116859063024
 21
164.3043222093842
 31
0.0
  0
LINE
  5
8B8
330
673
100
AcDbEntity
  8
0
  6
Continuous
 62
     7
370
    15
100
AcDbLine
 10
178.7914063267514
 20
164.4062007132802
 30
0.0
 11
178.5439189533361
 21
165.3248323491626
 31
0.0
  0
LINE
  5
8B9
330
673
100
AcDbEntity
  8
0
  6
Continuous
 62
     7
370
    15
100
AcDbLine
 10
180.3116859063024
 20
164.3043222093842
 30
0.0
 11
180.5591732797177
 21
164.4471936289532
 31
0.0
  0
LINE
  5
8BA
330
673
100
AcDbEntity
  8
0
  6
Continuous
 62
     7
370
    15
100
AcDbLine
 10
178.5439189533361
 20
165.3248323491626
 30
0.0
 11
178.7914063267514
 21
165.4677037687316
 31
0.0
  0
LINE
  5
8BB
330
673
100
AcDbEntity
  8
0
  6
Continuous
 62
     7
370
    15
100
AcDbLine
 10
181.4455681751592
 20
162.4464729118285
 30
0.0
 11
183.5668885187188
 21
163.6710850795626
 31
0.0
  0
LWPOLYLINE
  5
8BC
330
673
100
AcDbEntity
  8
0
  6
Continuous
 62
     7
370
    15
100
AcDbPolyline
 90
        3
 70
   128
 43
0.0
 10
183.5668885187188
 20
163.6710850795626
 10
183.5901892822564
 20
163.6873208289955
 10
183.5997324388198
 20
163.6958547888603
  0
LINE
  5
8BD
330
673
100
AcDbEntity
  8
0
  6
Continuous
 62
     7
370
    15
100
AcDbLine
 10
181.4051895088423
 20
162.4231526258927
 30
0.0
 11
183.5265098524019
 21
163.6477647936267
 31
0.0
  0
LINE
  5
8BE
330
673
100
AcDbEntity
  8
0
  6
Continuous
 62
     7
370
    15
100
AcDbLine
 10
183.5668885187188
 20
163.6710850795626
 30
0.0
 11
183.5265098524019
 21
163.6477647936267
 31
0.0
  0
LINE
  5
8BF
330
673
100
AcDbEntity
  8
0
  6
Continuous
 62
     7
370
    15
100
AcDbLine
 10
181.3016366874945
 20
162.1942417619463
 30
0.0
 11
183.4229570310541
 21
163.4188539296804
 31
0.0
  0
ARC
  5
8C0
330
673
100
AcDbEntity
  8
0
  6
Continuous
 62
     7
370
    15
100
AcDbCircle
 10
183.6732874298169
 20
163.4434891351165
 30
0.0
 40
0.2515396626609693
100
AcDbArc
 50
125.6982660266064
 51
185.6204239767505
  0
LINE
  5
8C1
330
673
100
AcDbEntity
  8
0
  6
Continuous
 62
     7
370
    15
100
AcDbLine
 10
183.4229570310541
 20
161.7740390967346
 30
0.0
 11
181.3016366874945
 21
160.5494269290006
 31
0.0
  0
LINE
  5
8C2
330
673
100
AcDbEntity
  8
0
  6
Continuous
 62
     7
370
    15
100
AcDbLine
 10
183.4229570310541
 20
161.7740390967346
 30
0.0
 11
183.4229570310541
 21
163.4188539296804
 31
0.0
  0
LINE
  5
8C3
330
673
100
AcDbEntity
  8
0
  6
Continuous
 62
     7
370
    15
100
AcDbLine
 10
194.106635688515
 20
142.8786770201575
 30
0.0
 11
192.200556198292
 21
141.7783207521937
 31
0.0
  0
LINE
  5
8C4
330
673
100
AcDbEntity
  8
0
  6
Continuous
 62
     7
370
    15
100
AcDbLine
 10
194.3462235541077
 20
144.3094130020556
 30
0.0
 11
194.106635688515
 21
142.8786770201575
 31
0.0
  0
LINE
  5
8C5
330
673
100
AcDbEntity
  8
0
  6
Continuous
 62
     7
370
    15
100
AcDbLine
 10
183.1754707365982
 20
161.631121855216
 30
0.0
 11
181.0541503930386
 21
160.406509687482
 31
0.0
  0
LINE
  5
8C6
330
673
100
AcDbEntity
  8
0
  6
Continuous
 62
     7
370
    15
100
AcDbLine
 10
183.4229570310541
 20
161.7740390967346
 30
0.0
 11
183.1754707365982
 21
161.631121855216
 31
0.0
  0
LINE
  5
8C7
330
673
100
AcDbEntity
  8
0
  6
Continuous
 62
     7
370
    15
100
AcDbLine
 10
186.6418665759279
 20
151.2305541018609
 30
0.0
 11
184.5205417986401
 21
152.4551975712495
 31
0.0
  0
LINE
  5
8C8
330
673
100
AcDbEntity
  8
0
  6
Continuous
 62
     7
370
    15
100
AcDbLine
 10
186.8539984583395
 20
151.5979776499336
 30
0.0
 11
184.7326738156951
 21
152.8226210415888
 31
0.0
  0
ARC
  5
8C9
330
673
100
AcDbEntity
  8
0
  6
Continuous
 62
     7
370
    15
100
AcDbCircle
 10
184.9811065981216
 20
152.4342393556966
 30
0.0
 40
0.4610414095508666
100
AcDbArc
 50
122.6054789306858
 51
177.3945263210173
  0
LINE
  5
8CA
330
673
100
AcDbEntity
  8
0
  6
Continuous
 62
     7
370
    15
100
AcDbLine
 10
186.8878015458269
 20
151.6174917569707
 30
0.0
 11
184.7664769031826
 21
152.8421351486261
 31
0.0
  0
ARC
  5
8CB
330
673
100
AcDbEntity
  8
0
  6
Continuous
 62
     7
370
    15
100
AcDbCircle
 10
184.518044120757
 20
153.2305168345178
 30
0.0
 40
0.4610414095499229
100
AcDbArc
 50
302.6054789306245
 51
357.394526321621
  0
ARC
  5
8CC
330
673
100
AcDbEntity
  8
0
  6
Continuous
 62
     7
370
    15
100
AcDbCircle
 10
193.8056343536031
 20
142.9074425738499
 30
0.0
 40
0.3023727181774293
100
AcDbArc
 50
302.7369283053332
 51
354.541038523502
  0
LINE
  5
8CD
330
673
100
AcDbEntity
  8
0
  6
Continuous
 62
     7
370
    15
100
AcDbLine
 10
185.2475826056806
 20
145.3198618163868
 30
0.0
 11
185.9148255996414
 21
144.934670634998
 31
0.0
  0
ARC
  5
8CE
330
673
100
AcDbEntity
  8
0
  6
Continuous
 62
     7
370
    15
100
AcDbCircle
 10
185.8423586075251
 20
146.2390075064411
 30
0.0
 40
1.094800115050966
100
AcDbArc
 50
188.6903853336032
 51
237.0932335995532
  0
LINE
  5
8CF
330
673
100
AcDbEntity
  8
0
  6
Continuous
 62
     7
370
    15
100
AcDbLine
 10
184.5205421287678
 20
147.7809456158421
 30
0.0
 11
184.7601276127599
 21
146.0735887472716
 31
0.0
  0
LINE
  5
8D0
330
673
100
AcDbEntity
  8
0
  6
Continuous
 62
     7
370
    15
100
AcDbLine
 10
186.4022805925623
 20
145.1255940106668
 30
0.0
 11
186.6418684581552
 21
146.5563299925648
 31
0.0
  0
LWPOLYLINE
  5
8D1
330
673
100
AcDbEntity
  8
0
  6
Continuous
 62
     7
370
    15
100
AcDbPolyline
 90
        9
 70
   128
 43
0.0
 10
186.4022805925623
 20
145.1255940106668
 10
186.3799497592765
 20
145.0422474925462
 10
186.3434863579623
 20
144.9729994373992
 10
186.2939983110725
 20
144.9199539132038
 10
186.2329892884866
 20
144.8847226820321
 10
186.1623130192451
 20
144.868376227455
 10
186.0841169669066
 20
144.8714112284266
 10
186.0007770799277
 20
144.8937354679408
 10
185.9148255996414
 20
144.934670634998
  0
LINE
  5
8D2
330
673
100
AcDbEntity
  8
0
  6
Continuous
 62
     7
370
    15
100
AcDbLine
 10
184.5205417986401
 20
152.4551975712495
 30
0.0
 11
184.5205421287678
 21
147.7809456158421
 31
0.0
  0
LINE
  5
8D3
330
673
100
AcDbEntity
  8
0
  6
Continuous
 62
     7
370
    15
100
AcDbLine
 10
184.7326738156951
 20
152.8226210415888
 30
0.0
 11
184.7664769031826
 21
152.8421351486261
 31
0.0
  0
LINE
  5
8D4
330
673
100
AcDbEntity
  8
0
  6
Continuous
 62
     7
370
    15
100
AcDbLine
 10
181.0557228526098
 20
154.9452509084067
 30
0.0
 11
181.0895259400973
 21
154.9647650154438
 31
0.0
  0
ARC
  5
8D5
330
673
100
AcDbEntity
  8
0
  6
Continuous
 62
     7
370
    15
100
AcDbCircle
 10
180.8410832202585
 20
155.3531478092543
 30
0.0
 40
0.4610476977156247
100
AcDbArc
 50
302.6064450639656
 51
357.3946824978498
  0
LINE
  5
8D6
330
673
100
AcDbEntity
  8
0
  6
Continuous
 62
     7
370
    15
100
AcDbLine
 10
181.3016543585313
 20
160.5493906854533
 30
0.0
 11
181.3016543585313
 21
155.332190563276
 31
0.0
  0
LINE
  5
8D7
330
673
100
AcDbEntity
  8
0
  6
Continuous
 62
     7
370
    15
100
AcDbLine
 10
182.2916030003324
 20
155.9036717503138
 30
0.0
 11
182.2916030003324
 21
161.1208758719609
 31
0.0
  0
ARC
  5
8D8
330
673
100
AcDbEntity
  8
0
  6
Continuous
 62
     7
370
    15
100
AcDbCircle
 10
182.4209254458557
 20
155.8826936501079
 30
0.0
 40
0.1310128833526873
100
AcDbArc
 50
170.7859978947519
 51
309.2032503543679
  0
LINE
  5
8D9
330
673
100
AcDbEntity
  8
0
  6
Continuous
 62
     7
370
    15
100
AcDbLine
 10
182.5375382741207
 20
155.8006847428238
 30
0.0
 11
182.5037351866327
 21
155.7811706357869
 31
0.0
  0
ARC
  5
8DA
330
673
100
AcDbEntity
  8
0
  6
Continuous
 62
     7
370
    15
100
AcDbCircle
 10
182.6203480148977
 20
155.6991617285037
 30
0.0
 40
0.1310128833520046
100
AcDbArc
 50
350.7859978967056
 51
129.2032503546106
  0
LINE
  5
8DB
330
673
100
AcDbEntity
  8
0
  6
Continuous
 62
     7
370
    15
100
AcDbLine
 10
182.7496704604211
 20
155.6781836283024
 30
0.0
 11
182.7496723426482
 21
151.0039595190019
 31
0.0
  0
LINE
  5
8DC
330
673
100
AcDbEntity
  8
0
  6
Continuous
 62
     7
370
    15
100
AcDbLine
 10
182.7496723426482
 20
151.0039595190019
 30
0.0
 11
180.8435928524255
 21
149.9036032510381
 31
0.0
  0
LINE
  5
8DD
330
673
100
AcDbEntity
  8
0
  6
Continuous
 62
     7
370
    15
100
AcDbLine
 10
180.8435928524255
 20
149.9036032510381
 30
0.0
 11
180.8435909701983
 21
154.577827360334
 31
0.0
  0
ARC
  5
8DE
330
673
100
AcDbEntity
  8
0
  6
Continuous
 62
     7
370
    15
100
AcDbCircle
 10
181.3041555294442
 20
154.5568694566874
 30
0.0
 40
0.4610411553849227
100
AcDbArc
 50
122.6054835578777
 51
177.3945636858618
  0
LINE
  5
8DF
330
673
100
AcDbEntity
  8
0
  6
Continuous
 62
     7
370
    15
100
AcDbLine
 10
179.1803333145082
 20
156.5568318774429
 30
0.0
 11
181.3016543585313
 21
155.332190563276
 31
0.0
  0
LINE
  5
8E0
330
673
100
AcDbEntity
  8
0
  6
Continuous
 62
     7
370
    15
100
AcDbLine
 10
179.1803333145082
 20
156.5568318774429
 30
0.0
 11
179.1803331984116
 21
161.4882413286347
 31
0.0
  0
LINE
  5
8E1
330
673
100
AcDbEntity
  8
0
  6
Continuous
 62
     7
370
    15
100
AcDbLine
 10
188.3083600827854
 20
146.2259502786306
 30
0.0
 11
186.4022805925623
 21
145.1255940106668
 31
0.0
  0
LINE
  5
8E2
330
673
100
AcDbEntity
  8
0
  6
Continuous
 62
     7
370
    15
100
AcDbLine
 10
188.547947948378
 20
147.6566862605287
 30
0.0
 11
188.3083600827854
 21
146.2259502786306
 31
0.0
  0
LINE
  5
8E3
330
673
100
AcDbEntity
  8
0
  6
Continuous
 62
     7
370
    15
100
AcDbLine
 10
180.8435909701983
 20
154.577827360334
 30
0.0
 11
178.7222661929104
 21
155.8024708297226
 31
0.0
  0
LINE
  5
8E4
330
673
100
AcDbEntity
  8
0
  6
Continuous
 62
     7
370
    15
100
AcDbLine
 10
181.0557228526098
 20
154.9452509084067
 30
0.0
 11
178.9343982099655
 21
156.1698943000619
 31
0.0
  0
ARC
  5
8E5
330
673
100
AcDbEntity
  8
0
  6
Continuous
 62
     7
370
    15
100
AcDbCircle
 10
179.1828309923914
 20
155.7815126141701
 30
0.0
 40
0.4610414095502251
100
AcDbArc
 50
122.6054789306529
 51
177.3945263210631
  0
LINE
  5
8E6
330
673
100
AcDbEntity
  8
0
  6
Continuous
 62
     7
370
    15
100
AcDbLine
 10
181.0895259400973
 20
154.9647650154438
 30
0.0
 11
178.9682012974527
 21
156.1894084070992
 31
0.0
  0
ARC
  5
8E7
330
673
100
AcDbEntity
  8
0
  6
Continuous
 62
     7
370
    15
100
AcDbCircle
 10
178.7197685150271
 20
156.5777900929913
 30
0.0
 40
0.4610414095502634
100
AcDbArc
 50
302.6054789306087
 51
357.3945263215734
  0
ARC
  5
8E8
330
673
100
AcDbEntity
  8
0
  6
Continuous
 62
     7
370
    15
100
AcDbCircle
 10
188.0073587478733
 20
146.2547158323231
 30
0.0
 40
0.3023727181775475
100
AcDbArc
 50
302.7369283053456
 51
354.5410385234773
  0
LINE
  5
8E9
330
673
100
AcDbEntity
  8
0
  6
Continuous
 62
     7
370
    15
100
AcDbLine
 10
179.449306999951
 20
148.6671350748599
 30
0.0
 11
180.1165499939118
 21
148.2819438934711
 31
0.0
  0
ARC
  5
8EA
330
673
100
AcDbEntity
  8
0
  6
Continuous
 62
     7
370
    15
100
AcDbCircle
 10
180.0440830017966
 20
149.5862807649153
 30
0.0
 40
1.094800115052465
100
AcDbArc
 50
188.6903853336438
 51
237.0932335995324
  0
LINE
  5
8EB
330
673
100
AcDbEntity
  8
0
  6
Continuous
 62
     7
370
    15
100
AcDbLine
 10
178.7222665230381
 20
151.1282188743152
 30
0.0
 11
178.96185200703
 21
149.4208620057448
 31
0.0
  0
LINE
  5
8EC
330
673
100
AcDbEntity
  8
0
  6
Continuous
 62
     7
370
    15
100
AcDbLine
 10
180.6040049868327
 20
148.4728672691399
 30
0.0
 11
180.8435928524255
 21
149.9036032510381
 31
0.0
  0
LWPOLYLINE
  5
8ED
330
673
100
AcDbEntity
  8
0
  6
Continuous
 62
     7
370
    15
100
AcDbPolyline
 90
        9
 70
   128
 43
0.0
 10
180.6040049868327
 20
148.4728672691399
 10
180.5816741535468
 20
148.3895207510194
 10
180.5452107522327
 20
148.3202726958723
 10
180.4957227053428
 20
148.2672271716769
 10
180.4347136827569
 20
148.2319959405052
 10
180.3640374135155
 20
148.2156494859281
 10
180.2858413611768
 20
148.2186844868998
 10
180.202501474198
 20
148.2410087264139
 10
180.1165499939118
 20
148.2819438934711
  0
LINE
  5
8EE
330
673
100
AcDbEntity
  8
0
  6
Continuous
 62
     7
370
    15
100
AcDbLine
 10
178.7222661929104
 20
155.8024708297226
 30
0.0
 11
178.7222665230381
 21
151.1282188743152
 31
0.0
  0
LINE
  5
8EF
330
673
100
AcDbEntity
  8
0
  6
Continuous
 62
     7
370
    15
100
AcDbLine
 10
178.9343982099655
 20
156.1698943000619
 30
0.0
 11
178.9682012974527
 21
156.1894084070992
 31
0.0
  0
LINE
  5
8F0
330
673
100
AcDbEntity
  8
0
  6
Continuous
 62
     7
370
    15
100
AcDbLine
 10
182.5100844770555
 20
149.5732235371038
 30
0.0
 11
180.6040049868327
 21
148.4728672691399
 31
0.0
  0
LINE
  5
8F1
330
673
100
AcDbEntity
  8
0
  6
Continuous
 62
     7
370
    15
100
AcDbLine
 10
182.7496723426482
 20
151.0039595190019
 30
0.0
 11
182.5100844770555
 21
149.5732235371038
 31
0.0
  0
ARC
  5
8F2
330
673
100
AcDbEntity
  8
0
  6
Continuous
 62
     7
370
    15
100
AcDbCircle
 10
182.2090831421434
 20
149.6019890907963
 30
0.0
 40
0.3023727181776154
100
AcDbArc
 50
302.7369283053682
 51
354.5410385234944
  0
LINE
  5
8F3
330
673
100
AcDbEntity
  8
0
  6
Continuous
 62
     8
370
    15
100
AcDbLine
 10
229.9859395442751
 20
137.0809936039055
 30
0.0
 11
227.9353269037309
 21
135.8972001242721
 31
0.0
  0
LINE
  5
8F4
330
673
100
AcDbEntity
  8
0
  6
Continuous
 62
     8
370
    15
100
AcDbLine
 10
224.1876616789239
 20
140.4282655579269
 30
0.0
 11
222.1370512980012
 21
139.2444733827452
 31
0.0
  0
LINE
  5
8F5
330
673
100
AcDbEntity
  8
0
  6
Continuous
 62
     8
370
    15
100
AcDbLine
 10
234.4760834543343
 20
125.7781754868197
 30
0.0
 11
234.6882156382
 21
125.6557113095288
 31
0.0
  0
LINE
  5
8F6
330
673
100
AcDbEntity
  8
0
  6
Continuous
 62
     8
370
    15
100
AcDbLine
 10
234.4760834518995
 20
125.8172041603023
 30
0.0
 11
234.7220187256877
 21
125.675225416566
 31
0.0
  0
LINE
  5
8F7
330
673
100
AcDbEntity
  8
0
  6
Continuous
 62
     8
370
    15
100
AcDbLine
 10
218.3893860731942
 20
143.7755388164
 30
0.0
 11
216.3387756922716
 21
142.5917466412183
 31
0.0
  0
LINE
  5
8F8
330
673
100
AcDbEntity
  8
0
  6
Continuous
 62
     8
370
    15
100
AcDbLine
 10
228.6778078486048
 20
129.1254487452928
 30
0.0
 11
228.8899400324703
 21
129.002984568002
 31
0.0
  0
LINE
  5
8F9
330
673
100
AcDbEntity
  8
0
  6
Continuous
 62
     8
370
    15
100
AcDbLine
 10
228.6778078461698
 20
129.1644774187755
 30
0.0
 11
228.9237431199581
 21
129.022498675039
 31
0.0
  0
LINE
  5
8FA
330
673
100
AcDbEntity
  8
0
  6
Continuous
 62
     8
370
    15
100
AcDbLine
 10
212.5911104674647
 20
147.122812074873
 30
0.0
 11
210.5405000865418
 21
145.9390198996914
 31
0.0
  0
LINE
  5
8FB
330
673
100
AcDbEntity
  8
0
  6
Continuous
 62
     8
370
    15
100
AcDbLine
 10
222.8795322428752
 20
132.4727220037659
 30
0.0
 11
223.0916644267406
 21
132.350257826475
 31
0.0
  0
LINE
  5
8FC
330
673
100
AcDbEntity
  8
0
  6
Continuous
 62
     8
370
    15
100
AcDbLine
 10
222.8795322404401
 20
132.5117506772486
 30
0.0
 11
223.1254675142285
 21
132.3697719335121
 31
0.0
  0
LINE
  5
8FD
330
673
100
AcDbEntity
  8
0
  6
Continuous
 62
     8
370
    15
100
AcDbLine
 10
206.7928348617348
 20
150.4700853333462
 30
0.0
 11
204.7422244808121
 21
149.2862931581645
 31
0.0
  0
LINE
  5
8FE
330
673
100
AcDbEntity
  8
0
  6
Continuous
 62
     8
370
    15
100
AcDbLine
 10
217.0812566371454
 20
135.819995262239
 30
0.0
 11
217.2933888210109
 21
135.6975310849481
 31
0.0
  0
LINE
  5
8FF
330
673
100
AcDbEntity
  8
0
  6
Continuous
 62
     8
370
    15
100
AcDbLine
 10
217.0812566347106
 20
135.8590239357216
 30
0.0
 11
217.3271919084988
 21
135.7170451919852
 31
0.0
  0
LINE
  5
900
330
673
100
AcDbEntity
  8
0
  6
Continuous
 62
     8
370
    15
100
AcDbLine
 10
200.9945592560052
 20
153.8173585918193
 30
0.0
 11
198.9439488750825
 21
152.6335664166376
 31
0.0
  0
LINE
  5
901
330
673
100
AcDbEntity
  8
0
  6
Continuous
 62
     8
370
    15
100
AcDbLine
 10
211.2829810314158
 20
139.1672685207121
 30
0.0
 11
211.4951132152812
 21
139.0448043434212
 31
0.0
  0
LINE
  5
902
330
673
100
AcDbEntity
  8
0
  6
Continuous
 62
     8
370
    15
100
AcDbLine
 10
211.2829810289809
 20
139.2062971941947
 30
0.0
 11
211.528916302769
 21
139.0643184504583
 31
0.0
  0
LINE
  5
903
330
673
100
AcDbEntity
  8
0
  6
Continuous
 62
     8
370
    15
100
AcDbLine
 10
195.1962836502755
 20
157.1646318502924
 30
0.0
 11
193.1456732693528
 21
155.9808396751107
 31
0.0
  0
LINE
  5
904
330
673
100
AcDbEntity
  8
0
  6
Continuous
 62
     8
370
    15
100
AcDbLine
 10
205.4847054256861
 20
142.5145417791852
 30
0.0
 11
205.6968376095516
 21
142.3920776018944
 31
0.0
  0
LINE
  5
905
330
673
100
AcDbEntity
  8
0
  6
Continuous
 62
     8
370
    15
100
AcDbLine
 10
205.484705423251
 20
142.5535704526679
 30
0.0
 11
205.7306406970394
 21
142.4115917089314
 31
0.0
  0
LINE
  5
906
330
673
100
AcDbEntity
  8
0
  6
Continuous
 62
     8
370
    15
100
AcDbLine
 10
189.3980080445457
 20
160.5119051087656
 30
0.0
 11
187.3473976636232
 21
159.3281129335838
 31
0.0
  0
LINE
  5
907
330
673
100
AcDbEntity
  8
0
  6
Continuous
 62
     8
370
    15
100
AcDbLine
 10
199.6864298199564
 20
145.8618150376583
 30
0.0
 11
199.8985620038219
 21
145.7393508603675
 31
0.0
  0
LINE
  5
908
330
673
100
AcDbEntity
  8
0
  6
Continuous
 62
     8
370
    15
100
AcDbLine
 10
199.6864298175214
 20
145.900843711141
 30
0.0
 11
199.9323650913097
 21
145.7588649674045
 31
0.0
  0
LINE
  5
909
330
673
100
AcDbEntity
  8
0
  6
Continuous
 62
     8
370
    15
100
AcDbLine
 10
183.5997324388161
 20
163.8591783672388
 30
0.0
 11
181.5491220578933
 21
162.675386192057
 31
0.0
  0
LINE
  5
90A
330
673
100
AcDbEntity
  8
0
  6
Continuous
 62
     8
370
    15
100
AcDbLine
 10
193.8881542142268
 20
149.2090882961314
 30
0.0
 11
194.1002863980923
 21
149.0866241188406
 31
0.0
  0
LINE
  5
90B
330
673
100
AcDbEntity
  8
0
  6
Continuous
 62
     8
370
    15
100
AcDbLine
 10
193.8881542117917
 20
149.2481169696141
 30
0.0
 11
194.1340894855801
 21
149.1061382258776
 31
0.0
  0
LINE
  5
90C
330
673
100
AcDbEntity
  8
0
  6
Continuous
 62
     8
370
    15
100
AcDbLine
 10
188.0898786084971
 20
152.5563615546045
 30
0.0
 11
188.3020107923625
 21
152.4338973773136
 31
0.0
  0
LINE
  5
90D
330
673
100
AcDbEntity
  8
0
  6
Continuous
 62
     8
370
    15
100
AcDbLine
 10
188.0898786060622
 20
152.5953902280871
 30
0.0
 11
188.3358138798504
 21
152.4534114843507
 31
0.0
  0
LINE
  5
90E
330
673
100
AcDbEntity
  8
0
  6
Continuous
 62
     8
370
    15
100
AcDbLine
 10
182.2916030027675
 20
155.9036348130776
 30
0.0
 11
182.5037351866327
 21
155.7811706357869
 31
0.0
  0
LINE
  5
90F
330
673
100
AcDbEntity
  8
0
  6
Continuous
 62
     8
370
    15
100
AcDbLine
 10
182.2916030003325
 20
155.9426634865602
 30
0.0
 11
182.5375382741207
 21
155.8006847428238
 31
0.0
  0
ENDBLK
  5
675
330
673
100
AcDbEntity
  8
0
100
AcDbBlockEnd
  0
ENDSEC
  0
SECTION
  2
ENTITIES
  0
INSERT
  5
62B
330
1F
100
AcDbEntity
  8
0
100
AcDbBlockReference
  2
1
 10
0.0
 20
0.0
 30
0.0
  0
INSERT
  5
66A
330
1F
100
AcDbEntity
  8
0
100
AcDbBlockReference
  2
2
 10
0.0
 20
0.0
 30
0.0
  0
INSERT
  5
672
330
1F
100
AcDbEntity
  8
0
100
AcDbBlockReference
  2
3
 10
0.0
 20
0.0
 30
0.0
  0
INSERT
  5
910
330
1F
100
AcDbEntity
  8
0
100
AcDbBlockReference
  2
4
 10
0.0
 20
0.0
 30
0.0
  0
ENDSEC
  0
SECTION
  2
OBJECTS
  0
DICTIONARY
  5
C
330
0
100
AcDbDictionary
281
     1
  3
ACAD_COLOR
350
4A3
  3
ACAD_GROUP
350
D
  3
ACAD_LAYOUT
350
1A
  3
ACAD_MATERIAL
350
479
  3
ACAD_MLEADERSTYLE
350
4C8
  3
ACAD_MLINESTYLE
350
17
  3
ACAD_PLOTSETTINGS
350
19
  3
ACAD_PLOTSTYLENAME
350
E
  3
ACAD_SCALELIST
350
4A6
  3
ACAD_TABLESTYLE
350
4A4
  3
ACAD_VISUALSTYLE
350
492
  3
ACDB_RECOMPOSE_DATA
350
915
  3
AcDbVariableDictionary
350
916
  3
DWGPROPS
350
924
  0
DICTIONARY
  5
911
330
10
100
AcDbDictionary
280
     1
281
     1
  3
ADSK_XREC_LAYER_RECONCILED
360
912
  0
DICTIONARY
  5
4A3
102
{ACAD_REACTORS
330
C
102
}
330
C
100
AcDbDictionary
281
     1
  0
DICTIONARY
  5
D
102
{ACAD_REACTORS
330
C
102
}
330
C
100
AcDbDictionary
281
     1
  0
DICTIONARY
  5
1A
102
{ACAD_REACTORS
330
C
102
}
330
C
100
AcDbDictionary
281
     1
  3
Layout1
350
1E
  3
Layout2
350
26
  3
Model
350
22
  0
DICTIONARY
  5
479
102
{ACAD_REACTORS
330
C
102
}
330
C
100
AcDbDictionary
281
     1
  3
ByBlock
350
482
  3
ByLayer
350
47A
  3
Global
350
48A
  0
DICTIONARY
  5
4C8
102
{ACAD_REACTORS
330
C
102
}
330
C
100
AcDbDictionary
281
     1
  3
Standard
350
4C9
  0
DICTIONARY
  5
17
102
{ACAD_REACTORS
330
C
102
}
330
C
100
AcDbDictionary
281
     1
  3
Standard
350
18
  0
DICTIONARY
  5
19
102
{ACAD_REACTORS
330
C
102
}
330
C
100
AcDbDictionary
281
     1
  0
ACDBDICTIONARYWDFLT
  5
E
102
{ACAD_REACTORS
330
C
102
}
330
C
100
AcDbDictionary
281
     1
  3
Normal
350
F
100
AcDbDictionaryWithDefault
340
F
  0
DICTIONARY
  5
4A6
102
{ACAD_REACTORS
330
C
102
}
330
C
100
AcDbDictionary
281
     1
  3
A0
350
4A7
  3
A1
350
4A8
  3
A2
350
4A9
  3
A3
350
4AA
  3
A4
350
4AB
  3
A5
350
4AC
  3
A6
350
4AD
  3
A7
350
4AE
  3
A8
350
4AF
  3
A9
350
4B0
  3
B0
350
4B1
  3
B1
350
4B2
  3
B2
350
4B3
  3
B3
350
4B4
  3
B4
350
4B5
  3
B5
350
4B6
  3
B6
350
4B7
  3
B7
350
4B8
  3
B8
350
4B9
  3
B9
350
4BA
  3
C0
350
4BB
  3
C1
350
4BC
  3
C2
350
4BD
  3
C3
350
4BE
  3
C4
350
4BF
  3
C5
350
4C0
  3
C6
350
4C1
  3
C7
350
4C2
  3
C8
350
4C3
  3
C9
350
4C4
  3
D0
350
4C5
  3
D1
350
4C6
  3
D2
350
4C7
  0
DICTIONARY
  5
4A4
102
{ACAD_REACTORS
330
C
102
}
330
C
100
AcDbDictionary
281
     1
  3
Standard
350
4A5
  0
DICTIONARY
  5
492
102
{ACAD_REACTORS
330
C
102
}
330
C
100
AcDbDictionary
281
     1
  3
2dWireframe
350
498
  3
3D Hidden
350
49A
  3
3dWireframe
350
499
  3
Basic
350
497
  3
Brighten
350
49E
  3
ColorChange
350
4A2
  3
Conceptual
350
49B
  3
Dim
350
49D
  3
Facepattern
350
4A1
  3
Flat
350
493
  3
FlatWithEdges
350
494
  3
Gouraud
350
495
  3
GouraudWithEdges
350
496
  3
Linepattern
350
4A0
  3
Realistic
350
49C
  3
Thicken
350
49F
  0
XRECORD
  5
915
102
{ACAD_REACTORS
330
C
102
}
330
C
100
AcDbXrecord
280
     1
 90
        1
330
4A5
  0
DICTIONARY
  5
916
102
{ACAD_REACTORS
330
C
102
}
330
C
100
AcDbDictionary
281
     1
  3
CANNOSCALE
350
91A
  3
CMLEADERSTYLE
350
918
  3
CTABLESTYLE
350
917
  3
DIMASSOC
350
922
  3
INDEXCTL
350
921
  3
LIGHTINGUNITS
350
91B
  3
MSLTSCALE
350
919
  3
SORTENTS
350
920
  0
XRECORD
  5
924
102
{ACAD_REACTORS
330
C
102
}
330
C
100
AcDbXrecord
280
     1
  1
DWGPROPS COOKIE
  2

  3

  4

  6

  7

  8
orhan kara
  9

300
=
301
=
302
=
303
=
304
=
305
=
306
=
307
=
308
=
309
=
 40
0.0002981712962963
 41
2458933.650776007
 42
2458956.450377812
  1

 90
        0
  0
XRECORD
  5
912
102
{ACAD_REACTORS
330
911
102
}
330
911
100
AcDbXrecord
280
     1
290
     1
  0
LAYOUT
  5
1E
102
{ACAD_XDICTIONARY
360
925
102
}
102
{ACAD_REACTORS
330
1A
102
}
330
1A
100
AcDbPlotSettings
  1

  2
none_device
  4

  6

 40
0.0
 41
0.0
 42
0.0
 43
0.0
 44
0.0
 45
0.0
 46
0.0
 47
0.0
 48
0.0
 49
0.0
140
0.0
141
0.0
142
1.0
143
1.0
 70
   688
 72
     0
 73
     0
 74
     5
  7

 75
    16
147
1.0
148
0.0
149
0.0
100
AcDbLayout
  1
Layout1
 70
     1
 71
     1
 10
0.0
 20
0.0
 11
420.0
 21
297.0
 12
0.0
 22
0.0
 32
0.0
 14
1.000000000000000E+20
 24
1.000000000000000E+20
 34
1.000000000000000E+20
 15
-1.000000000000000E+20
 25
-1.000000000000000E+20
 35
-1.000000000000000E+20
146
0.0
 13
0.0
 23
0.0
 33
0.0
 16
1.0
 26
0.0
 36
0.0
 17
0.0
 27
1.0
 37
0.0
 76
     0
330
1B
  0
LAYOUT
  5
26
102
{ACAD_XDICTIONARY
360
929
102
}
102
{ACAD_REACTORS
330
1A
102
}
330
1A
100
AcDbPlotSettings
  1

  2
none_device
  4

  6

 40
0.0
 41
0.0
 42
0.0
 43
0.0
 44
0.0
 45
0.0
 46
0.0
 47
0.0
 48
0.0
 49
0.0
140
0.0
141
0.0
142
1.0
143
1.0
 70
   688
 72
     0
 73
     0
 74
     5
  7

 75
    16
147
1.0
148
0.0
149
0.0
100
AcDbLayout
  1
Layout2
 70
     1
 71
     2
 10
0.0
 20
0.0
 11
0.0
 21
0.0
 12
0.0
 22
0.0
 32
0.0
 14
0.0
 24
0.0
 34
0.0
 15
0.0
 25
0.0
 35
0.0
146
0.0
 13
0.0
 23
0.0
 33
0.0
 16
1.0
 26
0.0
 36
0.0
 17
0.0
 27
1.0
 37
0.0
 76
     0
330
23
  0
LAYOUT
  5
22
102
{ACAD_XDICTIONARY
360
927
102
}
102
{ACAD_REACTORS
330
1A
102
}
330
1A
100
AcDbPlotSettings
  1

  2
none_device
  4

  6

 40
0.0
 41
0.0
 42
0.0
 43
0.0
 44
0.0
 45
0.0
 46
0.0
 47
0.0
 48
0.0
 49
0.0
140
0.0
141
0.0
142
1.0
143
1.0
 70
  1712
 72
     0
 73
     0
 74
     0
  7

 75
     0
147
1.0
148
0.0
149
0.0
100
AcDbLayout
  1
Model
 70
     1
 71
     0
 10
0.0
 20
0.0
 11
431.7999999999999
 21
279.4
 12
0.0
 22
0.0
 32
0.0
 14
0.0
 24
0.0
 34
0.0
 15
431.7999999999999
 25
279.4
 35
0.0
146
0.0
 13
0.0
 23
0.0
 33
0.0
 16
1.0
 26
0.0
 36
0.0
 17
0.0
 27
1.0
 37
0.0
 76
     0
330
1F
331
29
  0
MATERIAL
  5
482
102
{ACAD_XDICTIONARY
360
483
102
}
102
{ACAD_REACTORS
330
479
102
}
330
479
100
AcDbMaterial
  1
ByBlock
 72
     0
 43
0.0008202099737533
 43
0.0
 43
0.0
 43
0.0
 43
0.0
 43
0.0008202099737533
 43
0.0
 43
0.0
 43
0.0
 43
0.0
 43
1.0
 43
0.0
 43
0.0
 43
0.0
 43
0.0
 43
1.0
 77
     0
 47
0.0008202099737533
 47
0.0
 47
0.0
 47
0.0
 47
0.0
 47
0.0008202099737533
 47
0.0
 47
0.0
 47
0.0
 47
0.0
 47
1.0
 47
0.0
 47
0.0
 47
0.0
 47
0.0
 47
1.0
171
     0
 49
0.0008202099737533
 49
0.0
 49
0.0
 49
0.0
 49
0.0
 49
0.0008202099737533
 49
0.0
 49
0.0
 49
0.0
 49
0.0
 49
1.0
 49
0.0
 49
0.0
 49
0.0
 49
0.0
 49
1.0
175
     0
142
0.0008202099737533
142
0.0
142
0.0
142
0.0
142
0.0
142
0.0008202099737533
142
0.0
142
0.0
142
0.0
142
0.0
142
1.0
142
0.0
142
0.0
142
0.0
142
0.0
142
1.0
179
     0
144
0.0008202099737533
144
0.0
144
0.0
144
0.0
144
0.0
144
0.0008202099737533
144
0.0
144
0.0
144
0.0
144
0.0
144
1.0
144
0.0
144
0.0
144
0.0
144
0.0
144
1.0
147
0.0008202099737533
147
0.0
147
0.0
147
0.0
147
0.0
147
0.0008202099737533
147
0.0
147
0.0
147
0.0
147
0.0
147
1.0
147
0.0
147
0.0
147
0.0
147
0.0
147
1.0
  0
MATERIAL
  5
47A
102
{ACAD_XDICTIONARY
360
47B
102
}
102
{ACAD_REACTORS
330
479
102
}
330
479
100
AcDbMaterial
  1
ByLayer
 72
     0
 43
0.0008202099737533
 43
0.0
 43
0.0
 43
0.0
 43
0.0
 43
0.0008202099737533
 43
0.0
 43
0.0
 43
0.0
 43
0.0
 43
1.0
 43
0.0
 43
0.0
 43
0.0
 43
0.0
 43
1.0
 77
     0
 47
0.0008202099737533
 47
0.0
 47
0.0
 47
0.0
 47
0.0
 47
0.0008202099737533
 47
0.0
 47
0.0
 47
0.0
 47
0.0
 47
1.0
 47
0.0
 47
0.0
 47
0.0
 47
0.0
 47
1.0
171
     0
 49
0.0008202099737533
 49
0.0
 49
0.0
 49
0.0
 49
0.0
 49
0.0008202099737533
 49
0.0
 49
0.0
 49
0.0
 49
0.0
 49
1.0
 49
0.0
 49
0.0
 49
0.0
 49
0.0
 49
1.0
175
     0
142
0.0008202099737533
142
0.0
142
0.0
142
0.0
142
0.0
142
0.0008202099737533
142
0.0
142
0.0
142
0.0
142
0.0
142
1.0
142
0.0
142
0.0
142
0.0
142
0.0
142
1.0
179
     0
144
0.0008202099737533
144
0.0
144
0.0
144
0.0
144
0.0
144
0.0008202099737533
144
0.0
144
0.0
144
0.0
144
0.0
144
1.0
144
0.0
144
0.0
144
0.0
144
0.0
144
1.0
147
0.0008202099737533
147
0.0
147
0.0
147
0.0
147
0.0
147
0.0008202099737533
147
0.0
147
0.0
147
0.0
147
0.0
147
1.0
147
0.0
147
0.0
147
0.0
147
0.0
147
1.0
  0
MATERIAL
  5
48A
102
{ACAD_XDICTIONARY
360
48B
102
}
102
{ACAD_REACTORS
330
479
102
}
330
479
100
AcDbMaterial
  1
Global
 72
     0
 43
0.0008202099737533
 43
0.0
 43
0.0
 43
0.0
 43
0.0
 43
0.0008202099737533
 43
0.0
 43
0.0
 43
0.0
 43
0.0
 43
1.0
 43
0.0
 43
0.0
 43
0.0
 43
0.0
 43
1.0
 77
     0
 47
0.0008202099737533
 47
0.0
 47
0.0
 47
0.0
 47
0.0
 47
0.0008202099737533
 47
0.0
 47
0.0
 47
0.0
 47
0.0
 47
1.0
 47
0.0
 47
0.0
 47
0.0
 47
0.0
 47
1.0
171
     0
 49
0.0008202099737533
 49
0.0
 49
0.0
 49
0.0
 49
0.0
 49
0.0008202099737533
 49
0.0
 49
0.0
 49
0.0
 49
0.0
 49
1.0
 49
0.0
 49
0.0
 49
0.0
 49
0.0
 49
1.0
175
     0
142
0.0008202099737533
142
0.0
142
0.0
142
0.0
142
0.0
142
0.0008202099737533
142
0.0
142
0.0
142
0.0
142
0.0
142
1.0
142
0.0
142
0.0
142
0.0
142
0.0
142
1.0
179
     0
144
0.0008202099737533
144
0.0
144
0.0
144
0.0
144
0.0
144
0.0008202099737533
144
0.0
144
0.0
144
0.0
144
0.0
144
1.0
144
0.0
144
0.0
144
0.0
144
0.0
144
1.0
147
0.0008202099737533
147
0.0
147
0.0
147
0.0
147
0.0
147
0.0008202099737533
147
0.0
147
0.0
147
0.0
147
0.0
147
1.0
147
0.0
147
0.0
147
0.0
147
0.0
147
1.0
  0
MLEADERSTYLE
  5
4C9
102
{ACAD_REACTORS
330
4C8
102
}
330
4C8
100
AcDbMLeaderStyle
170
     2
171
     1
172
     0
 90
        2
 40
0.0
 41
0.0
173
     1
 91
-1056964608
340
14
 92
       -2
290
     1
 42
2.0
291
     1
 43
0.36
  3
Standard
 44
4.0
300

342
11
174
     1
178
     6
175
     1
176
     0
 93
-1056964608
 45
4.0
292
     0
297
     0
 46
4.0
 94
-1056964608
 47
1.0
 49
1.0
140
1.0
293
     1
141
0.0
294
     1
177
     0
142
1.0
295
     0
296
     0
143
0.125
1001
ACAD_MLEADERVER
1070
     2
  0
MLINESTYLE
  5
18
102
{ACAD_REACTORS
330
17
102
}
330
17
100
AcDbMlineStyle
  2
STANDARD
 70
     0
  3

 62
   256
 51
90.0
 52
90.0
 71
     2
 49
0.5
 62
   256
  6
BYLAYER
 49
-0.5
 62
   256
  6
BYLAYER
  0
ACDBPLACEHOLDER
  5
F
102
{ACAD_REACTORS
330
E
102
}
330
E
  0
SCALE
  5
4A7
102
{ACAD_REACTORS
330
4A6
102
}
330
4A6
100
AcDbScale
 70
     0
300
1:1
140
1.0
141
1.0
290
     1
  0
SCALE
  5
4A8
102
{ACAD_REACTORS
330
4A6
102
}
330
4A6
100
AcDbScale
 70
     0
300
1:2
140
1.0
141
2.0
290
     0
  0
SCALE
  5
4A9
102
{ACAD_REACTORS
330
4A6
102
}
330
4A6
100
AcDbScale
 70
     0
300
1:4
140
1.0
141
4.0
290
     0
  0
SCALE
  5
4AA
102
{ACAD_REACTORS
330
4A6
102
}
330
4A6
100
AcDbScale
 70
     0
300
1:5
140
1.0
141
5.0
290
     0
  0
SCALE
  5
4AB
102
{ACAD_REACTORS
330
4A6
102
}
330
4A6
100
AcDbScale
 70
     0
300
1:8
140
1.0
141
8.0
290
     0
  0
SCALE
  5
4AC
102
{ACAD_REACTORS
330
4A6
102
}
330
4A6
100
AcDbScale
 70
     0
300
1:10
140
1.0
141
10.0
290
     0
  0
SCALE
  5
4AD
102
{ACAD_REACTORS
330
4A6
102
}
330
4A6
100
AcDbScale
 70
     0
300
1:16
140
1.0
141
16.0
290
     0
  0
SCALE
  5
4AE
102
{ACAD_REACTORS
330
4A6
102
}
330
4A6
100
AcDbScale
 70
     0
300
1:20
140
1.0
141
20.0
290
     0
  0
SCALE
  5
4AF
102
{ACAD_REACTORS
330
4A6
102
}
330
4A6
100
AcDbScale
 70
     0
300
1:30
140
1.0
141
30.0
290
     0
  0
SCALE
  5
4B0
102
{ACAD_REACTORS
330
4A6
102
}
330
4A6
100
AcDbScale
 70
     0
300
1:40
140
1.0
141
40.0
290
     0
  0
SCALE
  5
4B1
102
{ACAD_REACTORS
330
4A6
102
}
330
4A6
100
AcDbScale
 70
     0
300
1:50
140
1.0
141
50.0
290
     0
  0
SCALE
  5
4B2
102
{ACAD_REACTORS
330
4A6
102
}
330
4A6
100
AcDbScale
 70
     0
300
1:100
140
1.0
141
100.0
290
     0
  0
SCALE
  5
4B3
102
{ACAD_REACTORS
330
4A6
102
}
330
4A6
100
AcDbScale
 70
     0
300
2:1
140
2.0
141
1.0
290
     0
  0
SCALE
  5
4B4
102
{ACAD_REACTORS
330
4A6
102
}
330
4A6
100
AcDbScale
 70
     0
300
4:1
140
4.0
141
1.0
290
     0
  0
SCALE
  5
4B5
102
{ACAD_REACTORS
330
4A6
102
}
330
4A6
100
AcDbScale
 70
     0
300
8:1
140
8.0
141
1.0
290
     0
  0
SCALE
  5
4B6
102
{ACAD_REACTORS
330
4A6
102
}
330
4A6
100
AcDbScale
 70
     0
300
10:1
140
10.0
141
1.0
290
     0
  0
SCALE
  5
4B7
102
{ACAD_REACTORS
330
4A6
102
}
330
4A6
100
AcDbScale
 70
     0
300
100:1
140
100.0
141
1.0
290
     0
  0
SCALE
  5
4B8
102
{ACAD_REACTORS
330
4A6
102
}
330
4A6
100
AcDbScale
 70
     0
300
1/128" = 1'-0"
140
0.0078125
141
12.0
290
     0
  0
SCALE
  5
4B9
102
{ACAD_REACTORS
330
4A6
102
}
330
4A6
100
AcDbScale
 70
     0
300
1/64" = 1'-0"
140
0.015625
141
12.0
290
     0
  0
SCALE
  5
4BA
102
{ACAD_REACTORS
330
4A6
102
}
330
4A6
100
AcDbScale
 70
     0
300
1/32" = 1'-0"
140
0.03125
141
12.0
290
     0
  0
SCALE
  5
4BB
102
{ACAD_REACTORS
330
4A6
102
}
330
4A6
100
AcDbScale
 70
     0
300
1/16" = 1'-0"
140
0.0625
141
12.0
290
     0
  0
SCALE
  5
4BC
102
{ACAD_REACTORS
330
4A6
102
}
330
4A6
100
AcDbScale
 70
     0
300
3/32" = 1'-0"
140
0.09375
141
12.0
290
     0
  0
SCALE
  5
4BD
102
{ACAD_REACTORS
330
4A6
102
}
330
4A6
100
AcDbScale
 70
     0
300
1/8" = 1'-0"
140
0.125
141
12.0
290
     0
  0
SCALE
  5
4BE
102
{ACAD_REACTORS
330
4A6
102
}
330
4A6
100
AcDbScale
 70
     0
300
3/16" = 1'-0"
140
0.1875
141
12.0
290
     0
  0
SCALE
  5
4BF
102
{ACAD_REACTORS
330
4A6
102
}
330
4A6
100
AcDbScale
 70
     0
300
1/4" = 1'-0"
140
0.25
141
12.0
290
     0
  0
SCALE
  5
4C0
102
{ACAD_REACTORS
330
4A6
102
}
330
4A6
100
AcDbScale
 70
     0
300
3/8" = 1'-0"
140
0.375
141
12.0
290
     0
  0
SCALE
  5
4C1
102
{ACAD_REACTORS
330
4A6
102
}
330
4A6
100
AcDbScale
 70
     0
300
1/2" = 1'-0"
140
0.5
141
12.0
290
     0
  0
SCALE
  5
4C2
102
{ACAD_REACTORS
330
4A6
102
}
330
4A6
100
AcDbScale
 70
     0
300
3/4" = 1'-0"
140
0.75
141
12.0
290
     0
  0
SCALE
  5
4C3
102
{ACAD_REACTORS
330
4A6
102
}
330
4A6
100
AcDbScale
 70
     0
300
1" = 1'-0"
140
1.0
141
12.0
290
     0
  0
SCALE
  5
4C4
102
{ACAD_REACTORS
330
4A6
102
}
330
4A6
100
AcDbScale
 70
     0
300
1-1/2" = 1'-0"
140
1.5
141
12.0
290
     0
  0
SCALE
  5
4C5
102
{ACAD_REACTORS
330
4A6
102
}
330
4A6
100
AcDbScale
 70
     0
300
3" = 1'-0"
140
3.0
141
12.0
290
     0
  0
SCALE
  5
4C6
102
{ACAD_REACTORS
330
4A6
102
}
330
4A6
100
AcDbScale
 70
     0
300
6" = 1'-0"
140
6.0
141
12.0
290
     0
  0
SCALE
  5
4C7
102
{ACAD_REACTORS
330
4A6
102
}
330
4A6
100
AcDbScale
 70
     0
300
1'-0" = 1'-0"
140
12.0
141
12.0
290
     0
  0
TABLESTYLE
  5
4A5
102
{ACAD_XDICTIONARY
360
913
102
}
102
{ACAD_REACTORS
330
4A4
102
}
330
4A4
100
AcDbTableStyle
  3
Standard
 70
     0
 71
     0
 40
1.5
 41
1.5
280
     0
281
     0
  7
Standard
140
4.5
170
     2
 62
     0
 63
     7
283
     0
274
    -2
284
     1
 64
     0
275
    -2
285
     1
 65
     0
276
    -2
286
     1
 66
     0
277
    -2
287
     1
 67
     0
278
    -2
288
     1
 68
     0
279
    -2
289
     1
 69
     0
  7
Standard
140
6.0
170
     5
 62
     0
 63
     7
283
     0
274
    -2
284
     1
 64
     0
275
    -2
285
     1
 65
     0
276
    -2
286
     1
 66
     0
277
    -2
287
     1
 67
     0
278
    -2
288
     1
 68
     0
279
    -2
289
     1
 69
     0
  7
Standard
140
4.5
170
     5
 62
     0
 63
     7
283
     0
274
    -2
284
     1
 64
     0
275
    -2
285
     1
 65
     0
276
    -2
286
     1
 66
     0
277
    -2
287
     1
 67
     0
278
    -2
288
     1
 68
     0
279
    -2
289
     1
 69
     0
  0
VISUALSTYLE
  5
498
102
{ACAD_REACTORS
330
492
102
}
330
492
100
AcDbVisualStyle
  2
2dWireframe
 70
     4
 71
     0
 72
     2
 73
     0
 90
        0
 40
-0.6
 41
-30.0
 62
     5
 63
     7
 74
     1
 91
        4
 64
     7
 65
   257
 75
     1
175
     1
 42
1.0
 92
        0
 66
   257
 43
1.0
 76
     1
 77
     6
 78
     2
 67
     7
 79
     5
170
     0
171
     0
290
     0
174
     0
 93
        1
 44
0.0
173
     0
291
     0
 45
0.0
1001
ACAD
1000
AcDbSavedByObjectVersion
1070
     0
  0
VISUALSTYLE
  5
49A
102
{ACAD_REACTORS
330
492
102
}
330
492
100
AcDbVisualStyle
  2
3D Hidden
 70
     6
 71
     1
 72
     2
 73
     2
 90
        0
 40
-0.6
 41
-30.0
 62
     5
 63
     7
 74
     2
 91
        2
 64
     7
 65
   257
 75
     2
175
     1
 42
40.0
 92
        0
 66
   257
 43
1.0
 76
     1
 77
     6
 78
     2
 67
     7
 79
     3
170
     0
171
     0
290
     0
174
     0
 93
        1
 44
0.0
173
     0
291
     0
 45
0.0
1001
ACAD
1000
AcDbSavedByObjectVersion
1070
     0
  0
VISUALSTYLE
  5
499
102
{ACAD_REACTORS
330
492
102
}
330
492
100
AcDbVisualStyle
  2
3dWireframe
 70
     5
 71
     0
 72
     2
 73
     0
 90
        0
 40
-0.6
 41
-30.0
 62
     5
 63
     7
 74
     1
 91
        4
 64
     7
 65
   257
 75
     1
175
     1
 42
1.0
 92
        0
 66
   257
 43
1.0
 76
     1
 77
     6
 78
     2
 67
     7
 79
     5
170
     0
171
     0
290
     0
174
     0
 93
        1
 44
0.0
173
     0
291
     0
 45
0.0
1001
ACAD
1000
AcDbSavedByObjectVersion
1070
     0
  0
VISUALSTYLE
  5
497
102
{ACAD_REACTORS
330
492
102
}
330
492
100
AcDbVisualStyle
  2
Basic
 70
     7
 71
     1
 72
     0
 73
     1
 90
        0
 40
-0.6
 41
-30.0
 62
     5
 63
     7
 74
     0
 91
        4
 64
     7
 65
   257
 75
     1
175
     1
 42
1.0
 92
        8
 66
     7
 43
1.0
 76
     1
 77
     6
 78
     2
 67
     7
 79
     5
170
     0
171
     0
290
     0
174
     0
 93
        1
 44
0.0
173
     0
291
     1
 45
0.0
1001
ACAD
1000
AcDbSavedByObjectVersion
1070
     0
  0
VISUALSTYLE
  5
49E
102
{ACAD_REACTORS
330
492
102
}
330
492
100
AcDbVisualStyle
  2
Brighten
 70
    12
 71
     2
 72
     2
 73
     0
 90
        0
 40
-0.6
 41
-30.0
 62
     5
 63
     7
 74
     1
 91
        4
 64
     7
 65
   257
 75
     1
175
     1
 42
1.0
 92
        8
 66
     7
 43
1.0
 76
     1
 77
     6
 78
     2
 67
     7
 79
     5
170
     0
171
     0
290
     0
174
     0
 93
        1
 44
50.0
173
     0
291
     1
 45
0.0
1001
ACAD
1000
AcDbSavedByObjectVersion
1070
     0
  0
VISUALSTYLE
  5
4A2
102
{ACAD_REACTORS
330
492
102
}
330
492
100
AcDbVisualStyle
  2
ColorChange
 70
    16
 71
     2
 72
     2
 73
     3
 90
        0
 40
-0.6
 41
-30.0
 62
     5
 63
     8
 74
     1
 91
        4
 64
     7
 65
   257
 75
     1
175
     1
 42
1.0
 92
        8
 66
     8
 43
1.0
 76
     1
 77
     6
 78
     2
 67
     7
 79
     5
170
     0
171
     0
290
     0
174
     0
 93
        1
 44
0.0
173
     0
291
     1
 45
0.0
1001
ACAD
1000
AcDbSavedByObjectVersion
1070
     0
  0
VISUALSTYLE
  5
49B
102
{ACAD_REACTORS
330
492
102
}
330
492
100
AcDbVisualStyle
  2
Conceptual
 70
     9
 71
     3
 72
     2
 73
     0
 90
        0
 40
-0.6
 41
-30.0
 62
     5
 63
     7
 74
     2
 91
        2
 64
     7
 65
   257
 75
     1
175
     1
 42
40.0
 92
        8
 66
     7
 43
1.0
 76
     1
 77
     6
 78
     2
 67
     7
 79
     3
170
     0
171
     0
290
     0
174
     0
 93
        1
 44
0.0
173
     0
291
     0
 45
0.0
1001
ACAD
1000
AcDbSavedByObjectVersion
1070
     0
  0
VISUALSTYLE
  5
49D
102
{ACAD_REACTORS
330
492
102
}
330
492
100
AcDbVisualStyle
  2
Dim
 70
    11
 71
     2
 72
     2
 73
     0
 90
        0
 40
-0.6
 41
-30.0
 62
     5
 63
     7
 74
     1
 91
        4
 64
     7
 65
   257
 75
     1
175
     1
 42
1.0
 92
        8
 66
     7
 43
1.0
 76
     1
 77
     6
 78
     2
 67
     7
 79
     5
170
     0
171
     0
290
     0
174
     0
 93
        1
 44
-50.0
173
     0
291
     1
 45
0.0
1001
ACAD
1000
AcDbSavedByObjectVersion
1070
     0
  0
VISUALSTYLE
  5
4A1
102
{ACAD_REACTORS
330
492
102
}
330
492
100
AcDbVisualStyle
  2
Facepattern
 70
    15
 71
     2
 72
     2
 73
     0
 90
        0
 40
-0.6
 41
-30.0
 62
     5
 63
     7
 74
     1
 91
        4
 64
     7
 65
   257
 75
     1
175
     1
 42
1.0
 92
        8
 66
     7
 43
1.0
 76
     1
 77
     6
 78
     2
 67
     7
 79
     5
170
     0
171
     0
290
     0
174
     0
 93
        1
 44
0.0
173
     0
291
     1
 45
0.0
1001
ACAD
1000
AcDbSavedByObjectVersion
1070
     0
  0
VISUALSTYLE
  5
493
102
{ACAD_REACTORS
330
492
102
}
330
492
100
AcDbVisualStyle
  2
Flat
 70
     0
 71
     2
 72
     1
 73
     1
 90
        2
 40
-0.6
 41
30.0
 62
     5
 63
     7
 74
     0
 91
        4
 64
     7
 65
   257
 75
     1
175
     1
 42
1.0
 92
        8
 66
     7
 43
1.0
 76
     1
 77
     6
 78
     2
 67
     7
 79
     5
170
     0
171
     0
290
     0
174
     0
 93
       13
 44
0.0
173
     0
291
     1
 45
0.0
1001
ACAD
1000
AcDbSavedByObjectVersion
1070
     0
  0
VISUALSTYLE
  5
494
102
{ACAD_REACTORS
330
492
102
}
330
492
100
AcDbVisualStyle
  2
FlatWithEdges
 70
     1
 71
     2
 72
     1
 73
     1
 90
        2
 40
-0.6
 41
30.0
 62
     5
 63
     7
 74
     1
 91
        4
 64
     7
 65
   257
 75
     1
175
     1
 42
1.0
 92
        0
 66
   257
 43
1.0
 76
     1
 77
     6
 78
     2
 67
     7
 79
     5
170
     0
171
     0
290
     0
174
     0
 93
       13
 44
0.0
173
     0
291
     1
 45
0.0
1001
ACAD
1000
AcDbSavedByObjectVersion
1070
     0
  0
VISUALSTYLE
  5
495
102
{ACAD_REACTORS
330
492
102
}
330
492
100
AcDbVisualStyle
  2
Gouraud
 70
     2
 71
     2
 72
     2
 73
     1
 90
        2
 40
-0.6
 41
30.0
 62
     5
 63
     7
 74
     0
 91
        4
 64
     7
 65
   257
 75
     1
175
     1
 42
1.0
 92
        0
 66
     7
 43
1.0
 76
     1
 77
     6
 78
     2
 67
     7
 79
     5
170
     0
171
     0
290
     0
174
     0
 93
       13
 44
0.0
173
     0
291
     1
 45
0.0
1001
ACAD
1000
AcDbSavedByObjectVersion
1070
     0
  0
VISUALSTYLE
  5
496
102
{ACAD_REACTORS
330
492
102
}
330
492
100
AcDbVisualStyle
  2
GouraudWithEdges
 70
     3
 71
     2
 72
     2
 73
     1
 90
        2
 40
-0.6
 41
30.0
 62
     5
 63
     7
 74
     1
 91
        4
 64
     7
 65
   257
 75
     1
175
     1
 42
1.0
 92
        0
 66
   257
 43
1.0
 76
     1
 77
     6
 78
     2
 67
     7
 79
     5
170
     0
171
     0
290
     0
174
     0
 93
       13
 44
0.0
173
     0
291
     1
 45
0.0
1001
ACAD
1000
AcDbSavedByObjectVersion
1070
     0
  0
VISUALSTYLE
  5
4A0
102
{ACAD_REACTORS
330
492
102
}
330
492
100
AcDbVisualStyle
  2
Linepattern
 70
    14
 71
     2
 72
     2
 73
     0
 90
        0
 40
-0.6
 41
-30.0
 62
     5
 63
     7
 74
     1
 91
        4
 64
     7
 65
   257
 75
     7
175
     7
 42
1.0
 92
        8
 66
     7
 43
1.0
 76
     1
 77
     6
 78
     2
 67
     7
 79
     5
170
     0
171
     0
290
     0
174
     0
 93
        1
 44
0.0
173
     0
291
     1
 45
0.0
1001
ACAD
1000
AcDbSavedByObjectVersion
1070
     0
  0
VISUALSTYLE
  5
49C
102
{ACAD_REACTORS
330
492
102
}
330
492
100
AcDbVisualStyle
  2
Realistic
 70
     8
 71
     2
 72
     2
 73
     0
 90
        0
 40
-0.6
 41
-30.0
 62
     5
 63
     7
 74
     1
 91
        0
 64
     7
 65
   257
 75
     1
175
     1
 42
1.0
 92
        8
 66
     8
 43
1.0
 76
     1
 77
     6
 78
     2
 67
     7
 79
     5
170
     0
171
     0
290
     0
174
     0
 93
       13
 44
0.0
173
     0
291
     0
 45
0.0
1001
ACAD
1000
AcDbSavedByObjectVersion
1070
     0
  0
VISUALSTYLE
  5
49F
102
{ACAD_REACTORS
330
492
102
}
330
492
100
AcDbVisualStyle
  2
Thicken
 70
    13
 71
     2
 72
     2
 73
     0
 90
        0
 40
-0.6
 41
-30.0
 62
     5
 63
     7
 74
     1
 91
        4
 64
     7
 65
   257
 75
     1
175
     1
 42
1.0
 92
       12
 66
     7
 43
1.0
 76
     1
 77
     6
 78
     2
 67
     7
 79
     5
170
     0
171
     0
290
     0
174
     0
 93
        1
 44
0.0
173
     0
291
     1
 45
0.0
1001
ACAD
1000
AcDbSavedByObjectVersion
1070
     0
  0
DICTIONARYVAR
  5
91A
102
{ACAD_REACTORS
330
916
102
}
330
916
100
DictionaryVariables
280
     0
  1
1:1
  0
DICTIONARYVAR
  5
918
102
{ACAD_REACTORS
330
916
102
}
330
916
100
DictionaryVariables
280
     0
  1
STANDARD
  0
DICTIONARYVAR
  5
917
102
{ACAD_REACTORS
330
916
102
}
330
916
100
DictionaryVariables
280
     0
  1
STANDARD
  0
DICTIONARYVAR
  5
922
102
{ACAD_REACTORS
330
916
102
}
330
916
100
DictionaryVariables
280
     0
  1
1
  0
DICTIONARYVAR
  5
921
102
{ACAD_REACTORS
330
916
102
}
330
916
100
DictionaryVariables
280
     0
  1
0
  0
DICTIONARYVAR
  5
91B
102
{ACAD_REACTORS
330
916
102
}
330
916
100
DictionaryVariables
280
     0
  1
0
  0
DICTIONARYVAR
  5
919
102
{ACAD_REACTORS
330
916
102
}
330
916
100
DictionaryVariables
280
     0
  1
0
  0
DICTIONARYVAR
  5
920
102
{ACAD_REACTORS
330
916
102
}
330
916
100
DictionaryVariables
280
     0
  1
127
  0
DICTIONARY
  5
925
330
1E
100
AcDbDictionary
280
     1
281
     1
  3
ACAD_XREC_ROUNDTRIP
360
926
  0
DICTIONARY
  5
929
330
26
100
AcDbDictionary
280
     1
281
     1
  3
ACAD_XREC_ROUNDTRIP
360
92A
  0
DICTIONARY
  5
927
330
22
100
AcDbDictionary
280
     1
281
     1
  3
ACAD_XREC_ROUNDTRIP
360
928
  0
DICTIONARY
  5
483
330
482
100
AcDbDictionary
280
     1
281
     1
  3
ACAD_XREC_ROUNDTRIP
360
92C
  3
BUMPTILE
360
485
  3
DIFFUSETILE
360
484
  3
OPACITYTILE
360
488
  3
REFLECTIONTILE
360
487
  3
REFRACTIONTILE
360
489
  3
SPECULARTILE
360
486
  0
DICTIONARY
  5
47B
330
47A
100
AcDbDictionary
280
     1
281
     1
  3
ACAD_XREC_ROUNDTRIP
360
92B
  3
BUMPTILE
360
47D
  3
DIFFUSETILE
360
47C
  3
OPACITYTILE
360
480
  3
REFLECTIONTILE
360
47F
  3
REFRACTIONTILE
360
481
  3
SPECULARTILE
360
47E
  0
DICTIONARY
  5
48B
330
48A
100
AcDbDictionary
280
     1
281
     1
  3
ACAD_XREC_ROUNDTRIP
360
92D
  3
BUMPTILE
360
48D
  3
DIFFUSETILE
360
48C
  3
OPACITYTILE
360
490
  3
REFLECTIONTILE
360
48F
  3
REFRACTIONTILE
360
491
  3
SPECULARTILE
360
48E
  0
DICTIONARY
  5
913
330
4A5
100
AcDbDictionary
280
     1
281
     1
  3
ACAD_ROUNDTRIP_2008_TABLESTYLE_CELLSTYLEMAP
360
923
  3
ACAD_XREC_ROUNDTRIP
360
92E
  0
XRECORD
  5
926
102
{ACAD_REACTORS
330
925
102
}
330
925
100
AcDbXrecord
280
     1
102
SHADEPLOT
 70
     0
102
SHADEPLOTRESLEVEL
 70
     2
102
SHADEPLOTCUSTOMDPI
 70
   300
  0
XRECORD
  5
92A
102
{ACAD_REACTORS
330
929
102
}
330
929
100
AcDbXrecord
280
     1
102
SHADEPLOT
 70
     0
102
SHADEPLOTRESLEVEL
 70
     2
102
SHADEPLOTCUSTOMDPI
 70
   300
  0
XRECORD
  5
928
102
{ACAD_REACTORS
330
927
102
}
330
927
100
AcDbXrecord
280
     1
102
SHADEPLOT
 70
     0
102
SHADEPLOTRESLEVEL
 70
     2
102
SHADEPLOTCUSTOMDPI
 70
   300
  0
XRECORD
  5
92C
102
{ACAD_REACTORS
330
483
102
}
330
483
100
AcDbXrecord
280
     1
102
MATERIAL
148
0.0
149
0.0
149
0.0
 93
        0
 94
      127
282
     0
 72
     0
 77
     0
171
     0
175
     0
179
     0
273
     0
  0
XRECORD
  5
485
102
{ACAD_REACTORS
330
483
102
}
330
483
100
AcDbXrecord
280
     1
270
     1
271
     1
  0
XRECORD
  5
484
102
{ACAD_REACTORS
330
483
102
}
330
483
100
AcDbXrecord
280
     1
270
     1
271
     1
  0
XRECORD
  5
488
102
{ACAD_REACTORS
330
483
102
}
330
483
100
AcDbXrecord
280
     1
270
     1
271
     1
  0
XRECORD
  5
487
102
{ACAD_REACTORS
330
483
102
}
330
483
100
AcDbXrecord
280
     1
270
     1
271
     1
  0
XRECORD
  5
489
102
{ACAD_REACTORS
330
483
102
}
330
483
100
AcDbXrecord
280
     1
270
     1
271
     1
  0
XRECORD
  5
486
102
{ACAD_REACTORS
330
483
102
}
330
483
100
AcDbXrecord
280
     1
270
     1
271
     1
  0
XRECORD
  5
92B
102
{ACAD_REACTORS
330
47B
102
}
330
47B
100
AcDbXrecord
280
     1
102
MATERIAL
148
0.0
149
0.0
149
0.0
 93
        0
 94
      127
282
     0
 72
     0
 77
     0
171
     0
175
     0
179
     0
273
     0
  0
XRECORD
  5
47D
102
{ACAD_REACTORS
330
47B
102
}
330
47B
100
AcDbXrecord
280
     1
270
     1
271
     1
  0
XRECORD
  5
47C
102
{ACAD_REACTORS
330
47B
102
}
330
47B
100
AcDbXrecord
280
     1
270
     1
271
     1
  0
XRECORD
  5
480
102
{ACAD_REACTORS
330
47B
102
}
330
47B
100
AcDbXrecord
280
     1
270
     1
271
     1
  0
XRECORD
  5
47F
102
{ACAD_REACTORS
330
47B
102
}
330
47B
100
AcDbXrecord
280
     1
270
     1
271
     1
  0
XRECORD
  5
481
102
{ACAD_REACTORS
330
47B
102
}
330
47B
100
AcDbXrecord
280
     1
270
     1
271
     1
  0
XRECORD
  5
47E
102
{ACAD_REACTORS
330
47B
102
}
330
47B
100
AcDbXrecord
280
     1
270
     1
271
     1
  0
XRECORD
  5
92D
102
{ACAD_REACTORS
330
48B
102
}
330
48B
100
AcDbXrecord
280
     1
102
MATERIAL
148
0.0
149
0.0
149
0.0
 93
        0
 94
      127
282
     0
 72
     0
 77
     0
171
     0
175
     0
179
     0
273
     0
  0
XRECORD
  5
48D
102
{ACAD_REACTORS
330
48B
102
}
330
48B
100
AcDbXrecord
280
     1
270
     1
271
     1
  0
XRECORD
  5
48C
102
{ACAD_REACTORS
330
48B
102
}
330
48B
100
AcDbXrecord
280
     1
270
     1
271
     1
  0
XRECORD
  5
490
102
{ACAD_REACTORS
330
48B
102
}
330
48B
100
AcDbXrecord
280
     1
270
     1
271
     1
  0
XRECORD
  5
48F
102
{ACAD_REACTORS
330
48B
102
}
330
48B
100
AcDbXrecord
280
     1
270
     1
271
     1
  0
XRECORD
  5
491
102
{ACAD_REACTORS
330
48B
102
}
330
48B
100
AcDbXrecord
280
     1
270
     1
271
     1
  0
XRECORD
  5
48E
102
{ACAD_REACTORS
330
48B
102
}
330
48B
100
AcDbXrecord
280
     1
270
     1
271
     1
  0
CELLSTYLEMAP
  5
923
102
{ACAD_REACTORS
330
913
102
}
330
913
100
AcDbCellStyleMap
 90
        3
300
CELLSTYLE
  1
TABLEFORMAT_BEGIN
 90
        5
170
     1
 91
        0
 92
    32768
 62
   257
 93
        1
300
CONTENTFORMAT
  1
CONTENTFORMAT_BEGIN
 90
        0
 91
        0
 92
      512
 93
        0
300

 40
0.0
140
1.0
 94
        5
 62
     0
340
11
144
6.0
309
CONTENTFORMAT_END
171
     1
301
MARGIN
  1
CELLMARGIN_BEGIN
 40
1.5
 40
1.5
 40
1.5
 40
1.5
 40
4.5
 40
4.5
309
CELLMARGIN_END
 94
        6
 95
        1
302
GRIDFORMAT
  1
GRIDFORMAT_BEGIN
 90
        0
 91
        1
 62
     0
 92
       -2
340
0
 93
        0
 40
1.125
309
GRIDFORMAT_END
 95
        2
302
GRIDFORMAT
  1
GRIDFORMAT_BEGIN
 90
        0
 91
        1
 62
     0
 92
       -2
340
0
 93
        0
 40
1.125
309
GRIDFORMAT_END
 95
        4
302
GRIDFORMAT
  1
GRIDFORMAT_BEGIN
 90
        0
 91
        1
 62
     0
 92
       -2
340
0
 93
        0
 40
1.125
309
GRIDFORMAT_END
 95
        8
302
GRIDFORMAT
  1
GRIDFORMAT_BEGIN
 90
        0
 91
        1
 62
     0
 92
       -2
340
0
 93
        0
 40
1.125
309
GRIDFORMAT_END
 95
       16
302
GRIDFORMAT
  1
GRIDFORMAT_BEGIN
 90
        0
 91
        1
 62
     0
 92
       -2
340
0
 93
        0
 40
1.125
309
GRIDFORMAT_END
 95
       32
302
GRIDFORMAT
  1
GRIDFORMAT_BEGIN
 90
        0
 91
        1
 62
     0
 92
       -2
340
0
 93
        0
 40
1.125
309
GRIDFORMAT_END
309
TABLEFORMAT_END
  1
CELLSTYLE_BEGIN
 90
        1
 91
        1
300
_TITLE
309
CELLSTYLE_END
300
CELLSTYLE
  1
TABLEFORMAT_BEGIN
 90
        5
170
     1
 91
        0
 92
        0
 62
   257
 93
        1
300
CONTENTFORMAT
  1
CONTENTFORMAT_BEGIN
 90
        0
 91
        0
 92
      512
 93
        0
300

 40
0.0
140
1.0
 94
        5
 62
     0
340
11
144
4.5
309
CONTENTFORMAT_END
171
     1
301
MARGIN
  1
CELLMARGIN_BEGIN
 40
1.5
 40
1.5
 40
1.5
 40
1.5
 40
4.5
 40
4.5
309
CELLMARGIN_END
 94
        6
 95
        1
302
GRIDFORMAT
  1
GRIDFORMAT_BEGIN
 90
        0
 91
        1
 62
     0
 92
       -2
340
0
 93
        0
 40
1.125
309
GRIDFORMAT_END
 95
        2
302
GRIDFORMAT
  1
GRIDFORMAT_BEGIN
 90
        0
 91
        1
 62
     0
 92
       -2
340
0
 93
        0
 40
1.125
309
GRIDFORMAT_END
 95
        4
302
GRIDFORMAT
  1
GRIDFORMAT_BEGIN
 90
        0
 91
        1
 62
     0
 92
       -2
340
0
 93
        0
 40
1.125
309
GRIDFORMAT_END
 95
        8
302
GRIDFORMAT
  1
GRIDFORMAT_BEGIN
 90
        0
 91
        1
 62
     0
 92
       -2
340
0
 93
        0
 40
1.125
309
GRIDFORMAT_END
 95
       16
302
GRIDFORMAT
  1
GRIDFORMAT_BEGIN
 90
        0
 91
        1
 62
     0
 92
       -2
340
0
 93
        0
 40
1.125
309
GRIDFORMAT_END
 95
       32
302
GRIDFORMAT
  1
GRIDFORMAT_BEGIN
 90
        0
 91
        1
 62
     0
 92
       -2
340
0
 93
        0
 40
1.125
309
GRIDFORMAT_END
309
TABLEFORMAT_END
  1
CELLSTYLE_BEGIN
 90
        2
 91
        1
300
_HEADER
309
CELLSTYLE_END
300
CELLSTYLE
  1
TABLEFORMAT_BEGIN
 90
        5
170
     1
 91
        0
 92
        0
 62
   257
 93
        1
300
CONTENTFORMAT
  1
CONTENTFORMAT_BEGIN
 90
        0
 91
        0
 92
      512
 93
        0
300

 40
0.0
140
1.0
 94
        2
 62
     0
340
11
144
4.5
309
CONTENTFORMAT_END
171
     1
301
MARGIN
  1
CELLMARGIN_BEGIN
 40
1.5
 40
1.5
 40
1.5
 40
1.5
 40
4.5
 40
4.5
309
CELLMARGIN_END
 94
        6
 95
        1
302
GRIDFORMAT
  1
GRIDFORMAT_BEGIN
 90
        0
 91
        1
 62
     0
 92
       -2
340
0
 93
        0
 40
1.125
309
GRIDFORMAT_END
 95
        2
302
GRIDFORMAT
  1
GRIDFORMAT_BEGIN
 90
        0
 91
        1
 62
     0
 92
       -2
340
0
 93
        0
 40
1.125
309
GRIDFORMAT_END
 95
        4
302
GRIDFORMAT
  1
GRIDFORMAT_BEGIN
 90
        0
 91
        1
 62
     0
 92
       -2
340
0
 93
        0
 40
1.125
309
GRIDFORMAT_END
 95
        8
302
GRIDFORMAT
  1
GRIDFORMAT_BEGIN
 90
        0
 91
        1
 62
     0
 92
       -2
340
0
 93
        0
 40
1.125
309
GRIDFORMAT_END
 95
       16
302
GRIDFORMAT
  1
GRIDFORMAT_BEGIN
 90
        0
 91
        1
 62
     0
 92
       -2
340
0
 93
        0
 40
1.125
309
GRIDFORMAT_END
 95
       32
302
GRIDFORMAT
  1
GRIDFORMAT_BEGIN
 90
        0
 91
        1
 62
     0
 92
       -2
340
0
 93
        0
 40
1.125
309
GRIDFORMAT_END
309
TABLEFORMAT_END
  1
CELLSTYLE_BEGIN
 90
        3
 91
        2
300
_DATA
309
CELLSTYLE_END
  0
XRECORD
  5
92E
102
{ACAD_REACTORS
330
913
102
}
330
913
100
AcDbXrecord
280
     1
102
ACAD_ROUNDTRIP_PRE2007_TABLESTYLE
 90
      512
 91
        0
  1

 92
      512
 93
        0
  2

 94
      512
 95
        0
  3

  0
ENDSEC
  0
EOF
