  0
SECTION
  2
HEADER
  9
$ACADVER
  1
AC1015
  9
$ACADMAINTVER
 70
    20
  9
$DWGCODEPAGE
  3
ANSI_1254
  9
$INSBASE
 10
0.0
 20
0.0
 30
0.0
  9
$EXTMIN
 10
2321.943656807571
 20
837.4396024690115
 30
0.0
  9
$EXTMAX
 10
2421.651290462065
 20
883.0189150170806
 30
0.0
  9
$LIMMIN
 10
0.0
 20
0.0
  9
$LIMMAX
 10
420.0
 20
297.0
  9
$ORTHOMODE
 70
     0
  9
$REGENMODE
 70
     1
  9
$FILLMODE
 70
     1
  9
$QTEXTMODE
 70
     0
  9
$MIRRTEXT
 70
     0
  9
$LTSCALE
 40
1.0
  9
$ATTMODE
 70
     1
  9
$TEXTSIZE
 40
2.5
  9
$TRACEWID
 40
1.0
  9
$TEXTSTYLE
  7
Standard
  9
$CLAYER
  8
0
  9
$CELTYPE
  6
ByLayer
  9
$CECOLOR
 62
   256
  9
$CELTSCALE
 40
1.0
  9
$DISPSILH
 70
     0
  9
$DIMSCALE
 40
1.0
  9
$DIMASZ
 40
2.5
  9
$DIMEXO
 40
0.625
  9
$DIMDLI
 40
3.75
  9
$DIMRND
 40
0.0
  9
$DIMDLE
 40
0.0
  9
$DIMEXE
 40
1.25
  9
$DIMTP
 40
0.0
  9
$DIMTM
 40
0.0
  9
$DIMTXT
 40
2.5
  9
$DIMCEN
 40
2.5
  9
$DIMTSZ
 40
0.0
  9
$DIMTOL
 70
     0
  9
$DIMLIM
 70
     0
  9
$DIMTIH
 70
     0
  9
$DIMTOH
 70
     0
  9
$DIMSE1
 70
     0
  9
$DIMSE2
 70
     0
  9
$DIMTAD
 70
     1
  9
$DIMZIN
 70
     8
  9
$DIMBLK
  1

  9
$DIMASO
 70
     1
  9
$DIMSHO
 70
     1
  9
$DIMPOST
  1

  9
$DIMAPOST
  1

  9
$DIMALT
 70
     0
  9
$DIMALTD
 70
     3
  9
$DIMALTF
 40
0.03937007874016
  9
$DIMLFAC
 40
1.0
  9
$DIMTOFL
 70
     1
  9
$DIMTVP
 40
0.0
  9
$DIMTIX
 70
     0
  9
$DIMSOXD
 70
     0
  9
$DIMSAH
 70
     0
  9
$DIMBLK1
  1

  9
$DIMBLK2
  1

  9
$DIMSTYLE
  2
ISO-25
  9
$DIMCLRD
 70
     0
  9
$DIMCLRE
 70
     0
  9
$DIMCLRT
 70
     0
  9
$DIMTFAC
 40
1.0
  9
$DIMGAP
 40
0.625
  9
$DIMJUST
 70
     0
  9
$DIMSD1
 70
     0
  9
$DIMSD2
 70
     0
  9
$DIMTOLJ
 70
     0
  9
$DIMTZIN
 70
     8
  9
$DIMALTZ
 70
     0
  9
$DIMALTTZ
 70
     0
  9
$DIMUPT
 70
     0
  9
$DIMDEC
 70
     2
  9
$DIMTDEC
 70
     2
  9
$DIMALTU
 70
     2
  9
$DIMALTTD
 70
     3
  9
$DIMTXSTY
  7
Standard
  9
$DIMAUNIT
 70
     0
  9
$DIMADEC
 70
     0
  9
$DIMALTRND
 40
0.0
  9
$DIMAZIN
 70
     0
  9
$DIMDSEP
 70
    44
  9
$DIMATFIT
 70
     3
  9
$DIMFRAC
 70
     0
  9
$DIMLDRBLK
  1

  9
$DIMLUNIT
 70
     2
  9
$DIMLWD
 70
    -2
  9
$DIMLWE
 70
    -2
  9
$DIMTMOVE
 70
     0
  9
$LUNITS
 70
     2
  9
$LUPREC
 70
     4
  9
$SKETCHINC
 40
1.0
  9
$FILLETRAD
 40
0.0
  9
$AUNITS
 70
     0
  9
$AUPREC
 70
     0
  9
$MENU
  1
.
  9
$ELEVATION
 40
0.0
  9
$PELEVATION
 40
0.0
  9
$THICKNESS
 40
0.0
  9
$LIMCHECK
 70
     0
  9
$CHAMFERA
 40
0.0
  9
$CHAMFERB
 40
0.0
  9
$CHAMFERC
 40
0.0
  9
$CHAMFERD
 40
0.0
  9
$SKPOLY
 70
     0
  9
$TDCREATE
 40
2458933.649413009
  9
$TDUCREATE
 40
2458933.524413009
  9
$TDUPDATE
 40
2458956.450153229
  9
$TDUUPDATE
 40
2458956.325153229
  9
$TDINDWG
 40
0.0019448495
  9
$TDUSRTIMER
 40
0.0019448495
  9
$USRTIMER
 70
     1
  9
$ANGBASE
 50
0.0
  9
$ANGDIR
 70
     0
  9
$PDMODE
 70
     0
  9
$PDSIZE
 40
0.0
  9
$PLINEWID
 40
0.0
  9
$SPLFRAME
 70
     0
  9
$SPLINETYPE
 70
     6
  9
$SPLINESEGS
 70
     8
  9
$HANDSEED
  5
78F
  9
$SURFTAB1
 70
     6
  9
$SURFTAB2
 70
     6
  9
$SURFTYPE
 70
     6
  9
$SURFU
 70
     6
  9
$SURFV
 70
     6
  9
$UCSBASE
  2

  9
$UCSNAME
  2

  9
$UCSORG
 10
0.0
 20
0.0
 30
0.0
  9
$UCSXDIR
 10
1.0
 20
0.0
 30
0.0
  9
$UCSYDIR
 10
0.0
 20
1.0
 30
0.0
  9
$UCSORTHOREF
  2

  9
$UCSORTHOVIEW
 70
     0
  9
$UCSORGTOP
 10
0.0
 20
0.0
 30
0.0
  9
$UCSORGBOTTOM
 10
0.0
 20
0.0
 30
0.0
  9
$UCSORGLEFT
 10
0.0
 20
0.0
 30
0.0
  9
$UCSORGRIGHT
 10
0.0
 20
0.0
 30
0.0
  9
$UCSORGFRONT
 10
0.0
 20
0.0
 30
0.0
  9
$UCSORGBACK
 10
0.0
 20
0.0
 30
0.0
  9
$PUCSBASE
  2

  9
$PUCSNAME
  2

  9
$PUCSORG
 10
0.0
 20
0.0
 30
0.0
  9
$PUCSXDIR
 10
1.0
 20
0.0
 30
0.0
  9
$PUCSYDIR
 10
0.0
 20
1.0
 30
0.0
  9
$PUCSORTHOREF
  2

  9
$PUCSORTHOVIEW
 70
     0
  9
$PUCSORGTOP
 10
0.0
 20
0.0
 30
0.0
  9
$PUCSORGBOTTOM
 10
0.0
 20
0.0
 30
0.0
  9
$PUCSORGLEFT
 10
0.0
 20
0.0
 30
0.0
  9
$PUCSORGRIGHT
 10
0.0
 20
0.0
 30
0.0
  9
$PUCSORGFRONT
 10
0.0
 20
0.0
 30
0.0
  9
$PUCSORGBACK
 10
0.0
 20
0.0
 30
0.0
  9
$USERI1
 70
     0
  9
$USERI2
 70
     0
  9
$USERI3
 70
     0
  9
$USERI4
 70
     0
  9
$USERI5
 70
     0
  9
$USERR1
 40
0.0
  9
$USERR2
 40
0.0
  9
$USERR3
 40
0.0
  9
$USERR4
 40
0.0
  9
$USERR5
 40
0.0
  9
$WORLDVIEW
 70
     1
  9
$SHADEDGE
 70
     3
  9
$SHADEDIF
 70
    70
  9
$TILEMODE
 70
     1
  9
$MAXACTVP
 70
    64
  9
$PINSBASE
 10
0.0
 20
0.0
 30
0.0
  9
$PLIMCHECK
 70
     0
  9
$PEXTMIN
 10
0.0
 20
0.0
 30
0.0
  9
$PEXTMAX
 10
0.0
 20
0.0
 30
0.0
  9
$PLIMMIN
 10
0.0
 20
0.0
  9
$PLIMMAX
 10
12.0
 20
9.0
  9
$UNITMODE
 70
     0
  9
$VISRETAIN
 70
     1
  9
$PLINEGEN
 70
     0
  9
$PSLTSCALE
 70
     1
  9
$TREEDEPTH
 70
  3020
  9
$CMLSTYLE
  2
Standard
  9
$CMLJUST
 70
     0
  9
$CMLSCALE
 40
20.0
  9
$PROXYGRAPHICS
 70
     1
  9
$MEASUREMENT
 70
     1
  9
$CELWEIGHT
370
    -1
  9
$ENDCAPS
280
     0
  9
$JOINSTYLE
280
     0
  9
$LWDISPLAY
290
     0
  9
$INSUNITS
 70
     4
  9
$HYPERLINKBASE
  1

  9
$STYLESHEET
  1

  9
$XEDIT
290
     1
  9
$CEPSNTYPE
380
     0
  9
$PSTYLEMODE
290
     1
  9
$FINGERPRINTGUID
  2
{AB76791A-8267-465B-AEB8-5A582A884ECE}
  9
$VERSIONGUID
  2
{6C95BC92-E1E6-44FE-A07B-08A80583CA81}
  9
$EXTNAMES
290
     1
  9
$PSVPSCALE
 40
0.0
  9
$OLESTARTUP
290
     0
  0
ENDSEC
  0
SECTION
  2
CLASSES
  0
CLASS
  1
ACDBDICTIONARYWDFLT
  2
AcDbDictionaryWithDefault
  3
ObjectDBX Classes
 90
        0
280
     0
281
     0
  0
CLASS
  1
ACDBPLACEHOLDER
  2
AcDbPlaceHolder
  3
ObjectDBX Classes
 90
        0
280
     0
281
     0
  0
CLASS
  1
LAYOUT
  2
AcDbLayout
  3
ObjectDBX Classes
 90
        0
280
     0
281
     0
  0
CLASS
  1
DICTIONARYVAR
  2
AcDbDictionaryVar
  3
ObjectDBX Classes
 90
        0
280
     0
281
     0
  0
CLASS
  1
TABLESTYLE
  2
AcDbTableStyle
  3
ObjectDBX Classes
 90
     4095
280
     0
281
     0
  0
CLASS
  1
MATERIAL
  2
AcDbMaterial
  3
ObjectDBX Classes
 90
     1153
280
     0
281
     0
  0
CLASS
  1
VISUALSTYLE
  2
AcDbVisualStyle
  3
ObjectDBX Classes
 90
     4095
280
     0
281
     0
  0
CLASS
  1
SCALE
  2
AcDbScale
  3
ObjectDBX Classes
 90
     1153
280
     0
281
     0
  0
CLASS
  1
MLEADERSTYLE
  2
AcDbMLeaderStyle
  3
ACDB_MLEADERSTYLE_CLASS
 90
     4095
280
     0
281
     0
  0
CLASS
  1
CELLSTYLEMAP
  2
AcDbCellStyleMap
  3
ObjectDBX Classes
 90
     1152
280
     0
281
     0
  0
ENDSEC
  0
SECTION
  2
TABLES
  0
TABLE
  2
VPORT
  5
8
330
0
100
AcDbSymbolTable
 70
     1
  0
VPORT
  5
EA
330
8
100
AcDbSymbolTableRecord
100
AcDbViewportTableRecord
  2
*Active
 70
     0
 10
0.0
 20
0.0
 11
1.0
 21
1.0
 12
2375.69046092011
 22
862.6322082513663
 13
0.0
 23
0.0
 14
10.0
 24
10.0
 15
10.0
 25
10.0
 16
0.0
 26
0.0
 36
1.0
 17
0.0
 27
0.0
 37
0.0
 40
81.88034275056793
 41
1.903110047846889
 42
50.0
 43
0.0
 44
0.0
 50
0.0
 51
0.0
 71
     0
 72
  1000
 73
     1
 74
     3
 75
     0
 76
     0
 77
     0
 78
     0
281
     0
 65
     1
110
0.0
120
0.0
130
0.0
111
1.0
121
0.0
131
0.0
112
0.0
122
1.0
132
0.0
 79
     0
146
0.0
  0
ENDTAB
  0
TABLE
  2
LTYPE
  5
5
330
0
100
AcDbSymbolTable
 70
     1
  0
LTYPE
  5
14
330
5
100
AcDbSymbolTableRecord
100
AcDbLinetypeTableRecord
  2
ByBlock
 70
     0
  3

 72
    65
 73
     0
 40
0.0
  0
LTYPE
  5
15
330
5
100
AcDbSymbolTableRecord
100
AcDbLinetypeTableRecord
  2
ByLayer
 70
     0
  3

 72
    65
 73
     0
 40
0.0
  0
LTYPE
  5
16
330
5
100
AcDbSymbolTableRecord
100
AcDbLinetypeTableRecord
  2
Continuous
 70
     0
  3
Solid line
 72
    65
 73
     0
 40
0.0
  0
ENDTAB
  0
TABLE
  2
LAYER
  5
2
330
0
100
AcDbSymbolTable
 70
     1
  0
LAYER
  5
10
102
{ACAD_XDICTIONARY
360
13C
102
}
330
2
100
AcDbSymbolTableRecord
100
AcDbLayerTableRecord
  2
0
 70
     0
 62
     7
  6
Continuous
370
    -3
390
F
  0
ENDTAB
  0
TABLE
  2
STYLE
  5
3
330
0
100
AcDbSymbolTable
 70
     2
  0
STYLE
  5
11
330
3
100
AcDbSymbolTableRecord
100
AcDbTextStyleTableRecord
  2
Standard
 70
     0
 40
0.0
 41
1.0
 50
0.0
 71
     0
 42
2.5
  3
txt
  4

  0
STYLE
  5
132
330
3
100
AcDbSymbolTableRecord
100
AcDbTextStyleTableRecord
  2
Annotative
 70
     0
 40
0.0
 41
1.0
 50
0.0
 71
     0
 42
2.5
  3
txt.shx
  4

1001
AcadAnnotative
1000
AnnotativeData
1002
{
1070
     1
1070
     1
1002
}
  0
ENDTAB
  0
TABLE
  2
VIEW
  5
6
330
0
100
AcDbSymbolTable
 70
     0
  0
ENDTAB
  0
TABLE
  2
UCS
  5
7
330
0
100
AcDbSymbolTable
 70
     0
  0
ENDTAB
  0
TABLE
  2
APPID
  5
9
330
0
100
AcDbSymbolTable
 70
     7
  0
APPID
  5
12
330
9
100
AcDbSymbolTableRecord
100
AcDbRegAppTableRecord
  2
ACAD
 70
     0
  0
APPID
  5
9E
330
9
100
AcDbSymbolTableRecord
100
AcDbRegAppTableRecord
  2
ACAD_PSEXT
 70
     0
  0
APPID
  5
133
330
9
100
AcDbSymbolTableRecord
100
AcDbRegAppTableRecord
  2
AcadAnnoPO
 70
     0
  0
APPID
  5
134
330
9
100
AcDbSymbolTableRecord
100
AcDbRegAppTableRecord
  2
AcadAnnotative
 70
     0
  0
APPID
  5
135
330
9
100
AcDbSymbolTableRecord
100
AcDbRegAppTableRecord
  2
ACAD_DSTYLE_DIMJAG
 70
     0
  0
APPID
  5
136
330
9
100
AcDbSymbolTableRecord
100
AcDbRegAppTableRecord
  2
ACAD_DSTYLE_DIMTALN
 70
     0
  0
APPID
  5
165
330
9
100
AcDbSymbolTableRecord
100
AcDbRegAppTableRecord
  2
ACAD_MLEADERVER
 70
     0
  0
ENDTAB
  0
TABLE
  2
DIMSTYLE
  5
A
330
0
100
AcDbSymbolTable
 70
     2
100
AcDbDimStyleTable
 71
     2
340
27
340
137
  0
DIMSTYLE
105
27
330
A
100
AcDbSymbolTableRecord
100
AcDbDimStyleTableRecord
  2
ISO-25
 70
     0
 41
2.5
 42
0.625
 43
3.75
 44
1.25
 73
     0
 74
     0
 77
     1
 78
     8
140
2.5
141
2.5
143
0.03937007874016
147
0.625
171
     3
172
     1
271
     2
272
     2
274
     3
278
    44
283
     0
284
     8
340
11
  0
DIMSTYLE
105
137
330
A
100
AcDbSymbolTableRecord
100
AcDbDimStyleTableRecord
  2
Annotative
 70
     0
 40
0.0
 41
2.5
 42
0.625
 43
3.75
 44
1.25
 73
     0
 74
     0
 77
     1
 78
     8
140
2.5
141
2.5
143
0.03937007874016
147
0.625
171
     3
172
     1
271
     2
272
     2
274
     3
278
    44
283
     0
284
     8
340
11
1001
AcadAnnotative
1000
AnnotativeData
1002
{
1070
     1
1070
     1
1002
}
1001
ACAD_DSTYLE_DIMJAG
1070
   388
1040
1.5
1001
ACAD_DSTYLE_DIMTALN
1070
   392
1070
     0
  0
ENDTAB
  0
TABLE
  2
BLOCK_RECORD
  5
1
330
0
100
AcDbSymbolTable
 70
     5
  0
BLOCK_RECORD
  5
1F
330
1
100
AcDbSymbolTableRecord
100
AcDbBlockTableRecord
  2
*Model_Space
340
22
  0
BLOCK_RECORD
  5
D2
330
1
100
AcDbSymbolTableRecord
100
AcDbBlockTableRecord
  2
*Paper_Space
340
D3
  0
BLOCK_RECORD
  5
D6
330
1
100
AcDbSymbolTableRecord
100
AcDbBlockTableRecord
  2
*Paper_Space0
340
D7
  0
BLOCK_RECORD
  5
575
330
1
100
AcDbSymbolTableRecord
100
AcDbBlockTableRecord
  2
1
340
0
310
2800000020000000200000000100080000000000000400000000000000000000000000000000000000000000000080000080000000808000800000008000800080800000C0C0C000C0DCC000F0CAA6000020400000206000002080000020A0000020C0000020E00000400000004020000040400000406000004080000040A0
310
000040C0000040E00000600000006020000060400000606000006080000060A0000060C0000060E00000800000008020000080400000806000008080000080A0000080C0000080E00000A0000000A0200000A0400000A0600000A0800000A0A00000A0C00000A0E00000C0000000C0200000C0400000C0600000C0800000C0
310
A00000C0C00000C0E00000E0000000E0200000E0400000E0600000E0800000E0A00000E0C00000E0E00040000000400020004000400040006000400080004000A0004000C0004000E00040200000402020004020400040206000402080004020A0004020C0004020E000404000004040200040404000404060004040800040
310
40A0004040C0004040E00040600000406020004060400040606000406080004060A0004060C0004060E00040800000408020004080400040806000408080004080A0004080C0004080E00040A0000040A0200040A0400040A0600040A0800040A0A00040A0C00040A0E00040C0000040C0200040C0400040C0600040C08000
310
40C0A00040C0C00040C0E00040E0000040E0200040E0400040E0600040E0800040E0A00040E0C00040E0E00080000000800020008000400080006000800080008000A0008000C0008000E00080200000802020008020400080206000802080008020A0008020C0008020E00080400000804020008040400080406000804080
310
008040A0008040C0008040E00080600000806020008060400080606000806080008060A0008060C0008060E00080800000808020008080400080806000808080008080A0008080C0008080E00080A0000080A0200080A0400080A0600080A0800080A0A00080A0C00080A0E00080C0000080C0200080C0400080C0600080C0
310
800080C0A00080C0C00080C0E00080E0000080E0200080E0400080E0600080E0800080E0A00080E0C00080E0E000C0000000C0002000C0004000C0006000C0008000C000A000C000C000C000E000C0200000C0202000C0204000C0206000C0208000C020A000C020C000C020E000C0400000C0402000C0404000C0406000C0
310
408000C040A000C040C000C040E000C0600000C0602000C0604000C0606000C0608000C060A000C060C000C060E000C0800000C0802000C0804000C0806000C0808000C080A000C080C000C080E000C0A00000C0A02000C0A04000C0A06000C0A08000C0A0A000C0A0C000C0A0E000C0C00000C0C02000C0C04000C0C06000
310
C0C08000C0C0A000F0FBFF00A4A0A000808080000000FF0000FF000000FFFF00FF000000FF00FF00FFFF0000FFFFFF000000000000000000000000000000000000000000000000000000000000000000000000000000000000000000000000000000000000000000000000000000000000000000FFFF0000000000FFFF0000
310
00000000FFFF0000000000FFFF0000000000000000FF00FF00000000FF00FF00000000FF00FF00000000FF00FF00000000000000FF0000FF00000000FF00FF00000000FF00FF00000000FF0000FF000000000000FF0000FF00000000FF00FF00000000FF00FF00000000FF0000FF000000000000FF0000FF00000000FF00FF
310
00000000FF00FF00000000FF0000FF000000000000FF0000FF00000000FF00FF00000000FF00FF00000000FF0000FF000000000000FF0000FF00000000FF00FF00000000FF00FF00000000FF0000FF000000000000FFFFFFFF00000000FFFFFF00000000FFFFFF00000000FFFFFFFF000000000000FFFFFFFF00000000FFFF
310
FF00000000FFFFFF00000000FFFFFFFF000000000000FF0000FF00000000FF00FF00000000FF00FF00000000FF0000FF000000000000FF0000FF00000000FF00FF00000000FF00FF00000000FF0000FF000000000000FF0000FF00000000FF00FF00000000FF00FF00000000FF0000FF000000000000FF0000FF00000000FF
310
00FF00000000FF00FF00000000FF0000FF000000000000FF0000FF00000000FF00FF00000000FF00FF00000000FF0000FF000000000000FFFFFFFFFF0000FFFFFFFFFF0000FFFFFFFFFF0000FFFFFFFFFF000000000000FF000000FF0000FF000000FF0000FF000000FF0000FF000000FF000000000000FF000000FF0000FF
310
000000FF0000FF000000FF0000FF000000FF0000000000FF00FFFFFFFF0000FFFFFFFFFF0000FFFFFFFFFF0000FFFFFFFF00FF00000000FF00FFFFFFFF0000FFFFFFFFFF0000FFFFFFFFFF0000FFFFFFFF00FF00000000FF00000000FF0000FF000000FF0000FF000000FF0000FF00000000FF000000FFFF00000000FFFFFF
310
FF000000FFFFFFFF000000FFFFFFFF00000000FFFF0000FF00000000000000000000000000000000000000000000000000000000FF0000FF00000000000000000000000000000000000000000000000000000000FF0000FF00000000000000000000000000000000000000000000000000000000FF0000FF00000000000000
310
000000000000000000000000000000000000000000FF0000FF00000000000000000000000000000000000000000000000000000000FF0000FFFFFFFFFFFFFFFFFFFFFFFFFFFFFFFFFFFFFFFFFFFFFFFFFFFFFFFFFFFF0000FFFFFFFFFFFFFFFFFFFFFFFFFFFFFFFFFFFFFFFFFFFFFFFFFFFFFFFFFFFF000000000000000000
310
0000000000000000000000000000000000000000000000000000000000000000000000000000000000000000000000000000000000000000
102
{BLKREFS
331
607
102
}
1001
ACAD
1000
DesignCenter Data
1002
{
1070
     1
1070
     4
1002
}
  0
BLOCK_RECORD
  5
608
330
1
100
AcDbSymbolTableRecord
100
AcDbBlockTableRecord
  2
2
340
0
310
2800000020000000200000000100080000000000000400000000000000000000000000000000000000000000000080000080000000808000800000008000800080800000C0C0C000C0DCC000F0CAA6000020400000206000002080000020A0000020C0000020E00000400000004020000040400000406000004080000040A0
310
000040C0000040E00000600000006020000060400000606000006080000060A0000060C0000060E00000800000008020000080400000806000008080000080A0000080C0000080E00000A0000000A0200000A0400000A0600000A0800000A0A00000A0C00000A0E00000C0000000C0200000C0400000C0600000C0800000C0
310
A00000C0C00000C0E00000E0000000E0200000E0400000E0600000E0800000E0A00000E0C00000E0E00040000000400020004000400040006000400080004000A0004000C0004000E00040200000402020004020400040206000402080004020A0004020C0004020E000404000004040200040404000404060004040800040
310
40A0004040C0004040E00040600000406020004060400040606000406080004060A0004060C0004060E00040800000408020004080400040806000408080004080A0004080C0004080E00040A0000040A0200040A0400040A0600040A0800040A0A00040A0C00040A0E00040C0000040C0200040C0400040C0600040C08000
310
40C0A00040C0C00040C0E00040E0000040E0200040E0400040E0600040E0800040E0A00040E0C00040E0E00080000000800020008000400080006000800080008000A0008000C0008000E00080200000802020008020400080206000802080008020A0008020C0008020E00080400000804020008040400080406000804080
310
008040A0008040C0008040E00080600000806020008060400080606000806080008060A0008060C0008060E00080800000808020008080400080806000808080008080A0008080C0008080E00080A0000080A0200080A0400080A0600080A0800080A0A00080A0C00080A0E00080C0000080C0200080C0400080C0600080C0
310
800080C0A00080C0C00080C0E00080E0000080E0200080E0400080E0600080E0800080E0A00080E0C00080E0E000C0000000C0002000C0004000C0006000C0008000C000A000C000C000C000E000C0200000C0202000C0204000C0206000C0208000C020A000C020C000C020E000C0400000C0402000C0404000C0406000C0
310
408000C040A000C040C000C040E000C0600000C0602000C0604000C0606000C0608000C060A000C060C000C060E000C0800000C0802000C0804000C0806000C0808000C080A000C080C000C080E000C0A00000C0A02000C0A04000C0A06000C0A08000C0A0A000C0A0C000C0A0E000C0C00000C0C02000C0C04000C0C06000
310
C0C08000C0C0A000F0FBFF00A4A0A000808080000000FF0000FF000000FFFF00FF000000FF00FF00FFFF0000FFFFFF0000000000000000000000000000000000000000000000000000000000000000000000000000000000000000000000FFFFFFFF00000000000000000000000000000000000000000000000000000000FF
310
FFFFFF00000000000000000000000000000000000000000000000000000000FF0000FF00000000000000000000000000000000000000000000000000000000FFFFFFFF00000000000000000000000000000000000000000000000000000000FF0000FF00000000000000000000000000000000000000000000000000000000
310
FF0000FF00000000000000000000000000000000000000000000000000000000FF0000FF00000000000000000000000000000000000000000000000000000000FF0000FF00000000000000000000000000000000000000000000000000000000FFFFFFFF000000000000000000000000000000000000000000000000000000
310
0000FFFF000000000000000000000000000000000000000000000000000000000000FFFF000000000000000000000000000000000000000000000000000000000000FFFF000000000000000000000000000000000000000000000000000000000000FFFF000000000000000000000000000000000000000000000000000000
310
000000FFFF000000000000000000000000000000000000000000000000000000000000FFFF0000000000000000000000000000000000000000000000000000000000FFFFFFFF00000000000000000000000000000000000000000000000000000000FF0000FF00000000000000000000000000000000000000000000000000
310
000000FFFFFFFF00000000000000000000000000000000000000000000000000000000FFFFFFFF00000000000000000000000000000000000000000000000000000000FF0000FF00000000000000000000000000000000000000000000000000000000FF0000FF000000000000000000000000000000000000000000000000
310
00000000FFFFFFFF00000000000000000000000000000000000000000000000000000000FF0000FF00000000000000000000000000000000000000000000000000000000FF0000FF00000000000000000000000000000000000000000000000000000000FF0000FF0000000000000000000000000000000000000000000000
310
0000000000FF0000FF00000000000000000000000000000000000000000000000000000000FF0000FF000000000000000000000000000000000000000000000000000000FFFF0000FFFF0000000000000000000000000000000000000000000000000000FF00000000FF000000000000000000000000000000000000000000
310
0000000000FFFFFFFFFFFF000000000000000000000000000000000000000000000000000000000000000000000000000000000000000000
102
{BLKREFS
331
646
102
}
1001
ACAD
1000
DesignCenter Data
1002
{
1070
     1
1070
     4
1002
}
  0
BLOCK_RECORD
  5
647
330
1
100
AcDbSymbolTableRecord
100
AcDbBlockTableRecord
  2
3
340
0
310
2800000020000000200000000100080000000000000400000000000000000000000000000000000000000000000080000080000000808000800000008000800080800000C0C0C000C0DCC000F0CAA6000020400000206000002080000020A0000020C0000020E00000400000004020000040400000406000004080000040A0
310
000040C0000040E00000600000006020000060400000606000006080000060A0000060C0000060E00000800000008020000080400000806000008080000080A0000080C0000080E00000A0000000A0200000A0400000A0600000A0800000A0A00000A0C00000A0E00000C0000000C0200000C0400000C0600000C0800000C0
310
A00000C0C00000C0E00000E0000000E0200000E0400000E0600000E0800000E0A00000E0C00000E0E00040000000400020004000400040006000400080004000A0004000C0004000E00040200000402020004020400040206000402080004020A0004020C0004020E000404000004040200040404000404060004040800040
310
40A0004040C0004040E00040600000406020004060400040606000406080004060A0004060C0004060E00040800000408020004080400040806000408080004080A0004080C0004080E00040A0000040A0200040A0400040A0600040A0800040A0A00040A0C00040A0E00040C0000040C0200040C0400040C0600040C08000
310
40C0A00040C0C00040C0E00040E0000040E0200040E0400040E0600040E0800040E0A00040E0C00040E0E00080000000800020008000400080006000800080008000A0008000C0008000E00080200000802020008020400080206000802080008020A0008020C0008020E00080400000804020008040400080406000804080
310
008040A0008040C0008040E00080600000806020008060400080606000806080008060A0008060C0008060E00080800000808020008080400080806000808080008080A0008080C0008080E00080A0000080A0200080A0400080A0600080A0800080A0A00080A0C00080A0E00080C0000080C0200080C0400080C0600080C0
310
800080C0A00080C0C00080C0E00080E0000080E0200080E0400080E0600080E0800080E0A00080E0C00080E0E000C0000000C0002000C0004000C0006000C0008000C000A000C000C000C000E000C0200000C0202000C0204000C0206000C0208000C020A000C020C000C020E000C0400000C0402000C0404000C0406000C0
310
408000C040A000C040C000C040E000C0600000C0602000C0604000C0606000C0608000C060A000C060C000C060E000C0800000C0802000C0804000C0806000C0808000C080A000C080C000C080E000C0A00000C0A02000C0A04000C0A06000C0A08000C0A0A000C0A0C000C0A0E000C0C00000C0C02000C0C04000C0C06000
310
C0C08000C0C0A000F0FBFF00A4A0A000808080000000FF0000FF000000FFFF00FF000000FF00FF00FFFF0000FFFFFF0000000000000000000000000000000000000000000000000000000000000000000000000000000000000000000000000000000000000000000000000000000000000000000000000000000000000000
310
00000000000000000000000000000000000000000000000000000000000000000000000000000000000000000000000000000000000000000000000000000000000000000000000000000000000000000000000000000000000000000000000000000000000000000000000000000000000000000000000000000000000000
310
00000000000000000000000000000000000000000000000000000000000000000000000000000000000000000000000000000000000000000000000000000000000000000000000000000000000000000000000000000000000000000000000000000000000000000000000000000000000000000000000000000000000000
310
0000000000000000000000000000000000000000000000000000000000000000000000000000000000000000000000000000000000000000000000000000000000000000000000000000000000000000000000000000000000000000000000000000000000000000000000000000000000000000FFFFFFFFFFFFFFFFFFFFFF
310
FFFFFFFFFFFFFFFFFFFFFFFFFFFFFFFFFFFFFF0000FF00000000000000000000000000000000000000000000000000000000FF0000FF00000000000000000000000000000000000000000000000000000000FF0000FFFFFFFFFFFFFFFFFFFFFFFFFFFFFFFFFFFFFFFFFFFFFFFFFFFFFFFFFFFF000000000000000000000000
310
00000000000000000000000000000000000000000000000000000000000000000000000000000000000000000000000000000000000000000000000000000000000000000000000000000000000000000000000000000000000000000000000000000000000000000000000000000000000000000000000000000000000000
310
00000000000000000000000000000000000000000000000000000000000000000000000000000000000000000000000000000000000000000000000000000000000000000000000000000000000000000000000000000000000000000000000000000000000000000000000000000000000000000000000000000000000000
310
00000000000000000000000000000000000000000000000000000000000000000000000000000000000000000000000000000000000000000000000000000000000000000000000000000000000000000000000000000000000000000000000000000000000000000000000000000000000000000000000000000000000000
310
0000000000000000000000000000000000000000000000000000000000000000000000000000000000000000000000000000000000000000
102
{BLKREFS
331
64E
102
}
1001
ACAD
1000
DesignCenter Data
1002
{
1070
     1
1070
     4
1002
}
  0
BLOCK_RECORD
  5
64F
330
1
100
AcDbSymbolTableRecord
100
AcDbBlockTableRecord
  2
4
340
0
310
2800000020000000200000000100080000000000000400000000000000000000000000000000000000000000000080000080000000808000800000008000800080800000C0C0C000C0DCC000F0CAA6000020400000206000002080000020A0000020C0000020E00000400000004020000040400000406000004080000040A0
310
000040C0000040E00000600000006020000060400000606000006080000060A0000060C0000060E00000800000008020000080400000806000008080000080A0000080C0000080E00000A0000000A0200000A0400000A0600000A0800000A0A00000A0C00000A0E00000C0000000C0200000C0400000C0600000C0800000C0
310
A00000C0C00000C0E00000E0000000E0200000E0400000E0600000E0800000E0A00000E0C00000E0E00040000000400020004000400040006000400080004000A0004000C0004000E00040200000402020004020400040206000402080004020A0004020C0004020E000404000004040200040404000404060004040800040
310
40A0004040C0004040E00040600000406020004060400040606000406080004060A0004060C0004060E00040800000408020004080400040806000408080004080A0004080C0004080E00040A0000040A0200040A0400040A0600040A0800040A0A00040A0C00040A0E00040C0000040C0200040C0400040C0600040C08000
310
40C0A00040C0C00040C0E00040E0000040E0200040E0400040E0600040E0800040E0A00040E0C00040E0E00080000000800020008000400080006000800080008000A0008000C0008000E00080200000802020008020400080206000802080008020A0008020C0008020E00080400000804020008040400080406000804080
310
008040A0008040C0008040E00080600000806020008060400080606000806080008060A0008060C0008060E00080800000808020008080400080806000808080008080A0008080C0008080E00080A0000080A0200080A0400080A0600080A0800080A0A00080A0C00080A0E00080C0000080C0200080C0400080C0600080C0
310
800080C0A00080C0C00080C0E00080E0000080E0200080E0400080E0600080E0800080E0A00080E0C00080E0E000C0000000C0002000C0004000C0006000C0008000C000A000C000C000C000E000C0200000C0202000C0204000C0206000C0208000C020A000C020C000C020E000C0400000C0402000C0404000C0406000C0
310
408000C040A000C040C000C040E000C0600000C0602000C0604000C0606000C0608000C060A000C060C000C060E000C0800000C0802000C0804000C0806000C0808000C080A000C080C000C080E000C0A00000C0A02000C0A04000C0A06000C0A08000C0A0A000C0A0C000C0A0E000C0C00000C0C02000C0C04000C0C06000
310
C0C08000C0C0A000F0FBFF00A4A0A000808080000000FF0000FF000000FFFF00FF000000FF00FF00FFFF0000FFFFFF000000000000000000000000000000000000000000000000000000000000000000000000000000000000000000000000000000000000FFFF000000000000000000000000000000000000000000000000
310
000000000000FFFFFF0000000000000000000000000000000000000000000000000000000000FFFFFF00000000000000000000000000000000000000000000000000FFFF00FF00FFFF000000000000000000000000000000000000000000000000FF00FFFFFF00FFFF000000000000000000000000000000000000000000FF
310
0000FF00FFFFFF00FFFF0000000000000000000000000000000000000000FFFFFFFFFF00FFFFFFFFFFFF0000000000000000000000000000000000000000FFFFFFFFFF00FFFF00FFFFFF00000000000000000000000000000000FFFF0000FFFF00FFFF00FFFF00FFFFFF00000000000000000000000000000000FFFFFF00FF
310
FF00FFFFFFFFFF00FFFFFF00000000000000000000000000000000FFFFFFFFFFFFFFFFFF00FFFF00FFFFFFFF000000000000000000000000000000FFFF00FFFFFFFFFFFF00FFFFFF00FFFFFF000000000000000000000000000000FFFF00FFFFFFFFFFFF00FFFFFFFFFFFFFF000000000000000000000000000000FFFFFFFF
310
FF00FFFFFFFFFFFFFFFF00FFFF000000000000000000000000000000FFFFFF00FF00FFFFFF00FFFFFF0000FFFFFF0000000000000000000000000000FFFFFF00FFFFFFFFFFFFFFA4FF0000FF00FF0000000000000000000000000000FFFFFFFFFF00FFFFFFFFFFFF000000FF00FF0000000000000000000000000000FFFFFF
310
FFFFFFFFFF00000000000000FF00FF00000000000000000000000000FFFFFFFFFFFF00FF000000000000FFFF00FFFF00000000000000000000000000FF00FFFFFF00000000000000FFFF00000000FF00000000000000000000000000FFFFFFFFFF0000000000FFFF00000000FFFF0000000000000000000000000000FFFF00
310
FF00000000FFFFFF000000FFFF00000000000000000000000000000000FF0000000000FFFFFF00000000FF0000000000000000000000000000000000FF00000000FFFFFF00000000FFFF000000000000000000000000000000000000FF0000FFFFFF00000000FFFF0000000000000000000000000000000000000000FFFFFF
310
FFFF000000FFFF00000000000000000000000000000000000000000000FFFFFF00000000FF000000000000000000000000000000000000000000000000FF00000000FFFF0000000000000000000000000000000000000000000000000000FF00FFFF0000000000000000000000000000000000000000000000000000000000
310
FF00000000000000000000000000000000000000000000000000000000000000000000000000000000000000000000000000000000000000
102
{BLKREFS
331
766
102
}
1001
ACAD
1000
DesignCenter Data
1002
{
1070
     1
1070
     4
1002
}
  0
ENDTAB
  0
ENDSEC
  0
SECTION
  2
BLOCKS
  0
BLOCK
  5
20
330
1F
100
AcDbEntity
  8
0
100
AcDbBlockBegin
  2
*Model_Space
 70
     0
 10
0.0
 20
0.0
 30
0.0
  3
*Model_Space
  1

  0
ENDBLK
  5
21
330
1F
100
AcDbEntity
  8
0
100
AcDbBlockEnd
  0
BLOCK
  5
D4
330
D2
100
AcDbEntity
 67
     1
  8
0
100
AcDbBlockBegin
  2
*Paper_Space
 70
     0
 10
0.0
 20
0.0
 30
0.0
  3
*Paper_Space
  1

  0
ENDBLK
  5
D5
330
D2
100
AcDbEntity
 67
     1
  8
0
100
AcDbBlockEnd
  0
BLOCK
  5
D8
330
D6
100
AcDbEntity
 67
     1
  8
0
100
AcDbBlockBegin
  2
*Paper_Space0
 70
     0
 10
0.0
 20
0.0
 30
0.0
  3
*Paper_Space0
  1

  0
ENDBLK
  5
D9
330
D6
100
AcDbEntity
 67
     1
  8
0
100
AcDbBlockEnd
  0
BLOCK
  5
576
330
575
100
AcDbEntity
  8
0
100
AcDbBlockBegin
  2
1
 70
     0
 10
0.0
 20
0.0
 30
0.0
  3
1
  1

  0
LINE
  5
578
330
575
100
AcDbEntity
  8
0
  6
Continuous
 62
     7
370
    15
100
AcDbLine
 10
2371.471591051075
 20
879.8637453866565
 30
0.0
 11
2371.471591051075
 21
881.0637453866565
 31
0.0
  0
LINE
  5
579
330
575
100
AcDbEntity
  8
0
  6
Continuous
 62
     7
370
    15
100
AcDbLine
 10
2371.471591051075
 20
879.8637453866565
 30
0.0
 11
2339.271589613876
 21
879.8637453866565
 31
0.0
  0
LINE
  5
57A
330
575
100
AcDbEntity
  8
0
  6
Continuous
 62
     7
370
    15
100
AcDbLine
 10
2371.471591051075
 20
881.0637453866565
 30
0.0
 11
2339.271589613876
 21
881.0637453866565
 31
0.0
  0
LINE
  5
57B
330
575
100
AcDbEntity
  8
0
  6
Continuous
 62
     7
370
    15
100
AcDbLine
 10
2339.271589613876
 20
881.0637453866565
 30
0.0
 11
2339.271589613876
 21
879.8637453866565
 31
0.0
  0
LINE
  5
57C
330
575
100
AcDbEntity
  8
0
  6
Continuous
 62
     7
370
    15
100
AcDbLine
 10
2344.321586729011
 20
871.1637453866565
 30
0.0
 11
2341.821586729011
 21
871.1637453866565
 31
0.0
  0
LINE
  5
57D
330
575
100
AcDbEntity
  8
0
  6
Continuous
 62
     7
370
    15
100
AcDbLine
 10
2344.321586729011
 20
869.8637453866565
 30
0.0
 11
2344.321586729011
 21
871.1637453866565
 31
0.0
  0
LINE
  5
57E
330
575
100
AcDbEntity
  8
0
  6
Continuous
 62
     7
370
    15
100
AcDbLine
 10
2344.321586729011
 20
869.8637453866565
 30
0.0
 11
2341.821586729011
 21
869.8637453866565
 31
0.0
  0
LINE
  5
57F
330
575
100
AcDbEntity
  8
0
  6
Continuous
 62
     7
370
    15
100
AcDbLine
 10
2341.821586729011
 20
869.8637453866565
 30
0.0
 11
2341.821586729011
 21
871.1637453866565
 31
0.0
  0
LINE
  5
580
330
575
100
AcDbEntity
  8
0
  6
Continuous
 62
     7
370
    15
100
AcDbLine
 10
2352.521586729011
 20
871.1637453866565
 30
0.0
 11
2350.021586729011
 21
871.1637453866565
 31
0.0
  0
LINE
  5
581
330
575
100
AcDbEntity
  8
0
  6
Continuous
 62
     7
370
    15
100
AcDbLine
 10
2352.521586729011
 20
869.8637453866565
 30
0.0
 11
2352.521586729011
 21
871.1637453866565
 31
0.0
  0
LINE
  5
582
330
575
100
AcDbEntity
  8
0
  6
Continuous
 62
     7
370
    15
100
AcDbLine
 10
2352.521586729011
 20
869.8637453866565
 30
0.0
 11
2350.021586729011
 21
869.8637453866565
 31
0.0
  0
LINE
  5
583
330
575
100
AcDbEntity
  8
0
  6
Continuous
 62
     7
370
    15
100
AcDbLine
 10
2350.021586729011
 20
869.8637453866565
 30
0.0
 11
2350.021586729011
 21
871.1637453866565
 31
0.0
  0
LINE
  5
584
330
575
100
AcDbEntity
  8
0
  6
Continuous
 62
     7
370
    15
100
AcDbLine
 10
2368.92158672901
 20
869.8637453866565
 30
0.0
 11
2368.92158672901
 21
871.1637453866565
 31
0.0
  0
LINE
  5
585
330
575
100
AcDbEntity
  8
0
  6
Continuous
 62
     7
370
    15
100
AcDbLine
 10
2368.92158672901
 20
869.8637453866565
 30
0.0
 11
2366.421586729011
 21
869.8637453866565
 31
0.0
  0
LINE
  5
586
330
575
100
AcDbEntity
  8
0
  6
Continuous
 62
     7
370
    15
100
AcDbLine
 10
2366.421586729011
 20
869.8637453866565
 30
0.0
 11
2366.421586729011
 21
871.1637453866565
 31
0.0
  0
LINE
  5
587
330
575
100
AcDbEntity
  8
0
  6
Continuous
 62
     7
370
    15
100
AcDbLine
 10
2368.92158672901
 20
871.1637453866565
 30
0.0
 11
2366.421586729011
 21
871.1637453866565
 31
0.0
  0
LINE
  5
588
330
575
100
AcDbEntity
  8
0
  6
Continuous
 62
     7
370
    15
100
AcDbLine
 10
2360.721586729011
 20
869.8637453866565
 30
0.0
 11
2360.721586729011
 21
871.1637453866565
 31
0.0
  0
LINE
  5
589
330
575
100
AcDbEntity
  8
0
  6
Continuous
 62
     7
370
    15
100
AcDbLine
 10
2360.721586729011
 20
869.8637453866565
 30
0.0
 11
2358.221586729011
 21
869.8637453866565
 31
0.0
  0
LINE
  5
58A
330
575
100
AcDbEntity
  8
0
  6
Continuous
 62
     7
370
    15
100
AcDbLine
 10
2358.221586729011
 20
869.8637453866565
 30
0.0
 11
2358.221586729011
 21
871.1637453866565
 31
0.0
  0
LINE
  5
58B
330
575
100
AcDbEntity
  8
0
  6
Continuous
 62
     7
370
    15
100
AcDbLine
 10
2360.721586729011
 20
871.1637453866565
 30
0.0
 11
2358.221586729011
 21
871.1637453866565
 31
0.0
  0
LINE
  5
58C
330
575
100
AcDbEntity
  8
0
  6
Continuous
 62
     7
370
    15
100
AcDbLine
 10
2345.721585717162
 20
869.6937365956822
 30
0.0
 11
2345.721585717162
 21
873.3971277547443
 31
0.0
  0
ARC
  5
58D
330
575
100
AcDbEntity
  8
0
  6
Continuous
 62
     7
370
    15
100
AcDbCircle
 10
2345.22158720352
 20
869.6937331347028
 30
0.0
 40
0.4999985136888624
100
AcDbArc
 50
314.9998166532889
 51
0.0003966002009387
  0
LINE
  5
58E
330
575
100
AcDbEntity
  8
0
  6
Continuous
 62
     7
370
    15
100
AcDbLine
 10
2345.518034354227
 20
869.2830724216205
 30
0.0
 11
2345.575138411763
 21
869.3401796637232
 31
0.0
  0
ARC
  5
58F
330
575
100
AcDbEntity
  8
0
  6
Continuous
 62
     7
370
    15
100
AcDbCircle
 10
2345.871588549853
 20
868.9295198360621
 30
0.0
 40
0.5000000000000642
100
AcDbArc
 50
135.0001304613266
 51
180.000072976503
  0
LINE
  5
590
330
575
100
AcDbEntity
  8
0
  6
Continuous
 62
     7
370
    15
100
AcDbLine
 10
2345.371588549855
 20
866.9151497898752
 30
0.0
 11
2345.371588549855
 21
868.929519199222
 31
0.0
  0
LINE
  5
591
330
575
100
AcDbEntity
  8
0
  6
Continuous
 62
     7
370
    15
100
AcDbLine
 10
2345.021590075734
 20
866.5651513157541
 30
0.0
 11
2345.371588549855
 21
866.9151497898752
 31
0.0
  0
LINE
  5
592
330
575
100
AcDbEntity
  8
0
  6
Continuous
 62
     7
370
    15
100
AcDbLine
 10
2345.021590075734
 20
866.5651513157541
 30
0.0
 11
2341.121583662274
 21
866.5651513157541
 31
0.0
  0
ARC
  5
593
330
575
100
AcDbEntity
  8
0
  6
Continuous
 62
     7
370
    15
100
AcDbCircle
 10
2340.271587238174
 20
868.9295190310271
 30
0.0
 40
0.5000005066458768
100
AcDbArc
 50
359.999963639679
 51
45.0007869529218
  0
LINE
  5
594
330
575
100
AcDbEntity
  8
0
  6
Continuous
 62
     7
370
    15
100
AcDbLine
 10
2340.568035707424
 20
869.340176626512
 30
0.0
 11
2340.625136130953
 21
869.2830776358718
 31
0.0
  0
ARC
  5
595
330
575
100
AcDbEntity
  8
0
  6
Continuous
 62
     7
370
    15
100
AcDbCircle
 10
2340.92158724438
 20
869.6937325995975
 30
0.0
 40
0.5000005153938929
100
AcDbArc
 50
180.0
 51
225.0003594523902
  0
LINE
  5
596
330
575
100
AcDbEntity
  8
0
  6
Continuous
 62
     7
370
    15
100
AcDbLine
 10
2340.421586729011
 20
873.3971277547443
 30
0.0
 11
2340.421586728986
 21
869.6937325995975
 31
0.0
  0
LINE
  5
597
330
575
100
AcDbEntity
  8
0
  6
Continuous
 62
     7
370
    15
100
AcDbLine
 10
2339.271589613876
 20
873.3971277547443
 30
0.0
 11
2340.421586729011
 21
873.3971277547443
 31
0.0
  0
LINE
  5
598
330
575
100
AcDbEntity
  8
0
  6
Continuous
 62
     7
370
    15
100
AcDbLine
 10
2370.32159393594
 20
873.3971268309998
 30
0.0
 11
2371.471591051075
 21
873.3971268309998
 31
0.0
  0
LINE
  5
599
330
575
100
AcDbEntity
  8
0
  6
Continuous
 62
     7
370
    15
100
AcDbLine
 10
2370.32159393594
 20
869.6937351368406
 30
0.0
 11
2370.32159393594
 21
873.3971268309998
 31
0.0
  0
ARC
  5
59A
330
575
100
AcDbEntity
  8
0
  6
Continuous
 62
     7
370
    15
100
AcDbCircle
 10
2369.82159141329
 20
869.6937316758662
 30
0.0
 40
0.500002522661346
100
AcDbArc
 50
314.9998148888426
 51
0.0003965964620313
  0
LINE
  5
59B
330
575
100
AcDbEntity
  8
0
  6
Continuous
 62
     7
370
    15
100
AcDbLine
 10
2370.118041391008
 20
869.2830728169857
 30
0.0
 11
2370.175145445401
 21
869.3401753592238
 31
0.0
  0
ARC
  5
59C
330
575
100
AcDbEntity
  8
0
  6
Continuous
 62
     7
370
    15
100
AcDbCircle
 10
2370.47159049576
 20
868.9295190310298
 30
0.0
 40
0.4999972490596443
100
AcDbArc
 50
134.9996206871306
 51
180.0000268516866
  0
LINE
  5
59D
330
575
100
AcDbEntity
  8
0
  6
Continuous
 62
     7
370
    15
100
AcDbLine
 10
2369.9715932467
 20
866.9151497898752
 30
0.0
 11
2369.9715932467
 21
868.929518796706
 31
0.0
  0
LINE
  5
59E
330
575
100
AcDbEntity
  8
0
  6
Continuous
 62
     7
370
    15
100
AcDbLine
 10
2369.621594772579
 20
866.5651513157541
 30
0.0
 11
2369.9715932467
 21
866.9151497898752
 31
0.0
  0
LINE
  5
59F
330
575
100
AcDbEntity
  8
0
  6
Continuous
 62
     7
370
    15
100
AcDbLine
 10
2369.621594772579
 20
866.5651513157541
 30
0.0
 11
2365.721588359119
 21
866.5651513157541
 31
0.0
  0
LINE
  5
5A0
330
575
100
AcDbEntity
  8
0
  6
Continuous
 62
     7
370
    15
100
AcDbLine
 10
2365.37158774482
 20
866.9151519300537
 30
0.0
 11
2365.721588359119
 21
866.5651513157541
 31
0.0
  0
LINE
  5
5A1
330
575
100
AcDbEntity
  8
0
  6
Continuous
 62
     7
370
    15
100
AcDbLine
 10
2365.37158774482
 20
868.9295192966422
 30
0.0
 11
2365.371589884998
 21
866.9151497898752
 31
0.0
  0
ARC
  5
5A2
330
575
100
AcDbEntity
  8
0
  6
Continuous
 62
     7
370
    15
100
AcDbCircle
 10
2364.871585577607
 20
868.9295190310271
 30
0.0
 40
0.500002167213022
100
AcDbArc
 50
0.0000304371164707
 51
45.00047442047931
  0
LINE
  5
5A3
330
575
100
AcDbEntity
  8
0
  6
Continuous
 62
     7
370
    15
100
AcDbLine
 10
2365.168030654575
 20
869.3401776703433
 30
0.0
 11
2365.225137573134
 21
869.2830768815648
 31
0.0
  0
ARC
  5
5A4
330
575
100
AcDbEntity
  8
0
  6
Continuous
 62
     7
370
    15
100
AcDbCircle
 10
2365.521582749039
 20
869.6937297648066
 30
0.0
 40
0.4999981855165049
100
AcDbArc
 50
179.99994688854
 51
224.9999999999908
  0
LINE
  5
5A5
330
575
100
AcDbEntity
  8
0
  6
Continuous
 62
     7
370
    15
100
AcDbLine
 10
2365.021591410877
 20
873.3971277547443
 30
0.0
 11
2365.021584563523
 21
869.6937302282897
 31
0.0
  0
LINE
  5
5A6
330
575
100
AcDbEntity
  8
0
  6
Continuous
 62
     7
370
    15
100
AcDbLine
 10
2362.121585717162
 20
873.3971277547443
 30
0.0
 11
2365.021591410877
 21
873.3971277547443
 31
0.0
  0
LINE
  5
5A7
330
575
100
AcDbEntity
  8
0
  6
Continuous
 62
     7
370
    15
100
AcDbLine
 10
2362.121585717162
 20
869.6937365956822
 30
0.0
 11
2362.121585717162
 21
873.3971277547443
 31
0.0
  0
ARC
  5
5A8
330
575
100
AcDbEntity
  8
0
  6
Continuous
 62
     7
370
    15
100
AcDbCircle
 10
2361.62158720352
 20
869.6937331347028
 30
0.0
 40
0.4999985136888523
100
AcDbArc
 50
314.9998166532889
 51
0.0003966002009387
  0
LINE
  5
5A9
330
575
100
AcDbEntity
  8
0
  6
Continuous
 62
     7
370
    15
100
AcDbLine
 10
2361.918034354227
 20
869.2830724216205
 30
0.0
 11
2361.975138411762
 21
869.3401796637232
 31
0.0
  0
ARC
  5
5AA
330
575
100
AcDbEntity
  8
0
  6
Continuous
 62
     7
370
    15
100
AcDbCircle
 10
2362.271588549853
 20
868.9295198360621
 30
0.0
 40
0.5000000000000642
100
AcDbArc
 50
135.0001304613266
 51
180.000072976503
  0
LINE
  5
5AB
330
575
100
AcDbEntity
  8
0
  6
Continuous
 62
     7
370
    15
100
AcDbLine
 10
2361.771588549854
 20
866.9151497898752
 30
0.0
 11
2361.771588549854
 21
868.929519199222
 31
0.0
  0
LINE
  5
5AC
330
575
100
AcDbEntity
  8
0
  6
Continuous
 62
     7
370
    15
100
AcDbLine
 10
2361.421590075733
 20
866.5651513157541
 30
0.0
 11
2361.771588549854
 21
866.9151497898752
 31
0.0
  0
LINE
  5
5AD
330
575
100
AcDbEntity
  8
0
  6
Continuous
 62
     7
370
    15
100
AcDbLine
 10
2361.421590075733
 20
866.5651513157541
 30
0.0
 11
2357.521583662273
 21
866.5651513157541
 31
0.0
  0
LINE
  5
5AE
330
575
100
AcDbEntity
  8
0
  6
Continuous
 62
     7
370
    15
100
AcDbLine
 10
2357.17158774482
 20
866.915147233208
 30
0.0
 11
2357.521583662273
 21
866.5651513157541
 31
0.0
  0
LINE
  5
5AF
330
575
100
AcDbEntity
  8
0
  6
Continuous
 62
     7
370
    15
100
AcDbLine
 10
2357.171587744819
 20
868.9295187137233
 30
0.0
 11
2357.171585188152
 21
866.9151497898752
 31
0.0
  0
ARC
  5
5B0
330
575
100
AcDbEntity
  8
0
  6
Continuous
 62
     7
370
    15
100
AcDbCircle
 10
2356.671587238173
 20
868.9295190310271
 30
0.0
 40
0.500000506645891
100
AcDbArc
 50
359.999963639679
 51
45.0007869529218
  0
LINE
  5
5B1
330
575
100
AcDbEntity
  8
0
  6
Continuous
 62
     7
370
    15
100
AcDbLine
 10
2356.968035707424
 20
869.340176626512
 30
0.0
 11
2357.025136130953
 21
869.2830776358718
 31
0.0
  0
ARC
  5
5B2
330
575
100
AcDbEntity
  8
0
  6
Continuous
 62
     7
370
    15
100
AcDbCircle
 10
2357.32158724438
 20
869.6937325995975
 30
0.0
 40
0.5000005153938929
100
AcDbArc
 50
180.0
 51
225.0003594523902
  0
LINE
  5
5B3
330
575
100
AcDbEntity
  8
0
  6
Continuous
 62
     7
370
    15
100
AcDbLine
 10
2356.821586729011
 20
873.3971277547443
 30
0.0
 11
2356.821586728987
 21
869.6937325995975
 31
0.0
  0
LINE
  5
5B4
330
575
100
AcDbEntity
  8
0
  6
Continuous
 62
     7
370
    15
100
AcDbLine
 10
2353.921585717161
 20
873.3971277547443
 30
0.0
 11
2356.821586729011
 21
873.3971277547443
 31
0.0
  0
LINE
  5
5B5
330
575
100
AcDbEntity
  8
0
  6
Continuous
 62
     7
370
    15
100
AcDbLine
 10
2353.921585717161
 20
869.6937365956822
 30
0.0
 11
2353.921585717161
 21
873.3971277547443
 31
0.0
  0
ARC
  5
5B6
330
575
100
AcDbEntity
  8
0
  6
Continuous
 62
     7
370
    15
100
AcDbCircle
 10
2353.42158720352
 20
869.6937331347028
 30
0.0
 40
0.4999985136888624
100
AcDbArc
 50
314.9998166532889
 51
0.0003966002009387
  0
LINE
  5
5B7
330
575
100
AcDbEntity
  8
0
  6
Continuous
 62
     7
370
    15
100
AcDbLine
 10
2353.718034354226
 20
869.2830724216205
 30
0.0
 11
2353.775138411762
 21
869.3401796637232
 31
0.0
  0
ARC
  5
5B8
330
575
100
AcDbEntity
  8
0
  6
Continuous
 62
     7
370
    15
100
AcDbCircle
 10
2354.071588549853
 20
868.9295198360621
 30
0.0
 40
0.5000000000000542
100
AcDbArc
 50
135.0001304613266
 51
180.000072976503
  0
LINE
  5
5B9
330
575
100
AcDbEntity
  8
0
  6
Continuous
 62
     7
370
    15
100
AcDbLine
 10
2353.571588549854
 20
866.9151497898752
 30
0.0
 11
2353.571588549854
 21
868.929519199222
 31
0.0
  0
LINE
  5
5BA
330
575
100
AcDbEntity
  8
0
  6
Continuous
 62
     7
370
    15
100
AcDbLine
 10
2353.221590075733
 20
866.5651513157541
 30
0.0
 11
2353.571588549854
 21
866.9151497898752
 31
0.0
  0
LINE
  5
5BB
330
575
100
AcDbEntity
  8
0
  6
Continuous
 62
     7
370
    15
100
AcDbLine
 10
2353.221590075733
 20
866.5651513157541
 30
0.0
 11
2349.321583662273
 21
866.5651513157541
 31
0.0
  0
ARC
  5
5BC
330
575
100
AcDbEntity
  8
0
  6
Continuous
 62
     7
370
    15
100
AcDbCircle
 10
2348.471587238174
 20
868.9295190310271
 30
0.0
 40
0.5000005066458768
100
AcDbArc
 50
359.999963639679
 51
45.0007869529218
  0
LINE
  5
5BD
330
575
100
AcDbEntity
  8
0
  6
Continuous
 62
     7
370
    15
100
AcDbLine
 10
2348.768035707424
 20
869.340176626512
 30
0.0
 11
2348.825136130954
 21
869.2830776358718
 31
0.0
  0
ARC
  5
5BE
330
575
100
AcDbEntity
  8
0
  6
Continuous
 62
     7
370
    15
100
AcDbCircle
 10
2349.12158724438
 20
869.6937325995975
 30
0.0
 40
0.5000005153938929
100
AcDbArc
 50
180.0
 51
225.0003594523902
  0
LINE
  5
5BF
330
575
100
AcDbEntity
  8
0
  6
Continuous
 62
     7
370
    15
100
AcDbLine
 10
2348.62158672901
 20
873.3971277547443
 30
0.0
 11
2348.621586728987
 21
869.6937325995975
 31
0.0
  0
LINE
  5
5C0
330
575
100
AcDbEntity
  8
0
  6
Continuous
 62
     7
370
    15
100
AcDbLine
 10
2345.721585717162
 20
873.3971277547443
 30
0.0
 11
2348.62158672901
 21
873.3971277547443
 31
0.0
  0
LINE
  5
5C1
330
575
100
AcDbEntity
  8
0
  6
Continuous
 62
     7
370
    15
100
AcDbLine
 10
2348.97158774482
 20
866.915147233208
 30
0.0
 11
2349.321583662273
 21
866.5651513157541
 31
0.0
  0
LINE
  5
5C2
330
575
100
AcDbEntity
  8
0
  6
Continuous
 62
     7
370
    15
100
AcDbLine
 10
2340.77158774482
 20
866.915147233208
 30
0.0
 11
2341.121583662274
 21
866.5651513157541
 31
0.0
  0
LINE
  5
5C3
330
575
100
AcDbEntity
  8
0
  6
Continuous
 62
     7
370
    15
100
AcDbLine
 10
2340.77158774482
 20
868.9295187137233
 30
0.0
 11
2340.771585188153
 21
866.9151497898752
 31
0.0
  0
LINE
  5
5C4
330
575
100
AcDbEntity
  8
0
  6
Continuous
 62
     7
370
    15
100
AcDbLine
 10
2348.97158774482
 20
868.9295187137233
 30
0.0
 11
2348.971585188152
 21
866.9151497898752
 31
0.0
  0
LINE
  5
5C5
330
575
100
AcDbEntity
  8
0
  6
Continuous
 62
     7
370
    15
100
AcDbLine
 10
2371.471591051075
 20
873.3971268309998
 30
0.0
 11
2371.471591051075
 21
879.8637453866565
 31
0.0
  0
LINE
  5
5C6
330
575
100
AcDbEntity
  8
0
  6
Continuous
 62
     7
370
    15
100
AcDbLine
 10
2339.271589613876
 20
879.8637453866565
 30
0.0
 11
2339.271589613876
 21
873.3971277547443
 31
0.0
  0
LINE
  5
5C7
330
575
100
AcDbEntity
  8
0
  6
Continuous
 62
     7
370
    15
100
AcDbLine
 10
2358.999803568519
 20
850.9014095830835
 30
0.0
 11
2359.943427659976
 21
850.9014095830835
 31
0.0
  0
ARC
  5
5C8
330
575
100
AcDbEntity
  8
0
  6
Continuous
 62
     7
370
    15
100
AcDbCircle
 10
2358.999803568519
 20
851.6014095830835
 30
0.0
 40
0.7000000000000455
100
AcDbArc
 50
189.9999835369507
 51
270.0
  0
LINE
  5
5C9
330
575
100
AcDbEntity
  8
0
  6
Continuous
 62
     7
370
    15
100
AcDbLine
 10
2357.971613065675
 20
853.4014343659602
 30
0.0
 11
2358.310438106483
 21
851.4798560567951
 31
0.0
  0
LINE
  5
5CA
330
575
100
AcDbEntity
  8
0
  6
Continuous
 62
     7
370
    15
100
AcDbLine
 10
2357.971612598803
 20
859.1258901393757
 30
0.0
 11
2357.971613065675
 21
853.4014343659602
 31
0.0
  0
LINE
  5
5CB
330
575
100
AcDbEntity
  8
0
  6
Continuous
 62
     7
370
    15
100
AcDbLine
 10
2360.971618869042
 20
859.1258549395215
 30
0.0
 11
2357.971612598803
 21
859.1258901393757
 31
0.0
  0
LINE
  5
5CC
330
575
100
AcDbEntity
  8
0
  6
Continuous
 62
     7
370
    15
100
AcDbLine
 10
2360.971621530913
 20
853.4014343659624
 30
0.0
 11
2360.971618869042
 21
859.1258549395215
 31
0.0
  0
LINE
  5
5CD
330
575
100
AcDbEntity
  8
0
  6
Continuous
 62
     7
370
    15
100
AcDbLine
 10
2360.632793122012
 20
851.4798560567951
 30
0.0
 11
2360.971621530913
 21
853.4014343659624
 31
0.0
  0
ARC
  5
5CE
330
575
100
AcDbEntity
  8
0
  6
Continuous
 62
     7
370
    15
100
AcDbCircle
 10
2359.943427659976
 20
851.6014095830835
 30
0.0
 40
0.7000000000001485
100
AcDbArc
 50
270.0
 51
350.0000164630558
  0
LINE
  5
5CF
330
575
100
AcDbEntity
  8
0
  6
Continuous
 62
     7
370
    15
100
AcDbLine
 10
2367.199803568519
 20
850.9014095830835
 30
0.0
 11
2368.143427659977
 21
850.9014095830835
 31
0.0
  0
ARC
  5
5D0
330
575
100
AcDbEntity
  8
0
  6
Continuous
 62
     7
370
    15
100
AcDbCircle
 10
2367.199803568519
 20
851.6014095830835
 30
0.0
 40
0.7000000000000455
100
AcDbArc
 50
189.9999835369507
 51
270.0
  0
LINE
  5
5D1
330
575
100
AcDbEntity
  8
0
  6
Continuous
 62
     7
370
    15
100
AcDbLine
 10
2366.171613065674
 20
853.4014343659602
 30
0.0
 11
2366.510438106484
 21
851.4798560567951
 31
0.0
  0
LINE
  5
5D2
330
575
100
AcDbEntity
  8
0
  6
Continuous
 62
     7
370
    15
100
AcDbLine
 10
2366.171612598803
 20
859.1258901393757
 30
0.0
 11
2366.171613065674
 21
853.4014343659602
 31
0.0
  0
LINE
  5
5D3
330
575
100
AcDbEntity
  8
0
  6
Continuous
 62
     7
370
    15
100
AcDbLine
 10
2369.171618869042
 20
859.1258549395215
 30
0.0
 11
2366.171612598803
 21
859.1258901393757
 31
0.0
  0
LINE
  5
5D4
330
575
100
AcDbEntity
  8
0
  6
Continuous
 62
     7
370
    15
100
AcDbLine
 10
2369.171621530913
 20
853.4014343659624
 30
0.0
 11
2369.171618869042
 21
859.1258549395215
 31
0.0
  0
ARC
  5
5D5
330
575
100
AcDbEntity
  8
0
  6
Continuous
 62
     7
370
    15
100
AcDbCircle
 10
2368.143427659977
 20
851.6014095830835
 30
0.0
 40
0.7000000000001626
100
AcDbArc
 50
270.0
 51
350.0000164630558
  0
LINE
  5
5D6
330
575
100
AcDbEntity
  8
0
  6
Continuous
 62
     7
370
    15
100
AcDbLine
 10
2368.832793122012
 20
851.4798560567951
 30
0.0
 11
2369.171621530913
 21
853.4014343659624
 31
0.0
  0
LINE
  5
5D7
330
575
100
AcDbEntity
  8
0
  6
Continuous
 62
     7
370
    15
100
AcDbLine
 10
2342.599803568518
 20
850.9014095830835
 30
0.0
 11
2343.543427659977
 21
850.9014095830835
 31
0.0
  0
ARC
  5
5D8
330
575
100
AcDbEntity
  8
0
  6
Continuous
 62
     7
370
    15
100
AcDbCircle
 10
2342.599803568518
 20
851.6014095830835
 30
0.0
 40
0.7000000000000455
100
AcDbArc
 50
189.9999835369507
 51
270.0
  0
LINE
  5
5D9
330
575
100
AcDbEntity
  8
0
  6
Continuous
 62
     7
370
    15
100
AcDbLine
 10
2341.571613065674
 20
853.4014343659602
 30
0.0
 11
2341.910438106484
 21
851.4798560567951
 31
0.0
  0
LINE
  5
5DA
330
575
100
AcDbEntity
  8
0
  6
Continuous
 62
     7
370
    15
100
AcDbLine
 10
2341.571612598803
 20
859.1258901393757
 30
0.0
 11
2341.571613065674
 21
853.4014343659602
 31
0.0
  0
LINE
  5
5DB
330
575
100
AcDbEntity
  8
0
  6
Continuous
 62
     7
370
    15
100
AcDbLine
 10
2344.571618869042
 20
859.1258549395215
 30
0.0
 11
2341.571612598803
 21
859.1258901393757
 31
0.0
  0
LINE
  5
5DC
330
575
100
AcDbEntity
  8
0
  6
Continuous
 62
     7
370
    15
100
AcDbLine
 10
2344.571621530913
 20
853.4014343659624
 30
0.0
 11
2344.571618869042
 21
859.1258549395215
 31
0.0
  0
ARC
  5
5DD
330
575
100
AcDbEntity
  8
0
  6
Continuous
 62
     7
370
    15
100
AcDbCircle
 10
2343.543427659977
 20
851.6014095830835
 30
0.0
 40
0.7000000000001485
100
AcDbArc
 50
270.0
 51
350.0000164630558
  0
LINE
  5
5DE
330
575
100
AcDbEntity
  8
0
  6
Continuous
 62
     7
370
    15
100
AcDbLine
 10
2344.232793122012
 20
851.4798560567951
 30
0.0
 11
2344.571621530913
 21
853.4014343659624
 31
0.0
  0
LINE
  5
5DF
330
575
100
AcDbEntity
  8
0
  6
Continuous
 62
     7
370
    15
100
AcDbLine
 10
2350.799803568519
 20
850.9014095830835
 30
0.0
 11
2351.743427659977
 21
850.9014095830835
 31
0.0
  0
ARC
  5
5E0
330
575
100
AcDbEntity
  8
0
  6
Continuous
 62
     7
370
    15
100
AcDbCircle
 10
2350.799803568519
 20
851.6014095830835
 30
0.0
 40
0.7000000000000455
100
AcDbArc
 50
189.9999835369507
 51
270.0
  0
LINE
  5
5E1
330
575
100
AcDbEntity
  8
0
  6
Continuous
 62
     7
370
    15
100
AcDbLine
 10
2349.771613065674
 20
853.4014343659602
 30
0.0
 11
2350.110438106483
 21
851.4798560567951
 31
0.0
  0
LINE
  5
5E2
330
575
100
AcDbEntity
  8
0
  6
Continuous
 62
     7
370
    15
100
AcDbLine
 10
2349.771612598803
 20
859.1258901393757
 30
0.0
 11
2349.771613065674
 21
853.4014343659602
 31
0.0
  0
LINE
  5
5E3
330
575
100
AcDbEntity
  8
0
  6
Continuous
 62
     7
370
    15
100
AcDbLine
 10
2352.771618869042
 20
859.1258549395215
 30
0.0
 11
2349.771612598803
 21
859.1258901393757
 31
0.0
  0
ARC
  5
5E4
330
575
100
AcDbEntity
  8
0
  6
Continuous
 62
     7
370
    15
100
AcDbCircle
 10
2351.743427659977
 20
851.6014095830835
 30
0.0
 40
0.7000000000001485
100
AcDbArc
 50
270.0
 51
350.0000164630558
  0
LINE
  5
5E5
330
575
100
AcDbEntity
  8
0
  6
Continuous
 62
     7
370
    15
100
AcDbLine
 10
2352.771621530914
 20
853.4014343659624
 30
0.0
 11
2352.771618869042
 21
859.1258549395215
 31
0.0
  0
LINE
  5
5E6
330
575
100
AcDbEntity
  8
0
  6
Continuous
 62
     7
370
    15
100
AcDbLine
 10
2352.432793122012
 20
851.4798560567951
 30
0.0
 11
2352.771621530914
 21
853.4014343659624
 31
0.0
  0
LINE
  5
5E7
330
575
100
AcDbEntity
  8
0
  6
Continuous
 62
     7
370
    15
100
AcDbLine
 10
2366.171612574336
 20
859.4258901393912
 30
0.0
 11
2366.171612598803
 21
859.1258901393757
 31
0.0
  0
LINE
  5
5E8
330
575
100
AcDbEntity
  8
0
  6
Continuous
 62
     7
370
    15
100
AcDbLine
 10
2369.17161865416
 20
859.4258549395433
 30
0.0
 11
2366.171612574336
 21
859.4258901393912
 31
0.0
  0
LINE
  5
5E9
330
575
100
AcDbEntity
  8
0
  6
Continuous
 62
     7
370
    15
100
AcDbLine
 10
2369.171618869042
 20
859.1258549395215
 30
0.0
 11
2369.17161865416
 21
859.4258549395433
 31
0.0
  0
LINE
  5
5EA
330
575
100
AcDbEntity
  8
0
  6
Continuous
 62
     7
370
    15
100
AcDbLine
 10
2341.571612574336
 20
859.4258901393912
 30
0.0
 11
2341.571612598803
 21
859.1258901393757
 31
0.0
  0
LINE
  5
5EB
330
575
100
AcDbEntity
  8
0
  6
Continuous
 62
     7
370
    15
100
AcDbLine
 10
2344.57161865416
 20
859.4258549395433
 30
0.0
 11
2341.571612574336
 21
859.4258901393912
 31
0.0
  0
LINE
  5
5EC
330
575
100
AcDbEntity
  8
0
  6
Continuous
 62
     7
370
    15
100
AcDbLine
 10
2344.571618869042
 20
859.1258549395215
 30
0.0
 11
2344.57161865416
 21
859.4258549395433
 31
0.0
  0
LINE
  5
5ED
330
575
100
AcDbEntity
  8
0
  6
Continuous
 62
     7
370
    15
100
AcDbLine
 10
2349.771612574336
 20
859.4258901393912
 30
0.0
 11
2349.771612598803
 21
859.1258901393757
 31
0.0
  0
LINE
  5
5EE
330
575
100
AcDbEntity
  8
0
  6
Continuous
 62
     7
370
    15
100
AcDbLine
 10
2352.77161865416
 20
859.4258549395433
 30
0.0
 11
2349.771612574336
 21
859.4258901393912
 31
0.0
  0
LINE
  5
5EF
330
575
100
AcDbEntity
  8
0
  6
Continuous
 62
     7
370
    15
100
AcDbLine
 10
2352.771618869042
 20
859.1258549395215
 30
0.0
 11
2352.77161865416
 21
859.4258549395433
 31
0.0
  0
LINE
  5
5F0
330
575
100
AcDbEntity
  8
0
  6
Continuous
 62
     7
370
    15
100
AcDbLine
 10
2357.971612574337
 20
859.4258901393912
 30
0.0
 11
2357.971612598803
 21
859.1258901393757
 31
0.0
  0
LINE
  5
5F1
330
575
100
AcDbEntity
  8
0
  6
Continuous
 62
     7
370
    15
100
AcDbLine
 10
2360.97161865416
 20
859.4258549395433
 30
0.0
 11
2357.971612574337
 21
859.4258901393912
 31
0.0
  0
LINE
  5
5F2
330
575
100
AcDbEntity
  8
0
  6
Continuous
 62
     7
370
    15
100
AcDbLine
 10
2360.971618869042
 20
859.1258549395215
 30
0.0
 11
2360.97161865416
 21
859.4258549395433
 31
0.0
  0
LINE
  5
5F3
330
575
100
AcDbEntity
  8
0
  6
Continuous
 62
     7
370
    15
100
AcDbLine
 10
2366.171612549869
 20
859.7258901394123
 30
0.0
 11
2369.171613540474
 21
859.725854939624
 31
0.0
  0
LINE
  5
5F4
330
575
100
AcDbEntity
  8
0
  6
Continuous
 62
     7
370
    15
100
AcDbLine
 10
2366.171612574336
 20
859.4258901393912
 30
0.0
 11
2366.171612549869
 21
859.7258901394123
 31
0.0
  0
LWPOLYLINE
  5
5F5
330
575
100
AcDbEntity
  8
0
  6
Continuous
 62
     7
370
    15
100
AcDbPolyline
 90
        9
 70
   128
 43
0.0
 10
2369.171613540474
 20
859.725854939624
 10
2369.171613676525
 20
859.6673278430106
 10
2369.171613995606
 20
859.611049909896
 10
2369.171614485454
 20
859.5591838696895
 10
2369.171615127245
 20
859.5137229052298
 10
2369.171615896316
 20
859.4764140558865
 10
2369.171616763112
 20
859.4486910798178
 10
2369.171617694322
 20
859.4316193554464
 10
2369.17161865416
 20
859.4258549395433
  0
LINE
  5
5F6
330
575
100
AcDbEntity
  8
0
  6
Continuous
 62
     7
370
    15
100
AcDbLine
 10
2349.771612549869
 20
859.7258901394123
 30
0.0
 11
2352.771613540474
 21
859.725854939624
 31
0.0
  0
LINE
  5
5F7
330
575
100
AcDbEntity
  8
0
  6
Continuous
 62
     7
370
    15
100
AcDbLine
 10
2349.771612574336
 20
859.4258901393912
 30
0.0
 11
2349.771612549869
 21
859.7258901394123
 31
0.0
  0
LWPOLYLINE
  5
5F8
330
575
100
AcDbEntity
  8
0
  6
Continuous
 62
     7
370
    15
100
AcDbPolyline
 90
        9
 70
   128
 43
0.0
 10
2352.771613540474
 20
859.725854939624
 10
2352.771613676524
 20
859.6673278430106
 10
2352.771613995605
 20
859.611049909896
 10
2352.771614485453
 20
859.5591838696895
 10
2352.771615127245
 20
859.5137229052298
 10
2352.771615896316
 20
859.4764140558865
 10
2352.771616763112
 20
859.4486910798178
 10
2352.771617694321
 20
859.4316193554464
 10
2352.77161865416
 20
859.4258549395433
  0
LINE
  5
5F9
330
575
100
AcDbEntity
  8
0
  6
Continuous
 62
     7
370
    15
100
AcDbLine
 10
2341.571612549869
 20
859.7258901394123
 30
0.0
 11
2344.571613540474
 21
859.725854939624
 31
0.0
  0
LINE
  5
5FA
330
575
100
AcDbEntity
  8
0
  6
Continuous
 62
     7
370
    15
100
AcDbLine
 10
2341.571612574336
 20
859.4258901393912
 30
0.0
 11
2341.571612549869
 21
859.7258901394123
 31
0.0
  0
LWPOLYLINE
  5
5FB
330
575
100
AcDbEntity
  8
0
  6
Continuous
 62
     7
370
    15
100
AcDbPolyline
 90
        9
 70
   128
 43
0.0
 10
2344.571613540474
 20
859.725854939624
 10
2344.571613676524
 20
859.6673278430106
 10
2344.571613995606
 20
859.611049909896
 10
2344.571614485454
 20
859.5591838696895
 10
2344.571615127245
 20
859.5137229052298
 10
2344.571615896316
 20
859.4764140558865
 10
2344.571616763112
 20
859.4486910798178
 10
2344.571617694322
 20
859.4316193554464
 10
2344.57161865416
 20
859.4258549395433
  0
LINE
  5
5FC
330
575
100
AcDbEntity
  8
0
  6
Continuous
 62
     7
370
    15
100
AcDbLine
 10
2357.971612549869
 20
859.7258901394123
 30
0.0
 11
2360.971613540474
 21
859.725854939624
 31
0.0
  0
LINE
  5
5FD
330
575
100
AcDbEntity
  8
0
  6
Continuous
 62
     7
370
    15
100
AcDbLine
 10
2357.971612574336
 20
859.4258901393912
 30
0.0
 11
2357.971612549869
 21
859.7258901394123
 31
0.0
  0
LWPOLYLINE
  5
5FE
330
575
100
AcDbEntity
  8
0
  6
Continuous
 62
     7
370
    15
100
AcDbPolyline
 90
        9
 70
   128
 43
0.0
 10
2360.971613540474
 20
859.725854939624
 10
2360.971613676525
 20
859.6673278430106
 10
2360.971613995605
 20
859.611049909896
 10
2360.971614485453
 20
859.5591838696895
 10
2360.971615127245
 20
859.5137229052298
 10
2360.971615896316
 20
859.4764140558865
 10
2360.971616763112
 20
859.4486910798178
 10
2360.971617694322
 20
859.4316193554464
 10
2360.97161865416
 20
859.4258549395433
  0
LINE
  5
5FF
330
575
100
AcDbEntity
  8
0
  6
Continuous
 62
     7
370
    15
100
AcDbLine
 10
2357.971612549869
 20
859.7258901394123
 30
0.0
 11
2357.971612363939
 21
866.5651513157541
 31
0.0
  0
LINE
  5
600
330
575
100
AcDbEntity
  8
0
  6
Continuous
 62
     7
370
    15
100
AcDbLine
 10
2360.971613540474
 20
866.5651513157541
 30
0.0
 11
2360.971613540474
 21
859.725854939624
 31
0.0
  0
LINE
  5
601
330
575
100
AcDbEntity
  8
0
  6
Continuous
 62
     7
370
    15
100
AcDbLine
 10
2366.171612549869
 20
859.7258901394123
 30
0.0
 11
2366.171612261279
 21
866.5651513157541
 31
0.0
  0
LINE
  5
602
330
575
100
AcDbEntity
  8
0
  6
Continuous
 62
     7
370
    15
100
AcDbLine
 10
2369.171613540474
 20
866.5651513157541
 30
0.0
 11
2369.171613540474
 21
859.725854939624
 31
0.0
  0
LINE
  5
603
330
575
100
AcDbEntity
  8
0
  6
Continuous
 62
     7
370
    15
100
AcDbLine
 10
2349.771612549869
 20
859.7258901394123
 30
0.0
 11
2349.771612363939
 21
866.5651513157541
 31
0.0
  0
LINE
  5
604
330
575
100
AcDbEntity
  8
0
  6
Continuous
 62
     7
370
    15
100
AcDbLine
 10
2352.771613540475
 20
866.5651513157541
 30
0.0
 11
2352.771613540474
 21
859.725854939624
 31
0.0
  0
LINE
  5
605
330
575
100
AcDbEntity
  8
0
  6
Continuous
 62
     7
370
    15
100
AcDbLine
 10
2341.571612549869
 20
859.7258901394123
 30
0.0
 11
2341.571612363939
 21
866.5651513157541
 31
0.0
  0
LINE
  5
606
330
575
100
AcDbEntity
  8
0
  6
Continuous
 62
     7
370
    15
100
AcDbLine
 10
2344.571613540474
 20
866.5651513157541
 30
0.0
 11
2344.571613540474
 21
859.725854939624
 31
0.0
  0
ENDBLK
  5
577
330
575
100
AcDbEntity
  8
0
100
AcDbBlockEnd
  0
BLOCK
  5
609
330
608
100
AcDbEntity
  8
0
100
AcDbBlockBegin
  2
2
 70
     0
 10
0.0
 20
0.0
 30
0.0
  3
2
  1

  0
LINE
  5
60B
330
608
100
AcDbEntity
  8
0
  6
Continuous
 62
     7
370
    15
100
AcDbLine
 10
2325.69365680757
 20
873.3971268309998
 30
0.0
 11
2325.69365680757
 21
879.8637453866565
 31
0.0
  0
LINE
  5
60C
330
608
100
AcDbEntity
  8
0
  6
Continuous
 62
     7
370
    15
100
AcDbLine
 10
2325.69365680757
 20
873.3971268309998
 30
0.0
 11
2322.693656807571
 21
873.3971268309998
 31
0.0
  0
LINE
  5
60D
330
608
100
AcDbEntity
  8
0
  6
Continuous
 62
     7
370
    15
100
AcDbLine
 10
2322.693656807571
 20
879.8637453866565
 30
0.0
 11
2321.943656807571
 21
879.8637453866565
 31
0.0
  0
LINE
  5
60E
330
608
100
AcDbEntity
  8
0
  6
Continuous
 62
     7
370
    15
100
AcDbLine
 10
2321.943656807571
 20
879.8637453866565
 30
0.0
 11
2321.943656807571
 21
881.0637453866565
 31
0.0
  0
LINE
  5
60F
330
608
100
AcDbEntity
  8
0
  6
Continuous
 62
     7
370
    15
100
AcDbLine
 10
2321.943656807571
 20
881.0637453866565
 30
0.0
 11
2326.44365680757
 21
881.0637453866565
 31
0.0
  0
LINE
  5
610
330
608
100
AcDbEntity
  8
0
  6
Continuous
 62
     7
370
    15
100
AcDbLine
 10
2326.44365680757
 20
881.0637453866565
 30
0.0
 11
2326.44365680757
 21
879.8637453866565
 31
0.0
  0
LINE
  5
611
330
608
100
AcDbEntity
  8
0
  6
Continuous
 62
     7
370
    15
100
AcDbLine
 10
2326.44365680757
 20
879.8637453866565
 30
0.0
 11
2325.69365680757
 21
879.8637453866565
 31
0.0
  0
LINE
  5
612
330
608
100
AcDbEntity
  8
0
  6
Continuous
 62
     7
370
    15
100
AcDbLine
 10
2322.693656807571
 20
873.3971268309998
 30
0.0
 11
2322.693656807571
 21
879.8637453866565
 31
0.0
  0
LINE
  5
613
330
608
100
AcDbEntity
  8
0
  6
Continuous
 62
     7
370
    15
100
AcDbLine
 10
2325.69365680757
 20
869.6937351368406
 30
0.0
 11
2322.693656807571
 21
869.6937351368406
 31
0.0
  0
LINE
  5
614
330
608
100
AcDbEntity
  8
0
  6
Continuous
 62
     7
370
    15
100
AcDbLine
 10
2325.69365680757
 20
869.6937351368406
 30
0.0
 11
2325.69365680757
 21
873.3971268309998
 31
0.0
  0
LINE
  5
615
330
608
100
AcDbEntity
  8
0
  6
Continuous
 62
     7
370
    15
100
AcDbLine
 10
2322.693656807571
 20
869.6937351368406
 30
0.0
 11
2322.693656807571
 21
873.3971268309998
 31
0.0
  0
LINE
  5
616
330
608
100
AcDbEntity
  8
0
  6
Continuous
 62
     7
370
    15
100
AcDbLine
 10
2322.693656807571
 20
869.3401753592238
 30
0.0
 11
2325.69365680757
 21
869.3401753592238
 31
0.0
  0
LINE
  5
617
330
608
100
AcDbEntity
  8
0
  6
Continuous
 62
     7
370
    15
100
AcDbLine
 10
2325.69365680757
 20
869.3401753592238
 30
0.0
 11
2325.69365680757
 21
869.6937351368406
 31
0.0
  0
LINE
  5
618
330
608
100
AcDbEntity
  8
0
  6
Continuous
 62
     7
370
    15
100
AcDbLine
 10
2322.693656807571
 20
869.3401753592238
 30
0.0
 11
2322.693656807571
 21
869.6937351368406
 31
0.0
  0
LINE
  5
619
330
608
100
AcDbEntity
  8
0
  6
Continuous
 62
     7
370
    15
100
AcDbLine
 10
2322.693656807571
 20
869.2830728169857
 30
0.0
 11
2325.69365680757
 21
869.2830728169857
 31
0.0
  0
LINE
  5
61A
330
608
100
AcDbEntity
  8
0
  6
Continuous
 62
     7
370
    15
100
AcDbLine
 10
2325.69365680757
 20
869.3401753592238
 30
0.0
 11
2325.69365680757
 21
869.2830728169857
 31
0.0
  0
LINE
  5
61B
330
608
100
AcDbEntity
  8
0
  6
Continuous
 62
     7
370
    15
100
AcDbLine
 10
2322.693656807571
 20
869.2830728169857
 30
0.0
 11
2322.693656807571
 21
869.3401753592238
 31
0.0
  0
LINE
  5
61C
330
608
100
AcDbEntity
  8
0
  6
Continuous
 62
     7
370
    15
100
AcDbLine
 10
2322.693656807571
 20
868.929518796706
 30
0.0
 11
2325.69365680757
 21
868.929518796706
 31
0.0
  0
LINE
  5
61D
330
608
100
AcDbEntity
  8
0
  6
Continuous
 62
     7
370
    15
100
AcDbLine
 10
2325.69365680757
 20
869.2830728169857
 30
0.0
 11
2325.69365680757
 21
868.929518796706
 31
0.0
  0
LINE
  5
61E
330
608
100
AcDbEntity
  8
0
  6
Continuous
 62
     7
370
    15
100
AcDbLine
 10
2322.693656807571
 20
868.929518796706
 30
0.0
 11
2322.693656807571
 21
869.2830728169857
 31
0.0
  0
LINE
  5
61F
330
608
100
AcDbEntity
  8
0
  6
Continuous
 62
     7
370
    15
100
AcDbLine
 10
2325.69365680757
 20
866.5651513157541
 30
0.0
 11
2322.693656807571
 21
866.5651513157541
 31
0.0
  0
LINE
  5
620
330
608
100
AcDbEntity
  8
0
  6
Continuous
 62
     7
370
    15
100
AcDbLine
 10
2325.69365680757
 20
866.9151497898752
 30
0.0
 11
2322.693656807571
 21
866.9151497898752
 31
0.0
  0
LINE
  5
621
330
608
100
AcDbEntity
  8
0
  6
Continuous
 62
     7
370
    15
100
AcDbLine
 10
2325.69365680757
 20
866.9151497898752
 30
0.0
 11
2325.69365680757
 21
866.5651513157541
 31
0.0
  0
LINE
  5
622
330
608
100
AcDbEntity
  8
0
  6
Continuous
 62
     7
370
    15
100
AcDbLine
 10
2322.693656807571
 20
866.5651513157541
 30
0.0
 11
2322.693656807571
 21
866.9151497898752
 31
0.0
  0
LINE
  5
623
330
608
100
AcDbEntity
  8
0
  6
Continuous
 62
     7
370
    15
100
AcDbLine
 10
2325.69365680757
 20
866.9151497898752
 30
0.0
 11
2325.69365680757
 21
868.929518796706
 31
0.0
  0
LINE
  5
624
330
608
100
AcDbEntity
  8
0
  6
Continuous
 62
     7
370
    15
100
AcDbLine
 10
2322.693656807571
 20
866.9151497898752
 30
0.0
 11
2322.693656807571
 21
868.929518796706
 31
0.0
  0
LINE
  5
625
330
608
100
AcDbEntity
  8
0
  6
Continuous
 62
     7
370
    15
100
AcDbLine
 10
2323.19365680757
 20
859.4258549395433
 30
0.0
 11
2323.145852022795
 21
859.4258549395433
 31
0.0
  0
ARC
  5
626
330
608
100
AcDbEntity
  8
0
  6
Continuous
 62
     7
370
    15
100
AcDbCircle
 10
2323.19365680757
 20
859.7258549395666
 30
0.0
 40
0.3000000000399943
100
AcDbArc
 50
270.0
 51
0.0009356025272286
  0
LINE
  5
627
330
608
100
AcDbEntity
  8
0
  6
Continuous
 62
     7
370
    15
100
AcDbLine
 10
2323.49365680757
 20
866.5651513157541
 30
0.0
 11
2323.49365680757
 21
859.725854939624
 31
0.0
  0
LINE
  5
628
330
608
100
AcDbEntity
  8
0
  6
Continuous
 62
     7
370
    15
100
AcDbLine
 10
2324.893650704054
 20
859.7258549395666
 30
0.0
 11
2324.893650704054
 21
866.5651513157541
 31
0.0
  0
ARC
  5
629
330
608
100
AcDbEntity
  8
0
  6
Continuous
 62
     7
370
    15
100
AcDbCircle
 10
2325.193650704055
 20
859.7258549395666
 30
0.0
 40
0.300000000023252
100
AcDbArc
 50
180.0
 51
270.0
  0
LINE
  5
62A
330
608
100
AcDbEntity
  8
0
  6
Continuous
 62
     7
370
    15
100
AcDbLine
 10
2325.24145548883
 20
859.4258549395433
 30
0.0
 11
2325.193650704055
 21
859.4258549395433
 31
0.0
  0
ARC
  5
62B
330
608
100
AcDbEntity
  8
0
  6
Continuous
 62
     7
370
    15
100
AcDbCircle
 10
2325.241455488829
 20
859.1258549395202
 30
0.0
 40
0.3000000000231383
100
AcDbArc
 50
0.0000000012701863
 51
89.99999999997395
  0
LINE
  5
62C
330
608
100
AcDbEntity
  8
0
  6
Continuous
 62
     7
370
    15
100
AcDbLine
 10
2325.54145548883
 20
859.125854939527
 30
0.0
 11
2325.54145548883
 21
853.40143461194
 31
0.0
  0
LINE
  5
62D
330
608
100
AcDbEntity
  8
0
  6
Continuous
 62
     7
370
    15
100
AcDbLine
 10
2325.54145548883
 20
853.40143461194
 30
0.0
 11
2322.845852022795
 21
853.4014343659624
 31
0.0
  0
LINE
  5
62E
330
608
100
AcDbEntity
  8
0
  6
Continuous
 62
     7
370
    15
100
AcDbLine
 10
2322.845852022795
 20
853.4014343659624
 30
0.0
 11
2322.845852022795
 21
859.1258549395215
 31
0.0
  0
ARC
  5
62F
330
608
100
AcDbEntity
  8
0
  6
Continuous
 62
     7
370
    15
100
AcDbCircle
 10
2323.145852022795
 20
859.1258549395202
 30
0.0
 40
0.300000000023252
100
AcDbArc
 50
90.0
 51
179.9999999997459
  0
LINE
  5
630
330
608
100
AcDbEntity
  8
0
  6
Continuous
 62
     7
370
    15
100
AcDbLine
 10
2325.54145548883
 20
853.40143461194
 30
0.0
 11
2325.54145548883
 21
851.4798560567951
 31
0.0
  0
LINE
  5
631
330
608
100
AcDbEntity
  8
0
  6
Continuous
 62
     7
370
    15
100
AcDbLine
 10
2325.54145548883
 20
851.4798560567951
 30
0.0
 11
2322.845852022795
 21
851.4798560567951
 31
0.0
  0
LINE
  5
632
330
608
100
AcDbEntity
  8
0
  6
Continuous
 62
     7
370
    15
100
AcDbLine
 10
2322.845852022795
 20
851.4798560567951
 30
0.0
 11
2322.845852022795
 21
853.4014343659624
 31
0.0
  0
LINE
  5
633
330
608
100
AcDbEntity
  8
0
  6
Continuous
 62
     7
370
    15
100
AcDbLine
 10
2325.24145548883
 20
859.4258901393912
 30
0.0
 11
2325.24145548883
 21
859.4258549395433
 31
0.0
  0
ARC
  5
634
330
608
100
AcDbEntity
  8
0
  6
Continuous
 62
     7
370
    15
100
AcDbCircle
 10
2325.24145548883
 20
859.1258901393706
 30
0.0
 40
0.3000000000208455
100
AcDbArc
 50
0.0
 51
90.0
  0
LINE
  5
635
330
608
100
AcDbEntity
  8
0
  6
Continuous
 62
     7
370
    15
100
AcDbLine
 10
2325.54145548883
 20
859.1258901393706
 30
0.0
 11
2325.54145548883
 21
859.125854939527
 31
0.0
  0
ARC
  5
636
330
608
100
AcDbEntity
  8
0
  6
Continuous
 62
     7
370
    15
100
AcDbCircle
 10
2323.145852022795
 20
859.1258901393702
 30
0.0
 40
0.3000000000209591
100
AcDbArc
 50
90.00000000002605
 51
179.9999999989643
  0
LINE
  5
637
330
608
100
AcDbEntity
  8
0
  6
Continuous
 62
     7
370
    15
100
AcDbLine
 10
2323.145852022795
 20
859.4258549395433
 30
0.0
 11
2323.145852022795
 21
859.4258901393912
 31
0.0
  0
LINE
  5
638
330
608
100
AcDbEntity
  8
0
  6
Continuous
 62
     7
370
    15
100
AcDbLine
 10
2322.845852022795
 20
859.1258549395215
 30
0.0
 11
2322.845852022795
 21
859.1258901393757
 31
0.0
  0
LINE
  5
639
330
608
100
AcDbEntity
  8
0
  6
Continuous
 62
     7
370
    15
100
AcDbLine
 10
2325.193650704055
 20
859.4258901393912
 30
0.0
 11
2325.193650704055
 21
859.4258549395433
 31
0.0
  0
LINE
  5
63A
330
608
100
AcDbEntity
  8
0
  6
Continuous
 62
     7
370
    15
100
AcDbLine
 10
2325.24145548883
 20
859.4258901393912
 30
0.0
 11
2325.193650704055
 21
859.4258901393912
 31
0.0
  0
ARC
  5
63B
330
608
100
AcDbEntity
  8
0
  6
Continuous
 62
     7
370
    15
100
AcDbCircle
 10
2325.193650704055
 20
859.7258901394123
 30
0.0
 40
0.3000000000209307
100
AcDbArc
 50
179.9999300720288
 51
270.0
  0
LINE
  5
63C
330
608
100
AcDbEntity
  8
0
  6
Continuous
 62
     7
370
    15
100
AcDbLine
 10
2323.145852022795
 20
859.4258901393912
 30
0.0
 11
2323.19365680757
 21
859.4258901393912
 31
0.0
  0
LINE
  5
63D
330
608
100
AcDbEntity
  8
0
  6
Continuous
 62
     7
370
    15
100
AcDbLine
 10
2323.19365680757
 20
859.4258549395433
 30
0.0
 11
2323.19365680757
 21
859.4258901393912
 31
0.0
  0
ARC
  5
63E
330
608
100
AcDbEntity
  8
0
  6
Continuous
 62
     7
370
    15
100
AcDbCircle
 10
2323.19365680757
 20
859.7258901394123
 30
0.0
 40
0.3000000000209307
100
AcDbArc
 50
270.0
 51
0.0
  0
LINE
  5
63F
330
608
100
AcDbEntity
  8
0
  6
Continuous
 62
     7
370
    15
100
AcDbLine
 10
2325.69365680757
 20
871.1637453866565
 30
0.0
 11
2326.04365680757
 21
871.1637453866565
 31
0.0
  0
LINE
  5
640
330
608
100
AcDbEntity
  8
0
  6
Continuous
 62
     7
370
    15
100
AcDbLine
 10
2326.04365680757
 20
871.1637453866565
 30
0.0
 11
2325.69365680757
 21
869.8637453866565
 31
0.0
  0
LINE
  5
641
330
608
100
AcDbEntity
  8
0
  6
Continuous
 62
     7
370
    15
100
AcDbLine
 10
2322.34365680757
 20
871.1637453866565
 30
0.0
 11
2322.693656807571
 21
871.1637453866565
 31
0.0
  0
LINE
  5
642
330
608
100
AcDbEntity
  8
0
  6
Continuous
 62
     7
370
    15
100
AcDbLine
 10
2322.693656807571
 20
869.8637453866565
 30
0.0
 11
2322.34365680757
 21
871.1637453866565
 31
0.0
  0
LINE
  5
643
330
608
100
AcDbEntity
  8
0
  6
Continuous
 62
     7
370
    15
100
AcDbLine
 10
2322.845852022795
 20
850.9014095830835
 30
0.0
 11
2325.54145548883
 21
850.9014095830835
 31
0.0
  0
LINE
  5
644
330
608
100
AcDbEntity
  8
0
  6
Continuous
 62
     7
370
    15
100
AcDbLine
 10
2322.845852022795
 20
851.4798560567951
 30
0.0
 11
2322.845852022795
 21
850.9014095830835
 31
0.0
  0
LINE
  5
645
330
608
100
AcDbEntity
  8
0
  6
Continuous
 62
     7
370
    15
100
AcDbLine
 10
2325.54145548883
 20
851.4798560567951
 30
0.0
 11
2325.54145548883
 21
850.9014095830835
 31
0.0
  0
ENDBLK
  5
60A
330
608
100
AcDbEntity
  8
0
100
AcDbBlockEnd
  0
BLOCK
  5
648
330
647
100
AcDbEntity
  8
0
100
AcDbBlockBegin
  2
3
 70
     0
 10
0.0
 20
0.0
 30
0.0
  3
3
  1

  0
LINE
  5
64A
330
647
100
AcDbEntity
  8
0
  6
Continuous
 62
     7
370
    15
100
AcDbLine
 10
2339.271589613876
 20
841.9396024690115
 30
0.0
 11
2371.471591051075
 21
841.9396024690115
 31
0.0
  0
LINE
  5
64B
330
647
100
AcDbEntity
  8
0
  6
Continuous
 62
     7
370
    15
100
AcDbLine
 10
2371.471591051075
 20
837.4396024690115
 30
0.0
 11
2371.471591051075
 21
841.9396024690115
 31
0.0
  0
LINE
  5
64C
330
647
100
AcDbEntity
  8
0
  6
Continuous
 62
     7
370
    15
100
AcDbLine
 10
2371.471591051075
 20
837.4396024690115
 30
0.0
 11
2339.271589613876
 21
837.4396024690115
 31
0.0
  0
LINE
  5
64D
330
647
100
AcDbEntity
  8
0
  6
Continuous
 62
     7
370
    15
100
AcDbLine
 10
2339.271589613876
 20
841.9396024690115
 30
0.0
 11
2339.271589613876
 21
837.4396024690115
 31
0.0
  0
ENDBLK
  5
649
330
647
100
AcDbEntity
  8
0
100
AcDbBlockEnd
  0
BLOCK
  5
650
330
64F
100
AcDbEntity
  8
0
100
AcDbBlockBegin
  2
4
 70
     0
 10
0.0
 20
0.0
 30
0.0
  3
4
  1

  0
LINE
  5
652
330
64F
100
AcDbEntity
  8
0
  6
Continuous
 62
     7
370
    15
100
AcDbLine
 10
2419.324868413418
 20
852.6694896847805
 30
0.0
 11
2418.928944405043
 21
852.8980571141627
 31
0.0
  0
LINE
  5
653
330
64F
100
AcDbEntity
  8
0
  6
Continuous
 62
     7
370
    15
100
AcDbLine
 10
2417.103862955045
 20
845.1012413187571
 30
0.0
 11
2419.009942445268
 21
846.201597586721
 31
0.0
  0
LINE
  5
654
330
64F
100
AcDbEntity
  8
0
  6
Continuous
 62
     7
370
    15
100
AcDbLine
 10
2413.526592807688
 20
856.0167629432536
 30
0.0
 11
2413.130668799313
 21
856.2453303726357
 31
0.0
  0
LINE
  5
655
330
64F
100
AcDbEntity
  8
0
  6
Continuous
 62
     7
370
    15
100
AcDbLine
 10
2411.305587349315
 20
848.4485145772303
 30
0.0
 11
2413.211666839539
 21
849.5488708451942
 31
0.0
  0
LINE
  5
656
330
64F
100
AcDbEntity
  8
0
  6
Continuous
 62
     7
370
    15
100
AcDbLine
 10
2407.728317201959
 20
859.3640362017266
 30
0.0
 11
2407.332393193584
 21
859.5926036311089
 31
0.0
  0
LINE
  5
657
330
64F
100
AcDbEntity
  8
0
  6
Continuous
 62
     7
370
    15
100
AcDbLine
 10
2405.507311743586
 20
851.7957878357034
 30
0.0
 11
2407.413391233808
 21
852.8961441036672
 31
0.0
  0
LINE
  5
658
330
64F
100
AcDbEntity
  8
0
  6
Continuous
 62
     7
370
    15
100
AcDbLine
 10
2401.930041596229
 20
862.7113094601998
 30
0.0
 11
2401.534117587854
 21
862.939876889582
 31
0.0
  0
LINE
  5
659
330
64F
100
AcDbEntity
  8
0
  6
Continuous
 62
     7
370
    15
100
AcDbLine
 10
2399.709036137856
 20
855.1430610941764
 30
0.0
 11
2401.615115628079
 21
856.2434173621403
 31
0.0
  0
LINE
  5
65A
330
64F
100
AcDbEntity
  8
0
  6
Continuous
 62
     7
370
    15
100
AcDbLine
 10
2421.120960376175
 20
863.3084838482766
 30
0.0
 11
2421.120960376175
 21
868.588741813868
 31
0.0
  0
LINE
  5
65B
330
64F
100
AcDbEntity
  8
0
  6
Continuous
 62
     7
370
    15
100
AcDbLine
 10
2421.120960376175
 20
863.3084838482766
 30
0.0
 11
2418.999640032615
 21
862.0838716805424
 31
0.0
  0
LINE
  5
65C
330
64F
100
AcDbEntity
  8
0
  6
Continuous
 62
     7
370
    15
100
AcDbLine
 10
2418.999640032615
 20
862.0838716805424
 30
0.0
 11
2418.999640032615
 21
867.3641296461338
 31
0.0
  0
LINE
  5
65D
330
64F
100
AcDbEntity
  8
0
  6
Continuous
 62
     7
370
    15
100
AcDbLine
 10
2418.999640032615
 20
867.3641296461338
 30
0.0
 11
2418.469309946725
 21
867.0579766042003
 31
0.0
  0
LINE
  5
65E
330
64F
100
AcDbEntity
  8
0
  6
Continuous
 62
     7
370
    15
100
AcDbLine
 10
2418.469309946725
 20
867.0579766042003
 30
0.0
 11
2418.469309946725
 21
868.0378255784633
 31
0.0
  0
LINE
  5
65F
330
64F
100
AcDbEntity
  8
0
  6
Continuous
 62
     7
370
    15
100
AcDbLine
 10
2418.469309946725
 20
868.0378255784633
 30
0.0
 11
2421.651290462065
 21
869.8747438300644
 31
0.0
  0
LINE
  5
660
330
64F
100
AcDbEntity
  8
0
  6
Continuous
 62
     7
370
    15
100
AcDbLine
 10
2421.651290462065
 20
869.8747438300644
 30
0.0
 11
2421.651290462065
 21
868.8948948558014
 31
0.0
  0
LINE
  5
661
330
64F
100
AcDbEntity
  8
0
  6
Continuous
 62
     7
370
    15
100
AcDbLine
 10
2421.651290462065
 20
868.8948948558014
 30
0.0
 11
2421.120960376175
 21
868.588741813868
 31
0.0
  0
LINE
  5
662
330
64F
100
AcDbEntity
  8
0
  6
Continuous
 62
     7
370
    15
100
AcDbLine
 10
2418.469309946725
 20
868.0378255784633
 30
0.0
 11
2395.700470576265
 21
881.1819967654795
 31
0.0
  0
LINE
  5
663
330
64F
100
AcDbEntity
  8
0
  6
Continuous
 62
     7
370
    15
100
AcDbLine
 10
2398.882451091604
 20
883.0189150170806
 30
0.0
 11
2395.700470576265
 21
881.1819967654795
 31
0.0
  0
LINE
  5
664
330
64F
100
AcDbEntity
  8
0
  6
Continuous
 62
     7
370
    15
100
AcDbLine
 10
2398.882451091604
 20
883.0189150170806
 30
0.0
 11
2421.651290462065
 21
869.8747438300644
 31
0.0
  0
LINE
  5
665
330
64F
100
AcDbEntity
  8
0
  6
Continuous
 62
     7
370
    15
100
AcDbLine
 10
2418.469309946725
 20
867.0579766042003
 30
0.0
 11
2395.700470576265
 21
880.2021477912166
 31
0.0
  0
LINE
  5
666
330
64F
100
AcDbEntity
  8
0
  6
Continuous
 62
     7
370
    15
100
AcDbLine
 10
2395.700470576265
 20
881.1819967654795
 30
0.0
 11
2395.700470576265
 21
880.2021477912166
 31
0.0
  0
LINE
  5
667
330
64F
100
AcDbEntity
  8
0
  6
Continuous
 62
     7
370
    15
100
AcDbLine
 10
2399.801687867239
 20
870.2814634095538
 30
0.0
 11
2398.033920914273
 21
871.3019735493322
 31
0.0
  0
LINE
  5
668
330
64F
100
AcDbEntity
  8
0
  6
Continuous
 62
     7
370
    15
100
AcDbLine
 10
2399.801687867239
 20
871.3429664650051
 30
0.0
 11
2399.801687867239
 21
870.2814634095538
 31
0.0
  0
LINE
  5
669
330
64F
100
AcDbEntity
  8
0
  6
Continuous
 62
     7
370
    15
100
AcDbLine
 10
2399.801687867239
 20
871.3429664650051
 30
0.0
 11
2398.033920914273
 21
872.3634766047835
 31
0.0
  0
LINE
  5
66A
330
64F
100
AcDbEntity
  8
0
  6
Continuous
 62
     7
370
    15
100
AcDbLine
 10
2417.196514684428
 20
861.3011466895859
 30
0.0
 11
2415.428747731462
 21
862.3216568293642
 31
0.0
  0
LINE
  5
66B
330
64F
100
AcDbEntity
  8
0
  6
Continuous
 62
     7
370
    15
100
AcDbLine
 10
2417.196514684428
 20
860.2396436341345
 30
0.0
 11
2415.428747731462
 21
861.2601537739129
 31
0.0
  0
LINE
  5
66C
330
64F
100
AcDbEntity
  8
0
  6
Continuous
 62
     7
370
    15
100
AcDbLine
 10
2417.196514684428
 20
861.3011466895859
 30
0.0
 11
2417.196514684428
 21
860.2396436341345
 31
0.0
  0
LINE
  5
66D
330
64F
100
AcDbEntity
  8
0
  6
Continuous
 62
     7
370
    15
100
AcDbLine
 10
2411.398239078699
 20
863.5869168926076
 30
0.0
 11
2409.630472125732
 21
864.6074270323859
 31
0.0
  0
LINE
  5
66E
330
64F
100
AcDbEntity
  8
0
  6
Continuous
 62
     7
370
    15
100
AcDbLine
 10
2411.398239078699
 20
864.6484199480589
 30
0.0
 11
2411.398239078699
 21
863.5869168926076
 31
0.0
  0
LINE
  5
66F
330
64F
100
AcDbEntity
  8
0
  6
Continuous
 62
     7
370
    15
100
AcDbLine
 10
2411.398239078699
 20
864.6484199480589
 30
0.0
 11
2409.630472125732
 21
865.6689300878372
 31
0.0
  0
LINE
  5
670
330
64F
100
AcDbEntity
  8
0
  6
Continuous
 62
     7
370
    15
100
AcDbLine
 10
2405.599963472969
 20
866.9341901510806
 30
0.0
 11
2403.832196520003
 21
867.9547002908591
 31
0.0
  0
LINE
  5
671
330
64F
100
AcDbEntity
  8
0
  6
Continuous
 62
     7
370
    15
100
AcDbLine
 10
2405.599963472969
 20
867.9956932065321
 30
0.0
 11
2405.599963472969
 21
866.9341901510806
 31
0.0
  0
LINE
  5
672
330
64F
100
AcDbEntity
  8
0
  6
Continuous
 62
     7
370
    15
100
AcDbLine
 10
2405.599963472969
 20
867.9956932065321
 30
0.0
 11
2403.832196520003
 21
869.0162033463105
 31
0.0
  0
LINE
  5
673
330
64F
100
AcDbEntity
  8
0
  6
Continuous
 62
     7
370
    15
100
AcDbLine
 10
2400.791636645415
 20
869.5711590281089
 30
0.0
 11
2400.791636645415
 21
872.5951290518599
 31
0.0
  0
ARC
  5
674
330
64F
100
AcDbEntity
  8
0
  6
Continuous
 62
     7
370
    15
100
AcDbCircle
 10
2400.541306957017
 20
869.546522025641
 30
0.0
 40
0.2515391317154926
100
AcDbArc
 50
305.697855979324
 51
5.62084718521897
  0
LINE
  5
675
330
64F
100
AcDbEntity
  8
0
  6
Continuous
 62
     7
370
    15
100
AcDbLine
 10
2400.647704096364
 20
869.3189254619445
 30
0.0
 11
2400.688082762681
 21
869.3422457478803
 31
0.0
  0
ARC
  5
676
330
64F
100
AcDbEntity
  8
0
  6
Continuous
 62
     7
370
    15
100
AcDbCircle
 10
2400.794481673788
 20
869.1146498034301
 30
0.0
 40
0.251539662669603
100
AcDbArc
 50
125.6982660277126
 51
185.6204239755825
  0
LINE
  5
677
330
64F
100
AcDbEntity
  8
0
  6
Continuous
 62
     7
370
    15
100
AcDbLine
 10
2400.544151275016
 20
867.4451997650525
 30
0.0
 11
2400.544151275016
 21
869.0900145979982
 31
0.0
  0
LINE
  5
678
330
64F
100
AcDbEntity
  8
0
  6
Continuous
 62
     7
370
    15
100
AcDbLine
 10
2400.29666498056
 20
867.3022825235339
 30
0.0
 11
2400.544151275016
 21
867.4451997650525
 31
0.0
  0
LINE
  5
679
330
64F
100
AcDbEntity
  8
0
  6
Continuous
 62
     7
370
    15
100
AcDbLine
 10
2400.29666498056
 20
867.3022825235339
 30
0.0
 11
2397.538943998932
 21
868.8942809595884
 31
0.0
  0
LINE
  5
67A
330
64F
100
AcDbEntity
  8
0
  6
Continuous
 62
     7
370
    15
100
AcDbLine
 10
2397.291459512313
 20
869.3229366632397
 30
0.0
 11
2397.538943998932
 21
868.8942809595884
 31
0.0
  0
LINE
  5
67B
330
64F
100
AcDbEntity
  8
0
  6
Continuous
 62
     7
370
    15
100
AcDbLine
 10
2397.291459512312
 20
870.9677531873795
 30
0.0
 11
2397.291457704476
 21
869.3229397945051
 31
0.0
  0
ARC
  5
67C
330
64F
100
AcDbEntity
  8
0
  6
Continuous
 62
     7
370
    15
100
AcDbCircle
 10
2396.570473307766
 20
870.9431236491157
 30
0.0
 40
0.7214067654945518
100
AcDbArc
 50
1.956514618273992
 51
31.14419206753463
  0
LINE
  5
67D
330
64F
100
AcDbEntity
  8
0
  6
Continuous
 62
     7
370
    15
100
AcDbLine
 10
2397.147526486346
 20
871.386162900149
 30
0.0
 11
2397.187902583032
 21
871.316230619495
 31
0.0
  0
ARC
  5
67E
330
64F
100
AcDbEntity
  8
0
  6
Continuous
 62
     7
370
    15
100
AcDbCircle
 10
2397.764956153864
 20
871.7592663777383
 30
0.0
 40
0.7214052947686707
100
AcDbArc
 50
181.9565178959555
 51
211.1439385321008
  0
LINE
  5
67F
330
64F
100
AcDbEntity
  8
0
  6
Continuous
 62
     7
370
    15
100
AcDbLine
 10
2397.043971420612
 20
874.7586101351492
 30
0.0
 11
2397.043971420595
 21
871.7346368484417
 31
0.0
  0
LINE
  5
680
330
64F
100
AcDbEntity
  8
0
  6
Continuous
 62
     7
370
    15
100
AcDbLine
 10
2396.230800662155
 20
875.2280436218338
 30
0.0
 11
2397.043971420612
 21
874.7586101351492
 31
0.0
  0
LINE
  5
681
330
64F
100
AcDbEntity
  8
0
  6
Continuous
 62
     7
370
    15
100
AcDbLine
 10
2396.230800662154
 20
879.895994749283
 30
0.0
 11
2396.230800662155
 21
875.2280436218338
 31
0.0
  0
LINE
  5
682
330
64F
100
AcDbEntity
  8
0
  6
Continuous
 62
     7
370
    15
100
AcDbLine
 10
2418.186469274158
 20
862.553305167227
 30
0.0
 11
2418.999640032615
 21
862.0838716805424
 31
0.0
  0
LINE
  5
683
330
64F
100
AcDbEntity
  8
0
  6
Continuous
 62
     7
370
    15
100
AcDbLine
 10
2418.186469274158
 20
859.5293347065473
 30
0.0
 11
2418.186469274158
 21
862.553305167227
 31
0.0
  0
ARC
  5
684
330
64F
100
AcDbEntity
  8
0
  6
Continuous
 62
     7
370
    15
100
AcDbCircle
 10
2417.936137583802
 20
859.5046975052298
 30
0.0
 40
0.2515411435236464
100
AcDbArc
 50
305.6978531816529
 51
5.620847597904996
  0
LINE
  5
685
330
64F
100
AcDbEntity
  8
0
  6
Continuous
 62
     7
370
    15
100
AcDbLine
 10
2418.042535889309
 20
859.2771031369142
 30
0.0
 11
2418.082914553404
 21
859.300419586502
 31
0.0
  0
ARC
  5
686
330
64F
100
AcDbEntity
  8
0
  6
Continuous
 62
     7
370
    15
100
AcDbCircle
 10
2418.18930876427
 20
859.0728278289638
 30
0.0
 40
0.2515366340367653
100
AcDbArc
 50
125.6974427479293
 51
185.6205025999603
  0
LINE
  5
687
330
64F
100
AcDbEntity
  8
0
  6
Continuous
 62
     7
370
    15
100
AcDbLine
 10
2417.938981413377
 20
857.4033780723617
 30
0.0
 11
2417.938981413377
 21
859.0481925766365
 31
0.0
  0
LINE
  5
688
330
64F
100
AcDbEntity
  8
0
  6
Continuous
 62
     7
370
    15
100
AcDbLine
 10
2417.691495118921
 20
857.2604608308429
 30
0.0
 11
2417.938981413377
 21
857.4033780723617
 31
0.0
  0
LINE
  5
689
330
64F
100
AcDbEntity
  8
0
  6
Continuous
 62
     7
370
    15
100
AcDbLine
 10
2417.691495118921
 20
857.2604608308429
 30
0.0
 11
2414.933774137292
 21
858.8524592668974
 31
0.0
  0
LINE
  5
68A
330
64F
100
AcDbEntity
  8
0
  6
Continuous
 62
     7
370
    15
100
AcDbLine
 10
2414.686286329502
 20
859.2811207229868
 30
0.0
 11
2414.933774137292
 21
858.8524592668974
 31
0.0
  0
LINE
  5
68B
330
64F
100
AcDbEntity
  8
0
  6
Continuous
 62
     7
370
    15
100
AcDbLine
 10
2414.686286329501
 20
860.9259338879374
 30
0.0
 11
2414.686287842837
 21
859.2811181018142
 31
0.0
  0
ARC
  5
68C
330
64F
100
AcDbEntity
  8
0
  6
Continuous
 62
     7
370
    15
100
AcDbCircle
 10
2413.965298594976
 20
860.9013039024624
 30
0.0
 40
0.7214083098500323
100
AcDbArc
 50
1.956545967414901
 51
31.14400349254366
  0
LINE
  5
68D
330
64F
100
AcDbEntity
  8
0
  6
Continuous
 62
     7
370
    15
100
AcDbLine
 10
2414.542349730631
 20
861.344346039654
 30
0.0
 11
2414.582730419997
 21
861.2744096394491
 31
0.0
  0
ARC
  5
68E
330
64F
100
AcDbEntity
  8
0
  6
Continuous
 62
     7
370
    15
100
AcDbCircle
 10
2415.159776177107
 20
861.717444616235
 30
0.0
 40
0.7214000032257408
100
AcDbArc
 50
181.956458047035
 51
211.1437376919485
  0
LINE
  5
68F
330
64F
100
AcDbEntity
  8
0
  6
Continuous
 62
     7
370
    15
100
AcDbLine
 10
2414.438801548381
 20
864.716788448573
 30
0.0
 11
2414.43879670657
 21
861.692816020704
 31
0.0
  0
LINE
  5
690
330
64F
100
AcDbEntity
  8
0
  6
Continuous
 62
     7
370
    15
100
AcDbLine
 10
2412.388187856874
 20
865.9005825349138
 30
0.0
 11
2414.438801548381
 21
864.716788448573
 31
0.0
  0
LINE
  5
691
330
64F
100
AcDbEntity
  8
0
  6
Continuous
 62
     7
370
    15
100
AcDbLine
 10
2412.388187856874
 20
862.8766125111626
 30
0.0
 11
2412.388187856874
 21
865.9005825349138
 31
0.0
  0
ARC
  5
692
330
64F
100
AcDbEntity
  8
0
  6
Continuous
 62
     7
370
    15
100
AcDbCircle
 10
2412.137858168476
 20
862.851975508695
 30
0.0
 40
0.2515391317154711
100
AcDbArc
 50
305.697855979324
 51
5.620847185212488
  0
LINE
  5
693
330
64F
100
AcDbEntity
  8
0
  6
Continuous
 62
     7
370
    15
100
AcDbLine
 10
2412.244255307823
 20
862.6243789449983
 30
0.0
 11
2412.28463397414
 21
862.6476992309342
 31
0.0
  0
ARC
  5
694
330
64F
100
AcDbEntity
  8
0
  6
Continuous
 62
     7
370
    15
100
AcDbCircle
 10
2412.391032885247
 20
862.420103286484
 30
0.0
 40
0.2515396626695066
100
AcDbArc
 50
125.6982660277414
 51
185.6204239756214
  0
LINE
  5
695
330
64F
100
AcDbEntity
  8
0
  6
Continuous
 62
     7
370
    15
100
AcDbLine
 10
2412.140702486476
 20
860.7506532481064
 30
0.0
 11
2412.140702486476
 21
862.395468081052
 31
0.0
  0
LINE
  5
696
330
64F
100
AcDbEntity
  8
0
  6
Continuous
 62
     7
370
    15
100
AcDbLine
 10
2411.893216192019
 20
860.6077360065876
 30
0.0
 11
2412.140702486476
 21
860.7506532481064
 31
0.0
  0
LINE
  5
697
330
64F
100
AcDbEntity
  8
0
  6
Continuous
 62
     7
370
    15
100
AcDbLine
 10
2411.893216192019
 20
860.6077360065876
 30
0.0
 11
2409.135495210391
 21
862.1997344426421
 31
0.0
  0
LINE
  5
698
330
64F
100
AcDbEntity
  8
0
  6
Continuous
 62
     7
370
    15
100
AcDbLine
 10
2408.888010723772
 20
862.6283901462937
 30
0.0
 11
2409.135495210391
 21
862.1997344426421
 31
0.0
  0
LINE
  5
699
330
64F
100
AcDbEntity
  8
0
  6
Continuous
 62
     7
370
    15
100
AcDbLine
 10
2408.888010723771
 20
864.2732066704333
 30
0.0
 11
2408.888008915936
 21
862.6283932775589
 31
0.0
  0
ARC
  5
69A
330
64F
100
AcDbEntity
  8
0
  6
Continuous
 62
     7
370
    15
100
AcDbCircle
 10
2408.167024519225
 20
864.2485771321695
 30
0.0
 40
0.7214067654951438
100
AcDbArc
 50
1.956514618280502
 51
31.14419206752349
  0
LINE
  5
69B
330
64F
100
AcDbEntity
  8
0
  6
Continuous
 62
     7
370
    15
100
AcDbLine
 10
2408.744077697805
 20
864.6916163832029
 30
0.0
 11
2408.784453794491
 21
864.621684102549
 31
0.0
  0
ARC
  5
69C
330
64F
100
AcDbEntity
  8
0
  6
Continuous
 62
     7
370
    15
100
AcDbCircle
 10
2409.361507365322
 20
865.0647198607916
 30
0.0
 40
0.7214052947672096
100
AcDbArc
 50
181.9565178959294
 51
211.1439385321366
  0
LINE
  5
69D
330
64F
100
AcDbEntity
  8
0
  6
Continuous
 62
     7
370
    15
100
AcDbLine
 10
2408.640522632071
 20
868.064063618203
 30
0.0
 11
2408.640522632054
 21
865.0400903314956
 31
0.0
  0
LINE
  5
69E
330
64F
100
AcDbEntity
  8
0
  6
Continuous
 62
     7
370
    15
100
AcDbLine
 10
2406.589912251145
 20
869.2478557933869
 30
0.0
 11
2408.640522632071
 21
868.064063618203
 31
0.0
  0
LINE
  5
69F
330
64F
100
AcDbEntity
  8
0
  6
Continuous
 62
     7
370
    15
100
AcDbLine
 10
2406.589912251145
 20
866.2238857696358
 30
0.0
 11
2406.589912251145
 21
869.2478557933869
 31
0.0
  0
ARC
  5
6A0
330
64F
100
AcDbEntity
  8
0
  6
Continuous
 62
     7
370
    15
100
AcDbCircle
 10
2406.339582562746
 20
866.199248767168
 30
0.0
 40
0.2515391317154388
100
AcDbArc
 50
305.697855979324
 51
5.620847185225453
  0
LINE
  5
6A1
330
64F
100
AcDbEntity
  8
0
  6
Continuous
 62
     7
370
    15
100
AcDbLine
 10
2406.445979702094
 20
865.9716522034713
 30
0.0
 11
2406.486358368411
 21
865.9949724894072
 31
0.0
  0
ARC
  5
6A2
330
64F
100
AcDbEntity
  8
0
  6
Continuous
 62
     7
370
    15
100
AcDbCircle
 10
2406.592757279517
 20
865.7673765449571
 30
0.0
 40
0.2515396626693312
100
AcDbArc
 50
125.6982660277088
 51
185.6204239756214
  0
LINE
  5
6A3
330
64F
100
AcDbEntity
  8
0
  6
Continuous
 62
     7
370
    15
100
AcDbLine
 10
2406.342426880746
 20
864.0979265065793
 30
0.0
 11
2406.342426880746
 21
865.7427413395252
 31
0.0
  0
LINE
  5
6A4
330
64F
100
AcDbEntity
  8
0
  6
Continuous
 62
     7
370
    15
100
AcDbLine
 10
2406.09494058629
 20
863.9550092650607
 30
0.0
 11
2406.342426880746
 21
864.0979265065793
 31
0.0
  0
LINE
  5
6A5
330
64F
100
AcDbEntity
  8
0
  6
Continuous
 62
     7
370
    15
100
AcDbLine
 10
2406.09494058629
 20
863.9550092650607
 30
0.0
 11
2403.337219604662
 21
865.5470077011154
 31
0.0
  0
LINE
  5
6A6
330
64F
100
AcDbEntity
  8
0
  6
Continuous
 62
     7
370
    15
100
AcDbLine
 10
2403.089735118042
 20
865.9756634047667
 30
0.0
 11
2403.337219604662
 21
865.5470077011154
 31
0.0
  0
LINE
  5
6A7
330
64F
100
AcDbEntity
  8
0
  6
Continuous
 62
     7
370
    15
100
AcDbLine
 10
2403.089735118042
 20
867.6204799289065
 30
0.0
 11
2403.089733310206
 21
865.9756665360319
 31
0.0
  0
ARC
  5
6A8
330
64F
100
AcDbEntity
  8
0
  6
Continuous
 62
     7
370
    15
100
AcDbCircle
 10
2402.368748913496
 20
867.5958503906427
 30
0.0
 40
0.7214067654942888
100
AcDbArc
 50
1.956514618266593
 51
31.14419206753463
  0
LINE
  5
6A9
330
64F
100
AcDbEntity
  8
0
  6
Continuous
 62
     7
370
    15
100
AcDbLine
 10
2402.945802092076
 20
868.038889641676
 30
0.0
 11
2402.986178188762
 21
867.9689573610218
 31
0.0
  0
ARC
  5
6AA
330
64F
100
AcDbEntity
  8
0
  6
Continuous
 62
     7
370
    15
100
AcDbCircle
 10
2403.563231759593
 20
868.411993119265
 30
0.0
 40
0.7214052947681229
100
AcDbArc
 50
181.9565178959424
 51
211.1439385321064
  0
LINE
  5
6AB
330
64F
100
AcDbEntity
  8
0
  6
Continuous
 62
     7
370
    15
100
AcDbLine
 10
2402.842247026342
 20
871.4113368766762
 30
0.0
 11
2402.842247026324
 21
868.3873635899685
 31
0.0
  0
LINE
  5
6AC
330
64F
100
AcDbEntity
  8
0
  6
Continuous
 62
     7
370
    15
100
AcDbLine
 10
2400.791636645415
 20
872.5951290518599
 30
0.0
 11
2402.842247026342
 21
871.4113368766762
 31
0.0
  0
LINE
  5
6AD
330
64F
100
AcDbEntity
  8
0
  6
Continuous
 62
     7
370
    15
100
AcDbLine
 10
2420.307789617718
 20
860.7539468742814
 30
0.0
 11
2418.186469274158
 21
859.5293347065473
 31
0.0
  0
LINE
  5
6AE
330
64F
100
AcDbEntity
  8
0
  6
Continuous
 62
     7
370
    15
100
AcDbLine
 10
2420.307789617718
 20
860.7539468742814
 30
0.0
 11
2420.307789617718
 21
862.839050361592
 31
0.0
  0
LINE
  5
6AF
330
64F
100
AcDbEntity
  8
0
  6
Continuous
 62
     7
370
    15
100
AcDbLine
 10
2416.949027311013
 20
861.1582752700169
 30
0.0
 11
2417.196514684428
 21
861.3011466895859
 31
0.0
  0
LINE
  5
6B0
330
64F
100
AcDbEntity
  8
0
  6
Continuous
 62
     7
370
    15
100
AcDbLine
 10
2416.949027311013
 20
861.1582752700169
 30
0.0
 11
2415.181260358047
 21
862.1787854097952
 31
0.0
  0
LINE
  5
6B1
330
64F
100
AcDbEntity
  8
0
  6
Continuous
 62
     7
370
    15
100
AcDbLine
 10
2415.181260358047
 20
862.1787854097952
 30
0.0
 11
2415.428747731462
 21
862.3216568293642
 31
0.0
  0
LINE
  5
6B2
330
64F
100
AcDbEntity
  8
0
  6
Continuous
 62
     7
370
    15
100
AcDbLine
 10
2417.196514684428
 20
860.2396436341345
 30
0.0
 11
2416.949027311013
 21
861.1582752700169
 31
0.0
  0
LINE
  5
6B3
330
64F
100
AcDbEntity
  8
0
  6
Continuous
 62
     7
370
    15
100
AcDbLine
 10
2415.428747731462
 20
861.2601537739129
 30
0.0
 11
2415.181260358047
 21
862.1787854097952
 31
0.0
  0
LINE
  5
6B4
330
64F
100
AcDbEntity
  8
0
  6
Continuous
 62
     7
370
    15
100
AcDbLine
 10
2418.082914553404
 20
859.300419586502
 30
0.0
 11
2420.204234896963
 21
860.525031754236
 31
0.0
  0
ARC
  5
6B5
330
64F
100
AcDbEntity
  8
0
  6
Continuous
 62
     7
370
    15
100
AcDbCircle
 10
2420.057457927362
 20
860.7293096729639
 30
0.0
 40
0.2515411435237027
100
AcDbArc
 50
305.6978531816566
 51
5.620847597904996
  0
LINE
  5
6B6
330
64F
100
AcDbEntity
  8
0
  6
Continuous
 62
     7
370
    15
100
AcDbLine
 10
2418.042535889309
 20
859.2771031369142
 30
0.0
 11
2420.163856232869
 21
860.5017153046482
 31
0.0
  0
LINE
  5
6B7
330
64F
100
AcDbEntity
  8
0
  6
Continuous
 62
     7
370
    15
100
AcDbLine
 10
2420.204234896963
 20
860.525031754236
 30
0.0
 11
2420.163856232869
 21
860.5017153046482
 31
0.0
  0
LINE
  5
6B8
330
64F
100
AcDbEntity
  8
0
  6
Continuous
 62
     7
370
    15
100
AcDbLine
 10
2417.938981413377
 20
859.0481925766365
 30
0.0
 11
2420.060301756937
 21
860.2728047443704
 31
0.0
  0
ARC
  5
6B9
330
64F
100
AcDbEntity
  8
0
  6
Continuous
 62
     7
370
    15
100
AcDbCircle
 10
2420.310629108072
 20
860.2974399965885
 30
0.0
 40
0.2515366342666195
100
AcDbArc
 50
125.6974427781179
 51
185.6205025697788
  0
LINE
  5
6BA
330
64F
100
AcDbEntity
  8
0
  6
Continuous
 62
     7
370
    15
100
AcDbLine
 10
2420.060301756937
 20
858.6279902400956
 30
0.0
 11
2417.938981413377
 21
857.4033780723617
 31
0.0
  0
LINE
  5
6BB
330
64F
100
AcDbEntity
  8
0
  6
Continuous
 62
     7
370
    15
100
AcDbLine
 10
2420.060301756937
 20
858.6279902400956
 30
0.0
 11
2420.060301756937
 21
860.2728047443704
 31
0.0
  0
LINE
  5
6BC
330
64F
100
AcDbEntity
  8
0
  6
Continuous
 62
     7
370
    15
100
AcDbLine
 10
2419.812815462481
 20
858.485072998577
 30
0.0
 11
2417.691495118921
 21
857.2604608308429
 31
0.0
  0
LINE
  5
6BD
330
64F
100
AcDbEntity
  8
0
  6
Continuous
 62
     7
370
    15
100
AcDbLine
 10
2420.060301756937
 20
858.6279902400956
 30
0.0
 11
2419.812815462481
 21
858.485072998577
 31
0.0
  0
LINE
  5
6BE
330
64F
100
AcDbEntity
  8
0
  6
Continuous
 62
     7
370
    15
100
AcDbLine
 10
2417.726867344808
 20
851.8187180760765
 30
0.0
 11
2417.69306425732
 21
851.7992039690396
 31
0.0
  0
ARC
  5
6BF
330
64F
100
AcDbEntity
  8
0
  6
Continuous
 62
     7
370
    15
100
AcDbCircle
 10
2417.478424624971
 20
852.2071008698862
 30
0.0
 40
0.461047697713659
100
AcDbArc
 50
302.6064450637532
 51
357.394682497903
  0
LINE
  5
6C0
330
64F
100
AcDbEntity
  8
0
  6
Continuous
 62
     7
370
    15
100
AcDbLine
 10
2417.938995763242
 20
857.4033399115426
 30
0.0
 11
2417.938995763242
 21
852.1861436239086
 31
0.0
  0
LINE
  5
6C1
330
64F
100
AcDbEntity
  8
0
  6
Continuous
 62
     7
370
    15
100
AcDbLine
 10
2418.928944405043
 20
852.7576248109463
 30
0.0
 11
2418.928944405043
 21
857.9748250980504
 31
0.0
  0
ARC
  5
6C2
330
64F
100
AcDbEntity
  8
0
  6
Continuous
 62
     7
370
    15
100
AcDbCircle
 10
2419.058266850566
 20
852.7366467107404
 30
0.0
 40
0.1310128833526277
100
AcDbArc
 50
170.785997894674
 51
309.2032503544613
  0
LINE
  5
6C3
330
64F
100
AcDbEntity
  8
0
  6
Continuous
 62
     7
370
    15
100
AcDbLine
 10
2419.174879678831
 20
852.6546378034565
 30
0.0
 11
2419.141076591344
 21
852.6351236964194
 31
0.0
  0
ARC
  5
6C4
330
64F
100
AcDbEntity
  8
0
  6
Continuous
 62
     7
370
    15
100
AcDbCircle
 10
2419.257689419608
 20
852.5531147891364
 30
0.0
 40
0.1310128833520406
100
AcDbArc
 50
350.7859978967214
 51
129.2032503545914
  0
LINE
  5
6C5
330
64F
100
AcDbEntity
  8
0
  6
Continuous
 62
     7
370
    15
100
AcDbLine
 10
2419.387011865131
 20
852.532136688935
 30
0.0
 11
2419.387013778028
 21
847.8579127627805
 31
0.0
  0
LINE
  5
6C6
330
64F
100
AcDbEntity
  8
0
  6
Continuous
 62
     7
370
    15
100
AcDbLine
 10
2419.387013778028
 20
847.8579127627805
 30
0.0
 11
2417.480934257136
 21
846.7575563116708
 31
0.0
  0
LINE
  5
6C7
330
64F
100
AcDbEntity
  8
0
  6
Continuous
 62
     7
370
    15
100
AcDbLine
 10
2417.480934257136
 20
846.7575563116708
 30
0.0
 11
2417.480932374909
 21
851.4317804209669
 31
0.0
  0
ARC
  5
6C8
330
64F
100
AcDbEntity
  8
0
  6
Continuous
 62
     7
370
    15
100
AcDbCircle
 10
2417.941496934156
 20
851.4108225173192
 30
0.0
 40
0.4610411553866049
100
AcDbArc
 50
122.6054835579746
 51
177.3945636857455
  0
LINE
  5
6C9
330
64F
100
AcDbEntity
  8
0
  6
Continuous
 62
     7
370
    15
100
AcDbLine
 10
2415.817674719219
 20
853.4107849380754
 30
0.0
 11
2417.938995763242
 21
852.1861436239086
 31
0.0
  0
LINE
  5
6CA
330
64F
100
AcDbEntity
  8
0
  6
Continuous
 62
     7
370
    15
100
AcDbLine
 10
2415.817674719219
 20
853.4107849380754
 30
0.0
 11
2415.817674539021
 21
858.3421944262724
 31
0.0
  0
LINE
  5
6CB
330
64F
100
AcDbEntity
  8
0
  6
Continuous
 62
     7
370
    15
100
AcDbLine
 10
2411.150751705283
 20
864.5055485284901
 30
0.0
 11
2409.382984752317
 21
865.5260586682683
 31
0.0
  0
LINE
  5
6CC
330
64F
100
AcDbEntity
  8
0
  6
Continuous
 62
     7
370
    15
100
AcDbLine
 10
2411.398239078699
 20
863.5869168926076
 30
0.0
 11
2411.150751705283
 21
864.5055485284901
 31
0.0
  0
LINE
  5
6CD
330
64F
100
AcDbEntity
  8
0
  6
Continuous
 62
     7
370
    15
100
AcDbLine
 10
2409.630472125732
 20
864.6074270323859
 30
0.0
 11
2409.382984752317
 21
865.5260586682683
 31
0.0
  0
LINE
  5
6CE
330
64F
100
AcDbEntity
  8
0
  6
Continuous
 62
     7
370
    15
100
AcDbLine
 10
2411.150751705283
 20
864.5055485284901
 30
0.0
 11
2411.398239078699
 21
864.6484199480589
 31
0.0
  0
LINE
  5
6CF
330
64F
100
AcDbEntity
  8
0
  6
Continuous
 62
     7
370
    15
100
AcDbLine
 10
2409.382984752317
 20
865.5260586682683
 30
0.0
 11
2409.630472125732
 21
865.6689300878372
 31
0.0
  0
LINE
  5
6D0
330
64F
100
AcDbEntity
  8
0
  6
Continuous
 62
     7
370
    15
100
AcDbLine
 10
2412.28463397414
 20
862.6476992309342
 30
0.0
 11
2414.4059543177
 21
863.8723113986682
 31
0.0
  0
LWPOLYLINE
  5
6D1
330
64F
100
AcDbEntity
  8
0
  6
Continuous
 62
     7
370
    15
100
AcDbPolyline
 90
        3
 70
   128
 43
0.0
 10
2414.4059543177
 20
863.8723113986682
 10
2414.429255081238
 20
863.8885471481012
 10
2414.438800232365
 20
863.8970830275729
  0
LINE
  5
6D2
330
64F
100
AcDbEntity
  8
0
  6
Continuous
 62
     7
370
    15
100
AcDbLine
 10
2412.244255307823
 20
862.6243789449983
 30
0.0
 11
2414.365575651383
 21
863.8489911127324
 31
0.0
  0
LINE
  5
6D3
330
64F
100
AcDbEntity
  8
0
  6
Continuous
 62
     7
370
    15
100
AcDbLine
 10
2414.4059543177
 20
863.8723113986682
 30
0.0
 11
2414.365575651383
 21
863.8489911127324
 31
0.0
  0
LINE
  5
6D4
330
64F
100
AcDbEntity
  8
0
  6
Continuous
 62
     7
370
    15
100
AcDbLine
 10
2412.140702486476
 20
862.395468081052
 30
0.0
 11
2414.262022830035
 21
863.6200802487861
 31
0.0
  0
ARC
  5
6D5
330
64F
100
AcDbEntity
  8
0
  6
Continuous
 62
     7
370
    15
100
AcDbCircle
 10
2414.512353228797
 20
863.6447154542224
 30
0.0
 40
0.2515396626602589
100
AcDbArc
 50
125.698266026523
 51
185.620423976827
  0
LINE
  5
6D6
330
64F
100
AcDbEntity
  8
0
  6
Continuous
 62
     7
370
    15
100
AcDbLine
 10
2414.262022830035
 20
861.9752654158403
 30
0.0
 11
2412.140702486476
 21
860.7506532481064
 31
0.0
  0
LINE
  5
6D7
330
64F
100
AcDbEntity
  8
0
  6
Continuous
 62
     7
370
    15
100
AcDbLine
 10
2414.262022830035
 20
861.9752654158403
 30
0.0
 11
2414.262022830035
 21
863.6200802487861
 31
0.0
  0
LINE
  5
6D8
330
64F
100
AcDbEntity
  8
0
  6
Continuous
 62
     7
370
    15
100
AcDbLine
 10
2414.014536535579
 20
861.8323481743216
 30
0.0
 11
2411.893216192019
 21
860.6077360065876
 31
0.0
  0
LINE
  5
6D9
330
64F
100
AcDbEntity
  8
0
  6
Continuous
 62
     7
370
    15
100
AcDbLine
 10
2414.262022830035
 20
861.9752654158403
 30
0.0
 11
2414.014536535579
 21
861.8323481743216
 31
0.0
  0
LINE
  5
6DA
330
64F
100
AcDbEntity
  8
0
  6
Continuous
 62
     7
370
    15
100
AcDbLine
 10
2417.480932374909
 20
851.4317804209669
 30
0.0
 11
2415.359607597621
 21
852.6564238903551
 31
0.0
  0
LINE
  5
6DB
330
64F
100
AcDbEntity
  8
0
  6
Continuous
 62
     7
370
    15
100
AcDbLine
 10
2417.69306425732
 20
851.7992039690396
 30
0.0
 11
2415.571739614676
 21
853.0238473606946
 31
0.0
  0
ARC
  5
6DC
330
64F
100
AcDbEntity
  8
0
  6
Continuous
 62
     7
370
    15
100
AcDbCircle
 10
2415.820172397102
 20
852.6354656748029
 30
0.0
 40
0.4610414095500057
100
AcDbArc
 50
122.6054789306582
 51
177.3945263210855
  0
LINE
  5
6DD
330
64F
100
AcDbEntity
  8
0
  6
Continuous
 62
     7
370
    15
100
AcDbLine
 10
2417.726867344808
 20
851.8187180760765
 30
0.0
 11
2415.605542702163
 21
853.0433614677319
 31
0.0
  0
ARC
  5
6DE
330
64F
100
AcDbEntity
  8
0
  6
Continuous
 62
     7
370
    15
100
AcDbCircle
 10
2415.357109919739
 20
853.4317431536234
 30
0.0
 40
0.4610414095493606
100
AcDbArc
 50
302.6054789305933
 51
357.3945263216529
  0
LINE
  5
6DF
330
64F
100
AcDbEntity
  8
0
  6
Continuous
 62
     7
370
    15
100
AcDbLine
 10
2416.086648404661
 20
845.5210881354926
 30
0.0
 11
2416.753891398622
 21
845.1358969541036
 31
0.0
  0
ARC
  5
6E0
330
64F
100
AcDbEntity
  8
0
  6
Continuous
 62
     7
370
    15
100
AcDbCircle
 10
2416.681424406506
 20
846.4402338255469
 30
0.0
 40
1.094800115050919
100
AcDbArc
 50
188.6903853336042
 51
237.0932335995496
  0
LINE
  5
6E1
330
64F
100
AcDbEntity
  8
0
  6
Continuous
 62
     7
370
    15
100
AcDbLine
 10
2415.359607927749
 20
847.9821719349478
 30
0.0
 11
2415.599193411741
 21
846.2748150663774
 31
0.0
  0
LINE
  5
6E2
330
64F
100
AcDbEntity
  8
0
  6
Continuous
 62
     7
370
    15
100
AcDbLine
 10
2417.241346391544
 20
845.3268203297724
 30
0.0
 11
2417.480934257136
 21
846.7575563116708
 31
0.0
  0
LWPOLYLINE
  5
6E3
330
64F
100
AcDbEntity
  8
0
  6
Continuous
 62
     7
370
    15
100
AcDbPolyline
 90
        9
 70
   128
 43
0.0
 10
2417.241346391544
 20
845.3268203297724
 10
2417.219015558258
 20
845.2434738116521
 10
2417.182552156943
 20
845.1742257565051
 10
2417.133064110053
 20
845.1211802323095
 10
2417.072055087468
 20
845.0859490011378
 10
2417.001378818226
 20
845.0696025465607
 10
2416.923182765887
 20
845.0726375475323
 10
2416.839842878908
 20
845.0949617870465
 10
2416.753891398622
 20
845.1358969541036
  0
LINE
  5
6E4
330
64F
100
AcDbEntity
  8
0
  6
Continuous
 62
     7
370
    15
100
AcDbLine
 10
2415.359607597621
 20
852.6564238903551
 30
0.0
 11
2415.359607927749
 21
847.9821719349478
 31
0.0
  0
LINE
  5
6E5
330
64F
100
AcDbEntity
  8
0
  6
Continuous
 62
     7
370
    15
100
AcDbLine
 10
2415.571739614676
 20
853.0238473606946
 30
0.0
 11
2415.605542702163
 21
853.0433614677319
 31
0.0
  0
LINE
  5
6E6
330
64F
100
AcDbEntity
  8
0
  6
Continuous
 62
     7
370
    15
100
AcDbLine
 10
2411.894788651591
 20
855.1464772275124
 30
0.0
 11
2411.928591739078
 21
855.1659913345496
 31
0.0
  0
ARC
  5
6E7
330
64F
100
AcDbEntity
  8
0
  6
Continuous
 62
     7
370
    15
100
AcDbCircle
 10
2411.68014901924
 20
855.5543741283596
 30
0.0
 40
0.4610476977149973
100
AcDbArc
 50
302.6064450639375
 51
357.394682497903
  0
LINE
  5
6E8
330
64F
100
AcDbEntity
  8
0
  6
Continuous
 62
     7
370
    15
100
AcDbLine
 10
2412.140720157512
 20
860.750617004559
 30
0.0
 11
2412.140720157512
 21
855.5334168823817
 31
0.0
  0
LINE
  5
6E9
330
64F
100
AcDbEntity
  8
0
  6
Continuous
 62
     7
370
    15
100
AcDbLine
 10
2413.130668799313
 20
856.1048980694195
 30
0.0
 11
2413.130668799313
 21
861.3221021910664
 31
0.0
  0
ARC
  5
6EA
330
64F
100
AcDbEntity
  8
0
  6
Continuous
 62
     7
370
    15
100
AcDbCircle
 10
2413.259991244837
 20
856.0839199692138
 30
0.0
 40
0.1310128833528293
100
AcDbArc
 50
170.7859978948004
 51
309.2032503543595
  0
LINE
  5
6EB
330
64F
100
AcDbEntity
  8
0
  6
Continuous
 62
     7
370
    15
100
AcDbLine
 10
2413.376604073102
 20
856.0019110619295
 30
0.0
 11
2413.342800985614
 21
855.9823969548926
 31
0.0
  0
ARC
  5
6EC
330
64F
100
AcDbEntity
  8
0
  6
Continuous
 62
     7
370
    15
100
AcDbCircle
 10
2413.459413813879
 20
855.9003880476096
 30
0.0
 40
0.1310128833519747
100
AcDbArc
 50
350.7859978966659
 51
129.2032503546524
  0
LINE
  5
6ED
330
64F
100
AcDbEntity
  8
0
  6
Continuous
 62
     7
370
    15
100
AcDbLine
 10
2413.588736259402
 20
855.8794099474081
 30
0.0
 11
2413.588738141629
 21
851.2051858381076
 31
0.0
  0
LINE
  5
6EE
330
64F
100
AcDbEntity
  8
0
  6
Continuous
 62
     7
370
    15
100
AcDbLine
 10
2413.588738141629
 20
851.2051858381076
 30
0.0
 11
2411.682658651406
 21
850.1048295701437
 31
0.0
  0
LINE
  5
6EF
330
64F
100
AcDbEntity
  8
0
  6
Continuous
 62
     7
370
    15
100
AcDbLine
 10
2411.682658651406
 20
850.1048295701437
 30
0.0
 11
2411.682656769179
 21
854.7790536794398
 31
0.0
  0
ARC
  5
6F0
330
64F
100
AcDbEntity
  8
0
  6
Continuous
 62
     7
370
    15
100
AcDbCircle
 10
2412.143221328426
 20
854.7580957757928
 30
0.0
 40
0.4610411553858546
100
AcDbArc
 50
122.6054835579421
 51
177.3945636858041
  0
LINE
  5
6F1
330
64F
100
AcDbEntity
  8
0
  6
Continuous
 62
     7
370
    15
100
AcDbLine
 10
2410.019399113489
 20
856.7580581965486
 30
0.0
 11
2412.140720157512
 21
855.5334168823817
 31
0.0
  0
LINE
  5
6F2
330
64F
100
AcDbEntity
  8
0
  6
Continuous
 62
     7
370
    15
100
AcDbLine
 10
2410.019399113489
 20
856.7580581965486
 30
0.0
 11
2410.019398997393
 21
861.6894676477404
 31
0.0
  0
LINE
  5
6F3
330
64F
100
AcDbEntity
  8
0
  6
Continuous
 62
     7
370
    15
100
AcDbLine
 10
2405.352476099554
 20
867.8528217869631
 30
0.0
 11
2405.599963472969
 21
867.9956932065321
 31
0.0
  0
LINE
  5
6F4
330
64F
100
AcDbEntity
  8
0
  6
Continuous
 62
     7
370
    15
100
AcDbLine
 10
2405.352476099554
 20
867.8528217869631
 30
0.0
 11
2403.584709146587
 21
868.8733319267415
 31
0.0
  0
LINE
  5
6F5
330
64F
100
AcDbEntity
  8
0
  6
Continuous
 62
     7
370
    15
100
AcDbLine
 10
2403.584709146587
 20
868.8733319267415
 30
0.0
 11
2403.832196520003
 21
869.0162033463105
 31
0.0
  0
LINE
  5
6F6
330
64F
100
AcDbEntity
  8
0
  6
Continuous
 62
     7
370
    15
100
AcDbLine
 10
2405.599963472969
 20
866.9341901510806
 30
0.0
 11
2405.352476099554
 21
867.8528217869631
 31
0.0
  0
LINE
  5
6F7
330
64F
100
AcDbEntity
  8
0
  6
Continuous
 62
     7
370
    15
100
AcDbLine
 10
2403.832196520003
 20
867.9547002908591
 30
0.0
 11
2403.584709146587
 21
868.8733319267415
 31
0.0
  0
LINE
  5
6F8
330
64F
100
AcDbEntity
  8
0
  6
Continuous
 62
     7
370
    15
100
AcDbLine
 10
2406.486358368411
 20
865.9949724894072
 30
0.0
 11
2408.60767871197
 21
867.2195846571414
 31
0.0
  0
LWPOLYLINE
  5
6F9
330
64F
100
AcDbEntity
  8
0
  6
Continuous
 62
     7
370
    15
100
AcDbPolyline
 90
        3
 70
   128
 43
0.0
 10
2408.60767871197
 20
867.2195846571414
 10
2408.630979475507
 20
867.2358204065742
 10
2408.640522632071
 20
867.2443543664392
  0
LINE
  5
6FA
330
64F
100
AcDbEntity
  8
0
  6
Continuous
 62
     7
370
    15
100
AcDbLine
 10
2406.445979702094
 20
865.9716522034713
 30
0.0
 11
2408.567300045653
 21
867.1962643712054
 31
0.0
  0
LINE
  5
6FB
330
64F
100
AcDbEntity
  8
0
  6
Continuous
 62
     7
370
    15
100
AcDbLine
 10
2408.60767871197
 20
867.2195846571414
 30
0.0
 11
2408.567300045653
 21
867.1962643712054
 31
0.0
  0
LINE
  5
6FC
330
64F
100
AcDbEntity
  8
0
  6
Continuous
 62
     7
370
    15
100
AcDbLine
 10
2406.342426880746
 20
865.7427413395252
 30
0.0
 11
2408.463747224305
 21
866.9673535072591
 31
0.0
  0
ARC
  5
6FD
330
64F
100
AcDbEntity
  8
0
  6
Continuous
 62
     7
370
    15
100
AcDbCircle
 10
2408.714077623068
 20
866.9919887126955
 30
0.0
 40
0.2515396626604514
100
AcDbArc
 50
125.6982660265518
 51
185.6204239768075
  0
LINE
  5
6FE
330
64F
100
AcDbEntity
  8
0
  6
Continuous
 62
     7
370
    15
100
AcDbLine
 10
2408.463747224305
 20
865.3225386743134
 30
0.0
 11
2406.342426880746
 21
864.0979265065793
 31
0.0
  0
LINE
  5
6FF
330
64F
100
AcDbEntity
  8
0
  6
Continuous
 62
     7
370
    15
100
AcDbLine
 10
2408.463747224305
 20
865.3225386743134
 30
0.0
 11
2408.463747224305
 21
866.9673535072591
 31
0.0
  0
LINE
  5
700
330
64F
100
AcDbEntity
  8
0
  6
Continuous
 62
     7
370
    15
100
AcDbLine
 10
2419.147425881766
 20
846.4271765977365
 30
0.0
 11
2417.241346391544
 21
845.3268203297724
 31
0.0
  0
LINE
  5
701
330
64F
100
AcDbEntity
  8
0
  6
Continuous
 62
     7
370
    15
100
AcDbLine
 10
2419.387013778028
 20
847.8579127627805
 30
0.0
 11
2419.147425881766
 21
846.4271765977365
 31
0.0
  0
LINE
  5
702
330
64F
100
AcDbEntity
  8
0
  6
Continuous
 62
     7
370
    15
100
AcDbLine
 10
2408.21626092985
 20
865.1796214327948
 30
0.0
 11
2406.09494058629
 21
863.9550092650607
 31
0.0
  0
LINE
  5
703
330
64F
100
AcDbEntity
  8
0
  6
Continuous
 62
     7
370
    15
100
AcDbLine
 10
2408.463747224305
 20
865.3225386743134
 30
0.0
 11
2408.21626092985
 21
865.1796214327948
 31
0.0
  0
LINE
  5
704
330
64F
100
AcDbEntity
  8
0
  6
Continuous
 62
     7
370
    15
100
AcDbLine
 10
2411.682656769179
 20
854.7790536794398
 30
0.0
 11
2409.561331991891
 21
856.0036971488285
 31
0.0
  0
LINE
  5
705
330
64F
100
AcDbEntity
  8
0
  6
Continuous
 62
     7
370
    15
100
AcDbLine
 10
2411.894788651591
 20
855.1464772275124
 30
0.0
 11
2409.773464008946
 21
856.3711206191676
 31
0.0
  0
ARC
  5
706
330
64F
100
AcDbEntity
  8
0
  6
Continuous
 62
     7
370
    15
100
AcDbCircle
 10
2410.021896791373
 20
855.9827389332756
 30
0.0
 40
0.4610414095506703
100
AcDbArc
 50
122.6054789306872
 51
177.3945263210335
  0
LINE
  5
707
330
64F
100
AcDbEntity
  8
0
  6
Continuous
 62
     7
370
    15
100
AcDbLine
 10
2411.928591739078
 20
855.1659913345496
 30
0.0
 11
2409.807267096434
 21
856.3906347262049
 31
0.0
  0
ARC
  5
708
330
64F
100
AcDbEntity
  8
0
  6
Continuous
 62
     7
370
    15
100
AcDbCircle
 10
2409.558834314009
 20
856.7790164120966
 30
0.0
 40
0.4610414095497177
100
AcDbArc
 50
302.6054789306003
 51
357.3945263216399
  0
ARC
  5
709
330
64F
100
AcDbEntity
  8
0
  6
Continuous
 62
     7
370
    15
100
AcDbCircle
 10
2418.846424546857
 20
846.4559421514273
 30
0.0
 40
0.3023727181748133
100
AcDbArc
 50
302.7369283050839
 51
354.5410385237445
  0
LINE
  5
70A
330
64F
100
AcDbEntity
  8
0
  6
Continuous
 62
     7
370
    15
100
AcDbLine
 10
2410.288372798932
 20
848.8683613939656
 30
0.0
 11
2410.955615792893
 21
848.4831702125768
 31
0.0
  0
ARC
  5
70B
330
64F
100
AcDbEntity
  8
0
  6
Continuous
 62
     7
370
    15
100
AcDbCircle
 10
2410.883148800776
 20
849.7875070840201
 30
0.0
 40
1.094800115051267
100
AcDbArc
 50
188.6903853336106
 51
237.0932335995496
  0
LINE
  5
70C
330
64F
100
AcDbEntity
  8
0
  6
Continuous
 62
     7
370
    15
100
AcDbLine
 10
2409.561332322019
 20
851.3294451934211
 30
0.0
 11
2409.800917806011
 21
849.6220883248504
 31
0.0
  0
LINE
  5
70D
330
64F
100
AcDbEntity
  8
0
  6
Continuous
 62
     7
370
    15
100
AcDbLine
 10
2411.443070785813
 20
848.6740935882457
 30
0.0
 11
2411.682658651406
 21
850.1048295701437
 31
0.0
  0
LWPOLYLINE
  5
70E
330
64F
100
AcDbEntity
  8
0
  6
Continuous
 62
     7
370
    15
100
AcDbPolyline
 90
        9
 70
   128
 43
0.0
 10
2411.443070785813
 20
848.6740935882457
 10
2411.420739952528
 20
848.5907470701251
 10
2411.384276551214
 20
848.5214990149781
 10
2411.334788504324
 20
848.4684534907826
 10
2411.273779481738
 20
848.433222259611
 10
2411.203103212496
 20
848.4168758050339
 10
2411.124907160158
 20
848.4199108060055
 10
2411.041567273179
 20
848.4422350455197
 10
2410.955615792893
 20
848.4831702125768
  0
LINE
  5
70F
330
64F
100
AcDbEntity
  8
0
  6
Continuous
 62
     7
370
    15
100
AcDbLine
 10
2409.561331991891
 20
856.0036971488285
 30
0.0
 11
2409.561332322019
 21
851.3294451934211
 31
0.0
  0
LINE
  5
710
330
64F
100
AcDbEntity
  8
0
  6
Continuous
 62
     7
370
    15
100
AcDbLine
 10
2409.773464008946
 20
856.3711206191676
 30
0.0
 11
2409.807267096434
 21
856.3906347262049
 31
0.0
  0
LINE
  5
711
330
64F
100
AcDbEntity
  8
0
  6
Continuous
 62
     7
370
    15
100
AcDbLine
 10
2406.096513045861
 20
858.4937504859857
 30
0.0
 11
2406.130316133348
 21
858.5132645930228
 31
0.0
  0
ARC
  5
712
330
64F
100
AcDbEntity
  8
0
  6
Continuous
 62
     7
370
    15
100
AcDbCircle
 10
2405.881873413511
 20
858.9016473868325
 30
0.0
 40
0.4610476977145339
100
AcDbArc
 50
302.606445063905
 51
357.3946824979225
  0
LINE
  5
713
330
64F
100
AcDbEntity
  8
0
  6
Continuous
 62
     7
370
    15
100
AcDbLine
 10
2406.342444551782
 20
864.0978902630322
 30
0.0
 11
2406.342444551782
 21
858.8806901408549
 31
0.0
  0
LINE
  5
714
330
64F
100
AcDbEntity
  8
0
  6
Continuous
 62
     7
370
    15
100
AcDbLine
 10
2407.332393193584
 20
859.4521713278926
 30
0.0
 11
2407.332393193584
 21
864.6693754495398
 31
0.0
  0
ARC
  5
715
330
64F
100
AcDbEntity
  8
0
  6
Continuous
 62
     7
370
    15
100
AcDbCircle
 10
2407.461715639107
 20
859.4311932276868
 30
0.0
 40
0.1310128833528195
100
AcDbArc
 50
170.7859978947746
 51
309.2032503543188
  0
LINE
  5
716
330
64F
100
AcDbEntity
  8
0
  6
Continuous
 62
     7
370
    15
100
AcDbLine
 10
2407.578328467372
 20
859.3491843204027
 30
0.0
 11
2407.544525379884
 21
859.3296702133656
 31
0.0
  0
ARC
  5
717
330
64F
100
AcDbEntity
  8
0
  6
Continuous
 62
     7
370
    15
100
AcDbCircle
 10
2407.661138208149
 20
859.2476613060826
 30
0.0
 40
0.1310128833520125
100
AcDbArc
 50
350.7859978967214
 51
129.2032503545914
  0
LINE
  5
718
330
64F
100
AcDbEntity
  8
0
  6
Continuous
 62
     7
370
    15
100
AcDbLine
 10
2407.790460653672
 20
859.2266832058813
 30
0.0
 11
2407.7904625359
 21
854.5524590965808
 31
0.0
  0
LINE
  5
719
330
64F
100
AcDbEntity
  8
0
  6
Continuous
 62
     7
370
    15
100
AcDbLine
 10
2407.7904625359
 20
854.5524590965808
 30
0.0
 11
2405.884383045677
 21
853.4521028286167
 31
0.0
  0
LINE
  5
71A
330
64F
100
AcDbEntity
  8
0
  6
Continuous
 62
     7
370
    15
100
AcDbLine
 10
2405.884383045677
 20
853.4521028286167
 30
0.0
 11
2405.88438116345
 21
858.126326937913
 31
0.0
  0
ARC
  5
71B
330
64F
100
AcDbEntity
  8
0
  6
Continuous
 62
     7
370
    15
100
AcDbCircle
 10
2406.344945722696
 20
858.105369034266
 30
0.0
 40
0.4610411553855901
100
AcDbArc
 50
122.6054835579131
 51
177.3945636858171
  0
LINE
  5
71C
330
64F
100
AcDbEntity
  8
0
  6
Continuous
 62
     7
370
    15
100
AcDbLine
 10
2404.22112350776
 20
860.1053314550217
 30
0.0
 11
2406.342444551782
 21
858.8806901408549
 31
0.0
  0
LINE
  5
71D
330
64F
100
AcDbEntity
  8
0
  6
Continuous
 62
     7
370
    15
100
AcDbLine
 10
2404.22112350776
 20
860.1053314550217
 30
0.0
 11
2404.221123391663
 21
865.0367409062136
 31
0.0
  0
LINE
  5
71E
330
64F
100
AcDbEntity
  8
0
  6
Continuous
 62
     7
370
    15
100
AcDbLine
 10
2399.554200493824
 20
871.2000950454362
 30
0.0
 11
2397.786433540858
 21
872.2206051852145
 31
0.0
  0
LINE
  5
71F
330
64F
100
AcDbEntity
  8
0
  6
Continuous
 62
     7
370
    15
100
AcDbLine
 10
2399.801687867239
 20
870.2814634095538
 30
0.0
 11
2399.554200493824
 21
871.2000950454362
 31
0.0
  0
LINE
  5
720
330
64F
100
AcDbEntity
  8
0
  6
Continuous
 62
     7
370
    15
100
AcDbLine
 10
2398.033920914273
 20
871.3019735493322
 30
0.0
 11
2397.786433540858
 21
872.2206051852145
 31
0.0
  0
LINE
  5
721
330
64F
100
AcDbEntity
  8
0
  6
Continuous
 62
     7
370
    15
100
AcDbLine
 10
2399.554200493824
 20
871.2000950454362
 30
0.0
 11
2399.801687867239
 21
871.3429664650051
 31
0.0
  0
LINE
  5
722
330
64F
100
AcDbEntity
  8
0
  6
Continuous
 62
     7
370
    15
100
AcDbLine
 10
2397.786433540858
 20
872.2206051852145
 30
0.0
 11
2398.033920914273
 21
872.3634766047835
 31
0.0
  0
LINE
  5
723
330
64F
100
AcDbEntity
  8
0
  6
Continuous
 62
     7
370
    15
100
AcDbLine
 10
2400.688082762681
 20
869.3422457478803
 30
0.0
 11
2402.809403106241
 21
870.5668579156144
 31
0.0
  0
LWPOLYLINE
  5
724
330
64F
100
AcDbEntity
  8
0
  6
Continuous
 62
     7
370
    15
100
AcDbPolyline
 90
        3
 70
   128
 43
0.0
 10
2402.809403106241
 20
870.5668579156144
 10
2402.832703869778
 20
870.5830936650473
 10
2402.842247026342
 20
870.5916276249123
  0
LINE
  5
725
330
64F
100
AcDbEntity
  8
0
  6
Continuous
 62
     7
370
    15
100
AcDbLine
 10
2400.647704096364
 20
869.3189254619445
 30
0.0
 11
2402.769024439924
 21
870.5435376296787
 31
0.0
  0
LINE
  5
726
330
64F
100
AcDbEntity
  8
0
  6
Continuous
 62
     7
370
    15
100
AcDbLine
 10
2402.809403106241
 20
870.5668579156144
 30
0.0
 11
2402.769024439924
 21
870.5435376296787
 31
0.0
  0
LINE
  5
727
330
64F
100
AcDbEntity
  8
0
  6
Continuous
 62
     7
370
    15
100
AcDbLine
 10
2400.544151275016
 20
869.0900145979982
 30
0.0
 11
2402.665471618576
 21
870.3146267657324
 31
0.0
  0
ARC
  5
728
330
64F
100
AcDbEntity
  8
0
  6
Continuous
 62
     7
370
    15
100
AcDbCircle
 10
2402.915802017338
 20
870.3392619711683
 30
0.0
 40
0.2515396626607762
100
AcDbArc
 50
125.6982660265518
 51
185.6204239767336
  0
LINE
  5
729
330
64F
100
AcDbEntity
  8
0
  6
Continuous
 62
     7
370
    15
100
AcDbLine
 10
2402.665471618576
 20
868.6698119327866
 30
0.0
 11
2400.544151275016
 21
867.4451997650525
 31
0.0
  0
LINE
  5
72A
330
64F
100
AcDbEntity
  8
0
  6
Continuous
 62
     7
370
    15
100
AcDbLine
 10
2402.665471618576
 20
868.6698119327866
 30
0.0
 11
2402.665471618576
 21
870.3146267657324
 31
0.0
  0
LINE
  5
72B
330
64F
100
AcDbEntity
  8
0
  6
Continuous
 62
     7
370
    15
100
AcDbLine
 10
2413.349150276037
 20
849.7744498562095
 30
0.0
 11
2411.443070785813
 21
848.6740935882457
 31
0.0
  0
LINE
  5
72C
330
64F
100
AcDbEntity
  8
0
  6
Continuous
 62
     7
370
    15
100
AcDbLine
 10
2413.588738141629
 20
851.2051858381076
 30
0.0
 11
2413.349150276037
 21
849.7744498562095
 31
0.0
  0
LINE
  5
72D
330
64F
100
AcDbEntity
  8
0
  6
Continuous
 62
     7
370
    15
100
AcDbLine
 10
2402.41798532412
 20
868.5268946912678
 30
0.0
 11
2400.29666498056
 21
867.3022825235339
 31
0.0
  0
LINE
  5
72E
330
64F
100
AcDbEntity
  8
0
  6
Continuous
 62
     7
370
    15
100
AcDbLine
 10
2402.665471618576
 20
868.6698119327866
 30
0.0
 11
2402.41798532412
 21
868.5268946912678
 31
0.0
  0
LINE
  5
72F
330
64F
100
AcDbEntity
  8
0
  6
Continuous
 62
     7
370
    15
100
AcDbLine
 10
2405.88438116345
 20
858.126326937913
 30
0.0
 11
2403.763056386162
 21
859.3509704073014
 31
0.0
  0
LINE
  5
730
330
64F
100
AcDbEntity
  8
0
  6
Continuous
 62
     7
370
    15
100
AcDbLine
 10
2406.096513045861
 20
858.4937504859857
 30
0.0
 11
2403.975188403217
 21
859.7183938776408
 31
0.0
  0
ARC
  5
731
330
64F
100
AcDbEntity
  8
0
  6
Continuous
 62
     7
370
    15
100
AcDbCircle
 10
2404.223621185643
 20
859.3300121917488
 30
0.0
 40
0.46104140955062
100
AcDbArc
 50
122.6054789306872
 51
177.39452632104
  0
LINE
  5
732
330
64F
100
AcDbEntity
  8
0
  6
Continuous
 62
     7
370
    15
100
AcDbLine
 10
2406.130316133348
 20
858.5132645930228
 30
0.0
 11
2404.008991490704
 21
859.7379079846779
 31
0.0
  0
ARC
  5
733
330
64F
100
AcDbEntity
  8
0
  6
Continuous
 62
     7
370
    15
100
AcDbCircle
 10
2403.760558708278
 20
860.12628967057
 30
0.0
 40
0.4610414095503601
100
AcDbArc
 50
302.6054789306583
 51
357.3945263216008
  0
ARC
  5
734
330
64F
100
AcDbEntity
  8
0
  6
Continuous
 62
     7
370
    15
100
AcDbCircle
 10
2413.048148941125
 20
849.8032154099018
 30
0.0
 40
0.3023727181774801
100
AcDbArc
 50
302.7369283053297
 51
354.5410385234957
  0
LINE
  5
735
330
64F
100
AcDbEntity
  8
0
  6
Continuous
 62
     7
370
    15
100
AcDbLine
 10
2404.490097193202
 20
852.2156346524388
 30
0.0
 11
2405.157340187163
 21
851.8304434710499
 31
0.0
  0
ARC
  5
736
330
64F
100
AcDbEntity
  8
0
  6
Continuous
 62
     7
370
    15
100
AcDbCircle
 10
2405.084873195047
 20
853.1347803424937
 30
0.0
 40
1.094800115051818
100
AcDbArc
 50
188.6903853336234
 51
237.0932335995461
  0
LINE
  5
737
330
64F
100
AcDbEntity
  8
0
  6
Continuous
 62
     7
370
    15
100
AcDbLine
 10
2403.763056716289
 20
854.6767184518941
 30
0.0
 11
2404.002642200281
 21
852.9693615833235
 31
0.0
  0
LINE
  5
738
330
64F
100
AcDbEntity
  8
0
  6
Continuous
 62
     7
370
    15
100
AcDbLine
 10
2405.644795180084
 20
852.0213668467189
 30
0.0
 11
2405.884383045677
 21
853.4521028286167
 31
0.0
  0
LWPOLYLINE
  5
739
330
64F
100
AcDbEntity
  8
0
  6
Continuous
 62
     7
370
    15
100
AcDbPolyline
 90
        9
 70
   128
 43
0.0
 10
2405.644795180084
 20
852.0213668467189
 10
2405.622464346798
 20
851.9380203285981
 10
2405.586000945484
 20
851.8687722734512
 10
2405.536512898594
 20
851.8157267492558
 10
2405.475503876008
 20
851.7804955180841
 10
2405.404827606766
 20
851.7641490635069
 10
2405.326631554428
 20
851.7671840644787
 10
2405.24329166745
 20
851.7895083039928
 10
2405.157340187163
 20
851.8304434710499
  0
LINE
  5
73A
330
64F
100
AcDbEntity
  8
0
  6
Continuous
 62
     7
370
    15
100
AcDbLine
 10
2403.763056386162
 20
859.3509704073014
 30
0.0
 11
2403.763056716289
 21
854.6767184518941
 31
0.0
  0
LINE
  5
73B
330
64F
100
AcDbEntity
  8
0
  6
Continuous
 62
     7
370
    15
100
AcDbLine
 10
2403.975188403217
 20
859.7183938776408
 30
0.0
 11
2404.008991490704
 21
859.7379079846779
 31
0.0
  0
LINE
  5
73C
330
64F
100
AcDbEntity
  8
0
  6
Continuous
 62
     7
370
    15
100
AcDbLine
 10
2400.298237440131
 20
861.8410237444587
 30
0.0
 11
2400.332040527619
 21
861.8605378514958
 31
0.0
  0
ARC
  5
73D
330
64F
100
AcDbEntity
  8
0
  6
Continuous
 62
     7
370
    15
100
AcDbCircle
 10
2400.083597807781
 20
862.2489206453057
 30
0.0
 40
0.4610476977146252
100
AcDbArc
 50
302.6064450639085
 51
357.394682497916
  0
LINE
  5
73E
330
64F
100
AcDbEntity
  8
0
  6
Continuous
 62
     7
370
    15
100
AcDbLine
 10
2400.544168946053
 20
867.4451635215053
 30
0.0
 11
2400.544168946053
 21
862.2279633993279
 31
0.0
  0
LINE
  5
73F
330
64F
100
AcDbEntity
  8
0
  6
Continuous
 62
     7
370
    15
100
AcDbLine
 10
2401.534117587854
 20
862.7994445863658
 30
0.0
 11
2401.534117587854
 21
868.0166487080127
 31
0.0
  0
ARC
  5
740
330
64F
100
AcDbEntity
  8
0
  6
Continuous
 62
     7
370
    15
100
AcDbCircle
 10
2401.663440033378
 20
862.7784664861598
 30
0.0
 40
0.1310128833528249
100
AcDbArc
 50
170.7859978947618
 51
309.2032503543513
  0
LINE
  5
741
330
64F
100
AcDbEntity
  8
0
  6
Continuous
 62
     7
370
    15
100
AcDbLine
 10
2401.780052861643
 20
862.6964575788759
 30
0.0
 11
2401.746249774154
 21
862.6769434718386
 31
0.0
  0
ARC
  5
742
330
64F
100
AcDbEntity
  8
0
  6
Continuous
 62
     7
370
    15
100
AcDbCircle
 10
2401.862862602419
 20
862.5949345645556
 30
0.0
 40
0.1310128833520266
100
AcDbArc
 50
350.7859978967214
 51
129.2032503545955
  0
LINE
  5
743
330
64F
100
AcDbEntity
  8
0
  6
Continuous
 62
     7
370
    15
100
AcDbLine
 10
2401.992185047943
 20
862.5739564643543
 30
0.0
 11
2401.99218693017
 21
857.8997323550538
 31
0.0
  0
LINE
  5
744
330
64F
100
AcDbEntity
  8
0
  6
Continuous
 62
     7
370
    15
100
AcDbLine
 10
2401.99218693017
 20
857.8997323550538
 30
0.0
 11
2400.086107439947
 21
856.79937608709
 31
0.0
  0
LINE
  5
745
330
64F
100
AcDbEntity
  8
0
  6
Continuous
 62
     7
370
    15
100
AcDbLine
 10
2400.086107439947
 20
856.79937608709
 30
0.0
 11
2400.08610555772
 21
861.473600196386
 31
0.0
  0
ARC
  5
746
330
64F
100
AcDbEntity
  8
0
  6
Continuous
 62
     7
370
    15
100
AcDbCircle
 10
2400.546670116967
 20
861.4526422927392
 30
0.0
 40
0.4610411553854024
100
AcDbArc
 50
122.6054835579096
 51
177.3945636858301
  0
LINE
  5
747
330
64F
100
AcDbEntity
  8
0
  6
Continuous
 62
     7
370
    15
100
AcDbLine
 10
2398.42284790203
 20
863.4526047134949
 30
0.0
 11
2400.544168946053
 21
862.2279633993279
 31
0.0
  0
LINE
  5
748
330
64F
100
AcDbEntity
  8
0
  6
Continuous
 62
     7
370
    15
100
AcDbLine
 10
2398.42284790203
 20
863.4526047134949
 30
0.0
 11
2398.422847785933
 21
868.3840141646866
 31
0.0
  0
LINE
  5
749
330
64F
100
AcDbEntity
  8
0
  6
Continuous
 62
     7
370
    15
100
AcDbLine
 10
2407.550874670307
 20
853.1217231146825
 30
0.0
 11
2405.644795180084
 21
852.0213668467189
 31
0.0
  0
LINE
  5
74A
330
64F
100
AcDbEntity
  8
0
  6
Continuous
 62
     7
370
    15
100
AcDbLine
 10
2407.7904625359
 20
854.5524590965808
 30
0.0
 11
2407.550874670307
 21
853.1217231146825
 31
0.0
  0
LINE
  5
74B
330
64F
100
AcDbEntity
  8
0
  6
Continuous
 62
     7
370
    15
100
AcDbLine
 10
2400.08610555772
 20
861.473600196386
 30
0.0
 11
2397.964780780432
 21
862.6982436657746
 31
0.0
  0
LINE
  5
74C
330
64F
100
AcDbEntity
  8
0
  6
Continuous
 62
     7
370
    15
100
AcDbLine
 10
2400.298237440131
 20
861.8410237444587
 30
0.0
 11
2398.176912797487
 21
863.0656671361139
 31
0.0
  0
ARC
  5
74D
330
64F
100
AcDbEntity
  8
0
  6
Continuous
 62
     7
370
    15
100
AcDbCircle
 10
2398.425345579913
 20
862.677285450222
 30
0.0
 40
0.4610414095503284
100
AcDbArc
 50
122.6054789306617
 51
177.3945263210595
  0
LINE
  5
74E
330
64F
100
AcDbEntity
  8
0
  6
Continuous
 62
     7
370
    15
100
AcDbLine
 10
2400.332040527619
 20
861.8605378514958
 30
0.0
 11
2398.210715884975
 21
863.0851812431512
 31
0.0
  0
ARC
  5
74F
330
64F
100
AcDbEntity
  8
0
  6
Continuous
 62
     7
370
    15
100
AcDbCircle
 10
2397.962283102548
 20
863.4735629290432
 30
0.0
 40
0.461041409550476
100
AcDbArc
 50
302.6054789306617
 51
357.3945263215943
  0
ARC
  5
750
330
64F
100
AcDbEntity
  8
0
  6
Continuous
 62
     7
370
    15
100
AcDbCircle
 10
2407.249873335395
 20
853.1504886683752
 30
0.0
 40
0.3023727181776943
100
AcDbArc
 50
302.7369283053587
 51
354.5410385234697
  0
LINE
  5
751
330
64F
100
AcDbEntity
  8
0
  6
Continuous
 62
     7
370
    15
100
AcDbLine
 10
2398.691821587473
 20
855.5629079109118
 30
0.0
 11
2399.359064581433
 21
855.1777167295231
 31
0.0
  0
ARC
  5
752
330
64F
100
AcDbEntity
  8
0
  6
Continuous
 62
     7
370
    15
100
AcDbCircle
 10
2399.286597589317
 20
856.4820536009666
 30
0.0
 40
1.094800115051303
100
AcDbArc
 50
188.690385333617
 51
237.0932335995531
  0
LINE
  5
753
330
64F
100
AcDbEntity
  8
0
  6
Continuous
 62
     7
370
    15
100
AcDbLine
 10
2397.96478111056
 20
858.0239917103671
 30
0.0
 11
2398.204366594552
 21
856.3166348417967
 31
0.0
  0
LINE
  5
754
330
64F
100
AcDbEntity
  8
0
  6
Continuous
 62
     7
370
    15
100
AcDbLine
 10
2399.846519574354
 20
855.3686401051919
 30
0.0
 11
2400.086107439947
 21
856.79937608709
 31
0.0
  0
LWPOLYLINE
  5
755
330
64F
100
AcDbEntity
  8
0
  6
Continuous
 62
     7
370
    15
100
AcDbPolyline
 90
        9
 70
   128
 43
0.0
 10
2399.846519574354
 20
855.3686401051919
 10
2399.824188741068
 20
855.2852935870713
 10
2399.787725339754
 20
855.2160455319244
 10
2399.738237292864
 20
855.1630000077288
 10
2399.677228270278
 20
855.1277687765573
 10
2399.606552001037
 20
855.1114223219801
 10
2399.528355948699
 20
855.1144573229517
 10
2399.44501606172
 20
855.1367815624658
 10
2399.359064581433
 20
855.1777167295231
  0
LINE
  5
756
330
64F
100
AcDbEntity
  8
0
  6
Continuous
 62
     7
370
    15
100
AcDbLine
 10
2397.964780780432
 20
862.6982436657746
 30
0.0
 11
2397.96478111056
 21
858.0239917103671
 31
0.0
  0
LINE
  5
757
330
64F
100
AcDbEntity
  8
0
  6
Continuous
 62
     7
370
    15
100
AcDbLine
 10
2398.176912797487
 20
863.0656671361139
 30
0.0
 11
2398.210715884975
 21
863.0851812431512
 31
0.0
  0
LINE
  5
758
330
64F
100
AcDbEntity
  8
0
  6
Continuous
 62
     7
370
    15
100
AcDbLine
 10
2401.752599064578
 20
856.4689963731558
 30
0.0
 11
2399.846519574354
 21
855.3686401051919
 31
0.0
  0
LINE
  5
759
330
64F
100
AcDbEntity
  8
0
  6
Continuous
 62
     7
370
    15
100
AcDbLine
 10
2401.99218693017
 20
857.8997323550538
 30
0.0
 11
2401.752599064578
 21
856.4689963731558
 31
0.0
  0
ARC
  5
75A
330
64F
100
AcDbEntity
  8
0
  6
Continuous
 62
     7
370
    15
100
AcDbCircle
 10
2401.451597729666
 20
856.4977619268479
 30
0.0
 40
0.3023727181770004
100
AcDbArc
 50
302.7369283053262
 51
354.541038523541
  0
LINE
  5
75B
330
64F
100
AcDbEntity
  8
0
  6
Continuous
 62
     8
370
    15
100
AcDbLine
 10
2414.438800497419
 20
864.0604059907962
 30
0.0
 11
2412.388187856874
 21
862.8766125111626
 31
0.0
  0
LINE
  5
75C
330
64F
100
AcDbEntity
  8
0
  6
Continuous
 62
     8
370
    15
100
AcDbLine
 10
2408.640522632067
 20
867.4076779448176
 30
0.0
 11
2406.589912251145
 21
866.2238857696358
 31
0.0
  0
LINE
  5
75D
330
64F
100
AcDbEntity
  8
0
  6
Continuous
 62
     8
370
    15
100
AcDbLine
 10
2418.928944407478
 20
852.7575878737103
 30
0.0
 11
2419.141076591344
 21
852.6351236964194
 31
0.0
  0
LINE
  5
75E
330
64F
100
AcDbEntity
  8
0
  6
Continuous
 62
     8
370
    15
100
AcDbLine
 10
2418.928944405043
 20
852.7966165471928
 30
0.0
 11
2419.174879678831
 21
852.6546378034565
 31
0.0
  0
LINE
  5
75F
330
64F
100
AcDbEntity
  8
0
  6
Continuous
 62
     8
370
    15
100
AcDbLine
 10
2402.842247026338
 20
870.7549512032906
 30
0.0
 11
2400.791636645415
 21
869.5711590281089
 31
0.0
  0
LINE
  5
760
330
64F
100
AcDbEntity
  8
0
  6
Continuous
 62
     8
370
    15
100
AcDbLine
 10
2413.130668801748
 20
856.1048611321833
 30
0.0
 11
2413.342800985614
 21
855.9823969548926
 31
0.0
  0
LINE
  5
761
330
64F
100
AcDbEntity
  8
0
  6
Continuous
 62
     8
370
    15
100
AcDbLine
 10
2413.130668799313
 20
856.1438898056662
 30
0.0
 11
2413.376604073102
 21
856.0019110619295
 31
0.0
  0
LINE
  5
762
330
64F
100
AcDbEntity
  8
0
  6
Continuous
 62
     8
370
    15
100
AcDbLine
 10
2407.332393196019
 20
859.4521343906565
 30
0.0
 11
2407.544525379884
 21
859.3296702133656
 31
0.0
  0
LINE
  5
763
330
64F
100
AcDbEntity
  8
0
  6
Continuous
 62
     8
370
    15
100
AcDbLine
 10
2407.332393193584
 20
859.4911630641393
 30
0.0
 11
2407.578328467372
 21
859.3491843204027
 31
0.0
  0
LINE
  5
764
330
64F
100
AcDbEntity
  8
0
  6
Continuous
 62
     8
370
    15
100
AcDbLine
 10
2401.534117590289
 20
862.7994076491296
 30
0.0
 11
2401.746249774154
 21
862.6769434718386
 31
0.0
  0
LINE
  5
765
330
64F
100
AcDbEntity
  8
0
  6
Continuous
 62
     8
370
    15
100
AcDbLine
 10
2401.534117587854
 20
862.8384363226121
 30
0.0
 11
2401.780052861643
 21
862.6964575788759
 31
0.0
  0
ENDBLK
  5
651
330
64F
100
AcDbEntity
  8
0
100
AcDbBlockEnd
  0
ENDSEC
  0
SECTION
  2
ENTITIES
  0
INSERT
  5
607
330
1F
100
AcDbEntity
  8
0
100
AcDbBlockReference
  2
1
 10
0.0
 20
0.0
 30
0.0
  0
INSERT
  5
646
330
1F
100
AcDbEntity
  8
0
100
AcDbBlockReference
  2
2
 10
0.0
 20
0.0
 30
0.0
  0
INSERT
  5
64E
330
1F
100
AcDbEntity
  8
0
100
AcDbBlockReference
  2
3
 10
0.0
 20
0.0
 30
0.0
  0
INSERT
  5
766
330
1F
100
AcDbEntity
  8
0
100
AcDbBlockReference
  2
4
 10
0.0
 20
0.0
 30
0.0
  0
ENDSEC
  0
SECTION
  2
OBJECTS
  0
DICTIONARY
  5
C
330
0
100
AcDbDictionary
281
     1
  3
ACAD_COLOR
350
6B
  3
ACAD_GROUP
350
D
  3
ACAD_LAYOUT
350
1A
  3
ACAD_MATERIAL
350
6A
  3
ACAD_MLEADERSTYLE
350
12D
  3
ACAD_MLINESTYLE
350
17
  3
ACAD_PLOTSETTINGS
350
19
  3
ACAD_PLOTSTYLENAME
350
E
  3
ACAD_SCALELIST
350
10C
  3
ACAD_TABLESTYLE
350
7E
  3
ACAD_VISUALSTYLE
350
EF
  3
ACDB_RECOMPOSE_DATA
350
15D
  3
AcDbVariableDictionary
350
5E
  3
DWGPROPS
350
782
  0
DICTIONARY
  5
13C
330
10
100
AcDbDictionary
280
     1
281
     1
  3
ADSK_XREC_LAYER_RECONCILED
360
767
  0
DICTIONARY
  5
6B
102
{ACAD_REACTORS
330
C
102
}
330
C
100
AcDbDictionary
281
     1
  0
DICTIONARY
  5
D
102
{ACAD_REACTORS
330
C
102
}
330
C
100
AcDbDictionary
281
     1
  0
DICTIONARY
  5
1A
102
{ACAD_REACTORS
330
C
102
}
330
C
100
AcDbDictionary
281
     1
  3
Layout1
350
D3
  3
Layout2
350
D7
  3
Model
350
22
  0
DICTIONARY
  5
6A
102
{ACAD_REACTORS
330
C
102
}
330
C
100
AcDbDictionary
281
     1
  3
ByBlock
350
ED
  3
ByLayer
350
EC
  3
Global
350
EE
  0
DICTIONARY
  5
12D
102
{ACAD_REACTORS
330
C
102
}
330
C
100
AcDbDictionary
281
     1
  3
Annotative
350
13B
  3
Standard
350
12E
  0
DICTIONARY
  5
17
102
{ACAD_REACTORS
330
C
102
}
330
C
100
AcDbDictionary
281
     1
  3
Standard
350
18
  0
DICTIONARY
  5
19
102
{ACAD_REACTORS
330
C
102
}
330
C
100
AcDbDictionary
281
     1
  0
ACDBDICTIONARYWDFLT
  5
E
102
{ACAD_REACTORS
330
C
102
}
330
C
100
AcDbDictionary
281
     1
  3
Normal
350
F
100
AcDbDictionaryWithDefault
340
F
  0
DICTIONARY
  5
10C
102
{ACAD_REACTORS
330
C
102
}
330
C
100
AcDbDictionary
281
     1
  3
A0
350
10D
  3
A1
350
188
  3
A2
350
189
  3
A3
350
18A
  3
A4
350
18B
  3
A5
350
18C
  3
A6
350
18D
  3
A7
350
18E
  3
A8
350
18F
  3
A9
350
190
  3
B0
350
191
  3
B1
350
192
  3
B2
350
193
  3
B3
350
194
  3
B4
350
195
  3
B5
350
196
  3
B6
350
197
  3
B7
350
198
  3
B8
350
199
  3
B9
350
19A
  3
C0
350
19B
  3
C1
350
19C
  3
C2
350
19D
  3
C3
350
19E
  3
C4
350
19F
  3
C5
350
1A0
  3
C6
350
1A1
  3
C7
350
1A2
  3
C8
350
1A3
  3
C9
350
1A4
  3
D0
350
1A5
  3
D1
350
1A6
  3
D2
350
1A7
  0
DICTIONARY
  5
7E
102
{ACAD_REACTORS
330
C
102
}
330
C
100
AcDbDictionary
281
     1
  3
Standard
350
7F
  0
DICTIONARY
  5
EF
102
{ACAD_REACTORS
330
C
102
}
330
C
100
AcDbDictionary
281
     1
  3
2dWireframe
350
F5
  3
3D Hidden
350
F7
  3
3dWireframe
350
F6
  3
Basic
350
F4
  3
Brighten
350
FB
  3
ColorChange
350
FF
  3
Conceptual
350
F8
  3
Dim
350
FA
  3
Facepattern
350
FE
  3
Flat
350
F0
  3
FlatWithEdges
350
F1
  3
Gouraud
350
F2
  3
GouraudWithEdges
350
F3
  3
Linepattern
350
FD
  3
Realistic
350
F9
  3
Thicken
350
FC
  0
XRECORD
  5
15D
102
{ACAD_REACTORS
330
C
102
}
330
C
100
AcDbXrecord
280
     1
 90
        1
330
7F
  0
DICTIONARY
  5
5E
102
{ACAD_REACTORS
330
C
102
}
330
C
100
AcDbDictionary
281
     1
  3
CANNOSCALE
350
146
  3
CMLEADERSTYLE
350
145
  3
CTABLESTYLE
350
84
  3
DIMASSOC
350
5F
  3
HIDETEXT
350
63
  3
INDEXCTL
350
770
  3
LIGHTINGUNITS
350
76E
  3
MSLTSCALE
350
76D
  3
PSOLHEIGHT
350
772
  3
PSOLWIDTH
350
771
  3
SORTENTS
350
76F
  0
XRECORD
  5
782
102
{ACAD_REACTORS
330
C
102
}
330
C
100
AcDbXrecord
280
     1
  1
DWGPROPS COOKIE
  2

  3

  4

  6

  7

  8
orhan kara
  9

300
=
301
=
302
=
303
=
304
=
305
=
306
=
307
=
308
=
309
=
 40
0.0019447337962963
 41
2458933.649413009
 42
2458956.450153229
  1

 90
        0
  0
XRECORD
  5
767
102
{ACAD_REACTORS
330
13C
102
}
330
13C
100
AcDbXrecord
280
     1
290
     1
  0
LAYOUT
  5
D3
102
{ACAD_XDICTIONARY
360
786
102
}
102
{ACAD_REACTORS
330
1A
102
}
330
1A
100
AcDbPlotSettings
  1

  2
C:\Documents and Settings\basas\Application Data\Autodesk\AutoCAD 2005\R16.1\enu\plotters\Default Windows System Printer.pc3
  4

  6

 40
0.0
 41
0.0
 42
0.0
 43
0.0
 44
0.0
 45
0.0
 46
0.0
 47
0.0
 48
0.0
 49
0.0
140
0.0
141
0.0
142
1.0
143
1.0
 70
   688
 72
     0
 73
     0
 74
     5
  7

 75
    16
147
1.0
148
0.0
149
0.0
100
AcDbLayout
  1
Layout1
 70
     1
 71
     1
 10
0.0
 20
0.0
 11
12.0
 21
9.0
 12
0.0
 22
0.0
 32
0.0
 14
0.0
 24
0.0
 34
0.0
 15
0.0
 25
0.0
 35
0.0
146
0.0
 13
0.0
 23
0.0
 33
0.0
 16
1.0
 26
0.0
 36
0.0
 17
0.0
 27
1.0
 37
0.0
 76
     0
330
D2
  0
LAYOUT
  5
D7
102
{ACAD_XDICTIONARY
360
788
102
}
102
{ACAD_REACTORS
330
1A
102
}
330
1A
100
AcDbPlotSettings
  1

  2
C:\Documents and Settings\basas\Application Data\Autodesk\AutoCAD 2005\R16.1\enu\plotters\Default Windows System Printer.pc3
  4

  6

 40
0.0
 41
0.0
 42
0.0
 43
0.0
 44
0.0
 45
0.0
 46
0.0
 47
0.0
 48
0.0
 49
0.0
140
0.0
141
0.0
142
1.0
143
1.0
 70
   688
 72
     0
 73
     0
 74
     5
  7

 75
    16
147
1.0
148
0.0
149
0.0
100
AcDbLayout
  1
Layout2
 70
     1
 71
     2
 10
0.0
 20
0.0
 11
12.0
 21
9.0
 12
0.0
 22
0.0
 32
0.0
 14
0.0
 24
0.0
 34
0.0
 15
0.0
 25
0.0
 35
0.0
146
0.0
 13
0.0
 23
0.0
 33
0.0
 16
1.0
 26
0.0
 36
0.0
 17
0.0
 27
1.0
 37
0.0
 76
     0
330
D6
  0
LAYOUT
  5
22
102
{ACAD_XDICTIONARY
360
783
102
}
102
{ACAD_REACTORS
330
1A
102
}
330
1A
100
AcDbPlotSettings
  1

  2
none_device
  4
ISO_A4_(210.00_x_297.00_MM)
  6

 40
7.5
 41
20.0
 42
7.5
 43
20.0
 44
210.0
 45
297.0
 46
11.54999923706054
 47
-13.65000009536743
 48
0.0
 49
0.0
140
0.0
141
0.0
142
1.0
143
8.704084754739808
 70
 11952
 72
     1
 73
     0
 74
     0
  7

 75
     0
147
0.1148885871608098
148
0.0
149
0.0
100
AcDbLayout
  1
Model
 70
     1
 71
     0
 10
0.0
 20
0.0
 11
12.0
 21
9.0
 12
0.0
 22
0.0
 32
0.0
 14
0.0
 24
0.0
 34
0.0
 15
0.0
 25
0.0
 35
0.0
146
0.0
 13
0.0
 23
0.0
 33
0.0
 16
1.0
 26
0.0
 36
0.0
 17
0.0
 27
1.0
 37
0.0
 76
     0
330
1F
331
EA
1001
ACAD_PSEXT
1000
None
1000
None
1000
Not applicable
1000
The layout will not be plotted unless a new plotter configuration name is selected.
1070
     0
  0
MATERIAL
  5
ED
102
{ACAD_XDICTIONARY
360
78C
102
}
102
{ACAD_REACTORS
330
6A
102
}
330
6A
100
AcDbMaterial
  1
ByBlock
  0
MATERIAL
  5
EC
102
{ACAD_XDICTIONARY
360
78A
102
}
102
{ACAD_REACTORS
330
6A
102
}
330
6A
100
AcDbMaterial
  1
ByLayer
  0
MATERIAL
  5
EE
102
{ACAD_XDICTIONARY
360
173
102
}
102
{ACAD_REACTORS
330
6A
102
}
330
6A
100
AcDbMaterial
  1
Global
 43
0.0007999999797903
 43
0.0
 43
0.0
 43
0.0
 43
0.0
 43
0.0007999999797903
 43
0.0
 43
0.0
 43
0.0
 43
0.0
 43
1.0
 43
0.0
 43
0.0
 43
0.0
 43
0.0
 43
1.0
 49
0.0007999999797903
 49
0.0
 49
0.0
 49
0.0
 49
0.0
 49
0.0007999999797903
 49
0.0
 49
0.0
 49
0.0
 49
0.0
 49
1.0
 49
0.0
 49
0.0
 49
0.0
 49
0.0
 49
1.0
142
0.0007999999797903
142
0.0
142
0.0
142
0.0
142
0.0
142
0.0007999999797903
142
0.0
142
0.0
142
0.0
142
0.0
142
1.0
142
0.0
142
0.0
142
0.0
142
0.0
142
1.0
144
0.0007999999797903
144
0.0
144
0.0
144
0.0
144
0.0
144
0.0007999999797903
144
0.0
144
0.0
144
0.0
144
0.0
144
1.0
144
0.0
144
0.0
144
0.0
144
0.0
144
1.0
1001
ACAD
1070
    -1
1070
     3
1070
     0
1000

1071
        0
1070
     0
  0
MLEADERSTYLE
  5
13B
102
{ACAD_REACTORS
330
12D
102
}
330
12D
100
AcDbMLeaderStyle
170
     2
171
     1
172
     0
 90
        2
 40
0.0
 41
0.0
173
     1
 91
-1056964608
340
14
 92
       -2
290
     1
 42
2.0
291
     1
 43
8.0
  3
Standard
 44
4.0
300

342
11
174
     1
178
     1
175
     1
176
     0
 93
-1056964608
 45
4.0
292
     0
297
     0
 46
4.0
 94
-1056964608
 47
1.0
 49
1.0
140
1.0
293
     1
141
0.0
294
     1
177
     0
142
1.0
295
     0
296
     1
143
3.75
1001
ACAD_MLEADERVER
1070
     2
  0
MLEADERSTYLE
  5
12E
102
{ACAD_REACTORS
330
12D
102
}
330
12D
100
AcDbMLeaderStyle
170
     2
171
     1
172
     0
 90
        2
 40
0.0
 41
0.0
173
     1
 91
-1056964608
340
14
 92
       -2
290
     1
 42
2.0
291
     1
 43
8.0
  3
Standard
 44
4.0
300

342
11
174
     1
178
     1
175
     1
176
     0
 93
-1056964608
 45
4.0
292
     0
297
     0
 46
4.0
 94
-1056964608
 47
1.0
 49
1.0
140
1.0
293
     1
141
0.0
294
     1
177
     0
142
1.0
295
     0
296
     0
143
3.75
1001
ACAD_MLEADERVER
1070
     2
  0
MLINESTYLE
  5
18
102
{ACAD_REACTORS
330
17
102
}
330
17
100
AcDbMlineStyle
  2
STANDARD
 70
     0
  3

 62
   256
 51
90.0
 52
90.0
 71
     2
 49
0.5
 62
   256
  6
BYLAYER
 49
-0.5
 62
   256
  6
BYLAYER
  0
ACDBPLACEHOLDER
  5
F
102
{ACAD_REACTORS
330
E
102
}
330
E
  0
SCALE
  5
10D
102
{ACAD_REACTORS
330
10C
102
}
330
10C
100
AcDbScale
 70
     0
300
1:1
140
1.0
141
1.0
290
     1
  0
SCALE
  5
188
102
{ACAD_REACTORS
330
10C
102
}
330
10C
100
AcDbScale
 70
     0
300
1:2
140
1.0
141
2.0
290
     0
  0
SCALE
  5
189
102
{ACAD_REACTORS
330
10C
102
}
330
10C
100
AcDbScale
 70
     0
300
1:4
140
1.0
141
4.0
290
     0
  0
SCALE
  5
18A
102
{ACAD_REACTORS
330
10C
102
}
330
10C
100
AcDbScale
 70
     0
300
1:5
140
1.0
141
5.0
290
     0
  0
SCALE
  5
18B
102
{ACAD_REACTORS
330
10C
102
}
330
10C
100
AcDbScale
 70
     0
300
1:8
140
1.0
141
8.0
290
     0
  0
SCALE
  5
18C
102
{ACAD_REACTORS
330
10C
102
}
330
10C
100
AcDbScale
 70
     0
300
1:10
140
1.0
141
10.0
290
     0
  0
SCALE
  5
18D
102
{ACAD_REACTORS
330
10C
102
}
330
10C
100
AcDbScale
 70
     0
300
1:16
140
1.0
141
16.0
290
     0
  0
SCALE
  5
18E
102
{ACAD_REACTORS
330
10C
102
}
330
10C
100
AcDbScale
 70
     0
300
1:20
140
1.0
141
20.0
290
     0
  0
SCALE
  5
18F
102
{ACAD_REACTORS
330
10C
102
}
330
10C
100
AcDbScale
 70
     0
300
1:30
140
1.0
141
30.0
290
     0
  0
SCALE
  5
190
102
{ACAD_REACTORS
330
10C
102
}
330
10C
100
AcDbScale
 70
     0
300
1:40
140
1.0
141
40.0
290
     0
  0
SCALE
  5
191
102
{ACAD_REACTORS
330
10C
102
}
330
10C
100
AcDbScale
 70
     0
300
1:50
140
1.0
141
50.0
290
     0
  0
SCALE
  5
192
102
{ACAD_REACTORS
330
10C
102
}
330
10C
100
AcDbScale
 70
     0
300
1:100
140
1.0
141
100.0
290
     0
  0
SCALE
  5
193
102
{ACAD_REACTORS
330
10C
102
}
330
10C
100
AcDbScale
 70
     0
300
2:1
140
2.0
141
1.0
290
     0
  0
SCALE
  5
194
102
{ACAD_REACTORS
330
10C
102
}
330
10C
100
AcDbScale
 70
     0
300
4:1
140
4.0
141
1.0
290
     0
  0
SCALE
  5
195
102
{ACAD_REACTORS
330
10C
102
}
330
10C
100
AcDbScale
 70
     0
300
8:1
140
8.0
141
1.0
290
     0
  0
SCALE
  5
196
102
{ACAD_REACTORS
330
10C
102
}
330
10C
100
AcDbScale
 70
     0
300
10:1
140
10.0
141
1.0
290
     0
  0
SCALE
  5
197
102
{ACAD_REACTORS
330
10C
102
}
330
10C
100
AcDbScale
 70
     0
300
100:1
140
100.0
141
1.0
290
     0
  0
SCALE
  5
198
102
{ACAD_REACTORS
330
10C
102
}
330
10C
100
AcDbScale
 70
     0
300
1/128" = 1'-0"
140
0.0078125
141
12.0
290
     0
  0
SCALE
  5
199
102
{ACAD_REACTORS
330
10C
102
}
330
10C
100
AcDbScale
 70
     0
300
1/64" = 1'-0"
140
0.015625
141
12.0
290
     0
  0
SCALE
  5
19A
102
{ACAD_REACTORS
330
10C
102
}
330
10C
100
AcDbScale
 70
     0
300
1/32" = 1'-0"
140
0.03125
141
12.0
290
     0
  0
SCALE
  5
19B
102
{ACAD_REACTORS
330
10C
102
}
330
10C
100
AcDbScale
 70
     0
300
1/16" = 1'-0"
140
0.0625
141
12.0
290
     0
  0
SCALE
  5
19C
102
{ACAD_REACTORS
330
10C
102
}
330
10C
100
AcDbScale
 70
     0
300
3/32" = 1'-0"
140
0.09375
141
12.0
290
     0
  0
SCALE
  5
19D
102
{ACAD_REACTORS
330
10C
102
}
330
10C
100
AcDbScale
 70
     0
300
1/8" = 1'-0"
140
0.125
141
12.0
290
     0
  0
SCALE
  5
19E
102
{ACAD_REACTORS
330
10C
102
}
330
10C
100
AcDbScale
 70
     0
300
3/16" = 1'-0"
140
0.1875
141
12.0
290
     0
  0
SCALE
  5
19F
102
{ACAD_REACTORS
330
10C
102
}
330
10C
100
AcDbScale
 70
     0
300
1/4" = 1'-0"
140
0.25
141
12.0
290
     0
  0
SCALE
  5
1A0
102
{ACAD_REACTORS
330
10C
102
}
330
10C
100
AcDbScale
 70
     0
300
3/8" = 1'-0"
140
0.375
141
12.0
290
     0
  0
SCALE
  5
1A1
102
{ACAD_REACTORS
330
10C
102
}
330
10C
100
AcDbScale
 70
     0
300
1/2" = 1'-0"
140
0.5
141
12.0
290
     0
  0
SCALE
  5
1A2
102
{ACAD_REACTORS
330
10C
102
}
330
10C
100
AcDbScale
 70
     0
300
3/4" = 1'-0"
140
0.75
141
12.0
290
     0
  0
SCALE
  5
1A3
102
{ACAD_REACTORS
330
10C
102
}
330
10C
100
AcDbScale
 70
     0
300
1" = 1'-0"
140
1.0
141
12.0
290
     0
  0
SCALE
  5
1A4
102
{ACAD_REACTORS
330
10C
102
}
330
10C
100
AcDbScale
 70
     0
300
1-1/2" = 1'-0"
140
1.5
141
12.0
290
     0
  0
SCALE
  5
1A5
102
{ACAD_REACTORS
330
10C
102
}
330
10C
100
AcDbScale
 70
     0
300
3" = 1'-0"
140
3.0
141
12.0
290
     0
  0
SCALE
  5
1A6
102
{ACAD_REACTORS
330
10C
102
}
330
10C
100
AcDbScale
 70
     0
300
6" = 1'-0"
140
6.0
141
12.0
290
     0
  0
SCALE
  5
1A7
102
{ACAD_REACTORS
330
10C
102
}
330
10C
100
AcDbScale
 70
     0
300
1'-0" = 1'-0"
140
12.0
141
12.0
290
     0
  0
TABLESTYLE
  5
7F
102
{ACAD_XDICTIONARY
360
162
102
}
102
{ACAD_REACTORS
330
7E
102
}
330
7E
100
AcDbTableStyle
  3
Standard
 70
     0
 71
     0
 40
1.5
 41
1.5
280
     0
281
     0
  7
Standard
140
4.5
170
     2
 62
     0
 63
     7
283
     0
274
    -2
284
     1
 64
     0
275
    -2
285
     1
 65
     0
276
    -2
286
     1
 66
     0
277
    -2
287
     1
 67
     0
278
    -2
288
     1
 68
     0
279
    -2
289
     1
 69
     0
  7
Standard
140
6.0
170
     5
 62
     0
 63
     7
283
     0
274
    -2
284
     1
 64
     0
275
    -2
285
     1
 65
     0
276
    -2
286
     1
 66
     0
277
    -2
287
     1
 67
     0
278
    -2
288
     1
 68
     0
279
    -2
289
     1
 69
     0
  7
Standard
140
4.5
170
     5
 62
     0
 63
     7
283
     0
274
    -2
284
     1
 64
     0
275
    -2
285
     1
 65
     0
276
    -2
286
     1
 66
     0
277
    -2
287
     1
 67
     0
278
    -2
288
     1
 68
     0
279
    -2
289
     1
 69
     0
  0
VISUALSTYLE
  5
F5
102
{ACAD_REACTORS
330
EF
102
}
330
EF
100
AcDbVisualStyle
  2
2dWireframe
 70
     4
 71
     0
 72
     2
 73
     1
 90
        0
 40
-0.6
 41
-30.0
 62
     5
 63
     7
 74
     1
 91
        4
 64
     7
 65
   257
 75
     1
175
     1
 42
1.0
 92
        0
 66
   257
 43
1.0
 76
     1
 77
     6
 78
     2
 67
     7
 79
     5
170
     0
171
     0
290
     0
174
     0
 93
        1
 44
0.0
173
     0
291
     0
 45
0.0
1001
ACAD
1000
AcDbSavedByObjectVersion
1070
     0
  0
VISUALSTYLE
  5
F7
102
{ACAD_REACTORS
330
EF
102
}
330
EF
100
AcDbVisualStyle
  2
3D Hidden
 70
     6
 71
     1
 72
     2
 73
     2
 90
        0
 40
-0.6
 41
-30.0
 62
     5
 63
     7
 74
     2
 91
        2
 64
     7
 65
   257
 75
     2
175
     1
 42
40.0
 92
        0
 66
   257
 43
1.0
 76
     1
 77
     6
 78
     2
 67
     7
 79
     3
170
     0
171
     0
290
     0
174
     0
 93
        1
 44
0.0
173
     0
291
     0
 45
0.0
1001
ACAD
1000
AcDbSavedByObjectVersion
1070
     0
  0
VISUALSTYLE
  5
F6
102
{ACAD_REACTORS
330
EF
102
}
330
EF
100
AcDbVisualStyle
  2
3dWireframe
 70
     5
 71
     0
 72
     2
 73
     1
 90
        0
 40
-0.6
 41
-30.0
 62
     5
 63
     7
 74
     1
 91
        4
 64
     7
 65
   257
 75
     1
175
     1
 42
1.0
 92
        0
 66
   257
 43
1.0
 76
     1
 77
     6
 78
     2
 67
     7
 79
     5
170
     0
171
     0
290
     0
174
     0
 93
        1
 44
0.0
173
     0
291
     0
 45
0.0
1001
ACAD
1000
AcDbSavedByObjectVersion
1070
     0
  0
VISUALSTYLE
  5
F4
102
{ACAD_REACTORS
330
EF
102
}
330
EF
100
AcDbVisualStyle
  2
Basic
 70
     7
 71
     1
 72
     0
 73
     1
 90
        0
 40
-0.6
 41
-30.0
 62
     5
 63
     7
 74
     0
 91
        4
 64
     7
 65
   257
 75
     1
175
     1
 42
1.0
 92
        8
 66
     7
 43
1.0
 76
     1
 77
     6
 78
     2
 67
     7
 79
     5
170
     0
171
     0
290
     0
174
     0
 93
        1
 44
0.0
173
     0
291
     1
 45
0.0
1001
ACAD
1000
AcDbSavedByObjectVersion
1070
     0
  0
VISUALSTYLE
  5
FB
102
{ACAD_REACTORS
330
EF
102
}
330
EF
100
AcDbVisualStyle
  2
Brighten
 70
    12
 71
     2
 72
     2
 73
     1
 90
        0
 40
-0.6
 41
-30.0
 62
     5
 63
     7
 74
     1
 91
        4
 64
     7
 65
   257
 75
     1
175
     1
 42
1.0
 92
        8
 66
     7
 43
1.0
 76
     1
 77
     6
 78
     2
 67
     7
 79
     5
170
     0
171
     0
290
     0
174
     0
 93
        1
 44
50.0
173
     0
291
     1
 45
0.0
1001
ACAD
1000
AcDbSavedByObjectVersion
1070
     0
  0
VISUALSTYLE
  5
FF
102
{ACAD_REACTORS
330
EF
102
}
330
EF
100
AcDbVisualStyle
  2
ColorChange
 70
    16
 71
     2
 72
     2
 73
     3
 90
        0
 40
-0.6
 41
-30.0
 62
     5
 63
     8
 74
     1
 91
        4
 64
     7
 65
   257
 75
     1
175
     1
 42
1.0
 92
        8
 66
     8
 43
1.0
 76
     1
 77
     6
 78
     2
 67
     7
 79
     5
170
     0
171
     0
290
     0
174
     0
 93
        1
 44
0.0
173
     0
291
     1
 45
0.0
1001
ACAD
1000
AcDbSavedByObjectVersion
1070
     0
  0
VISUALSTYLE
  5
F8
102
{ACAD_REACTORS
330
EF
102
}
330
EF
100
AcDbVisualStyle
  2
Conceptual
 70
     9
 71
     3
 72
     2
 73
     1
 90
        0
 40
-0.6
 41
-30.0
 62
     5
 63
     7
 74
     2
 91
        2
 64
     7
 65
   257
 75
     1
175
     1
 42
40.0
 92
        8
 66
     7
 43
1.0
 76
     1
 77
     6
 78
     2
 67
     7
 79
     3
170
     0
171
     0
290
     0
174
     0
 93
        1
 44
0.0
173
     0
291
     0
 45
0.0
1001
ACAD
1000
AcDbSavedByObjectVersion
1070
     0
  0
VISUALSTYLE
  5
FA
102
{ACAD_REACTORS
330
EF
102
}
330
EF
100
AcDbVisualStyle
  2
Dim
 70
    11
 71
     2
 72
     2
 73
     1
 90
        0
 40
-0.6
 41
-30.0
 62
     5
 63
     7
 74
     1
 91
        4
 64
     7
 65
   257
 75
     1
175
     1
 42
1.0
 92
        8
 66
     7
 43
1.0
 76
     1
 77
     6
 78
     2
 67
     7
 79
     5
170
     0
171
     0
290
     0
174
     0
 93
        1
 44
-50.0
173
     0
291
     1
 45
0.0
1001
ACAD
1000
AcDbSavedByObjectVersion
1070
     0
  0
VISUALSTYLE
  5
FE
102
{ACAD_REACTORS
330
EF
102
}
330
EF
100
AcDbVisualStyle
  2
Facepattern
 70
    15
 71
     2
 72
     2
 73
     1
 90
        0
 40
-0.6
 41
-30.0
 62
     5
 63
     7
 74
     1
 91
        4
 64
     7
 65
   257
 75
     1
175
     1
 42
1.0
 92
        8
 66
     7
 43
1.0
 76
     1
 77
     6
 78
     2
 67
     7
 79
     5
170
     0
171
     0
290
     0
174
     0
 93
        1
 44
0.0
173
     0
291
     1
 45
0.0
1001
ACAD
1000
AcDbSavedByObjectVersion
1070
     0
  0
VISUALSTYLE
  5
F0
102
{ACAD_REACTORS
330
EF
102
}
330
EF
100
AcDbVisualStyle
  2
Flat
 70
     0
 71
     2
 72
     1
 73
     1
 90
        2
 40
-0.6
 41
30.0
 62
     5
 63
     7
 74
     0
 91
        4
 64
     7
 65
   257
 75
     1
175
     1
 42
1.0
 92
        8
 66
     7
 43
1.0
 76
     1
 77
     6
 78
     2
 67
     7
 79
     5
170
     0
171
     0
290
     0
174
     0
 93
        1
 44
0.0
173
     0
291
     1
 45
0.0
1001
ACAD
1000
AcDbSavedByObjectVersion
1070
     0
  0
VISUALSTYLE
  5
F1
102
{ACAD_REACTORS
330
EF
102
}
330
EF
100
AcDbVisualStyle
  2
FlatWithEdges
 70
     1
 71
     2
 72
     1
 73
     1
 90
        2
 40
-0.6
 41
30.0
 62
     5
 63
     7
 74
     1
 91
        4
 64
     7
 65
   257
 75
     1
175
     1
 42
1.0
 92
        0
 66
   257
 43
1.0
 76
     1
 77
     6
 78
     2
 67
     7
 79
     5
170
     0
171
     0
290
     0
174
     0
 93
        1
 44
0.0
173
     0
291
     1
 45
0.0
1001
ACAD
1000
AcDbSavedByObjectVersion
1070
     0
  0
VISUALSTYLE
  5
F2
102
{ACAD_REACTORS
330
EF
102
}
330
EF
100
AcDbVisualStyle
  2
Gouraud
 70
     2
 71
     2
 72
     2
 73
     1
 90
        2
 40
-0.6
 41
30.0
 62
     5
 63
     7
 74
     0
 91
        4
 64
     7
 65
   257
 75
     1
175
     1
 42
1.0
 92
        0
 66
     7
 43
1.0
 76
     1
 77
     6
 78
     2
 67
     7
 79
     5
170
     0
171
     0
290
     0
174
     0
 93
        1
 44
0.0
173
     0
291
     1
 45
0.0
1001
ACAD
1000
AcDbSavedByObjectVersion
1070
     0
  0
VISUALSTYLE
  5
F3
102
{ACAD_REACTORS
330
EF
102
}
330
EF
100
AcDbVisualStyle
  2
GouraudWithEdges
 70
     3
 71
     2
 72
     2
 73
     1
 90
        2
 40
-0.6
 41
30.0
 62
     5
 63
     7
 74
     1
 91
        4
 64
     7
 65
   257
 75
     1
175
     1
 42
1.0
 92
        0
 66
   257
 43
1.0
 76
     1
 77
     6
 78
     2
 67
     7
 79
     5
170
     0
171
     0
290
     0
174
     0
 93
        1
 44
0.0
173
     0
291
     1
 45
0.0
1001
ACAD
1000
AcDbSavedByObjectVersion
1070
     0
  0
VISUALSTYLE
  5
FD
102
{ACAD_REACTORS
330
EF
102
}
330
EF
100
AcDbVisualStyle
  2
Linepattern
 70
    14
 71
     2
 72
     2
 73
     1
 90
        0
 40
-0.6
 41
-30.0
 62
     5
 63
     7
 74
     1
 91
        4
 64
     7
 65
   257
 75
     7
175
     7
 42
1.0
 92
        8
 66
     7
 43
1.0
 76
     1
 77
     6
 78
     2
 67
     7
 79
     5
170
     0
171
     0
290
     0
174
     0
 93
        1
 44
0.0
173
     0
291
     1
 45
0.0
1001
ACAD
1000
AcDbSavedByObjectVersion
1070
     0
  0
VISUALSTYLE
  5
F9
102
{ACAD_REACTORS
330
EF
102
}
330
EF
100
AcDbVisualStyle
  2
Realistic
 70
     8
 71
     2
 72
     2
 73
     1
 90
        0
 40
-0.6
 41
-30.0
 62
     5
 63
     7
 74
     1
 91
        0
 64
     7
 65
   257
 75
     1
175
     1
 42
1.0
 92
        8
 66
     8
 43
1.0
 76
     1
 77
     6
 78
     2
 67
     7
 79
     5
170
     0
171
     0
290
     0
174
     0
 93
       13
 44
0.0
173
     0
291
     0
 45
0.0
1001
ACAD
1000
AcDbSavedByObjectVersion
1070
     0
  0
VISUALSTYLE
  5
FC
102
{ACAD_REACTORS
330
EF
102
}
330
EF
100
AcDbVisualStyle
  2
Thicken
 70
    13
 71
     2
 72
     2
 73
     1
 90
        0
 40
-0.6
 41
-30.0
 62
     5
 63
     7
 74
     1
 91
        4
 64
     7
 65
   257
 75
     1
175
     1
 42
1.0
 92
       12
 66
     7
 43
1.0
 76
     1
 77
     6
 78
     2
 67
     7
 79
     5
170
     0
171
     0
290
     0
174
     0
 93
        1
 44
0.0
173
     0
291
     1
 45
0.0
1001
ACAD
1000
AcDbSavedByObjectVersion
1070
     0
  0
DICTIONARYVAR
  5
146
102
{ACAD_REACTORS
330
5E
102
}
330
5E
100
DictionaryVariables
280
     0
  1
1:1
  0
DICTIONARYVAR
  5
145
102
{ACAD_REACTORS
330
5E
102
}
330
5E
100
DictionaryVariables
280
     0
  1
STANDARD
  0
DICTIONARYVAR
  5
84
102
{ACAD_REACTORS
330
5E
102
}
330
5E
100
DictionaryVariables
280
     0
  1
STANDARD
  0
DICTIONARYVAR
  5
5F
102
{ACAD_REACTORS
330
5E
102
}
330
5E
100
DictionaryVariables
280
     0
  1
2
  0
DICTIONARYVAR
  5
63
102
{ACAD_REACTORS
330
5E
102
}
330
5E
100
DictionaryVariables
280
     0
  1
1
  0
DICTIONARYVAR
  5
770
102
{ACAD_REACTORS
330
5E
102
}
330
5E
100
DictionaryVariables
280
     0
  1
0
  0
DICTIONARYVAR
  5
76E
102
{ACAD_REACTORS
330
5E
102
}
330
5E
100
DictionaryVariables
280
     0
  1
2
  0
DICTIONARYVAR
  5
76D
102
{ACAD_REACTORS
330
5E
102
}
330
5E
100
DictionaryVariables
280
     0
  1
1
  0
DICTIONARYVAR
  5
772
102
{ACAD_REACTORS
330
5E
102
}
330
5E
100
DictionaryVariables
280
     0
  1
80.000000
  0
DICTIONARYVAR
  5
771
102
{ACAD_REACTORS
330
5E
102
}
330
5E
100
DictionaryVariables
280
     0
  1
5.000000
  0
DICTIONARYVAR
  5
76F
102
{ACAD_REACTORS
330
5E
102
}
330
5E
100
DictionaryVariables
280
     0
  1
127
  0
DICTIONARY
  5
786
330
D3
100
AcDbDictionary
280
     1
281
     1
  3
ACAD_XREC_ROUNDTRIP
360
787
  0
DICTIONARY
  5
788
330
D7
100
AcDbDictionary
280
     1
281
     1
  3
ACAD_XREC_ROUNDTRIP
360
789
  0
DICTIONARY
  5
783
330
22
100
AcDbDictionary
280
     1
281
     1
  3
ACAD_XREC_ROUNDTRIP
360
784
  0
DICTIONARY
  5
78C
330
ED
100
AcDbDictionary
280
     1
281
     1
  3
ACAD_XREC_ROUNDTRIP
360
78D
  0
DICTIONARY
  5
78A
330
EC
100
AcDbDictionary
280
     1
281
     1
  3
ACAD_XREC_ROUNDTRIP
360
78B
  0
DICTIONARY
  5
173
330
EE
100
AcDbDictionary
280
     1
281
     1
  3
ACAD_XREC_ROUNDTRIP
360
78E
  3
BUMPTILE
360
175
  3
DIFFUSETILE
360
174
  3
OPACITYTILE
360
176
  3
REFLECTIONTILE
360
177
  0
DICTIONARY
  5
162
330
7F
100
AcDbDictionary
280
     1
281
     1
  3
ACAD_ROUNDTRIP_2008_TABLESTYLE_CELLSTYLEMAP
360
781
  3
ACAD_XREC_ROUNDTRIP
360
785
  0
XRECORD
  5
787
102
{ACAD_REACTORS
330
786
102
}
330
786
100
AcDbXrecord
280
     1
102
SHADEPLOT
 70
     0
102
SHADEPLOTRESLEVEL
 70
     2
102
SHADEPLOTCUSTOMDPI
 70
   300
  0
XRECORD
  5
789
102
{ACAD_REACTORS
330
788
102
}
330
788
100
AcDbXrecord
280
     1
102
SHADEPLOT
 70
     0
102
SHADEPLOTRESLEVEL
 70
     2
102
SHADEPLOTCUSTOMDPI
 70
   300
  0
XRECORD
  5
784
102
{ACAD_REACTORS
330
783
102
}
330
783
100
AcDbXrecord
280
     1
102
SHADEPLOT
 70
     0
102
SHADEPLOTRESLEVEL
 70
     2
102
SHADEPLOTCUSTOMDPI
 70
   300
  0
XRECORD
  5
78D
102
{ACAD_REACTORS
330
78C
102
}
330
78C
100
AcDbXrecord
280
     1
102
MATERIAL
148
0.0
149
0.0
149
0.0
 93
        0
 94
       63
282
     0
 72
     1
 77
     1
171
     1
175
     1
179
     1
273
     0
  0
XRECORD
  5
78B
102
{ACAD_REACTORS
330
78A
102
}
330
78A
100
AcDbXrecord
280
     1
102
MATERIAL
148
0.0
149
0.0
149
0.0
 93
        0
 94
       63
282
     0
 72
     1
 77
     1
171
     1
175
     1
179
     1
273
     0
  0
XRECORD
  5
78E
102
{ACAD_REACTORS
330
173
102
}
330
173
100
AcDbXrecord
280
     1
102
MATERIAL
148
0.0
149
0.0
149
0.0
 93
        0
 94
       63
282
     0
 72
     1
 77
     1
171
     1
175
     1
179
     1
273
     0
  0
XRECORD
  5
175
102
{ACAD_REACTORS
330
173
102
}
330
173
100
AcDbXrecord
280
     1
270
     1
271
     1
  0
XRECORD
  5
174
102
{ACAD_REACTORS
330
173
102
}
330
173
100
AcDbXrecord
280
     1
270
     1
271
     1
  0
XRECORD
  5
176
102
{ACAD_REACTORS
330
173
102
}
330
173
100
AcDbXrecord
280
     1
270
     1
271
     1
  0
XRECORD
  5
177
102
{ACAD_REACTORS
330
173
102
}
330
173
100
AcDbXrecord
280
     1
270
     1
271
     1
  0
CELLSTYLEMAP
  5
781
102
{ACAD_REACTORS
330
162
102
}
330
162
100
AcDbCellStyleMap
 90
        3
300
CELLSTYLE
  1
TABLEFORMAT_BEGIN
 90
        5
170
     1
 91
        0
 92
    32768
 62
   257
 93
        1
300
CONTENTFORMAT
  1
CONTENTFORMAT_BEGIN
 90
        0
 91
        0
 92
      512
 93
        0
300

 40
0.0
140
1.0
 94
        5
 62
     0
340
11
144
6.0
309
CONTENTFORMAT_END
171
     1
301
MARGIN
  1
CELLMARGIN_BEGIN
 40
1.5
 40
1.5
 40
1.5
 40
1.5
 40
4.5
 40
4.5
309
CELLMARGIN_END
 94
        6
 95
        1
302
GRIDFORMAT
  1
GRIDFORMAT_BEGIN
 90
        0
 91
        1
 62
     0
 92
       -2
340
14
 93
        0
 40
1.125
309
GRIDFORMAT_END
 95
        2
302
GRIDFORMAT
  1
GRIDFORMAT_BEGIN
 90
        0
 91
        1
 62
     0
 92
       -2
340
14
 93
        0
 40
1.125
309
GRIDFORMAT_END
 95
        4
302
GRIDFORMAT
  1
GRIDFORMAT_BEGIN
 90
        0
 91
        1
 62
     0
 92
       -2
340
14
 93
        0
 40
1.125
309
GRIDFORMAT_END
 95
        8
302
GRIDFORMAT
  1
GRIDFORMAT_BEGIN
 90
        0
 91
        1
 62
     0
 92
       -2
340
14
 93
        0
 40
1.125
309
GRIDFORMAT_END
 95
       16
302
GRIDFORMAT
  1
GRIDFORMAT_BEGIN
 90
        0
 91
        1
 62
     0
 92
       -2
340
14
 93
        0
 40
1.125
309
GRIDFORMAT_END
 95
       32
302
GRIDFORMAT
  1
GRIDFORMAT_BEGIN
 90
        0
 91
        1
 62
     0
 92
       -2
340
14
 93
        0
 40
1.125
309
GRIDFORMAT_END
309
TABLEFORMAT_END
  1
CELLSTYLE_BEGIN
 90
        1
 91
        1
300
_TITLE
309
CELLSTYLE_END
300
CELLSTYLE
  1
TABLEFORMAT_BEGIN
 90
        5
170
     1
 91
        0
 92
        0
 62
   257
 93
        1
300
CONTENTFORMAT
  1
CONTENTFORMAT_BEGIN
 90
        0
 91
        0
 92
      512
 93
        0
300

 40
0.0
140
1.0
 94
        5
 62
     0
340
11
144
4.5
309
CONTENTFORMAT_END
171
     1
301
MARGIN
  1
CELLMARGIN_BEGIN
 40
1.5
 40
1.5
 40
1.5
 40
1.5
 40
4.5
 40
4.5
309
CELLMARGIN_END
 94
        6
 95
        1
302
GRIDFORMAT
  1
GRIDFORMAT_BEGIN
 90
        0
 91
        1
 62
     0
 92
       -2
340
14
 93
        0
 40
1.125
309
GRIDFORMAT_END
 95
        2
302
GRIDFORMAT
  1
GRIDFORMAT_BEGIN
 90
        0
 91
        1
 62
     0
 92
       -2
340
14
 93
        0
 40
1.125
309
GRIDFORMAT_END
 95
        4
302
GRIDFORMAT
  1
GRIDFORMAT_BEGIN
 90
        0
 91
        1
 62
     0
 92
       -2
340
14
 93
        0
 40
1.125
309
GRIDFORMAT_END
 95
        8
302
GRIDFORMAT
  1
GRIDFORMAT_BEGIN
 90
        0
 91
        1
 62
     0
 92
       -2
340
14
 93
        0
 40
1.125
309
GRIDFORMAT_END
 95
       16
302
GRIDFORMAT
  1
GRIDFORMAT_BEGIN
 90
        0
 91
        1
 62
     0
 92
       -2
340
14
 93
        0
 40
1.125
309
GRIDFORMAT_END
 95
       32
302
GRIDFORMAT
  1
GRIDFORMAT_BEGIN
 90
        0
 91
        1
 62
     0
 92
       -2
340
14
 93
        0
 40
1.125
309
GRIDFORMAT_END
309
TABLEFORMAT_END
  1
CELLSTYLE_BEGIN
 90
        2
 91
        1
300
_HEADER
309
CELLSTYLE_END
300
CELLSTYLE
  1
TABLEFORMAT_BEGIN
 90
        5
170
     1
 91
        0
 92
        0
 62
   257
 93
        1
300
CONTENTFORMAT
  1
CONTENTFORMAT_BEGIN
 90
        0
 91
        0
 92
      512
 93
        0
300

 40
0.0
140
1.0
 94
        2
 62
     0
340
11
144
4.5
309
CONTENTFORMAT_END
171
     1
301
MARGIN
  1
CELLMARGIN_BEGIN
 40
1.5
 40
1.5
 40
1.5
 40
1.5
 40
4.5
 40
4.5
309
CELLMARGIN_END
 94
        6
 95
        1
302
GRIDFORMAT
  1
GRIDFORMAT_BEGIN
 90
        0
 91
        1
 62
     0
 92
       -2
340
14
 93
        0
 40
1.125
309
GRIDFORMAT_END
 95
        2
302
GRIDFORMAT
  1
GRIDFORMAT_BEGIN
 90
        0
 91
        1
 62
     0
 92
       -2
340
14
 93
        0
 40
1.125
309
GRIDFORMAT_END
 95
        4
302
GRIDFORMAT
  1
GRIDFORMAT_BEGIN
 90
        0
 91
        1
 62
     0
 92
       -2
340
14
 93
        0
 40
1.125
309
GRIDFORMAT_END
 95
        8
302
GRIDFORMAT
  1
GRIDFORMAT_BEGIN
 90
        0
 91
        1
 62
     0
 92
       -2
340
14
 93
        0
 40
1.125
309
GRIDFORMAT_END
 95
       16
302
GRIDFORMAT
  1
GRIDFORMAT_BEGIN
 90
        0
 91
        1
 62
     0
 92
       -2
340
14
 93
        0
 40
1.125
309
GRIDFORMAT_END
 95
       32
302
GRIDFORMAT
  1
GRIDFORMAT_BEGIN
 90
        0
 91
        1
 62
     0
 92
       -2
340
14
 93
        0
 40
1.125
309
GRIDFORMAT_END
309
TABLEFORMAT_END
  1
CELLSTYLE_BEGIN
 90
        3
 91
        2
300
_DATA
309
CELLSTYLE_END
  0
XRECORD
  5
785
102
{ACAD_REACTORS
330
162
102
}
330
162
100
AcDbXrecord
280
     1
102
ACAD_ROUNDTRIP_PRE2007_TABLESTYLE
 90
      512
 91
        0
  1

 92
      512
 93
        0
  2

 94
      512
 95
        0
  3

  0
ENDSEC
  0
EOF
