  0
SECTION
  2
HEADER
  9
$ACADVER
  1
AC1015
  9
$ACADMAINTVER
 70
    20
  9
$DWGCODEPAGE
  3
ANSI_1254
  9
$INSBASE
 10
0.0
 20
0.0
 30
0.0
  9
$EXTMIN
 10
2215.396713763662
 20
936.1146578694809
 30
0.0
  9
$EXTMAX
 10
2284.639953468304
 20
985.3573317500471
 30
0.0
  9
$LIMMIN
 10
0.0
 20
0.0
  9
$LIMMAX
 10
420.0
 20
297.0
  9
$ORTHOMODE
 70
     0
  9
$REGENMODE
 70
     1
  9
$FILLMODE
 70
     1
  9
$QTEXTMODE
 70
     0
  9
$MIRRTEXT
 70
     0
  9
$LTSCALE
 40
1.0
  9
$ATTMODE
 70
     1
  9
$TEXTSIZE
 40
2.5
  9
$TRACEWID
 40
1.0
  9
$TEXTSTYLE
  7
Standard
  9
$CLAYER
  8
0
  9
$CELTYPE
  6
ByLayer
  9
$CECOLOR
 62
   256
  9
$CELTSCALE
 40
1.0
  9
$DISPSILH
 70
     0
  9
$DIMSCALE
 40
1.0
  9
$DIMASZ
 40
2.5
  9
$DIMEXO
 40
0.625
  9
$DIMDLI
 40
3.75
  9
$DIMRND
 40
0.0
  9
$DIMDLE
 40
0.0
  9
$DIMEXE
 40
1.25
  9
$DIMTP
 40
0.0
  9
$DIMTM
 40
0.0
  9
$DIMTXT
 40
2.5
  9
$DIMCEN
 40
2.5
  9
$DIMTSZ
 40
0.0
  9
$DIMTOL
 70
     0
  9
$DIMLIM
 70
     0
  9
$DIMTIH
 70
     0
  9
$DIMTOH
 70
     0
  9
$DIMSE1
 70
     0
  9
$DIMSE2
 70
     0
  9
$DIMTAD
 70
     1
  9
$DIMZIN
 70
     8
  9
$DIMBLK
  1

  9
$DIMASO
 70
     1
  9
$DIMSHO
 70
     1
  9
$DIMPOST
  1

  9
$DIMAPOST
  1

  9
$DIMALT
 70
     0
  9
$DIMALTD
 70
     3
  9
$DIMALTF
 40
0.03937007874016
  9
$DIMLFAC
 40
1.0
  9
$DIMTOFL
 70
     1
  9
$DIMTVP
 40
0.0
  9
$DIMTIX
 70
     0
  9
$DIMSOXD
 70
     0
  9
$DIMSAH
 70
     0
  9
$DIMBLK1
  1

  9
$DIMBLK2
  1

  9
$DIMSTYLE
  2
ISO-25
  9
$DIMCLRD
 70
     0
  9
$DIMCLRE
 70
     0
  9
$DIMCLRT
 70
     0
  9
$DIMTFAC
 40
1.0
  9
$DIMGAP
 40
0.625
  9
$DIMJUST
 70
     0
  9
$DIMSD1
 70
     0
  9
$DIMSD2
 70
     0
  9
$DIMTOLJ
 70
     0
  9
$DIMTZIN
 70
     8
  9
$DIMALTZ
 70
     0
  9
$DIMALTTZ
 70
     0
  9
$DIMUPT
 70
     0
  9
$DIMDEC
 70
     2
  9
$DIMTDEC
 70
     2
  9
$DIMALTU
 70
     2
  9
$DIMALTTD
 70
     3
  9
$DIMTXSTY
  7
Standard
  9
$DIMAUNIT
 70
     0
  9
$DIMADEC
 70
     0
  9
$DIMALTRND
 40
0.0
  9
$DIMAZIN
 70
     0
  9
$DIMDSEP
 70
    44
  9
$DIMATFIT
 70
     3
  9
$DIMFRAC
 70
     0
  9
$DIMLDRBLK
  1

  9
$DIMLUNIT
 70
     2
  9
$DIMLWD
 70
    -2
  9
$DIMLWE
 70
    -2
  9
$DIMTMOVE
 70
     0
  9
$LUNITS
 70
     2
  9
$LUPREC
 70
     4
  9
$SKETCHINC
 40
1.0
  9
$FILLETRAD
 40
0.0
  9
$AUNITS
 70
     0
  9
$AUPREC
 70
     0
  9
$MENU
  1
.
  9
$ELEVATION
 40
0.0
  9
$PELEVATION
 40
0.0
  9
$THICKNESS
 40
0.0
  9
$LIMCHECK
 70
     0
  9
$CHAMFERA
 40
0.0
  9
$CHAMFERB
 40
0.0
  9
$CHAMFERC
 40
0.0
  9
$CHAMFERD
 40
0.0
  9
$SKPOLY
 70
     0
  9
$TDCREATE
 40
2458933.648311875
  9
$TDUCREATE
 40
2458933.523311875
  9
$TDUPDATE
 40
2458956.448307882
  9
$TDUUPDATE
 40
2458956.323307882
  9
$TDINDWG
 40
0.0003168287
  9
$TDUSRTIMER
 40
0.0003168287
  9
$USRTIMER
 70
     1
  9
$ANGBASE
 50
0.0
  9
$ANGDIR
 70
     0
  9
$PDMODE
 70
     0
  9
$PDSIZE
 40
0.0
  9
$PLINEWID
 40
0.0
  9
$SPLFRAME
 70
     0
  9
$SPLINETYPE
 70
     6
  9
$SPLINESEGS
 70
     8
  9
$HANDSEED
  5
658
  9
$SURFTAB1
 70
     6
  9
$SURFTAB2
 70
     6
  9
$SURFTYPE
 70
     6
  9
$SURFU
 70
     6
  9
$SURFV
 70
     6
  9
$UCSBASE
  2

  9
$UCSNAME
  2

  9
$UCSORG
 10
0.0
 20
0.0
 30
0.0
  9
$UCSXDIR
 10
1.0
 20
0.0
 30
0.0
  9
$UCSYDIR
 10
0.0
 20
1.0
 30
0.0
  9
$UCSORTHOREF
  2

  9
$UCSORTHOVIEW
 70
     0
  9
$UCSORGTOP
 10
0.0
 20
0.0
 30
0.0
  9
$UCSORGBOTTOM
 10
0.0
 20
0.0
 30
0.0
  9
$UCSORGLEFT
 10
0.0
 20
0.0
 30
0.0
  9
$UCSORGRIGHT
 10
0.0
 20
0.0
 30
0.0
  9
$UCSORGFRONT
 10
0.0
 20
0.0
 30
0.0
  9
$UCSORGBACK
 10
0.0
 20
0.0
 30
0.0
  9
$PUCSBASE
  2

  9
$PUCSNAME
  2

  9
$PUCSORG
 10
0.0
 20
0.0
 30
0.0
  9
$PUCSXDIR
 10
1.0
 20
0.0
 30
0.0
  9
$PUCSYDIR
 10
0.0
 20
1.0
 30
0.0
  9
$PUCSORTHOREF
  2

  9
$PUCSORTHOVIEW
 70
     0
  9
$PUCSORGTOP
 10
0.0
 20
0.0
 30
0.0
  9
$PUCSORGBOTTOM
 10
0.0
 20
0.0
 30
0.0
  9
$PUCSORGLEFT
 10
0.0
 20
0.0
 30
0.0
  9
$PUCSORGRIGHT
 10
0.0
 20
0.0
 30
0.0
  9
$PUCSORGFRONT
 10
0.0
 20
0.0
 30
0.0
  9
$PUCSORGBACK
 10
0.0
 20
0.0
 30
0.0
  9
$USERI1
 70
     0
  9
$USERI2
 70
     0
  9
$USERI3
 70
     0
  9
$USERI4
 70
     0
  9
$USERI5
 70
     0
  9
$USERR1
 40
0.0
  9
$USERR2
 40
0.0
  9
$USERR3
 40
0.0
  9
$USERR4
 40
0.0
  9
$USERR5
 40
0.0
  9
$WORLDVIEW
 70
     1
  9
$SHADEDGE
 70
     3
  9
$SHADEDIF
 70
    70
  9
$TILEMODE
 70
     1
  9
$MAXACTVP
 70
    64
  9
$PINSBASE
 10
0.0
 20
0.0
 30
0.0
  9
$PLIMCHECK
 70
     0
  9
$PEXTMIN
 10
0.0
 20
0.0
 30
0.0
  9
$PEXTMAX
 10
0.0
 20
0.0
 30
0.0
  9
$PLIMMIN
 10
0.0
 20
0.0
  9
$PLIMMAX
 10
12.0
 20
9.0
  9
$UNITMODE
 70
     0
  9
$VISRETAIN
 70
     1
  9
$PLINEGEN
 70
     0
  9
$PSLTSCALE
 70
     1
  9
$TREEDEPTH
 70
  3020
  9
$CMLSTYLE
  2
Standard
  9
$CMLJUST
 70
     0
  9
$CMLSCALE
 40
20.0
  9
$PROXYGRAPHICS
 70
     1
  9
$MEASUREMENT
 70
     1
  9
$CELWEIGHT
370
    -1
  9
$ENDCAPS
280
     0
  9
$JOINSTYLE
280
     0
  9
$LWDISPLAY
290
     0
  9
$INSUNITS
 70
     4
  9
$HYPERLINKBASE
  1

  9
$STYLESHEET
  1

  9
$XEDIT
290
     1
  9
$CEPSNTYPE
380
     0
  9
$PSTYLEMODE
290
     1
  9
$FINGERPRINTGUID
  2
{E8D2B3ED-884C-4731-ABEF-22383517ED19}
  9
$VERSIONGUID
  2
{3FB430A4-86B1-4914-8D39-DE76B7A885DE}
  9
$EXTNAMES
290
     1
  9
$PSVPSCALE
 40
0.0
  9
$OLESTARTUP
290
     0
  0
ENDSEC
  0
SECTION
  2
CLASSES
  0
CLASS
  1
ACDBDICTIONARYWDFLT
  2
AcDbDictionaryWithDefault
  3
ObjectDBX Classes
 90
        0
280
     0
281
     0
  0
CLASS
  1
ACDBPLACEHOLDER
  2
AcDbPlaceHolder
  3
ObjectDBX Classes
 90
        0
280
     0
281
     0
  0
CLASS
  1
LAYOUT
  2
AcDbLayout
  3
ObjectDBX Classes
 90
        0
280
     0
281
     0
  0
CLASS
  1
DICTIONARYVAR
  2
AcDbDictionaryVar
  3
ObjectDBX Classes
 90
        0
280
     0
281
     0
  0
CLASS
  1
TABLESTYLE
  2
AcDbTableStyle
  3
ObjectDBX Classes
 90
     4095
280
     0
281
     0
  0
CLASS
  1
MATERIAL
  2
AcDbMaterial
  3
ObjectDBX Classes
 90
     1153
280
     0
281
     0
  0
CLASS
  1
VISUALSTYLE
  2
AcDbVisualStyle
  3
ObjectDBX Classes
 90
     4095
280
     0
281
     0
  0
CLASS
  1
SCALE
  2
AcDbScale
  3
ObjectDBX Classes
 90
     1153
280
     0
281
     0
  0
CLASS
  1
MLEADERSTYLE
  2
AcDbMLeaderStyle
  3
ACDB_MLEADERSTYLE_CLASS
 90
     4095
280
     0
281
     0
  0
CLASS
  1
CELLSTYLEMAP
  2
AcDbCellStyleMap
  3
ObjectDBX Classes
 90
     1152
280
     0
281
     0
  0
ENDSEC
  0
SECTION
  2
TABLES
  0
TABLE
  2
VPORT
  5
8
330
0
100
AcDbSymbolTable
 70
     1
  0
VPORT
  5
EA
330
8
100
AcDbSymbolTableRecord
100
AcDbViewportTableRecord
  2
*Active
 70
     0
 10
0.0
 20
0.0
 11
1.0
 21
1.0
 12
2262.27118176785
 22
963.3270551844853
 13
0.0
 23
0.0
 14
10.0
 24
10.0
 15
10.0
 25
10.0
 16
0.0
 26
0.0
 36
1.0
 17
0.0
 27
0.0
 37
0.0
 40
88.5357290474681
 41
1.90311004784689
 42
50.0
 43
0.0
 44
0.0
 50
0.0
 51
0.0
 71
     0
 72
  1000
 73
     1
 74
     3
 75
     0
 76
     0
 77
     0
 78
     0
281
     0
 65
     1
110
0.0
120
0.0
130
0.0
111
1.0
121
0.0
131
0.0
112
0.0
122
1.0
132
0.0
 79
     0
146
0.0
  0
ENDTAB
  0
TABLE
  2
LTYPE
  5
5
330
0
100
AcDbSymbolTable
 70
     1
  0
LTYPE
  5
14
330
5
100
AcDbSymbolTableRecord
100
AcDbLinetypeTableRecord
  2
ByBlock
 70
     0
  3

 72
    65
 73
     0
 40
0.0
  0
LTYPE
  5
15
330
5
100
AcDbSymbolTableRecord
100
AcDbLinetypeTableRecord
  2
ByLayer
 70
     0
  3

 72
    65
 73
     0
 40
0.0
  0
LTYPE
  5
16
330
5
100
AcDbSymbolTableRecord
100
AcDbLinetypeTableRecord
  2
Continuous
 70
     0
  3
Solid line
 72
    65
 73
     0
 40
0.0
  0
ENDTAB
  0
TABLE
  2
LAYER
  5
2
330
0
100
AcDbSymbolTable
 70
     1
  0
LAYER
  5
10
102
{ACAD_XDICTIONARY
360
13C
102
}
330
2
100
AcDbSymbolTableRecord
100
AcDbLayerTableRecord
  2
0
 70
     0
 62
     7
  6
Continuous
370
    -3
390
F
  0
ENDTAB
  0
TABLE
  2
STYLE
  5
3
330
0
100
AcDbSymbolTable
 70
     2
  0
STYLE
  5
11
330
3
100
AcDbSymbolTableRecord
100
AcDbTextStyleTableRecord
  2
Standard
 70
     0
 40
0.0
 41
1.0
 50
0.0
 71
     0
 42
2.5
  3
txt
  4

  0
STYLE
  5
132
330
3
100
AcDbSymbolTableRecord
100
AcDbTextStyleTableRecord
  2
Annotative
 70
     0
 40
0.0
 41
1.0
 50
0.0
 71
     0
 42
2.5
  3
txt.shx
  4

1001
AcadAnnotative
1000
AnnotativeData
1002
{
1070
     1
1070
     1
1002
}
  0
ENDTAB
  0
TABLE
  2
VIEW
  5
6
330
0
100
AcDbSymbolTable
 70
     0
  0
ENDTAB
  0
TABLE
  2
UCS
  5
7
330
0
100
AcDbSymbolTable
 70
     0
  0
ENDTAB
  0
TABLE
  2
APPID
  5
9
330
0
100
AcDbSymbolTable
 70
     7
  0
APPID
  5
12
330
9
100
AcDbSymbolTableRecord
100
AcDbRegAppTableRecord
  2
ACAD
 70
     0
  0
APPID
  5
9E
330
9
100
AcDbSymbolTableRecord
100
AcDbRegAppTableRecord
  2
ACAD_PSEXT
 70
     0
  0
APPID
  5
133
330
9
100
AcDbSymbolTableRecord
100
AcDbRegAppTableRecord
  2
AcadAnnoPO
 70
     0
  0
APPID
  5
134
330
9
100
AcDbSymbolTableRecord
100
AcDbRegAppTableRecord
  2
AcadAnnotative
 70
     0
  0
APPID
  5
135
330
9
100
AcDbSymbolTableRecord
100
AcDbRegAppTableRecord
  2
ACAD_DSTYLE_DIMJAG
 70
     0
  0
APPID
  5
136
330
9
100
AcDbSymbolTableRecord
100
AcDbRegAppTableRecord
  2
ACAD_DSTYLE_DIMTALN
 70
     0
  0
APPID
  5
165
330
9
100
AcDbSymbolTableRecord
100
AcDbRegAppTableRecord
  2
ACAD_MLEADERVER
 70
     0
  0
ENDTAB
  0
TABLE
  2
DIMSTYLE
  5
A
330
0
100
AcDbSymbolTable
 70
     2
100
AcDbDimStyleTable
 71
     2
340
27
340
137
  0
DIMSTYLE
105
27
330
A
100
AcDbSymbolTableRecord
100
AcDbDimStyleTableRecord
  2
ISO-25
 70
     0
 41
2.5
 42
0.625
 43
3.75
 44
1.25
 73
     0
 74
     0
 77
     1
 78
     8
140
2.5
141
2.5
143
0.03937007874016
147
0.625
171
     3
172
     1
271
     2
272
     2
274
     3
278
    44
283
     0
284
     8
340
11
  0
DIMSTYLE
105
137
330
A
100
AcDbSymbolTableRecord
100
AcDbDimStyleTableRecord
  2
Annotative
 70
     0
 40
0.0
 41
2.5
 42
0.625
 43
3.75
 44
1.25
 73
     0
 74
     0
 77
     1
 78
     8
140
2.5
141
2.5
143
0.03937007874016
147
0.625
171
     3
172
     1
271
     2
272
     2
274
     3
278
    44
283
     0
284
     8
340
11
1001
AcadAnnotative
1000
AnnotativeData
1002
{
1070
     1
1070
     1
1002
}
1001
ACAD_DSTYLE_DIMJAG
1070
   388
1040
1.5
1001
ACAD_DSTYLE_DIMTALN
1070
   392
1070
     0
  0
ENDTAB
  0
TABLE
  2
BLOCK_RECORD
  5
1
330
0
100
AcDbSymbolTable
 70
     5
  0
BLOCK_RECORD
  5
1F
330
1
100
AcDbSymbolTableRecord
100
AcDbBlockTableRecord
  2
*Model_Space
340
22
  0
BLOCK_RECORD
  5
D2
330
1
100
AcDbSymbolTableRecord
100
AcDbBlockTableRecord
  2
*Paper_Space
340
D3
  0
BLOCK_RECORD
  5
D6
330
1
100
AcDbSymbolTableRecord
100
AcDbBlockTableRecord
  2
*Paper_Space0
340
D7
  0
BLOCK_RECORD
  5
4AF
330
1
100
AcDbSymbolTableRecord
100
AcDbBlockTableRecord
  2
1
340
0
310
2800000020000000200000000100080000000000000400000000000000000000000000000000000000000000000080000080000000808000800000008000800080800000C0C0C000C0DCC000F0CAA6000020400000206000002080000020A0000020C0000020E00000400000004020000040400000406000004080000040A0
310
000040C0000040E00000600000006020000060400000606000006080000060A0000060C0000060E00000800000008020000080400000806000008080000080A0000080C0000080E00000A0000000A0200000A0400000A0600000A0800000A0A00000A0C00000A0E00000C0000000C0200000C0400000C0600000C0800000C0
310
A00000C0C00000C0E00000E0000000E0200000E0400000E0600000E0800000E0A00000E0C00000E0E00040000000400020004000400040006000400080004000A0004000C0004000E00040200000402020004020400040206000402080004020A0004020C0004020E000404000004040200040404000404060004040800040
310
40A0004040C0004040E00040600000406020004060400040606000406080004060A0004060C0004060E00040800000408020004080400040806000408080004080A0004080C0004080E00040A0000040A0200040A0400040A0600040A0800040A0A00040A0C00040A0E00040C0000040C0200040C0400040C0600040C08000
310
40C0A00040C0C00040C0E00040E0000040E0200040E0400040E0600040E0800040E0A00040E0C00040E0E00080000000800020008000400080006000800080008000A0008000C0008000E00080200000802020008020400080206000802080008020A0008020C0008020E00080400000804020008040400080406000804080
310
008040A0008040C0008040E00080600000806020008060400080606000806080008060A0008060C0008060E00080800000808020008080400080806000808080008080A0008080C0008080E00080A0000080A0200080A0400080A0600080A0800080A0A00080A0C00080A0E00080C0000080C0200080C0400080C0600080C0
310
800080C0A00080C0C00080C0E00080E0000080E0200080E0400080E0600080E0800080E0A00080E0C00080E0E000C0000000C0002000C0004000C0006000C0008000C000A000C000C000C000E000C0200000C0202000C0204000C0206000C0208000C020A000C020C000C020E000C0400000C0402000C0404000C0406000C0
310
408000C040A000C040C000C040E000C0600000C0602000C0604000C0606000C0608000C060A000C060C000C060E000C0800000C0802000C0804000C0806000C0808000C080A000C080C000C080E000C0A00000C0A02000C0A04000C0A06000C0A08000C0A0A000C0A0C000C0A0E000C0C00000C0C02000C0C04000C0C06000
310
C0C08000C0C0A000F0FBFF00A4A0A000808080000000FF0000FF000000FFFF00FF000000FF00FF00FFFF0000FFFFFF00000000000000000000000000000000000000000000000000000000000000000000000000000000FFFF000000000000FFFF000000000000FFFF0000000000000000000000000000FF00FF00000000FF
310
0000FF00000000FF00FF0000000000000000000000000000FF00FF00000000FF0000FF00000000FF0000FF000000000000000000000000FF0000FF00000000FF0000FF00000000FF0000FF000000000000000000000000FF0000FF00000000FF0000FF00000000FF0000FF000000000000000000000000FF0000FF00000000
310
FF0000FF00000000FF0000FF000000000000000000000000FF0000FF00000000FF0000FF00000000FF0000FF000000000000000000000000FF0000FF00000000FF0000FF00000000FF0000FF000000000000000000000000FFFFFFFF00000000FFFFFFFF00000000FFFFFFFF000000000000000000000000FFFFFFFF000000
310
00FFFFFFFF00000000FFFFFFFF000000000000000000000000FF0000FF00000000FF0000FF00000000FF0000FF000000000000000000000000FF0000FF00000000FF0000FF00000000FF0000FF000000000000000000000000FF0000FF00000000FF0000FF00000000FF0000FF000000000000000000000000FF0000FF0000
310
0000FF0000FF00000000FF0000FF000000000000000000000000FF0000FF00000000FF0000FF00000000FF0000FF000000000000000000000000FFFFFFFFFF0000FFFFFFFFFFFF0000FFFFFFFFFF000000000000000000000000FF000000FF0000FF00000000FF0000FF000000FF000000000000000000000000FF000000FF
310
0000FF00000000FF0000FF000000FF0000000000000000000000FFFFFFFFFFFF0000FFFFFFFFFFFF0000FFFFFFFFFFFF00000000000000000000FF00FFFFFFFF0000FFFFFFFFFFFF0000FFFFFFFF00FF00000000000000000000FF00000000FF0000FF00000000FF0000FF00000000FF000000000000000000FFFF00000000
310
FFFFFFFF00000000FFFFFFFF00000000FFFF0000000000000000FF00000000000000000000000000000000000000000000FF0000000000000000FF00000000000000000000000000000000000000000000FF0000000000000000FF00000000000000000000000000000000000000000000FF0000000000000000FF00000000
310
000000000000000000000000000000000000FF0000000000000000FF00000000000000000000000000000000000000000000FF0000000000000000FFFFFFFFFFFFFFFFFFFFFFFFFFFFFFFFFFFFFFFFFFFFFFFF0000000000000000FF00000000000000000000000000000000000000000000FF0000000000000000FFFFFFFF
310
FFFFFFFFFFFFFFFFFFFFFFFFFFFFFFFFFFFFFFFF000000000000000000000000000000000000000000000000000000000000000000000000
102
{BLKREFS
331
51F
102
}
1001
ACAD
1000
DesignCenter Data
1002
{
1070
     1
1070
     4
1002
}
  0
BLOCK_RECORD
  5
520
330
1
100
AcDbSymbolTableRecord
100
AcDbBlockTableRecord
  2
2
340
0
310
2800000020000000200000000100080000000000000400000000000000000000000000000000000000000000000080000080000000808000800000008000800080800000C0C0C000C0DCC000F0CAA6000020400000206000002080000020A0000020C0000020E00000400000004020000040400000406000004080000040A0
310
000040C0000040E00000600000006020000060400000606000006080000060A0000060C0000060E00000800000008020000080400000806000008080000080A0000080C0000080E00000A0000000A0200000A0400000A0600000A0800000A0A00000A0C00000A0E00000C0000000C0200000C0400000C0600000C0800000C0
310
A00000C0C00000C0E00000E0000000E0200000E0400000E0600000E0800000E0A00000E0C00000E0E00040000000400020004000400040006000400080004000A0004000C0004000E00040200000402020004020400040206000402080004020A0004020C0004020E000404000004040200040404000404060004040800040
310
40A0004040C0004040E00040600000406020004060400040606000406080004060A0004060C0004060E00040800000408020004080400040806000408080004080A0004080C0004080E00040A0000040A0200040A0400040A0600040A0800040A0A00040A0C00040A0E00040C0000040C0200040C0400040C0600040C08000
310
40C0A00040C0C00040C0E00040E0000040E0200040E0400040E0600040E0800040E0A00040E0C00040E0E00080000000800020008000400080006000800080008000A0008000C0008000E00080200000802020008020400080206000802080008020A0008020C0008020E00080400000804020008040400080406000804080
310
008040A0008040C0008040E00080600000806020008060400080606000806080008060A0008060C0008060E00080800000808020008080400080806000808080008080A0008080C0008080E00080A0000080A0200080A0400080A0600080A0800080A0A00080A0C00080A0E00080C0000080C0200080C0400080C0600080C0
310
800080C0A00080C0C00080C0E00080E0000080E0200080E0400080E0600080E0800080E0A00080E0C00080E0E000C0000000C0002000C0004000C0006000C0008000C000A000C000C000C000E000C0200000C0202000C0204000C0206000C0208000C020A000C020C000C020E000C0400000C0402000C0404000C0406000C0
310
408000C040A000C040C000C040E000C0600000C0602000C0604000C0606000C0608000C060A000C060C000C060E000C0800000C0802000C0804000C0806000C0808000C080A000C080C000C080E000C0A00000C0A02000C0A04000C0A06000C0A08000C0A0A000C0A0C000C0A0E000C0C00000C0C02000C0C04000C0C06000
310
C0C08000C0C0A000F0FBFF00A4A0A000808080000000FF0000FF000000FFFF00FF000000FF00FF00FFFF0000FFFFFF0000000000000000000000000000000000000000000000000000000000000000000000000000000000000000000000FFFFFFFF00000000000000000000000000000000000000000000000000000000FF
310
FFFFFF00000000000000000000000000000000000000000000000000000000FF0000FF00000000000000000000000000000000000000000000000000000000FFFFFFFF00000000000000000000000000000000000000000000000000000000FF0000FF00000000000000000000000000000000000000000000000000000000
310
FF0000FF00000000000000000000000000000000000000000000000000000000FF0000FF00000000000000000000000000000000000000000000000000000000FF0000FF00000000000000000000000000000000000000000000000000000000FFFFFFFF000000000000000000000000000000000000000000000000000000
310
0000FFFF000000000000000000000000000000000000000000000000000000000000FFFF000000000000000000000000000000000000000000000000000000000000FFFF000000000000000000000000000000000000000000000000000000000000FFFF000000000000000000000000000000000000000000000000000000
310
000000FFFF000000000000000000000000000000000000000000000000000000000000FFFF0000000000000000000000000000000000000000000000000000000000FFFFFFFF00000000000000000000000000000000000000000000000000000000FF0000FF00000000000000000000000000000000000000000000000000
310
000000FFFFFFFF00000000000000000000000000000000000000000000000000000000FFFFFFFF00000000000000000000000000000000000000000000000000000000FF0000FF00000000000000000000000000000000000000000000000000000000FF0000FF000000000000000000000000000000000000000000000000
310
00000000FFFFFFFF00000000000000000000000000000000000000000000000000000000FF0000FF00000000000000000000000000000000000000000000000000000000FF0000FF00000000000000000000000000000000000000000000000000000000FF0000FF0000000000000000000000000000000000000000000000
310
0000000000FF0000FF00000000000000000000000000000000000000000000000000000000FF0000FF000000000000000000000000000000000000000000000000000000FFFF0000FFFF0000000000000000000000000000000000000000000000000000FF00000000FF000000000000000000000000000000000000000000
310
0000000000FFFFFFFFFFFF000000000000000000000000000000000000000000000000000000000000000000000000000000000000000000
102
{BLKREFS
331
55E
102
}
1001
ACAD
1000
DesignCenter Data
1002
{
1070
     1
1070
     4
1002
}
  0
BLOCK_RECORD
  5
55F
330
1
100
AcDbSymbolTableRecord
100
AcDbBlockTableRecord
  2
3
340
0
310
2800000020000000200000000100080000000000000400000000000000000000000000000000000000000000000080000080000000808000800000008000800080800000C0C0C000C0DCC000F0CAA6000020400000206000002080000020A0000020C0000020E00000400000004020000040400000406000004080000040A0
310
000040C0000040E00000600000006020000060400000606000006080000060A0000060C0000060E00000800000008020000080400000806000008080000080A0000080C0000080E00000A0000000A0200000A0400000A0600000A0800000A0A00000A0C00000A0E00000C0000000C0200000C0400000C0600000C0800000C0
310
A00000C0C00000C0E00000E0000000E0200000E0400000E0600000E0800000E0A00000E0C00000E0E00040000000400020004000400040006000400080004000A0004000C0004000E00040200000402020004020400040206000402080004020A0004020C0004020E000404000004040200040404000404060004040800040
310
40A0004040C0004040E00040600000406020004060400040606000406080004060A0004060C0004060E00040800000408020004080400040806000408080004080A0004080C0004080E00040A0000040A0200040A0400040A0600040A0800040A0A00040A0C00040A0E00040C0000040C0200040C0400040C0600040C08000
310
40C0A00040C0C00040C0E00040E0000040E0200040E0400040E0600040E0800040E0A00040E0C00040E0E00080000000800020008000400080006000800080008000A0008000C0008000E00080200000802020008020400080206000802080008020A0008020C0008020E00080400000804020008040400080406000804080
310
008040A0008040C0008040E00080600000806020008060400080606000806080008060A0008060C0008060E00080800000808020008080400080806000808080008080A0008080C0008080E00080A0000080A0200080A0400080A0600080A0800080A0A00080A0C00080A0E00080C0000080C0200080C0400080C0600080C0
310
800080C0A00080C0C00080C0E00080E0000080E0200080E0400080E0600080E0800080E0A00080E0C00080E0E000C0000000C0002000C0004000C0006000C0008000C000A000C000C000C000E000C0200000C0202000C0204000C0206000C0208000C020A000C020C000C020E000C0400000C0402000C0404000C0406000C0
310
408000C040A000C040C000C040E000C0600000C0602000C0604000C0606000C0608000C060A000C060C000C060E000C0800000C0802000C0804000C0806000C0808000C080A000C080C000C080E000C0A00000C0A02000C0A04000C0A06000C0A08000C0A0A000C0A0C000C0A0E000C0C00000C0C02000C0C04000C0C06000
310
C0C08000C0C0A000F0FBFF00A4A0A000808080000000FF0000FF000000FFFF00FF000000FF00FF00FFFF0000FFFFFF0000000000000000000000000000000000000000000000000000000000000000000000000000000000000000000000000000000000000000000000000000000000000000000000000000000000000000
310
00000000000000000000000000000000000000000000000000000000000000000000000000000000000000000000000000000000000000000000000000000000000000000000000000000000000000000000000000000000000000000000000000000000000000000000000000000000000000000000000000000000000000
310
00000000000000000000000000000000000000000000000000000000000000000000000000000000000000000000000000000000000000000000000000000000000000000000000000000000000000000000000000000000000000000000000000000000000000000000000000000000000000000000000000000000000000
310
000000000000000000000000000000000000000000000000000000000000000000000000000000000000000000000000000000000000000000000000000000000000000000000000000000000000000000000000FFFFFFFFFFFFFFFFFFFFFFFFFFFFFFFFFFFFFFFFFFFFFFFFFFFFFFFFFFFF0000FF00000000000000000000
310
000000000000000000000000000000000000FF0000FF00000000000000000000000000000000000000000000000000000000FF0000FF00000000000000000000000000000000000000000000000000000000FF0000FF00000000000000000000000000000000000000000000000000000000FF0000FFFFFFFFFFFFFFFFFFFF
310
FFFFFFFFFFFFFFFFFFFFFFFFFFFFFFFFFFFFFFFF0000000000000000000000000000000000000000000000000000000000000000000000000000000000000000000000000000000000000000000000000000000000000000000000000000000000000000000000000000000000000000000000000000000000000000000000
310
00000000000000000000000000000000000000000000000000000000000000000000000000000000000000000000000000000000000000000000000000000000000000000000000000000000000000000000000000000000000000000000000000000000000000000000000000000000000000000000000000000000000000
310
00000000000000000000000000000000000000000000000000000000000000000000000000000000000000000000000000000000000000000000000000000000000000000000000000000000000000000000000000000000000000000000000000000000000000000000000000000000000000000000000000000000000000
310
0000000000000000000000000000000000000000000000000000000000000000000000000000000000000000000000000000000000000000
102
{BLKREFS
331
566
102
}
1001
ACAD
1000
DesignCenter Data
1002
{
1070
     1
1070
     4
1002
}
  0
BLOCK_RECORD
  5
567
330
1
100
AcDbSymbolTableRecord
100
AcDbBlockTableRecord
  2
4
340
0
310
2800000020000000200000000100080000000000000400000000000000000000000000000000000000000000000080000080000000808000800000008000800080800000C0C0C000C0DCC000F0CAA6000020400000206000002080000020A0000020C0000020E00000400000004020000040400000406000004080000040A0
310
000040C0000040E00000600000006020000060400000606000006080000060A0000060C0000060E00000800000008020000080400000806000008080000080A0000080C0000080E00000A0000000A0200000A0400000A0600000A0800000A0A00000A0C00000A0E00000C0000000C0200000C0400000C0600000C0800000C0
310
A00000C0C00000C0E00000E0000000E0200000E0400000E0600000E0800000E0A00000E0C00000E0E00040000000400020004000400040006000400080004000A0004000C0004000E00040200000402020004020400040206000402080004020A0004020C0004020E000404000004040200040404000404060004040800040
310
40A0004040C0004040E00040600000406020004060400040606000406080004060A0004060C0004060E00040800000408020004080400040806000408080004080A0004080C0004080E00040A0000040A0200040A0400040A0600040A0800040A0A00040A0C00040A0E00040C0000040C0200040C0400040C0600040C08000
310
40C0A00040C0C00040C0E00040E0000040E0200040E0400040E0600040E0800040E0A00040E0C00040E0E00080000000800020008000400080006000800080008000A0008000C0008000E00080200000802020008020400080206000802080008020A0008020C0008020E00080400000804020008040400080406000804080
310
008040A0008040C0008040E00080600000806020008060400080606000806080008060A0008060C0008060E00080800000808020008080400080806000808080008080A0008080C0008080E00080A0000080A0200080A0400080A0600080A0800080A0A00080A0C00080A0E00080C0000080C0200080C0400080C0600080C0
310
800080C0A00080C0C00080C0E00080E0000080E0200080E0400080E0600080E0800080E0A00080E0C00080E0E000C0000000C0002000C0004000C0006000C0008000C000A000C000C000C000E000C0200000C0202000C0204000C0206000C0208000C020A000C020C000C020E000C0400000C0402000C0404000C0406000C0
310
408000C040A000C040C000C040E000C0600000C0602000C0604000C0606000C0608000C060A000C060C000C060E000C0800000C0802000C0804000C0806000C0808000C080A000C080C000C080E000C0A00000C0A02000C0A04000C0A06000C0A08000C0A0A000C0A0C000C0A0E000C0C00000C0C02000C0C04000C0C06000
310
C0C08000C0C0A000F0FBFF00A4A0A000808080000000FF0000FF000000FFFF00FF000000FF00FF00FFFF0000FFFFFF0000000000000000000000000000000000000000000000000000000000000000000000000000000000000000000000000000000000FF0000000000000000000000000000000000000000000000000000
310
00000000FFFFFFFF00000000000000000000000000000000000000000000000000000000FFFFFFFF000000000000000000000000000000000000000000000000FF000000FFFFFFFF0000000000000000000000000000000000000000000000FF00FFFF00FFFF00FF0000000000000000000000000000000000000000000000
310
FF00FFFF00FFFF00FF00000000000000000000000000000000000000FFFF0000FF00FFFF00FFFFFFFF000000000000000000000000000000000000FF00FFFF00FF00FFFF00FFFFFFFF000000000000000000000000000000000000FF00FFFF00FF00FFFF00FF00FF00000000000000000000000000000000000000FF00FFFF
310
00FFFFFFFF00FF00FF00000000000000000000000000000000000000FF00FFFF00FFFFFFFF00FFFFFF00000000000000000000000000000000000000FF00FFFF00FF00FFFF00FF00FFFF000000000000000000000000000000000000FFFFFFFF00FF00FFFFFF0000FFFF00000000000000000000000000000000000000FFFF
310
FF00FF00FFFFFF00FFFFFFFF000000000000000000000000000000000000FFFFFF00FFFFFFFFFFFFFFFFFFFF000000000000000000000000000000000000FFFFFFFF00FFFF00FF0000FFFFFF000000000000000000000000000000000000FFFFFFFFFFFFFFFFFF000000FFFF0000000000000000000000000000000000FFFF
310
FFFFFFFF00FFFF00000000FFFF0000000000000000000000000000000000FF00FFFFFF00000000000000FFFFFF00000000000000000000000000000000FFFFFFFFA4FF0000000000FFFFFFFFFF00000000000000000000000000000000FFFFFFFFFF00000000FFFFFFFF00FFFFFF000000000000000000000000000000FF00
310
0000000000FFFFFFFF0000000000FF000000000000000000000000000000FF0000000000FFFFFF0000000000FFFF00000000000000000000000000000000FF000000FFFFFF0000000000FFFF000000000000000000000000000000000000FF00FFFFFFFF00000000FFFF0000000000000000000000000000000000000000FF
310
FFFFFF0000000000FF000000000000000000000000000000000000000000FFFFFF0000000000FFFF00000000000000000000000000000000000000000000FF0000000000FFFF00000000000000000000000000000000000000000000000000FFFF00FFFF000000000000000000000000000000000000000000000000000000
310
0000FF0000000000000000000000000000000000000000000000000000000000000000000000000000000000000000000000000000000000
102
{BLKREFS
331
63D
102
}
1001
ACAD
1000
DesignCenter Data
1002
{
1070
     1
1070
     4
1002
}
  0
ENDTAB
  0
ENDSEC
  0
SECTION
  2
BLOCKS
  0
BLOCK
  5
20
330
1F
100
AcDbEntity
  8
0
100
AcDbBlockBegin
  2
*Model_Space
 70
     0
 10
0.0
 20
0.0
 30
0.0
  3
*Model_Space
  1

  0
ENDBLK
  5
21
330
1F
100
AcDbEntity
  8
0
100
AcDbBlockEnd
  0
BLOCK
  5
D4
330
D2
100
AcDbEntity
 67
     1
  8
0
100
AcDbBlockBegin
  2
*Paper_Space
 70
     0
 10
0.0
 20
0.0
 30
0.0
  3
*Paper_Space
  1

  0
ENDBLK
  5
D5
330
D2
100
AcDbEntity
 67
     1
  8
0
100
AcDbBlockEnd
  0
BLOCK
  5
D8
330
D6
100
AcDbEntity
 67
     1
  8
0
100
AcDbBlockBegin
  2
*Paper_Space0
 70
     0
 10
0.0
 20
0.0
 30
0.0
  3
*Paper_Space0
  1

  0
ENDBLK
  5
D9
330
D6
100
AcDbEntity
 67
     1
  8
0
100
AcDbBlockEnd
  0
BLOCK
  5
4B0
330
4AF
100
AcDbEntity
  8
0
100
AcDbBlockBegin
  2
1
 70
     0
 10
0.0
 20
0.0
 30
0.0
  3
1
  1

  0
LINE
  5
4B2
330
4AF
100
AcDbEntity
  8
0
  6
Continuous
 62
     7
370
    15
100
AcDbLine
 10
2254.727361329392
 20
978.5388007871258
 30
0.0
 11
2230.727359892192
 21
978.5388007871258
 31
0.0
  0
LINE
  5
4B3
330
4AF
100
AcDbEntity
  8
0
  6
Continuous
 62
     7
370
    15
100
AcDbLine
 10
2230.727359892192
 20
979.7388007871258
 30
0.0
 11
2230.727359892192
 21
978.5388007871258
 31
0.0
  0
LINE
  5
4B4
330
4AF
100
AcDbEntity
  8
0
  6
Continuous
 62
     7
370
    15
100
AcDbLine
 10
2254.727361329392
 20
979.7388007871258
 30
0.0
 11
2230.727359892192
 21
979.7388007871258
 31
0.0
  0
LINE
  5
4B5
330
4AF
100
AcDbEntity
  8
0
  6
Continuous
 62
     7
370
    15
100
AcDbLine
 10
2254.727361329392
 20
978.5388007871258
 30
0.0
 11
2254.727361329392
 21
979.7388007871258
 31
0.0
  0
LINE
  5
4B6
330
4AF
100
AcDbEntity
  8
0
  6
Continuous
 62
     7
370
    15
100
AcDbLine
 10
2235.777357007328
 20
968.5388007871258
 30
0.0
 11
2233.277357007328
 21
968.5388007871258
 31
0.0
  0
LINE
  5
4B7
330
4AF
100
AcDbEntity
  8
0
  6
Continuous
 62
     7
370
    15
100
AcDbLine
 10
2233.277357007328
 20
968.5388007871258
 30
0.0
 11
2233.277357007328
 21
969.8388007871258
 31
0.0
  0
LINE
  5
4B8
330
4AF
100
AcDbEntity
  8
0
  6
Continuous
 62
     7
370
    15
100
AcDbLine
 10
2235.777357007328
 20
969.8388007871258
 30
0.0
 11
2233.277357007328
 21
969.8388007871258
 31
0.0
  0
LINE
  5
4B9
330
4AF
100
AcDbEntity
  8
0
  6
Continuous
 62
     7
370
    15
100
AcDbLine
 10
2235.777357007328
 20
968.5388007871258
 30
0.0
 11
2235.777357007328
 21
969.8388007871258
 31
0.0
  0
LINE
  5
4BA
330
4AF
100
AcDbEntity
  8
0
  6
Continuous
 62
     7
370
    15
100
AcDbLine
 10
2252.177357007328
 20
969.8388007871258
 30
0.0
 11
2249.677357007328
 21
969.8388007871258
 31
0.0
  0
LINE
  5
4BB
330
4AF
100
AcDbEntity
  8
0
  6
Continuous
 62
     7
370
    15
100
AcDbLine
 10
2252.177357007328
 20
968.5388007871258
 30
0.0
 11
2249.677357007328
 21
968.5388007871258
 31
0.0
  0
LINE
  5
4BC
330
4AF
100
AcDbEntity
  8
0
  6
Continuous
 62
     7
370
    15
100
AcDbLine
 10
2249.677357007328
 20
968.5388007871258
 30
0.0
 11
2249.677357007328
 21
969.8388007871258
 31
0.0
  0
LINE
  5
4BD
330
4AF
100
AcDbEntity
  8
0
  6
Continuous
 62
     7
370
    15
100
AcDbLine
 10
2252.177357007328
 20
968.5388007871258
 30
0.0
 11
2252.177357007328
 21
969.8388007871258
 31
0.0
  0
LINE
  5
4BE
330
4AF
100
AcDbEntity
  8
0
  6
Continuous
 62
     7
370
    15
100
AcDbLine
 10
2243.977357007327
 20
968.5388007871258
 30
0.0
 11
2243.977357007327
 21
969.8388007871258
 31
0.0
  0
LINE
  5
4BF
330
4AF
100
AcDbEntity
  8
0
  6
Continuous
 62
     7
370
    15
100
AcDbLine
 10
2243.977357007327
 20
968.5388007871258
 30
0.0
 11
2241.477357007328
 21
968.5388007871258
 31
0.0
  0
LINE
  5
4C0
330
4AF
100
AcDbEntity
  8
0
  6
Continuous
 62
     7
370
    15
100
AcDbLine
 10
2241.477357007328
 20
968.5388007871258
 30
0.0
 11
2241.477357007328
 21
969.8388007871258
 31
0.0
  0
LINE
  5
4C1
330
4AF
100
AcDbEntity
  8
0
  6
Continuous
 62
     7
370
    15
100
AcDbLine
 10
2243.977357007327
 20
969.8388007871258
 30
0.0
 11
2241.477357007328
 21
969.8388007871258
 31
0.0
  0
LINE
  5
4C2
330
4AF
100
AcDbEntity
  8
0
  6
Continuous
 62
     7
370
    15
100
AcDbLine
 10
2253.577364214257
 20
972.0721822314692
 30
0.0
 11
2254.727361329392
 21
972.0721822314692
 31
0.0
  0
LINE
  5
4C3
330
4AF
100
AcDbEntity
  8
0
  6
Continuous
 62
     7
370
    15
100
AcDbLine
 10
2253.577364214257
 20
968.3687905373099
 30
0.0
 11
2253.577364214257
 21
972.0721822314692
 31
0.0
  0
ARC
  5
4C4
330
4AF
100
AcDbEntity
  8
0
  6
Continuous
 62
     7
370
    15
100
AcDbCircle
 10
2253.077361691607
 20
968.3687870763355
 30
0.0
 40
0.500002522661346
100
AcDbArc
 50
314.9998148888426
 51
0.0003965964620313
  0
LINE
  5
4C5
330
4AF
100
AcDbEntity
  8
0
  6
Continuous
 62
     7
370
    15
100
AcDbLine
 10
2253.373811669325
 20
967.9581282174551
 30
0.0
 11
2253.430915723718
 21
968.0152307596932
 31
0.0
  0
ARC
  5
4C6
330
4AF
100
AcDbEntity
  8
0
  6
Continuous
 62
     7
370
    15
100
AcDbCircle
 10
2253.727360774077
 20
967.6045744314992
 30
0.0
 40
0.4999972490596443
100
AcDbArc
 50
134.9996206871306
 51
180.0000268516866
  0
LINE
  5
4C7
330
4AF
100
AcDbEntity
  8
0
  6
Continuous
 62
     7
370
    15
100
AcDbLine
 10
2253.227363525018
 20
965.5902051903446
 30
0.0
 11
2253.227363525018
 21
967.6045741971751
 31
0.0
  0
LINE
  5
4C8
330
4AF
100
AcDbEntity
  8
0
  6
Continuous
 62
     7
370
    15
100
AcDbLine
 10
2252.877365050897
 20
965.2402067162235
 30
0.0
 11
2253.227363525018
 21
965.5902051903446
 31
0.0
  0
LINE
  5
4C9
330
4AF
100
AcDbEntity
  8
0
  6
Continuous
 62
     7
370
    15
100
AcDbLine
 10
2252.877365050897
 20
965.2402067162235
 30
0.0
 11
2248.977358637437
 21
965.2402067162235
 31
0.0
  0
LINE
  5
4CA
330
4AF
100
AcDbEntity
  8
0
  6
Continuous
 62
     7
370
    15
100
AcDbLine
 10
2248.627358023137
 20
965.5902073305231
 30
0.0
 11
2248.977358637437
 21
965.2402067162235
 31
0.0
  0
LINE
  5
4CB
330
4AF
100
AcDbEntity
  8
0
  6
Continuous
 62
     7
370
    15
100
AcDbLine
 10
2248.627358023137
 20
967.6045746971116
 30
0.0
 11
2248.627360163316
 21
965.5902051903446
 31
0.0
  0
ARC
  5
4CC
330
4AF
100
AcDbEntity
  8
0
  6
Continuous
 62
     7
370
    15
100
AcDbCircle
 10
2248.127355855924
 20
967.6045744314965
 30
0.0
 40
0.500002167213022
100
AcDbArc
 50
0.0000304371164707
 51
45.00047442047931
  0
LINE
  5
4CD
330
4AF
100
AcDbEntity
  8
0
  6
Continuous
 62
     7
370
    15
100
AcDbLine
 10
2248.423800932892
 20
968.0152330708127
 30
0.0
 11
2248.480907851451
 21
967.958132282034
 31
0.0
  0
ARC
  5
4CE
330
4AF
100
AcDbEntity
  8
0
  6
Continuous
 62
     7
370
    15
100
AcDbCircle
 10
2248.777353027356
 20
968.3687851652759
 30
0.0
 40
0.4999981855165049
100
AcDbArc
 50
179.99994688854
 51
224.9999999999908
  0
LINE
  5
4CF
330
4AF
100
AcDbEntity
  8
0
  6
Continuous
 62
     7
370
    15
100
AcDbLine
 10
2248.277361689195
 20
972.0721831552136
 30
0.0
 11
2248.27735484184
 21
968.368785628759
 31
0.0
  0
LINE
  5
4D0
330
4AF
100
AcDbEntity
  8
0
  6
Continuous
 62
     7
370
    15
100
AcDbLine
 10
2245.377355995478
 20
972.0721831552136
 30
0.0
 11
2248.277361689195
 21
972.0721831552136
 31
0.0
  0
LINE
  5
4D1
330
4AF
100
AcDbEntity
  8
0
  6
Continuous
 62
     7
370
    15
100
AcDbLine
 10
2245.377355995478
 20
968.3687919961514
 30
0.0
 11
2245.377355995478
 21
972.0721831552136
 31
0.0
  0
ARC
  5
4D2
330
4AF
100
AcDbEntity
  8
0
  6
Continuous
 62
     7
370
    15
100
AcDbCircle
 10
2244.877357481838
 20
968.3687885351721
 30
0.0
 40
0.4999985136888523
100
AcDbArc
 50
314.9998166532889
 51
0.0003966002009387
  0
LINE
  5
4D3
330
4AF
100
AcDbEntity
  8
0
  6
Continuous
 62
     7
370
    15
100
AcDbLine
 10
2245.173804632544
 20
967.9581278220899
 30
0.0
 11
2245.23090869008
 21
968.0152350641925
 31
0.0
  0
ARC
  5
4D4
330
4AF
100
AcDbEntity
  8
0
  6
Continuous
 62
     7
370
    15
100
AcDbCircle
 10
2245.52735882817
 20
967.6045752365315
 30
0.0
 40
0.5000000000000642
100
AcDbArc
 50
135.0001304613266
 51
180.000072976503
  0
LINE
  5
4D5
330
4AF
100
AcDbEntity
  8
0
  6
Continuous
 62
     7
370
    15
100
AcDbLine
 10
2245.027358828172
 20
965.5902051903446
 30
0.0
 11
2245.027358828172
 21
967.6045745996914
 31
0.0
  0
LINE
  5
4D6
330
4AF
100
AcDbEntity
  8
0
  6
Continuous
 62
     7
370
    15
100
AcDbLine
 10
2244.677360354051
 20
965.2402067162235
 30
0.0
 11
2245.027358828172
 21
965.5902051903446
 31
0.0
  0
LINE
  5
4D7
330
4AF
100
AcDbEntity
  8
0
  6
Continuous
 62
     7
370
    15
100
AcDbLine
 10
2244.677360354051
 20
965.2402067162235
 30
0.0
 11
2240.777353940591
 21
965.2402067162235
 31
0.0
  0
ARC
  5
4D8
330
4AF
100
AcDbEntity
  8
0
  6
Continuous
 62
     7
370
    15
100
AcDbCircle
 10
2239.927357516491
 20
967.6045744314965
 30
0.0
 40
0.500000506645891
100
AcDbArc
 50
359.999963639679
 51
45.0007869529218
  0
LINE
  5
4D9
330
4AF
100
AcDbEntity
  8
0
  6
Continuous
 62
     7
370
    15
100
AcDbLine
 10
2240.223805985742
 20
968.0152320269812
 30
0.0
 11
2240.280906409271
 21
967.9581330363411
 31
0.0
  0
ARC
  5
4DA
330
4AF
100
AcDbEntity
  8
0
  6
Continuous
 62
     7
370
    15
100
AcDbCircle
 10
2240.577357522698
 20
968.3687880000668
 30
0.0
 40
0.5000005153938929
100
AcDbArc
 50
180.0
 51
225.0003594523902
  0
LINE
  5
4DB
330
4AF
100
AcDbEntity
  8
0
  6
Continuous
 62
     7
370
    15
100
AcDbLine
 10
2240.077357007328
 20
972.0721831552136
 30
0.0
 11
2240.077357007304
 21
968.3687880000668
 31
0.0
  0
LINE
  5
4DC
330
4AF
100
AcDbEntity
  8
0
  6
Continuous
 62
     7
370
    15
100
AcDbLine
 10
2237.177355995479
 20
972.0721831552136
 30
0.0
 11
2240.077357007328
 21
972.0721831552136
 31
0.0
  0
LINE
  5
4DD
330
4AF
100
AcDbEntity
  8
0
  6
Continuous
 62
     7
370
    15
100
AcDbLine
 10
2237.177355995479
 20
968.3687919961514
 30
0.0
 11
2237.177355995479
 21
972.0721831552136
 31
0.0
  0
ARC
  5
4DE
330
4AF
100
AcDbEntity
  8
0
  6
Continuous
 62
     7
370
    15
100
AcDbCircle
 10
2236.677357481838
 20
968.3687885351721
 30
0.0
 40
0.4999985136888624
100
AcDbArc
 50
314.9998166532889
 51
0.0003966002009387
  0
LINE
  5
4DF
330
4AF
100
AcDbEntity
  8
0
  6
Continuous
 62
     7
370
    15
100
AcDbLine
 10
2236.973804632544
 20
967.9581278220899
 30
0.0
 11
2237.03090869008
 21
968.0152350641925
 31
0.0
  0
ARC
  5
4E0
330
4AF
100
AcDbEntity
  8
0
  6
Continuous
 62
     7
370
    15
100
AcDbCircle
 10
2237.32735882817
 20
967.6045752365315
 30
0.0
 40
0.5000000000000542
100
AcDbArc
 50
135.0001304613266
 51
180.000072976503
  0
LINE
  5
4E1
330
4AF
100
AcDbEntity
  8
0
  6
Continuous
 62
     7
370
    15
100
AcDbLine
 10
2236.827358828172
 20
965.5902051903446
 30
0.0
 11
2236.827358828172
 21
967.6045745996914
 31
0.0
  0
LINE
  5
4E2
330
4AF
100
AcDbEntity
  8
0
  6
Continuous
 62
     7
370
    15
100
AcDbLine
 10
2236.477360354051
 20
965.2402067162235
 30
0.0
 11
2236.827358828172
 21
965.5902051903446
 31
0.0
  0
LINE
  5
4E3
330
4AF
100
AcDbEntity
  8
0
  6
Continuous
 62
     7
370
    15
100
AcDbLine
 10
2236.477360354051
 20
965.2402067162235
 30
0.0
 11
2232.577353940591
 21
965.2402067162235
 31
0.0
  0
ARC
  5
4E4
330
4AF
100
AcDbEntity
  8
0
  6
Continuous
 62
     7
370
    15
100
AcDbCircle
 10
2231.727357516491
 20
967.6045744314965
 30
0.0
 40
0.5000005066458768
100
AcDbArc
 50
359.999963639679
 51
45.0007869529218
  0
LINE
  5
4E5
330
4AF
100
AcDbEntity
  8
0
  6
Continuous
 62
     7
370
    15
100
AcDbLine
 10
2232.023805985742
 20
968.0152320269812
 30
0.0
 11
2232.080906409271
 21
967.9581330363411
 31
0.0
  0
ARC
  5
4E6
330
4AF
100
AcDbEntity
  8
0
  6
Continuous
 62
     7
370
    15
100
AcDbCircle
 10
2232.377357522697
 20
968.3687880000668
 30
0.0
 40
0.5000005153938929
100
AcDbArc
 50
180.0
 51
225.0003594523902
  0
LINE
  5
4E7
330
4AF
100
AcDbEntity
  8
0
  6
Continuous
 62
     7
370
    15
100
AcDbLine
 10
2231.877357007328
 20
972.0721831552136
 30
0.0
 11
2231.877357007304
 21
968.3687880000668
 31
0.0
  0
LINE
  5
4E8
330
4AF
100
AcDbEntity
  8
0
  6
Continuous
 62
     7
370
    15
100
AcDbLine
 10
2230.727359892192
 20
972.0721831552136
 30
0.0
 11
2231.877357007328
 21
972.0721831552136
 31
0.0
  0
LINE
  5
4E9
330
4AF
100
AcDbEntity
  8
0
  6
Continuous
 62
     7
370
    15
100
AcDbLine
 10
2240.427358023137
 20
965.5902026336773
 30
0.0
 11
2240.777353940591
 21
965.2402067162235
 31
0.0
  0
LINE
  5
4EA
330
4AF
100
AcDbEntity
  8
0
  6
Continuous
 62
     7
370
    15
100
AcDbLine
 10
2232.227358023136
 20
967.6045741141926
 30
0.0
 11
2232.22735546647
 21
965.5902051903446
 31
0.0
  0
LINE
  5
4EB
330
4AF
100
AcDbEntity
  8
0
  6
Continuous
 62
     7
370
    15
100
AcDbLine
 10
2240.427358023136
 20
967.6045741141926
 30
0.0
 11
2240.42735546647
 21
965.5902051903446
 31
0.0
  0
LINE
  5
4EC
330
4AF
100
AcDbEntity
  8
0
  6
Continuous
 62
     7
370
    15
100
AcDbLine
 10
2232.227358023137
 20
965.5902026336773
 30
0.0
 11
2232.577353940591
 21
965.2402067162235
 31
0.0
  0
LINE
  5
4ED
330
4AF
100
AcDbEntity
  8
0
  6
Continuous
 62
     7
370
    15
100
AcDbLine
 10
2230.727359892192
 20
978.5388007871258
 30
0.0
 11
2230.727359892192
 21
972.0721831552136
 31
0.0
  0
LINE
  5
4EE
330
4AF
100
AcDbEntity
  8
0
  6
Continuous
 62
     7
370
    15
100
AcDbLine
 10
2254.727361329392
 20
972.0721822314692
 30
0.0
 11
2254.727361329392
 21
978.5388007871258
 31
0.0
  0
LINE
  5
4EF
330
4AF
100
AcDbEntity
  8
0
  6
Continuous
 62
     7
370
    15
100
AcDbLine
 10
2234.055573846836
 20
949.5764649835528
 30
0.0
 11
2234.999197938294
 21
949.5764649835528
 31
0.0
  0
ARC
  5
4F0
330
4AF
100
AcDbEntity
  8
0
  6
Continuous
 62
     7
370
    15
100
AcDbCircle
 10
2234.055573846836
 20
950.2764649835528
 30
0.0
 40
0.7000000000000455
100
AcDbArc
 50
189.9999835369507
 51
270.0
  0
LINE
  5
4F1
330
4AF
100
AcDbEntity
  8
0
  6
Continuous
 62
     7
370
    15
100
AcDbLine
 10
2233.027383343991
 20
952.0764897664296
 30
0.0
 11
2233.366208384801
 21
950.1549114572645
 31
0.0
  0
LINE
  5
4F2
330
4AF
100
AcDbEntity
  8
0
  6
Continuous
 62
     7
370
    15
100
AcDbLine
 10
2233.02738287712
 20
957.8009455398451
 30
0.0
 11
2233.027383343991
 21
952.0764897664296
 31
0.0
  0
LINE
  5
4F3
330
4AF
100
AcDbEntity
  8
0
  6
Continuous
 62
     7
370
    15
100
AcDbLine
 10
2236.027389147359
 20
957.8009103399908
 30
0.0
 11
2233.02738287712
 21
957.8009455398451
 31
0.0
  0
LINE
  5
4F4
330
4AF
100
AcDbEntity
  8
0
  6
Continuous
 62
     7
370
    15
100
AcDbLine
 10
2236.02739180923
 20
952.0764897664317
 30
0.0
 11
2236.027389147359
 21
957.8009103399908
 31
0.0
  0
LINE
  5
4F5
330
4AF
100
AcDbEntity
  8
0
  6
Continuous
 62
     7
370
    15
100
AcDbLine
 10
2235.688563400329
 20
950.1549114572645
 30
0.0
 11
2236.02739180923
 21
952.0764897664317
 31
0.0
  0
ARC
  5
4F6
330
4AF
100
AcDbEntity
  8
0
  6
Continuous
 62
     7
370
    15
100
AcDbCircle
 10
2234.999197938294
 20
950.2764649835528
 30
0.0
 40
0.7000000000001485
100
AcDbArc
 50
270.0
 51
350.0000164630558
  0
LINE
  5
4F7
330
4AF
100
AcDbEntity
  8
0
  6
Continuous
 62
     7
370
    15
100
AcDbLine
 10
2242.255573846836
 20
949.5764649835528
 30
0.0
 11
2243.199197938294
 21
949.5764649835528
 31
0.0
  0
ARC
  5
4F8
330
4AF
100
AcDbEntity
  8
0
  6
Continuous
 62
     7
370
    15
100
AcDbCircle
 10
2242.255573846836
 20
950.2764649835528
 30
0.0
 40
0.7000000000000455
100
AcDbArc
 50
189.9999835369507
 51
270.0
  0
LINE
  5
4F9
330
4AF
100
AcDbEntity
  8
0
  6
Continuous
 62
     7
370
    15
100
AcDbLine
 10
2241.227383343991
 20
952.0764897664296
 30
0.0
 11
2241.566208384801
 21
950.1549114572645
 31
0.0
  0
LINE
  5
4FA
330
4AF
100
AcDbEntity
  8
0
  6
Continuous
 62
     7
370
    15
100
AcDbLine
 10
2241.22738287712
 20
957.8009455398451
 30
0.0
 11
2241.227383343991
 21
952.0764897664296
 31
0.0
  0
LINE
  5
4FB
330
4AF
100
AcDbEntity
  8
0
  6
Continuous
 62
     7
370
    15
100
AcDbLine
 10
2244.22738914736
 20
957.8009103399908
 30
0.0
 11
2241.22738287712
 21
957.8009455398451
 31
0.0
  0
LINE
  5
4FC
330
4AF
100
AcDbEntity
  8
0
  6
Continuous
 62
     7
370
    15
100
AcDbLine
 10
2243.888563400329
 20
950.1549114572645
 30
0.0
 11
2244.22739180923
 21
952.0764897664317
 31
0.0
  0
ARC
  5
4FD
330
4AF
100
AcDbEntity
  8
0
  6
Continuous
 62
     7
370
    15
100
AcDbCircle
 10
2243.199197938294
 20
950.2764649835528
 30
0.0
 40
0.7000000000001485
100
AcDbArc
 50
270.0
 51
350.0000164630558
  0
LINE
  5
4FE
330
4AF
100
AcDbEntity
  8
0
  6
Continuous
 62
     7
370
    15
100
AcDbLine
 10
2244.22739180923
 20
952.0764897664317
 30
0.0
 11
2244.22738914736
 21
957.8009103399908
 31
0.0
  0
LINE
  5
4FF
330
4AF
100
AcDbEntity
  8
0
  6
Continuous
 62
     7
370
    15
100
AcDbLine
 10
2250.455573846836
 20
949.5764649835528
 30
0.0
 11
2251.399197938294
 21
949.5764649835528
 31
0.0
  0
ARC
  5
500
330
4AF
100
AcDbEntity
  8
0
  6
Continuous
 62
     7
370
    15
100
AcDbCircle
 10
2250.455573846836
 20
950.2764649835528
 30
0.0
 40
0.7000000000000455
100
AcDbArc
 50
189.9999835369507
 51
270.0
  0
LINE
  5
501
330
4AF
100
AcDbEntity
  8
0
  6
Continuous
 62
     7
370
    15
100
AcDbLine
 10
2249.427383343991
 20
952.0764897664296
 30
0.0
 11
2249.766208384801
 21
950.1549114572645
 31
0.0
  0
LINE
  5
502
330
4AF
100
AcDbEntity
  8
0
  6
Continuous
 62
     7
370
    15
100
AcDbLine
 10
2249.42738287712
 20
957.8009455398451
 30
0.0
 11
2249.427383343991
 21
952.0764897664296
 31
0.0
  0
LINE
  5
503
330
4AF
100
AcDbEntity
  8
0
  6
Continuous
 62
     7
370
    15
100
AcDbLine
 10
2252.427389147359
 20
957.8009103399908
 30
0.0
 11
2249.42738287712
 21
957.8009455398451
 31
0.0
  0
LINE
  5
504
330
4AF
100
AcDbEntity
  8
0
  6
Continuous
 62
     7
370
    15
100
AcDbLine
 10
2252.42739180923
 20
952.0764897664317
 30
0.0
 11
2252.427389147359
 21
957.8009103399908
 31
0.0
  0
LINE
  5
505
330
4AF
100
AcDbEntity
  8
0
  6
Continuous
 62
     7
370
    15
100
AcDbLine
 10
2252.088563400329
 20
950.1549114572645
 30
0.0
 11
2252.42739180923
 21
952.0764897664317
 31
0.0
  0
ARC
  5
506
330
4AF
100
AcDbEntity
  8
0
  6
Continuous
 62
     7
370
    15
100
AcDbCircle
 10
2251.399197938294
 20
950.2764649835528
 30
0.0
 40
0.7000000000001626
100
AcDbArc
 50
270.0
 51
350.0000164630558
  0
LINE
  5
507
330
4AF
100
AcDbEntity
  8
0
  6
Continuous
 62
     7
370
    15
100
AcDbLine
 10
2249.427382852653
 20
958.1009455398605
 30
0.0
 11
2249.42738287712
 21
957.8009455398451
 31
0.0
  0
LINE
  5
508
330
4AF
100
AcDbEntity
  8
0
  6
Continuous
 62
     7
370
    15
100
AcDbLine
 10
2252.427388932477
 20
958.1009103400127
 30
0.0
 11
2249.427382852653
 21
958.1009455398605
 31
0.0
  0
LINE
  5
509
330
4AF
100
AcDbEntity
  8
0
  6
Continuous
 62
     7
370
    15
100
AcDbLine
 10
2252.427389147359
 20
957.8009103399908
 30
0.0
 11
2252.427388932477
 21
958.1009103400127
 31
0.0
  0
LINE
  5
50A
330
4AF
100
AcDbEntity
  8
0
  6
Continuous
 62
     7
370
    15
100
AcDbLine
 10
2241.227382852653
 20
958.1009455398605
 30
0.0
 11
2241.22738287712
 21
957.8009455398451
 31
0.0
  0
LINE
  5
50B
330
4AF
100
AcDbEntity
  8
0
  6
Continuous
 62
     7
370
    15
100
AcDbLine
 10
2244.227388932477
 20
958.1009103400127
 30
0.0
 11
2241.227382852653
 21
958.1009455398605
 31
0.0
  0
LINE
  5
50C
330
4AF
100
AcDbEntity
  8
0
  6
Continuous
 62
     7
370
    15
100
AcDbLine
 10
2244.22738914736
 20
957.8009103399908
 30
0.0
 11
2244.227388932477
 21
958.1009103400127
 31
0.0
  0
LINE
  5
50D
330
4AF
100
AcDbEntity
  8
0
  6
Continuous
 62
     7
370
    15
100
AcDbLine
 10
2233.027382852653
 20
958.1009455398605
 30
0.0
 11
2233.02738287712
 21
957.8009455398451
 31
0.0
  0
LINE
  5
50E
330
4AF
100
AcDbEntity
  8
0
  6
Continuous
 62
     7
370
    15
100
AcDbLine
 10
2236.027388932477
 20
958.1009103400127
 30
0.0
 11
2233.027382852653
 21
958.1009455398605
 31
0.0
  0
LINE
  5
50F
330
4AF
100
AcDbEntity
  8
0
  6
Continuous
 62
     7
370
    15
100
AcDbLine
 10
2236.027389147359
 20
957.8009103399908
 30
0.0
 11
2236.027388932477
 21
958.1009103400127
 31
0.0
  0
LINE
  5
510
330
4AF
100
AcDbEntity
  8
0
  6
Continuous
 62
     7
370
    15
100
AcDbLine
 10
2249.427382828186
 20
958.4009455398815
 30
0.0
 11
2252.427383818792
 21
958.4009103400934
 31
0.0
  0
LINE
  5
511
330
4AF
100
AcDbEntity
  8
0
  6
Continuous
 62
     7
370
    15
100
AcDbLine
 10
2249.427382852653
 20
958.1009455398605
 30
0.0
 11
2249.427382828186
 21
958.4009455398815
 31
0.0
  0
LWPOLYLINE
  5
512
330
4AF
100
AcDbEntity
  8
0
  6
Continuous
 62
     7
370
    15
100
AcDbPolyline
 90
        9
 70
   128
 43
0.0
 10
2252.427383818792
 20
958.4009103400934
 10
2252.427383954842
 20
958.34238324348
 10
2252.427384273923
 20
958.2861053103654
 10
2252.427384763771
 20
958.2342392701589
 10
2252.427385405562
 20
958.1887783056991
 10
2252.427386174634
 20
958.1514694563558
 10
2252.427387041429
 20
958.1237464802871
 10
2252.427387972639
 20
958.1066747559157
 10
2252.427388932477
 20
958.1009103400127
  0
LINE
  5
513
330
4AF
100
AcDbEntity
  8
0
  6
Continuous
 62
     7
370
    15
100
AcDbLine
 10
2233.027382828186
 20
958.4009455398815
 30
0.0
 11
2236.027383818791
 21
958.4009103400934
 31
0.0
  0
LINE
  5
514
330
4AF
100
AcDbEntity
  8
0
  6
Continuous
 62
     7
370
    15
100
AcDbLine
 10
2233.027382852653
 20
958.1009455398605
 30
0.0
 11
2233.027382828186
 21
958.4009455398815
 31
0.0
  0
LWPOLYLINE
  5
515
330
4AF
100
AcDbEntity
  8
0
  6
Continuous
 62
     7
370
    15
100
AcDbPolyline
 90
        9
 70
   128
 43
0.0
 10
2236.027383818791
 20
958.4009103400934
 10
2236.027383954842
 20
958.34238324348
 10
2236.027384273922
 20
958.2861053103654
 10
2236.027384763771
 20
958.2342392701589
 10
2236.027385405563
 20
958.1887783056991
 10
2236.027386174633
 20
958.1514694563558
 10
2236.027387041429
 20
958.1237464802871
 10
2236.027387972639
 20
958.1066747559157
 10
2236.027388932477
 20
958.1009103400127
  0
LINE
  5
516
330
4AF
100
AcDbEntity
  8
0
  6
Continuous
 62
     7
370
    15
100
AcDbLine
 10
2241.227382828187
 20
958.4009455398815
 30
0.0
 11
2244.227383818791
 21
958.4009103400934
 31
0.0
  0
LINE
  5
517
330
4AF
100
AcDbEntity
  8
0
  6
Continuous
 62
     7
370
    15
100
AcDbLine
 10
2241.227382852653
 20
958.1009455398605
 30
0.0
 11
2241.227382828187
 21
958.4009455398815
 31
0.0
  0
LWPOLYLINE
  5
518
330
4AF
100
AcDbEntity
  8
0
  6
Continuous
 62
     7
370
    15
100
AcDbPolyline
 90
        9
 70
   128
 43
0.0
 10
2244.227383818791
 20
958.4009103400934
 10
2244.227383954842
 20
958.34238324348
 10
2244.227384273922
 20
958.2861053103654
 10
2244.227384763771
 20
958.2342392701589
 10
2244.227385405562
 20
958.1887783056991
 10
2244.227386174633
 20
958.1514694563558
 10
2244.227387041429
 20
958.1237464802871
 10
2244.227387972639
 20
958.1066747559157
 10
2244.227388932477
 20
958.1009103400127
  0
LINE
  5
519
330
4AF
100
AcDbEntity
  8
0
  6
Continuous
 62
     7
370
    15
100
AcDbLine
 10
2249.427382828186
 20
958.4009455398815
 30
0.0
 11
2249.427382539596
 21
965.2402067162235
 31
0.0
  0
LINE
  5
51A
330
4AF
100
AcDbEntity
  8
0
  6
Continuous
 62
     7
370
    15
100
AcDbLine
 10
2252.427383818792
 20
965.2402067162235
 30
0.0
 11
2252.427383818792
 21
958.4009103400934
 31
0.0
  0
LINE
  5
51B
330
4AF
100
AcDbEntity
  8
0
  6
Continuous
 62
     7
370
    15
100
AcDbLine
 10
2233.027382828186
 20
958.4009455398815
 30
0.0
 11
2233.027382642256
 21
965.2402067162235
 31
0.0
  0
LINE
  5
51C
330
4AF
100
AcDbEntity
  8
0
  6
Continuous
 62
     7
370
    15
100
AcDbLine
 10
2236.027383818791
 20
965.2402067162235
 30
0.0
 11
2236.027383818791
 21
958.4009103400934
 31
0.0
  0
LINE
  5
51D
330
4AF
100
AcDbEntity
  8
0
  6
Continuous
 62
     7
370
    15
100
AcDbLine
 10
2241.227382828187
 20
958.4009455398815
 30
0.0
 11
2241.227382642255
 21
965.2402067162235
 31
0.0
  0
LINE
  5
51E
330
4AF
100
AcDbEntity
  8
0
  6
Continuous
 62
     7
370
    15
100
AcDbLine
 10
2244.227383818792
 20
965.2402067162235
 30
0.0
 11
2244.227383818791
 21
958.4009103400934
 31
0.0
  0
ENDBLK
  5
4B1
330
4AF
100
AcDbEntity
  8
0
100
AcDbBlockEnd
  0
BLOCK
  5
521
330
520
100
AcDbEntity
  8
0
100
AcDbBlockBegin
  2
2
 70
     0
 10
0.0
 20
0.0
 30
0.0
  3
2
  1

  0
LINE
  5
523
330
520
100
AcDbEntity
  8
0
  6
Continuous
 62
     7
370
    15
100
AcDbLine
 10
2219.146713763663
 20
972.0721822314692
 30
0.0
 11
2216.146713763663
 21
972.0721822314692
 31
0.0
  0
LINE
  5
524
330
520
100
AcDbEntity
  8
0
  6
Continuous
 62
     7
370
    15
100
AcDbLine
 10
2216.146713763663
 20
978.5388007871258
 30
0.0
 11
2215.396713763662
 21
978.5388007871258
 31
0.0
  0
LINE
  5
525
330
520
100
AcDbEntity
  8
0
  6
Continuous
 62
     7
370
    15
100
AcDbLine
 10
2215.396713763662
 20
978.5388007871258
 30
0.0
 11
2215.396713763662
 21
979.7388007871258
 31
0.0
  0
LINE
  5
526
330
520
100
AcDbEntity
  8
0
  6
Continuous
 62
     7
370
    15
100
AcDbLine
 10
2215.396713763662
 20
979.7388007871258
 30
0.0
 11
2219.896713763663
 21
979.7388007871258
 31
0.0
  0
LINE
  5
527
330
520
100
AcDbEntity
  8
0
  6
Continuous
 62
     7
370
    15
100
AcDbLine
 10
2219.896713763663
 20
979.7388007871258
 30
0.0
 11
2219.896713763663
 21
978.5388007871258
 31
0.0
  0
LINE
  5
528
330
520
100
AcDbEntity
  8
0
  6
Continuous
 62
     7
370
    15
100
AcDbLine
 10
2219.896713763663
 20
978.5388007871258
 30
0.0
 11
2219.146713763663
 21
978.5388007871258
 31
0.0
  0
LINE
  5
529
330
520
100
AcDbEntity
  8
0
  6
Continuous
 62
     7
370
    15
100
AcDbLine
 10
2216.146713763663
 20
972.0721822314692
 30
0.0
 11
2216.146713763663
 21
978.5388007871258
 31
0.0
  0
LINE
  5
52A
330
520
100
AcDbEntity
  8
0
  6
Continuous
 62
     7
370
    15
100
AcDbLine
 10
2219.146713763663
 20
972.0721822314692
 30
0.0
 11
2219.146713763663
 21
978.5388007871258
 31
0.0
  0
LINE
  5
52B
330
520
100
AcDbEntity
  8
0
  6
Continuous
 62
     7
370
    15
100
AcDbLine
 10
2219.146713763663
 20
968.3687905373099
 30
0.0
 11
2216.146713763663
 21
968.3687905373099
 31
0.0
  0
LINE
  5
52C
330
520
100
AcDbEntity
  8
0
  6
Continuous
 62
     7
370
    15
100
AcDbLine
 10
2216.146713763663
 20
968.3687905373099
 30
0.0
 11
2216.146713763663
 21
972.0721822314692
 31
0.0
  0
LINE
  5
52D
330
520
100
AcDbEntity
  8
0
  6
Continuous
 62
     7
370
    15
100
AcDbLine
 10
2219.146713763663
 20
968.3687905373099
 30
0.0
 11
2219.146713763663
 21
972.0721822314692
 31
0.0
  0
LINE
  5
52E
330
520
100
AcDbEntity
  8
0
  6
Continuous
 62
     7
370
    15
100
AcDbLine
 10
2216.146713763663
 20
968.0152307596932
 30
0.0
 11
2219.146713763663
 21
968.0152307596932
 31
0.0
  0
LINE
  5
52F
330
520
100
AcDbEntity
  8
0
  6
Continuous
 62
     7
370
    15
100
AcDbLine
 10
2216.146713763663
 20
968.0152307596932
 30
0.0
 11
2216.146713763663
 21
968.3687905373099
 31
0.0
  0
LINE
  5
530
330
520
100
AcDbEntity
  8
0
  6
Continuous
 62
     7
370
    15
100
AcDbLine
 10
2219.146713763663
 20
968.0152307596932
 30
0.0
 11
2219.146713763663
 21
968.3687905373099
 31
0.0
  0
LINE
  5
531
330
520
100
AcDbEntity
  8
0
  6
Continuous
 62
     7
370
    15
100
AcDbLine
 10
2216.146713763663
 20
967.9581282174551
 30
0.0
 11
2219.146713763663
 21
967.9581282174551
 31
0.0
  0
LINE
  5
532
330
520
100
AcDbEntity
  8
0
  6
Continuous
 62
     7
370
    15
100
AcDbLine
 10
2216.146713763663
 20
967.9581282174551
 30
0.0
 11
2216.146713763663
 21
968.0152307596932
 31
0.0
  0
LINE
  5
533
330
520
100
AcDbEntity
  8
0
  6
Continuous
 62
     7
370
    15
100
AcDbLine
 10
2219.146713763663
 20
968.0152307596932
 30
0.0
 11
2219.146713763663
 21
967.9581282174551
 31
0.0
  0
LINE
  5
534
330
520
100
AcDbEntity
  8
0
  6
Continuous
 62
     7
370
    15
100
AcDbLine
 10
2216.146713763663
 20
967.6045741971751
 30
0.0
 11
2219.146713763663
 21
967.6045741971751
 31
0.0
  0
LINE
  5
535
330
520
100
AcDbEntity
  8
0
  6
Continuous
 62
     7
370
    15
100
AcDbLine
 10
2216.146713763663
 20
967.6045741971751
 30
0.0
 11
2216.146713763663
 21
967.9581282174551
 31
0.0
  0
LINE
  5
536
330
520
100
AcDbEntity
  8
0
  6
Continuous
 62
     7
370
    15
100
AcDbLine
 10
2219.146713763663
 20
967.9581282174551
 30
0.0
 11
2219.146713763663
 21
967.6045741971751
 31
0.0
  0
LINE
  5
537
330
520
100
AcDbEntity
  8
0
  6
Continuous
 62
     7
370
    15
100
AcDbLine
 10
2219.146713763663
 20
965.2402067162235
 30
0.0
 11
2216.146713763663
 21
965.2402067162235
 31
0.0
  0
LINE
  5
538
330
520
100
AcDbEntity
  8
0
  6
Continuous
 62
     7
370
    15
100
AcDbLine
 10
2219.146713763663
 20
965.5902051903446
 30
0.0
 11
2216.146713763663
 21
965.5902051903446
 31
0.0
  0
LINE
  5
539
330
520
100
AcDbEntity
  8
0
  6
Continuous
 62
     7
370
    15
100
AcDbLine
 10
2216.146713763663
 20
965.2402067162235
 30
0.0
 11
2216.146713763663
 21
965.5902051903446
 31
0.0
  0
LINE
  5
53A
330
520
100
AcDbEntity
  8
0
  6
Continuous
 62
     7
370
    15
100
AcDbLine
 10
2219.146713763663
 20
965.5902051903446
 30
0.0
 11
2219.146713763663
 21
965.2402067162235
 31
0.0
  0
LINE
  5
53B
330
520
100
AcDbEntity
  8
0
  6
Continuous
 62
     7
370
    15
100
AcDbLine
 10
2216.146713763663
 20
965.5902051903446
 30
0.0
 11
2216.146713763663
 21
967.6045741971751
 31
0.0
  0
LINE
  5
53C
330
520
100
AcDbEntity
  8
0
  6
Continuous
 62
     7
370
    15
100
AcDbLine
 10
2219.146713763663
 20
965.5902051903446
 30
0.0
 11
2219.146713763663
 21
967.6045741971751
 31
0.0
  0
LINE
  5
53D
330
520
100
AcDbEntity
  8
0
  6
Continuous
 62
     7
370
    15
100
AcDbLine
 10
2216.646713763662
 20
958.1009103400127
 30
0.0
 11
2216.598908978888
 21
958.1009103400127
 31
0.0
  0
ARC
  5
53E
330
520
100
AcDbEntity
  8
0
  6
Continuous
 62
     7
370
    15
100
AcDbCircle
 10
2216.646713763662
 20
958.400910340036
 30
0.0
 40
0.3000000000399801
100
AcDbArc
 50
270.0
 51
0.0009356025272286
  0
LINE
  5
53F
330
520
100
AcDbEntity
  8
0
  6
Continuous
 62
     7
370
    15
100
AcDbLine
 10
2216.946713763662
 20
965.2402067162235
 30
0.0
 11
2216.946713763662
 21
958.4009103400934
 31
0.0
  0
ARC
  5
540
330
520
100
AcDbEntity
  8
0
  6
Continuous
 62
     7
370
    15
100
AcDbCircle
 10
2218.646707660147
 20
958.400910340036
 30
0.0
 40
0.300000000023252
100
AcDbArc
 50
180.0
 51
270.0
  0
LINE
  5
541
330
520
100
AcDbEntity
  8
0
  6
Continuous
 62
     7
370
    15
100
AcDbLine
 10
2218.694512444922
 20
958.1009103400127
 30
0.0
 11
2218.646707660147
 21
958.1009103400127
 31
0.0
  0
ARC
  5
542
330
520
100
AcDbEntity
  8
0
  6
Continuous
 62
     7
370
    15
100
AcDbCircle
 10
2218.694512444921
 20
957.8009103399896
 30
0.0
 40
0.3000000000231383
100
AcDbArc
 50
0.0000000012701863
 51
89.99999999997395
  0
LINE
  5
543
330
520
100
AcDbEntity
  8
0
  6
Continuous
 62
     7
370
    15
100
AcDbLine
 10
2218.994512444921
 20
957.8009103399963
 30
0.0
 11
2218.994512444921
 21
952.0764900124092
 31
0.0
  0
LINE
  5
544
330
520
100
AcDbEntity
  8
0
  6
Continuous
 62
     7
370
    15
100
AcDbLine
 10
2218.994512444921
 20
952.0764900124092
 30
0.0
 11
2216.298908978887
 21
952.0764897664317
 31
0.0
  0
LINE
  5
545
330
520
100
AcDbEntity
  8
0
  6
Continuous
 62
     7
370
    15
100
AcDbLine
 10
2216.298908978887
 20
952.0764897664317
 30
0.0
 11
2216.298908978887
 21
957.8009103399908
 31
0.0
  0
ARC
  5
546
330
520
100
AcDbEntity
  8
0
  6
Continuous
 62
     7
370
    15
100
AcDbCircle
 10
2216.598908978888
 20
957.8009103399894
 30
0.0
 40
0.300000000023252
100
AcDbArc
 50
90.0
 51
179.9999999997459
  0
LINE
  5
547
330
520
100
AcDbEntity
  8
0
  6
Continuous
 62
     7
370
    15
100
AcDbLine
 10
2218.346707660146
 20
958.400910340036
 30
0.0
 11
2218.346707660146
 21
965.2402067162235
 31
0.0
  0
LINE
  5
548
330
520
100
AcDbEntity
  8
0
  6
Continuous
 62
     7
370
    15
100
AcDbLine
 10
2218.994512444921
 20
950.1549114572645
 30
0.0
 11
2216.298908978887
 21
950.1549114572645
 31
0.0
  0
LINE
  5
549
330
520
100
AcDbEntity
  8
0
  6
Continuous
 62
     7
370
    15
100
AcDbLine
 10
2216.298908978887
 20
950.1549114572645
 30
0.0
 11
2216.298908978887
 21
952.0764897664317
 31
0.0
  0
LINE
  5
54A
330
520
100
AcDbEntity
  8
0
  6
Continuous
 62
     7
370
    15
100
AcDbLine
 10
2218.994512444921
 20
952.0764900124092
 30
0.0
 11
2218.994512444921
 21
950.1549114572645
 31
0.0
  0
LINE
  5
54B
330
520
100
AcDbEntity
  8
0
  6
Continuous
 62
     7
370
    15
100
AcDbLine
 10
2218.694512444922
 20
958.1009455398605
 30
0.0
 11
2218.694512444922
 21
958.1009103400127
 31
0.0
  0
ARC
  5
54C
330
520
100
AcDbEntity
  8
0
  6
Continuous
 62
     7
370
    15
100
AcDbCircle
 10
2218.694512444922
 20
957.8009455398399
 30
0.0
 40
0.3000000000208455
100
AcDbArc
 50
0.0
 51
90.0
  0
LINE
  5
54D
330
520
100
AcDbEntity
  8
0
  6
Continuous
 62
     7
370
    15
100
AcDbLine
 10
2218.994512444921
 20
957.8009455398399
 30
0.0
 11
2218.994512444921
 21
957.8009103399963
 31
0.0
  0
ARC
  5
54E
330
520
100
AcDbEntity
  8
0
  6
Continuous
 62
     7
370
    15
100
AcDbCircle
 10
2216.598908978888
 20
957.8009455398396
 30
0.0
 40
0.3000000000209591
100
AcDbArc
 50
90.00000000002605
 51
179.9999999989643
  0
LINE
  5
54F
330
520
100
AcDbEntity
  8
0
  6
Continuous
 62
     7
370
    15
100
AcDbLine
 10
2216.598908978888
 20
958.1009103400127
 30
0.0
 11
2216.598908978888
 21
958.1009455398605
 31
0.0
  0
LINE
  5
550
330
520
100
AcDbEntity
  8
0
  6
Continuous
 62
     7
370
    15
100
AcDbLine
 10
2216.298908978887
 20
957.8009103399908
 30
0.0
 11
2216.298908978887
 21
957.8009455398451
 31
0.0
  0
ARC
  5
551
330
520
100
AcDbEntity
  8
0
  6
Continuous
 62
     7
370
    15
100
AcDbCircle
 10
2218.646707660147
 20
958.4009455398815
 30
0.0
 40
0.3000000000209307
100
AcDbArc
 50
179.9999300720288
 51
270.0
  0
LINE
  5
552
330
520
100
AcDbEntity
  8
0
  6
Continuous
 62
     7
370
    15
100
AcDbLine
 10
2218.646707660147
 20
958.1009455398605
 30
0.0
 11
2218.646707660147
 21
958.1009103400127
 31
0.0
  0
LINE
  5
553
330
520
100
AcDbEntity
  8
0
  6
Continuous
 62
     7
370
    15
100
AcDbLine
 10
2218.694512444922
 20
958.1009455398605
 30
0.0
 11
2218.646707660147
 21
958.1009455398605
 31
0.0
  0
LINE
  5
554
330
520
100
AcDbEntity
  8
0
  6
Continuous
 62
     7
370
    15
100
AcDbLine
 10
2216.646713763662
 20
958.1009103400127
 30
0.0
 11
2216.646713763662
 21
958.1009455398605
 31
0.0
  0
ARC
  5
555
330
520
100
AcDbEntity
  8
0
  6
Continuous
 62
     7
370
    15
100
AcDbCircle
 10
2216.646713763662
 20
958.4009455398815
 30
0.0
 40
0.3000000000209307
100
AcDbArc
 50
270.0
 51
0.0
  0
LINE
  5
556
330
520
100
AcDbEntity
  8
0
  6
Continuous
 62
     7
370
    15
100
AcDbLine
 10
2216.598908978888
 20
958.1009455398605
 30
0.0
 11
2216.646713763662
 21
958.1009455398605
 31
0.0
  0
LINE
  5
557
330
520
100
AcDbEntity
  8
0
  6
Continuous
 62
     7
370
    15
100
AcDbLine
 10
2219.146713763663
 20
969.8388007871258
 30
0.0
 11
2219.496713763662
 21
969.8388007871258
 31
0.0
  0
LINE
  5
558
330
520
100
AcDbEntity
  8
0
  6
Continuous
 62
     7
370
    15
100
AcDbLine
 10
2219.496713763662
 20
969.8388007871258
 30
0.0
 11
2219.146713763663
 21
968.5388007871258
 31
0.0
  0
LINE
  5
559
330
520
100
AcDbEntity
  8
0
  6
Continuous
 62
     7
370
    15
100
AcDbLine
 10
2216.146713763663
 20
968.5388007871258
 30
0.0
 11
2215.796713763662
 21
969.8388007871258
 31
0.0
  0
LINE
  5
55A
330
520
100
AcDbEntity
  8
0
  6
Continuous
 62
     7
370
    15
100
AcDbLine
 10
2215.796713763662
 20
969.8388007871258
 30
0.0
 11
2216.146713763663
 21
969.8388007871258
 31
0.0
  0
LINE
  5
55B
330
520
100
AcDbEntity
  8
0
  6
Continuous
 62
     7
370
    15
100
AcDbLine
 10
2216.298908978887
 20
949.5764649835528
 30
0.0
 11
2218.994512444921
 21
949.5764649835528
 31
0.0
  0
LINE
  5
55C
330
520
100
AcDbEntity
  8
0
  6
Continuous
 62
     7
370
    15
100
AcDbLine
 10
2216.298908978887
 20
950.1549114572645
 30
0.0
 11
2216.298908978887
 21
949.5764649835528
 31
0.0
  0
LINE
  5
55D
330
520
100
AcDbEntity
  8
0
  6
Continuous
 62
     7
370
    15
100
AcDbLine
 10
2218.994512444921
 20
950.1549114572645
 30
0.0
 11
2218.994512444921
 21
949.5764649835528
 31
0.0
  0
ENDBLK
  5
522
330
520
100
AcDbEntity
  8
0
100
AcDbBlockEnd
  0
BLOCK
  5
560
330
55F
100
AcDbEntity
  8
0
100
AcDbBlockBegin
  2
3
 70
     0
 10
0.0
 20
0.0
 30
0.0
  3
3
  1

  0
LINE
  5
562
330
55F
100
AcDbEntity
  8
0
  6
Continuous
 62
     7
370
    15
100
AcDbLine
 10
2254.727361329392
 20
936.1146578694809
 30
0.0
 11
2254.727361329392
 21
940.6146578694809
 31
0.0
  0
LINE
  5
563
330
55F
100
AcDbEntity
  8
0
  6
Continuous
 62
     7
370
    15
100
AcDbLine
 10
2230.727359892192
 20
940.6146578694809
 30
0.0
 11
2230.727359892192
 21
936.1146578694809
 31
0.0
  0
LINE
  5
564
330
55F
100
AcDbEntity
  8
0
  6
Continuous
 62
     7
370
    15
100
AcDbLine
 10
2254.727361329392
 20
936.1146578694809
 30
0.0
 11
2230.727359892192
 21
936.1146578694809
 31
0.0
  0
LINE
  5
565
330
55F
100
AcDbEntity
  8
0
  6
Continuous
 62
     7
370
    15
100
AcDbLine
 10
2230.727359892192
 20
940.6146578694809
 30
0.0
 11
2254.727361329392
 21
940.6146578694809
 31
0.0
  0
ENDBLK
  5
561
330
55F
100
AcDbEntity
  8
0
100
AcDbBlockEnd
  0
BLOCK
  5
568
330
567
100
AcDbEntity
  8
0
100
AcDbBlockBegin
  2
4
 70
     0
 10
0.0
 20
0.0
 30
0.0
  3
4
  1

  0
LINE
  5
56A
330
567
100
AcDbEntity
  8
0
  6
Continuous
 62
     7
370
    15
100
AcDbLine
 10
2282.313531419657
 20
958.3551796762201
 30
0.0
 11
2281.917607411283
 21
958.5837471056022
 31
0.0
  0
LINE
  5
56B
330
567
100
AcDbEntity
  8
0
  6
Continuous
 62
     7
370
    15
100
AcDbLine
 10
2280.092525961284
 20
950.7869313101968
 30
0.0
 11
2281.998605451508
 21
951.8872875781605
 31
0.0
  0
LINE
  5
56C
330
567
100
AcDbEntity
  8
0
  6
Continuous
 62
     7
370
    15
100
AcDbLine
 10
2276.515255813928
 20
961.7024529346931
 30
0.0
 11
2276.119331805553
 21
961.9310203640752
 31
0.0
  0
LINE
  5
56D
330
567
100
AcDbEntity
  8
0
  6
Continuous
 62
     7
370
    15
100
AcDbLine
 10
2274.294250355555
 20
954.1342045686699
 30
0.0
 11
2276.200329845778
 21
955.2345608366337
 31
0.0
  0
LINE
  5
56E
330
567
100
AcDbEntity
  8
0
  6
Continuous
 62
     7
370
    15
100
AcDbLine
 10
2270.716980208198
 20
965.0497261931663
 30
0.0
 11
2270.321056199823
 21
965.2782936225484
 31
0.0
  0
LINE
  5
56F
330
567
100
AcDbEntity
  8
0
  6
Continuous
 62
     7
370
    15
100
AcDbLine
 10
2268.495974749825
 20
957.4814778271429
 30
0.0
 11
2270.402054240048
 21
958.5818340951067
 31
0.0
  0
LINE
  5
570
330
567
100
AcDbEntity
  8
0
  6
Continuous
 62
     7
370
    15
100
AcDbLine
 10
2284.109623382414
 20
968.9941738397161
 30
0.0
 11
2284.109623382414
 21
974.2744318053075
 31
0.0
  0
LINE
  5
571
330
567
100
AcDbEntity
  8
0
  6
Continuous
 62
     7
370
    15
100
AcDbLine
 10
2284.109623382414
 20
968.9941738397161
 30
0.0
 11
2281.988303038855
 21
967.7695616719821
 31
0.0
  0
LINE
  5
572
330
567
100
AcDbEntity
  8
0
  6
Continuous
 62
     7
370
    15
100
AcDbLine
 10
2281.988303038855
 20
967.7695616719821
 30
0.0
 11
2281.988303038855
 21
973.0498196375734
 31
0.0
  0
LINE
  5
573
330
567
100
AcDbEntity
  8
0
  6
Continuous
 62
     7
370
    15
100
AcDbLine
 10
2281.988303038855
 20
973.0498196375734
 30
0.0
 11
2281.457972952965
 21
972.7436665956398
 31
0.0
  0
LINE
  5
574
330
567
100
AcDbEntity
  8
0
  6
Continuous
 62
     7
370
    15
100
AcDbLine
 10
2281.457972952965
 20
972.7436665956398
 30
0.0
 11
2281.457972952965
 21
973.7235155699028
 31
0.0
  0
LINE
  5
575
330
567
100
AcDbEntity
  8
0
  6
Continuous
 62
     7
370
    15
100
AcDbLine
 10
2281.457972952965
 20
973.7235155699028
 30
0.0
 11
2284.639953468304
 21
975.5604338215039
 31
0.0
  0
LINE
  5
576
330
567
100
AcDbEntity
  8
0
  6
Continuous
 62
     7
370
    15
100
AcDbLine
 10
2284.639953468304
 20
975.5604338215039
 30
0.0
 11
2284.639953468304
 21
974.5805848472409
 31
0.0
  0
LINE
  5
577
330
567
100
AcDbEntity
  8
0
  6
Continuous
 62
     7
370
    15
100
AcDbLine
 10
2284.639953468304
 20
974.5805848472409
 30
0.0
 11
2284.109623382414
 21
974.2744318053075
 31
0.0
  0
LINE
  5
578
330
567
100
AcDbEntity
  8
0
  6
Continuous
 62
     7
370
    15
100
AcDbLine
 10
2281.457972952965
 20
972.7436665956398
 30
0.0
 11
2264.487409188234
 21
982.5405645241831
 31
0.0
  0
LINE
  5
579
330
567
100
AcDbEntity
  8
0
  6
Continuous
 62
     7
370
    15
100
AcDbLine
 10
2264.487409188234
 20
983.520413498446
 30
0.0
 11
2264.487409188234
 21
982.5405645241831
 31
0.0
  0
LINE
  5
57A
330
567
100
AcDbEntity
  8
0
  6
Continuous
 62
     7
370
    15
100
AcDbLine
 10
2281.457972952965
 20
973.7235155699028
 30
0.0
 11
2264.487409188234
 21
983.520413498446
 31
0.0
  0
LINE
  5
57B
330
567
100
AcDbEntity
  8
0
  6
Continuous
 62
     7
370
    15
100
AcDbLine
 10
2267.669389703574
 20
985.3573317500471
 30
0.0
 11
2264.487409188234
 21
983.520413498446
 31
0.0
  0
LINE
  5
57C
330
567
100
AcDbEntity
  8
0
  6
Continuous
 62
     7
370
    15
100
AcDbLine
 10
2267.669389703574
 20
985.3573317500471
 30
0.0
 11
2284.639953468304
 21
975.5604338215039
 31
0.0
  0
LINE
  5
57D
330
567
100
AcDbEntity
  8
0
  6
Continuous
 62
     7
370
    15
100
AcDbLine
 10
2268.588626479209
 20
972.6198801425203
 30
0.0
 11
2266.820859526243
 21
973.6403902822987
 31
0.0
  0
LINE
  5
57E
330
567
100
AcDbEntity
  8
0
  6
Continuous
 62
     7
370
    15
100
AcDbLine
 10
2268.588626479209
 20
973.6813831979716
 30
0.0
 11
2268.588626479209
 21
972.6198801425203
 31
0.0
  0
LINE
  5
57F
330
567
100
AcDbEntity
  8
0
  6
Continuous
 62
     7
370
    15
100
AcDbLine
 10
2268.588626479209
 20
973.6813831979716
 30
0.0
 11
2266.820859526243
 21
974.70189333775
 31
0.0
  0
LINE
  5
580
330
567
100
AcDbEntity
  8
0
  6
Continuous
 62
     7
370
    15
100
AcDbLine
 10
2274.386902084938
 20
969.2726068840473
 30
0.0
 11
2272.619135131972
 21
970.2931170238255
 31
0.0
  0
LINE
  5
581
330
567
100
AcDbEntity
  8
0
  6
Continuous
 62
     7
370
    15
100
AcDbLine
 10
2274.386902084938
 20
970.3341099394986
 30
0.0
 11
2274.386902084938
 21
969.2726068840473
 31
0.0
  0
LINE
  5
582
330
567
100
AcDbEntity
  8
0
  6
Continuous
 62
     7
370
    15
100
AcDbLine
 10
2274.386902084938
 20
970.3341099394986
 30
0.0
 11
2272.619135131972
 21
971.3546200792768
 31
0.0
  0
LINE
  5
583
330
567
100
AcDbEntity
  8
0
  6
Continuous
 62
     7
370
    15
100
AcDbLine
 10
2280.185177690668
 20
966.9868366810254
 30
0.0
 11
2278.417410737702
 21
968.0073468208037
 31
0.0
  0
LINE
  5
584
330
567
100
AcDbEntity
  8
0
  6
Continuous
 62
     7
370
    15
100
AcDbLine
 10
2280.185177690668
 20
965.9253336255741
 30
0.0
 11
2278.417410737702
 21
966.9458437653524
 31
0.0
  0
LINE
  5
585
330
567
100
AcDbEntity
  8
0
  6
Continuous
 62
     7
370
    15
100
AcDbLine
 10
2280.185177690668
 20
966.9868366810254
 30
0.0
 11
2280.185177690668
 21
965.9253336255741
 31
0.0
  0
LINE
  5
586
330
567
100
AcDbEntity
  8
0
  6
Continuous
 62
     7
370
    15
100
AcDbLine
 10
2281.175132280397
 20
968.2389951586667
 30
0.0
 11
2281.988303038855
 21
967.7695616719821
 31
0.0
  0
LINE
  5
587
330
567
100
AcDbEntity
  8
0
  6
Continuous
 62
     7
370
    15
100
AcDbLine
 10
2281.175132280397
 20
965.215024697987
 30
0.0
 11
2281.175132280397
 21
968.2389951586667
 31
0.0
  0
ARC
  5
588
330
567
100
AcDbEntity
  8
0
  6
Continuous
 62
     7
370
    15
100
AcDbCircle
 10
2280.924800590042
 20
965.1903874966695
 30
0.0
 40
0.2515411435236298
100
AcDbArc
 50
305.6978531816529
 51
5.62084759791796
  0
LINE
  5
589
330
567
100
AcDbEntity
  8
0
  6
Continuous
 62
     7
370
    15
100
AcDbLine
 10
2281.031198895549
 20
964.9627931283538
 30
0.0
 11
2281.071577559643
 21
964.9861095779415
 31
0.0
  0
ARC
  5
58A
330
567
100
AcDbEntity
  8
0
  6
Continuous
 62
     7
370
    15
100
AcDbCircle
 10
2281.17797177051
 20
964.7585178204035
 30
0.0
 40
0.2515366340367144
100
AcDbArc
 50
125.6974427479293
 51
185.6205025999732
  0
LINE
  5
58B
330
567
100
AcDbEntity
  8
0
  6
Continuous
 62
     7
370
    15
100
AcDbLine
 10
2280.927644419617
 20
963.0890680638012
 30
0.0
 11
2280.927644419617
 21
964.733882568076
 31
0.0
  0
LINE
  5
58C
330
567
100
AcDbEntity
  8
0
  6
Continuous
 62
     7
370
    15
100
AcDbLine
 10
2280.68015812516
 20
962.9461508222826
 30
0.0
 11
2280.927644419617
 21
963.0890680638012
 31
0.0
  0
LINE
  5
58D
330
567
100
AcDbEntity
  8
0
  6
Continuous
 62
     7
370
    15
100
AcDbLine
 10
2280.68015812516
 20
962.9461508222826
 30
0.0
 11
2277.922437143532
 21
964.538149258337
 31
0.0
  0
LINE
  5
58E
330
567
100
AcDbEntity
  8
0
  6
Continuous
 62
     7
370
    15
100
AcDbLine
 10
2277.674949335741
 20
964.9668107144263
 30
0.0
 11
2277.922437143532
 21
964.538149258337
 31
0.0
  0
LINE
  5
58F
330
567
100
AcDbEntity
  8
0
  6
Continuous
 62
     7
370
    15
100
AcDbLine
 10
2277.674949335741
 20
966.6116238793769
 30
0.0
 11
2277.674950849077
 21
964.9668080932539
 31
0.0
  0
ARC
  5
590
330
567
100
AcDbEntity
  8
0
  6
Continuous
 62
     7
370
    15
100
AcDbCircle
 10
2276.953961601215
 20
966.5869938939019
 30
0.0
 40
0.7214083098501982
100
AcDbArc
 50
1.95654596742141
 51
31.14400349254366
  0
LINE
  5
591
330
567
100
AcDbEntity
  8
0
  6
Continuous
 62
     7
370
    15
100
AcDbLine
 10
2277.531012736871
 20
967.0300360310935
 30
0.0
 11
2277.571393426236
 21
966.9600996308888
 31
0.0
  0
ARC
  5
592
330
567
100
AcDbEntity
  8
0
  6
Continuous
 62
     7
370
    15
100
AcDbCircle
 10
2278.148439183346
 20
967.4031346076745
 30
0.0
 40
0.7214000032254618
100
AcDbArc
 50
181.9564580470285
 51
211.1437376919485
  0
LINE
  5
593
330
567
100
AcDbEntity
  8
0
  6
Continuous
 62
     7
370
    15
100
AcDbLine
 10
2277.42746455462
 20
970.4024784400125
 30
0.0
 11
2277.427459712809
 21
967.3785060121435
 31
0.0
  0
LINE
  5
594
330
567
100
AcDbEntity
  8
0
  6
Continuous
 62
     7
370
    15
100
AcDbLine
 10
2275.376850863114
 20
971.5862725263534
 30
0.0
 11
2277.42746455462
 21
970.4024784400125
 31
0.0
  0
LINE
  5
595
330
567
100
AcDbEntity
  8
0
  6
Continuous
 62
     7
370
    15
100
AcDbLine
 10
2275.376850863114
 20
968.5623025026023
 30
0.0
 11
2275.376850863114
 21
971.5862725263534
 31
0.0
  0
ARC
  5
596
330
567
100
AcDbEntity
  8
0
  6
Continuous
 62
     7
370
    15
100
AcDbCircle
 10
2275.126521174716
 20
968.5376655001345
 30
0.0
 40
0.251539131715436
100
AcDbArc
 50
305.697855979324
 51
5.62084718521897
  0
LINE
  5
597
330
567
100
AcDbEntity
  8
0
  6
Continuous
 62
     7
370
    15
100
AcDbLine
 10
2275.232918314063
 20
968.3100689364378
 30
0.0
 11
2275.27329698038
 21
968.3333892223737
 31
0.0
  0
ARC
  5
598
330
567
100
AcDbEntity
  8
0
  6
Continuous
 62
     7
370
    15
100
AcDbCircle
 10
2275.379695891487
 20
968.1057932779236
 30
0.0
 40
0.2515396626695332
100
AcDbArc
 50
125.6982660277376
 51
185.6204239756084
  0
LINE
  5
599
330
567
100
AcDbEntity
  8
0
  6
Continuous
 62
     7
370
    15
100
AcDbLine
 10
2275.129365492715
 20
966.4363432395459
 30
0.0
 11
2275.129365492715
 21
968.0811580724915
 31
0.0
  0
LINE
  5
59A
330
567
100
AcDbEntity
  8
0
  6
Continuous
 62
     7
370
    15
100
AcDbLine
 10
2274.881879198259
 20
966.2934259980273
 30
0.0
 11
2275.129365492715
 21
966.4363432395459
 31
0.0
  0
LINE
  5
59B
330
567
100
AcDbEntity
  8
0
  6
Continuous
 62
     7
370
    15
100
AcDbLine
 10
2274.881879198259
 20
966.2934259980273
 30
0.0
 11
2272.124158216631
 21
967.8854244340818
 31
0.0
  0
LINE
  5
59C
330
567
100
AcDbEntity
  8
0
  6
Continuous
 62
     7
370
    15
100
AcDbLine
 10
2271.876673730012
 20
968.3140801377332
 30
0.0
 11
2272.124158216631
 21
967.8854244340818
 31
0.0
  0
LINE
  5
59D
330
567
100
AcDbEntity
  8
0
  6
Continuous
 62
     7
370
    15
100
AcDbLine
 10
2271.876673730011
 20
969.958896661873
 30
0.0
 11
2271.876671922175
 21
968.3140832689984
 31
0.0
  0
ARC
  5
59E
330
567
100
AcDbEntity
  8
0
  6
Continuous
 62
     7
370
    15
100
AcDbCircle
 10
2271.155687525465
 20
969.9342671236093
 30
0.0
 40
0.7214067654943692
100
AcDbArc
 50
1.956514618266593
 51
31.14419206753463
  0
LINE
  5
59F
330
567
100
AcDbEntity
  8
0
  6
Continuous
 62
     7
370
    15
100
AcDbLine
 10
2271.732740704045
 20
970.3773063746425
 30
0.0
 11
2271.773116800731
 21
970.3073740939883
 31
0.0
  0
ARC
  5
5A0
330
567
100
AcDbEntity
  8
0
  6
Continuous
 62
     7
370
    15
100
AcDbCircle
 10
2272.350170371562
 20
970.7504098522315
 30
0.0
 40
0.7214052947679809
100
AcDbArc
 50
181.9565178959424
 51
211.1439385321064
  0
LINE
  5
5A1
330
567
100
AcDbEntity
  8
0
  6
Continuous
 62
     7
370
    15
100
AcDbLine
 10
2271.62918563831
 20
973.7497536096425
 30
0.0
 11
2271.629185638294
 21
970.7257803229351
 31
0.0
  0
LINE
  5
5A2
330
567
100
AcDbEntity
  8
0
  6
Continuous
 62
     7
370
    15
100
AcDbLine
 10
2269.578575257384
 20
974.9335457848264
 30
0.0
 11
2271.62918563831
 21
973.7497536096425
 31
0.0
  0
LINE
  5
5A3
330
567
100
AcDbEntity
  8
0
  6
Continuous
 62
     7
370
    15
100
AcDbLine
 10
2269.578575257384
 20
971.9095757610753
 30
0.0
 11
2269.578575257384
 21
974.9335457848264
 31
0.0
  0
ARC
  5
5A4
330
567
100
AcDbEntity
  8
0
  6
Continuous
 62
     7
370
    15
100
AcDbCircle
 10
2269.328245568986
 20
971.8849387586075
 30
0.0
 40
0.2515391317154105
100
AcDbArc
 50
305.6978559793202
 51
5.620847185225453
  0
LINE
  5
5A5
330
567
100
AcDbEntity
  8
0
  6
Continuous
 62
     7
370
    15
100
AcDbLine
 10
2269.434642708333
 20
971.657342194911
 30
0.0
 11
2269.47502137465
 21
971.6806624808468
 31
0.0
  0
ARC
  5
5A6
330
567
100
AcDbEntity
  8
0
  6
Continuous
 62
     7
370
    15
100
AcDbCircle
 10
2269.581420285757
 20
971.4530665363968
 30
0.0
 40
0.2515396626692292
100
AcDbArc
 50
125.6982660276801
 51
185.6204239756409
  0
LINE
  5
5A7
330
567
100
AcDbEntity
  8
0
  6
Continuous
 62
     7
370
    15
100
AcDbLine
 10
2269.331089886986
 20
969.783616498019
 30
0.0
 11
2269.331089886986
 21
971.4284313309647
 31
0.0
  0
LINE
  5
5A8
330
567
100
AcDbEntity
  8
0
  6
Continuous
 62
     7
370
    15
100
AcDbLine
 10
2269.083603592529
 20
969.6406992565002
 30
0.0
 11
2269.331089886986
 21
969.783616498019
 31
0.0
  0
LINE
  5
5A9
330
567
100
AcDbEntity
  8
0
  6
Continuous
 62
     7
370
    15
100
AcDbLine
 10
2269.083603592529
 20
969.6406992565002
 30
0.0
 11
2266.325882610901
 21
971.2326976925549
 31
0.0
  0
LINE
  5
5AA
330
567
100
AcDbEntity
  8
0
  6
Continuous
 62
     7
370
    15
100
AcDbLine
 10
2266.078398124282
 20
971.6613533962062
 30
0.0
 11
2266.325882610901
 21
971.2326976925549
 31
0.0
  0
LINE
  5
5AB
330
567
100
AcDbEntity
  8
0
  6
Continuous
 62
     7
370
    15
100
AcDbLine
 10
2266.078398124282
 20
973.306169920346
 30
0.0
 11
2266.078396316445
 21
971.6613565274714
 31
0.0
  0
ARC
  5
5AC
330
567
100
AcDbEntity
  8
0
  6
Continuous
 62
     7
370
    15
100
AcDbCircle
 10
2265.357411919735
 20
973.2815403820822
 30
0.0
 40
0.7214067654945518
100
AcDbArc
 50
1.956514618266593
 51
31.14419206753463
  0
LINE
  5
5AD
330
567
100
AcDbEntity
  8
0
  6
Continuous
 62
     7
370
    15
100
AcDbLine
 10
2265.934465098315
 20
973.7245796331155
 30
0.0
 11
2265.974841195001
 21
973.6546473524615
 31
0.0
  0
ARC
  5
5AE
330
567
100
AcDbEntity
  8
0
  6
Continuous
 62
     7
370
    15
100
AcDbCircle
 10
2266.551894765832
 20
974.0976831107046
 30
0.0
 40
0.7214052947680367
100
AcDbArc
 50
181.9565178959359
 51
211.143938532112
  0
LINE
  5
5AF
330
567
100
AcDbEntity
  8
0
  6
Continuous
 62
     7
370
    15
100
AcDbLine
 10
2265.830910032581
 20
977.0970268681157
 30
0.0
 11
2265.830910032564
 21
974.0730535814082
 31
0.0
  0
LINE
  5
5B0
330
567
100
AcDbEntity
  8
0
  6
Continuous
 62
     7
370
    15
100
AcDbLine
 10
2265.017739274124
 20
977.5664603548003
 30
0.0
 11
2265.830910032581
 21
977.0970268681157
 31
0.0
  0
LINE
  5
5B1
330
567
100
AcDbEntity
  8
0
  6
Continuous
 62
     7
370
    15
100
AcDbLine
 10
2265.017739274124
 20
982.2344114822495
 30
0.0
 11
2265.017739274124
 21
977.5664603548003
 31
0.0
  0
LINE
  5
5B2
330
567
100
AcDbEntity
  8
0
  6
Continuous
 62
     7
370
    15
100
AcDbLine
 10
2283.296452623957
 20
966.4396368657209
 30
0.0
 11
2281.175132280397
 21
965.215024697987
 31
0.0
  0
LINE
  5
5B3
330
567
100
AcDbEntity
  8
0
  6
Continuous
 62
     7
370
    15
100
AcDbLine
 10
2283.296452623957
 20
966.4396368657209
 30
0.0
 11
2283.296452623957
 21
968.5247403530317
 31
0.0
  0
LINE
  5
5B4
330
567
100
AcDbEntity
  8
0
  6
Continuous
 62
     7
370
    15
100
AcDbLine
 10
2280.185177690668
 20
965.9253336255741
 30
0.0
 11
2279.937690317253
 21
966.8439652614566
 31
0.0
  0
LINE
  5
5B5
330
567
100
AcDbEntity
  8
0
  6
Continuous
 62
     7
370
    15
100
AcDbLine
 10
2279.937690317253
 20
966.8439652614566
 30
0.0
 11
2280.185177690668
 21
966.9868366810254
 31
0.0
  0
LINE
  5
5B6
330
567
100
AcDbEntity
  8
0
  6
Continuous
 62
     7
370
    15
100
AcDbLine
 10
2279.937690317253
 20
966.8439652614566
 30
0.0
 11
2278.169923364286
 21
967.8644754012347
 31
0.0
  0
LINE
  5
5B7
330
567
100
AcDbEntity
  8
0
  6
Continuous
 62
     7
370
    15
100
AcDbLine
 10
2278.417410737702
 20
966.9458437653524
 30
0.0
 11
2278.169923364286
 21
967.8644754012347
 31
0.0
  0
LINE
  5
5B8
330
567
100
AcDbEntity
  8
0
  6
Continuous
 62
     7
370
    15
100
AcDbLine
 10
2278.169923364286
 20
967.8644754012347
 30
0.0
 11
2278.417410737702
 21
968.0073468208037
 31
0.0
  0
LINE
  5
5B9
330
567
100
AcDbEntity
  8
0
  6
Continuous
 62
     7
370
    15
100
AcDbLine
 10
2281.071577559643
 20
964.9861095779415
 30
0.0
 11
2283.192897903203
 21
966.2107217456757
 31
0.0
  0
ARC
  5
5BA
330
567
100
AcDbEntity
  8
0
  6
Continuous
 62
     7
370
    15
100
AcDbCircle
 10
2283.046120933601
 20
966.4149996644034
 30
0.0
 40
0.2515411435236298
100
AcDbArc
 50
305.6978531816529
 51
5.620847597911478
  0
LINE
  5
5BB
330
567
100
AcDbEntity
  8
0
  6
Continuous
 62
     7
370
    15
100
AcDbLine
 10
2281.031198895549
 20
964.9627931283538
 30
0.0
 11
2283.152519239108
 21
966.1874052960879
 31
0.0
  0
LINE
  5
5BC
330
567
100
AcDbEntity
  8
0
  6
Continuous
 62
     7
370
    15
100
AcDbLine
 10
2283.192897903203
 20
966.2107217456757
 30
0.0
 11
2283.152519239108
 21
966.1874052960879
 31
0.0
  0
LINE
  5
5BD
330
567
100
AcDbEntity
  8
0
  6
Continuous
 62
     7
370
    15
100
AcDbLine
 10
2280.927644419617
 20
964.733882568076
 30
0.0
 11
2283.048964763176
 21
965.95849473581
 31
0.0
  0
ARC
  5
5BE
330
567
100
AcDbEntity
  8
0
  6
Continuous
 62
     7
370
    15
100
AcDbCircle
 10
2283.299292114311
 20
965.9831299880282
 30
0.0
 40
0.2515366342666213
100
AcDbArc
 50
125.6974427781179
 51
185.6205025697788
  0
LINE
  5
5BF
330
567
100
AcDbEntity
  8
0
  6
Continuous
 62
     7
370
    15
100
AcDbLine
 10
2283.048964763176
 20
964.3136802315352
 30
0.0
 11
2280.927644419617
 21
963.0890680638012
 31
0.0
  0
LINE
  5
5C0
330
567
100
AcDbEntity
  8
0
  6
Continuous
 62
     7
370
    15
100
AcDbLine
 10
2283.048964763176
 20
964.3136802315352
 30
0.0
 11
2283.048964763176
 21
965.95849473581
 31
0.0
  0
LINE
  5
5C1
330
567
100
AcDbEntity
  8
0
  6
Continuous
 62
     7
370
    15
100
AcDbLine
 10
2282.80147846872
 20
964.1707629900166
 30
0.0
 11
2280.68015812516
 21
962.9461508222826
 31
0.0
  0
LINE
  5
5C2
330
567
100
AcDbEntity
  8
0
  6
Continuous
 62
     7
370
    15
100
AcDbLine
 10
2283.048964763176
 20
964.3136802315352
 30
0.0
 11
2282.80147846872
 21
964.1707629900166
 31
0.0
  0
LINE
  5
5C3
330
567
100
AcDbEntity
  8
0
  6
Continuous
 62
     7
370
    15
100
AcDbLine
 10
2280.715530351047
 20
957.5044080675162
 30
0.0
 11
2280.681727263559
 21
957.4848939604791
 31
0.0
  0
ARC
  5
5C4
330
567
100
AcDbEntity
  8
0
  6
Continuous
 62
     7
370
    15
100
AcDbCircle
 10
2280.467087631211
 20
957.8927908613259
 30
0.0
 40
0.4610476977136937
100
AcDbArc
 50
302.6064450637532
 51
357.394682497903
  0
LINE
  5
5C5
330
567
100
AcDbEntity
  8
0
  6
Continuous
 62
     7
370
    15
100
AcDbLine
 10
2280.927658769481
 20
963.0890299029823
 30
0.0
 11
2280.927658769481
 21
957.8718336153482
 31
0.0
  0
LINE
  5
5C6
330
567
100
AcDbEntity
  8
0
  6
Continuous
 62
     7
370
    15
100
AcDbLine
 10
2281.917607411283
 20
958.4433148023858
 30
0.0
 11
2281.917607411283
 21
963.6605150894899
 31
0.0
  0
ARC
  5
5C7
330
567
100
AcDbEntity
  8
0
  6
Continuous
 62
     7
370
    15
100
AcDbCircle
 10
2282.046929856806
 20
958.4223367021799
 30
0.0
 40
0.1310128833526051
100
AcDbArc
 50
170.7859978946676
 51
309.2032503544571
  0
LINE
  5
5C8
330
567
100
AcDbEntity
  8
0
  6
Continuous
 62
     7
370
    15
100
AcDbLine
 10
2282.163542685071
 20
958.3403277948962
 30
0.0
 11
2282.129739597583
 21
958.3208136878591
 31
0.0
  0
ARC
  5
5C9
330
567
100
AcDbEntity
  8
0
  6
Continuous
 62
     7
370
    15
100
AcDbCircle
 10
2282.246352425847
 20
958.2388047805759
 30
0.0
 40
0.1310128833519845
100
AcDbArc
 50
350.7859978967214
 51
129.2032503546198
  0
LINE
  5
5CA
330
567
100
AcDbEntity
  8
0
  6
Continuous
 62
     7
370
    15
100
AcDbLine
 10
2282.375674871371
 20
958.2178266803747
 30
0.0
 11
2282.375676784267
 21
953.54360275422
 31
0.0
  0
LINE
  5
5CB
330
567
100
AcDbEntity
  8
0
  6
Continuous
 62
     7
370
    15
100
AcDbLine
 10
2282.375676784267
 20
953.54360275422
 30
0.0
 11
2280.469597263376
 21
952.4432463031104
 31
0.0
  0
LINE
  5
5CC
330
567
100
AcDbEntity
  8
0
  6
Continuous
 62
     7
370
    15
100
AcDbLine
 10
2280.469597263376
 20
952.4432463031104
 30
0.0
 11
2280.469595381148
 21
957.1174704124064
 31
0.0
  0
ARC
  5
5CD
330
567
100
AcDbEntity
  8
0
  6
Continuous
 62
     7
370
    15
100
AcDbCircle
 10
2280.930159940396
 20
957.0965125087589
 30
0.0
 40
0.4610411553866596
100
AcDbArc
 50
122.6054835579781
 51
177.394563685739
  0
LINE
  5
5CE
330
567
100
AcDbEntity
  8
0
  6
Continuous
 62
     7
370
    15
100
AcDbLine
 10
2278.806337725458
 20
959.0964749295151
 30
0.0
 11
2280.927658769481
 21
957.8718336153482
 31
0.0
  0
LINE
  5
5CF
330
567
100
AcDbEntity
  8
0
  6
Continuous
 62
     7
370
    15
100
AcDbLine
 10
2278.806337725458
 20
959.0964749295151
 30
0.0
 11
2278.80633754526
 21
964.0278844177121
 31
0.0
  0
LINE
  5
5D0
330
567
100
AcDbEntity
  8
0
  6
Continuous
 62
     7
370
    15
100
AcDbLine
 10
2274.139414711523
 20
970.1912385199296
 30
0.0
 11
2274.386902084938
 21
970.3341099394986
 31
0.0
  0
LINE
  5
5D1
330
567
100
AcDbEntity
  8
0
  6
Continuous
 62
     7
370
    15
100
AcDbLine
 10
2274.139414711523
 20
970.1912385199296
 30
0.0
 11
2272.371647758557
 21
971.211748659708
 31
0.0
  0
LINE
  5
5D2
330
567
100
AcDbEntity
  8
0
  6
Continuous
 62
     7
370
    15
100
AcDbLine
 10
2272.371647758557
 20
971.211748659708
 30
0.0
 11
2272.619135131972
 21
971.3546200792768
 31
0.0
  0
LINE
  5
5D3
330
567
100
AcDbEntity
  8
0
  6
Continuous
 62
     7
370
    15
100
AcDbLine
 10
2274.386902084938
 20
969.2726068840473
 30
0.0
 11
2274.139414711523
 21
970.1912385199296
 31
0.0
  0
LINE
  5
5D4
330
567
100
AcDbEntity
  8
0
  6
Continuous
 62
     7
370
    15
100
AcDbLine
 10
2272.619135131972
 20
970.2931170238255
 30
0.0
 11
2272.371647758557
 21
971.211748659708
 31
0.0
  0
LINE
  5
5D5
330
567
100
AcDbEntity
  8
0
  6
Continuous
 62
     7
370
    15
100
AcDbLine
 10
2275.27329698038
 20
968.3333892223737
 30
0.0
 11
2277.394617323939
 21
969.5580013901079
 31
0.0
  0
LWPOLYLINE
  5
5D6
330
567
100
AcDbEntity
  8
0
  6
Continuous
 62
     7
370
    15
100
AcDbPolyline
 90
        3
 70
   128
 43
0.0
 10
2277.394617323939
 20
969.5580013901079
 10
2277.417918087477
 20
969.5742371395407
 10
2277.427463238605
 20
969.5827730190126
  0
LINE
  5
5D7
330
567
100
AcDbEntity
  8
0
  6
Continuous
 62
     7
370
    15
100
AcDbLine
 10
2275.232918314063
 20
968.3100689364378
 30
0.0
 11
2277.354238657622
 21
969.5346811041719
 31
0.0
  0
LINE
  5
5D8
330
567
100
AcDbEntity
  8
0
  6
Continuous
 62
     7
370
    15
100
AcDbLine
 10
2277.394617323939
 20
969.5580013901079
 30
0.0
 11
2277.354238657622
 21
969.5346811041719
 31
0.0
  0
LINE
  5
5D9
330
567
100
AcDbEntity
  8
0
  6
Continuous
 62
     7
370
    15
100
AcDbLine
 10
2275.129365492715
 20
968.0811580724915
 30
0.0
 11
2277.250685836275
 21
969.3057702402256
 31
0.0
  0
ARC
  5
5DA
330
567
100
AcDbEntity
  8
0
  6
Continuous
 62
     7
370
    15
100
AcDbCircle
 10
2277.501016235037
 20
969.330405445662
 30
0.0
 40
0.2515396626604486
100
AcDbArc
 50
125.698266026523
 51
185.620423976801
  0
LINE
  5
5DB
330
567
100
AcDbEntity
  8
0
  6
Continuous
 62
     7
370
    15
100
AcDbLine
 10
2277.250685836275
 20
967.6609554072799
 30
0.0
 11
2275.129365492715
 21
966.4363432395459
 31
0.0
  0
LINE
  5
5DC
330
567
100
AcDbEntity
  8
0
  6
Continuous
 62
     7
370
    15
100
AcDbLine
 10
2277.250685836275
 20
967.6609554072799
 30
0.0
 11
2277.250685836275
 21
969.3057702402256
 31
0.0
  0
LINE
  5
5DD
330
567
100
AcDbEntity
  8
0
  6
Continuous
 62
     7
370
    15
100
AcDbLine
 10
2277.003199541819
 20
967.5180381657613
 30
0.0
 11
2274.881879198259
 21
966.2934259980273
 31
0.0
  0
LINE
  5
5DE
330
567
100
AcDbEntity
  8
0
  6
Continuous
 62
     7
370
    15
100
AcDbLine
 10
2277.250685836275
 20
967.6609554072799
 30
0.0
 11
2277.003199541819
 21
967.5180381657613
 31
0.0
  0
LINE
  5
5DF
330
567
100
AcDbEntity
  8
0
  6
Continuous
 62
     7
370
    15
100
AcDbLine
 10
2280.469595381148
 20
957.1174704124064
 30
0.0
 11
2278.34827060386
 21
958.3421138817948
 31
0.0
  0
LINE
  5
5E0
330
567
100
AcDbEntity
  8
0
  6
Continuous
 62
     7
370
    15
100
AcDbLine
 10
2280.681727263559
 20
957.4848939604791
 30
0.0
 11
2278.560402620915
 21
958.7095373521341
 31
0.0
  0
ARC
  5
5E1
330
567
100
AcDbEntity
  8
0
  6
Continuous
 62
     7
370
    15
100
AcDbCircle
 10
2278.808835403342
 20
958.3211556662424
 30
0.0
 40
0.4610414095501992
100
AcDbArc
 50
122.6054789306617
 51
177.394526321079
  0
LINE
  5
5E2
330
567
100
AcDbEntity
  8
0
  6
Continuous
 62
     7
370
    15
100
AcDbLine
 10
2280.715530351047
 20
957.5044080675162
 30
0.0
 11
2278.594205708403
 21
958.7290514591714
 31
0.0
  0
ARC
  5
5E3
330
567
100
AcDbEntity
  8
0
  6
Continuous
 62
     7
370
    15
100
AcDbCircle
 10
2278.345772925978
 20
959.1174331450629
 30
0.0
 40
0.4610414095494697
100
AcDbArc
 50
302.6054789305967
 51
357.3945263216529
  0
LINE
  5
5E4
330
567
100
AcDbEntity
  8
0
  6
Continuous
 62
     7
370
    15
100
AcDbLine
 10
2279.075311410901
 20
951.2067781269321
 30
0.0
 11
2279.742554404862
 21
950.8215869455433
 31
0.0
  0
ARC
  5
5E5
330
567
100
AcDbEntity
  8
0
  6
Continuous
 62
     7
370
    15
100
AcDbCircle
 10
2279.670087412746
 20
952.1259238169866
 30
0.0
 40
1.0948001150511
100
AcDbArc
 50
188.6903853336106
 51
237.0932335995496
  0
LINE
  5
5E6
330
567
100
AcDbEntity
  8
0
  6
Continuous
 62
     7
370
    15
100
AcDbLine
 10
2278.348270933988
 20
953.6678619263875
 30
0.0
 11
2278.58785641798
 21
951.9605050578169
 31
0.0
  0
LINE
  5
5E7
330
567
100
AcDbEntity
  8
0
  6
Continuous
 62
     7
370
    15
100
AcDbLine
 10
2280.230009397783
 20
951.0125103212121
 30
0.0
 11
2280.469597263376
 21
952.4432463031104
 31
0.0
  0
LWPOLYLINE
  5
5E8
330
567
100
AcDbEntity
  8
0
  6
Continuous
 62
     7
370
    15
100
AcDbPolyline
 90
        9
 70
   128
 43
0.0
 10
2280.230009397783
 20
951.0125103212121
 10
2280.207678564497
 20
950.9291638030916
 10
2280.171215163183
 20
950.8599157479446
 10
2280.121727116293
 20
950.8068702237491
 10
2280.060718093707
 20
950.7716389925775
 10
2279.990041824466
 20
950.7552925380004
 10
2279.911845772127
 20
950.758327538972
 10
2279.828505885148
 20
950.780651778486
 10
2279.742554404862
 20
950.8215869455433
  0
LINE
  5
5E9
330
567
100
AcDbEntity
  8
0
  6
Continuous
 62
     7
370
    15
100
AcDbLine
 10
2278.34827060386
 20
958.3421138817948
 30
0.0
 11
2278.348270933988
 21
953.6678619263875
 31
0.0
  0
LINE
  5
5EA
330
567
100
AcDbEntity
  8
0
  6
Continuous
 62
     7
370
    15
100
AcDbLine
 10
2278.560402620915
 20
958.7095373521341
 30
0.0
 11
2278.594205708403
 21
958.7290514591714
 31
0.0
  0
LINE
  5
5EB
330
567
100
AcDbEntity
  8
0
  6
Continuous
 62
     7
370
    15
100
AcDbLine
 10
2274.88345165783
 20
960.832167218952
 30
0.0
 11
2274.917254745318
 21
960.8516813259891
 31
0.0
  0
ARC
  5
5EC
330
567
100
AcDbEntity
  8
0
  6
Continuous
 62
     7
370
    15
100
AcDbCircle
 10
2274.668812025479
 20
961.2400641197993
 30
0.0
 40
0.4610476977150551
100
AcDbArc
 50
302.6064450639375
 51
357.3946824978965
  0
LINE
  5
5ED
330
567
100
AcDbEntity
  8
0
  6
Continuous
 62
     7
370
    15
100
AcDbLine
 10
2275.129383163752
 20
966.4363069959986
 30
0.0
 11
2275.129383163752
 21
961.2191068738214
 31
0.0
  0
LINE
  5
5EE
330
567
100
AcDbEntity
  8
0
  6
Continuous
 62
     7
370
    15
100
AcDbLine
 10
2276.119331805553
 20
961.790588060859
 30
0.0
 11
2276.119331805553
 21
967.0077921825061
 31
0.0
  0
ARC
  5
5EF
330
567
100
AcDbEntity
  8
0
  6
Continuous
 62
     7
370
    15
100
AcDbCircle
 10
2276.248654251076
 20
961.7696099606533
 30
0.0
 40
0.1310128833528203
100
AcDbArc
 50
170.7859978947746
 51
309.2032503543797
  0
LINE
  5
5F0
330
567
100
AcDbEntity
  8
0
  6
Continuous
 62
     7
370
    15
100
AcDbLine
 10
2276.365267079341
 20
961.6876010533692
 30
0.0
 11
2276.331463991853
 21
961.6680869463321
 31
0.0
  0
ARC
  5
5F1
330
567
100
AcDbEntity
  8
0
  6
Continuous
 62
     7
370
    15
100
AcDbCircle
 10
2276.448076820118
 20
961.5860780390491
 30
0.0
 40
0.131012883351961
100
AcDbArc
 50
350.7859978967021
 51
129.2032503546524
  0
LINE
  5
5F2
330
567
100
AcDbEntity
  8
0
  6
Continuous
 62
     7
370
    15
100
AcDbLine
 10
2276.577399265641
 20
961.5650999388478
 30
0.0
 11
2276.577401147869
 21
956.8908758295473
 31
0.0
  0
LINE
  5
5F3
330
567
100
AcDbEntity
  8
0
  6
Continuous
 62
     7
370
    15
100
AcDbLine
 10
2276.577401147869
 20
956.8908758295473
 30
0.0
 11
2274.671321657646
 21
955.7905195615832
 31
0.0
  0
LINE
  5
5F4
330
567
100
AcDbEntity
  8
0
  6
Continuous
 62
     7
370
    15
100
AcDbLine
 10
2274.671321657646
 20
955.7905195615832
 30
0.0
 11
2274.671319775419
 21
960.4647436708795
 31
0.0
  0
ARC
  5
5F5
330
567
100
AcDbEntity
  8
0
  6
Continuous
 62
     7
370
    15
100
AcDbCircle
 10
2275.131884334665
 20
960.4437857672323
 30
0.0
 40
0.461041155385863
100
AcDbArc
 50
122.6054835579421
 51
177.3945636857976
  0
LINE
  5
5F6
330
567
100
AcDbEntity
  8
0
  6
Continuous
 62
     7
370
    15
100
AcDbLine
 10
2273.008062119728
 20
962.4437481879882
 30
0.0
 11
2275.129383163752
 21
961.2191068738214
 31
0.0
  0
LINE
  5
5F7
330
567
100
AcDbEntity
  8
0
  6
Continuous
 62
     7
370
    15
100
AcDbLine
 10
2273.008062119728
 20
962.4437481879882
 30
0.0
 11
2273.008062003632
 21
967.3751576391801
 31
0.0
  0
LINE
  5
5F8
330
567
100
AcDbEntity
  8
0
  6
Continuous
 62
     7
370
    15
100
AcDbLine
 10
2268.341139105793
 20
973.5385117784026
 30
0.0
 11
2266.573372152827
 21
974.559021918181
 31
0.0
  0
LINE
  5
5F9
330
567
100
AcDbEntity
  8
0
  6
Continuous
 62
     7
370
    15
100
AcDbLine
 10
2268.588626479209
 20
972.6198801425203
 30
0.0
 11
2268.341139105793
 21
973.5385117784026
 31
0.0
  0
LINE
  5
5FA
330
567
100
AcDbEntity
  8
0
  6
Continuous
 62
     7
370
    15
100
AcDbLine
 10
2266.820859526243
 20
973.6403902822987
 30
0.0
 11
2266.573372152827
 21
974.559021918181
 31
0.0
  0
LINE
  5
5FB
330
567
100
AcDbEntity
  8
0
  6
Continuous
 62
     7
370
    15
100
AcDbLine
 10
2268.341139105793
 20
973.5385117784026
 30
0.0
 11
2268.588626479209
 21
973.6813831979716
 31
0.0
  0
LINE
  5
5FC
330
567
100
AcDbEntity
  8
0
  6
Continuous
 62
     7
370
    15
100
AcDbLine
 10
2266.573372152827
 20
974.559021918181
 30
0.0
 11
2266.820859526243
 21
974.70189333775
 31
0.0
  0
LINE
  5
5FD
330
567
100
AcDbEntity
  8
0
  6
Continuous
 62
     7
370
    15
100
AcDbLine
 10
2269.47502137465
 20
971.6806624808468
 30
0.0
 11
2271.59634171821
 21
972.9052746485809
 31
0.0
  0
LWPOLYLINE
  5
5FE
330
567
100
AcDbEntity
  8
0
  6
Continuous
 62
     7
370
    15
100
AcDbPolyline
 90
        3
 70
   128
 43
0.0
 10
2271.59634171821
 20
972.9052746485809
 10
2271.619642481747
 20
972.9215103980138
 10
2271.62918563831
 20
972.9300443578788
  0
LINE
  5
5FF
330
567
100
AcDbEntity
  8
0
  6
Continuous
 62
     7
370
    15
100
AcDbLine
 10
2269.434642708333
 20
971.657342194911
 30
0.0
 11
2271.555963051893
 21
972.881954362645
 31
0.0
  0
LINE
  5
600
330
567
100
AcDbEntity
  8
0
  6
Continuous
 62
     7
370
    15
100
AcDbLine
 10
2271.59634171821
 20
972.9052746485809
 30
0.0
 11
2271.555963051893
 21
972.881954362645
 31
0.0
  0
LINE
  5
601
330
567
100
AcDbEntity
  8
0
  6
Continuous
 62
     7
370
    15
100
AcDbLine
 10
2269.331089886986
 20
971.4284313309647
 30
0.0
 11
2271.452410230545
 21
972.6530434986988
 31
0.0
  0
ARC
  5
602
330
567
100
AcDbEntity
  8
0
  6
Continuous
 62
     7
370
    15
100
AcDbCircle
 10
2271.702740629307
 20
972.6776787041352
 30
0.0
 40
0.2515396626603948
100
AcDbArc
 50
125.698266026523
 51
185.6204239768075
  0
LINE
  5
603
330
567
100
AcDbEntity
  8
0
  6
Continuous
 62
     7
370
    15
100
AcDbLine
 10
2271.452410230545
 20
971.0082286657529
 30
0.0
 11
2269.331089886986
 21
969.783616498019
 31
0.0
  0
LINE
  5
604
330
567
100
AcDbEntity
  8
0
  6
Continuous
 62
     7
370
    15
100
AcDbLine
 10
2271.452410230545
 20
971.0082286657529
 30
0.0
 11
2271.452410230545
 21
972.6530434986988
 31
0.0
  0
LINE
  5
605
330
567
100
AcDbEntity
  8
0
  6
Continuous
 62
     7
370
    15
100
AcDbLine
 10
2282.136088888006
 20
952.112866589176
 30
0.0
 11
2280.230009397783
 21
951.0125103212121
 31
0.0
  0
LINE
  5
606
330
567
100
AcDbEntity
  8
0
  6
Continuous
 62
     7
370
    15
100
AcDbLine
 10
2282.375676784267
 20
953.54360275422
 30
0.0
 11
2282.136088888006
 21
952.112866589176
 31
0.0
  0
LINE
  5
607
330
567
100
AcDbEntity
  8
0
  6
Continuous
 62
     7
370
    15
100
AcDbLine
 10
2271.204923936089
 20
970.8653114242343
 30
0.0
 11
2269.083603592529
 21
969.6406992565002
 31
0.0
  0
LINE
  5
608
330
567
100
AcDbEntity
  8
0
  6
Continuous
 62
     7
370
    15
100
AcDbLine
 10
2271.452410230545
 20
971.0082286657529
 30
0.0
 11
2271.204923936089
 21
970.8653114242343
 31
0.0
  0
LINE
  5
609
330
567
100
AcDbEntity
  8
0
  6
Continuous
 62
     7
370
    15
100
AcDbLine
 10
2274.671319775419
 20
960.4647436708795
 30
0.0
 11
2272.549994998131
 21
961.6893871402679
 31
0.0
  0
LINE
  5
60A
330
567
100
AcDbEntity
  8
0
  6
Continuous
 62
     7
370
    15
100
AcDbLine
 10
2274.88345165783
 20
960.832167218952
 30
0.0
 11
2272.762127015186
 21
962.0568106106073
 31
0.0
  0
ARC
  5
60B
330
567
100
AcDbEntity
  8
0
  6
Continuous
 62
     7
370
    15
100
AcDbCircle
 10
2273.010559797613
 20
961.668428924715
 30
0.0
 40
0.4610414095509375
100
AcDbArc
 50
122.6054789306942
 51
177.394526321027
  0
LINE
  5
60C
330
567
100
AcDbEntity
  8
0
  6
Continuous
 62
     7
370
    15
100
AcDbLine
 10
2274.917254745318
 20
960.8516813259891
 30
0.0
 11
2272.795930102673
 21
962.0763247176444
 31
0.0
  0
ARC
  5
60D
330
567
100
AcDbEntity
  8
0
  6
Continuous
 62
     7
370
    15
100
AcDbCircle
 10
2272.547497320248
 20
962.4647064035361
 30
0.0
 40
0.4610414095499164
100
AcDbArc
 50
302.6054789306293
 51
357.3945263216399
  0
ARC
  5
60E
330
567
100
AcDbEntity
  8
0
  6
Continuous
 62
     7
370
    15
100
AcDbCircle
 10
2281.835087553096
 20
952.141632142867
 30
0.0
 40
0.3023727181751461
100
AcDbArc
 50
302.7369283051129
 51
354.5410385237162
  0
LINE
  5
60F
330
567
100
AcDbEntity
  8
0
  6
Continuous
 62
     7
370
    15
100
AcDbLine
 10
2273.277035805171
 20
954.5540513854053
 30
0.0
 11
2273.944278799132
 21
954.1688602040165
 31
0.0
  0
ARC
  5
610
330
567
100
AcDbEntity
  8
0
  6
Continuous
 62
     7
370
    15
100
AcDbCircle
 10
2273.871811807016
 20
955.4731970754598
 30
0.0
 40
1.09480011505137
100
AcDbArc
 50
188.6903853336106
 51
237.0932335995496
  0
LINE
  5
611
330
567
100
AcDbEntity
  8
0
  6
Continuous
 62
     7
370
    15
100
AcDbLine
 10
2272.549995328258
 20
957.0151351848606
 30
0.0
 11
2272.789580812251
 21
955.3077783162901
 31
0.0
  0
LINE
  5
612
330
567
100
AcDbEntity
  8
0
  6
Continuous
 62
     7
370
    15
100
AcDbLine
 10
2274.431733792053
 20
954.3597835796854
 30
0.0
 11
2274.671321657646
 21
955.7905195615832
 31
0.0
  0
LWPOLYLINE
  5
613
330
567
100
AcDbEntity
  8
0
  6
Continuous
 62
     7
370
    15
100
AcDbPolyline
 90
        9
 70
   128
 43
0.0
 10
2274.431733792053
 20
954.3597835796854
 10
2274.409402958767
 20
954.2764370615648
 10
2274.372939557453
 20
954.2071890064176
 10
2274.323451510563
 20
954.1541434822223
 10
2274.262442487978
 20
954.1189122510507
 10
2274.191766218736
 20
954.1025657964734
 10
2274.113570166397
 20
954.105600797445
 10
2274.030230279418
 20
954.1279250369592
 10
2273.944278799132
 20
954.1688602040165
  0
LINE
  5
614
330
567
100
AcDbEntity
  8
0
  6
Continuous
 62
     7
370
    15
100
AcDbLine
 10
2272.549994998131
 20
961.6893871402679
 30
0.0
 11
2272.549995328258
 21
957.0151351848606
 31
0.0
  0
LINE
  5
615
330
567
100
AcDbEntity
  8
0
  6
Continuous
 62
     7
370
    15
100
AcDbLine
 10
2272.762127015186
 20
962.0568106106073
 30
0.0
 11
2272.795930102673
 21
962.0763247176444
 31
0.0
  0
LINE
  5
616
330
567
100
AcDbEntity
  8
0
  6
Continuous
 62
     7
370
    15
100
AcDbLine
 10
2269.085176052101
 20
964.1794404774252
 30
0.0
 11
2269.118979139588
 21
964.1989545844623
 31
0.0
  0
ARC
  5
617
330
567
100
AcDbEntity
  8
0
  6
Continuous
 62
     7
370
    15
100
AcDbCircle
 10
2268.87053641975
 20
964.5873373782722
 30
0.0
 40
0.4610476977147736
100
AcDbArc
 50
302.6064450639085
 51
357.3946824979095
  0
LINE
  5
618
330
567
100
AcDbEntity
  8
0
  6
Continuous
 62
     7
370
    15
100
AcDbLine
 10
2269.331107558022
 20
969.7835802544718
 30
0.0
 11
2269.331107558022
 21
964.5663801322944
 31
0.0
  0
LINE
  5
619
330
567
100
AcDbEntity
  8
0
  6
Continuous
 62
     7
370
    15
100
AcDbLine
 10
2270.321056199823
 20
965.1378613193321
 30
0.0
 11
2270.321056199823
 21
970.3550654409793
 31
0.0
  0
ARC
  5
61A
330
567
100
AcDbEntity
  8
0
  6
Continuous
 62
     7
370
    15
100
AcDbCircle
 10
2270.450378645346
 20
965.1168832191263
 30
0.0
 40
0.1310128833528484
100
AcDbArc
 50
170.7859978947746
 51
309.2032503543229
  0
LINE
  5
61B
330
567
100
AcDbEntity
  8
0
  6
Continuous
 62
     7
370
    15
100
AcDbLine
 10
2270.566991473611
 20
965.0348743118422
 30
0.0
 11
2270.533188386124
 21
965.0153602048051
 31
0.0
  0
ARC
  5
61C
330
567
100
AcDbEntity
  8
0
  6
Continuous
 62
     7
370
    15
100
AcDbCircle
 10
2270.649801214389
 20
964.9333512975221
 30
0.0
 40
0.1310128833519845
100
AcDbArc
 50
350.7859978967214
 51
129.2032503546198
  0
LINE
  5
61D
330
567
100
AcDbEntity
  8
0
  6
Continuous
 62
     7
370
    15
100
AcDbLine
 10
2270.779123659912
 20
964.9123731973208
 30
0.0
 11
2270.779125542139
 21
960.2381490880203
 31
0.0
  0
LINE
  5
61E
330
567
100
AcDbEntity
  8
0
  6
Continuous
 62
     7
370
    15
100
AcDbLine
 10
2270.779125542139
 20
960.2381490880203
 30
0.0
 11
2268.873046051917
 21
959.1377928200564
 31
0.0
  0
LINE
  5
61F
330
567
100
AcDbEntity
  8
0
  6
Continuous
 62
     7
370
    15
100
AcDbLine
 10
2268.873046051917
 20
959.1377928200564
 30
0.0
 11
2268.873044169689
 21
963.8120169293525
 31
0.0
  0
ARC
  5
620
330
567
100
AcDbEntity
  8
0
  6
Continuous
 62
     7
370
    15
100
AcDbCircle
 10
2269.333608728936
 20
963.7910590257055
 30
0.0
 40
0.4610411553856804
100
AcDbArc
 50
122.6054835579166
 51
177.3945636858106
  0
LINE
  5
621
330
567
100
AcDbEntity
  8
0
  6
Continuous
 62
     7
370
    15
100
AcDbLine
 10
2267.209786513999
 20
965.7910214464614
 30
0.0
 11
2269.331107558022
 21
964.5663801322944
 31
0.0
  0
LINE
  5
622
330
567
100
AcDbEntity
  8
0
  6
Continuous
 62
     7
370
    15
100
AcDbLine
 10
2267.209786513999
 20
965.7910214464614
 30
0.0
 11
2267.209786397903
 21
970.7224308976531
 31
0.0
  0
LINE
  5
623
330
567
100
AcDbEntity
  8
0
  6
Continuous
 62
     7
370
    15
100
AcDbLine
 10
2276.337813282276
 20
955.460139847649
 30
0.0
 11
2274.431733792053
 21
954.3597835796854
 31
0.0
  0
LINE
  5
624
330
567
100
AcDbEntity
  8
0
  6
Continuous
 62
     7
370
    15
100
AcDbLine
 10
2276.577401147869
 20
956.8908758295473
 30
0.0
 11
2276.337813282276
 21
955.460139847649
 31
0.0
  0
LINE
  5
625
330
567
100
AcDbEntity
  8
0
  6
Continuous
 62
     7
370
    15
100
AcDbLine
 10
2268.873044169689
 20
963.8120169293525
 30
0.0
 11
2266.751719392401
 21
965.0366603987411
 31
0.0
  0
LINE
  5
626
330
567
100
AcDbEntity
  8
0
  6
Continuous
 62
     7
370
    15
100
AcDbLine
 10
2269.085176052101
 20
964.1794404774252
 30
0.0
 11
2266.963851409457
 21
965.4040838690804
 31
0.0
  0
ARC
  5
627
330
567
100
AcDbEntity
  8
0
  6
Continuous
 62
     7
370
    15
100
AcDbCircle
 10
2267.212284191883
 20
965.0157021831883
 30
0.0
 40
0.4610414095507182
100
AcDbArc
 50
122.6054789306872
 51
177.3945263210335
  0
LINE
  5
628
330
567
100
AcDbEntity
  8
0
  6
Continuous
 62
     7
370
    15
100
AcDbLine
 10
2269.118979139588
 20
964.1989545844623
 30
0.0
 11
2266.997654496944
 21
965.4235979761176
 31
0.0
  0
ARC
  5
629
330
567
100
AcDbEntity
  8
0
  6
Continuous
 62
     7
370
    15
100
AcDbCircle
 10
2266.749221714518
 20
965.8119796620095
 30
0.0
 40
0.4610414095503565
100
AcDbArc
 50
302.6054789306617
 51
357.3945263216008
  0
ARC
  5
62A
330
567
100
AcDbEntity
  8
0
  6
Continuous
 62
     7
370
    15
100
AcDbCircle
 10
2276.036811947364
 20
955.4889054013415
 30
0.0
 40
0.3023727181774532
100
AcDbArc
 50
302.7369283053297
 51
354.5410385235022
  0
LINE
  5
62B
330
567
100
AcDbEntity
  8
0
  6
Continuous
 62
     7
370
    15
100
AcDbLine
 10
2267.478760199442
 20
957.9013246438783
 30
0.0
 11
2268.146003193403
 21
957.5161334624894
 31
0.0
  0
ARC
  5
62C
330
567
100
AcDbEntity
  8
0
  6
Continuous
 62
     7
370
    15
100
AcDbCircle
 10
2268.073536201287
 20
958.8204703339334
 30
0.0
 40
1.094800115051944
100
AcDbArc
 50
188.6903853336299
 51
237.0932335995461
  0
LINE
  5
62D
330
567
100
AcDbEntity
  8
0
  6
Continuous
 62
     7
370
    15
100
AcDbLine
 10
2266.751719722529
 20
960.3624084433336
 30
0.0
 11
2266.991305206521
 21
958.6550515747632
 31
0.0
  0
LINE
  5
62E
330
567
100
AcDbEntity
  8
0
  6
Continuous
 62
     7
370
    15
100
AcDbLine
 10
2268.633458186323
 20
957.7070568381584
 30
0.0
 11
2268.873046051917
 21
959.1377928200564
 31
0.0
  0
LWPOLYLINE
  5
62F
330
567
100
AcDbEntity
  8
0
  6
Continuous
 62
     7
370
    15
100
AcDbPolyline
 90
        9
 70
   128
 43
0.0
 10
2268.633458186323
 20
957.7070568381584
 10
2268.611127353037
 20
957.6237103200378
 10
2268.574663951723
 20
957.5544622648909
 10
2268.525175904834
 20
957.5014167406953
 10
2268.464166882248
 20
957.4661855095238
 10
2268.393490613006
 20
957.4498390549464
 10
2268.315294560668
 20
957.4528740559182
 10
2268.231954673689
 20
957.4751982954323
 10
2268.146003193403
 20
957.5161334624894
  0
LINE
  5
630
330
567
100
AcDbEntity
  8
0
  6
Continuous
 62
     7
370
    15
100
AcDbLine
 10
2266.751719392401
 20
965.0366603987411
 30
0.0
 11
2266.751719722529
 21
960.3624084433336
 31
0.0
  0
LINE
  5
631
330
567
100
AcDbEntity
  8
0
  6
Continuous
 62
     7
370
    15
100
AcDbLine
 10
2266.963851409457
 20
965.4040838690804
 30
0.0
 11
2266.997654496944
 21
965.4235979761176
 31
0.0
  0
LINE
  5
632
330
567
100
AcDbEntity
  8
0
  6
Continuous
 62
     7
370
    15
100
AcDbLine
 10
2270.539537676546
 20
958.8074131061222
 30
0.0
 11
2268.633458186323
 21
957.7070568381584
 31
0.0
  0
LINE
  5
633
330
567
100
AcDbEntity
  8
0
  6
Continuous
 62
     7
370
    15
100
AcDbLine
 10
2270.779125542139
 20
960.2381490880203
 30
0.0
 11
2270.539537676546
 21
958.8074131061222
 31
0.0
  0
ARC
  5
634
330
567
100
AcDbEntity
  8
0
  6
Continuous
 62
     7
370
    15
100
AcDbCircle
 10
2270.238536341635
 20
958.8361786598147
 30
0.0
 40
0.302372718177635
100
AcDbArc
 50
302.7369283053552
 51
354.5410385234762
  0
LINE
  5
635
330
567
100
AcDbEntity
  8
0
  6
Continuous
 62
     8
370
    15
100
AcDbLine
 10
2277.427463503658
 20
969.7460959822358
 30
0.0
 11
2275.376850863114
 21
968.5623025026023
 31
0.0
  0
LINE
  5
636
330
567
100
AcDbEntity
  8
0
  6
Continuous
 62
     8
370
    15
100
AcDbLine
 10
2271.629185638307
 20
973.0933679362571
 30
0.0
 11
2269.578575257384
 21
971.9095757610753
 31
0.0
  0
LINE
  5
637
330
567
100
AcDbEntity
  8
0
  6
Continuous
 62
     8
370
    15
100
AcDbLine
 10
2281.917607413717
 20
958.4432778651498
 30
0.0
 11
2282.129739597583
 21
958.3208136878591
 31
0.0
  0
LINE
  5
638
330
567
100
AcDbEntity
  8
0
  6
Continuous
 62
     8
370
    15
100
AcDbLine
 10
2281.917607411283
 20
958.4823065386324
 30
0.0
 11
2282.163542685071
 21
958.3403277948962
 31
0.0
  0
LINE
  5
639
330
567
100
AcDbEntity
  8
0
  6
Continuous
 62
     8
370
    15
100
AcDbLine
 10
2276.119331807988
 20
961.790551123623
 30
0.0
 11
2276.331463991853
 21
961.6680869463321
 31
0.0
  0
LINE
  5
63A
330
567
100
AcDbEntity
  8
0
  6
Continuous
 62
     8
370
    15
100
AcDbLine
 10
2276.119331805553
 20
961.8295797971056
 30
0.0
 11
2276.365267079341
 21
961.6876010533692
 31
0.0
  0
LINE
  5
63B
330
567
100
AcDbEntity
  8
0
  6
Continuous
 62
     8
370
    15
100
AcDbLine
 10
2270.321056202258
 20
965.137824382096
 30
0.0
 11
2270.533188386124
 21
965.0153602048051
 31
0.0
  0
LINE
  5
63C
330
567
100
AcDbEntity
  8
0
  6
Continuous
 62
     8
370
    15
100
AcDbLine
 10
2270.321056199823
 20
965.1768530555788
 30
0.0
 11
2270.566991473611
 21
965.0348743118422
 31
0.0
  0
ENDBLK
  5
569
330
567
100
AcDbEntity
  8
0
100
AcDbBlockEnd
  0
ENDSEC
  0
SECTION
  2
ENTITIES
  0
INSERT
  5
51F
330
1F
100
AcDbEntity
  8
0
100
AcDbBlockReference
  2
1
 10
0.0
 20
0.0
 30
0.0
  0
INSERT
  5
55E
330
1F
100
AcDbEntity
  8
0
100
AcDbBlockReference
  2
2
 10
0.0
 20
0.0
 30
0.0
  0
INSERT
  5
566
330
1F
100
AcDbEntity
  8
0
100
AcDbBlockReference
  2
3
 10
0.0
 20
0.0
 30
0.0
  0
INSERT
  5
63D
330
1F
100
AcDbEntity
  8
0
100
AcDbBlockReference
  2
4
 10
0.0
 20
0.0
 30
0.0
  0
ENDSEC
  0
SECTION
  2
OBJECTS
  0
DICTIONARY
  5
C
330
0
100
AcDbDictionary
281
     1
  3
ACAD_COLOR
350
6B
  3
ACAD_GROUP
350
D
  3
ACAD_LAYOUT
350
1A
  3
ACAD_MATERIAL
350
6A
  3
ACAD_MLEADERSTYLE
350
12D
  3
ACAD_MLINESTYLE
350
17
  3
ACAD_PLOTSETTINGS
350
19
  3
ACAD_PLOTSTYLENAME
350
E
  3
ACAD_SCALELIST
350
10C
  3
ACAD_TABLESTYLE
350
7E
  3
ACAD_VISUALSTYLE
350
EF
  3
ACDB_RECOMPOSE_DATA
350
15D
  3
AcDbVariableDictionary
350
5E
  3
DWGPROPS
350
64B
  0
DICTIONARY
  5
13C
330
10
100
AcDbDictionary
280
     1
281
     1
  3
ADSK_XREC_LAYER_RECONCILED
360
63E
  0
DICTIONARY
  5
6B
102
{ACAD_REACTORS
330
C
102
}
330
C
100
AcDbDictionary
281
     1
  0
DICTIONARY
  5
D
102
{ACAD_REACTORS
330
C
102
}
330
C
100
AcDbDictionary
281
     1
  0
DICTIONARY
  5
1A
102
{ACAD_REACTORS
330
C
102
}
330
C
100
AcDbDictionary
281
     1
  3
Layout1
350
D3
  3
Layout2
350
D7
  3
Model
350
22
  0
DICTIONARY
  5
6A
102
{ACAD_REACTORS
330
C
102
}
330
C
100
AcDbDictionary
281
     1
  3
ByBlock
350
ED
  3
ByLayer
350
EC
  3
Global
350
EE
  0
DICTIONARY
  5
12D
102
{ACAD_REACTORS
330
C
102
}
330
C
100
AcDbDictionary
281
     1
  3
Annotative
350
13B
  3
Standard
350
12E
  0
DICTIONARY
  5
17
102
{ACAD_REACTORS
330
C
102
}
330
C
100
AcDbDictionary
281
     1
  3
Standard
350
18
  0
DICTIONARY
  5
19
102
{ACAD_REACTORS
330
C
102
}
330
C
100
AcDbDictionary
281
     1
  0
ACDBDICTIONARYWDFLT
  5
E
102
{ACAD_REACTORS
330
C
102
}
330
C
100
AcDbDictionary
281
     1
  3
Normal
350
F
100
AcDbDictionaryWithDefault
340
F
  0
DICTIONARY
  5
10C
102
{ACAD_REACTORS
330
C
102
}
330
C
100
AcDbDictionary
281
     1
  3
A0
350
10D
  3
A1
350
188
  3
A2
350
189
  3
A3
350
18A
  3
A4
350
18B
  3
A5
350
18C
  3
A6
350
18D
  3
A7
350
18E
  3
A8
350
18F
  3
A9
350
190
  3
B0
350
191
  3
B1
350
192
  3
B2
350
193
  3
B3
350
194
  3
B4
350
195
  3
B5
350
196
  3
B6
350
197
  3
B7
350
198
  3
B8
350
199
  3
B9
350
19A
  3
C0
350
19B
  3
C1
350
19C
  3
C2
350
19D
  3
C3
350
19E
  3
C4
350
19F
  3
C5
350
1A0
  3
C6
350
1A1
  3
C7
350
1A2
  3
C8
350
1A3
  3
C9
350
1A4
  3
D0
350
1A5
  3
D1
350
1A6
  3
D2
350
1A7
  0
DICTIONARY
  5
7E
102
{ACAD_REACTORS
330
C
102
}
330
C
100
AcDbDictionary
281
     1
  3
Standard
350
7F
  0
DICTIONARY
  5
EF
102
{ACAD_REACTORS
330
C
102
}
330
C
100
AcDbDictionary
281
     1
  3
2dWireframe
350
F5
  3
3D Hidden
350
F7
  3
3dWireframe
350
F6
  3
Basic
350
F4
  3
Brighten
350
FB
  3
ColorChange
350
FF
  3
Conceptual
350
F8
  3
Dim
350
FA
  3
Facepattern
350
FE
  3
Flat
350
F0
  3
FlatWithEdges
350
F1
  3
Gouraud
350
F2
  3
GouraudWithEdges
350
F3
  3
Linepattern
350
FD
  3
Realistic
350
F9
  3
Thicken
350
FC
  0
XRECORD
  5
15D
102
{ACAD_REACTORS
330
C
102
}
330
C
100
AcDbXrecord
280
     1
 90
        1
330
7F
  0
DICTIONARY
  5
5E
102
{ACAD_REACTORS
330
C
102
}
330
C
100
AcDbDictionary
281
     1
  3
CANNOSCALE
350
146
  3
CMLEADERSTYLE
350
145
  3
CTABLESTYLE
350
84
  3
DIMASSOC
350
5F
  3
HIDETEXT
350
63
  3
INDEXCTL
350
647
  3
LIGHTINGUNITS
350
645
  3
MSLTSCALE
350
644
  3
PSOLHEIGHT
350
649
  3
PSOLWIDTH
350
648
  3
SORTENTS
350
646
  0
XRECORD
  5
64B
102
{ACAD_REACTORS
330
C
102
}
330
C
100
AcDbXrecord
280
     1
  1
DWGPROPS COOKIE
  2

  3

  4

  6

  7

  8
orhan kara
  9

300
=
301
=
302
=
303
=
304
=
305
=
306
=
307
=
308
=
309
=
 40
0.0003168287037037
 41
2458933.648311875
 42
2458956.448307882
  1

 90
        0
  0
XRECORD
  5
63E
102
{ACAD_REACTORS
330
13C
102
}
330
13C
100
AcDbXrecord
280
     1
290
     1
  0
LAYOUT
  5
D3
102
{ACAD_XDICTIONARY
360
64F
102
}
102
{ACAD_REACTORS
330
1A
102
}
330
1A
100
AcDbPlotSettings
  1

  2
C:\Documents and Settings\basas\Application Data\Autodesk\AutoCAD 2005\R16.1\enu\plotters\Default Windows System Printer.pc3
  4

  6

 40
0.0
 41
0.0
 42
0.0
 43
0.0
 44
0.0
 45
0.0
 46
0.0
 47
0.0
 48
0.0
 49
0.0
140
0.0
141
0.0
142
1.0
143
1.0
 70
   688
 72
     0
 73
     0
 74
     5
  7

 75
    16
147
1.0
148
0.0
149
0.0
100
AcDbLayout
  1
Layout1
 70
     1
 71
     1
 10
0.0
 20
0.0
 11
12.0
 21
9.0
 12
0.0
 22
0.0
 32
0.0
 14
0.0
 24
0.0
 34
0.0
 15
0.0
 25
0.0
 35
0.0
146
0.0
 13
0.0
 23
0.0
 33
0.0
 16
1.0
 26
0.0
 36
0.0
 17
0.0
 27
1.0
 37
0.0
 76
     0
330
D2
  0
LAYOUT
  5
D7
102
{ACAD_XDICTIONARY
360
651
102
}
102
{ACAD_REACTORS
330
1A
102
}
330
1A
100
AcDbPlotSettings
  1

  2
C:\Documents and Settings\basas\Application Data\Autodesk\AutoCAD 2005\R16.1\enu\plotters\Default Windows System Printer.pc3
  4

  6

 40
0.0
 41
0.0
 42
0.0
 43
0.0
 44
0.0
 45
0.0
 46
0.0
 47
0.0
 48
0.0
 49
0.0
140
0.0
141
0.0
142
1.0
143
1.0
 70
   688
 72
     0
 73
     0
 74
     5
  7

 75
    16
147
1.0
148
0.0
149
0.0
100
AcDbLayout
  1
Layout2
 70
     1
 71
     2
 10
0.0
 20
0.0
 11
12.0
 21
9.0
 12
0.0
 22
0.0
 32
0.0
 14
0.0
 24
0.0
 34
0.0
 15
0.0
 25
0.0
 35
0.0
146
0.0
 13
0.0
 23
0.0
 33
0.0
 16
1.0
 26
0.0
 36
0.0
 17
0.0
 27
1.0
 37
0.0
 76
     0
330
D6
  0
LAYOUT
  5
22
102
{ACAD_XDICTIONARY
360
64C
102
}
102
{ACAD_REACTORS
330
1A
102
}
330
1A
100
AcDbPlotSettings
  1

  2
none_device
  4
ISO_A4_(210.00_x_297.00_MM)
  6

 40
7.5
 41
20.0
 42
7.5
 43
20.0
 44
210.0
 45
297.0
 46
11.54999923706054
 47
-13.65000009536743
 48
0.0
 49
0.0
140
0.0
141
0.0
142
1.0
143
8.704084754739808
 70
 11952
 72
     1
 73
     0
 74
     0
  7

 75
     0
147
0.1148885871608098
148
0.0
149
0.0
100
AcDbLayout
  1
Model
 70
     1
 71
     0
 10
0.0
 20
0.0
 11
12.0
 21
9.0
 12
0.0
 22
0.0
 32
0.0
 14
0.0
 24
0.0
 34
0.0
 15
0.0
 25
0.0
 35
0.0
146
0.0
 13
0.0
 23
0.0
 33
0.0
 16
1.0
 26
0.0
 36
0.0
 17
0.0
 27
1.0
 37
0.0
 76
     0
330
1F
331
EA
1001
ACAD_PSEXT
1000
None
1000
None
1000
Not applicable
1000
The layout will not be plotted unless a new plotter configuration name is selected.
1070
     0
  0
MATERIAL
  5
ED
102
{ACAD_XDICTIONARY
360
655
102
}
102
{ACAD_REACTORS
330
6A
102
}
330
6A
100
AcDbMaterial
  1
ByBlock
  0
MATERIAL
  5
EC
102
{ACAD_XDICTIONARY
360
653
102
}
102
{ACAD_REACTORS
330
6A
102
}
330
6A
100
AcDbMaterial
  1
ByLayer
  0
MATERIAL
  5
EE
102
{ACAD_XDICTIONARY
360
173
102
}
102
{ACAD_REACTORS
330
6A
102
}
330
6A
100
AcDbMaterial
  1
Global
 43
0.0007999999797903
 43
0.0
 43
0.0
 43
0.0
 43
0.0
 43
0.0007999999797903
 43
0.0
 43
0.0
 43
0.0
 43
0.0
 43
1.0
 43
0.0
 43
0.0
 43
0.0
 43
0.0
 43
1.0
 49
0.0007999999797903
 49
0.0
 49
0.0
 49
0.0
 49
0.0
 49
0.0007999999797903
 49
0.0
 49
0.0
 49
0.0
 49
0.0
 49
1.0
 49
0.0
 49
0.0
 49
0.0
 49
0.0
 49
1.0
142
0.0007999999797903
142
0.0
142
0.0
142
0.0
142
0.0
142
0.0007999999797903
142
0.0
142
0.0
142
0.0
142
0.0
142
1.0
142
0.0
142
0.0
142
0.0
142
0.0
142
1.0
144
0.0007999999797903
144
0.0
144
0.0
144
0.0
144
0.0
144
0.0007999999797903
144
0.0
144
0.0
144
0.0
144
0.0
144
1.0
144
0.0
144
0.0
144
0.0
144
0.0
144
1.0
1001
ACAD
1070
    -1
1070
     3
1070
     0
1000

1071
        0
1070
     0
  0
MLEADERSTYLE
  5
13B
102
{ACAD_REACTORS
330
12D
102
}
330
12D
100
AcDbMLeaderStyle
170
     2
171
     1
172
     0
 90
        2
 40
0.0
 41
0.0
173
     1
 91
-1056964608
340
14
 92
       -2
290
     1
 42
2.0
291
     1
 43
8.0
  3
Standard
 44
4.0
300

342
11
174
     1
178
     1
175
     1
176
     0
 93
-1056964608
 45
4.0
292
     0
297
     0
 46
4.0
 94
-1056964608
 47
1.0
 49
1.0
140
1.0
293
     1
141
0.0
294
     1
177
     0
142
1.0
295
     0
296
     1
143
3.75
1001
ACAD_MLEADERVER
1070
     2
  0
MLEADERSTYLE
  5
12E
102
{ACAD_REACTORS
330
12D
102
}
330
12D
100
AcDbMLeaderStyle
170
     2
171
     1
172
     0
 90
        2
 40
0.0
 41
0.0
173
     1
 91
-1056964608
340
14
 92
       -2
290
     1
 42
2.0
291
     1
 43
8.0
  3
Standard
 44
4.0
300

342
11
174
     1
178
     1
175
     1
176
     0
 93
-1056964608
 45
4.0
292
     0
297
     0
 46
4.0
 94
-1056964608
 47
1.0
 49
1.0
140
1.0
293
     1
141
0.0
294
     1
177
     0
142
1.0
295
     0
296
     0
143
3.75
1001
ACAD_MLEADERVER
1070
     2
  0
MLINESTYLE
  5
18
102
{ACAD_REACTORS
330
17
102
}
330
17
100
AcDbMlineStyle
  2
STANDARD
 70
     0
  3

 62
   256
 51
90.0
 52
90.0
 71
     2
 49
0.5
 62
   256
  6
BYLAYER
 49
-0.5
 62
   256
  6
BYLAYER
  0
ACDBPLACEHOLDER
  5
F
102
{ACAD_REACTORS
330
E
102
}
330
E
  0
SCALE
  5
10D
102
{ACAD_REACTORS
330
10C
102
}
330
10C
100
AcDbScale
 70
     0
300
1:1
140
1.0
141
1.0
290
     1
  0
SCALE
  5
188
102
{ACAD_REACTORS
330
10C
102
}
330
10C
100
AcDbScale
 70
     0
300
1:2
140
1.0
141
2.0
290
     0
  0
SCALE
  5
189
102
{ACAD_REACTORS
330
10C
102
}
330
10C
100
AcDbScale
 70
     0
300
1:4
140
1.0
141
4.0
290
     0
  0
SCALE
  5
18A
102
{ACAD_REACTORS
330
10C
102
}
330
10C
100
AcDbScale
 70
     0
300
1:5
140
1.0
141
5.0
290
     0
  0
SCALE
  5
18B
102
{ACAD_REACTORS
330
10C
102
}
330
10C
100
AcDbScale
 70
     0
300
1:8
140
1.0
141
8.0
290
     0
  0
SCALE
  5
18C
102
{ACAD_REACTORS
330
10C
102
}
330
10C
100
AcDbScale
 70
     0
300
1:10
140
1.0
141
10.0
290
     0
  0
SCALE
  5
18D
102
{ACAD_REACTORS
330
10C
102
}
330
10C
100
AcDbScale
 70
     0
300
1:16
140
1.0
141
16.0
290
     0
  0
SCALE
  5
18E
102
{ACAD_REACTORS
330
10C
102
}
330
10C
100
AcDbScale
 70
     0
300
1:20
140
1.0
141
20.0
290
     0
  0
SCALE
  5
18F
102
{ACAD_REACTORS
330
10C
102
}
330
10C
100
AcDbScale
 70
     0
300
1:30
140
1.0
141
30.0
290
     0
  0
SCALE
  5
190
102
{ACAD_REACTORS
330
10C
102
}
330
10C
100
AcDbScale
 70
     0
300
1:40
140
1.0
141
40.0
290
     0
  0
SCALE
  5
191
102
{ACAD_REACTORS
330
10C
102
}
330
10C
100
AcDbScale
 70
     0
300
1:50
140
1.0
141
50.0
290
     0
  0
SCALE
  5
192
102
{ACAD_REACTORS
330
10C
102
}
330
10C
100
AcDbScale
 70
     0
300
1:100
140
1.0
141
100.0
290
     0
  0
SCALE
  5
193
102
{ACAD_REACTORS
330
10C
102
}
330
10C
100
AcDbScale
 70
     0
300
2:1
140
2.0
141
1.0
290
     0
  0
SCALE
  5
194
102
{ACAD_REACTORS
330
10C
102
}
330
10C
100
AcDbScale
 70
     0
300
4:1
140
4.0
141
1.0
290
     0
  0
SCALE
  5
195
102
{ACAD_REACTORS
330
10C
102
}
330
10C
100
AcDbScale
 70
     0
300
8:1
140
8.0
141
1.0
290
     0
  0
SCALE
  5
196
102
{ACAD_REACTORS
330
10C
102
}
330
10C
100
AcDbScale
 70
     0
300
10:1
140
10.0
141
1.0
290
     0
  0
SCALE
  5
197
102
{ACAD_REACTORS
330
10C
102
}
330
10C
100
AcDbScale
 70
     0
300
100:1
140
100.0
141
1.0
290
     0
  0
SCALE
  5
198
102
{ACAD_REACTORS
330
10C
102
}
330
10C
100
AcDbScale
 70
     0
300
1/128" = 1'-0"
140
0.0078125
141
12.0
290
     0
  0
SCALE
  5
199
102
{ACAD_REACTORS
330
10C
102
}
330
10C
100
AcDbScale
 70
     0
300
1/64" = 1'-0"
140
0.015625
141
12.0
290
     0
  0
SCALE
  5
19A
102
{ACAD_REACTORS
330
10C
102
}
330
10C
100
AcDbScale
 70
     0
300
1/32" = 1'-0"
140
0.03125
141
12.0
290
     0
  0
SCALE
  5
19B
102
{ACAD_REACTORS
330
10C
102
}
330
10C
100
AcDbScale
 70
     0
300
1/16" = 1'-0"
140
0.0625
141
12.0
290
     0
  0
SCALE
  5
19C
102
{ACAD_REACTORS
330
10C
102
}
330
10C
100
AcDbScale
 70
     0
300
3/32" = 1'-0"
140
0.09375
141
12.0
290
     0
  0
SCALE
  5
19D
102
{ACAD_REACTORS
330
10C
102
}
330
10C
100
AcDbScale
 70
     0
300
1/8" = 1'-0"
140
0.125
141
12.0
290
     0
  0
SCALE
  5
19E
102
{ACAD_REACTORS
330
10C
102
}
330
10C
100
AcDbScale
 70
     0
300
3/16" = 1'-0"
140
0.1875
141
12.0
290
     0
  0
SCALE
  5
19F
102
{ACAD_REACTORS
330
10C
102
}
330
10C
100
AcDbScale
 70
     0
300
1/4" = 1'-0"
140
0.25
141
12.0
290
     0
  0
SCALE
  5
1A0
102
{ACAD_REACTORS
330
10C
102
}
330
10C
100
AcDbScale
 70
     0
300
3/8" = 1'-0"
140
0.375
141
12.0
290
     0
  0
SCALE
  5
1A1
102
{ACAD_REACTORS
330
10C
102
}
330
10C
100
AcDbScale
 70
     0
300
1/2" = 1'-0"
140
0.5
141
12.0
290
     0
  0
SCALE
  5
1A2
102
{ACAD_REACTORS
330
10C
102
}
330
10C
100
AcDbScale
 70
     0
300
3/4" = 1'-0"
140
0.75
141
12.0
290
     0
  0
SCALE
  5
1A3
102
{ACAD_REACTORS
330
10C
102
}
330
10C
100
AcDbScale
 70
     0
300
1" = 1'-0"
140
1.0
141
12.0
290
     0
  0
SCALE
  5
1A4
102
{ACAD_REACTORS
330
10C
102
}
330
10C
100
AcDbScale
 70
     0
300
1-1/2" = 1'-0"
140
1.5
141
12.0
290
     0
  0
SCALE
  5
1A5
102
{ACAD_REACTORS
330
10C
102
}
330
10C
100
AcDbScale
 70
     0
300
3" = 1'-0"
140
3.0
141
12.0
290
     0
  0
SCALE
  5
1A6
102
{ACAD_REACTORS
330
10C
102
}
330
10C
100
AcDbScale
 70
     0
300
6" = 1'-0"
140
6.0
141
12.0
290
     0
  0
SCALE
  5
1A7
102
{ACAD_REACTORS
330
10C
102
}
330
10C
100
AcDbScale
 70
     0
300
1'-0" = 1'-0"
140
12.0
141
12.0
290
     0
  0
TABLESTYLE
  5
7F
102
{ACAD_XDICTIONARY
360
162
102
}
102
{ACAD_REACTORS
330
7E
102
}
330
7E
100
AcDbTableStyle
  3
Standard
 70
     0
 71
     0
 40
1.5
 41
1.5
280
     0
281
     0
  7
Standard
140
4.5
170
     2
 62
     0
 63
     7
283
     0
274
    -2
284
     1
 64
     0
275
    -2
285
     1
 65
     0
276
    -2
286
     1
 66
     0
277
    -2
287
     1
 67
     0
278
    -2
288
     1
 68
     0
279
    -2
289
     1
 69
     0
  7
Standard
140
6.0
170
     5
 62
     0
 63
     7
283
     0
274
    -2
284
     1
 64
     0
275
    -2
285
     1
 65
     0
276
    -2
286
     1
 66
     0
277
    -2
287
     1
 67
     0
278
    -2
288
     1
 68
     0
279
    -2
289
     1
 69
     0
  7
Standard
140
4.5
170
     5
 62
     0
 63
     7
283
     0
274
    -2
284
     1
 64
     0
275
    -2
285
     1
 65
     0
276
    -2
286
     1
 66
     0
277
    -2
287
     1
 67
     0
278
    -2
288
     1
 68
     0
279
    -2
289
     1
 69
     0
  0
VISUALSTYLE
  5
F5
102
{ACAD_REACTORS
330
EF
102
}
330
EF
100
AcDbVisualStyle
  2
2dWireframe
 70
     4
 71
     0
 72
     2
 73
     1
 90
        0
 40
-0.6
 41
-30.0
 62
     5
 63
     7
 74
     1
 91
        4
 64
     7
 65
   257
 75
     1
175
     1
 42
1.0
 92
        0
 66
   257
 43
1.0
 76
     1
 77
     6
 78
     2
 67
     7
 79
     5
170
     0
171
     0
290
     0
174
     0
 93
        1
 44
0.0
173
     0
291
     0
 45
0.0
1001
ACAD
1000
AcDbSavedByObjectVersion
1070
     0
  0
VISUALSTYLE
  5
F7
102
{ACAD_REACTORS
330
EF
102
}
330
EF
100
AcDbVisualStyle
  2
3D Hidden
 70
     6
 71
     1
 72
     2
 73
     2
 90
        0
 40
-0.6
 41
-30.0
 62
     5
 63
     7
 74
     2
 91
        2
 64
     7
 65
   257
 75
     2
175
     1
 42
40.0
 92
        0
 66
   257
 43
1.0
 76
     1
 77
     6
 78
     2
 67
     7
 79
     3
170
     0
171
     0
290
     0
174
     0
 93
        1
 44
0.0
173
     0
291
     0
 45
0.0
1001
ACAD
1000
AcDbSavedByObjectVersion
1070
     0
  0
VISUALSTYLE
  5
F6
102
{ACAD_REACTORS
330
EF
102
}
330
EF
100
AcDbVisualStyle
  2
3dWireframe
 70
     5
 71
     0
 72
     2
 73
     1
 90
        0
 40
-0.6
 41
-30.0
 62
     5
 63
     7
 74
     1
 91
        4
 64
     7
 65
   257
 75
     1
175
     1
 42
1.0
 92
        0
 66
   257
 43
1.0
 76
     1
 77
     6
 78
     2
 67
     7
 79
     5
170
     0
171
     0
290
     0
174
     0
 93
        1
 44
0.0
173
     0
291
     0
 45
0.0
1001
ACAD
1000
AcDbSavedByObjectVersion
1070
     0
  0
VISUALSTYLE
  5
F4
102
{ACAD_REACTORS
330
EF
102
}
330
EF
100
AcDbVisualStyle
  2
Basic
 70
     7
 71
     1
 72
     0
 73
     1
 90
        0
 40
-0.6
 41
-30.0
 62
     5
 63
     7
 74
     0
 91
        4
 64
     7
 65
   257
 75
     1
175
     1
 42
1.0
 92
        8
 66
     7
 43
1.0
 76
     1
 77
     6
 78
     2
 67
     7
 79
     5
170
     0
171
     0
290
     0
174
     0
 93
        1
 44
0.0
173
     0
291
     1
 45
0.0
1001
ACAD
1000
AcDbSavedByObjectVersion
1070
     0
  0
VISUALSTYLE
  5
FB
102
{ACAD_REACTORS
330
EF
102
}
330
EF
100
AcDbVisualStyle
  2
Brighten
 70
    12
 71
     2
 72
     2
 73
     1
 90
        0
 40
-0.6
 41
-30.0
 62
     5
 63
     7
 74
     1
 91
        4
 64
     7
 65
   257
 75
     1
175
     1
 42
1.0
 92
        8
 66
     7
 43
1.0
 76
     1
 77
     6
 78
     2
 67
     7
 79
     5
170
     0
171
     0
290
     0
174
     0
 93
        1
 44
50.0
173
     0
291
     1
 45
0.0
1001
ACAD
1000
AcDbSavedByObjectVersion
1070
     0
  0
VISUALSTYLE
  5
FF
102
{ACAD_REACTORS
330
EF
102
}
330
EF
100
AcDbVisualStyle
  2
ColorChange
 70
    16
 71
     2
 72
     2
 73
     3
 90
        0
 40
-0.6
 41
-30.0
 62
     5
 63
     8
 74
     1
 91
        4
 64
     7
 65
   257
 75
     1
175
     1
 42
1.0
 92
        8
 66
     8
 43
1.0
 76
     1
 77
     6
 78
     2
 67
     7
 79
     5
170
     0
171
     0
290
     0
174
     0
 93
        1
 44
0.0
173
     0
291
     1
 45
0.0
1001
ACAD
1000
AcDbSavedByObjectVersion
1070
     0
  0
VISUALSTYLE
  5
F8
102
{ACAD_REACTORS
330
EF
102
}
330
EF
100
AcDbVisualStyle
  2
Conceptual
 70
     9
 71
     3
 72
     2
 73
     1
 90
        0
 40
-0.6
 41
-30.0
 62
     5
 63
     7
 74
     2
 91
        2
 64
     7
 65
   257
 75
     1
175
     1
 42
40.0
 92
        8
 66
     7
 43
1.0
 76
     1
 77
     6
 78
     2
 67
     7
 79
     3
170
     0
171
     0
290
     0
174
     0
 93
        1
 44
0.0
173
     0
291
     0
 45
0.0
1001
ACAD
1000
AcDbSavedByObjectVersion
1070
     0
  0
VISUALSTYLE
  5
FA
102
{ACAD_REACTORS
330
EF
102
}
330
EF
100
AcDbVisualStyle
  2
Dim
 70
    11
 71
     2
 72
     2
 73
     1
 90
        0
 40
-0.6
 41
-30.0
 62
     5
 63
     7
 74
     1
 91
        4
 64
     7
 65
   257
 75
     1
175
     1
 42
1.0
 92
        8
 66
     7
 43
1.0
 76
     1
 77
     6
 78
     2
 67
     7
 79
     5
170
     0
171
     0
290
     0
174
     0
 93
        1
 44
-50.0
173
     0
291
     1
 45
0.0
1001
ACAD
1000
AcDbSavedByObjectVersion
1070
     0
  0
VISUALSTYLE
  5
FE
102
{ACAD_REACTORS
330
EF
102
}
330
EF
100
AcDbVisualStyle
  2
Facepattern
 70
    15
 71
     2
 72
     2
 73
     1
 90
        0
 40
-0.6
 41
-30.0
 62
     5
 63
     7
 74
     1
 91
        4
 64
     7
 65
   257
 75
     1
175
     1
 42
1.0
 92
        8
 66
     7
 43
1.0
 76
     1
 77
     6
 78
     2
 67
     7
 79
     5
170
     0
171
     0
290
     0
174
     0
 93
        1
 44
0.0
173
     0
291
     1
 45
0.0
1001
ACAD
1000
AcDbSavedByObjectVersion
1070
     0
  0
VISUALSTYLE
  5
F0
102
{ACAD_REACTORS
330
EF
102
}
330
EF
100
AcDbVisualStyle
  2
Flat
 70
     0
 71
     2
 72
     1
 73
     1
 90
        2
 40
-0.6
 41
30.0
 62
     5
 63
     7
 74
     0
 91
        4
 64
     7
 65
   257
 75
     1
175
     1
 42
1.0
 92
        8
 66
     7
 43
1.0
 76
     1
 77
     6
 78
     2
 67
     7
 79
     5
170
     0
171
     0
290
     0
174
     0
 93
        1
 44
0.0
173
     0
291
     1
 45
0.0
1001
ACAD
1000
AcDbSavedByObjectVersion
1070
     0
  0
VISUALSTYLE
  5
F1
102
{ACAD_REACTORS
330
EF
102
}
330
EF
100
AcDbVisualStyle
  2
FlatWithEdges
 70
     1
 71
     2
 72
     1
 73
     1
 90
        2
 40
-0.6
 41
30.0
 62
     5
 63
     7
 74
     1
 91
        4
 64
     7
 65
   257
 75
     1
175
     1
 42
1.0
 92
        0
 66
   257
 43
1.0
 76
     1
 77
     6
 78
     2
 67
     7
 79
     5
170
     0
171
     0
290
     0
174
     0
 93
        1
 44
0.0
173
     0
291
     1
 45
0.0
1001
ACAD
1000
AcDbSavedByObjectVersion
1070
     0
  0
VISUALSTYLE
  5
F2
102
{ACAD_REACTORS
330
EF
102
}
330
EF
100
AcDbVisualStyle
  2
Gouraud
 70
     2
 71
     2
 72
     2
 73
     1
 90
        2
 40
-0.6
 41
30.0
 62
     5
 63
     7
 74
     0
 91
        4
 64
     7
 65
   257
 75
     1
175
     1
 42
1.0
 92
        0
 66
     7
 43
1.0
 76
     1
 77
     6
 78
     2
 67
     7
 79
     5
170
     0
171
     0
290
     0
174
     0
 93
        1
 44
0.0
173
     0
291
     1
 45
0.0
1001
ACAD
1000
AcDbSavedByObjectVersion
1070
     0
  0
VISUALSTYLE
  5
F3
102
{ACAD_REACTORS
330
EF
102
}
330
EF
100
AcDbVisualStyle
  2
GouraudWithEdges
 70
     3
 71
     2
 72
     2
 73
     1
 90
        2
 40
-0.6
 41
30.0
 62
     5
 63
     7
 74
     1
 91
        4
 64
     7
 65
   257
 75
     1
175
     1
 42
1.0
 92
        0
 66
   257
 43
1.0
 76
     1
 77
     6
 78
     2
 67
     7
 79
     5
170
     0
171
     0
290
     0
174
     0
 93
        1
 44
0.0
173
     0
291
     1
 45
0.0
1001
ACAD
1000
AcDbSavedByObjectVersion
1070
     0
  0
VISUALSTYLE
  5
FD
102
{ACAD_REACTORS
330
EF
102
}
330
EF
100
AcDbVisualStyle
  2
Linepattern
 70
    14
 71
     2
 72
     2
 73
     1
 90
        0
 40
-0.6
 41
-30.0
 62
     5
 63
     7
 74
     1
 91
        4
 64
     7
 65
   257
 75
     7
175
     7
 42
1.0
 92
        8
 66
     7
 43
1.0
 76
     1
 77
     6
 78
     2
 67
     7
 79
     5
170
     0
171
     0
290
     0
174
     0
 93
        1
 44
0.0
173
     0
291
     1
 45
0.0
1001
ACAD
1000
AcDbSavedByObjectVersion
1070
     0
  0
VISUALSTYLE
  5
F9
102
{ACAD_REACTORS
330
EF
102
}
330
EF
100
AcDbVisualStyle
  2
Realistic
 70
     8
 71
     2
 72
     2
 73
     1
 90
        0
 40
-0.6
 41
-30.0
 62
     5
 63
     7
 74
     1
 91
        0
 64
     7
 65
   257
 75
     1
175
     1
 42
1.0
 92
        8
 66
     8
 43
1.0
 76
     1
 77
     6
 78
     2
 67
     7
 79
     5
170
     0
171
     0
290
     0
174
     0
 93
       13
 44
0.0
173
     0
291
     0
 45
0.0
1001
ACAD
1000
AcDbSavedByObjectVersion
1070
     0
  0
VISUALSTYLE
  5
FC
102
{ACAD_REACTORS
330
EF
102
}
330
EF
100
AcDbVisualStyle
  2
Thicken
 70
    13
 71
     2
 72
     2
 73
     1
 90
        0
 40
-0.6
 41
-30.0
 62
     5
 63
     7
 74
     1
 91
        4
 64
     7
 65
   257
 75
     1
175
     1
 42
1.0
 92
       12
 66
     7
 43
1.0
 76
     1
 77
     6
 78
     2
 67
     7
 79
     5
170
     0
171
     0
290
     0
174
     0
 93
        1
 44
0.0
173
     0
291
     1
 45
0.0
1001
ACAD
1000
AcDbSavedByObjectVersion
1070
     0
  0
DICTIONARYVAR
  5
146
102
{ACAD_REACTORS
330
5E
102
}
330
5E
100
DictionaryVariables
280
     0
  1
1:1
  0
DICTIONARYVAR
  5
145
102
{ACAD_REACTORS
330
5E
102
}
330
5E
100
DictionaryVariables
280
     0
  1
STANDARD
  0
DICTIONARYVAR
  5
84
102
{ACAD_REACTORS
330
5E
102
}
330
5E
100
DictionaryVariables
280
     0
  1
STANDARD
  0
DICTIONARYVAR
  5
5F
102
{ACAD_REACTORS
330
5E
102
}
330
5E
100
DictionaryVariables
280
     0
  1
2
  0
DICTIONARYVAR
  5
63
102
{ACAD_REACTORS
330
5E
102
}
330
5E
100
DictionaryVariables
280
     0
  1
1
  0
DICTIONARYVAR
  5
647
102
{ACAD_REACTORS
330
5E
102
}
330
5E
100
DictionaryVariables
280
     0
  1
0
  0
DICTIONARYVAR
  5
645
102
{ACAD_REACTORS
330
5E
102
}
330
5E
100
DictionaryVariables
280
     0
  1
2
  0
DICTIONARYVAR
  5
644
102
{ACAD_REACTORS
330
5E
102
}
330
5E
100
DictionaryVariables
280
     0
  1
1
  0
DICTIONARYVAR
  5
649
102
{ACAD_REACTORS
330
5E
102
}
330
5E
100
DictionaryVariables
280
     0
  1
80.000000
  0
DICTIONARYVAR
  5
648
102
{ACAD_REACTORS
330
5E
102
}
330
5E
100
DictionaryVariables
280
     0
  1
5.000000
  0
DICTIONARYVAR
  5
646
102
{ACAD_REACTORS
330
5E
102
}
330
5E
100
DictionaryVariables
280
     0
  1
127
  0
DICTIONARY
  5
64F
330
D3
100
AcDbDictionary
280
     1
281
     1
  3
ACAD_XREC_ROUNDTRIP
360
650
  0
DICTIONARY
  5
651
330
D7
100
AcDbDictionary
280
     1
281
     1
  3
ACAD_XREC_ROUNDTRIP
360
652
  0
DICTIONARY
  5
64C
330
22
100
AcDbDictionary
280
     1
281
     1
  3
ACAD_XREC_ROUNDTRIP
360
64D
  0
DICTIONARY
  5
655
330
ED
100
AcDbDictionary
280
     1
281
     1
  3
ACAD_XREC_ROUNDTRIP
360
656
  0
DICTIONARY
  5
653
330
EC
100
AcDbDictionary
280
     1
281
     1
  3
ACAD_XREC_ROUNDTRIP
360
654
  0
DICTIONARY
  5
173
330
EE
100
AcDbDictionary
280
     1
281
     1
  3
ACAD_XREC_ROUNDTRIP
360
657
  3
BUMPTILE
360
175
  3
DIFFUSETILE
360
174
  3
OPACITYTILE
360
176
  3
REFLECTIONTILE
360
177
  0
DICTIONARY
  5
162
330
7F
100
AcDbDictionary
280
     1
281
     1
  3
ACAD_ROUNDTRIP_2008_TABLESTYLE_CELLSTYLEMAP
360
64A
  3
ACAD_XREC_ROUNDTRIP
360
64E
  0
XRECORD
  5
650
102
{ACAD_REACTORS
330
64F
102
}
330
64F
100
AcDbXrecord
280
     1
102
SHADEPLOT
 70
     0
102
SHADEPLOTRESLEVEL
 70
     2
102
SHADEPLOTCUSTOMDPI
 70
   300
  0
XRECORD
  5
652
102
{ACAD_REACTORS
330
651
102
}
330
651
100
AcDbXrecord
280
     1
102
SHADEPLOT
 70
     0
102
SHADEPLOTRESLEVEL
 70
     2
102
SHADEPLOTCUSTOMDPI
 70
   300
  0
XRECORD
  5
64D
102
{ACAD_REACTORS
330
64C
102
}
330
64C
100
AcDbXrecord
280
     1
102
SHADEPLOT
 70
     0
102
SHADEPLOTRESLEVEL
 70
     2
102
SHADEPLOTCUSTOMDPI
 70
   300
  0
XRECORD
  5
656
102
{ACAD_REACTORS
330
655
102
}
330
655
100
AcDbXrecord
280
     1
102
MATERIAL
148
0.0
149
0.0
149
0.0
 93
        0
 94
       63
282
     0
 72
     1
 77
     1
171
     1
175
     1
179
     1
273
     0
  0
XRECORD
  5
654
102
{ACAD_REACTORS
330
653
102
}
330
653
100
AcDbXrecord
280
     1
102
MATERIAL
148
0.0
149
0.0
149
0.0
 93
        0
 94
       63
282
     0
 72
     1
 77
     1
171
     1
175
     1
179
     1
273
     0
  0
XRECORD
  5
657
102
{ACAD_REACTORS
330
173
102
}
330
173
100
AcDbXrecord
280
     1
102
MATERIAL
148
0.0
149
0.0
149
0.0
 93
        0
 94
       63
282
     0
 72
     1
 77
     1
171
     1
175
     1
179
     1
273
     0
  0
XRECORD
  5
175
102
{ACAD_REACTORS
330
173
102
}
330
173
100
AcDbXrecord
280
     1
270
     1
271
     1
  0
XRECORD
  5
174
102
{ACAD_REACTORS
330
173
102
}
330
173
100
AcDbXrecord
280
     1
270
     1
271
     1
  0
XRECORD
  5
176
102
{ACAD_REACTORS
330
173
102
}
330
173
100
AcDbXrecord
280
     1
270
     1
271
     1
  0
XRECORD
  5
177
102
{ACAD_REACTORS
330
173
102
}
330
173
100
AcDbXrecord
280
     1
270
     1
271
     1
  0
CELLSTYLEMAP
  5
64A
102
{ACAD_REACTORS
330
162
102
}
330
162
100
AcDbCellStyleMap
 90
        3
300
CELLSTYLE
  1
TABLEFORMAT_BEGIN
 90
        5
170
     1
 91
        0
 92
    32768
 62
   257
 93
        1
300
CONTENTFORMAT
  1
CONTENTFORMAT_BEGIN
 90
        0
 91
        0
 92
      512
 93
        0
300

 40
0.0
140
1.0
 94
        5
 62
     0
340
11
144
6.0
309
CONTENTFORMAT_END
171
     1
301
MARGIN
  1
CELLMARGIN_BEGIN
 40
1.5
 40
1.5
 40
1.5
 40
1.5
 40
4.5
 40
4.5
309
CELLMARGIN_END
 94
        6
 95
        1
302
GRIDFORMAT
  1
GRIDFORMAT_BEGIN
 90
        0
 91
        1
 62
     0
 92
       -2
340
14
 93
        0
 40
1.125
309
GRIDFORMAT_END
 95
        2
302
GRIDFORMAT
  1
GRIDFORMAT_BEGIN
 90
        0
 91
        1
 62
     0
 92
       -2
340
14
 93
        0
 40
1.125
309
GRIDFORMAT_END
 95
        4
302
GRIDFORMAT
  1
GRIDFORMAT_BEGIN
 90
        0
 91
        1
 62
     0
 92
       -2
340
14
 93
        0
 40
1.125
309
GRIDFORMAT_END
 95
        8
302
GRIDFORMAT
  1
GRIDFORMAT_BEGIN
 90
        0
 91
        1
 62
     0
 92
       -2
340
14
 93
        0
 40
1.125
309
GRIDFORMAT_END
 95
       16
302
GRIDFORMAT
  1
GRIDFORMAT_BEGIN
 90
        0
 91
        1
 62
     0
 92
       -2
340
14
 93
        0
 40
1.125
309
GRIDFORMAT_END
 95
       32
302
GRIDFORMAT
  1
GRIDFORMAT_BEGIN
 90
        0
 91
        1
 62
     0
 92
       -2
340
14
 93
        0
 40
1.125
309
GRIDFORMAT_END
309
TABLEFORMAT_END
  1
CELLSTYLE_BEGIN
 90
        1
 91
        1
300
_TITLE
309
CELLSTYLE_END
300
CELLSTYLE
  1
TABLEFORMAT_BEGIN
 90
        5
170
     1
 91
        0
 92
        0
 62
   257
 93
        1
300
CONTENTFORMAT
  1
CONTENTFORMAT_BEGIN
 90
        0
 91
        0
 92
      512
 93
        0
300

 40
0.0
140
1.0
 94
        5
 62
     0
340
11
144
4.5
309
CONTENTFORMAT_END
171
     1
301
MARGIN
  1
CELLMARGIN_BEGIN
 40
1.5
 40
1.5
 40
1.5
 40
1.5
 40
4.5
 40
4.5
309
CELLMARGIN_END
 94
        6
 95
        1
302
GRIDFORMAT
  1
GRIDFORMAT_BEGIN
 90
        0
 91
        1
 62
     0
 92
       -2
340
14
 93
        0
 40
1.125
309
GRIDFORMAT_END
 95
        2
302
GRIDFORMAT
  1
GRIDFORMAT_BEGIN
 90
        0
 91
        1
 62
     0
 92
       -2
340
14
 93
        0
 40
1.125
309
GRIDFORMAT_END
 95
        4
302
GRIDFORMAT
  1
GRIDFORMAT_BEGIN
 90
        0
 91
        1
 62
     0
 92
       -2
340
14
 93
        0
 40
1.125
309
GRIDFORMAT_END
 95
        8
302
GRIDFORMAT
  1
GRIDFORMAT_BEGIN
 90
        0
 91
        1
 62
     0
 92
       -2
340
14
 93
        0
 40
1.125
309
GRIDFORMAT_END
 95
       16
302
GRIDFORMAT
  1
GRIDFORMAT_BEGIN
 90
        0
 91
        1
 62
     0
 92
       -2
340
14
 93
        0
 40
1.125
309
GRIDFORMAT_END
 95
       32
302
GRIDFORMAT
  1
GRIDFORMAT_BEGIN
 90
        0
 91
        1
 62
     0
 92
       -2
340
14
 93
        0
 40
1.125
309
GRIDFORMAT_END
309
TABLEFORMAT_END
  1
CELLSTYLE_BEGIN
 90
        2
 91
        1
300
_HEADER
309
CELLSTYLE_END
300
CELLSTYLE
  1
TABLEFORMAT_BEGIN
 90
        5
170
     1
 91
        0
 92
        0
 62
   257
 93
        1
300
CONTENTFORMAT
  1
CONTENTFORMAT_BEGIN
 90
        0
 91
        0
 92
      512
 93
        0
300

 40
0.0
140
1.0
 94
        2
 62
     0
340
11
144
4.5
309
CONTENTFORMAT_END
171
     1
301
MARGIN
  1
CELLMARGIN_BEGIN
 40
1.5
 40
1.5
 40
1.5
 40
1.5
 40
4.5
 40
4.5
309
CELLMARGIN_END
 94
        6
 95
        1
302
GRIDFORMAT
  1
GRIDFORMAT_BEGIN
 90
        0
 91
        1
 62
     0
 92
       -2
340
14
 93
        0
 40
1.125
309
GRIDFORMAT_END
 95
        2
302
GRIDFORMAT
  1
GRIDFORMAT_BEGIN
 90
        0
 91
        1
 62
     0
 92
       -2
340
14
 93
        0
 40
1.125
309
GRIDFORMAT_END
 95
        4
302
GRIDFORMAT
  1
GRIDFORMAT_BEGIN
 90
        0
 91
        1
 62
     0
 92
       -2
340
14
 93
        0
 40
1.125
309
GRIDFORMAT_END
 95
        8
302
GRIDFORMAT
  1
GRIDFORMAT_BEGIN
 90
        0
 91
        1
 62
     0
 92
       -2
340
14
 93
        0
 40
1.125
309
GRIDFORMAT_END
 95
       16
302
GRIDFORMAT
  1
GRIDFORMAT_BEGIN
 90
        0
 91
        1
 62
     0
 92
       -2
340
14
 93
        0
 40
1.125
309
GRIDFORMAT_END
 95
       32
302
GRIDFORMAT
  1
GRIDFORMAT_BEGIN
 90
        0
 91
        1
 62
     0
 92
       -2
340
14
 93
        0
 40
1.125
309
GRIDFORMAT_END
309
TABLEFORMAT_END
  1
CELLSTYLE_BEGIN
 90
        3
 91
        2
300
_DATA
309
CELLSTYLE_END
  0
XRECORD
  5
64E
102
{ACAD_REACTORS
330
162
102
}
330
162
100
AcDbXrecord
280
     1
102
ACAD_ROUNDTRIP_PRE2007_TABLESTYLE
 90
      512
 91
        0
  1

 92
      512
 93
        0
  2

 94
      512
 95
        0
  3

  0
ENDSEC
  0
EOF
