  0
SECTION
  2
HEADER
  9
$ACADVER
  1
AC1015
  9
$ACADMAINTVER
 70
    20
  9
$DWGCODEPAGE
  3
ANSI_1254
  9
$INSBASE
 10
0.0
 20
0.0
 30
0.0
  9
$EXTMIN
 10
1838.584373134783
 20
891.9705537735037
 30
0.0
  9
$EXTMAX
 10
1898.650054829427
 20
937.8659543955969
 30
0.0
  9
$LIMMIN
 10
0.0
 20
0.0
  9
$LIMMAX
 10
420.0
 20
297.0
  9
$ORTHOMODE
 70
     0
  9
$REGENMODE
 70
     1
  9
$FILLMODE
 70
     1
  9
$QTEXTMODE
 70
     0
  9
$MIRRTEXT
 70
     0
  9
$LTSCALE
 40
1.0
  9
$ATTMODE
 70
     1
  9
$TEXTSIZE
 40
2.5
  9
$TRACEWID
 40
1.0
  9
$TEXTSTYLE
  7
Standard
  9
$CLAYER
  8
0
  9
$CELTYPE
  6
ByLayer
  9
$CECOLOR
 62
   256
  9
$CELTSCALE
 40
1.0
  9
$DISPSILH
 70
     0
  9
$DIMSCALE
 40
1.0
  9
$DIMASZ
 40
2.5
  9
$DIMEXO
 40
0.625
  9
$DIMDLI
 40
3.75
  9
$DIMRND
 40
0.0
  9
$DIMDLE
 40
0.0
  9
$DIMEXE
 40
1.25
  9
$DIMTP
 40
0.0
  9
$DIMTM
 40
0.0
  9
$DIMTXT
 40
2.5
  9
$DIMCEN
 40
2.5
  9
$DIMTSZ
 40
0.0
  9
$DIMTOL
 70
     0
  9
$DIMLIM
 70
     0
  9
$DIMTIH
 70
     0
  9
$DIMTOH
 70
     0
  9
$DIMSE1
 70
     0
  9
$DIMSE2
 70
     0
  9
$DIMTAD
 70
     1
  9
$DIMZIN
 70
     8
  9
$DIMBLK
  1

  9
$DIMASO
 70
     1
  9
$DIMSHO
 70
     1
  9
$DIMPOST
  1

  9
$DIMAPOST
  1

  9
$DIMALT
 70
     0
  9
$DIMALTD
 70
     3
  9
$DIMALTF
 40
0.03937007874016
  9
$DIMLFAC
 40
1.0
  9
$DIMTOFL
 70
     1
  9
$DIMTVP
 40
0.0
  9
$DIMTIX
 70
     0
  9
$DIMSOXD
 70
     0
  9
$DIMSAH
 70
     0
  9
$DIMBLK1
  1

  9
$DIMBLK2
  1

  9
$DIMSTYLE
  2
ISO-25
  9
$DIMCLRD
 70
     0
  9
$DIMCLRE
 70
     0
  9
$DIMCLRT
 70
     0
  9
$DIMTFAC
 40
1.0
  9
$DIMGAP
 40
0.625
  9
$DIMJUST
 70
     0
  9
$DIMSD1
 70
     0
  9
$DIMSD2
 70
     0
  9
$DIMTOLJ
 70
     0
  9
$DIMTZIN
 70
     8
  9
$DIMALTZ
 70
     0
  9
$DIMALTTZ
 70
     0
  9
$DIMUPT
 70
     0
  9
$DIMDEC
 70
     2
  9
$DIMTDEC
 70
     2
  9
$DIMALTU
 70
     2
  9
$DIMALTTD
 70
     3
  9
$DIMTXSTY
  7
Standard
  9
$DIMAUNIT
 70
     0
  9
$DIMADEC
 70
     0
  9
$DIMALTRND
 40
0.0
  9
$DIMAZIN
 70
     0
  9
$DIMDSEP
 70
    44
  9
$DIMATFIT
 70
     3
  9
$DIMFRAC
 70
     0
  9
$DIMLDRBLK
  1

  9
$DIMLUNIT
 70
     2
  9
$DIMLWD
 70
    -2
  9
$DIMLWE
 70
    -2
  9
$DIMTMOVE
 70
     0
  9
$LUNITS
 70
     2
  9
$LUPREC
 70
     4
  9
$SKETCHINC
 40
1.0
  9
$FILLETRAD
 40
0.0
  9
$AUNITS
 70
     0
  9
$AUPREC
 70
     0
  9
$MENU
  1
.
  9
$ELEVATION
 40
0.0
  9
$PELEVATION
 40
0.0
  9
$THICKNESS
 40
0.0
  9
$LIMCHECK
 70
     0
  9
$CHAMFERA
 40
0.0
  9
$CHAMFERB
 40
0.0
  9
$CHAMFERC
 40
0.0
  9
$CHAMFERD
 40
0.0
  9
$SKPOLY
 70
     0
  9
$TDCREATE
 40
2458933.645050532
  9
$TDUCREATE
 40
2458933.520050532
  9
$TDUPDATE
 40
2458956.448137871
  9
$TDUUPDATE
 40
2458956.323137871
  9
$TDINDWG
 40
0.0021711227
  9
$TDUSRTIMER
 40
0.0021709375
  9
$USRTIMER
 70
     1
  9
$ANGBASE
 50
0.0
  9
$ANGDIR
 70
     0
  9
$PDMODE
 70
     0
  9
$PDSIZE
 40
0.0
  9
$PLINEWID
 40
0.0
  9
$SPLFRAME
 70
     0
  9
$SPLINETYPE
 70
     6
  9
$SPLINESEGS
 70
     8
  9
$HANDSEED
  5
52F
  9
$SURFTAB1
 70
     6
  9
$SURFTAB2
 70
     6
  9
$SURFTYPE
 70
     6
  9
$SURFU
 70
     6
  9
$SURFV
 70
     6
  9
$UCSBASE
  2

  9
$UCSNAME
  2

  9
$UCSORG
 10
0.0
 20
0.0
 30
0.0
  9
$UCSXDIR
 10
1.0
 20
0.0
 30
0.0
  9
$UCSYDIR
 10
0.0
 20
1.0
 30
0.0
  9
$UCSORTHOREF
  2

  9
$UCSORTHOVIEW
 70
     0
  9
$UCSORGTOP
 10
0.0
 20
0.0
 30
0.0
  9
$UCSORGBOTTOM
 10
0.0
 20
0.0
 30
0.0
  9
$UCSORGLEFT
 10
0.0
 20
0.0
 30
0.0
  9
$UCSORGRIGHT
 10
0.0
 20
0.0
 30
0.0
  9
$UCSORGFRONT
 10
0.0
 20
0.0
 30
0.0
  9
$UCSORGBACK
 10
0.0
 20
0.0
 30
0.0
  9
$PUCSBASE
  2

  9
$PUCSNAME
  2

  9
$PUCSORG
 10
0.0
 20
0.0
 30
0.0
  9
$PUCSXDIR
 10
1.0
 20
0.0
 30
0.0
  9
$PUCSYDIR
 10
0.0
 20
1.0
 30
0.0
  9
$PUCSORTHOREF
  2

  9
$PUCSORTHOVIEW
 70
     0
  9
$PUCSORGTOP
 10
0.0
 20
0.0
 30
0.0
  9
$PUCSORGBOTTOM
 10
0.0
 20
0.0
 30
0.0
  9
$PUCSORGLEFT
 10
0.0
 20
0.0
 30
0.0
  9
$PUCSORGRIGHT
 10
0.0
 20
0.0
 30
0.0
  9
$PUCSORGFRONT
 10
0.0
 20
0.0
 30
0.0
  9
$PUCSORGBACK
 10
0.0
 20
0.0
 30
0.0
  9
$USERI1
 70
     0
  9
$USERI2
 70
     0
  9
$USERI3
 70
     0
  9
$USERI4
 70
     0
  9
$USERI5
 70
     0
  9
$USERR1
 40
0.0
  9
$USERR2
 40
0.0
  9
$USERR3
 40
0.0
  9
$USERR4
 40
0.0
  9
$USERR5
 40
0.0
  9
$WORLDVIEW
 70
     1
  9
$SHADEDGE
 70
     3
  9
$SHADEDIF
 70
    70
  9
$TILEMODE
 70
     1
  9
$MAXACTVP
 70
    64
  9
$PINSBASE
 10
0.0
 20
0.0
 30
0.0
  9
$PLIMCHECK
 70
     0
  9
$PEXTMIN
 10
0.0
 20
0.0
 30
0.0
  9
$PEXTMAX
 10
0.0
 20
0.0
 30
0.0
  9
$PLIMMIN
 10
0.0
 20
0.0
  9
$PLIMMAX
 10
12.0
 20
9.0
  9
$UNITMODE
 70
     0
  9
$VISRETAIN
 70
     1
  9
$PLINEGEN
 70
     0
  9
$PSLTSCALE
 70
     1
  9
$TREEDEPTH
 70
  3020
  9
$CMLSTYLE
  2
Standard
  9
$CMLJUST
 70
     0
  9
$CMLSCALE
 40
20.0
  9
$PROXYGRAPHICS
 70
     1
  9
$MEASUREMENT
 70
     1
  9
$CELWEIGHT
370
    -1
  9
$ENDCAPS
280
     0
  9
$JOINSTYLE
280
     0
  9
$LWDISPLAY
290
     0
  9
$INSUNITS
 70
     4
  9
$HYPERLINKBASE
  1

  9
$STYLESHEET
  1

  9
$XEDIT
290
     1
  9
$CEPSNTYPE
380
     0
  9
$PSTYLEMODE
290
     1
  9
$FINGERPRINTGUID
  2
{72C8881D-5842-43B0-A6B7-DF338891889C}
  9
$VERSIONGUID
  2
{87A16BA3-45F7-4FAE-8B7A-3FE281247089}
  9
$EXTNAMES
290
     1
  9
$PSVPSCALE
 40
0.0
  9
$OLESTARTUP
290
     0
  0
ENDSEC
  0
SECTION
  2
CLASSES
  0
CLASS
  1
ACDBDICTIONARYWDFLT
  2
AcDbDictionaryWithDefault
  3
ObjectDBX Classes
 90
        0
280
     0
281
     0
  0
CLASS
  1
ACDBPLACEHOLDER
  2
AcDbPlaceHolder
  3
ObjectDBX Classes
 90
        0
280
     0
281
     0
  0
CLASS
  1
LAYOUT
  2
AcDbLayout
  3
ObjectDBX Classes
 90
        0
280
     0
281
     0
  0
CLASS
  1
DICTIONARYVAR
  2
AcDbDictionaryVar
  3
ObjectDBX Classes
 90
        0
280
     0
281
     0
  0
CLASS
  1
TABLESTYLE
  2
AcDbTableStyle
  3
ObjectDBX Classes
 90
     4095
280
     0
281
     0
  0
CLASS
  1
MATERIAL
  2
AcDbMaterial
  3
ObjectDBX Classes
 90
     1153
280
     0
281
     0
  0
CLASS
  1
VISUALSTYLE
  2
AcDbVisualStyle
  3
ObjectDBX Classes
 90
     4095
280
     0
281
     0
  0
CLASS
  1
SCALE
  2
AcDbScale
  3
ObjectDBX Classes
 90
     1153
280
     0
281
     0
  0
CLASS
  1
MLEADERSTYLE
  2
AcDbMLeaderStyle
  3
ACDB_MLEADERSTYLE_CLASS
 90
     4095
280
     0
281
     0
  0
CLASS
  1
CELLSTYLEMAP
  2
AcDbCellStyleMap
  3
ObjectDBX Classes
 90
     1152
280
     0
281
     0
  0
ENDSEC
  0
SECTION
  2
TABLES
  0
TABLE
  2
VPORT
  5
8
330
0
100
AcDbSymbolTable
 70
     1
  0
VPORT
  5
EA
330
8
100
AcDbSymbolTableRecord
100
AcDbViewportTableRecord
  2
*Active
 70
     0
 10
0.0
 20
0.0
 11
1.0
 21
1.0
 12
1881.823219454508
 22
913.8986358907962
 13
0.0
 23
0.0
 14
10.0
 24
10.0
 15
10.0
 25
10.0
 16
0.0
 26
0.0
 36
1.0
 17
0.0
 27
0.0
 37
0.0
 40
131.9211355942666
 41
1.903110047846889
 42
50.0
 43
0.0
 44
0.0
 50
0.0
 51
0.0
 71
     0
 72
  1000
 73
     1
 74
     3
 75
     0
 76
     0
 77
     0
 78
     0
281
     0
 65
     1
110
0.0
120
0.0
130
0.0
111
1.0
121
0.0
131
0.0
112
0.0
122
1.0
132
0.0
 79
     0
146
0.0
  0
ENDTAB
  0
TABLE
  2
LTYPE
  5
5
330
0
100
AcDbSymbolTable
 70
     1
  0
LTYPE
  5
14
330
5
100
AcDbSymbolTableRecord
100
AcDbLinetypeTableRecord
  2
ByBlock
 70
     0
  3

 72
    65
 73
     0
 40
0.0
  0
LTYPE
  5
15
330
5
100
AcDbSymbolTableRecord
100
AcDbLinetypeTableRecord
  2
ByLayer
 70
     0
  3

 72
    65
 73
     0
 40
0.0
  0
LTYPE
  5
16
330
5
100
AcDbSymbolTableRecord
100
AcDbLinetypeTableRecord
  2
Continuous
 70
     0
  3
Solid line
 72
    65
 73
     0
 40
0.0
  0
ENDTAB
  0
TABLE
  2
LAYER
  5
2
330
0
100
AcDbSymbolTable
 70
     1
  0
LAYER
  5
10
102
{ACAD_XDICTIONARY
360
13C
102
}
330
2
100
AcDbSymbolTableRecord
100
AcDbLayerTableRecord
  2
0
 70
     0
 62
     7
  6
Continuous
370
    -3
390
F
  0
ENDTAB
  0
TABLE
  2
STYLE
  5
3
330
0
100
AcDbSymbolTable
 70
     2
  0
STYLE
  5
11
330
3
100
AcDbSymbolTableRecord
100
AcDbTextStyleTableRecord
  2
Standard
 70
     0
 40
0.0
 41
1.0
 50
0.0
 71
     0
 42
2.5
  3
txt
  4

  0
STYLE
  5
132
330
3
100
AcDbSymbolTableRecord
100
AcDbTextStyleTableRecord
  2
Annotative
 70
     0
 40
0.0
 41
1.0
 50
0.0
 71
     0
 42
2.5
  3
txt.shx
  4

1001
AcadAnnotative
1000
AnnotativeData
1002
{
1070
     1
1070
     1
1002
}
  0
ENDTAB
  0
TABLE
  2
VIEW
  5
6
330
0
100
AcDbSymbolTable
 70
     0
  0
ENDTAB
  0
TABLE
  2
UCS
  5
7
330
0
100
AcDbSymbolTable
 70
     0
  0
ENDTAB
  0
TABLE
  2
APPID
  5
9
330
0
100
AcDbSymbolTable
 70
     7
  0
APPID
  5
12
330
9
100
AcDbSymbolTableRecord
100
AcDbRegAppTableRecord
  2
ACAD
 70
     0
  0
APPID
  5
9E
330
9
100
AcDbSymbolTableRecord
100
AcDbRegAppTableRecord
  2
ACAD_PSEXT
 70
     0
  0
APPID
  5
133
330
9
100
AcDbSymbolTableRecord
100
AcDbRegAppTableRecord
  2
AcadAnnoPO
 70
     0
  0
APPID
  5
134
330
9
100
AcDbSymbolTableRecord
100
AcDbRegAppTableRecord
  2
AcadAnnotative
 70
     0
  0
APPID
  5
135
330
9
100
AcDbSymbolTableRecord
100
AcDbRegAppTableRecord
  2
ACAD_DSTYLE_DIMJAG
 70
     0
  0
APPID
  5
136
330
9
100
AcDbSymbolTableRecord
100
AcDbRegAppTableRecord
  2
ACAD_DSTYLE_DIMTALN
 70
     0
  0
APPID
  5
165
330
9
100
AcDbSymbolTableRecord
100
AcDbRegAppTableRecord
  2
ACAD_MLEADERVER
 70
     0
  0
ENDTAB
  0
TABLE
  2
DIMSTYLE
  5
A
330
0
100
AcDbSymbolTable
 70
     2
100
AcDbDimStyleTable
 71
     2
340
27
340
137
  0
DIMSTYLE
105
27
330
A
100
AcDbSymbolTableRecord
100
AcDbDimStyleTableRecord
  2
ISO-25
 70
     0
 41
2.5
 42
0.625
 43
3.75
 44
1.25
 73
     0
 74
     0
 77
     1
 78
     8
140
2.5
141
2.5
143
0.03937007874016
147
0.625
171
     3
172
     1
271
     2
272
     2
274
     3
278
    44
283
     0
284
     8
340
11
  0
DIMSTYLE
105
137
330
A
100
AcDbSymbolTableRecord
100
AcDbDimStyleTableRecord
  2
Annotative
 70
     0
 40
0.0
 41
2.5
 42
0.625
 43
3.75
 44
1.25
 73
     0
 74
     0
 77
     1
 78
     8
140
2.5
141
2.5
143
0.03937007874016
147
0.625
171
     3
172
     1
271
     2
272
     2
274
     3
278
    44
283
     0
284
     8
340
11
1001
AcadAnnotative
1000
AnnotativeData
1002
{
1070
     1
1070
     1
1002
}
1001
ACAD_DSTYLE_DIMJAG
1070
   388
1040
1.5
1001
ACAD_DSTYLE_DIMTALN
1070
   392
1070
     0
  0
ENDTAB
  0
TABLE
  2
BLOCK_RECORD
  5
1
330
0
100
AcDbSymbolTable
 70
     5
  0
BLOCK_RECORD
  5
1F
330
1
100
AcDbSymbolTableRecord
100
AcDbBlockTableRecord
  2
*Model_Space
340
22
  0
BLOCK_RECORD
  5
D2
330
1
100
AcDbSymbolTableRecord
100
AcDbBlockTableRecord
  2
*Paper_Space
340
D3
  0
BLOCK_RECORD
  5
D6
330
1
100
AcDbSymbolTableRecord
100
AcDbBlockTableRecord
  2
*Paper_Space0
340
D7
  0
BLOCK_RECORD
  5
3E9
330
1
100
AcDbSymbolTableRecord
100
AcDbBlockTableRecord
  2
1
340
0
310
2800000020000000200000000100080000000000000400000000000000000000000000000000000000000000000080000080000000808000800000008000800080800000C0C0C000C0DCC000F0CAA6000020400000206000002080000020A0000020C0000020E00000400000004020000040400000406000004080000040A0
310
000040C0000040E00000600000006020000060400000606000006080000060A0000060C0000060E00000800000008020000080400000806000008080000080A0000080C0000080E00000A0000000A0200000A0400000A0600000A0800000A0A00000A0C00000A0E00000C0000000C0200000C0400000C0600000C0800000C0
310
A00000C0C00000C0E00000E0000000E0200000E0400000E0600000E0800000E0A00000E0C00000E0E00040000000400020004000400040006000400080004000A0004000C0004000E00040200000402020004020400040206000402080004020A0004020C0004020E000404000004040200040404000404060004040800040
310
40A0004040C0004040E00040600000406020004060400040606000406080004060A0004060C0004060E00040800000408020004080400040806000408080004080A0004080C0004080E00040A0000040A0200040A0400040A0600040A0800040A0A00040A0C00040A0E00040C0000040C0200040C0400040C0600040C08000
310
40C0A00040C0C00040C0E00040E0000040E0200040E0400040E0600040E0800040E0A00040E0C00040E0E00080000000800020008000400080006000800080008000A0008000C0008000E00080200000802020008020400080206000802080008020A0008020C0008020E00080400000804020008040400080406000804080
310
008040A0008040C0008040E00080600000806020008060400080606000806080008060A0008060C0008060E00080800000808020008080400080806000808080008080A0008080C0008080E00080A0000080A0200080A0400080A0600080A0800080A0A00080A0C00080A0E00080C0000080C0200080C0400080C0600080C0
310
800080C0A00080C0C00080C0E00080E0000080E0200080E0400080E0600080E0800080E0A00080E0C00080E0E000C0000000C0002000C0004000C0006000C0008000C000A000C000C000C000E000C0200000C0202000C0204000C0206000C0208000C020A000C020C000C020E000C0400000C0402000C0404000C0406000C0
310
408000C040A000C040C000C040E000C0600000C0602000C0604000C0606000C0608000C060A000C060C000C060E000C0800000C0802000C0804000C0806000C0808000C080A000C080C000C080E000C0A00000C0A02000C0A04000C0A06000C0A08000C0A0A000C0A0C000C0A0E000C0C00000C0C02000C0C04000C0C06000
310
C0C08000C0C0A000F0FBFF00A4A0A000808080000000FF0000FF000000FFFF00FF000000FF00FF00FFFF0000FFFFFF0000000000000000000000000000000000000000000000000000000000000000000000000000000000000000FFFF000000000000FFFF00000000000000000000000000000000000000000000FF00FF00
310
000000FF00FF00000000000000000000000000000000000000000000FF00FF00000000FF0000FF0000000000000000000000000000000000000000FF0000FF00000000FF0000FF0000000000000000000000000000000000000000FF0000FF00000000FF0000FF0000000000000000000000000000000000000000FF0000FF
310
00000000FF0000FF0000000000000000000000000000000000000000FF0000FF00000000FF0000FF0000000000000000000000000000000000000000FF0000FF00000000FF0000FF0000000000000000000000000000000000000000FFFFFFFF00000000FFFFFFFF0000000000000000000000000000000000000000FFFFFF
310
FF00000000FFFFFFFF0000000000000000000000000000000000000000FF0000FF00000000FF0000FF0000000000000000000000000000000000000000FF0000FF00000000FF0000FF0000000000000000000000000000000000000000FF0000FF00000000FF0000FF0000000000000000000000000000000000000000FF00
310
00FF00000000FF0000FF0000000000000000000000000000000000000000FF0000FF00000000FF0000FF0000000000000000000000000000000000000000FFFFFFFFFF0000FFFFFFFFFF0000000000000000000000000000000000000000FF000000FF0000FF000000FF0000000000000000000000000000000000000000FF
310
000000FF0000FF000000FF00000000000000000000000000000000000000FF00FFFFFFFF0000FFFFFFFF00FF000000000000000000000000000000000000FF00FFFFFFFF0000FFFFFFFF00FF000000000000000000000000000000000000FF00000000FF0000FF00000000FF0000000000000000000000000000000000FFFF
310
00000000FFFFFFFF00000000FFFF00000000000000000000000000000000FF0000000000000000000000000000FF00000000000000000000000000000000FF0000000000000000000000000000FF00000000000000000000000000000000FF0000000000000000000000000000FF00000000000000000000000000000000FF
310
0000000000000000000000000000FF00000000000000000000000000000000FF0000000000000000000000000000FF00000000000000000000000000000000FFFFFFFFFFFFFFFFFFFFFFFFFFFFFFFF00000000000000000000000000000000FF0000000000000000000000000000FF00000000000000000000000000000000
310
FFFFFFFFFFFFFFFFFFFFFFFFFFFFFFFF00000000000000000000000000000000000000000000000000000000000000000000000000000000
102
{BLKREFS
331
437
102
}
1001
ACAD
1000
DesignCenter Data
1002
{
1070
     1
1070
     4
1002
}
  0
BLOCK_RECORD
  5
438
330
1
100
AcDbSymbolTableRecord
100
AcDbBlockTableRecord
  2
2
340
0
310
2800000020000000200000000100080000000000000400000000000000000000000000000000000000000000000080000080000000808000800000008000800080800000C0C0C000C0DCC000F0CAA6000020400000206000002080000020A0000020C0000020E00000400000004020000040400000406000004080000040A0
310
000040C0000040E00000600000006020000060400000606000006080000060A0000060C0000060E00000800000008020000080400000806000008080000080A0000080C0000080E00000A0000000A0200000A0400000A0600000A0800000A0A00000A0C00000A0E00000C0000000C0200000C0400000C0600000C0800000C0
310
A00000C0C00000C0E00000E0000000E0200000E0400000E0600000E0800000E0A00000E0C00000E0E00040000000400020004000400040006000400080004000A0004000C0004000E00040200000402020004020400040206000402080004020A0004020C0004020E000404000004040200040404000404060004040800040
310
40A0004040C0004040E00040600000406020004060400040606000406080004060A0004060C0004060E00040800000408020004080400040806000408080004080A0004080C0004080E00040A0000040A0200040A0400040A0600040A0800040A0A00040A0C00040A0E00040C0000040C0200040C0400040C0600040C08000
310
40C0A00040C0C00040C0E00040E0000040E0200040E0400040E0600040E0800040E0A00040E0C00040E0E00080000000800020008000400080006000800080008000A0008000C0008000E00080200000802020008020400080206000802080008020A0008020C0008020E00080400000804020008040400080406000804080
310
008040A0008040C0008040E00080600000806020008060400080606000806080008060A0008060C0008060E00080800000808020008080400080806000808080008080A0008080C0008080E00080A0000080A0200080A0400080A0600080A0800080A0A00080A0C00080A0E00080C0000080C0200080C0400080C0600080C0
310
800080C0A00080C0C00080C0E00080E0000080E0200080E0400080E0600080E0800080E0A00080E0C00080E0E000C0000000C0002000C0004000C0006000C0008000C000A000C000C000C000E000C0200000C0202000C0204000C0206000C0208000C020A000C020C000C020E000C0400000C0402000C0404000C0406000C0
310
408000C040A000C040C000C040E000C0600000C0602000C0604000C0606000C0608000C060A000C060C000C060E000C0800000C0802000C0804000C0806000C0808000C080A000C080C000C080E000C0A00000C0A02000C0A04000C0A06000C0A08000C0A0A000C0A0C000C0A0E000C0C00000C0C02000C0C04000C0C06000
310
C0C08000C0C0A000F0FBFF00A4A0A000808080000000FF0000FF000000FFFF00FF000000FF00FF00FFFF0000FFFFFF0000000000000000000000000000000000000000000000000000000000000000000000000000000000000000000000FFFFFFFF00000000000000000000000000000000000000000000000000000000FF
310
FFFFFF00000000000000000000000000000000000000000000000000000000FF0000FF00000000000000000000000000000000000000000000000000000000FFFFFFFF00000000000000000000000000000000000000000000000000000000FF0000FF00000000000000000000000000000000000000000000000000000000
310
FF0000FF00000000000000000000000000000000000000000000000000000000FF0000FF00000000000000000000000000000000000000000000000000000000FF0000FF00000000000000000000000000000000000000000000000000000000FFFFFFFF000000000000000000000000000000000000000000000000000000
310
0000FFFF000000000000000000000000000000000000000000000000000000000000FFFF000000000000000000000000000000000000000000000000000000000000FFFF000000000000000000000000000000000000000000000000000000000000FFFF000000000000000000000000000000000000000000000000000000
310
000000FFFF000000000000000000000000000000000000000000000000000000000000FFFF0000000000000000000000000000000000000000000000000000000000FFFFFFFF00000000000000000000000000000000000000000000000000000000FF0000FF00000000000000000000000000000000000000000000000000
310
000000FFFFFFFF00000000000000000000000000000000000000000000000000000000FFFFFFFF00000000000000000000000000000000000000000000000000000000FF0000FF00000000000000000000000000000000000000000000000000000000FF0000FF000000000000000000000000000000000000000000000000
310
00000000FFFFFFFF00000000000000000000000000000000000000000000000000000000FF0000FF00000000000000000000000000000000000000000000000000000000FF0000FF00000000000000000000000000000000000000000000000000000000FF0000FF0000000000000000000000000000000000000000000000
310
0000000000FF0000FF00000000000000000000000000000000000000000000000000000000FF0000FF000000000000000000000000000000000000000000000000000000FFFF0000FFFF0000000000000000000000000000000000000000000000000000FF00000000FF000000000000000000000000000000000000000000
310
0000000000FFFFFFFFFFFF000000000000000000000000000000000000000000000000000000000000000000000000000000000000000000
102
{BLKREFS
331
476
102
}
1001
ACAD
1000
DesignCenter Data
1002
{
1070
     1
1070
     4
1002
}
  0
BLOCK_RECORD
  5
477
330
1
100
AcDbSymbolTableRecord
100
AcDbBlockTableRecord
  2
3
340
0
310
2800000020000000200000000100080000000000000400000000000000000000000000000000000000000000000080000080000000808000800000008000800080800000C0C0C000C0DCC000F0CAA6000020400000206000002080000020A0000020C0000020E00000400000004020000040400000406000004080000040A0
310
000040C0000040E00000600000006020000060400000606000006080000060A0000060C0000060E00000800000008020000080400000806000008080000080A0000080C0000080E00000A0000000A0200000A0400000A0600000A0800000A0A00000A0C00000A0E00000C0000000C0200000C0400000C0600000C0800000C0
310
A00000C0C00000C0E00000E0000000E0200000E0400000E0600000E0800000E0A00000E0C00000E0E00040000000400020004000400040006000400080004000A0004000C0004000E00040200000402020004020400040206000402080004020A0004020C0004020E000404000004040200040404000404060004040800040
310
40A0004040C0004040E00040600000406020004060400040606000406080004060A0004060C0004060E00040800000408020004080400040806000408080004080A0004080C0004080E00040A0000040A0200040A0400040A0600040A0800040A0A00040A0C00040A0E00040C0000040C0200040C0400040C0600040C08000
310
40C0A00040C0C00040C0E00040E0000040E0200040E0400040E0600040E0800040E0A00040E0C00040E0E00080000000800020008000400080006000800080008000A0008000C0008000E00080200000802020008020400080206000802080008020A0008020C0008020E00080400000804020008040400080406000804080
310
008040A0008040C0008040E00080600000806020008060400080606000806080008060A0008060C0008060E00080800000808020008080400080806000808080008080A0008080C0008080E00080A0000080A0200080A0400080A0600080A0800080A0A00080A0C00080A0E00080C0000080C0200080C0400080C0600080C0
310
800080C0A00080C0C00080C0E00080E0000080E0200080E0400080E0600080E0800080E0A00080E0C00080E0E000C0000000C0002000C0004000C0006000C0008000C000A000C000C000C000E000C0200000C0202000C0204000C0206000C0208000C020A000C020C000C020E000C0400000C0402000C0404000C0406000C0
310
408000C040A000C040C000C040E000C0600000C0602000C0604000C0606000C0608000C060A000C060C000C060E000C0800000C0802000C0804000C0806000C0808000C080A000C080C000C080E000C0A00000C0A02000C0A04000C0A06000C0A08000C0A0A000C0A0C000C0A0E000C0C00000C0C02000C0C04000C0C06000
310
C0C08000C0C0A000F0FBFF00A4A0A000808080000000FF0000FF000000FFFF00FF000000FF00FF00FFFF0000FFFFFF0000000000000000000000000000000000000000000000000000000000000000000000000000000000000000000000000000000000000000000000000000000000000000000000000000000000000000
310
00000000000000000000000000000000000000000000000000000000000000000000000000000000000000000000000000000000000000000000000000000000000000000000000000000000000000000000000000000000000000000000000000000000000000000000000000000000000000000000000000000000000000
310
00000000000000000000000000000000000000000000000000000000000000000000000000000000000000000000000000000000000000000000000000000000000000000000000000000000000000000000000000000000000000000000000000000000000000000000000000000000000000000000000000000000000000
310
0000000000000000000000000000000000000000FFFFFFFFFFFFFFFFFFFFFFFFFFFFFFFFFFFFFFFFFFFFFFFFFFFFFFFFFFFF0000FF00000000000000000000000000000000000000000000000000000000FF0000FF00000000000000000000000000000000000000000000000000000000FF0000FF00000000000000000000
310
000000000000000000000000000000000000FF0000FF00000000000000000000000000000000000000000000000000000000FF0000FF00000000000000000000000000000000000000000000000000000000FF0000FF00000000000000000000000000000000000000000000000000000000FF0000FF000000000000000000
310
00000000000000000000000000000000000000FF0000FF00000000000000000000000000000000000000000000000000000000FF0000FFFFFFFFFFFFFFFFFFFFFFFFFFFFFFFFFFFFFFFFFFFFFFFFFFFFFFFFFFFF00000000000000000000000000000000000000000000000000000000000000000000000000000000000000
310
00000000000000000000000000000000000000000000000000000000000000000000000000000000000000000000000000000000000000000000000000000000000000000000000000000000000000000000000000000000000000000000000000000000000000000000000000000000000000000000000000000000000000
310
00000000000000000000000000000000000000000000000000000000000000000000000000000000000000000000000000000000000000000000000000000000000000000000000000000000000000000000000000000000000000000000000000000000000000000000000000000000000000000000000000000000000000
310
0000000000000000000000000000000000000000000000000000000000000000000000000000000000000000000000000000000000000000
102
{BLKREFS
331
47E
102
}
1001
ACAD
1000
DesignCenter Data
1002
{
1070
     1
1070
     4
1002
}
  0
BLOCK_RECORD
  5
47F
330
1
100
AcDbSymbolTableRecord
100
AcDbBlockTableRecord
  2
4
340
0
310
2800000020000000200000000100080000000000000400000000000000000000000000000000000000000000000080000080000000808000800000008000800080800000C0C0C000C0DCC000F0CAA6000020400000206000002080000020A0000020C0000020E00000400000004020000040400000406000004080000040A0
310
000040C0000040E00000600000006020000060400000606000006080000060A0000060C0000060E00000800000008020000080400000806000008080000080A0000080C0000080E00000A0000000A0200000A0400000A0600000A0800000A0A00000A0C00000A0E00000C0000000C0200000C0400000C0600000C0800000C0
310
A00000C0C00000C0E00000E0000000E0200000E0400000E0600000E0800000E0A00000E0C00000E0E00040000000400020004000400040006000400080004000A0004000C0004000E00040200000402020004020400040206000402080004020A0004020C0004020E000404000004040200040404000404060004040800040
310
40A0004040C0004040E00040600000406020004060400040606000406080004060A0004060C0004060E00040800000408020004080400040806000408080004080A0004080C0004080E00040A0000040A0200040A0400040A0600040A0800040A0A00040A0C00040A0E00040C0000040C0200040C0400040C0600040C08000
310
40C0A00040C0C00040C0E00040E0000040E0200040E0400040E0600040E0800040E0A00040E0C00040E0E00080000000800020008000400080006000800080008000A0008000C0008000E00080200000802020008020400080206000802080008020A0008020C0008020E00080400000804020008040400080406000804080
310
008040A0008040C0008040E00080600000806020008060400080606000806080008060A0008060C0008060E00080800000808020008080400080806000808080008080A0008080C0008080E00080A0000080A0200080A0400080A0600080A0800080A0A00080A0C00080A0E00080C0000080C0200080C0400080C0600080C0
310
800080C0A00080C0C00080C0E00080E0000080E0200080E0400080E0600080E0800080E0A00080E0C00080E0E000C0000000C0002000C0004000C0006000C0008000C000A000C000C000C000E000C0200000C0202000C0204000C0206000C0208000C020A000C020C000C020E000C0400000C0402000C0404000C0406000C0
310
408000C040A000C040C000C040E000C0600000C0602000C0604000C0606000C0608000C060A000C060C000C060E000C0800000C0802000C0804000C0806000C0808000C080A000C080C000C080E000C0A00000C0A02000C0A04000C0A06000C0A08000C0A0A000C0A0C000C0A0E000C0C00000C0C02000C0C04000C0C06000
310
C0C08000C0C0A000F0FBFF00A4A0A000808080000000FF0000FF000000FFFF00FF000000FF00FF00FFFF0000FFFFFF000000000000000000000000000000000000000000000000000000000000000000000000000000000000000000000000000000FF00000000000000000000000000000000000000000000000000000000
310
0000FFFFFFFF00000000000000000000000000000000000000000000000000000000FFFFFFFF0000000000000000000000000000000000000000000000FFFF0000FF00FFFFFF0000000000000000000000000000000000000000000000FFFFFF00FF00FF00FF00000000000000000000000000000000000000000000FF00FF
310
FF00FF00FF00FF00000000000000000000000000000000000000000000FF00FFFFFFFF00FF00FF00000000000000000000000000000000000000000000FF00FF00FFFFFFFFFFFF00000000000000000000000000000000000000000000FF00FF00FFFFFFFFFFFF00000000000000000000000000000000000000000000FF00
310
FF00FF00FF00FFFF00000000000000000000000000000000000000000000FFFFFFFFFF00FF00FFFF00000000000000000000000000000000000000000000FFFFFFFF0000FFFFFFFF00000000000000000000000000000000000000000000FF00FFFF0000FF00FFFF00000000000000000000000000000000000000000000FF
310
00FFFF00FF0000FFFFFF000000000000000000000000000000000000000000FF00FFFF00FF00FFFFFFFF000000000000000000000000000000000000000000FFFFFFFFFFFFFFFFFF00FF0000000000000000000000000000000000000000FFFF00FFFFFFFFFF00FFFFFF0000000000000000000000000000000000000000FF
310
0000FFFFFF00000000FFFF0000000000000000000000000000000000000000FFFFFFFFFFFF00000000FFFF0000000000000000000000000000000000000000FFFFFF00FF0000000000FFFF0000000000000000000000000000000000000000FF0000000000000000FFFFFF0000000000000000000000000000000000000000
310
FF000000000000FFFFFFFFFF0000000000000000000000000000000000000000FF00000000FFFFFFFF00FFFFFF00000000000000000000000000000000000000FF000000FFFFFF0000000000FF00000000000000000000000000000000000000FF00FFFFFF0000000000FFFF00000000000000000000000000000000000000
310
00FFFFFFFF00000000FFFF000000000000000000000000000000000000000000FFFFFF0000000000FF0000000000000000000000000000000000000000000000FF0000000000FFFF00000000000000000000000000000000000000000000000000FFFF00FFFF00000000000000000000000000000000000000000000000000
310
00000000FF000000000000000000000000000000000000000000000000000000000000000000000000000000000000000000000000000000
102
{BLKREFS
331
514
102
}
1001
ACAD
1000
DesignCenter Data
1002
{
1070
     1
1070
     4
1002
}
  0
ENDTAB
  0
ENDSEC
  0
SECTION
  2
BLOCKS
  0
BLOCK
  5
20
330
1F
100
AcDbEntity
  8
0
100
AcDbBlockBegin
  2
*Model_Space
 70
     0
 10
0.0
 20
0.0
 30
0.0
  3
*Model_Space
  1

  0
ENDBLK
  5
21
330
1F
100
AcDbEntity
  8
0
100
AcDbBlockEnd
  0
BLOCK
  5
D4
330
D2
100
AcDbEntity
 67
     1
  8
0
100
AcDbBlockBegin
  2
*Paper_Space
 70
     0
 10
0.0
 20
0.0
 30
0.0
  3
*Paper_Space
  1

  0
ENDBLK
  5
D5
330
D2
100
AcDbEntity
 67
     1
  8
0
100
AcDbBlockEnd
  0
BLOCK
  5
D8
330
D6
100
AcDbEntity
 67
     1
  8
0
100
AcDbBlockBegin
  2
*Paper_Space0
 70
     0
 10
0.0
 20
0.0
 30
0.0
  3
*Paper_Space0
  1

  0
ENDBLK
  5
D9
330
D6
100
AcDbEntity
 67
     1
  8
0
100
AcDbBlockEnd
  0
BLOCK
  5
3EA
330
3E9
100
AcDbEntity
  8
0
100
AcDbBlockBegin
  2
1
 70
     0
 10
0.0
 20
0.0
 30
0.0
  3
1
  1

  0
LINE
  5
3EC
330
3E9
100
AcDbEntity
  8
0
  6
Continuous
 62
     7
370
    15
100
AcDbLine
 10
1868.737462690515
 20
934.3946966911486
 30
0.0
 11
1852.937461253316
 21
934.3946966911486
 31
0.0
  0
LINE
  5
3ED
330
3E9
100
AcDbEntity
  8
0
  6
Continuous
 62
     7
370
    15
100
AcDbLine
 10
1868.737462690515
 20
935.5946966911487
 30
0.0
 11
1852.937461253316
 21
935.5946966911487
 31
0.0
  0
LINE
  5
3EE
330
3E9
100
AcDbEntity
  8
0
  6
Continuous
 62
     7
370
    15
100
AcDbLine
 10
1868.737462690515
 20
934.3946966911486
 30
0.0
 11
1868.737462690515
 21
935.5946966911487
 31
0.0
  0
LINE
  5
3EF
330
3E9
100
AcDbEntity
  8
0
  6
Continuous
 62
     7
370
    15
100
AcDbLine
 10
1852.937461253316
 20
935.5946966911487
 30
0.0
 11
1852.937461253316
 21
934.3946966911486
 31
0.0
  0
LINE
  5
3F0
330
3E9
100
AcDbEntity
  8
0
  6
Continuous
 62
     7
370
    15
100
AcDbLine
 10
1857.987458368451
 20
925.6946966911486
 30
0.0
 11
1855.487458368451
 21
925.6946966911486
 31
0.0
  0
LINE
  5
3F1
330
3E9
100
AcDbEntity
  8
0
  6
Continuous
 62
     7
370
    15
100
AcDbLine
 10
1857.987458368451
 20
924.3946966911487
 30
0.0
 11
1857.987458368451
 21
925.6946966911486
 31
0.0
  0
LINE
  5
3F2
330
3E9
100
AcDbEntity
  8
0
  6
Continuous
 62
     7
370
    15
100
AcDbLine
 10
1857.987458368451
 20
924.3946966911487
 30
0.0
 11
1855.487458368451
 21
924.3946966911487
 31
0.0
  0
LINE
  5
3F3
330
3E9
100
AcDbEntity
  8
0
  6
Continuous
 62
     7
370
    15
100
AcDbLine
 10
1855.487458368451
 20
924.3946966911487
 30
0.0
 11
1855.487458368451
 21
925.6946966911486
 31
0.0
  0
LINE
  5
3F4
330
3E9
100
AcDbEntity
  8
0
  6
Continuous
 62
     7
370
    15
100
AcDbLine
 10
1866.187458368451
 20
925.6946966911486
 30
0.0
 11
1863.687458368451
 21
925.6946966911486
 31
0.0
  0
LINE
  5
3F5
330
3E9
100
AcDbEntity
  8
0
  6
Continuous
 62
     7
370
    15
100
AcDbLine
 10
1866.187458368451
 20
924.3946966911487
 30
0.0
 11
1866.187458368451
 21
925.6946966911486
 31
0.0
  0
LINE
  5
3F6
330
3E9
100
AcDbEntity
  8
0
  6
Continuous
 62
     7
370
    15
100
AcDbLine
 10
1866.187458368451
 20
924.3946966911487
 30
0.0
 11
1863.687458368451
 21
924.3946966911487
 31
0.0
  0
LINE
  5
3F7
330
3E9
100
AcDbEntity
  8
0
  6
Continuous
 62
     7
370
    15
100
AcDbLine
 10
1863.687458368451
 20
924.3946966911487
 30
0.0
 11
1863.687458368451
 21
925.6946966911486
 31
0.0
  0
LINE
  5
3F8
330
3E9
100
AcDbEntity
  8
0
  6
Continuous
 62
     7
370
    15
100
AcDbLine
 10
1867.58746557538
 20
927.9280781354922
 30
0.0
 11
1868.737462690515
 21
927.9280781354922
 31
0.0
  0
LINE
  5
3F9
330
3E9
100
AcDbEntity
  8
0
  6
Continuous
 62
     7
370
    15
100
AcDbLine
 10
1867.58746557538
 20
924.2246864413329
 30
0.0
 11
1867.58746557538
 21
927.9280781354922
 31
0.0
  0
ARC
  5
3FA
330
3E9
100
AcDbEntity
  8
0
  6
Continuous
 62
     7
370
    15
100
AcDbCircle
 10
1867.087463052731
 20
924.2246829803583
 30
0.0
 40
0.500002522661346
100
AcDbArc
 50
314.9998148888426
 51
0.0003965964620312
  0
LINE
  5
3FB
330
3E9
100
AcDbEntity
  8
0
  6
Continuous
 62
     7
370
    15
100
AcDbLine
 10
1867.383913030448
 20
923.8140241214779
 30
0.0
 11
1867.441017084841
 21
923.8711266637162
 31
0.0
  0
ARC
  5
3FC
330
3E9
100
AcDbEntity
  8
0
  6
Continuous
 62
     7
370
    15
100
AcDbCircle
 10
1867.7374621352
 20
923.460470335522
 30
0.0
 40
0.4999972490596443
100
AcDbArc
 50
134.9996206871214
 51
180.0000268516866
  0
LINE
  5
3FD
330
3E9
100
AcDbEntity
  8
0
  6
Continuous
 62
     7
370
    15
100
AcDbLine
 10
1867.237464886141
 20
921.4461010943674
 30
0.0
 11
1867.237464886141
 21
923.4604701011981
 31
0.0
  0
LINE
  5
3FE
330
3E9
100
AcDbEntity
  8
0
  6
Continuous
 62
     7
370
    15
100
AcDbLine
 10
1866.88746641202
 20
921.0961026202463
 30
0.0
 11
1867.237464886141
 21
921.4461010943674
 31
0.0
  0
LINE
  5
3FF
330
3E9
100
AcDbEntity
  8
0
  6
Continuous
 62
     7
370
    15
100
AcDbLine
 10
1866.88746641202
 20
921.0961026202463
 30
0.0
 11
1862.98745999856
 21
921.0961026202463
 31
0.0
  0
LINE
  5
400
330
3E9
100
AcDbEntity
  8
0
  6
Continuous
 62
     7
370
    15
100
AcDbLine
 10
1862.63745938426
 20
921.4461032345459
 30
0.0
 11
1862.98745999856
 21
921.0961026202463
 31
0.0
  0
LINE
  5
401
330
3E9
100
AcDbEntity
  8
0
  6
Continuous
 62
     7
370
    15
100
AcDbLine
 10
1862.63745938426
 20
923.4604706011344
 30
0.0
 11
1862.637461524439
 21
921.4461010943674
 31
0.0
  0
ARC
  5
402
330
3E9
100
AcDbEntity
  8
0
  6
Continuous
 62
     7
370
    15
100
AcDbCircle
 10
1862.137457217048
 20
923.4604703355193
 30
0.0
 40
0.500002167213022
100
AcDbArc
 50
0.0000304371164707
 51
45.00047442047931
  0
LINE
  5
403
330
3E9
100
AcDbEntity
  8
0
  6
Continuous
 62
     7
370
    15
100
AcDbLine
 10
1862.433902294016
 20
923.8711289748355
 30
0.0
 11
1862.491009212574
 21
923.814028186057
 31
0.0
  0
ARC
  5
404
330
3E9
100
AcDbEntity
  8
0
  6
Continuous
 62
     7
370
    15
100
AcDbCircle
 10
1862.787454388479
 20
924.2246810692988
 30
0.0
 40
0.4999981855165049
100
AcDbArc
 50
179.99994688854
 51
224.9999999999908
  0
LINE
  5
405
330
3E9
100
AcDbEntity
  8
0
  6
Continuous
 62
     7
370
    15
100
AcDbLine
 10
1862.287463050318
 20
927.9280790592364
 30
0.0
 11
1862.287456202963
 21
924.2246815327819
 31
0.0
  0
LINE
  5
406
330
3E9
100
AcDbEntity
  8
0
  6
Continuous
 62
     7
370
    15
100
AcDbLine
 10
1859.387457356602
 20
927.9280790592364
 30
0.0
 11
1862.287463050318
 21
927.9280790592364
 31
0.0
  0
LINE
  5
407
330
3E9
100
AcDbEntity
  8
0
  6
Continuous
 62
     7
370
    15
100
AcDbLine
 10
1859.387457356602
 20
924.2246879001744
 30
0.0
 11
1859.387457356602
 21
927.9280790592364
 31
0.0
  0
ARC
  5
408
330
3E9
100
AcDbEntity
  8
0
  6
Continuous
 62
     7
370
    15
100
AcDbCircle
 10
1858.887458842961
 20
924.2246844391949
 30
0.0
 40
0.4999985136888523
100
AcDbArc
 50
314.9998166532981
 51
0.0003966002009386
  0
LINE
  5
409
330
3E9
100
AcDbEntity
  8
0
  6
Continuous
 62
     7
370
    15
100
AcDbLine
 10
1859.183905993667
 20
923.8140237261129
 30
0.0
 11
1859.241010051203
 21
923.8711309682154
 31
0.0
  0
ARC
  5
40A
330
3E9
100
AcDbEntity
  8
0
  6
Continuous
 62
     7
370
    15
100
AcDbCircle
 10
1859.537460189293
 20
923.4604711405543
 30
0.0
 40
0.5000000000000642
100
AcDbArc
 50
135.0001304613358
 51
180.000072976503
  0
LINE
  5
40B
330
3E9
100
AcDbEntity
  8
0
  6
Continuous
 62
     7
370
    15
100
AcDbLine
 10
1859.037460189295
 20
921.4461010943674
 30
0.0
 11
1859.037460189295
 21
923.4604705037142
 31
0.0
  0
LINE
  5
40C
330
3E9
100
AcDbEntity
  8
0
  6
Continuous
 62
     7
370
    15
100
AcDbLine
 10
1858.687461715174
 20
921.0961026202463
 30
0.0
 11
1859.037460189295
 21
921.4461010943674
 31
0.0
  0
LINE
  5
40D
330
3E9
100
AcDbEntity
  8
0
  6
Continuous
 62
     7
370
    15
100
AcDbLine
 10
1858.687461715174
 20
921.0961026202463
 30
0.0
 11
1854.787455301714
 21
921.0961026202463
 31
0.0
  0
LINE
  5
40E
330
3E9
100
AcDbEntity
  8
0
  6
Continuous
 62
     7
370
    15
100
AcDbLine
 10
1854.43745938426
 20
923.4604700182154
 30
0.0
 11
1854.437456827593
 21
921.4461010943674
 31
0.0
  0
ARC
  5
40F
330
3E9
100
AcDbEntity
  8
0
  6
Continuous
 62
     7
370
    15
100
AcDbCircle
 10
1853.937458877614
 20
923.4604703355193
 30
0.0
 40
0.500000506645891
100
AcDbArc
 50
359.999963639679
 51
45.000786952931
  0
LINE
  5
410
330
3E9
100
AcDbEntity
  8
0
  6
Continuous
 62
     7
370
    15
100
AcDbLine
 10
1854.233907346864
 20
923.8711279310042
 30
0.0
 11
1854.291007770394
 21
923.8140289403641
 31
0.0
  0
ARC
  5
411
330
3E9
100
AcDbEntity
  8
0
  6
Continuous
 62
     7
370
    15
100
AcDbCircle
 10
1854.587458883821
 20
924.2246839040896
 30
0.0
 40
0.5000005153938929
100
AcDbArc
 50
180.0
 51
225.0003594523994
  0
LINE
  5
412
330
3E9
100
AcDbEntity
  8
0
  6
Continuous
 62
     7
370
    15
100
AcDbLine
 10
1854.087458368451
 20
927.9280790592364
 30
0.0
 11
1854.087458368427
 21
924.2246839040896
 31
0.0
  0
LINE
  5
413
330
3E9
100
AcDbEntity
  8
0
  6
Continuous
 62
     7
370
    15
100
AcDbLine
 10
1852.937461253316
 20
927.9280790592364
 30
0.0
 11
1854.087458368451
 21
927.9280790592364
 31
0.0
  0
LINE
  5
414
330
3E9
100
AcDbEntity
  8
0
  6
Continuous
 62
     7
370
    15
100
AcDbLine
 10
1854.43745938426
 20
921.4460985377002
 30
0.0
 11
1854.787455301714
 21
921.0961026202463
 31
0.0
  0
LINE
  5
415
330
3E9
100
AcDbEntity
  8
0
  6
Continuous
 62
     7
370
    15
100
AcDbLine
 10
1868.737462690515
 20
927.9280781354922
 30
0.0
 11
1868.737462690515
 21
934.3946966911486
 31
0.0
  0
LINE
  5
416
330
3E9
100
AcDbEntity
  8
0
  6
Continuous
 62
     7
370
    15
100
AcDbLine
 10
1852.937461253316
 20
934.3946966911486
 30
0.0
 11
1852.937461253316
 21
927.9280790592364
 31
0.0
  0
LINE
  5
417
330
3E9
100
AcDbEntity
  8
0
  6
Continuous
 62
     7
370
    15
100
AcDbLine
 10
1856.265675207959
 20
905.4323608875757
 30
0.0
 11
1857.209299299417
 21
905.4323608875757
 31
0.0
  0
ARC
  5
418
330
3E9
100
AcDbEntity
  8
0
  6
Continuous
 62
     7
370
    15
100
AcDbCircle
 10
1856.265675207959
 20
906.1323608875756
 30
0.0
 40
0.7000000000000455
100
AcDbArc
 50
189.9999835369507
 51
270.0
  0
LINE
  5
419
330
3E9
100
AcDbEntity
  8
0
  6
Continuous
 62
     7
370
    15
100
AcDbLine
 10
1855.237484705115
 20
907.9323856704524
 30
0.0
 11
1855.576309745924
 21
906.0108073612873
 31
0.0
  0
LINE
  5
41A
330
3E9
100
AcDbEntity
  8
0
  6
Continuous
 62
     7
370
    15
100
AcDbLine
 10
1855.237484238244
 20
913.6568414438679
 30
0.0
 11
1855.237484705115
 21
907.9323856704524
 31
0.0
  0
LINE
  5
41B
330
3E9
100
AcDbEntity
  8
0
  6
Continuous
 62
     7
370
    15
100
AcDbLine
 10
1858.237490508482
 20
913.6568062440137
 30
0.0
 11
1855.237484238244
 21
913.6568414438679
 31
0.0
  0
ARC
  5
41C
330
3E9
100
AcDbEntity
  8
0
  6
Continuous
 62
     7
370
    15
100
AcDbCircle
 10
1857.209299299417
 20
906.1323608875756
 30
0.0
 40
0.7000000000001485
100
AcDbArc
 50
270.0
 51
350.0000164630558
  0
LINE
  5
41D
330
3E9
100
AcDbEntity
  8
0
  6
Continuous
 62
     7
370
    15
100
AcDbLine
 10
1857.898664761452
 20
906.0108073612873
 30
0.0
 11
1858.237493170354
 21
907.9323856704546
 31
0.0
  0
LINE
  5
41E
330
3E9
100
AcDbEntity
  8
0
  6
Continuous
 62
     7
370
    15
100
AcDbLine
 10
1858.237493170354
 20
907.9323856704546
 30
0.0
 11
1858.237490508482
 21
913.6568062440137
 31
0.0
  0
LINE
  5
41F
330
3E9
100
AcDbEntity
  8
0
  6
Continuous
 62
     7
370
    15
100
AcDbLine
 10
1864.465675207959
 20
905.4323608875757
 30
0.0
 11
1865.409299299417
 21
905.4323608875757
 31
0.0
  0
ARC
  5
420
330
3E9
100
AcDbEntity
  8
0
  6
Continuous
 62
     7
370
    15
100
AcDbCircle
 10
1864.465675207959
 20
906.1323608875756
 30
0.0
 40
0.7000000000000455
100
AcDbArc
 50
189.9999835369507
 51
270.0
  0
LINE
  5
421
330
3E9
100
AcDbEntity
  8
0
  6
Continuous
 62
     7
370
    15
100
AcDbLine
 10
1863.437484705115
 20
907.9323856704524
 30
0.0
 11
1863.776309745924
 21
906.0108073612873
 31
0.0
  0
LINE
  5
422
330
3E9
100
AcDbEntity
  8
0
  6
Continuous
 62
     7
370
    15
100
AcDbLine
 10
1863.437484238244
 20
913.6568414438679
 30
0.0
 11
1863.437484705115
 21
907.9323856704524
 31
0.0
  0
LINE
  5
423
330
3E9
100
AcDbEntity
  8
0
  6
Continuous
 62
     7
370
    15
100
AcDbLine
 10
1866.437490508482
 20
913.6568062440137
 30
0.0
 11
1863.437484238244
 21
913.6568414438679
 31
0.0
  0
ARC
  5
424
330
3E9
100
AcDbEntity
  8
0
  6
Continuous
 62
     7
370
    15
100
AcDbCircle
 10
1865.409299299417
 20
906.1323608875756
 30
0.0
 40
0.7000000000001626
100
AcDbArc
 50
270.0
 51
350.0000164630558
  0
LINE
  5
425
330
3E9
100
AcDbEntity
  8
0
  6
Continuous
 62
     7
370
    15
100
AcDbLine
 10
1866.098664761452
 20
906.0108073612873
 30
0.0
 11
1866.437493170353
 21
907.9323856704546
 31
0.0
  0
LINE
  5
426
330
3E9
100
AcDbEntity
  8
0
  6
Continuous
 62
     7
370
    15
100
AcDbLine
 10
1866.437493170353
 20
907.9323856704546
 30
0.0
 11
1866.437490508482
 21
913.6568062440137
 31
0.0
  0
LINE
  5
427
330
3E9
100
AcDbEntity
  8
0
  6
Continuous
 62
     7
370
    15
100
AcDbLine
 10
1863.437484213777
 20
913.9568414438835
 30
0.0
 11
1863.437484238244
 21
913.6568414438679
 31
0.0
  0
LINE
  5
428
330
3E9
100
AcDbEntity
  8
0
  6
Continuous
 62
     7
370
    15
100
AcDbLine
 10
1866.4374902936
 20
913.9568062440355
 30
0.0
 11
1863.437484213777
 21
913.9568414438835
 31
0.0
  0
LINE
  5
429
330
3E9
100
AcDbEntity
  8
0
  6
Continuous
 62
     7
370
    15
100
AcDbLine
 10
1866.437490508482
 20
913.6568062440137
 30
0.0
 11
1866.4374902936
 21
913.9568062440355
 31
0.0
  0
LINE
  5
42A
330
3E9
100
AcDbEntity
  8
0
  6
Continuous
 62
     7
370
    15
100
AcDbLine
 10
1855.237484213776
 20
913.9568414438835
 30
0.0
 11
1855.237484238244
 21
913.6568414438679
 31
0.0
  0
LINE
  5
42B
330
3E9
100
AcDbEntity
  8
0
  6
Continuous
 62
     7
370
    15
100
AcDbLine
 10
1858.237490293601
 20
913.9568062440355
 30
0.0
 11
1855.237484213776
 21
913.9568414438835
 31
0.0
  0
LINE
  5
42C
330
3E9
100
AcDbEntity
  8
0
  6
Continuous
 62
     7
370
    15
100
AcDbLine
 10
1858.237490508482
 20
913.6568062440137
 30
0.0
 11
1858.237490293601
 21
913.9568062440355
 31
0.0
  0
LINE
  5
42D
330
3E9
100
AcDbEntity
  8
0
  6
Continuous
 62
     7
370
    15
100
AcDbLine
 10
1863.437484189309
 20
914.2568414439045
 30
0.0
 11
1866.437485179915
 21
914.2568062441162
 31
0.0
  0
LINE
  5
42E
330
3E9
100
AcDbEntity
  8
0
  6
Continuous
 62
     7
370
    15
100
AcDbLine
 10
1863.437484213776
 20
913.9568414438835
 30
0.0
 11
1863.437484189309
 21
914.2568414439045
 31
0.0
  0
LWPOLYLINE
  5
42F
330
3E9
100
AcDbEntity
  8
0
  6
Continuous
 62
     7
370
    15
100
AcDbPolyline
 90
        9
 70
   128
 43
0.0
 10
1866.437485179915
 20
914.2568062441162
 10
1866.437485315965
 20
914.1982791475028
 10
1866.437485635046
 20
914.1420012143882
 10
1866.437486124894
 20
914.0901351741817
 10
1866.437486766685
 20
914.0446742097219
 10
1866.437487535757
 20
914.0073653603788
 10
1866.437488402552
 20
913.9796423843099
 10
1866.437489333762
 20
913.9625706599385
 10
1866.4374902936
 20
913.9568062440355
  0
LINE
  5
430
330
3E9
100
AcDbEntity
  8
0
  6
Continuous
 62
     7
370
    15
100
AcDbLine
 10
1855.237484189309
 20
914.2568414439045
 30
0.0
 11
1858.237485179914
 21
914.2568062441162
 31
0.0
  0
LINE
  5
431
330
3E9
100
AcDbEntity
  8
0
  6
Continuous
 62
     7
370
    15
100
AcDbLine
 10
1855.237484213776
 20
913.9568414438835
 30
0.0
 11
1855.237484189309
 21
914.2568414439045
 31
0.0
  0
LWPOLYLINE
  5
432
330
3E9
100
AcDbEntity
  8
0
  6
Continuous
 62
     7
370
    15
100
AcDbPolyline
 90
        9
 70
   128
 43
0.0
 10
1858.237485179914
 20
914.2568062441162
 10
1858.237485315965
 20
914.1982791475028
 10
1858.237485635046
 20
914.1420012143882
 10
1858.237486124894
 20
914.0901351741817
 10
1858.237486766686
 20
914.0446742097219
 10
1858.237487535756
 20
914.0073653603788
 10
1858.237488402552
 20
913.9796423843099
 10
1858.237489333762
 20
913.9625706599385
 10
1858.237490293601
 20
913.9568062440355
  0
LINE
  5
433
330
3E9
100
AcDbEntity
  8
0
  6
Continuous
 62
     7
370
    15
100
AcDbLine
 10
1863.437484189309
 20
914.2568414439045
 30
0.0
 11
1863.437483900719
 21
921.0961026202463
 31
0.0
  0
LINE
  5
434
330
3E9
100
AcDbEntity
  8
0
  6
Continuous
 62
     7
370
    15
100
AcDbLine
 10
1866.437485179915
 20
921.0961026202463
 30
0.0
 11
1866.437485179915
 21
914.2568062441162
 31
0.0
  0
LINE
  5
435
330
3E9
100
AcDbEntity
  8
0
  6
Continuous
 62
     7
370
    15
100
AcDbLine
 10
1855.237484189309
 20
914.2568414439045
 30
0.0
 11
1855.237484003379
 21
921.0961026202463
 31
0.0
  0
LINE
  5
436
330
3E9
100
AcDbEntity
  8
0
  6
Continuous
 62
     7
370
    15
100
AcDbLine
 10
1858.237485179915
 20
921.0961026202463
 30
0.0
 11
1858.237485179914
 21
914.2568062441162
 31
0.0
  0
ENDBLK
  5
3EB
330
3E9
100
AcDbEntity
  8
0
100
AcDbBlockEnd
  0
BLOCK
  5
439
330
438
100
AcDbEntity
  8
0
100
AcDbBlockBegin
  2
2
 70
     0
 10
0.0
 20
0.0
 30
0.0
  3
2
  1

  0
LINE
  5
43B
330
438
100
AcDbEntity
  8
0
  6
Continuous
 62
     7
370
    15
100
AcDbLine
 10
1842.334373134783
 20
927.9280781354922
 30
0.0
 11
1842.334373134783
 21
934.3946966911486
 31
0.0
  0
LINE
  5
43C
330
438
100
AcDbEntity
  8
0
  6
Continuous
 62
     7
370
    15
100
AcDbLine
 10
1839.334373134783
 20
934.3946966911486
 30
0.0
 11
1838.584373134783
 21
934.3946966911486
 31
0.0
  0
LINE
  5
43D
330
438
100
AcDbEntity
  8
0
  6
Continuous
 62
     7
370
    15
100
AcDbLine
 10
1838.584373134783
 20
934.3946966911486
 30
0.0
 11
1838.584373134783
 21
935.5946966911487
 31
0.0
  0
LINE
  5
43E
330
438
100
AcDbEntity
  8
0
  6
Continuous
 62
     7
370
    15
100
AcDbLine
 10
1838.584373134783
 20
935.5946966911487
 30
0.0
 11
1843.084373134783
 21
935.5946966911487
 31
0.0
  0
LINE
  5
43F
330
438
100
AcDbEntity
  8
0
  6
Continuous
 62
     7
370
    15
100
AcDbLine
 10
1843.084373134783
 20
935.5946966911487
 30
0.0
 11
1843.084373134783
 21
934.3946966911486
 31
0.0
  0
LINE
  5
440
330
438
100
AcDbEntity
  8
0
  6
Continuous
 62
     7
370
    15
100
AcDbLine
 10
1843.084373134783
 20
934.3946966911486
 30
0.0
 11
1842.334373134783
 21
934.3946966911486
 31
0.0
  0
LINE
  5
441
330
438
100
AcDbEntity
  8
0
  6
Continuous
 62
     7
370
    15
100
AcDbLine
 10
1839.334373134783
 20
927.9280781354922
 30
0.0
 11
1839.334373134783
 21
934.3946966911486
 31
0.0
  0
LINE
  5
442
330
438
100
AcDbEntity
  8
0
  6
Continuous
 62
     7
370
    15
100
AcDbLine
 10
1842.334373134783
 20
927.9280781354922
 30
0.0
 11
1839.334373134783
 21
927.9280781354922
 31
0.0
  0
LINE
  5
443
330
438
100
AcDbEntity
  8
0
  6
Continuous
 62
     7
370
    15
100
AcDbLine
 10
1842.334373134783
 20
924.2246864413329
 30
0.0
 11
1839.334373134783
 21
924.2246864413329
 31
0.0
  0
LINE
  5
444
330
438
100
AcDbEntity
  8
0
  6
Continuous
 62
     7
370
    15
100
AcDbLine
 10
1842.334373134783
 20
924.2246864413329
 30
0.0
 11
1842.334373134783
 21
927.9280781354922
 31
0.0
  0
LINE
  5
445
330
438
100
AcDbEntity
  8
0
  6
Continuous
 62
     7
370
    15
100
AcDbLine
 10
1839.334373134783
 20
924.2246864413329
 30
0.0
 11
1839.334373134783
 21
927.9280781354922
 31
0.0
  0
LINE
  5
446
330
438
100
AcDbEntity
  8
0
  6
Continuous
 62
     7
370
    15
100
AcDbLine
 10
1839.334373134783
 20
923.8711266637162
 30
0.0
 11
1842.334373134783
 21
923.8711266637162
 31
0.0
  0
LINE
  5
447
330
438
100
AcDbEntity
  8
0
  6
Continuous
 62
     7
370
    15
100
AcDbLine
 10
1842.334373134783
 20
923.8711266637162
 30
0.0
 11
1842.334373134783
 21
924.2246864413329
 31
0.0
  0
LINE
  5
448
330
438
100
AcDbEntity
  8
0
  6
Continuous
 62
     7
370
    15
100
AcDbLine
 10
1839.334373134783
 20
923.8711266637162
 30
0.0
 11
1839.334373134783
 21
924.2246864413329
 31
0.0
  0
LINE
  5
449
330
438
100
AcDbEntity
  8
0
  6
Continuous
 62
     7
370
    15
100
AcDbLine
 10
1839.334373134783
 20
923.8140241214779
 30
0.0
 11
1842.334373134783
 21
923.8140241214779
 31
0.0
  0
LINE
  5
44A
330
438
100
AcDbEntity
  8
0
  6
Continuous
 62
     7
370
    15
100
AcDbLine
 10
1842.334373134783
 20
923.8711266637162
 30
0.0
 11
1842.334373134783
 21
923.8140241214779
 31
0.0
  0
LINE
  5
44B
330
438
100
AcDbEntity
  8
0
  6
Continuous
 62
     7
370
    15
100
AcDbLine
 10
1839.334373134783
 20
923.8140241214779
 30
0.0
 11
1839.334373134783
 21
923.8711266637162
 31
0.0
  0
LINE
  5
44C
330
438
100
AcDbEntity
  8
0
  6
Continuous
 62
     7
370
    15
100
AcDbLine
 10
1839.334373134783
 20
923.4604701011981
 30
0.0
 11
1842.334373134783
 21
923.4604701011981
 31
0.0
  0
LINE
  5
44D
330
438
100
AcDbEntity
  8
0
  6
Continuous
 62
     7
370
    15
100
AcDbLine
 10
1842.334373134783
 20
923.8140241214779
 30
0.0
 11
1842.334373134783
 21
923.4604701011981
 31
0.0
  0
LINE
  5
44E
330
438
100
AcDbEntity
  8
0
  6
Continuous
 62
     7
370
    15
100
AcDbLine
 10
1839.334373134783
 20
923.4604701011981
 30
0.0
 11
1839.334373134783
 21
923.8140241214779
 31
0.0
  0
LINE
  5
44F
330
438
100
AcDbEntity
  8
0
  6
Continuous
 62
     7
370
    15
100
AcDbLine
 10
1842.334373134783
 20
921.4461010943674
 30
0.0
 11
1839.334373134783
 21
921.4461010943674
 31
0.0
  0
LINE
  5
450
330
438
100
AcDbEntity
  8
0
  6
Continuous
 62
     7
370
    15
100
AcDbLine
 10
1842.334373134783
 20
921.4461010943674
 30
0.0
 11
1842.334373134783
 21
923.4604701011981
 31
0.0
  0
LINE
  5
451
330
438
100
AcDbEntity
  8
0
  6
Continuous
 62
     7
370
    15
100
AcDbLine
 10
1839.334373134783
 20
921.4461010943674
 30
0.0
 11
1839.334373134783
 21
923.4604701011981
 31
0.0
  0
LINE
  5
452
330
438
100
AcDbEntity
  8
0
  6
Continuous
 62
     7
370
    15
100
AcDbLine
 10
1842.334373134783
 20
921.0961026202463
 30
0.0
 11
1839.334373134783
 21
921.0961026202463
 31
0.0
  0
LINE
  5
453
330
438
100
AcDbEntity
  8
0
  6
Continuous
 62
     7
370
    15
100
AcDbLine
 10
1842.334373134783
 20
921.4461010943674
 30
0.0
 11
1842.334373134783
 21
921.0961026202463
 31
0.0
  0
LINE
  5
454
330
438
100
AcDbEntity
  8
0
  6
Continuous
 62
     7
370
    15
100
AcDbLine
 10
1839.334373134783
 20
921.0961026202463
 30
0.0
 11
1839.334373134783
 21
921.4461010943674
 31
0.0
  0
LINE
  5
455
330
438
100
AcDbEntity
  8
0
  6
Continuous
 62
     7
370
    15
100
AcDbLine
 10
1839.834373134783
 20
913.9568062440355
 30
0.0
 11
1839.786568350008
 21
913.9568062440355
 31
0.0
  0
ARC
  5
456
330
438
100
AcDbEntity
  8
0
  6
Continuous
 62
     7
370
    15
100
AcDbCircle
 10
1839.834373134783
 20
914.2568062440588
 30
0.0
 40
0.3000000000399943
100
AcDbArc
 50
270.0
 51
0.0009356025272286
  0
LINE
  5
457
330
438
100
AcDbEntity
  8
0
  6
Continuous
 62
     7
370
    15
100
AcDbLine
 10
1840.134373134783
 20
921.0961026202463
 30
0.0
 11
1840.134373134783
 21
914.2568062441162
 31
0.0
  0
ARC
  5
458
330
438
100
AcDbEntity
  8
0
  6
Continuous
 62
     7
370
    15
100
AcDbCircle
 10
1841.834367031267
 20
914.2568062440588
 30
0.0
 40
0.300000000023252
100
AcDbArc
 50
180.0
 51
270.0
  0
LINE
  5
459
330
438
100
AcDbEntity
  8
0
  6
Continuous
 62
     7
370
    15
100
AcDbLine
 10
1841.882171816042
 20
913.9568062440355
 30
0.0
 11
1841.834367031267
 21
913.9568062440355
 31
0.0
  0
ARC
  5
45A
330
438
100
AcDbEntity
  8
0
  6
Continuous
 62
     7
370
    15
100
AcDbCircle
 10
1841.882171816042
 20
913.6568062440124
 30
0.0
 40
0.3000000000231383
100
AcDbArc
 50
0.0000000012701863
 51
89.99999999998697
  0
LINE
  5
45B
330
438
100
AcDbEntity
  8
0
  6
Continuous
 62
     7
370
    15
100
AcDbLine
 10
1842.182171816042
 20
913.6568062440192
 30
0.0
 11
1842.182171816042
 21
907.9323859164322
 31
0.0
  0
LINE
  5
45C
330
438
100
AcDbEntity
  8
0
  6
Continuous
 62
     7
370
    15
100
AcDbLine
 10
1842.182171816042
 20
907.9323859164322
 30
0.0
 11
1839.486568350008
 21
907.9323856704546
 31
0.0
  0
LINE
  5
45D
330
438
100
AcDbEntity
  8
0
  6
Continuous
 62
     7
370
    15
100
AcDbLine
 10
1839.486568350008
 20
907.9323856704546
 30
0.0
 11
1839.486568350008
 21
913.6568062440137
 31
0.0
  0
ARC
  5
45E
330
438
100
AcDbEntity
  8
0
  6
Continuous
 62
     7
370
    15
100
AcDbCircle
 10
1839.786568350008
 20
913.6568062440124
 30
0.0
 40
0.300000000023252
100
AcDbArc
 50
90.0
 51
179.9999999997459
  0
LINE
  5
45F
330
438
100
AcDbEntity
  8
0
  6
Continuous
 62
     7
370
    15
100
AcDbLine
 10
1841.534367031267
 20
914.2568062440588
 30
0.0
 11
1841.534367031267
 21
921.0961026202463
 31
0.0
  0
LINE
  5
460
330
438
100
AcDbEntity
  8
0
  6
Continuous
 62
     7
370
    15
100
AcDbLine
 10
1842.182171816042
 20
906.0108073612873
 30
0.0
 11
1839.486568350008
 21
906.0108073612873
 31
0.0
  0
LINE
  5
461
330
438
100
AcDbEntity
  8
0
  6
Continuous
 62
     7
370
    15
100
AcDbLine
 10
1839.486568350008
 20
906.0108073612873
 30
0.0
 11
1839.486568350008
 21
907.9323856704546
 31
0.0
  0
LINE
  5
462
330
438
100
AcDbEntity
  8
0
  6
Continuous
 62
     7
370
    15
100
AcDbLine
 10
1842.182171816042
 20
907.9323859164322
 30
0.0
 11
1842.182171816042
 21
906.0108073612873
 31
0.0
  0
LINE
  5
463
330
438
100
AcDbEntity
  8
0
  6
Continuous
 62
     7
370
    15
100
AcDbLine
 10
1841.882171816042
 20
913.9568414438835
 30
0.0
 11
1841.882171816042
 21
913.9568062440355
 31
0.0
  0
ARC
  5
464
330
438
100
AcDbEntity
  8
0
  6
Continuous
 62
     7
370
    15
100
AcDbCircle
 10
1841.882171816042
 20
913.6568414438627
 30
0.0
 40
0.3000000000208455
100
AcDbArc
 50
0.0
 51
90.0
  0
LINE
  5
465
330
438
100
AcDbEntity
  8
0
  6
Continuous
 62
     7
370
    15
100
AcDbLine
 10
1842.182171816042
 20
913.6568414438627
 30
0.0
 11
1842.182171816042
 21
913.6568062440192
 31
0.0
  0
ARC
  5
466
330
438
100
AcDbEntity
  8
0
  6
Continuous
 62
     7
370
    15
100
AcDbCircle
 10
1839.786568350008
 20
913.6568414438626
 30
0.0
 40
0.3000000000209591
100
AcDbArc
 50
90.00000000001303
 51
179.9999999989643
  0
LINE
  5
467
330
438
100
AcDbEntity
  8
0
  6
Continuous
 62
     7
370
    15
100
AcDbLine
 10
1839.786568350008
 20
913.9568062440355
 30
0.0
 11
1839.786568350008
 21
913.9568414438835
 31
0.0
  0
LINE
  5
468
330
438
100
AcDbEntity
  8
0
  6
Continuous
 62
     7
370
    15
100
AcDbLine
 10
1839.486568350008
 20
913.6568062440137
 30
0.0
 11
1839.486568350008
 21
913.6568414438679
 31
0.0
  0
ARC
  5
469
330
438
100
AcDbEntity
  8
0
  6
Continuous
 62
     7
370
    15
100
AcDbCircle
 10
1841.834367031268
 20
914.2568414439045
 30
0.0
 40
0.3000000000209307
100
AcDbArc
 50
179.9999300720288
 51
270.0
  0
LINE
  5
46A
330
438
100
AcDbEntity
  8
0
  6
Continuous
 62
     7
370
    15
100
AcDbLine
 10
1841.834367031268
 20
913.9568414438835
 30
0.0
 11
1841.834367031267
 21
913.9568062440355
 31
0.0
  0
LINE
  5
46B
330
438
100
AcDbEntity
  8
0
  6
Continuous
 62
     7
370
    15
100
AcDbLine
 10
1841.882171816042
 20
913.9568414438835
 30
0.0
 11
1841.834367031268
 21
913.9568414438835
 31
0.0
  0
LINE
  5
46C
330
438
100
AcDbEntity
  8
0
  6
Continuous
 62
     7
370
    15
100
AcDbLine
 10
1839.786568350008
 20
913.9568414438835
 30
0.0
 11
1839.834373134783
 21
913.9568414438835
 31
0.0
  0
LINE
  5
46D
330
438
100
AcDbEntity
  8
0
  6
Continuous
 62
     7
370
    15
100
AcDbLine
 10
1839.834373134783
 20
913.9568062440355
 30
0.0
 11
1839.834373134783
 21
913.9568414438835
 31
0.0
  0
ARC
  5
46E
330
438
100
AcDbEntity
  8
0
  6
Continuous
 62
     7
370
    15
100
AcDbCircle
 10
1839.834373134783
 20
914.2568414439045
 30
0.0
 40
0.3000000000209307
100
AcDbArc
 50
270.0
 51
0.0
  0
LINE
  5
46F
330
438
100
AcDbEntity
  8
0
  6
Continuous
 62
     7
370
    15
100
AcDbLine
 10
1842.334373134783
 20
925.6946966911486
 30
0.0
 11
1842.684373134783
 21
925.6946966911486
 31
0.0
  0
LINE
  5
470
330
438
100
AcDbEntity
  8
0
  6
Continuous
 62
     7
370
    15
100
AcDbLine
 10
1842.684373134783
 20
925.6946966911486
 30
0.0
 11
1842.334373134783
 21
924.3946966911487
 31
0.0
  0
LINE
  5
471
330
438
100
AcDbEntity
  8
0
  6
Continuous
 62
     7
370
    15
100
AcDbLine
 10
1839.334373134783
 20
924.3946966911487
 30
0.0
 11
1838.984373134783
 21
925.6946966911486
 31
0.0
  0
LINE
  5
472
330
438
100
AcDbEntity
  8
0
  6
Continuous
 62
     7
370
    15
100
AcDbLine
 10
1838.984373134783
 20
925.6946966911486
 30
0.0
 11
1839.334373134783
 21
925.6946966911486
 31
0.0
  0
LINE
  5
473
330
438
100
AcDbEntity
  8
0
  6
Continuous
 62
     7
370
    15
100
AcDbLine
 10
1839.486568350008
 20
905.4323608875757
 30
0.0
 11
1842.182171816042
 21
905.4323608875757
 31
0.0
  0
LINE
  5
474
330
438
100
AcDbEntity
  8
0
  6
Continuous
 62
     7
370
    15
100
AcDbLine
 10
1839.486568350008
 20
906.0108073612873
 30
0.0
 11
1839.486568350008
 21
905.4323608875757
 31
0.0
  0
LINE
  5
475
330
438
100
AcDbEntity
  8
0
  6
Continuous
 62
     7
370
    15
100
AcDbLine
 10
1842.182171816042
 20
906.0108073612873
 30
0.0
 11
1842.182171816042
 21
905.4323608875757
 31
0.0
  0
ENDBLK
  5
43A
330
438
100
AcDbEntity
  8
0
100
AcDbBlockEnd
  0
BLOCK
  5
478
330
477
100
AcDbEntity
  8
0
100
AcDbBlockBegin
  2
3
 70
     0
 10
0.0
 20
0.0
 30
0.0
  3
3
  1

  0
LINE
  5
47A
330
477
100
AcDbEntity
  8
0
  6
Continuous
 62
     7
370
    15
100
AcDbLine
 10
1868.737462690515
 20
891.9705537735037
 30
0.0
 11
1868.737462690515
 21
896.4705537735037
 31
0.0
  0
LINE
  5
47B
330
477
100
AcDbEntity
  8
0
  6
Continuous
 62
     7
370
    15
100
AcDbLine
 10
1868.737462690515
 20
891.9705537735037
 30
0.0
 11
1852.937461253316
 21
891.9705537735037
 31
0.0
  0
LINE
  5
47C
330
477
100
AcDbEntity
  8
0
  6
Continuous
 62
     7
370
    15
100
AcDbLine
 10
1852.937461253316
 20
896.4705537735037
 30
0.0
 11
1868.737462690515
 21
896.4705537735037
 31
0.0
  0
LINE
  5
47D
330
477
100
AcDbEntity
  8
0
  6
Continuous
 62
     7
370
    15
100
AcDbLine
 10
1852.937461253316
 20
896.4705537735037
 30
0.0
 11
1852.937461253316
 21
891.9705537735037
 31
0.0
  0
ENDBLK
  5
479
330
477
100
AcDbEntity
  8
0
100
AcDbBlockEnd
  0
BLOCK
  5
480
330
47F
100
AcDbEntity
  8
0
100
AcDbBlockBegin
  2
4
 70
     0
 10
0.0
 20
0.0
 30
0.0
  3
4
  1

  0
LINE
  5
482
330
47F
100
AcDbEntity
  8
0
  6
Continuous
 62
     7
370
    15
100
AcDbLine
 10
1896.32363278078
 20
914.2110755802431
 30
0.0
 11
1895.927708772406
 21
914.439643009625
 31
0.0
  0
LINE
  5
483
330
47F
100
AcDbEntity
  8
0
  6
Continuous
 62
     7
370
    15
100
AcDbLine
 10
1894.102627322408
 20
906.6428272142196
 30
0.0
 11
1896.00870681263
 21
907.7431834821835
 31
0.0
  0
LINE
  5
484
330
47F
100
AcDbEntity
  8
0
  6
Continuous
 62
     7
370
    15
100
AcDbLine
 10
1890.525357175051
 20
917.5583488387159
 30
0.0
 11
1890.129433166676
 21
917.786916268098
 31
0.0
  0
LINE
  5
485
330
47F
100
AcDbEntity
  8
0
  6
Continuous
 62
     7
370
    15
100
AcDbLine
 10
1888.304351716678
 20
909.9901004726929
 30
0.0
 11
1890.210431206901
 21
911.0904567406565
 31
0.0
  0
LINE
  5
486
330
47F
100
AcDbEntity
  8
0
  6
Continuous
 62
     7
370
    15
100
AcDbLine
 10
1898.119724743537
 20
924.8500697437391
 30
0.0
 11
1898.119724743537
 21
930.1303277093303
 31
0.0
  0
LINE
  5
487
330
47F
100
AcDbEntity
  8
0
  6
Continuous
 62
     7
370
    15
100
AcDbLine
 10
1898.119724743537
 20
924.8500697437391
 30
0.0
 11
1895.998404399978
 21
923.625457576005
 31
0.0
  0
LINE
  5
488
330
47F
100
AcDbEntity
  8
0
  6
Continuous
 62
     7
370
    15
100
AcDbLine
 10
1895.998404399978
 20
923.625457576005
 30
0.0
 11
1895.998404399978
 21
928.9057155415962
 31
0.0
  0
LINE
  5
489
330
47F
100
AcDbEntity
  8
0
  6
Continuous
 62
     7
370
    15
100
AcDbLine
 10
1895.998404399978
 20
928.9057155415962
 30
0.0
 11
1895.468074314088
 21
928.5995624996628
 31
0.0
  0
LINE
  5
48A
330
47F
100
AcDbEntity
  8
0
  6
Continuous
 62
     7
370
    15
100
AcDbLine
 10
1895.468074314088
 20
928.5995624996628
 30
0.0
 11
1895.468074314088
 21
929.5794114739257
 31
0.0
  0
LINE
  5
48B
330
47F
100
AcDbEntity
  8
0
  6
Continuous
 62
     7
370
    15
100
AcDbLine
 10
1895.468074314088
 20
929.5794114739257
 30
0.0
 11
1898.650054829427
 21
931.4163297255268
 31
0.0
  0
LINE
  5
48C
330
47F
100
AcDbEntity
  8
0
  6
Continuous
 62
     7
370
    15
100
AcDbLine
 10
1898.650054829427
 20
931.4163297255268
 30
0.0
 11
1898.650054829427
 21
930.4364807512639
 31
0.0
  0
LINE
  5
48D
330
47F
100
AcDbEntity
  8
0
  6
Continuous
 62
     7
370
    15
100
AcDbLine
 10
1898.650054829427
 20
930.4364807512639
 30
0.0
 11
1898.119724743537
 21
930.1303277093303
 31
0.0
  0
LINE
  5
48E
330
47F
100
AcDbEntity
  8
0
  6
Continuous
 62
     7
370
    15
100
AcDbLine
 10
1895.468074314088
 20
929.5794114739257
 30
0.0
 11
1884.295786155087
 21
936.0290361439957
 31
0.0
  0
LINE
  5
48F
330
47F
100
AcDbEntity
  8
0
  6
Continuous
 62
     7
370
    15
100
AcDbLine
 10
1887.477766670426
 20
937.8659543955969
 30
0.0
 11
1884.295786155087
 21
936.0290361439957
 31
0.0
  0
LINE
  5
490
330
47F
100
AcDbEntity
  8
0
  6
Continuous
 62
     7
370
    15
100
AcDbLine
 10
1887.477766670426
 20
937.8659543955969
 30
0.0
 11
1898.650054829427
 21
931.4163297255268
 31
0.0
  0
LINE
  5
491
330
47F
100
AcDbEntity
  8
0
  6
Continuous
 62
     7
370
    15
100
AcDbLine
 10
1895.468074314088
 20
928.5995624996628
 30
0.0
 11
1884.295786155087
 21
935.0491871697327
 31
0.0
  0
LINE
  5
492
330
47F
100
AcDbEntity
  8
0
  6
Continuous
 62
     7
370
    15
100
AcDbLine
 10
1884.295786155087
 20
936.0290361439957
 30
0.0
 11
1884.295786155087
 21
935.0491871697327
 31
0.0
  0
LINE
  5
493
330
47F
100
AcDbEntity
  8
0
  6
Continuous
 62
     7
370
    15
100
AcDbLine
 10
1895.185233641521
 20
924.0948910626896
 30
0.0
 11
1895.998404399978
 21
923.625457576005
 31
0.0
  0
LINE
  5
494
330
47F
100
AcDbEntity
  8
0
  6
Continuous
 62
     7
370
    15
100
AcDbLine
 10
1895.185233641521
 20
921.0709206020098
 30
0.0
 11
1895.185233641521
 21
924.0948910626896
 31
0.0
  0
ARC
  5
495
330
47F
100
AcDbEntity
  8
0
  6
Continuous
 62
     7
370
    15
100
AcDbCircle
 10
1894.934901951165
 20
921.0462834006923
 30
0.0
 40
0.2515411435236298
100
AcDbArc
 50
305.6978531816529
 51
5.620847597916685
  0
LINE
  5
496
330
47F
100
AcDbEntity
  8
0
  6
Continuous
 62
     7
370
    15
100
AcDbLine
 10
1895.041300256672
 20
920.8186890323766
 30
0.0
 11
1895.081678920766
 21
920.8420054819644
 31
0.0
  0
ARC
  5
497
330
47F
100
AcDbEntity
  8
0
  6
Continuous
 62
     7
370
    15
100
AcDbCircle
 10
1895.188073131633
 20
920.6144137244264
 30
0.0
 40
0.2515366340367144
100
AcDbArc
 50
125.6974427479399
 51
185.6205025999719
  0
LINE
  5
498
330
47F
100
AcDbEntity
  8
0
  6
Continuous
 62
     7
370
    15
100
AcDbLine
 10
1894.93774578074
 20
918.944963967824
 30
0.0
 11
1894.93774578074
 21
920.5897784720988
 31
0.0
  0
LINE
  5
499
330
47F
100
AcDbEntity
  8
0
  6
Continuous
 62
     7
370
    15
100
AcDbLine
 10
1894.690259486283
 20
918.8020467263054
 30
0.0
 11
1894.93774578074
 21
918.944963967824
 31
0.0
  0
LINE
  5
49A
330
47F
100
AcDbEntity
  8
0
  6
Continuous
 62
     7
370
    15
100
AcDbLine
 10
1894.690259486283
 20
918.8020467263054
 30
0.0
 11
1891.932538504655
 21
920.39404516236
 31
0.0
  0
LINE
  5
49B
330
47F
100
AcDbEntity
  8
0
  6
Continuous
 62
     7
370
    15
100
AcDbLine
 10
1891.685050696865
 20
920.8227066184491
 30
0.0
 11
1891.932538504655
 21
920.39404516236
 31
0.0
  0
LINE
  5
49C
330
47F
100
AcDbEntity
  8
0
  6
Continuous
 62
     7
370
    15
100
AcDbLine
 10
1891.685050696864
 20
922.4675197833997
 30
0.0
 11
1891.685052210199
 21
920.8227039972767
 31
0.0
  0
ARC
  5
49D
330
47F
100
AcDbEntity
  8
0
  6
Continuous
 62
     7
370
    15
100
AcDbCircle
 10
1890.964062962338
 20
922.4428897979247
 30
0.0
 40
0.7214083098501982
100
AcDbArc
 50
1.95654596742141
 51
31.14400349254366
  0
LINE
  5
49E
330
47F
100
AcDbEntity
  8
0
  6
Continuous
 62
     7
370
    15
100
AcDbLine
 10
1891.541114097994
 20
922.8859319351164
 30
0.0
 11
1891.581494787359
 21
922.8159955349116
 31
0.0
  0
ARC
  5
49F
330
47F
100
AcDbEntity
  8
0
  6
Continuous
 62
     7
370
    15
100
AcDbCircle
 10
1892.158540544469
 20
923.2590305116973
 30
0.0
 40
0.7214000032254618
100
AcDbArc
 50
181.9564580470285
 51
211.1437376919552
  0
LINE
  5
4A0
330
47F
100
AcDbEntity
  8
0
  6
Continuous
 62
     7
370
    15
100
AcDbLine
 10
1891.437565915743
 20
926.2583743440353
 30
0.0
 11
1891.437561073932
 21
923.2344019161665
 31
0.0
  0
LINE
  5
4A1
330
47F
100
AcDbEntity
  8
0
  6
Continuous
 62
     7
370
    15
100
AcDbLine
 10
1889.386952224237
 20
927.4421684303762
 30
0.0
 11
1891.437565915743
 21
926.2583743440353
 31
0.0
  0
LINE
  5
4A2
330
47F
100
AcDbEntity
  8
0
  6
Continuous
 62
     7
370
    15
100
AcDbLine
 10
1889.386952224237
 20
924.4181984066251
 30
0.0
 11
1889.386952224237
 21
927.4421684303762
 31
0.0
  0
ARC
  5
4A3
330
47F
100
AcDbEntity
  8
0
  6
Continuous
 62
     7
370
    15
100
AcDbCircle
 10
1889.136622535839
 20
924.3935614041573
 30
0.0
 40
0.251539131715436
100
AcDbArc
 50
305.6978559793134
 51
5.62084718521897
  0
LINE
  5
4A4
330
47F
100
AcDbEntity
  8
0
  6
Continuous
 62
     7
370
    15
100
AcDbLine
 10
1889.243019675186
 20
924.1659648404608
 30
0.0
 11
1889.283398341503
 21
924.1892851263965
 31
0.0
  0
ARC
  5
4A5
330
47F
100
AcDbEntity
  8
0
  6
Continuous
 62
     7
370
    15
100
AcDbCircle
 10
1889.38979725261
 20
923.9616891819464
 30
0.0
 40
0.2515396626695332
100
AcDbArc
 50
125.6982660277376
 51
185.6204239756084
  0
LINE
  5
4A6
330
47F
100
AcDbEntity
  8
0
  6
Continuous
 62
     7
370
    15
100
AcDbLine
 10
1889.139466853838
 20
922.2922391435687
 30
0.0
 11
1889.139466853838
 21
923.9370539765145
 31
0.0
  0
LINE
  5
4A7
330
47F
100
AcDbEntity
  8
0
  6
Continuous
 62
     7
370
    15
100
AcDbLine
 10
1888.891980559382
 20
922.1493219020501
 30
0.0
 11
1889.139466853838
 21
922.2922391435687
 31
0.0
  0
LINE
  5
4A8
330
47F
100
AcDbEntity
  8
0
  6
Continuous
 62
     7
370
    15
100
AcDbLine
 10
1888.891980559382
 20
922.1493219020501
 30
0.0
 11
1886.134259577754
 21
923.7413203381047
 31
0.0
  0
LINE
  5
4A9
330
47F
100
AcDbEntity
  8
0
  6
Continuous
 62
     7
370
    15
100
AcDbLine
 10
1885.886775091135
 20
924.1699760417562
 30
0.0
 11
1886.134259577754
 21
923.7413203381047
 31
0.0
  0
LINE
  5
4AA
330
47F
100
AcDbEntity
  8
0
  6
Continuous
 62
     7
370
    15
100
AcDbLine
 10
1885.886775091134
 20
925.8147925658958
 30
0.0
 11
1885.886773283298
 21
924.1699791730214
 31
0.0
  0
ARC
  5
4AB
330
47F
100
AcDbEntity
  8
0
  6
Continuous
 62
     7
370
    15
100
AcDbCircle
 10
1885.165788886588
 20
925.7901630276322
 30
0.0
 40
0.7214067654943692
100
AcDbArc
 50
1.956514618267037
 51
31.14419206753463
  0
LINE
  5
4AC
330
47F
100
AcDbEntity
  8
0
  6
Continuous
 62
     7
370
    15
100
AcDbLine
 10
1885.742842065168
 20
926.2332022786653
 30
0.0
 11
1885.783218161854
 21
926.1632699980113
 31
0.0
  0
ARC
  5
4AD
330
47F
100
AcDbEntity
  8
0
  6
Continuous
 62
     7
370
    15
100
AcDbCircle
 10
1886.360271732685
 20
926.6063057562544
 30
0.0
 40
0.7214052947679809
100
AcDbArc
 50
181.9565178959428
 51
211.1439385321064
  0
LINE
  5
4AE
330
47F
100
AcDbEntity
  8
0
  6
Continuous
 62
     7
370
    15
100
AcDbLine
 10
1885.639286999434
 20
929.6056495136653
 30
0.0
 11
1885.639286999417
 21
926.5816762269579
 31
0.0
  0
LINE
  5
4AF
330
47F
100
AcDbEntity
  8
0
  6
Continuous
 62
     7
370
    15
100
AcDbLine
 10
1884.826116240977
 20
930.0750830003499
 30
0.0
 11
1885.639286999434
 21
929.6056495136653
 31
0.0
  0
LINE
  5
4B0
330
47F
100
AcDbEntity
  8
0
  6
Continuous
 62
     7
370
    15
100
AcDbLine
 10
1884.826116240977
 20
934.7430341277993
 30
0.0
 11
1884.826116240977
 21
930.0750830003499
 31
0.0
  0
LINE
  5
4B1
330
47F
100
AcDbEntity
  8
0
  6
Continuous
 62
     7
370
    15
100
AcDbLine
 10
1894.195279051791
 20
922.8427325850484
 30
0.0
 11
1892.427512098825
 21
923.8632427248267
 31
0.0
  0
LINE
  5
4B2
330
47F
100
AcDbEntity
  8
0
  6
Continuous
 62
     7
370
    15
100
AcDbLine
 10
1894.195279051791
 20
921.7812295295969
 30
0.0
 11
1892.427512098825
 21
922.8017396693752
 31
0.0
  0
LINE
  5
4B3
330
47F
100
AcDbEntity
  8
0
  6
Continuous
 62
     7
370
    15
100
AcDbLine
 10
1894.195279051791
 20
922.8427325850484
 30
0.0
 11
1894.195279051791
 21
921.7812295295969
 31
0.0
  0
LINE
  5
4B4
330
47F
100
AcDbEntity
  8
0
  6
Continuous
 62
     7
370
    15
100
AcDbLine
 10
1888.397003446061
 20
925.1285027880701
 30
0.0
 11
1886.629236493095
 21
926.1490129278483
 31
0.0
  0
LINE
  5
4B5
330
47F
100
AcDbEntity
  8
0
  6
Continuous
 62
     7
370
    15
100
AcDbLine
 10
1888.397003446061
 20
926.1900058435214
 30
0.0
 11
1888.397003446061
 21
925.1285027880701
 31
0.0
  0
LINE
  5
4B6
330
47F
100
AcDbEntity
  8
0
  6
Continuous
 62
     7
370
    15
100
AcDbLine
 10
1888.397003446061
 20
926.1900058435214
 30
0.0
 11
1886.629236493095
 21
927.2105159832998
 31
0.0
  0
LINE
  5
4B7
330
47F
100
AcDbEntity
  8
0
  6
Continuous
 62
     7
370
    15
100
AcDbLine
 10
1897.30655398508
 20
922.2955327697437
 30
0.0
 11
1895.185233641521
 21
921.0709206020098
 31
0.0
  0
LINE
  5
4B8
330
47F
100
AcDbEntity
  8
0
  6
Continuous
 62
     7
370
    15
100
AcDbLine
 10
1897.30655398508
 20
922.2955327697437
 30
0.0
 11
1897.30655398508
 21
924.3806362570545
 31
0.0
  0
LINE
  5
4B9
330
47F
100
AcDbEntity
  8
0
  6
Continuous
 62
     7
370
    15
100
AcDbLine
 10
1893.947791678376
 20
922.6998611654794
 30
0.0
 11
1894.195279051791
 21
922.8427325850484
 31
0.0
  0
LINE
  5
4BA
330
47F
100
AcDbEntity
  8
0
  6
Continuous
 62
     7
370
    15
100
AcDbLine
 10
1893.947791678376
 20
922.6998611654794
 30
0.0
 11
1892.18002472541
 21
923.7203713052577
 31
0.0
  0
LINE
  5
4BB
330
47F
100
AcDbEntity
  8
0
  6
Continuous
 62
     7
370
    15
100
AcDbLine
 10
1892.18002472541
 20
923.7203713052577
 30
0.0
 11
1892.427512098825
 21
923.8632427248267
 31
0.0
  0
LINE
  5
4BC
330
47F
100
AcDbEntity
  8
0
  6
Continuous
 62
     7
370
    15
100
AcDbLine
 10
1894.195279051791
 20
921.7812295295969
 30
0.0
 11
1893.947791678376
 21
922.6998611654794
 31
0.0
  0
LINE
  5
4BD
330
47F
100
AcDbEntity
  8
0
  6
Continuous
 62
     7
370
    15
100
AcDbLine
 10
1892.427512098825
 20
922.8017396693752
 30
0.0
 11
1892.18002472541
 21
923.7203713052577
 31
0.0
  0
LINE
  5
4BE
330
47F
100
AcDbEntity
  8
0
  6
Continuous
 62
     7
370
    15
100
AcDbLine
 10
1895.081678920766
 20
920.8420054819644
 30
0.0
 11
1897.202999264326
 21
922.0666176496985
 31
0.0
  0
ARC
  5
4BF
330
47F
100
AcDbEntity
  8
0
  6
Continuous
 62
     7
370
    15
100
AcDbCircle
 10
1897.056222294724
 20
922.2708955684263
 30
0.0
 40
0.2515411435236298
100
AcDbArc
 50
305.6978531816529
 51
5.620847597910203
  0
LINE
  5
4C0
330
47F
100
AcDbEntity
  8
0
  6
Continuous
 62
     7
370
    15
100
AcDbLine
 10
1895.041300256672
 20
920.8186890323766
 30
0.0
 11
1897.162620600231
 21
922.0433012001107
 31
0.0
  0
LINE
  5
4C1
330
47F
100
AcDbEntity
  8
0
  6
Continuous
 62
     7
370
    15
100
AcDbLine
 10
1897.202999264326
 20
922.0666176496985
 30
0.0
 11
1897.162620600231
 21
922.0433012001107
 31
0.0
  0
LINE
  5
4C2
330
47F
100
AcDbEntity
  8
0
  6
Continuous
 62
     7
370
    15
100
AcDbLine
 10
1894.93774578074
 20
920.5897784720988
 30
0.0
 11
1897.059066124299
 21
921.814390639833
 31
0.0
  0
ARC
  5
4C3
330
47F
100
AcDbEntity
  8
0
  6
Continuous
 62
     7
370
    15
100
AcDbCircle
 10
1897.309393475434
 20
921.8390258920511
 30
0.0
 40
0.2515366342666213
100
AcDbArc
 50
125.6974427781285
 51
185.6205025697788
  0
LINE
  5
4C4
330
47F
100
AcDbEntity
  8
0
  6
Continuous
 62
     7
370
    15
100
AcDbLine
 10
1897.059066124299
 20
920.1695761355582
 30
0.0
 11
1894.93774578074
 21
918.944963967824
 31
0.0
  0
LINE
  5
4C5
330
47F
100
AcDbEntity
  8
0
  6
Continuous
 62
     7
370
    15
100
AcDbLine
 10
1897.059066124299
 20
920.1695761355582
 30
0.0
 11
1897.059066124299
 21
921.814390639833
 31
0.0
  0
LINE
  5
4C6
330
47F
100
AcDbEntity
  8
0
  6
Continuous
 62
     7
370
    15
100
AcDbLine
 10
1896.811579829843
 20
920.0266588940394
 30
0.0
 11
1894.690259486283
 21
918.8020467263054
 31
0.0
  0
LINE
  5
4C7
330
47F
100
AcDbEntity
  8
0
  6
Continuous
 62
     7
370
    15
100
AcDbLine
 10
1897.059066124299
 20
920.1695761355582
 30
0.0
 11
1896.811579829843
 21
920.0266588940394
 31
0.0
  0
LINE
  5
4C8
330
47F
100
AcDbEntity
  8
0
  6
Continuous
 62
     7
370
    15
100
AcDbLine
 10
1894.72563171217
 20
913.360303971539
 30
0.0
 11
1894.691828624683
 21
913.3407898645019
 31
0.0
  0
ARC
  5
4C9
330
47F
100
AcDbEntity
  8
0
  6
Continuous
 62
     7
370
    15
100
AcDbCircle
 10
1894.477188992334
 20
913.7486867653487
 30
0.0
 40
0.4610476977136937
100
AcDbArc
 50
302.6064450637532
 51
357.3946824979036
  0
LINE
  5
4CA
330
47F
100
AcDbEntity
  8
0
  6
Continuous
 62
     7
370
    15
100
AcDbLine
 10
1894.937760130605
 20
918.9449258070052
 30
0.0
 11
1894.937760130605
 21
913.727729519371
 31
0.0
  0
LINE
  5
4CB
330
47F
100
AcDbEntity
  8
0
  6
Continuous
 62
     7
370
    15
100
AcDbLine
 10
1895.927708772406
 20
914.2992107064086
 30
0.0
 11
1895.927708772406
 21
919.5164109935129
 31
0.0
  0
ARC
  5
4CC
330
47F
100
AcDbEntity
  8
0
  6
Continuous
 62
     7
370
    15
100
AcDbCircle
 10
1896.057031217929
 20
914.2782326062027
 30
0.0
 40
0.1310128833526051
100
AcDbArc
 50
170.7859978946676
 51
309.2032503544571
  0
LINE
  5
4CD
330
47F
100
AcDbEntity
  8
0
  6
Continuous
 62
     7
370
    15
100
AcDbLine
 10
1896.173644046194
 20
914.196223698919
 30
0.0
 11
1896.139840958706
 21
914.1767095918819
 31
0.0
  0
ARC
  5
4CE
330
47F
100
AcDbEntity
  8
0
  6
Continuous
 62
     7
370
    15
100
AcDbCircle
 10
1896.256453786971
 20
914.0947006845989
 30
0.0
 40
0.1310128833519845
100
AcDbArc
 50
350.7859978967194
 51
129.2032503546198
  0
LINE
  5
4CF
330
47F
100
AcDbEntity
  8
0
  6
Continuous
 62
     7
370
    15
100
AcDbLine
 10
1896.385776232494
 20
914.0737225843976
 30
0.0
 11
1896.385778145391
 21
909.3994986582428
 31
0.0
  0
LINE
  5
4D0
330
47F
100
AcDbEntity
  8
0
  6
Continuous
 62
     7
370
    15
100
AcDbLine
 10
1896.385778145391
 20
909.3994986582428
 30
0.0
 11
1894.479698624499
 21
908.2991422071332
 31
0.0
  0
LINE
  5
4D1
330
47F
100
AcDbEntity
  8
0
  6
Continuous
 62
     7
370
    15
100
AcDbLine
 10
1894.479698624499
 20
908.2991422071332
 30
0.0
 11
1894.479696742271
 21
912.9733663164294
 31
0.0
  0
ARC
  5
4D2
330
47F
100
AcDbEntity
  8
0
  6
Continuous
 62
     7
370
    15
100
AcDbCircle
 10
1894.940261301519
 20
912.9524084127817
 30
0.0
 40
0.4610411553866596
100
AcDbArc
 50
122.605483557989
 51
177.394563685739
  0
LINE
  5
4D3
330
47F
100
AcDbEntity
  8
0
  6
Continuous
 62
     7
370
    15
100
AcDbLine
 10
1892.816439086582
 20
914.9523708335379
 30
0.0
 11
1894.937760130605
 21
913.727729519371
 31
0.0
  0
LINE
  5
4D4
330
47F
100
AcDbEntity
  8
0
  6
Continuous
 62
     7
370
    15
100
AcDbLine
 10
1892.816439086582
 20
914.9523708335379
 30
0.0
 11
1892.816438906383
 21
919.8837803217349
 31
0.0
  0
LINE
  5
4D5
330
47F
100
AcDbEntity
  8
0
  6
Continuous
 62
     7
370
    15
100
AcDbLine
 10
1888.149516072646
 20
926.0471344239524
 30
0.0
 11
1888.397003446061
 21
926.1900058435214
 31
0.0
  0
LINE
  5
4D6
330
47F
100
AcDbEntity
  8
0
  6
Continuous
 62
     7
370
    15
100
AcDbLine
 10
1888.149516072646
 20
926.0471344239524
 30
0.0
 11
1886.38174911968
 21
927.0676445637308
 31
0.0
  0
LINE
  5
4D7
330
47F
100
AcDbEntity
  8
0
  6
Continuous
 62
     7
370
    15
100
AcDbLine
 10
1886.38174911968
 20
927.0676445637308
 30
0.0
 11
1886.629236493095
 21
927.2105159832998
 31
0.0
  0
LINE
  5
4D8
330
47F
100
AcDbEntity
  8
0
  6
Continuous
 62
     7
370
    15
100
AcDbLine
 10
1888.397003446061
 20
925.1285027880701
 30
0.0
 11
1888.149516072646
 21
926.0471344239524
 31
0.0
  0
LINE
  5
4D9
330
47F
100
AcDbEntity
  8
0
  6
Continuous
 62
     7
370
    15
100
AcDbLine
 10
1886.629236493095
 20
926.1490129278483
 30
0.0
 11
1886.38174911968
 21
927.0676445637308
 31
0.0
  0
LINE
  5
4DA
330
47F
100
AcDbEntity
  8
0
  6
Continuous
 62
     7
370
    15
100
AcDbLine
 10
1889.283398341503
 20
924.1892851263965
 30
0.0
 11
1891.404718685063
 21
925.4138972941307
 31
0.0
  0
LWPOLYLINE
  5
4DB
330
47F
100
AcDbEntity
  8
0
  6
Continuous
 62
     7
370
    15
100
AcDbPolyline
 90
        3
 70
   128
 43
0.0
 10
1891.404718685063
 20
925.4138972941307
 10
1891.4280194486
 20
925.4301330435636
 10
1891.437564599728
 20
925.4386689230354
  0
LINE
  5
4DC
330
47F
100
AcDbEntity
  8
0
  6
Continuous
 62
     7
370
    15
100
AcDbLine
 10
1889.243019675186
 20
924.1659648404608
 30
0.0
 11
1891.364340018746
 21
925.3905770081949
 31
0.0
  0
LINE
  5
4DD
330
47F
100
AcDbEntity
  8
0
  6
Continuous
 62
     7
370
    15
100
AcDbLine
 10
1891.404718685063
 20
925.4138972941307
 30
0.0
 11
1891.364340018746
 21
925.3905770081949
 31
0.0
  0
LINE
  5
4DE
330
47F
100
AcDbEntity
  8
0
  6
Continuous
 62
     7
370
    15
100
AcDbLine
 10
1889.139466853838
 20
923.9370539765145
 30
0.0
 11
1891.260787197398
 21
925.1616661442485
 31
0.0
  0
ARC
  5
4DF
330
47F
100
AcDbEntity
  8
0
  6
Continuous
 62
     7
370
    15
100
AcDbCircle
 10
1891.51111759616
 20
925.1863013496848
 30
0.0
 40
0.2515396626604486
100
AcDbArc
 50
125.6982660265336
 51
185.6204239767997
  0
LINE
  5
4E0
330
47F
100
AcDbEntity
  8
0
  6
Continuous
 62
     7
370
    15
100
AcDbLine
 10
1891.260787197398
 20
923.5168513113029
 30
0.0
 11
1889.139466853838
 21
922.2922391435687
 31
0.0
  0
LINE
  5
4E1
330
47F
100
AcDbEntity
  8
0
  6
Continuous
 62
     7
370
    15
100
AcDbLine
 10
1891.260787197398
 20
923.5168513113029
 30
0.0
 11
1891.260787197398
 21
925.1616661442485
 31
0.0
  0
LINE
  5
4E2
330
47F
100
AcDbEntity
  8
0
  6
Continuous
 62
     7
370
    15
100
AcDbLine
 10
1891.013300902942
 20
923.3739340697841
 30
0.0
 11
1888.891980559382
 21
922.1493219020501
 31
0.0
  0
LINE
  5
4E3
330
47F
100
AcDbEntity
  8
0
  6
Continuous
 62
     7
370
    15
100
AcDbLine
 10
1891.260787197398
 20
923.5168513113029
 30
0.0
 11
1891.013300902942
 21
923.3739340697841
 31
0.0
  0
LINE
  5
4E4
330
47F
100
AcDbEntity
  8
0
  6
Continuous
 62
     7
370
    15
100
AcDbLine
 10
1894.479696742271
 20
912.9733663164294
 30
0.0
 11
1892.358371964984
 21
914.1980097858176
 31
0.0
  0
LINE
  5
4E5
330
47F
100
AcDbEntity
  8
0
  6
Continuous
 62
     7
370
    15
100
AcDbLine
 10
1894.691828624683
 20
913.3407898645019
 30
0.0
 11
1892.570503982039
 21
914.5654332561569
 31
0.0
  0
ARC
  5
4E6
330
47F
100
AcDbEntity
  8
0
  6
Continuous
 62
     7
370
    15
100
AcDbCircle
 10
1892.818936764465
 20
914.1770515702653
 30
0.0
 40
0.4610414095501992
100
AcDbArc
 50
122.6054789306617
 51
177.394526321079
  0
LINE
  5
4E7
330
47F
100
AcDbEntity
  8
0
  6
Continuous
 62
     7
370
    15
100
AcDbLine
 10
1894.72563171217
 20
913.360303971539
 30
0.0
 11
1892.604307069526
 21
914.5849473631942
 31
0.0
  0
ARC
  5
4E8
330
47F
100
AcDbEntity
  8
0
  6
Continuous
 62
     7
370
    15
100
AcDbCircle
 10
1892.355874287101
 20
914.9733290490857
 30
0.0
 40
0.4610414095494697
100
AcDbArc
 50
302.6054789305967
 51
357.3945263216529
  0
LINE
  5
4E9
330
47F
100
AcDbEntity
  8
0
  6
Continuous
 62
     7
370
    15
100
AcDbLine
 10
1893.085412772024
 20
907.0626740309549
 30
0.0
 11
1893.752655765985
 21
906.6774828495661
 31
0.0
  0
ARC
  5
4EA
330
47F
100
AcDbEntity
  8
0
  6
Continuous
 62
     7
370
    15
100
AcDbCircle
 10
1893.680188773869
 20
907.9818197210094
 30
0.0
 40
1.0948001150511
100
AcDbArc
 50
188.6903853336106
 51
237.0932335995496
  0
LINE
  5
4EB
330
47F
100
AcDbEntity
  8
0
  6
Continuous
 62
     7
370
    15
100
AcDbLine
 10
1892.358372295111
 20
909.5237578304104
 30
0.0
 11
1892.597957779103
 21
907.8164009618397
 31
0.0
  0
LINE
  5
4EC
330
47F
100
AcDbEntity
  8
0
  6
Continuous
 62
     7
370
    15
100
AcDbLine
 10
1894.240110758906
 20
906.868406225235
 30
0.0
 11
1894.479698624499
 21
908.2991422071332
 31
0.0
  0
LWPOLYLINE
  5
4ED
330
47F
100
AcDbEntity
  8
0
  6
Continuous
 62
     7
370
    15
100
AcDbPolyline
 90
        9
 70
   128
 43
0.0
 10
1894.240110758906
 20
906.868406225235
 10
1894.21777992562
 20
906.7850597071144
 10
1894.181316524306
 20
906.7158116519674
 10
1894.131828477416
 20
906.6627661277719
 10
1894.07081945483
 20
906.6275348966003
 10
1894.000143185589
 20
906.6111884420232
 10
1893.92194713325
 20
906.6142234429948
 10
1893.838607246271
 20
906.636547682509
 10
1893.752655765985
 20
906.6774828495661
  0
LINE
  5
4EE
330
47F
100
AcDbEntity
  8
0
  6
Continuous
 62
     7
370
    15
100
AcDbLine
 10
1892.358371964984
 20
914.1980097858176
 30
0.0
 11
1892.358372295111
 21
909.5237578304104
 31
0.0
  0
LINE
  5
4EF
330
47F
100
AcDbEntity
  8
0
  6
Continuous
 62
     7
370
    15
100
AcDbLine
 10
1892.570503982039
 20
914.5654332561569
 30
0.0
 11
1892.604307069526
 21
914.5849473631942
 31
0.0
  0
LINE
  5
4F0
330
47F
100
AcDbEntity
  8
0
  6
Continuous
 62
     7
370
    15
100
AcDbLine
 10
1888.893553018953
 20
916.6880631229748
 30
0.0
 11
1888.927356106441
 21
916.7075772300121
 31
0.0
  0
ARC
  5
4F1
330
47F
100
AcDbEntity
  8
0
  6
Continuous
 62
     7
370
    15
100
AcDbCircle
 10
1888.678913386603
 20
917.0959600238221
 30
0.0
 40
0.4610476977150551
100
AcDbArc
 50
302.6064450639266
 51
357.3946824978971
  0
LINE
  5
4F2
330
47F
100
AcDbEntity
  8
0
  6
Continuous
 62
     7
370
    15
100
AcDbLine
 10
1889.139484524875
 20
922.2922029000214
 30
0.0
 11
1889.139484524875
 21
917.0750027778442
 31
0.0
  0
LINE
  5
4F3
330
47F
100
AcDbEntity
  8
0
  6
Continuous
 62
     7
370
    15
100
AcDbLine
 10
1890.129433166676
 20
917.646483964882
 30
0.0
 11
1890.129433166676
 21
922.8636880865289
 31
0.0
  0
ARC
  5
4F4
330
47F
100
AcDbEntity
  8
0
  6
Continuous
 62
     7
370
    15
100
AcDbCircle
 10
1890.258755612199
 20
917.6255058646761
 30
0.0
 40
0.1310128833528203
100
AcDbArc
 50
170.7859978947725
 51
309.2032503543696
  0
LINE
  5
4F5
330
47F
100
AcDbEntity
  8
0
  6
Continuous
 62
     7
370
    15
100
AcDbLine
 10
1890.375368440464
 20
917.543496957392
 30
0.0
 11
1890.341565352976
 21
917.5239828503549
 31
0.0
  0
ARC
  5
4F6
330
47F
100
AcDbEntity
  8
0
  6
Continuous
 62
     7
370
    15
100
AcDbCircle
 10
1890.458178181241
 20
917.4419739430719
 30
0.0
 40
0.131012883351961
100
AcDbArc
 50
350.7859978967001
 51
129.2032503546423
  0
LINE
  5
4F7
330
47F
100
AcDbEntity
  8
0
  6
Continuous
 62
     7
370
    15
100
AcDbLine
 10
1890.587500626764
 20
917.4209958428706
 30
0.0
 11
1890.587502508992
 21
912.7467717335701
 31
0.0
  0
LINE
  5
4F8
330
47F
100
AcDbEntity
  8
0
  6
Continuous
 62
     7
370
    15
100
AcDbLine
 10
1890.587502508992
 20
912.7467717335701
 30
0.0
 11
1888.681423018769
 21
911.6464154656062
 31
0.0
  0
LINE
  5
4F9
330
47F
100
AcDbEntity
  8
0
  6
Continuous
 62
     7
370
    15
100
AcDbLine
 10
1888.681423018769
 20
911.6464154656062
 30
0.0
 11
1888.681421136542
 21
916.3206395749023
 31
0.0
  0
ARC
  5
4FA
330
47F
100
AcDbEntity
  8
0
  6
Continuous
 62
     7
370
    15
100
AcDbCircle
 10
1889.141985695789
 20
916.2996816712551
 30
0.0
 40
0.461041155385863
100
AcDbArc
 50
122.6054835579421
 51
177.3945636857976
  0
LINE
  5
4FB
330
47F
100
AcDbEntity
  8
0
  6
Continuous
 62
     7
370
    15
100
AcDbLine
 10
1887.018163480852
 20
918.2996440920112
 30
0.0
 11
1889.139484524875
 21
917.0750027778442
 31
0.0
  0
LINE
  5
4FC
330
47F
100
AcDbEntity
  8
0
  6
Continuous
 62
     7
370
    15
100
AcDbLine
 10
1887.018163480852
 20
918.2996440920112
 30
0.0
 11
1887.018163364755
 21
923.2310535432029
 31
0.0
  0
LINE
  5
4FD
330
47F
100
AcDbEntity
  8
0
  6
Continuous
 62
     7
370
    15
100
AcDbLine
 10
1896.146190249129
 20
907.968762493199
 30
0.0
 11
1894.240110758906
 21
906.868406225235
 31
0.0
  0
LINE
  5
4FE
330
47F
100
AcDbEntity
  8
0
  6
Continuous
 62
     7
370
    15
100
AcDbLine
 10
1896.385778145391
 20
909.3994986582428
 30
0.0
 11
1896.146190249129
 21
907.968762493199
 31
0.0
  0
LINE
  5
4FF
330
47F
100
AcDbEntity
  8
0
  6
Continuous
 62
     7
370
    15
100
AcDbLine
 10
1888.681421136542
 20
916.3206395749023
 30
0.0
 11
1886.560096359254
 21
917.5452830442909
 31
0.0
  0
LINE
  5
500
330
47F
100
AcDbEntity
  8
0
  6
Continuous
 62
     7
370
    15
100
AcDbLine
 10
1888.893553018953
 20
916.6880631229748
 30
0.0
 11
1886.772228376309
 21
917.9127065146301
 31
0.0
  0
ARC
  5
501
330
47F
100
AcDbEntity
  8
0
  6
Continuous
 62
     7
370
    15
100
AcDbCircle
 10
1887.020661158735
 20
917.524324828738
 30
0.0
 40
0.4610414095509375
100
AcDbArc
 50
122.6054789306942
 51
177.394526321027
  0
LINE
  5
502
330
47F
100
AcDbEntity
  8
0
  6
Continuous
 62
     7
370
    15
100
AcDbLine
 10
1888.927356106441
 20
916.7075772300121
 30
0.0
 11
1886.806031463797
 21
917.9322206216674
 31
0.0
  0
ARC
  5
503
330
47F
100
AcDbEntity
  8
0
  6
Continuous
 62
     7
370
    15
100
AcDbCircle
 10
1886.557598681371
 20
918.3206023075591
 30
0.0
 40
0.4610414095499164
100
AcDbArc
 50
302.6054789306293
 51
357.3945263216399
  0
ARC
  5
504
330
47F
100
AcDbEntity
  8
0
  6
Continuous
 62
     7
370
    15
100
AcDbCircle
 10
1895.845188914219
 20
907.9975280468898
 30
0.0
 40
0.3023727181751461
100
AcDbArc
 50
302.7369283051129
 51
354.5410385237174
  0
LINE
  5
505
330
47F
100
AcDbEntity
  8
0
  6
Continuous
 62
     7
370
    15
100
AcDbLine
 10
1887.287137166294
 20
910.4099472894281
 30
0.0
 11
1887.954380160255
 21
910.0247561080394
 31
0.0
  0
ARC
  5
506
330
47F
100
AcDbEntity
  8
0
  6
Continuous
 62
     7
370
    15
100
AcDbCircle
 10
1887.88191316814
 20
911.3290929794827
 30
0.0
 40
1.09480011505137
100
AcDbArc
 50
188.6903853336126
 51
237.0932335995496
  0
LINE
  5
507
330
47F
100
AcDbEntity
  8
0
  6
Continuous
 62
     7
370
    15
100
AcDbLine
 10
1886.560096689382
 20
912.8710310888834
 30
0.0
 11
1886.799682173374
 21
911.1636742203129
 31
0.0
  0
LINE
  5
508
330
47F
100
AcDbEntity
  8
0
  6
Continuous
 62
     7
370
    15
100
AcDbLine
 10
1888.441835153176
 20
910.2156794837082
 30
0.0
 11
1888.681423018769
 21
911.6464154656062
 31
0.0
  0
LWPOLYLINE
  5
509
330
47F
100
AcDbEntity
  8
0
  6
Continuous
 62
     7
370
    15
100
AcDbPolyline
 90
        9
 70
   128
 43
0.0
 10
1888.441835153176
 20
910.2156794837082
 10
1888.419504319891
 20
910.1323329655876
 10
1888.383040918576
 20
910.0630849104405
 10
1888.333552871687
 20
910.0100393862451
 10
1888.272543849101
 20
909.9748081550735
 10
1888.201867579859
 20
909.9584617004962
 10
1888.123671527521
 20
909.9614967014678
 10
1888.040331640542
 20
909.9838209409821
 10
1887.954380160255
 20
910.0247561080394
  0
LINE
  5
50A
330
47F
100
AcDbEntity
  8
0
  6
Continuous
 62
     7
370
    15
100
AcDbLine
 10
1886.560096359254
 20
917.5452830442909
 30
0.0
 11
1886.560096689382
 21
912.8710310888834
 31
0.0
  0
LINE
  5
50B
330
47F
100
AcDbEntity
  8
0
  6
Continuous
 62
     7
370
    15
100
AcDbLine
 10
1886.772228376309
 20
917.9127065146301
 30
0.0
 11
1886.806031463797
 21
917.9322206216674
 31
0.0
  0
LINE
  5
50C
330
47F
100
AcDbEntity
  8
0
  6
Continuous
 62
     7
370
    15
100
AcDbLine
 10
1890.347914643399
 20
911.3160357516719
 30
0.0
 11
1888.441835153176
 21
910.2156794837082
 31
0.0
  0
LINE
  5
50D
330
47F
100
AcDbEntity
  8
0
  6
Continuous
 62
     7
370
    15
100
AcDbLine
 10
1890.587502508992
 20
912.7467717335701
 30
0.0
 11
1890.347914643399
 21
911.3160357516719
 31
0.0
  0
ARC
  5
50E
330
47F
100
AcDbEntity
  8
0
  6
Continuous
 62
     7
370
    15
100
AcDbCircle
 10
1890.046913308487
 20
911.3448013053643
 30
0.0
 40
0.3023727181774532
100
AcDbArc
 50
302.7369283053297
 51
354.5410385235009
  0
LINE
  5
50F
330
47F
100
AcDbEntity
  8
0
  6
Continuous
 62
     8
370
    15
100
AcDbLine
 10
1891.437564864781
 20
925.6019918862586
 30
0.0
 11
1889.386952224237
 21
924.4181984066251
 31
0.0
  0
LINE
  5
510
330
47F
100
AcDbEntity
  8
0
  6
Continuous
 62
     8
370
    15
100
AcDbLine
 10
1895.927708774841
 20
914.2991737691728
 30
0.0
 11
1896.139840958706
 21
914.1767095918819
 31
0.0
  0
LINE
  5
511
330
47F
100
AcDbEntity
  8
0
  6
Continuous
 62
     8
370
    15
100
AcDbLine
 10
1895.927708772406
 20
914.3382024426554
 30
0.0
 11
1896.173644046194
 21
914.196223698919
 31
0.0
  0
LINE
  5
512
330
47F
100
AcDbEntity
  8
0
  6
Continuous
 62
     8
370
    15
100
AcDbLine
 10
1890.129433169111
 20
917.6464470276458
 30
0.0
 11
1890.341565352976
 21
917.5239828503549
 31
0.0
  0
LINE
  5
513
330
47F
100
AcDbEntity
  8
0
  6
Continuous
 62
     8
370
    15
100
AcDbLine
 10
1890.129433166676
 20
917.6854757011286
 30
0.0
 11
1890.375368440464
 21
917.543496957392
 31
0.0
  0
ENDBLK
  5
481
330
47F
100
AcDbEntity
  8
0
100
AcDbBlockEnd
  0
ENDSEC
  0
SECTION
  2
ENTITIES
  0
INSERT
  5
437
330
1F
100
AcDbEntity
  8
0
100
AcDbBlockReference
  2
1
 10
0.0
 20
0.0
 30
0.0
  0
INSERT
  5
476
330
1F
100
AcDbEntity
  8
0
100
AcDbBlockReference
  2
2
 10
0.0
 20
0.0
 30
0.0
  0
INSERT
  5
47E
330
1F
100
AcDbEntity
  8
0
100
AcDbBlockReference
  2
3
 10
0.0
 20
0.0
 30
0.0
  0
INSERT
  5
514
330
1F
100
AcDbEntity
  8
0
100
AcDbBlockReference
  2
4
 10
0.0
 20
0.0
 30
0.0
  0
ENDSEC
  0
SECTION
  2
OBJECTS
  0
DICTIONARY
  5
C
330
0
100
AcDbDictionary
281
     1
  3
ACAD_COLOR
350
6B
  3
ACAD_GROUP
350
D
  3
ACAD_LAYOUT
350
1A
  3
ACAD_MATERIAL
350
6A
  3
ACAD_MLEADERSTYLE
350
12D
  3
ACAD_MLINESTYLE
350
17
  3
ACAD_PLOTSETTINGS
350
19
  3
ACAD_PLOTSTYLENAME
350
E
  3
ACAD_SCALELIST
350
10C
  3
ACAD_TABLESTYLE
350
7E
  3
ACAD_VISUALSTYLE
350
EF
  3
ACDB_RECOMPOSE_DATA
350
15D
  3
AcDbVariableDictionary
350
5E
  3
DWGPROPS
350
522
  0
DICTIONARY
  5
13C
330
10
100
AcDbDictionary
280
     1
281
     1
  3
ADSK_XREC_LAYER_RECONCILED
360
515
  0
DICTIONARY
  5
6B
102
{ACAD_REACTORS
330
C
102
}
330
C
100
AcDbDictionary
281
     1
  0
DICTIONARY
  5
D
102
{ACAD_REACTORS
330
C
102
}
330
C
100
AcDbDictionary
281
     1
  0
DICTIONARY
  5
1A
102
{ACAD_REACTORS
330
C
102
}
330
C
100
AcDbDictionary
281
     1
  3
Layout1
350
D3
  3
Layout2
350
D7
  3
Model
350
22
  0
DICTIONARY
  5
6A
102
{ACAD_REACTORS
330
C
102
}
330
C
100
AcDbDictionary
281
     1
  3
ByBlock
350
ED
  3
ByLayer
350
EC
  3
Global
350
EE
  0
DICTIONARY
  5
12D
102
{ACAD_REACTORS
330
C
102
}
330
C
100
AcDbDictionary
281
     1
  3
Annotative
350
13B
  3
Standard
350
12E
  0
DICTIONARY
  5
17
102
{ACAD_REACTORS
330
C
102
}
330
C
100
AcDbDictionary
281
     1
  3
Standard
350
18
  0
DICTIONARY
  5
19
102
{ACAD_REACTORS
330
C
102
}
330
C
100
AcDbDictionary
281
     1
  0
ACDBDICTIONARYWDFLT
  5
E
102
{ACAD_REACTORS
330
C
102
}
330
C
100
AcDbDictionary
281
     1
  3
Normal
350
F
100
AcDbDictionaryWithDefault
340
F
  0
DICTIONARY
  5
10C
102
{ACAD_REACTORS
330
C
102
}
330
C
100
AcDbDictionary
281
     1
  3
A0
350
10D
  3
A1
350
188
  3
A2
350
189
  3
A3
350
18A
  3
A4
350
18B
  3
A5
350
18C
  3
A6
350
18D
  3
A7
350
18E
  3
A8
350
18F
  3
A9
350
190
  3
B0
350
191
  3
B1
350
192
  3
B2
350
193
  3
B3
350
194
  3
B4
350
195
  3
B5
350
196
  3
B6
350
197
  3
B7
350
198
  3
B8
350
199
  3
B9
350
19A
  3
C0
350
19B
  3
C1
350
19C
  3
C2
350
19D
  3
C3
350
19E
  3
C4
350
19F
  3
C5
350
1A0
  3
C6
350
1A1
  3
C7
350
1A2
  3
C8
350
1A3
  3
C9
350
1A4
  3
D0
350
1A5
  3
D1
350
1A6
  3
D2
350
1A7
  0
DICTIONARY
  5
7E
102
{ACAD_REACTORS
330
C
102
}
330
C
100
AcDbDictionary
281
     1
  3
Standard
350
7F
  0
DICTIONARY
  5
EF
102
{ACAD_REACTORS
330
C
102
}
330
C
100
AcDbDictionary
281
     1
  3
2dWireframe
350
F5
  3
3D Hidden
350
F7
  3
3dWireframe
350
F6
  3
Basic
350
F4
  3
Brighten
350
FB
  3
ColorChange
350
FF
  3
Conceptual
350
F8
  3
Dim
350
FA
  3
Facepattern
350
FE
  3
Flat
350
F0
  3
FlatWithEdges
350
F1
  3
Gouraud
350
F2
  3
GouraudWithEdges
350
F3
  3
Linepattern
350
FD
  3
Realistic
350
F9
  3
Thicken
350
FC
  0
XRECORD
  5
15D
102
{ACAD_REACTORS
330
C
102
}
330
C
100
AcDbXrecord
280
     1
 90
        1
330
7F
  0
DICTIONARY
  5
5E
102
{ACAD_REACTORS
330
C
102
}
330
C
100
AcDbDictionary
281
     1
  3
CANNOSCALE
350
146
  3
CMLEADERSTYLE
350
145
  3
CTABLESTYLE
350
84
  3
DIMASSOC
350
5F
  3
HIDETEXT
350
63
  3
INDEXCTL
350
51E
  3
LIGHTINGUNITS
350
51C
  3
MSLTSCALE
350
51B
  3
PSOLHEIGHT
350
520
  3
PSOLWIDTH
350
51F
  3
SORTENTS
350
51D
  0
XRECORD
  5
522
102
{ACAD_REACTORS
330
C
102
}
330
C
100
AcDbXrecord
280
     1
  1
DWGPROPS COOKIE
  2

  3

  4

  6

  7

  8
orhan kara
  9

300
=
301
=
302
=
303
=
304
=
305
=
306
=
307
=
308
=
309
=
 40
0.0021711226851852
 41
2458933.645050532
 42
2458956.448137871
  1

 90
        0
  0
XRECORD
  5
515
102
{ACAD_REACTORS
330
13C
102
}
330
13C
100
AcDbXrecord
280
     1
290
     1
  0
LAYOUT
  5
D3
102
{ACAD_XDICTIONARY
360
526
102
}
102
{ACAD_REACTORS
330
1A
102
}
330
1A
100
AcDbPlotSettings
  1

  2
C:\Documents and Settings\basas\Application Data\Autodesk\AutoCAD 2005\R16.1\enu\plotters\Default Windows System Printer.pc3
  4

  6

 40
0.0
 41
0.0
 42
0.0
 43
0.0
 44
0.0
 45
0.0
 46
0.0
 47
0.0
 48
0.0
 49
0.0
140
0.0
141
0.0
142
1.0
143
1.0
 70
   688
 72
     0
 73
     0
 74
     5
  7

 75
    16
147
1.0
148
0.0
149
0.0
100
AcDbLayout
  1
Layout1
 70
     1
 71
     1
 10
0.0
 20
0.0
 11
12.0
 21
9.0
 12
0.0
 22
0.0
 32
0.0
 14
0.0
 24
0.0
 34
0.0
 15
0.0
 25
0.0
 35
0.0
146
0.0
 13
0.0
 23
0.0
 33
0.0
 16
1.0
 26
0.0
 36
0.0
 17
0.0
 27
1.0
 37
0.0
 76
     0
330
D2
  0
LAYOUT
  5
D7
102
{ACAD_XDICTIONARY
360
528
102
}
102
{ACAD_REACTORS
330
1A
102
}
330
1A
100
AcDbPlotSettings
  1

  2
C:\Documents and Settings\basas\Application Data\Autodesk\AutoCAD 2005\R16.1\enu\plotters\Default Windows System Printer.pc3
  4

  6

 40
0.0
 41
0.0
 42
0.0
 43
0.0
 44
0.0
 45
0.0
 46
0.0
 47
0.0
 48
0.0
 49
0.0
140
0.0
141
0.0
142
1.0
143
1.0
 70
   688
 72
     0
 73
     0
 74
     5
  7

 75
    16
147
1.0
148
0.0
149
0.0
100
AcDbLayout
  1
Layout2
 70
     1
 71
     2
 10
0.0
 20
0.0
 11
12.0
 21
9.0
 12
0.0
 22
0.0
 32
0.0
 14
0.0
 24
0.0
 34
0.0
 15
0.0
 25
0.0
 35
0.0
146
0.0
 13
0.0
 23
0.0
 33
0.0
 16
1.0
 26
0.0
 36
0.0
 17
0.0
 27
1.0
 37
0.0
 76
     0
330
D6
  0
LAYOUT
  5
22
102
{ACAD_XDICTIONARY
360
523
102
}
102
{ACAD_REACTORS
330
1A
102
}
330
1A
100
AcDbPlotSettings
  1

  2
none_device
  4
ISO_A4_(210.00_x_297.00_MM)
  6

 40
7.5
 41
20.0
 42
7.5
 43
20.0
 44
210.0
 45
297.0
 46
11.54999923706054
 47
-13.65000009536743
 48
0.0
 49
0.0
140
0.0
141
0.0
142
1.0
143
8.704084754739808
 70
 11952
 72
     1
 73
     0
 74
     0
  7

 75
     0
147
0.1148885871608098
148
0.0
149
0.0
100
AcDbLayout
  1
Model
 70
     1
 71
     0
 10
0.0
 20
0.0
 11
12.0
 21
9.0
 12
0.0
 22
0.0
 32
0.0
 14
0.0
 24
0.0
 34
0.0
 15
0.0
 25
0.0
 35
0.0
146
0.0
 13
0.0
 23
0.0
 33
0.0
 16
1.0
 26
0.0
 36
0.0
 17
0.0
 27
1.0
 37
0.0
 76
     0
330
1F
331
EA
1001
ACAD_PSEXT
1000
None
1000
None
1000
Not applicable
1000
The layout will not be plotted unless a new plotter configuration name is selected.
1070
     0
  0
MATERIAL
  5
ED
102
{ACAD_XDICTIONARY
360
52C
102
}
102
{ACAD_REACTORS
330
6A
102
}
330
6A
100
AcDbMaterial
  1
ByBlock
  0
MATERIAL
  5
EC
102
{ACAD_XDICTIONARY
360
52A
102
}
102
{ACAD_REACTORS
330
6A
102
}
330
6A
100
AcDbMaterial
  1
ByLayer
  0
MATERIAL
  5
EE
102
{ACAD_XDICTIONARY
360
173
102
}
102
{ACAD_REACTORS
330
6A
102
}
330
6A
100
AcDbMaterial
  1
Global
 43
0.0007999999797903
 43
0.0
 43
0.0
 43
0.0
 43
0.0
 43
0.0007999999797903
 43
0.0
 43
0.0
 43
0.0
 43
0.0
 43
1.0
 43
0.0
 43
0.0
 43
0.0
 43
0.0
 43
1.0
 49
0.0007999999797903
 49
0.0
 49
0.0
 49
0.0
 49
0.0
 49
0.0007999999797903
 49
0.0
 49
0.0
 49
0.0
 49
0.0
 49
1.0
 49
0.0
 49
0.0
 49
0.0
 49
0.0
 49
1.0
142
0.0007999999797903
142
0.0
142
0.0
142
0.0
142
0.0
142
0.0007999999797903
142
0.0
142
0.0
142
0.0
142
0.0
142
1.0
142
0.0
142
0.0
142
0.0
142
0.0
142
1.0
144
0.0007999999797903
144
0.0
144
0.0
144
0.0
144
0.0
144
0.0007999999797903
144
0.0
144
0.0
144
0.0
144
0.0
144
1.0
144
0.0
144
0.0
144
0.0
144
0.0
144
1.0
1001
ACAD
1070
    -1
1070
     3
1070
     0
1000

1071
        0
1070
     0
  0
MLEADERSTYLE
  5
13B
102
{ACAD_REACTORS
330
12D
102
}
330
12D
100
AcDbMLeaderStyle
170
     2
171
     1
172
     0
 90
        2
 40
0.0
 41
0.0
173
     1
 91
-1056964608
340
14
 92
       -2
290
     1
 42
2.0
291
     1
 43
8.0
  3
Standard
 44
4.0
300

342
11
174
     1
178
     1
175
     1
176
     0
 93
-1056964608
 45
4.0
292
     0
297
     0
 46
4.0
 94
-1056964608
 47
1.0
 49
1.0
140
1.0
293
     1
141
0.0
294
     1
177
     0
142
1.0
295
     0
296
     1
143
3.75
1001
ACAD_MLEADERVER
1070
     2
  0
MLEADERSTYLE
  5
12E
102
{ACAD_REACTORS
330
12D
102
}
330
12D
100
AcDbMLeaderStyle
170
     2
171
     1
172
     0
 90
        2
 40
0.0
 41
0.0
173
     1
 91
-1056964608
340
14
 92
       -2
290
     1
 42
2.0
291
     1
 43
8.0
  3
Standard
 44
4.0
300

342
11
174
     1
178
     1
175
     1
176
     0
 93
-1056964608
 45
4.0
292
     0
297
     0
 46
4.0
 94
-1056964608
 47
1.0
 49
1.0
140
1.0
293
     1
141
0.0
294
     1
177
     0
142
1.0
295
     0
296
     0
143
3.75
1001
ACAD_MLEADERVER
1070
     2
  0
MLINESTYLE
  5
18
102
{ACAD_REACTORS
330
17
102
}
330
17
100
AcDbMlineStyle
  2
STANDARD
 70
     0
  3

 62
   256
 51
90.0
 52
90.0
 71
     2
 49
0.5
 62
   256
  6
BYLAYER
 49
-0.5
 62
   256
  6
BYLAYER
  0
ACDBPLACEHOLDER
  5
F
102
{ACAD_REACTORS
330
E
102
}
330
E
  0
SCALE
  5
10D
102
{ACAD_REACTORS
330
10C
102
}
330
10C
100
AcDbScale
 70
     0
300
1:1
140
1.0
141
1.0
290
     1
  0
SCALE
  5
188
102
{ACAD_REACTORS
330
10C
102
}
330
10C
100
AcDbScale
 70
     0
300
1:2
140
1.0
141
2.0
290
     0
  0
SCALE
  5
189
102
{ACAD_REACTORS
330
10C
102
}
330
10C
100
AcDbScale
 70
     0
300
1:4
140
1.0
141
4.0
290
     0
  0
SCALE
  5
18A
102
{ACAD_REACTORS
330
10C
102
}
330
10C
100
AcDbScale
 70
     0
300
1:5
140
1.0
141
5.0
290
     0
  0
SCALE
  5
18B
102
{ACAD_REACTORS
330
10C
102
}
330
10C
100
AcDbScale
 70
     0
300
1:8
140
1.0
141
8.0
290
     0
  0
SCALE
  5
18C
102
{ACAD_REACTORS
330
10C
102
}
330
10C
100
AcDbScale
 70
     0
300
1:10
140
1.0
141
10.0
290
     0
  0
SCALE
  5
18D
102
{ACAD_REACTORS
330
10C
102
}
330
10C
100
AcDbScale
 70
     0
300
1:16
140
1.0
141
16.0
290
     0
  0
SCALE
  5
18E
102
{ACAD_REACTORS
330
10C
102
}
330
10C
100
AcDbScale
 70
     0
300
1:20
140
1.0
141
20.0
290
     0
  0
SCALE
  5
18F
102
{ACAD_REACTORS
330
10C
102
}
330
10C
100
AcDbScale
 70
     0
300
1:30
140
1.0
141
30.0
290
     0
  0
SCALE
  5
190
102
{ACAD_REACTORS
330
10C
102
}
330
10C
100
AcDbScale
 70
     0
300
1:40
140
1.0
141
40.0
290
     0
  0
SCALE
  5
191
102
{ACAD_REACTORS
330
10C
102
}
330
10C
100
AcDbScale
 70
     0
300
1:50
140
1.0
141
50.0
290
     0
  0
SCALE
  5
192
102
{ACAD_REACTORS
330
10C
102
}
330
10C
100
AcDbScale
 70
     0
300
1:100
140
1.0
141
100.0
290
     0
  0
SCALE
  5
193
102
{ACAD_REACTORS
330
10C
102
}
330
10C
100
AcDbScale
 70
     0
300
2:1
140
2.0
141
1.0
290
     0
  0
SCALE
  5
194
102
{ACAD_REACTORS
330
10C
102
}
330
10C
100
AcDbScale
 70
     0
300
4:1
140
4.0
141
1.0
290
     0
  0
SCALE
  5
195
102
{ACAD_REACTORS
330
10C
102
}
330
10C
100
AcDbScale
 70
     0
300
8:1
140
8.0
141
1.0
290
     0
  0
SCALE
  5
196
102
{ACAD_REACTORS
330
10C
102
}
330
10C
100
AcDbScale
 70
     0
300
10:1
140
10.0
141
1.0
290
     0
  0
SCALE
  5
197
102
{ACAD_REACTORS
330
10C
102
}
330
10C
100
AcDbScale
 70
     0
300
100:1
140
100.0
141
1.0
290
     0
  0
SCALE
  5
198
102
{ACAD_REACTORS
330
10C
102
}
330
10C
100
AcDbScale
 70
     0
300
1/128" = 1'-0"
140
0.0078125
141
12.0
290
     0
  0
SCALE
  5
199
102
{ACAD_REACTORS
330
10C
102
}
330
10C
100
AcDbScale
 70
     0
300
1/64" = 1'-0"
140
0.015625
141
12.0
290
     0
  0
SCALE
  5
19A
102
{ACAD_REACTORS
330
10C
102
}
330
10C
100
AcDbScale
 70
     0
300
1/32" = 1'-0"
140
0.03125
141
12.0
290
     0
  0
SCALE
  5
19B
102
{ACAD_REACTORS
330
10C
102
}
330
10C
100
AcDbScale
 70
     0
300
1/16" = 1'-0"
140
0.0625
141
12.0
290
     0
  0
SCALE
  5
19C
102
{ACAD_REACTORS
330
10C
102
}
330
10C
100
AcDbScale
 70
     0
300
3/32" = 1'-0"
140
0.09375
141
12.0
290
     0
  0
SCALE
  5
19D
102
{ACAD_REACTORS
330
10C
102
}
330
10C
100
AcDbScale
 70
     0
300
1/8" = 1'-0"
140
0.125
141
12.0
290
     0
  0
SCALE
  5
19E
102
{ACAD_REACTORS
330
10C
102
}
330
10C
100
AcDbScale
 70
     0
300
3/16" = 1'-0"
140
0.1875
141
12.0
290
     0
  0
SCALE
  5
19F
102
{ACAD_REACTORS
330
10C
102
}
330
10C
100
AcDbScale
 70
     0
300
1/4" = 1'-0"
140
0.25
141
12.0
290
     0
  0
SCALE
  5
1A0
102
{ACAD_REACTORS
330
10C
102
}
330
10C
100
AcDbScale
 70
     0
300
3/8" = 1'-0"
140
0.375
141
12.0
290
     0
  0
SCALE
  5
1A1
102
{ACAD_REACTORS
330
10C
102
}
330
10C
100
AcDbScale
 70
     0
300
1/2" = 1'-0"
140
0.5
141
12.0
290
     0
  0
SCALE
  5
1A2
102
{ACAD_REACTORS
330
10C
102
}
330
10C
100
AcDbScale
 70
     0
300
3/4" = 1'-0"
140
0.75
141
12.0
290
     0
  0
SCALE
  5
1A3
102
{ACAD_REACTORS
330
10C
102
}
330
10C
100
AcDbScale
 70
     0
300
1" = 1'-0"
140
1.0
141
12.0
290
     0
  0
SCALE
  5
1A4
102
{ACAD_REACTORS
330
10C
102
}
330
10C
100
AcDbScale
 70
     0
300
1-1/2" = 1'-0"
140
1.5
141
12.0
290
     0
  0
SCALE
  5
1A5
102
{ACAD_REACTORS
330
10C
102
}
330
10C
100
AcDbScale
 70
     0
300
3" = 1'-0"
140
3.0
141
12.0
290
     0
  0
SCALE
  5
1A6
102
{ACAD_REACTORS
330
10C
102
}
330
10C
100
AcDbScale
 70
     0
300
6" = 1'-0"
140
6.0
141
12.0
290
     0
  0
SCALE
  5
1A7
102
{ACAD_REACTORS
330
10C
102
}
330
10C
100
AcDbScale
 70
     0
300
1'-0" = 1'-0"
140
12.0
141
12.0
290
     0
  0
TABLESTYLE
  5
7F
102
{ACAD_XDICTIONARY
360
162
102
}
102
{ACAD_REACTORS
330
7E
102
}
330
7E
100
AcDbTableStyle
  3
Standard
 70
     0
 71
     0
 40
1.5
 41
1.5
280
     0
281
     0
  7
Standard
140
4.5
170
     2
 62
     0
 63
     7
283
     0
274
    -2
284
     1
 64
     0
275
    -2
285
     1
 65
     0
276
    -2
286
     1
 66
     0
277
    -2
287
     1
 67
     0
278
    -2
288
     1
 68
     0
279
    -2
289
     1
 69
     0
  7
Standard
140
6.0
170
     5
 62
     0
 63
     7
283
     0
274
    -2
284
     1
 64
     0
275
    -2
285
     1
 65
     0
276
    -2
286
     1
 66
     0
277
    -2
287
     1
 67
     0
278
    -2
288
     1
 68
     0
279
    -2
289
     1
 69
     0
  7
Standard
140
4.5
170
     5
 62
     0
 63
     7
283
     0
274
    -2
284
     1
 64
     0
275
    -2
285
     1
 65
     0
276
    -2
286
     1
 66
     0
277
    -2
287
     1
 67
     0
278
    -2
288
     1
 68
     0
279
    -2
289
     1
 69
     0
  0
VISUALSTYLE
  5
F5
102
{ACAD_REACTORS
330
EF
102
}
330
EF
100
AcDbVisualStyle
  2
2dWireframe
 70
     4
 71
     0
 72
     2
 73
     1
 90
        0
 40
-0.6
 41
-30.0
 62
     5
 63
     7
 74
     1
 91
        4
 64
     7
 65
   257
 75
     1
175
     1
 42
1.0
 92
        0
 66
   257
 43
1.0
 76
     1
 77
     6
 78
     2
 67
     7
 79
     5
170
     0
171
     0
290
     0
174
     0
 93
        1
 44
0.0
173
     0
291
     0
 45
0.0
1001
ACAD
1000
AcDbSavedByObjectVersion
1070
     0
  0
VISUALSTYLE
  5
F7
102
{ACAD_REACTORS
330
EF
102
}
330
EF
100
AcDbVisualStyle
  2
3D Hidden
 70
     6
 71
     1
 72
     2
 73
     2
 90
        0
 40
-0.6
 41
-30.0
 62
     5
 63
     7
 74
     2
 91
        2
 64
     7
 65
   257
 75
     2
175
     1
 42
40.0
 92
        0
 66
   257
 43
1.0
 76
     1
 77
     6
 78
     2
 67
     7
 79
     3
170
     0
171
     0
290
     0
174
     0
 93
        1
 44
0.0
173
     0
291
     0
 45
0.0
1001
ACAD
1000
AcDbSavedByObjectVersion
1070
     0
  0
VISUALSTYLE
  5
F6
102
{ACAD_REACTORS
330
EF
102
}
330
EF
100
AcDbVisualStyle
  2
3dWireframe
 70
     5
 71
     0
 72
     2
 73
     1
 90
        0
 40
-0.6
 41
-30.0
 62
     5
 63
     7
 74
     1
 91
        4
 64
     7
 65
   257
 75
     1
175
     1
 42
1.0
 92
        0
 66
   257
 43
1.0
 76
     1
 77
     6
 78
     2
 67
     7
 79
     5
170
     0
171
     0
290
     0
174
     0
 93
        1
 44
0.0
173
     0
291
     0
 45
0.0
1001
ACAD
1000
AcDbSavedByObjectVersion
1070
     0
  0
VISUALSTYLE
  5
F4
102
{ACAD_REACTORS
330
EF
102
}
330
EF
100
AcDbVisualStyle
  2
Basic
 70
     7
 71
     1
 72
     0
 73
     1
 90
        0
 40
-0.6
 41
-30.0
 62
     5
 63
     7
 74
     0
 91
        4
 64
     7
 65
   257
 75
     1
175
     1
 42
1.0
 92
        8
 66
     7
 43
1.0
 76
     1
 77
     6
 78
     2
 67
     7
 79
     5
170
     0
171
     0
290
     0
174
     0
 93
        1
 44
0.0
173
     0
291
     1
 45
0.0
1001
ACAD
1000
AcDbSavedByObjectVersion
1070
     0
  0
VISUALSTYLE
  5
FB
102
{ACAD_REACTORS
330
EF
102
}
330
EF
100
AcDbVisualStyle
  2
Brighten
 70
    12
 71
     2
 72
     2
 73
     1
 90
        0
 40
-0.6
 41
-30.0
 62
     5
 63
     7
 74
     1
 91
        4
 64
     7
 65
   257
 75
     1
175
     1
 42
1.0
 92
        8
 66
     7
 43
1.0
 76
     1
 77
     6
 78
     2
 67
     7
 79
     5
170
     0
171
     0
290
     0
174
     0
 93
        1
 44
50.0
173
     0
291
     1
 45
0.0
1001
ACAD
1000
AcDbSavedByObjectVersion
1070
     0
  0
VISUALSTYLE
  5
FF
102
{ACAD_REACTORS
330
EF
102
}
330
EF
100
AcDbVisualStyle
  2
ColorChange
 70
    16
 71
     2
 72
     2
 73
     3
 90
        0
 40
-0.6
 41
-30.0
 62
     5
 63
     8
 74
     1
 91
        4
 64
     7
 65
   257
 75
     1
175
     1
 42
1.0
 92
        8
 66
     8
 43
1.0
 76
     1
 77
     6
 78
     2
 67
     7
 79
     5
170
     0
171
     0
290
     0
174
     0
 93
        1
 44
0.0
173
     0
291
     1
 45
0.0
1001
ACAD
1000
AcDbSavedByObjectVersion
1070
     0
  0
VISUALSTYLE
  5
F8
102
{ACAD_REACTORS
330
EF
102
}
330
EF
100
AcDbVisualStyle
  2
Conceptual
 70
     9
 71
     3
 72
     2
 73
     1
 90
        0
 40
-0.6
 41
-30.0
 62
     5
 63
     7
 74
     2
 91
        2
 64
     7
 65
   257
 75
     1
175
     1
 42
40.0
 92
        8
 66
     7
 43
1.0
 76
     1
 77
     6
 78
     2
 67
     7
 79
     3
170
     0
171
     0
290
     0
174
     0
 93
        1
 44
0.0
173
     0
291
     0
 45
0.0
1001
ACAD
1000
AcDbSavedByObjectVersion
1070
     0
  0
VISUALSTYLE
  5
FA
102
{ACAD_REACTORS
330
EF
102
}
330
EF
100
AcDbVisualStyle
  2
Dim
 70
    11
 71
     2
 72
     2
 73
     1
 90
        0
 40
-0.6
 41
-30.0
 62
     5
 63
     7
 74
     1
 91
        4
 64
     7
 65
   257
 75
     1
175
     1
 42
1.0
 92
        8
 66
     7
 43
1.0
 76
     1
 77
     6
 78
     2
 67
     7
 79
     5
170
     0
171
     0
290
     0
174
     0
 93
        1
 44
-50.0
173
     0
291
     1
 45
0.0
1001
ACAD
1000
AcDbSavedByObjectVersion
1070
     0
  0
VISUALSTYLE
  5
FE
102
{ACAD_REACTORS
330
EF
102
}
330
EF
100
AcDbVisualStyle
  2
Facepattern
 70
    15
 71
     2
 72
     2
 73
     1
 90
        0
 40
-0.6
 41
-30.0
 62
     5
 63
     7
 74
     1
 91
        4
 64
     7
 65
   257
 75
     1
175
     1
 42
1.0
 92
        8
 66
     7
 43
1.0
 76
     1
 77
     6
 78
     2
 67
     7
 79
     5
170
     0
171
     0
290
     0
174
     0
 93
        1
 44
0.0
173
     0
291
     1
 45
0.0
1001
ACAD
1000
AcDbSavedByObjectVersion
1070
     0
  0
VISUALSTYLE
  5
F0
102
{ACAD_REACTORS
330
EF
102
}
330
EF
100
AcDbVisualStyle
  2
Flat
 70
     0
 71
     2
 72
     1
 73
     1
 90
        2
 40
-0.6
 41
30.0
 62
     5
 63
     7
 74
     0
 91
        4
 64
     7
 65
   257
 75
     1
175
     1
 42
1.0
 92
        8
 66
     7
 43
1.0
 76
     1
 77
     6
 78
     2
 67
     7
 79
     5
170
     0
171
     0
290
     0
174
     0
 93
        1
 44
0.0
173
     0
291
     1
 45
0.0
1001
ACAD
1000
AcDbSavedByObjectVersion
1070
     0
  0
VISUALSTYLE
  5
F1
102
{ACAD_REACTORS
330
EF
102
}
330
EF
100
AcDbVisualStyle
  2
FlatWithEdges
 70
     1
 71
     2
 72
     1
 73
     1
 90
        2
 40
-0.6
 41
30.0
 62
     5
 63
     7
 74
     1
 91
        4
 64
     7
 65
   257
 75
     1
175
     1
 42
1.0
 92
        0
 66
   257
 43
1.0
 76
     1
 77
     6
 78
     2
 67
     7
 79
     5
170
     0
171
     0
290
     0
174
     0
 93
        1
 44
0.0
173
     0
291
     1
 45
0.0
1001
ACAD
1000
AcDbSavedByObjectVersion
1070
     0
  0
VISUALSTYLE
  5
F2
102
{ACAD_REACTORS
330
EF
102
}
330
EF
100
AcDbVisualStyle
  2
Gouraud
 70
     2
 71
     2
 72
     2
 73
     1
 90
        2
 40
-0.6
 41
30.0
 62
     5
 63
     7
 74
     0
 91
        4
 64
     7
 65
   257
 75
     1
175
     1
 42
1.0
 92
        0
 66
     7
 43
1.0
 76
     1
 77
     6
 78
     2
 67
     7
 79
     5
170
     0
171
     0
290
     0
174
     0
 93
        1
 44
0.0
173
     0
291
     1
 45
0.0
1001
ACAD
1000
AcDbSavedByObjectVersion
1070
     0
  0
VISUALSTYLE
  5
F3
102
{ACAD_REACTORS
330
EF
102
}
330
EF
100
AcDbVisualStyle
  2
GouraudWithEdges
 70
     3
 71
     2
 72
     2
 73
     1
 90
        2
 40
-0.6
 41
30.0
 62
     5
 63
     7
 74
     1
 91
        4
 64
     7
 65
   257
 75
     1
175
     1
 42
1.0
 92
        0
 66
   257
 43
1.0
 76
     1
 77
     6
 78
     2
 67
     7
 79
     5
170
     0
171
     0
290
     0
174
     0
 93
        1
 44
0.0
173
     0
291
     1
 45
0.0
1001
ACAD
1000
AcDbSavedByObjectVersion
1070
     0
  0
VISUALSTYLE
  5
FD
102
{ACAD_REACTORS
330
EF
102
}
330
EF
100
AcDbVisualStyle
  2
Linepattern
 70
    14
 71
     2
 72
     2
 73
     1
 90
        0
 40
-0.6
 41
-30.0
 62
     5
 63
     7
 74
     1
 91
        4
 64
     7
 65
   257
 75
     7
175
     7
 42
1.0
 92
        8
 66
     7
 43
1.0
 76
     1
 77
     6
 78
     2
 67
     7
 79
     5
170
     0
171
     0
290
     0
174
     0
 93
        1
 44
0.0
173
     0
291
     1
 45
0.0
1001
ACAD
1000
AcDbSavedByObjectVersion
1070
     0
  0
VISUALSTYLE
  5
F9
102
{ACAD_REACTORS
330
EF
102
}
330
EF
100
AcDbVisualStyle
  2
Realistic
 70
     8
 71
     2
 72
     2
 73
     1
 90
        0
 40
-0.6
 41
-30.0
 62
     5
 63
     7
 74
     1
 91
        0
 64
     7
 65
   257
 75
     1
175
     1
 42
1.0
 92
        8
 66
     8
 43
1.0
 76
     1
 77
     6
 78
     2
 67
     7
 79
     5
170
     0
171
     0
290
     0
174
     0
 93
       13
 44
0.0
173
     0
291
     0
 45
0.0
1001
ACAD
1000
AcDbSavedByObjectVersion
1070
     0
  0
VISUALSTYLE
  5
FC
102
{ACAD_REACTORS
330
EF
102
}
330
EF
100
AcDbVisualStyle
  2
Thicken
 70
    13
 71
     2
 72
     2
 73
     1
 90
        0
 40
-0.6
 41
-30.0
 62
     5
 63
     7
 74
     1
 91
        4
 64
     7
 65
   257
 75
     1
175
     1
 42
1.0
 92
       12
 66
     7
 43
1.0
 76
     1
 77
     6
 78
     2
 67
     7
 79
     5
170
     0
171
     0
290
     0
174
     0
 93
        1
 44
0.0
173
     0
291
     1
 45
0.0
1001
ACAD
1000
AcDbSavedByObjectVersion
1070
     0
  0
DICTIONARYVAR
  5
146
102
{ACAD_REACTORS
330
5E
102
}
330
5E
100
DictionaryVariables
280
     0
  1
1:1
  0
DICTIONARYVAR
  5
145
102
{ACAD_REACTORS
330
5E
102
}
330
5E
100
DictionaryVariables
280
     0
  1
STANDARD
  0
DICTIONARYVAR
  5
84
102
{ACAD_REACTORS
330
5E
102
}
330
5E
100
DictionaryVariables
280
     0
  1
STANDARD
  0
DICTIONARYVAR
  5
5F
102
{ACAD_REACTORS
330
5E
102
}
330
5E
100
DictionaryVariables
280
     0
  1
2
  0
DICTIONARYVAR
  5
63
102
{ACAD_REACTORS
330
5E
102
}
330
5E
100
DictionaryVariables
280
     0
  1
1
  0
DICTIONARYVAR
  5
51E
102
{ACAD_REACTORS
330
5E
102
}
330
5E
100
DictionaryVariables
280
     0
  1
0
  0
DICTIONARYVAR
  5
51C
102
{ACAD_REACTORS
330
5E
102
}
330
5E
100
DictionaryVariables
280
     0
  1
2
  0
DICTIONARYVAR
  5
51B
102
{ACAD_REACTORS
330
5E
102
}
330
5E
100
DictionaryVariables
280
     0
  1
1
  0
DICTIONARYVAR
  5
520
102
{ACAD_REACTORS
330
5E
102
}
330
5E
100
DictionaryVariables
280
     0
  1
80.000000
  0
DICTIONARYVAR
  5
51F
102
{ACAD_REACTORS
330
5E
102
}
330
5E
100
DictionaryVariables
280
     0
  1
5.000000
  0
DICTIONARYVAR
  5
51D
102
{ACAD_REACTORS
330
5E
102
}
330
5E
100
DictionaryVariables
280
     0
  1
127
  0
DICTIONARY
  5
526
330
D3
100
AcDbDictionary
280
     1
281
     1
  3
ACAD_XREC_ROUNDTRIP
360
527
  0
DICTIONARY
  5
528
330
D7
100
AcDbDictionary
280
     1
281
     1
  3
ACAD_XREC_ROUNDTRIP
360
529
  0
DICTIONARY
  5
523
330
22
100
AcDbDictionary
280
     1
281
     1
  3
ACAD_XREC_ROUNDTRIP
360
524
  0
DICTIONARY
  5
52C
330
ED
100
AcDbDictionary
280
     1
281
     1
  3
ACAD_XREC_ROUNDTRIP
360
52D
  0
DICTIONARY
  5
52A
330
EC
100
AcDbDictionary
280
     1
281
     1
  3
ACAD_XREC_ROUNDTRIP
360
52B
  0
DICTIONARY
  5
173
330
EE
100
AcDbDictionary
280
     1
281
     1
  3
ACAD_XREC_ROUNDTRIP
360
52E
  3
BUMPTILE
360
175
  3
DIFFUSETILE
360
174
  3
OPACITYTILE
360
176
  3
REFLECTIONTILE
360
177
  0
DICTIONARY
  5
162
330
7F
100
AcDbDictionary
280
     1
281
     1
  3
ACAD_ROUNDTRIP_2008_TABLESTYLE_CELLSTYLEMAP
360
521
  3
ACAD_XREC_ROUNDTRIP
360
525
  0
XRECORD
  5
527
102
{ACAD_REACTORS
330
526
102
}
330
526
100
AcDbXrecord
280
     1
102
SHADEPLOT
 70
     0
102
SHADEPLOTRESLEVEL
 70
     2
102
SHADEPLOTCUSTOMDPI
 70
   300
  0
XRECORD
  5
529
102
{ACAD_REACTORS
330
528
102
}
330
528
100
AcDbXrecord
280
     1
102
SHADEPLOT
 70
     0
102
SHADEPLOTRESLEVEL
 70
     2
102
SHADEPLOTCUSTOMDPI
 70
   300
  0
XRECORD
  5
524
102
{ACAD_REACTORS
330
523
102
}
330
523
100
AcDbXrecord
280
     1
102
SHADEPLOT
 70
     0
102
SHADEPLOTRESLEVEL
 70
     2
102
SHADEPLOTCUSTOMDPI
 70
   300
  0
XRECORD
  5
52D
102
{ACAD_REACTORS
330
52C
102
}
330
52C
100
AcDbXrecord
280
     1
102
MATERIAL
148
0.0
149
0.0
149
0.0
 93
        0
 94
       63
282
     0
 72
     1
 77
     1
171
     1
175
     1
179
     1
273
     0
  0
XRECORD
  5
52B
102
{ACAD_REACTORS
330
52A
102
}
330
52A
100
AcDbXrecord
280
     1
102
MATERIAL
148
0.0
149
0.0
149
0.0
 93
        0
 94
       63
282
     0
 72
     1
 77
     1
171
     1
175
     1
179
     1
273
     0
  0
XRECORD
  5
52E
102
{ACAD_REACTORS
330
173
102
}
330
173
100
AcDbXrecord
280
     1
102
MATERIAL
148
0.0
149
0.0
149
0.0
 93
        0
 94
       63
282
     0
 72
     1
 77
     1
171
     1
175
     1
179
     1
273
     0
  0
XRECORD
  5
175
102
{ACAD_REACTORS
330
173
102
}
330
173
100
AcDbXrecord
280
     1
270
     1
271
     1
  0
XRECORD
  5
174
102
{ACAD_REACTORS
330
173
102
}
330
173
100
AcDbXrecord
280
     1
270
     1
271
     1
  0
XRECORD
  5
176
102
{ACAD_REACTORS
330
173
102
}
330
173
100
AcDbXrecord
280
     1
270
     1
271
     1
  0
XRECORD
  5
177
102
{ACAD_REACTORS
330
173
102
}
330
173
100
AcDbXrecord
280
     1
270
     1
271
     1
  0
CELLSTYLEMAP
  5
521
102
{ACAD_REACTORS
330
162
102
}
330
162
100
AcDbCellStyleMap
 90
        3
300
CELLSTYLE
  1
TABLEFORMAT_BEGIN
 90
        5
170
     1
 91
        0
 92
    32768
 62
   257
 93
        1
300
CONTENTFORMAT
  1
CONTENTFORMAT_BEGIN
 90
        0
 91
        0
 92
      512
 93
        0
300

 40
0.0
140
1.0
 94
        5
 62
     0
340
11
144
6.0
309
CONTENTFORMAT_END
171
     1
301
MARGIN
  1
CELLMARGIN_BEGIN
 40
1.5
 40
1.5
 40
1.5
 40
1.5
 40
4.5
 40
4.5
309
CELLMARGIN_END
 94
        6
 95
        1
302
GRIDFORMAT
  1
GRIDFORMAT_BEGIN
 90
        0
 91
        1
 62
     0
 92
       -2
340
14
 93
        0
 40
1.125
309
GRIDFORMAT_END
 95
        2
302
GRIDFORMAT
  1
GRIDFORMAT_BEGIN
 90
        0
 91
        1
 62
     0
 92
       -2
340
14
 93
        0
 40
1.125
309
GRIDFORMAT_END
 95
        4
302
GRIDFORMAT
  1
GRIDFORMAT_BEGIN
 90
        0
 91
        1
 62
     0
 92
       -2
340
14
 93
        0
 40
1.125
309
GRIDFORMAT_END
 95
        8
302
GRIDFORMAT
  1
GRIDFORMAT_BEGIN
 90
        0
 91
        1
 62
     0
 92
       -2
340
14
 93
        0
 40
1.125
309
GRIDFORMAT_END
 95
       16
302
GRIDFORMAT
  1
GRIDFORMAT_BEGIN
 90
        0
 91
        1
 62
     0
 92
       -2
340
14
 93
        0
 40
1.125
309
GRIDFORMAT_END
 95
       32
302
GRIDFORMAT
  1
GRIDFORMAT_BEGIN
 90
        0
 91
        1
 62
     0
 92
       -2
340
14
 93
        0
 40
1.125
309
GRIDFORMAT_END
309
TABLEFORMAT_END
  1
CELLSTYLE_BEGIN
 90
        1
 91
        1
300
_TITLE
309
CELLSTYLE_END
300
CELLSTYLE
  1
TABLEFORMAT_BEGIN
 90
        5
170
     1
 91
        0
 92
        0
 62
   257
 93
        1
300
CONTENTFORMAT
  1
CONTENTFORMAT_BEGIN
 90
        0
 91
        0
 92
      512
 93
        0
300

 40
0.0
140
1.0
 94
        5
 62
     0
340
11
144
4.5
309
CONTENTFORMAT_END
171
     1
301
MARGIN
  1
CELLMARGIN_BEGIN
 40
1.5
 40
1.5
 40
1.5
 40
1.5
 40
4.5
 40
4.5
309
CELLMARGIN_END
 94
        6
 95
        1
302
GRIDFORMAT
  1
GRIDFORMAT_BEGIN
 90
        0
 91
        1
 62
     0
 92
       -2
340
14
 93
        0
 40
1.125
309
GRIDFORMAT_END
 95
        2
302
GRIDFORMAT
  1
GRIDFORMAT_BEGIN
 90
        0
 91
        1
 62
     0
 92
       -2
340
14
 93
        0
 40
1.125
309
GRIDFORMAT_END
 95
        4
302
GRIDFORMAT
  1
GRIDFORMAT_BEGIN
 90
        0
 91
        1
 62
     0
 92
       -2
340
14
 93
        0
 40
1.125
309
GRIDFORMAT_END
 95
        8
302
GRIDFORMAT
  1
GRIDFORMAT_BEGIN
 90
        0
 91
        1
 62
     0
 92
       -2
340
14
 93
        0
 40
1.125
309
GRIDFORMAT_END
 95
       16
302
GRIDFORMAT
  1
GRIDFORMAT_BEGIN
 90
        0
 91
        1
 62
     0
 92
       -2
340
14
 93
        0
 40
1.125
309
GRIDFORMAT_END
 95
       32
302
GRIDFORMAT
  1
GRIDFORMAT_BEGIN
 90
        0
 91
        1
 62
     0
 92
       -2
340
14
 93
        0
 40
1.125
309
GRIDFORMAT_END
309
TABLEFORMAT_END
  1
CELLSTYLE_BEGIN
 90
        2
 91
        1
300
_HEADER
309
CELLSTYLE_END
300
CELLSTYLE
  1
TABLEFORMAT_BEGIN
 90
        5
170
     1
 91
        0
 92
        0
 62
   257
 93
        1
300
CONTENTFORMAT
  1
CONTENTFORMAT_BEGIN
 90
        0
 91
        0
 92
      512
 93
        0
300

 40
0.0
140
1.0
 94
        2
 62
     0
340
11
144
4.5
309
CONTENTFORMAT_END
171
     1
301
MARGIN
  1
CELLMARGIN_BEGIN
 40
1.5
 40
1.5
 40
1.5
 40
1.5
 40
4.5
 40
4.5
309
CELLMARGIN_END
 94
        6
 95
        1
302
GRIDFORMAT
  1
GRIDFORMAT_BEGIN
 90
        0
 91
        1
 62
     0
 92
       -2
340
14
 93
        0
 40
1.125
309
GRIDFORMAT_END
 95
        2
302
GRIDFORMAT
  1
GRIDFORMAT_BEGIN
 90
        0
 91
        1
 62
     0
 92
       -2
340
14
 93
        0
 40
1.125
309
GRIDFORMAT_END
 95
        4
302
GRIDFORMAT
  1
GRIDFORMAT_BEGIN
 90
        0
 91
        1
 62
     0
 92
       -2
340
14
 93
        0
 40
1.125
309
GRIDFORMAT_END
 95
        8
302
GRIDFORMAT
  1
GRIDFORMAT_BEGIN
 90
        0
 91
        1
 62
     0
 92
       -2
340
14
 93
        0
 40
1.125
309
GRIDFORMAT_END
 95
       16
302
GRIDFORMAT
  1
GRIDFORMAT_BEGIN
 90
        0
 91
        1
 62
     0
 92
       -2
340
14
 93
        0
 40
1.125
309
GRIDFORMAT_END
 95
       32
302
GRIDFORMAT
  1
GRIDFORMAT_BEGIN
 90
        0
 91
        1
 62
     0
 92
       -2
340
14
 93
        0
 40
1.125
309
GRIDFORMAT_END
309
TABLEFORMAT_END
  1
CELLSTYLE_BEGIN
 90
        3
 91
        2
300
_DATA
309
CELLSTYLE_END
  0
XRECORD
  5
525
102
{ACAD_REACTORS
330
162
102
}
330
162
100
AcDbXrecord
280
     1
102
ACAD_ROUNDTRIP_PRE2007_TABLESTYLE
 90
      512
 91
        0
  1

 92
      512
 93
        0
  2

 94
      512
 95
        0
  3

  0
ENDSEC
  0
EOF
