  0
SECTION
  2
HEADER
  9
$ACADVER
  1
AC1015
  9
$ACADMAINTVER
 70
    20
  9
$DWGCODEPAGE
  3
ANSI_1254
  9
$INSBASE
 10
0.0
 20
0.0
 30
0.0
  9
$EXTMIN
 10
2511.649184966216
 20
904.9541114038804
 30
0.0
  9
$EXTMAX
 10
2713.157892498393
 20
963.6912018114832
 30
0.0
  9
$LIMMIN
 10
0.0
 20
0.0
  9
$LIMMAX
 10
420.0
 20
297.0
  9
$ORTHOMODE
 70
     0
  9
$REGENMODE
 70
     1
  9
$FILLMODE
 70
     1
  9
$QTEXTMODE
 70
     0
  9
$MIRRTEXT
 70
     0
  9
$LTSCALE
 40
1.0
  9
$ATTMODE
 70
     1
  9
$TEXTSIZE
 40
2.5
  9
$TRACEWID
 40
1.0
  9
$TEXTSTYLE
  7
Standard
  9
$CLAYER
  8
0
  9
$CELTYPE
  6
ByLayer
  9
$CECOLOR
 62
   256
  9
$CELTSCALE
 40
1.0
  9
$DISPSILH
 70
     0
  9
$DIMSCALE
 40
1.0
  9
$DIMASZ
 40
2.5
  9
$DIMEXO
 40
0.625
  9
$DIMDLI
 40
3.75
  9
$DIMRND
 40
0.0
  9
$DIMDLE
 40
0.0
  9
$DIMEXE
 40
1.25
  9
$DIMTP
 40
0.0
  9
$DIMTM
 40
0.0
  9
$DIMTXT
 40
2.5
  9
$DIMCEN
 40
2.5
  9
$DIMTSZ
 40
0.0
  9
$DIMTOL
 70
     0
  9
$DIMLIM
 70
     0
  9
$DIMTIH
 70
     0
  9
$DIMTOH
 70
     0
  9
$DIMSE1
 70
     0
  9
$DIMSE2
 70
     0
  9
$DIMTAD
 70
     1
  9
$DIMZIN
 70
     8
  9
$DIMBLK
  1

  9
$DIMASO
 70
     1
  9
$DIMSHO
 70
     1
  9
$DIMPOST
  1

  9
$DIMAPOST
  1

  9
$DIMALT
 70
     0
  9
$DIMALTD
 70
     3
  9
$DIMALTF
 40
0.03937007874016
  9
$DIMLFAC
 40
1.0
  9
$DIMTOFL
 70
     1
  9
$DIMTVP
 40
0.0
  9
$DIMTIX
 70
     0
  9
$DIMSOXD
 70
     0
  9
$DIMSAH
 70
     0
  9
$DIMBLK1
  1

  9
$DIMBLK2
  1

  9
$DIMSTYLE
  2
ISO-25
  9
$DIMCLRD
 70
     0
  9
$DIMCLRE
 70
     0
  9
$DIMCLRT
 70
     0
  9
$DIMTFAC
 40
1.0
  9
$DIMGAP
 40
0.625
  9
$DIMJUST
 70
     0
  9
$DIMSD1
 70
     0
  9
$DIMSD2
 70
     0
  9
$DIMTOLJ
 70
     0
  9
$DIMTZIN
 70
     8
  9
$DIMALTZ
 70
     0
  9
$DIMALTTZ
 70
     0
  9
$DIMUPT
 70
     0
  9
$DIMDEC
 70
     2
  9
$DIMTDEC
 70
     2
  9
$DIMALTU
 70
     2
  9
$DIMALTTD
 70
     3
  9
$DIMTXSTY
  7
Standard
  9
$DIMAUNIT
 70
     0
  9
$DIMADEC
 70
     0
  9
$DIMALTRND
 40
0.0
  9
$DIMAZIN
 70
     0
  9
$DIMDSEP
 70
    44
  9
$DIMATFIT
 70
     3
  9
$DIMFRAC
 70
     0
  9
$DIMLDRBLK
  1

  9
$DIMLUNIT
 70
     2
  9
$DIMLWD
 70
    -2
  9
$DIMLWE
 70
    -2
  9
$DIMTMOVE
 70
     0
  9
$LUNITS
 70
     2
  9
$LUPREC
 70
     4
  9
$SKETCHINC
 40
1.0
  9
$FILLETRAD
 40
0.0
  9
$AUNITS
 70
     0
  9
$AUPREC
 70
     0
  9
$MENU
  1
.
  9
$ELEVATION
 40
0.0
  9
$PELEVATION
 40
0.0
  9
$THICKNESS
 40
0.0
  9
$LIMCHECK
 70
     0
  9
$CHAMFERA
 40
0.0
  9
$CHAMFERB
 40
0.0
  9
$CHAMFERC
 40
0.0
  9
$CHAMFERD
 40
0.0
  9
$SKPOLY
 70
     0
  9
$TDCREATE
 40
2458933.471351262
  9
$TDUCREATE
 40
2458933.346351262
  9
$TDUPDATE
 40
2458956.447599838
  9
$TDUUPDATE
 40
2458956.322599838
  9
$TDINDWG
 40
0.0006330556
  9
$TDUSRTIMER
 40
0.0006330556
  9
$USRTIMER
 70
     1
  9
$ANGBASE
 50
0.0
  9
$ANGDIR
 70
     0
  9
$PDMODE
 70
     0
  9
$PDSIZE
 40
0.0
  9
$PLINEWID
 40
0.0
  9
$SPLFRAME
 70
     0
  9
$SPLINETYPE
 70
     6
  9
$SPLINESEGS
 70
     8
  9
$HANDSEED
  5
EAA
  9
$SURFTAB1
 70
     6
  9
$SURFTAB2
 70
     6
  9
$SURFTYPE
 70
     6
  9
$SURFU
 70
     6
  9
$SURFV
 70
     6
  9
$UCSBASE
  2

  9
$UCSNAME
  2

  9
$UCSORG
 10
0.0
 20
0.0
 30
0.0
  9
$UCSXDIR
 10
1.0
 20
0.0
 30
0.0
  9
$UCSYDIR
 10
0.0
 20
1.0
 30
0.0
  9
$UCSORTHOREF
  2

  9
$UCSORTHOVIEW
 70
     0
  9
$UCSORGTOP
 10
0.0
 20
0.0
 30
0.0
  9
$UCSORGBOTTOM
 10
0.0
 20
0.0
 30
0.0
  9
$UCSORGLEFT
 10
0.0
 20
0.0
 30
0.0
  9
$UCSORGRIGHT
 10
0.0
 20
0.0
 30
0.0
  9
$UCSORGFRONT
 10
0.0
 20
0.0
 30
0.0
  9
$UCSORGBACK
 10
0.0
 20
0.0
 30
0.0
  9
$PUCSBASE
  2

  9
$PUCSNAME
  2

  9
$PUCSORG
 10
0.0
 20
0.0
 30
0.0
  9
$PUCSXDIR
 10
1.0
 20
0.0
 30
0.0
  9
$PUCSYDIR
 10
0.0
 20
1.0
 30
0.0
  9
$PUCSORTHOREF
  2

  9
$PUCSORTHOVIEW
 70
     0
  9
$PUCSORGTOP
 10
0.0
 20
0.0
 30
0.0
  9
$PUCSORGBOTTOM
 10
0.0
 20
0.0
 30
0.0
  9
$PUCSORGLEFT
 10
0.0
 20
0.0
 30
0.0
  9
$PUCSORGRIGHT
 10
0.0
 20
0.0
 30
0.0
  9
$PUCSORGFRONT
 10
0.0
 20
0.0
 30
0.0
  9
$PUCSORGBACK
 10
0.0
 20
0.0
 30
0.0
  9
$USERI1
 70
     0
  9
$USERI2
 70
     0
  9
$USERI3
 70
     0
  9
$USERI4
 70
     0
  9
$USERI5
 70
     0
  9
$USERR1
 40
0.0
  9
$USERR2
 40
0.0
  9
$USERR3
 40
0.0
  9
$USERR4
 40
0.0
  9
$USERR5
 40
0.0
  9
$WORLDVIEW
 70
     1
  9
$SHADEDGE
 70
     3
  9
$SHADEDIF
 70
    70
  9
$TILEMODE
 70
     1
  9
$MAXACTVP
 70
    64
  9
$PINSBASE
 10
0.0
 20
0.0
 30
0.0
  9
$PLIMCHECK
 70
     0
  9
$PEXTMIN
 10
0.0
 20
0.0
 30
0.0
  9
$PEXTMAX
 10
0.0
 20
0.0
 30
0.0
  9
$PLIMMIN
 10
0.0
 20
0.0
  9
$PLIMMAX
 10
12.0
 20
9.0
  9
$UNITMODE
 70
     0
  9
$VISRETAIN
 70
     1
  9
$PLINEGEN
 70
     0
  9
$PSLTSCALE
 70
     1
  9
$TREEDEPTH
 70
  3020
  9
$CMLSTYLE
  2
Standard
  9
$CMLJUST
 70
     0
  9
$CMLSCALE
 40
20.0
  9
$PROXYGRAPHICS
 70
     1
  9
$MEASUREMENT
 70
     1
  9
$CELWEIGHT
370
    -1
  9
$ENDCAPS
280
     0
  9
$JOINSTYLE
280
     0
  9
$LWDISPLAY
290
     0
  9
$INSUNITS
 70
     4
  9
$HYPERLINKBASE
  1

  9
$STYLESHEET
  1

  9
$XEDIT
290
     1
  9
$CEPSNTYPE
380
     0
  9
$PSTYLEMODE
290
     1
  9
$FINGERPRINTGUID
  2
{E038EE9E-BBA5-4BBD-82B0-BF7804E0C118}
  9
$VERSIONGUID
  2
{79C9A7C4-6FCA-4E81-836E-83DE9B8EBFA0}
  9
$EXTNAMES
290
     1
  9
$PSVPSCALE
 40
0.0
  9
$OLESTARTUP
290
     0
  0
ENDSEC
  0
SECTION
  2
CLASSES
  0
CLASS
  1
ACDBDICTIONARYWDFLT
  2
AcDbDictionaryWithDefault
  3
ObjectDBX Classes
 90
        0
280
     0
281
     0
  0
CLASS
  1
ACDBPLACEHOLDER
  2
AcDbPlaceHolder
  3
ObjectDBX Classes
 90
        0
280
     0
281
     0
  0
CLASS
  1
LAYOUT
  2
AcDbLayout
  3
ObjectDBX Classes
 90
        0
280
     0
281
     0
  0
CLASS
  1
DICTIONARYVAR
  2
AcDbDictionaryVar
  3
ObjectDBX Classes
 90
        0
280
     0
281
     0
  0
CLASS
  1
TABLESTYLE
  2
AcDbTableStyle
  3
ObjectDBX Classes
 90
     4095
280
     0
281
     0
  0
CLASS
  1
MATERIAL
  2
AcDbMaterial
  3
ObjectDBX Classes
 90
     1153
280
     0
281
     0
  0
CLASS
  1
VISUALSTYLE
  2
AcDbVisualStyle
  3
ObjectDBX Classes
 90
     4095
280
     0
281
     0
  0
CLASS
  1
SCALE
  2
AcDbScale
  3
ObjectDBX Classes
 90
     1153
280
     0
281
     0
  0
CLASS
  1
MLEADERSTYLE
  2
AcDbMLeaderStyle
  3
ACDB_MLEADERSTYLE_CLASS
 90
     4095
280
     0
281
     0
  0
CLASS
  1
CELLSTYLEMAP
  2
AcDbCellStyleMap
  3
ObjectDBX Classes
 90
     1152
280
     0
281
     0
  0
ENDSEC
  0
SECTION
  2
TABLES
  0
TABLE
  2
VPORT
  5
8
330
0
100
AcDbSymbolTable
 70
     1
  0
VPORT
  5
EA
330
8
100
AcDbSymbolTableRecord
100
AcDbViewportTableRecord
  2
*Active
 70
     0
 10
0.0
 20
0.0
 11
1.0
 21
1.0
 12
2617.378124343759
 22
935.0494013200927
 13
0.0
 23
0.0
 14
10.0
 24
10.0
 15
10.0
 25
10.0
 16
0.0
 26
0.0
 36
1.0
 17
0.0
 27
0.0
 37
0.0
 40
167.4885685763842
 41
1.90311004784689
 42
50.0
 43
0.0
 44
0.0
 50
0.0
 51
0.0
 71
     0
 72
  1000
 73
     1
 74
     3
 75
     0
 76
     0
 77
     0
 78
     0
281
     0
 65
     1
110
0.0
120
0.0
130
0.0
111
1.0
121
0.0
131
0.0
112
0.0
122
1.0
132
0.0
 79
     0
146
0.0
  0
ENDTAB
  0
TABLE
  2
LTYPE
  5
5
330
0
100
AcDbSymbolTable
 70
     1
  0
LTYPE
  5
14
330
5
100
AcDbSymbolTableRecord
100
AcDbLinetypeTableRecord
  2
ByBlock
 70
     0
  3

 72
    65
 73
     0
 40
0.0
  0
LTYPE
  5
15
330
5
100
AcDbSymbolTableRecord
100
AcDbLinetypeTableRecord
  2
ByLayer
 70
     0
  3

 72
    65
 73
     0
 40
0.0
  0
LTYPE
  5
16
330
5
100
AcDbSymbolTableRecord
100
AcDbLinetypeTableRecord
  2
Continuous
 70
     0
  3
Solid line
 72
    65
 73
     0
 40
0.0
  0
ENDTAB
  0
TABLE
  2
LAYER
  5
2
330
0
100
AcDbSymbolTable
 70
     1
  0
LAYER
  5
10
102
{ACAD_XDICTIONARY
360
13C
102
}
330
2
100
AcDbSymbolTableRecord
100
AcDbLayerTableRecord
  2
0
 70
     0
 62
     7
  6
Continuous
370
    -3
390
F
  0
ENDTAB
  0
TABLE
  2
STYLE
  5
3
330
0
100
AcDbSymbolTable
 70
     2
  0
STYLE
  5
11
330
3
100
AcDbSymbolTableRecord
100
AcDbTextStyleTableRecord
  2
Standard
 70
     0
 40
0.0
 41
1.0
 50
0.0
 71
     0
 42
2.5
  3
txt
  4

  0
STYLE
  5
132
330
3
100
AcDbSymbolTableRecord
100
AcDbTextStyleTableRecord
  2
Annotative
 70
     0
 40
0.0
 41
1.0
 50
0.0
 71
     0
 42
2.5
  3
txt.shx
  4

1001
AcadAnnotative
1000
AnnotativeData
1002
{
1070
     1
1070
     1
1002
}
  0
ENDTAB
  0
TABLE
  2
VIEW
  5
6
330
0
100
AcDbSymbolTable
 70
     0
  0
ENDTAB
  0
TABLE
  2
UCS
  5
7
330
0
100
AcDbSymbolTable
 70
     0
  0
ENDTAB
  0
TABLE
  2
APPID
  5
9
330
0
100
AcDbSymbolTable
 70
     7
  0
APPID
  5
12
330
9
100
AcDbSymbolTableRecord
100
AcDbRegAppTableRecord
  2
ACAD
 70
     0
  0
APPID
  5
9E
330
9
100
AcDbSymbolTableRecord
100
AcDbRegAppTableRecord
  2
ACAD_PSEXT
 70
     0
  0
APPID
  5
133
330
9
100
AcDbSymbolTableRecord
100
AcDbRegAppTableRecord
  2
AcadAnnoPO
 70
     0
  0
APPID
  5
134
330
9
100
AcDbSymbolTableRecord
100
AcDbRegAppTableRecord
  2
AcadAnnotative
 70
     0
  0
APPID
  5
135
330
9
100
AcDbSymbolTableRecord
100
AcDbRegAppTableRecord
  2
ACAD_DSTYLE_DIMJAG
 70
     0
  0
APPID
  5
136
330
9
100
AcDbSymbolTableRecord
100
AcDbRegAppTableRecord
  2
ACAD_DSTYLE_DIMTALN
 70
     0
  0
APPID
  5
165
330
9
100
AcDbSymbolTableRecord
100
AcDbRegAppTableRecord
  2
ACAD_MLEADERVER
 70
     0
  0
ENDTAB
  0
TABLE
  2
DIMSTYLE
  5
A
330
0
100
AcDbSymbolTable
 70
     2
100
AcDbDimStyleTable
 71
     2
340
27
340
137
  0
DIMSTYLE
105
27
330
A
100
AcDbSymbolTableRecord
100
AcDbDimStyleTableRecord
  2
ISO-25
 70
     0
 41
2.5
 42
0.625
 43
3.75
 44
1.25
 73
     0
 74
     0
 77
     1
 78
     8
140
2.5
141
2.5
143
0.03937007874016
147
0.625
171
     3
172
     1
271
     2
272
     2
274
     3
278
    44
283
     0
284
     8
340
11
  0
DIMSTYLE
105
137
330
A
100
AcDbSymbolTableRecord
100
AcDbDimStyleTableRecord
  2
Annotative
 70
     0
 40
0.0
 41
2.5
 42
0.625
 43
3.75
 44
1.25
 73
     0
 74
     0
 77
     1
 78
     8
140
2.5
141
2.5
143
0.03937007874016
147
0.625
171
     3
172
     1
271
     2
272
     2
274
     3
278
    44
283
     0
284
     8
340
11
1001
AcadAnnotative
1000
AnnotativeData
1002
{
1070
     1
1070
     1
1002
}
1001
ACAD_DSTYLE_DIMJAG
1070
   388
1040
1.5
1001
ACAD_DSTYLE_DIMTALN
1070
   392
1070
     0
  0
ENDTAB
  0
TABLE
  2
BLOCK_RECORD
  5
1
330
0
100
AcDbSymbolTable
 70
     5
  0
BLOCK_RECORD
  5
1F
330
1
100
AcDbSymbolTableRecord
100
AcDbBlockTableRecord
  2
*Model_Space
340
22
  0
BLOCK_RECORD
  5
D2
330
1
100
AcDbSymbolTableRecord
100
AcDbBlockTableRecord
  2
*Paper_Space
340
D3
  0
BLOCK_RECORD
  5
D6
330
1
100
AcDbSymbolTableRecord
100
AcDbBlockTableRecord
  2
*Paper_Space0
340
D7
  0
BLOCK_RECORD
  5
A3B
330
1
100
AcDbSymbolTableRecord
100
AcDbBlockTableRecord
  2
1
340
0
310
2800000020000000200000000100080000000000000400000000000000000000000000000000000000000000000080000080000000808000800000008000800080800000C0C0C000C0DCC000F0CAA6000020400000206000002080000020A0000020C0000020E00000400000004020000040400000406000004080000040A0
310
000040C0000040E00000600000006020000060400000606000006080000060A0000060C0000060E00000800000008020000080400000806000008080000080A0000080C0000080E00000A0000000A0200000A0400000A0600000A0800000A0A00000A0C00000A0E00000C0000000C0200000C0400000C0600000C0800000C0
310
A00000C0C00000C0E00000E0000000E0200000E0400000E0600000E0800000E0A00000E0C00000E0E00040000000400020004000400040006000400080004000A0004000C0004000E00040200000402020004020400040206000402080004020A0004020C0004020E000404000004040200040404000404060004040800040
310
40A0004040C0004040E00040600000406020004060400040606000406080004060A0004060C0004060E00040800000408020004080400040806000408080004080A0004080C0004080E00040A0000040A0200040A0400040A0600040A0800040A0A00040A0C00040A0E00040C0000040C0200040C0400040C0600040C08000
310
40C0A00040C0C00040C0E00040E0000040E0200040E0400040E0600040E0800040E0A00040E0C00040E0E00080000000800020008000400080006000800080008000A0008000C0008000E00080200000802020008020400080206000802080008020A0008020C0008020E00080400000804020008040400080406000804080
310
008040A0008040C0008040E00080600000806020008060400080606000806080008060A0008060C0008060E00080800000808020008080400080806000808080008080A0008080C0008080E00080A0000080A0200080A0400080A0600080A0800080A0A00080A0C00080A0E00080C0000080C0200080C0400080C0600080C0
310
800080C0A00080C0C00080C0E00080E0000080E0200080E0400080E0600080E0800080E0A00080E0C00080E0E000C0000000C0002000C0004000C0006000C0008000C000A000C000C000C000E000C0200000C0202000C0204000C0206000C0208000C020A000C020C000C020E000C0400000C0402000C0404000C0406000C0
310
408000C040A000C040C000C040E000C0600000C0602000C0604000C0606000C0608000C060A000C060C000C060E000C0800000C0802000C0804000C0806000C0808000C080A000C080C000C080E000C0A00000C0A02000C0A04000C0A06000C0A08000C0A0A000C0A0C000C0A0E000C0C00000C0C02000C0C04000C0C06000
310
C0C08000C0C0A000F0FBFF00A4A0A000808080000000FF0000FF000000FFFF00FF000000FF00FF00FFFF0000FFFFFF0000000000000000000000000000000000000000000000000000000000000000000000000000000000000000000000000000000000000000000000000000000000000000000000000000000000000000
310
00000000000000000000000000000000000000000000000000000000000000000000000000000000000000000000000000000000000000000000000000000000000000000000000000000000000000000000000000000000000000000000000000000000000000000000000000000000000000000000000000000000000000
310
00000000000000000000000000000000000000000000000000000000000000000000000000000000000000000000000000000000000000000000000000000000000000000000000000000000000000000000000000000000000000000000000000000000000000000000000000000000000000000000000000000000000000
310
0000000000000000000000000000000000000000000000000000000000000000000000000000000000000000000000000000000000FFFF00FFFF00FFFF00FFFF00FF0000FF00FFFF00FFFF00FFFF00FFFF00000000FFFF00FFFF00FFFF00FFFF00FFFFFFFF00FFFF00FFFF00FFFF00FFFF00000000FFFF00FFFF00FFFF00FF
310
FF00FFFFFFFF00FFFF00FFFF00FFFF00FFFF00000000FFFF00FFFF00FFFF00FFFFFFFFFFFFFFFFFFFF00FFFF00FFFF00FFFF00000000FFFFFFFFFFFFFFFFFFFFFFFFFFFFFFFFFFFFFFFFFFFFFFFFFFFFFFFF000000FFFF00FFFFFFFF00FFFF00FFFF00FFFF00FFFF00FFFF00FFFFFFFF00FFFF0000FF000000000000000000
310
00000000000000000000000000000000000000FF0000FFFFFFFFFFFFFFFFFFFFFFFFFFFFFFFFFFFFFFFFFFFFFFFFFFFFFFFFFFFF000000000000000000000000000000000000000000000000000000000000000000000000000000000000000000000000000000000000000000000000000000000000000000000000000000
310
00000000000000000000000000000000000000000000000000000000000000000000000000000000000000000000000000000000000000000000000000000000000000000000000000000000000000000000000000000000000000000000000000000000000000000000000000000000000000000000000000000000000000
310
00000000000000000000000000000000000000000000000000000000000000000000000000000000000000000000000000000000000000000000000000000000000000000000000000000000000000000000000000000000000000000000000000000000000000000000000000000000000000000000000000000000000000
310
0000000000000000000000000000000000000000000000000000000000000000000000000000000000000000000000000000000000000000
102
{BLKREFS
331
BA3
102
}
1001
ACAD
1000
DesignCenter Data
1002
{
1070
     1
1070
     4
1002
}
  0
BLOCK_RECORD
  5
BA4
330
1
100
AcDbSymbolTableRecord
100
AcDbBlockTableRecord
  2
2
340
0
310
2800000020000000200000000100080000000000000400000000000000000000000000000000000000000000000080000080000000808000800000008000800080800000C0C0C000C0DCC000F0CAA6000020400000206000002080000020A0000020C0000020E00000400000004020000040400000406000004080000040A0
310
000040C0000040E00000600000006020000060400000606000006080000060A0000060C0000060E00000800000008020000080400000806000008080000080A0000080C0000080E00000A0000000A0200000A0400000A0600000A0800000A0A00000A0C00000A0E00000C0000000C0200000C0400000C0600000C0800000C0
310
A00000C0C00000C0E00000E0000000E0200000E0400000E0600000E0800000E0A00000E0C00000E0E00040000000400020004000400040006000400080004000A0004000C0004000E00040200000402020004020400040206000402080004020A0004020C0004020E000404000004040200040404000404060004040800040
310
40A0004040C0004040E00040600000406020004060400040606000406080004060A0004060C0004060E00040800000408020004080400040806000408080004080A0004080C0004080E00040A0000040A0200040A0400040A0600040A0800040A0A00040A0C00040A0E00040C0000040C0200040C0400040C0600040C08000
310
40C0A00040C0C00040C0E00040E0000040E0200040E0400040E0600040E0800040E0A00040E0C00040E0E00080000000800020008000400080006000800080008000A0008000C0008000E00080200000802020008020400080206000802080008020A0008020C0008020E00080400000804020008040400080406000804080
310
008040A0008040C0008040E00080600000806020008060400080606000806080008060A0008060C0008060E00080800000808020008080400080806000808080008080A0008080C0008080E00080A0000080A0200080A0400080A0600080A0800080A0A00080A0C00080A0E00080C0000080C0200080C0400080C0600080C0
310
800080C0A00080C0C00080C0E00080E0000080E0200080E0400080E0600080E0800080E0A00080E0C00080E0E000C0000000C0002000C0004000C0006000C0008000C000A000C000C000C000E000C0200000C0202000C0204000C0206000C0208000C020A000C020C000C020E000C0400000C0402000C0404000C0406000C0
310
408000C040A000C040C000C040E000C0600000C0602000C0604000C0606000C0608000C060A000C060C000C060E000C0800000C0802000C0804000C0806000C0808000C080A000C080C000C080E000C0A00000C0A02000C0A04000C0A06000C0A08000C0A0A000C0A0C000C0A0E000C0C00000C0C02000C0C04000C0C06000
310
C0C08000C0C0A000F0FBFF00A4A0A000808080000000FF0000FF000000FFFF00FF000000FF00FF00FFFF0000FFFFFF0000000000000000000000000000000000000000000000000000000000000000000000000000000000000000000000FFFFFFFF00000000000000000000000000000000000000000000000000000000FF
310
FFFFFF00000000000000000000000000000000000000000000000000000000FF0000FF00000000000000000000000000000000000000000000000000000000FFFFFFFF00000000000000000000000000000000000000000000000000000000FF0000FF00000000000000000000000000000000000000000000000000000000
310
FF0000FF00000000000000000000000000000000000000000000000000000000FF0000FF00000000000000000000000000000000000000000000000000000000FF0000FF00000000000000000000000000000000000000000000000000000000FF0000FF000000000000000000000000000000000000000000000000000000
310
00FF0000FF00000000000000000000000000000000000000000000000000000000FF0000FF0000000000000000000000000000000000000000000000000000000000FFFF0000000000000000000000000000000000000000000000000000000000FFFFFFFF0000000000000000000000000000000000000000000000000000
310
0000FF0000FF00000000000000000000000000000000000000000000000000000000FF0000FF00000000000000000000000000000000000000000000000000000000FFFFFFFF00000000000000000000000000000000000000000000000000000000FFFFFFFF00000000000000000000000000000000000000000000000000
310
0000FFFF0000FFFF000000000000000000000000000000000000000000000000000000FF0000FF00000000000000000000000000000000000000000000000000000000FF0000FF00000000000000000000000000000000000000000000000000000000FFFFFFFF000000000000000000000000000000000000000000000000
310
00000000FF0000FF00000000000000000000000000000000000000000000000000000000FF0000FF00000000000000000000000000000000000000000000000000000000FF0000FF00000000000000000000000000000000000000000000000000000000FF0000FF0000000000000000000000000000000000000000000000
310
0000000000FF0000FF00000000000000000000000000000000000000000000000000000000FF0000FF000000000000000000000000000000000000000000000000000000FFFF0000FFFF0000000000000000000000000000000000000000000000000000FF00000000FF000000000000000000000000000000000000000000
310
0000000000FFFFFFFFFFFF000000000000000000000000000000000000000000000000000000000000000000000000000000000000000000
102
{BLKREFS
331
BD6
102
}
1001
ACAD
1000
DesignCenter Data
1002
{
1070
     1
1070
     4
1002
}
  0
BLOCK_RECORD
  5
BD7
330
1
100
AcDbSymbolTableRecord
100
AcDbBlockTableRecord
  2
3
340
0
310
2800000020000000200000000100080000000000000400000000000000000000000000000000000000000000000080000080000000808000800000008000800080800000C0C0C000C0DCC000F0CAA6000020400000206000002080000020A0000020C0000020E00000400000004020000040400000406000004080000040A0
310
000040C0000040E00000600000006020000060400000606000006080000060A0000060C0000060E00000800000008020000080400000806000008080000080A0000080C0000080E00000A0000000A0200000A0400000A0600000A0800000A0A00000A0C00000A0E00000C0000000C0200000C0400000C0600000C0800000C0
310
A00000C0C00000C0E00000E0000000E0200000E0400000E0600000E0800000E0A00000E0C00000E0E00040000000400020004000400040006000400080004000A0004000C0004000E00040200000402020004020400040206000402080004020A0004020C0004020E000404000004040200040404000404060004040800040
310
40A0004040C0004040E00040600000406020004060400040606000406080004060A0004060C0004060E00040800000408020004080400040806000408080004080A0004080C0004080E00040A0000040A0200040A0400040A0600040A0800040A0A00040A0C00040A0E00040C0000040C0200040C0400040C0600040C08000
310
40C0A00040C0C00040C0E00040E0000040E0200040E0400040E0600040E0800040E0A00040E0C00040E0E00080000000800020008000400080006000800080008000A0008000C0008000E00080200000802020008020400080206000802080008020A0008020C0008020E00080400000804020008040400080406000804080
310
008040A0008040C0008040E00080600000806020008060400080606000806080008060A0008060C0008060E00080800000808020008080400080806000808080008080A0008080C0008080E00080A0000080A0200080A0400080A0600080A0800080A0A00080A0C00080A0E00080C0000080C0200080C0400080C0600080C0
310
800080C0A00080C0C00080C0E00080E0000080E0200080E0400080E0600080E0800080E0A00080E0C00080E0E000C0000000C0002000C0004000C0006000C0008000C000A000C000C000C000E000C0200000C0202000C0204000C0206000C0208000C020A000C020C000C020E000C0400000C0402000C0404000C0406000C0
310
408000C040A000C040C000C040E000C0600000C0602000C0604000C0606000C0608000C060A000C060C000C060E000C0800000C0802000C0804000C0806000C0808000C080A000C080C000C080E000C0A00000C0A02000C0A04000C0A06000C0A08000C0A0A000C0A0C000C0A0E000C0C00000C0C02000C0C04000C0C06000
310
C0C08000C0C0A000F0FBFF00A4A0A000808080000000FF0000FF000000FFFF00FF000000FF00FF00FFFF0000FFFFFF0000000000000000000000000000000000000000000000000000000000000000000000000000000000000000000000000000000000000000000000000000000000000000000000000000000000000000
310
00000000000000000000000000000000000000000000000000000000000000000000000000000000000000000000000000000000000000000000000000000000000000000000000000000000000000000000000000000000000000000000000000000000000000000000000000000000000000000000000000000000000000
310
00000000000000000000000000000000000000000000000000000000000000000000000000000000000000000000000000000000000000000000000000000000000000000000000000000000000000000000000000000000000000000000000000000000000000000000000000000000000000000000000000000000000000
310
00000000000000000000000000000000000000000000000000000000000000000000000000000000000000000000000000000000000000000000000000000000000000000000000000000000000000000000000000000000000000000000000000000000000000000000000000000000000000000000000000000000000000
310
000000000000000000000000000000000000000000FFFFFFFFFFFFFFFFFFFFFFFFFFFFFFFFFFFFFFFFFFFFFFFFFFFFFFFFFFFF0000FFFFFFFFFFFFFFFFFFFFFFFFFFFFFFFFFFFFFFFFFFFFFFFFFFFFFFFFFFFF0000000000000000000000000000000000000000000000000000000000000000000000000000000000000000
310
00000000000000000000000000000000000000000000000000000000000000000000000000000000000000000000000000000000000000000000000000000000000000000000000000000000000000000000000000000000000000000000000000000000000000000000000000000000000000000000000000000000000000
310
00000000000000000000000000000000000000000000000000000000000000000000000000000000000000000000000000000000000000000000000000000000000000000000000000000000000000000000000000000000000000000000000000000000000000000000000000000000000000000000000000000000000000
310
00000000000000000000000000000000000000000000000000000000000000000000000000000000000000000000000000000000000000000000000000000000000000000000000000000000000000000000000000000000000000000000000000000000000000000000000000000000000000000000000000000000000000
310
0000000000000000000000000000000000000000000000000000000000000000000000000000000000000000000000000000000000000000
102
{BLKREFS
331
BDE
102
}
1001
ACAD
1000
DesignCenter Data
1002
{
1070
     1
1070
     4
1002
}
  0
BLOCK_RECORD
  5
BDF
330
1
100
AcDbSymbolTableRecord
100
AcDbBlockTableRecord
  2
4
340
0
310
2800000020000000200000000100080000000000000400000000000000000000000000000000000000000000000080000080000000808000800000008000800080800000C0C0C000C0DCC000F0CAA6000020400000206000002080000020A0000020C0000020E00000400000004020000040400000406000004080000040A0
310
000040C0000040E00000600000006020000060400000606000006080000060A0000060C0000060E00000800000008020000080400000806000008080000080A0000080C0000080E00000A0000000A0200000A0400000A0600000A0800000A0A00000A0C00000A0E00000C0000000C0200000C0400000C0600000C0800000C0
310
A00000C0C00000C0E00000E0000000E0200000E0400000E0600000E0800000E0A00000E0C00000E0E00040000000400020004000400040006000400080004000A0004000C0004000E00040200000402020004020400040206000402080004020A0004020C0004020E000404000004040200040404000404060004040800040
310
40A0004040C0004040E00040600000406020004060400040606000406080004060A0004060C0004060E00040800000408020004080400040806000408080004080A0004080C0004080E00040A0000040A0200040A0400040A0600040A0800040A0A00040A0C00040A0E00040C0000040C0200040C0400040C0600040C08000
310
40C0A00040C0C00040C0E00040E0000040E0200040E0400040E0600040E0800040E0A00040E0C00040E0E00080000000800020008000400080006000800080008000A0008000C0008000E00080200000802020008020400080206000802080008020A0008020C0008020E00080400000804020008040400080406000804080
310
008040A0008040C0008040E00080600000806020008060400080606000806080008060A0008060C0008060E00080800000808020008080400080806000808080008080A0008080C0008080E00080A0000080A0200080A0400080A0600080A0800080A0A00080A0C00080A0E00080C0000080C0200080C0400080C0600080C0
310
800080C0A00080C0C00080C0E00080E0000080E0200080E0400080E0600080E0800080E0A00080E0C00080E0E000C0000000C0002000C0004000C0006000C0008000C000A000C000C000C000E000C0200000C0202000C0204000C0206000C0208000C020A000C020C000C020E000C0400000C0402000C0404000C0406000C0
310
408000C040A000C040C000C040E000C0600000C0602000C0604000C0606000C0608000C060A000C060C000C060E000C0800000C0802000C0804000C0806000C0808000C080A000C080C000C080E000C0A00000C0A02000C0A04000C0A06000C0A08000C0A0A000C0A0C000C0A0E000C0C00000C0C02000C0C04000C0C06000
310
C0C08000C0C0A000F0FBFF00A4A0A000808080000000FF0000FF000000FFFF00FF000000FF00FF00FFFF0000FFFFFF0000000000000000000000000000000000000000000000000000000000000000000000000000000000000000000000000000000000000000000000000000000000000000000000000000000000000000
310
00000000000000000000000000000000000000000000000000000000000000000000000000000000000000000000000000000000FFFF0000000000000000000000000000000000000000000000000000000000FFFFFF00FF000000000000000000000000000000000000000000000000000000FFFFFFFFFFFF000000000000
310
0000000000000000000000000000000000000000FFFFFFFFFFFFFFFF000000000000000000000000000000000000000000000000FFFFFFFFFFFFFFFF00FFFF000000000000000000000000000000000000000000FFFFFFFFFFFFFFFF00FFFF000000000000000000000000000000000000000000FF0000FFFFFFFFFF00FFFF
310
FFFFFF0000000000000000000000000000000000FFFFFF000000FFFFFFFFFFFFFFFFFF0000000000000000000000000000000000FFFF00FFFF0000FFFFFFFFFFFFFFFFFFFFFF000000000000000000000000000000FFFF0000FFFF0000FFFFFFFFFFFFFFFFFF00FF000000000000000000000000000000FFFF0000FFFF0000
310
FFFFFFFFFFFFFFFFFF0000000000000000000000000000000000FFFF00FFFFFF00FFFFFFFFFFFFFFFF00FFFF00000000000000000000000000000000FFFF00FFFF0000FFFFFFFFFFFF00FFFF00FFFF000000000000000000000000000000FF0000FFFF00FF00FFFFFFFFFFFFFFFFFF00000000000000000000000000000000
310
FFFF00FFFFFF00FFFFFFFFFFFFFFFFFFFFFF00000000000000000000000000000000FFFF00FFFFFF0000FFFFFFFFFFFFFFFFFF0000000000000000000000000000000000FFFF00FFFFFF00FFFFFFFFFFFFFFFF00000000000000000000000000000000000000FFFF00FFFF0000FFFFFFFFFFFF000000000000000000000000
310
000000000000000000FF00FFFFFF0000FFFFFFFF00000000000000000000000000000000000000000000FFFF00FFFFFF00FF00FF000000000000000000000000000000000000000000000000FFFF00FFFFFF00FF0000000000000000000000000000000000000000000000000000FFFFFFFFFFFF0000000000000000000000
310
0000000000000000000000000000000000FFFFFFFFFF0000000000000000000000000000000000000000000000000000000000FFFFFF00000000000000000000000000000000000000000000000000000000000000000000000000000000000000000000000000000000000000000000000000000000000000000000000000
310
0000000000000000000000000000000000000000000000000000000000000000000000000000000000000000000000000000000000000000
102
{BLKREFS
331
E8F
102
}
1001
ACAD
1000
DesignCenter Data
1002
{
1070
     1
1070
     4
1002
}
  0
ENDTAB
  0
ENDSEC
  0
SECTION
  2
BLOCKS
  0
BLOCK
  5
20
330
1F
100
AcDbEntity
  8
0
100
AcDbBlockBegin
  2
*Model_Space
 70
     0
 10
0.0
 20
0.0
 30
0.0
  3
*Model_Space
  1

  0
ENDBLK
  5
21
330
1F
100
AcDbEntity
  8
0
100
AcDbBlockEnd
  0
BLOCK
  5
D4
330
D2
100
AcDbEntity
 67
     1
  8
0
100
AcDbBlockBegin
  2
*Paper_Space
 70
     0
 10
0.0
 20
0.0
 30
0.0
  3
*Paper_Space
  1

  0
ENDBLK
  5
D5
330
D2
100
AcDbEntity
 67
     1
  8
0
100
AcDbBlockEnd
  0
BLOCK
  5
D8
330
D6
100
AcDbEntity
 67
     1
  8
0
100
AcDbBlockBegin
  2
*Paper_Space0
 70
     0
 10
0.0
 20
0.0
 30
0.0
  3
*Paper_Space0
  1

  0
ENDBLK
  5
D9
330
D6
100
AcDbEntity
 67
     1
  8
0
100
AcDbBlockEnd
  0
BLOCK
  5
A3C
330
A3B
100
AcDbEntity
  8
0
100
AcDbBlockBegin
  2
1
 70
     0
 10
0.0
 20
0.0
 30
0.0
  3
1
  1

  0
LINE
  5
A3E
330
A3B
100
AcDbEntity
  8
0
  6
Continuous
 62
     7
370
    15
100
AcDbLine
 10
2618.13048110496
 20
943.8617093522005
 30
0.0
 11
2618.13048110496
 21
945.0617093522003
 31
0.0
  0
LINE
  5
A3F
330
A3B
100
AcDbEntity
  8
0
  6
Continuous
 62
     7
370
    15
100
AcDbLine
 10
2523.13048110496
 20
943.8617093521999
 30
0.0
 11
2618.13048110496
 21
943.8617093522005
 31
0.0
  0
LINE
  5
A40
330
A3B
100
AcDbEntity
  8
0
  6
Continuous
 62
     7
370
    15
100
AcDbLine
 10
2523.13048110496
 20
945.0617093521998
 30
0.0
 11
2523.13048110496
 21
943.8617093521999
 31
0.0
  0
LINE
  5
A41
330
A3B
100
AcDbEntity
  8
0
  6
Continuous
 62
     7
370
    15
100
AcDbLine
 10
2618.13048110496
 20
945.0617093522003
 30
0.0
 11
2523.13048110496
 21
945.0617093521998
 31
0.0
  0
LINE
  5
A42
330
A3B
100
AcDbEntity
  8
0
  6
Continuous
 62
     7
370
    15
100
AcDbLine
 10
2615.330481104961
 20
933.9617093522006
 30
0.0
 11
2615.330481104961
 21
935.2617093522002
 31
0.0
  0
LINE
  5
A43
330
A3B
100
AcDbEntity
  8
0
  6
Continuous
 62
     7
370
    15
100
AcDbLine
 10
2615.330481104961
 20
933.9617093522006
 30
0.0
 11
2612.330481104961
 21
933.9617093522004
 31
0.0
  0
LINE
  5
A44
330
A3B
100
AcDbEntity
  8
0
  6
Continuous
 62
     7
370
    15
100
AcDbLine
 10
2612.330481104961
 20
933.9617093522004
 30
0.0
 11
2612.330481104961
 21
935.2617093522002
 31
0.0
  0
LINE
  5
A45
330
A3B
100
AcDbEntity
  8
0
  6
Continuous
 62
     7
370
    15
100
AcDbLine
 10
2615.330481104961
 20
935.2617093522002
 30
0.0
 11
2612.330481104961
 21
935.2617093522002
 31
0.0
  0
LINE
  5
A46
330
A3B
100
AcDbEntity
  8
0
  6
Continuous
 62
     7
370
    15
100
AcDbLine
 10
2605.730481104961
 20
935.2617093522002
 30
0.0
 11
2602.730481104961
 21
935.2617093522002
 31
0.0
  0
LINE
  5
A47
330
A3B
100
AcDbEntity
  8
0
  6
Continuous
 62
     7
370
    15
100
AcDbLine
 10
2605.730481104961
 20
933.9617093522006
 30
0.0
 11
2605.730481104961
 21
935.2617093522002
 31
0.0
  0
LINE
  5
A48
330
A3B
100
AcDbEntity
  8
0
  6
Continuous
 62
     7
370
    15
100
AcDbLine
 10
2605.730481104961
 20
933.9617093522006
 30
0.0
 11
2602.730481104961
 21
933.9617093522004
 31
0.0
  0
LINE
  5
A49
330
A3B
100
AcDbEntity
  8
0
  6
Continuous
 62
     7
370
    15
100
AcDbLine
 10
2602.730481104961
 20
933.9617093522004
 30
0.0
 11
2602.730481104961
 21
935.2617093522002
 31
0.0
  0
LINE
  5
A4A
330
A3B
100
AcDbEntity
  8
0
  6
Continuous
 62
     7
370
    15
100
AcDbLine
 10
2596.130481104961
 20
935.2617093522002
 30
0.0
 11
2593.130481104961
 21
935.2617093522002
 31
0.0
  0
LINE
  5
A4B
330
A3B
100
AcDbEntity
  8
0
  6
Continuous
 62
     7
370
    15
100
AcDbLine
 10
2596.130481104961
 20
933.9617093522004
 30
0.0
 11
2593.130481104961
 21
933.9617093522003
 31
0.0
  0
LINE
  5
A4C
330
A3B
100
AcDbEntity
  8
0
  6
Continuous
 62
     7
370
    15
100
AcDbLine
 10
2593.130481104961
 20
933.9617093522003
 30
0.0
 11
2593.130481104961
 21
935.2617093522002
 31
0.0
  0
LINE
  5
A4D
330
A3B
100
AcDbEntity
  8
0
  6
Continuous
 62
     7
370
    15
100
AcDbLine
 10
2596.130481104961
 20
933.9617093522004
 30
0.0
 11
2596.130481104961
 21
935.2617093522002
 31
0.0
  0
LINE
  5
A4E
330
A3B
100
AcDbEntity
  8
0
  6
Continuous
 62
     7
370
    15
100
AcDbLine
 10
2586.530481104961
 20
933.9617093522004
 30
0.0
 11
2586.530481104961
 21
935.2617093522002
 31
0.0
  0
LINE
  5
A4F
330
A3B
100
AcDbEntity
  8
0
  6
Continuous
 62
     7
370
    15
100
AcDbLine
 10
2586.530481104961
 20
933.9617093522004
 30
0.0
 11
2583.530481104961
 21
933.9617093522001
 31
0.0
  0
LINE
  5
A50
330
A3B
100
AcDbEntity
  8
0
  6
Continuous
 62
     7
370
    15
100
AcDbLine
 10
2583.530481104961
 20
933.9617093522001
 30
0.0
 11
2583.530481104961
 21
935.2617093522002
 31
0.0
  0
LINE
  5
A51
330
A3B
100
AcDbEntity
  8
0
  6
Continuous
 62
     7
370
    15
100
AcDbLine
 10
2586.530481104961
 20
935.2617093522002
 30
0.0
 11
2583.530481104961
 21
935.2617093522002
 31
0.0
  0
LINE
  5
A52
330
A3B
100
AcDbEntity
  8
0
  6
Continuous
 62
     7
370
    15
100
AcDbLine
 10
2576.930481104961
 20
935.2617093522001
 30
0.0
 11
2573.930481104961
 21
935.2617093522001
 31
0.0
  0
LINE
  5
A53
330
A3B
100
AcDbEntity
  8
0
  6
Continuous
 62
     7
370
    15
100
AcDbLine
 10
2576.930481104961
 20
933.9617093522004
 30
0.0
 11
2576.930481104961
 21
935.2617093522001
 31
0.0
  0
LINE
  5
A54
330
A3B
100
AcDbEntity
  8
0
  6
Continuous
 62
     7
370
    15
100
AcDbLine
 10
2576.930481104961
 20
933.9617093522004
 30
0.0
 11
2573.930481104961
 21
933.9617093522001
 31
0.0
  0
LINE
  5
A55
330
A3B
100
AcDbEntity
  8
0
  6
Continuous
 62
     7
370
    15
100
AcDbLine
 10
2573.930481104961
 20
933.9617093522001
 30
0.0
 11
2573.930481104961
 21
935.2617093522001
 31
0.0
  0
LINE
  5
A56
330
A3B
100
AcDbEntity
  8
0
  6
Continuous
 62
     7
370
    15
100
AcDbLine
 10
2567.330481104961
 20
935.2617093522001
 30
0.0
 11
2564.330481104961
 21
935.2617093522001
 31
0.0
  0
LINE
  5
A57
330
A3B
100
AcDbEntity
  8
0
  6
Continuous
 62
     7
370
    15
100
AcDbLine
 10
2567.330481104961
 20
933.9617093522004
 30
0.0
 11
2567.330481104961
 21
935.2617093522001
 31
0.0
  0
LINE
  5
A58
330
A3B
100
AcDbEntity
  8
0
  6
Continuous
 62
     7
370
    15
100
AcDbLine
 10
2567.330481104961
 20
933.9617093522004
 30
0.0
 11
2564.330481104961
 21
933.9617093522001
 31
0.0
  0
LINE
  5
A59
330
A3B
100
AcDbEntity
  8
0
  6
Continuous
 62
     7
370
    15
100
AcDbLine
 10
2564.330481104961
 20
933.9617093522001
 30
0.0
 11
2564.330481104961
 21
935.2617093522001
 31
0.0
  0
LINE
  5
A5A
330
A3B
100
AcDbEntity
  8
0
  6
Continuous
 62
     7
370
    15
100
AcDbLine
 10
2557.730481104961
 20
935.2617093521999
 30
0.0
 11
2554.730481104961
 21
935.2617093521999
 31
0.0
  0
LINE
  5
A5B
330
A3B
100
AcDbEntity
  8
0
  6
Continuous
 62
     7
370
    15
100
AcDbLine
 10
2557.730481104961
 20
933.9617093522003
 30
0.0
 11
2557.730481104961
 21
935.2617093521999
 31
0.0
  0
LINE
  5
A5C
330
A3B
100
AcDbEntity
  8
0
  6
Continuous
 62
     7
370
    15
100
AcDbLine
 10
2557.730481104961
 20
933.9617093522003
 30
0.0
 11
2554.730481104961
 21
933.9617093522001
 31
0.0
  0
LINE
  5
A5D
330
A3B
100
AcDbEntity
  8
0
  6
Continuous
 62
     7
370
    15
100
AcDbLine
 10
2554.730481104961
 20
933.9617093522001
 30
0.0
 11
2554.730481104961
 21
935.2617093521999
 31
0.0
  0
LINE
  5
A5E
330
A3B
100
AcDbEntity
  8
0
  6
Continuous
 62
     7
370
    15
100
AcDbLine
 10
2548.130481104961
 20
935.2617093521999
 30
0.0
 11
2545.130481104961
 21
935.2617093521999
 31
0.0
  0
LINE
  5
A5F
330
A3B
100
AcDbEntity
  8
0
  6
Continuous
 62
     7
370
    15
100
AcDbLine
 10
2548.130481104961
 20
933.9617093522001
 30
0.0
 11
2548.130481104961
 21
935.2617093521999
 31
0.0
  0
LINE
  5
A60
330
A3B
100
AcDbEntity
  8
0
  6
Continuous
 62
     7
370
    15
100
AcDbLine
 10
2548.130481104961
 20
933.9617093522001
 30
0.0
 11
2545.130481104961
 21
933.9617093521999
 31
0.0
  0
LINE
  5
A61
330
A3B
100
AcDbEntity
  8
0
  6
Continuous
 62
     7
370
    15
100
AcDbLine
 10
2545.130481104961
 20
933.9617093521999
 30
0.0
 11
2545.130481104961
 21
935.2617093521999
 31
0.0
  0
LINE
  5
A62
330
A3B
100
AcDbEntity
  8
0
  6
Continuous
 62
     7
370
    15
100
AcDbLine
 10
2538.530481104961
 20
935.2617093521999
 30
0.0
 11
2535.530481104961
 21
935.2617093521999
 31
0.0
  0
LINE
  5
A63
330
A3B
100
AcDbEntity
  8
0
  6
Continuous
 62
     7
370
    15
100
AcDbLine
 10
2538.530481104961
 20
933.9617093522001
 30
0.0
 11
2535.530481104961
 21
933.9617093521999
 31
0.0
  0
LINE
  5
A64
330
A3B
100
AcDbEntity
  8
0
  6
Continuous
 62
     7
370
    15
100
AcDbLine
 10
2535.530481104961
 20
933.9617093521999
 30
0.0
 11
2535.530481104961
 21
935.2617093521999
 31
0.0
  0
LINE
  5
A65
330
A3B
100
AcDbEntity
  8
0
  6
Continuous
 62
     7
370
    15
100
AcDbLine
 10
2538.530481104961
 20
933.9617093522001
 30
0.0
 11
2538.530481104961
 21
935.2617093521999
 31
0.0
  0
LINE
  5
A66
330
A3B
100
AcDbEntity
  8
0
  6
Continuous
 62
     7
370
    15
100
AcDbLine
 10
2528.930481104961
 20
935.2617093521999
 30
0.0
 11
2525.930481104961
 21
935.2617093521999
 31
0.0
  0
LINE
  5
A67
330
A3B
100
AcDbEntity
  8
0
  6
Continuous
 62
     7
370
    15
100
AcDbLine
 10
2528.930481104961
 20
933.9617093522001
 30
0.0
 11
2528.930481104961
 21
935.2617093521999
 31
0.0
  0
LINE
  5
A68
330
A3B
100
AcDbEntity
  8
0
  6
Continuous
 62
     7
370
    15
100
AcDbLine
 10
2528.930481104961
 20
933.9617093522001
 30
0.0
 11
2525.930481104961
 21
933.9617093521999
 31
0.0
  0
LINE
  5
A69
330
A3B
100
AcDbEntity
  8
0
  6
Continuous
 62
     7
370
    15
100
AcDbLine
 10
2525.930481104961
 20
933.9617093521999
 30
0.0
 11
2525.930481104961
 21
935.2617093521999
 31
0.0
  0
LINE
  5
A6A
330
A3B
100
AcDbEntity
  8
0
  6
Continuous
 62
     7
370
    15
100
AcDbLine
 10
2611.53048110496
 20
930.9331280126006
 30
0.0
 11
2616.13048110496
 21
930.9331280126006
 31
0.0
  0
LINE
  5
A6B
330
A3B
100
AcDbEntity
  8
0
  6
Continuous
 62
     7
370
    15
100
AcDbLine
 10
2615.78048110496
 20
930.5831280126005
 30
0.0
 11
2616.13048110496
 21
930.9331280126006
 31
0.0
  0
LINE
  5
A6C
330
A3B
100
AcDbEntity
  8
0
  6
Continuous
 62
     7
370
    15
100
AcDbLine
 10
2615.78048110496
 20
930.5831280126005
 30
0.0
 11
2611.88048110496
 21
930.5831280126005
 31
0.0
  0
LINE
  5
A6D
330
A3B
100
AcDbEntity
  8
0
  6
Continuous
 62
     7
370
    15
100
AcDbLine
 10
2611.53048110496
 20
930.9331280126002
 30
0.0
 11
2611.88048110496
 21
930.5831280126005
 31
0.0
  0
LINE
  5
A6E
330
A3B
100
AcDbEntity
  8
0
  6
Continuous
 62
     7
370
    15
100
AcDbLine
 10
2617.03048110496
 20
937.3951163092357
 30
0.0
 11
2618.13048110496
 21
937.3951163092357
 31
0.0
  0
LINE
  5
A6F
330
A3B
100
AcDbEntity
  8
0
  6
Continuous
 62
     7
370
    15
100
AcDbLine
 10
2617.03048110496
 20
937.3951163092357
 30
0.0
 11
2617.03048110496
 21
934.2617093522003
 31
0.0
  0
ARC
  5
A70
330
A3B
100
AcDbEntity
  8
0
  6
Continuous
 62
     7
370
    15
100
AcDbCircle
 10
2616.53048110496
 20
934.2617093522003
 30
0.0
 40
0.5000000000000285
100
AcDbArc
 50
315.0000000000046
 51
359.9999999999935
  0
LINE
  5
A71
330
A3B
100
AcDbEntity
  8
0
  6
Continuous
 62
     7
370
    15
100
AcDbLine
 10
2616.884034495554
 20
933.9081559616071
 30
0.0
 11
2616.276927714367
 21
933.3010491804207
 31
0.0
  0
ARC
  5
A72
330
A3B
100
AcDbEntity
  8
0
  6
Continuous
 62
     7
370
    15
100
AcDbCircle
 10
2616.63048110496
 20
932.9474957898273
 30
0.0
 40
0.5000000000000569
100
AcDbArc
 50
135.0000000000046
 51
180.0
  0
LINE
  5
A73
330
A3B
100
AcDbEntity
  8
0
  6
Continuous
 62
     7
370
    15
100
AcDbLine
 10
2616.13048110496
 20
932.9474957898273
 30
0.0
 11
2616.13048110496
 21
930.9331280126006
 31
0.0
  0
ARC
  5
A74
330
A3B
100
AcDbEntity
  8
0
  6
Continuous
 62
     7
370
    15
100
AcDbCircle
 10
2611.03048110496
 20
932.9474957898273
 30
0.0
 40
0.4999999999999432
100
AcDbArc
 50
0.0
 51
44.99999999998617
  0
LINE
  5
A75
330
A3B
100
AcDbEntity
  8
0
  6
Continuous
 62
     7
370
    15
100
AcDbLine
 10
2611.384034495554
 20
933.3010491804204
 30
0.0
 11
2610.776927714367
 21
933.9081559616071
 31
0.0
  0
ARC
  5
A76
330
A3B
100
AcDbEntity
  8
0
  6
Continuous
 62
     7
370
    15
100
AcDbCircle
 10
2611.13048110496
 20
934.2617093522003
 30
0.0
 40
0.4999999999999432
100
AcDbArc
 50
180.0000000000391
 51
225.000000000023
  0
LINE
  5
A77
330
A3B
100
AcDbEntity
  8
0
  6
Continuous
 62
     7
370
    15
100
AcDbLine
 10
2610.63048110496
 20
934.2617093521999
 30
0.0
 11
2610.63048110496
 21
937.3951163092357
 31
0.0
  0
LINE
  5
A78
330
A3B
100
AcDbEntity
  8
0
  6
Continuous
 62
     7
370
    15
100
AcDbLine
 10
2607.43048110496
 20
937.3951163092353
 30
0.0
 11
2610.63048110496
 21
937.3951163092357
 31
0.0
  0
LINE
  5
A79
330
A3B
100
AcDbEntity
  8
0
  6
Continuous
 62
     7
370
    15
100
AcDbLine
 10
2607.43048110496
 20
937.3951163092355
 30
0.0
 11
2607.43048110496
 21
934.2617093522003
 31
0.0
  0
ARC
  5
A7A
330
A3B
100
AcDbEntity
  8
0
  6
Continuous
 62
     7
370
    15
100
AcDbCircle
 10
2606.93048110496
 20
934.2617093522003
 30
0.0
 40
0.5000000000000285
100
AcDbArc
 50
315.0000000000046
 51
359.9999999999935
  0
LINE
  5
A7B
330
A3B
100
AcDbEntity
  8
0
  6
Continuous
 62
     7
370
    15
100
AcDbLine
 10
2607.284034495553
 20
933.9081559616069
 30
0.0
 11
2606.676927714367
 21
933.3010491804207
 31
0.0
  0
ARC
  5
A7C
330
A3B
100
AcDbEntity
  8
0
  6
Continuous
 62
     7
370
    15
100
AcDbCircle
 10
2607.03048110496
 20
932.9474957898273
 30
0.0
 40
0.5000000000000569
100
AcDbArc
 50
135.0000000000046
 51
180.0
  0
LINE
  5
A7D
330
A3B
100
AcDbEntity
  8
0
  6
Continuous
 62
     7
370
    15
100
AcDbLine
 10
2606.53048110496
 20
932.9474957898273
 30
0.0
 11
2606.53048110496
 21
930.9331280126004
 31
0.0
  0
LINE
  5
A7E
330
A3B
100
AcDbEntity
  8
0
  6
Continuous
 62
     7
370
    15
100
AcDbLine
 10
2601.93048110496
 20
930.9331280126004
 30
0.0
 11
2606.53048110496
 21
930.9331280126004
 31
0.0
  0
LINE
  5
A7F
330
A3B
100
AcDbEntity
  8
0
  6
Continuous
 62
     7
370
    15
100
AcDbLine
 10
2601.93048110496
 20
930.9331280125999
 30
0.0
 11
2601.93048110496
 21
932.9474957898272
 31
0.0
  0
ARC
  5
A80
330
A3B
100
AcDbEntity
  8
0
  6
Continuous
 62
     7
370
    15
100
AcDbCircle
 10
2601.43048110496
 20
932.9474957898272
 30
0.0
 40
0.4999999999999432
100
AcDbArc
 50
0.0
 51
44.99999999998617
  0
LINE
  5
A81
330
A3B
100
AcDbEntity
  8
0
  6
Continuous
 62
     7
370
    15
100
AcDbLine
 10
2601.784034495553
 20
933.3010491804204
 30
0.0
 11
2601.176927714367
 21
933.9081559616069
 31
0.0
  0
ARC
  5
A82
330
A3B
100
AcDbEntity
  8
0
  6
Continuous
 62
     7
370
    15
100
AcDbCircle
 10
2601.53048110496
 20
934.2617093522003
 30
0.0
 40
0.4999999999999432
100
AcDbArc
 50
180.0000000000391
 51
225.000000000023
  0
LINE
  5
A83
330
A3B
100
AcDbEntity
  8
0
  6
Continuous
 62
     7
370
    15
100
AcDbLine
 10
2601.03048110496
 20
934.2617093521999
 30
0.0
 11
2601.03048110496
 21
937.3951163092355
 31
0.0
  0
LINE
  5
A84
330
A3B
100
AcDbEntity
  8
0
  6
Continuous
 62
     7
370
    15
100
AcDbLine
 10
2597.83048110496
 20
937.3951163092353
 30
0.0
 11
2601.03048110496
 21
937.3951163092353
 31
0.0
  0
LINE
  5
A85
330
A3B
100
AcDbEntity
  8
0
  6
Continuous
 62
     7
370
    15
100
AcDbLine
 10
2597.83048110496
 20
937.3951163092355
 30
0.0
 11
2597.83048110496
 21
934.2617093522001
 31
0.0
  0
ARC
  5
A86
330
A3B
100
AcDbEntity
  8
0
  6
Continuous
 62
     7
370
    15
100
AcDbCircle
 10
2597.33048110496
 20
934.2617093522001
 30
0.0
 40
0.5000000000000285
100
AcDbArc
 50
315.0000000000046
 51
359.9999999999935
  0
LINE
  5
A87
330
A3B
100
AcDbEntity
  8
0
  6
Continuous
 62
     7
370
    15
100
AcDbLine
 10
2597.684034495554
 20
933.9081559616069
 30
0.0
 11
2597.076927714367
 21
933.3010491804206
 31
0.0
  0
ARC
  5
A88
330
A3B
100
AcDbEntity
  8
0
  6
Continuous
 62
     7
370
    15
100
AcDbCircle
 10
2597.43048110496
 20
932.9474957898272
 30
0.0
 40
0.5000000000000643
100
AcDbArc
 50
135.0000000000046
 51
180.0
  0
LINE
  5
A89
330
A3B
100
AcDbEntity
  8
0
  6
Continuous
 62
     7
370
    15
100
AcDbLine
 10
2596.93048110496
 20
932.9474957898272
 30
0.0
 11
2596.93048110496
 21
930.9331280126004
 31
0.0
  0
LINE
  5
A8A
330
A3B
100
AcDbEntity
  8
0
  6
Continuous
 62
     7
370
    15
100
AcDbLine
 10
2592.330481104961
 20
930.9331280126004
 30
0.0
 11
2596.93048110496
 21
930.9331280126004
 31
0.0
  0
LINE
  5
A8B
330
A3B
100
AcDbEntity
  8
0
  6
Continuous
 62
     7
370
    15
100
AcDbLine
 10
2592.330481104961
 20
930.9331280125999
 30
0.0
 11
2592.330481104961
 21
932.9474957898272
 31
0.0
  0
ARC
  5
A8C
330
A3B
100
AcDbEntity
  8
0
  6
Continuous
 62
     7
370
    15
100
AcDbCircle
 10
2591.83048110496
 20
932.9474957898272
 30
0.0
 40
0.4999999999999432
100
AcDbArc
 50
0.0
 51
44.99999999998617
  0
LINE
  5
A8D
330
A3B
100
AcDbEntity
  8
0
  6
Continuous
 62
     7
370
    15
100
AcDbLine
 10
2592.184034495554
 20
933.3010491804204
 30
0.0
 11
2591.576927714367
 21
933.9081559616069
 31
0.0
  0
ARC
  5
A8E
330
A3B
100
AcDbEntity
  8
0
  6
Continuous
 62
     7
370
    15
100
AcDbCircle
 10
2591.93048110496
 20
934.2617093522001
 30
0.0
 40
0.4999999999999432
100
AcDbArc
 50
180.0000000000391
 51
225.000000000023
  0
LINE
  5
A8F
330
A3B
100
AcDbEntity
  8
0
  6
Continuous
 62
     7
370
    15
100
AcDbLine
 10
2591.43048110496
 20
934.2617093521999
 30
0.0
 11
2591.43048110496
 21
937.3951163092355
 31
0.0
  0
LINE
  5
A90
330
A3B
100
AcDbEntity
  8
0
  6
Continuous
 62
     7
370
    15
100
AcDbLine
 10
2588.23048110496
 20
937.3951163092353
 30
0.0
 11
2591.43048110496
 21
937.3951163092353
 31
0.0
  0
LINE
  5
A91
330
A3B
100
AcDbEntity
  8
0
  6
Continuous
 62
     7
370
    15
100
AcDbLine
 10
2588.23048110496
 20
937.3951163092355
 30
0.0
 11
2588.23048110496
 21
934.2617093522001
 31
0.0
  0
ARC
  5
A92
330
A3B
100
AcDbEntity
  8
0
  6
Continuous
 62
     7
370
    15
100
AcDbCircle
 10
2587.73048110496
 20
934.2617093522001
 30
0.0
 40
0.5000000000000285
100
AcDbArc
 50
315.0000000000046
 51
359.9999999999935
  0
LINE
  5
A93
330
A3B
100
AcDbEntity
  8
0
  6
Continuous
 62
     7
370
    15
100
AcDbLine
 10
2588.084034495553
 20
933.9081559616067
 30
0.0
 11
2587.476927714367
 21
933.3010491804204
 31
0.0
  0
ARC
  5
A94
330
A3B
100
AcDbEntity
  8
0
  6
Continuous
 62
     7
370
    15
100
AcDbCircle
 10
2587.830481104961
 20
932.9474957898272
 30
0.0
 40
0.5000000000000569
100
AcDbArc
 50
135.0000000000046
 51
180.0
  0
LINE
  5
A95
330
A3B
100
AcDbEntity
  8
0
  6
Continuous
 62
     7
370
    15
100
AcDbLine
 10
2587.33048110496
 20
932.9474957898272
 30
0.0
 11
2587.33048110496
 21
930.9331280126004
 31
0.0
  0
LINE
  5
A96
330
A3B
100
AcDbEntity
  8
0
  6
Continuous
 62
     7
370
    15
100
AcDbLine
 10
2582.73048110496
 20
930.9331280126004
 30
0.0
 11
2587.33048110496
 21
930.9331280126004
 31
0.0
  0
LINE
  5
A97
330
A3B
100
AcDbEntity
  8
0
  6
Continuous
 62
     7
370
    15
100
AcDbLine
 10
2582.73048110496
 20
930.9331280125999
 30
0.0
 11
2582.73048110496
 21
932.9474957898272
 31
0.0
  0
ARC
  5
A98
330
A3B
100
AcDbEntity
  8
0
  6
Continuous
 62
     7
370
    15
100
AcDbCircle
 10
2582.23048110496
 20
932.9474957898272
 30
0.0
 40
0.4999999999999432
100
AcDbArc
 50
0.0
 51
44.99999999998617
  0
LINE
  5
A99
330
A3B
100
AcDbEntity
  8
0
  6
Continuous
 62
     7
370
    15
100
AcDbLine
 10
2582.584034495554
 20
933.3010491804202
 30
0.0
 11
2581.976927714367
 21
933.9081559616067
 31
0.0
  0
ARC
  5
A9A
330
A3B
100
AcDbEntity
  8
0
  6
Continuous
 62
     7
370
    15
100
AcDbCircle
 10
2582.33048110496
 20
934.2617093522001
 30
0.0
 40
0.4999999999999438
100
AcDbArc
 50
180.0000000000391
 51
225.0000000000184
  0
LINE
  5
A9B
330
A3B
100
AcDbEntity
  8
0
  6
Continuous
 62
     7
370
    15
100
AcDbLine
 10
2581.83048110496
 20
934.2617093521997
 30
0.0
 11
2581.83048110496
 21
937.3951163092355
 31
0.0
  0
LINE
  5
A9C
330
A3B
100
AcDbEntity
  8
0
  6
Continuous
 62
     7
370
    15
100
AcDbLine
 10
2578.63048110496
 20
937.3951163092353
 30
0.0
 11
2581.83048110496
 21
937.3951163092353
 31
0.0
  0
LINE
  5
A9D
330
A3B
100
AcDbEntity
  8
0
  6
Continuous
 62
     7
370
    15
100
AcDbLine
 10
2578.63048110496
 20
937.3951163092355
 30
0.0
 11
2578.63048110496
 21
934.2617093521999
 31
0.0
  0
ARC
  5
A9E
330
A3B
100
AcDbEntity
  8
0
  6
Continuous
 62
     7
370
    15
100
AcDbCircle
 10
2578.13048110496
 20
934.2617093522001
 30
0.0
 40
0.5000000000000285
100
AcDbArc
 50
315.0000000000046
 51
359.9999999999935
  0
LINE
  5
A9F
330
A3B
100
AcDbEntity
  8
0
  6
Continuous
 62
     7
370
    15
100
AcDbLine
 10
2578.484034495553
 20
933.9081559616067
 30
0.0
 11
2577.876927714367
 21
933.3010491804204
 31
0.0
  0
ARC
  5
AA0
330
A3B
100
AcDbEntity
  8
0
  6
Continuous
 62
     7
370
    15
100
AcDbCircle
 10
2578.23048110496
 20
932.9474957898272
 30
0.0
 40
0.5000000000000569
100
AcDbArc
 50
135.0000000000046
 51
180.0
  0
LINE
  5
AA1
330
A3B
100
AcDbEntity
  8
0
  6
Continuous
 62
     7
370
    15
100
AcDbLine
 10
2577.730481104961
 20
932.9474957898272
 30
0.0
 11
2577.73048110496
 21
930.9331280126004
 31
0.0
  0
LINE
  5
AA2
330
A3B
100
AcDbEntity
  8
0
  6
Continuous
 62
     7
370
    15
100
AcDbLine
 10
2573.13048110496
 20
930.9331280126004
 30
0.0
 11
2577.73048110496
 21
930.9331280126004
 31
0.0
  0
LINE
  5
AA3
330
A3B
100
AcDbEntity
  8
0
  6
Continuous
 62
     7
370
    15
100
AcDbLine
 10
2573.13048110496
 20
930.9331280125997
 30
0.0
 11
2573.13048110496
 21
932.9474957898272
 31
0.0
  0
ARC
  5
AA4
330
A3B
100
AcDbEntity
  8
0
  6
Continuous
 62
     7
370
    15
100
AcDbCircle
 10
2572.63048110496
 20
932.9474957898272
 30
0.0
 40
0.4999999999999432
100
AcDbArc
 50
0.0
 51
44.99999999998617
  0
LINE
  5
AA5
330
A3B
100
AcDbEntity
  8
0
  6
Continuous
 62
     7
370
    15
100
AcDbLine
 10
2572.984034495553
 20
933.3010491804202
 30
0.0
 11
2572.376927714367
 21
933.9081559616067
 31
0.0
  0
ARC
  5
AA6
330
A3B
100
AcDbEntity
  8
0
  6
Continuous
 62
     7
370
    15
100
AcDbCircle
 10
2572.73048110496
 20
934.2617093522001
 30
0.0
 40
0.4999999999999716
100
AcDbArc
 50
180.0000000000391
 51
225.0000000000184
  0
LINE
  5
AA7
330
A3B
100
AcDbEntity
  8
0
  6
Continuous
 62
     7
370
    15
100
AcDbLine
 10
2572.23048110496
 20
934.2617093521997
 30
0.0
 11
2572.23048110496
 21
937.3951163092355
 31
0.0
  0
LINE
  5
AA8
330
A3B
100
AcDbEntity
  8
0
  6
Continuous
 62
     7
370
    15
100
AcDbLine
 10
2569.03048110496
 20
937.3951163092353
 30
0.0
 11
2572.23048110496
 21
937.3951163092353
 31
0.0
  0
LINE
  5
AA9
330
A3B
100
AcDbEntity
  8
0
  6
Continuous
 62
     7
370
    15
100
AcDbLine
 10
2569.03048110496
 20
937.3951163092353
 30
0.0
 11
2569.03048110496
 21
934.2617093521999
 31
0.0
  0
ARC
  5
AAA
330
A3B
100
AcDbEntity
  8
0
  6
Continuous
 62
     7
370
    15
100
AcDbCircle
 10
2568.53048110496
 20
934.2617093521999
 30
0.0
 40
0.5000000000000285
100
AcDbArc
 50
315.0000000000046
 51
359.9999999999935
  0
LINE
  5
AAB
330
A3B
100
AcDbEntity
  8
0
  6
Continuous
 62
     7
370
    15
100
AcDbLine
 10
2568.884034495554
 20
933.9081559616067
 30
0.0
 11
2568.276927714367
 21
933.3010491804204
 31
0.0
  0
ARC
  5
AAC
330
A3B
100
AcDbEntity
  8
0
  6
Continuous
 62
     7
370
    15
100
AcDbCircle
 10
2568.630481104961
 20
932.9474957898272
 30
0.0
 40
0.5000000000000569
100
AcDbArc
 50
135.0000000000046
 51
180.0
  0
LINE
  5
AAD
330
A3B
100
AcDbEntity
  8
0
  6
Continuous
 62
     7
370
    15
100
AcDbLine
 10
2568.13048110496
 20
932.9474957898272
 30
0.0
 11
2568.13048110496
 21
930.9331280126002
 31
0.0
  0
LINE
  5
AAE
330
A3B
100
AcDbEntity
  8
0
  6
Continuous
 62
     7
370
    15
100
AcDbLine
 10
2563.53048110496
 20
930.9331280126002
 30
0.0
 11
2568.13048110496
 21
930.9331280126002
 31
0.0
  0
LINE
  5
AAF
330
A3B
100
AcDbEntity
  8
0
  6
Continuous
 62
     7
370
    15
100
AcDbLine
 10
2563.53048110496
 20
930.9331280125995
 30
0.0
 11
2563.53048110496
 21
932.947495789827
 31
0.0
  0
ARC
  5
AB0
330
A3B
100
AcDbEntity
  8
0
  6
Continuous
 62
     7
370
    15
100
AcDbCircle
 10
2563.03048110496
 20
932.947495789827
 30
0.0
 40
0.4999999999999432
100
AcDbArc
 50
0.0
 51
44.99999999998617
  0
LINE
  5
AB1
330
A3B
100
AcDbEntity
  8
0
  6
Continuous
 62
     7
370
    15
100
AcDbLine
 10
2563.384034495554
 20
933.30104918042
 30
0.0
 11
2562.776927714367
 21
933.9081559616067
 31
0.0
  0
ARC
  5
AB2
330
A3B
100
AcDbEntity
  8
0
  6
Continuous
 62
     7
370
    15
100
AcDbCircle
 10
2563.13048110496
 20
934.2617093521999
 30
0.0
 40
0.4999999999999432
100
AcDbArc
 50
180.0000000000391
 51
225.000000000023
  0
LINE
  5
AB3
330
A3B
100
AcDbEntity
  8
0
  6
Continuous
 62
     7
370
    15
100
AcDbLine
 10
2562.63048110496
 20
934.2617093521996
 30
0.0
 11
2562.63048110496
 21
937.3951163092353
 31
0.0
  0
LINE
  5
AB4
330
A3B
100
AcDbEntity
  8
0
  6
Continuous
 62
     7
370
    15
100
AcDbLine
 10
2559.43048110496
 20
937.3951163092353
 30
0.0
 11
2562.63048110496
 21
937.3951163092353
 31
0.0
  0
LINE
  5
AB5
330
A3B
100
AcDbEntity
  8
0
  6
Continuous
 62
     7
370
    15
100
AcDbLine
 10
2559.43048110496
 20
937.3951163092353
 30
0.0
 11
2559.43048110496
 21
934.2617093521999
 31
0.0
  0
ARC
  5
AB6
330
A3B
100
AcDbEntity
  8
0
  6
Continuous
 62
     7
370
    15
100
AcDbCircle
 10
2558.93048110496
 20
934.2617093521999
 30
0.0
 40
0.5000000000000285
100
AcDbArc
 50
315.0000000000046
 51
359.9999999999935
  0
LINE
  5
AB7
330
A3B
100
AcDbEntity
  8
0
  6
Continuous
 62
     7
370
    15
100
AcDbLine
 10
2559.284034495553
 20
933.9081559616067
 30
0.0
 11
2558.676927714367
 21
933.3010491804204
 31
0.0
  0
ARC
  5
AB8
330
A3B
100
AcDbEntity
  8
0
  6
Continuous
 62
     7
370
    15
100
AcDbCircle
 10
2559.03048110496
 20
932.947495789827
 30
0.0
 40
0.5000000000000569
100
AcDbArc
 50
135.0000000000046
 51
180.0
  0
LINE
  5
AB9
330
A3B
100
AcDbEntity
  8
0
  6
Continuous
 62
     7
370
    15
100
AcDbLine
 10
2558.53048110496
 20
932.947495789827
 30
0.0
 11
2558.53048110496
 21
930.9331280126002
 31
0.0
  0
LINE
  5
ABA
330
A3B
100
AcDbEntity
  8
0
  6
Continuous
 62
     7
370
    15
100
AcDbLine
 10
2553.93048110496
 20
930.9331280126002
 30
0.0
 11
2558.53048110496
 21
930.9331280126002
 31
0.0
  0
LINE
  5
ABB
330
A3B
100
AcDbEntity
  8
0
  6
Continuous
 62
     7
370
    15
100
AcDbLine
 10
2553.93048110496
 20
930.9331280125995
 30
0.0
 11
2553.93048110496
 21
932.9474957898268
 31
0.0
  0
ARC
  5
ABC
330
A3B
100
AcDbEntity
  8
0
  6
Continuous
 62
     7
370
    15
100
AcDbCircle
 10
2553.43048110496
 20
932.947495789827
 30
0.0
 40
0.4999999999999432
100
AcDbArc
 50
0.0
 51
44.99999999998617
  0
LINE
  5
ABD
330
A3B
100
AcDbEntity
  8
0
  6
Continuous
 62
     7
370
    15
100
AcDbLine
 10
2553.784034495553
 20
933.30104918042
 30
0.0
 11
2553.176927714367
 21
933.9081559616067
 31
0.0
  0
ARC
  5
ABE
330
A3B
100
AcDbEntity
  8
0
  6
Continuous
 62
     7
370
    15
100
AcDbCircle
 10
2553.53048110496
 20
934.2617093521999
 30
0.0
 40
0.4999999999999432
100
AcDbArc
 50
180.0000000000391
 51
225.000000000023
  0
LINE
  5
ABF
330
A3B
100
AcDbEntity
  8
0
  6
Continuous
 62
     7
370
    15
100
AcDbLine
 10
2553.03048110496
 20
934.2617093521996
 30
0.0
 11
2553.03048110496
 21
937.3951163092353
 31
0.0
  0
LINE
  5
AC0
330
A3B
100
AcDbEntity
  8
0
  6
Continuous
 62
     7
370
    15
100
AcDbLine
 10
2549.83048110496
 20
937.3951163092353
 30
0.0
 11
2553.03048110496
 21
937.3951163092353
 31
0.0
  0
LINE
  5
AC1
330
A3B
100
AcDbEntity
  8
0
  6
Continuous
 62
     7
370
    15
100
AcDbLine
 10
2549.83048110496
 20
937.3951163092353
 30
0.0
 11
2549.83048110496
 21
934.2617093521999
 31
0.0
  0
ARC
  5
AC2
330
A3B
100
AcDbEntity
  8
0
  6
Continuous
 62
     7
370
    15
100
AcDbCircle
 10
2549.33048110496
 20
934.2617093521999
 30
0.0
 40
0.5000000000000285
100
AcDbArc
 50
315.0000000000046
 51
0.0000000000065138
  0
LINE
  5
AC3
330
A3B
100
AcDbEntity
  8
0
  6
Continuous
 62
     7
370
    15
100
AcDbLine
 10
2549.684034495554
 20
933.9081559616065
 30
0.0
 11
2549.076927714367
 21
933.3010491804202
 31
0.0
  0
ARC
  5
AC4
330
A3B
100
AcDbEntity
  8
0
  6
Continuous
 62
     7
370
    15
100
AcDbCircle
 10
2549.43048110496
 20
932.947495789827
 30
0.0
 40
0.5000000000000569
100
AcDbArc
 50
135.0000000000046
 51
180.0
  0
LINE
  5
AC5
330
A3B
100
AcDbEntity
  8
0
  6
Continuous
 62
     7
370
    15
100
AcDbLine
 10
2548.930481104961
 20
932.947495789827
 30
0.0
 11
2548.930481104961
 21
930.9331280126002
 31
0.0
  0
LINE
  5
AC6
330
A3B
100
AcDbEntity
  8
0
  6
Continuous
 62
     7
370
    15
100
AcDbLine
 10
2544.330481104961
 20
930.9331280126002
 30
0.0
 11
2548.930481104961
 21
930.9331280126002
 31
0.0
  0
LINE
  5
AC7
330
A3B
100
AcDbEntity
  8
0
  6
Continuous
 62
     7
370
    15
100
AcDbLine
 10
2544.330481104961
 20
930.9331280125995
 30
0.0
 11
2544.330481104961
 21
932.9474957898268
 31
0.0
  0
ARC
  5
AC8
330
A3B
100
AcDbEntity
  8
0
  6
Continuous
 62
     7
370
    15
100
AcDbCircle
 10
2543.83048110496
 20
932.9474957898268
 30
0.0
 40
0.4999999999999432
100
AcDbArc
 50
0.0
 51
44.99999999998617
  0
LINE
  5
AC9
330
A3B
100
AcDbEntity
  8
0
  6
Continuous
 62
     7
370
    15
100
AcDbLine
 10
2544.184034495554
 20
933.30104918042
 30
0.0
 11
2543.576927714367
 21
933.9081559616065
 31
0.0
  0
ARC
  5
ACA
330
A3B
100
AcDbEntity
  8
0
  6
Continuous
 62
     7
370
    15
100
AcDbCircle
 10
2543.93048110496
 20
934.2617093521999
 30
0.0
 40
0.4999999999999432
100
AcDbArc
 50
180.0000000000391
 51
225.000000000023
  0
LINE
  5
ACB
330
A3B
100
AcDbEntity
  8
0
  6
Continuous
 62
     7
370
    15
100
AcDbLine
 10
2543.43048110496
 20
934.2617093521996
 30
0.0
 11
2543.43048110496
 21
937.3951163092353
 31
0.0
  0
LINE
  5
ACC
330
A3B
100
AcDbEntity
  8
0
  6
Continuous
 62
     7
370
    15
100
AcDbLine
 10
2543.43048110496
 20
937.3951163092353
 30
0.0
 11
2540.23048110496
 21
937.3951163092353
 31
0.0
  0
LINE
  5
ACD
330
A3B
100
AcDbEntity
  8
0
  6
Continuous
 62
     7
370
    15
100
AcDbLine
 10
2540.23048110496
 20
937.3951163092353
 30
0.0
 11
2540.23048110496
 21
934.2617093521999
 31
0.0
  0
ARC
  5
ACE
330
A3B
100
AcDbEntity
  8
0
  6
Continuous
 62
     7
370
    15
100
AcDbCircle
 10
2539.73048110496
 20
934.2617093521999
 30
0.0
 40
0.5000000000000443
100
AcDbArc
 50
315.0000000000046
 51
359.9999999999935
  0
LINE
  5
ACF
330
A3B
100
AcDbEntity
  8
0
  6
Continuous
 62
     7
370
    15
100
AcDbLine
 10
2540.084034495553
 20
933.9081559616065
 30
0.0
 11
2539.476927714367
 21
933.3010491804202
 31
0.0
  0
ARC
  5
AD0
330
A3B
100
AcDbEntity
  8
0
  6
Continuous
 62
     7
370
    15
100
AcDbCircle
 10
2539.830481104961
 20
932.9474957898268
 30
0.0
 40
0.5000000000000569
100
AcDbArc
 50
135.0000000000046
 51
180.0
  0
LINE
  5
AD1
330
A3B
100
AcDbEntity
  8
0
  6
Continuous
 62
     7
370
    15
100
AcDbLine
 10
2539.33048110496
 20
932.9474957898268
 30
0.0
 11
2539.33048110496
 21
930.9331280126
 31
0.0
  0
LINE
  5
AD2
330
A3B
100
AcDbEntity
  8
0
  6
Continuous
 62
     7
370
    15
100
AcDbLine
 10
2534.73048110496
 20
930.9331280126
 30
0.0
 11
2539.33048110496
 21
930.9331280126
 31
0.0
  0
LINE
  5
AD3
330
A3B
100
AcDbEntity
  8
0
  6
Continuous
 62
     7
370
    15
100
AcDbLine
 10
2534.73048110496
 20
930.9331280125995
 30
0.0
 11
2534.73048110496
 21
932.9474957898268
 31
0.0
  0
ARC
  5
AD4
330
A3B
100
AcDbEntity
  8
0
  6
Continuous
 62
     7
370
    15
100
AcDbCircle
 10
2534.230481104961
 20
932.9474957898268
 30
0.0
 40
0.4999999999999432
100
AcDbArc
 50
0.0
 51
44.99999999998617
  0
LINE
  5
AD5
330
A3B
100
AcDbEntity
  8
0
  6
Continuous
 62
     7
370
    15
100
AcDbLine
 10
2534.584034495554
 20
933.30104918042
 30
0.0
 11
2533.976927714367
 21
933.9081559616065
 31
0.0
  0
ARC
  5
AD6
330
A3B
100
AcDbEntity
  8
0
  6
Continuous
 62
     7
370
    15
100
AcDbCircle
 10
2534.33048110496
 20
934.2617093521999
 30
0.0
 40
0.4999999999999539
100
AcDbArc
 50
180.0000000000391
 51
225.000000000023
  0
LINE
  5
AD7
330
A3B
100
AcDbEntity
  8
0
  6
Continuous
 62
     7
370
    15
100
AcDbLine
 10
2533.83048110496
 20
934.2617093521996
 30
0.0
 11
2533.83048110496
 21
937.3951163092353
 31
0.0
  0
LINE
  5
AD8
330
A3B
100
AcDbEntity
  8
0
  6
Continuous
 62
     7
370
    15
100
AcDbLine
 10
2533.83048110496
 20
937.3951163092353
 30
0.0
 11
2530.63048110496
 21
937.3951163092353
 31
0.0
  0
LINE
  5
AD9
330
A3B
100
AcDbEntity
  8
0
  6
Continuous
 62
     7
370
    15
100
AcDbLine
 10
2530.63048110496
 20
937.3951163092353
 30
0.0
 11
2530.63048110496
 21
934.2617093521999
 31
0.0
  0
ARC
  5
ADA
330
A3B
100
AcDbEntity
  8
0
  6
Continuous
 62
     7
370
    15
100
AcDbCircle
 10
2530.13048110496
 20
934.2617093521999
 30
0.0
 40
0.5000000000000543
100
AcDbArc
 50
315.0000000000046
 51
359.9999999999935
  0
LINE
  5
ADB
330
A3B
100
AcDbEntity
  8
0
  6
Continuous
 62
     7
370
    15
100
AcDbLine
 10
2530.484034495553
 20
933.9081559616065
 30
0.0
 11
2529.876927714367
 21
933.30104918042
 31
0.0
  0
ARC
  5
ADC
330
A3B
100
AcDbEntity
  8
0
  6
Continuous
 62
     7
370
    15
100
AcDbCircle
 10
2530.23048110496
 20
932.9474957898268
 30
0.0
 40
0.5000000000000427
100
AcDbArc
 50
135.0000000000046
 51
180.0
  0
LINE
  5
ADD
330
A3B
100
AcDbEntity
  8
0
  6
Continuous
 62
     7
370
    15
100
AcDbLine
 10
2529.73048110496
 20
932.9474957898268
 30
0.0
 11
2529.73048110496
 21
930.9331280126
 31
0.0
  0
LINE
  5
ADE
330
A3B
100
AcDbEntity
  8
0
  6
Continuous
 62
     7
370
    15
100
AcDbLine
 10
2525.13048110496
 20
930.9331280126002
 30
0.0
 11
2529.73048110496
 21
930.9331280126002
 31
0.0
  0
LINE
  5
ADF
330
A3B
100
AcDbEntity
  8
0
  6
Continuous
 62
     7
370
    15
100
AcDbLine
 10
2525.13048110496
 20
930.9331280125995
 30
0.0
 11
2525.13048110496
 21
932.9474957898268
 31
0.0
  0
ARC
  5
AE0
330
A3B
100
AcDbEntity
  8
0
  6
Continuous
 62
     7
370
    15
100
AcDbCircle
 10
2524.63048110496
 20
932.9474957898268
 30
0.0
 40
0.4999999999998734
100
AcDbArc
 50
0.0
 51
44.99999999999078
  0
LINE
  5
AE1
330
A3B
100
AcDbEntity
  8
0
  6
Continuous
 62
     7
370
    15
100
AcDbLine
 10
2524.984034495553
 20
933.3010491804198
 30
0.0
 11
2524.376927714367
 21
933.9081559616065
 31
0.0
  0
ARC
  5
AE2
330
A3B
100
AcDbEntity
  8
0
  6
Continuous
 62
     7
370
    15
100
AcDbCircle
 10
2524.73048110496
 20
934.2617093521999
 30
0.0
 40
0.4999999999999739
100
AcDbArc
 50
180.0000000000391
 51
225.0000000000184
  0
LINE
  5
AE3
330
A3B
100
AcDbEntity
  8
0
  6
Continuous
 62
     7
370
    15
100
AcDbLine
 10
2524.23048110496
 20
934.2617093521996
 30
0.0
 11
2524.23048110496
 21
937.3951163092353
 31
0.0
  0
LINE
  5
AE4
330
A3B
100
AcDbEntity
  8
0
  6
Continuous
 62
     7
370
    15
100
AcDbLine
 10
2524.23048110496
 20
937.3951163092353
 30
0.0
 11
2523.13048110496
 21
937.3951163092353
 31
0.0
  0
LINE
  5
AE5
330
A3B
100
AcDbEntity
  8
0
  6
Continuous
 62
     7
370
    15
100
AcDbLine
 10
2611.53048110496
 20
930.9331280125999
 30
0.0
 11
2611.53048110496
 21
932.9474957898272
 31
0.0
  0
LINE
  5
AE6
330
A3B
100
AcDbEntity
  8
0
  6
Continuous
 62
     7
370
    15
100
AcDbLine
 10
2523.13048110496
 20
937.3951163092353
 30
0.0
 11
2523.13048110496
 21
943.8617093521999
 31
0.0
  0
LINE
  5
AE7
330
A3B
100
AcDbEntity
  8
0
  6
Continuous
 62
     7
370
    15
100
AcDbLine
 10
2618.13048110496
 20
943.8617093522005
 30
0.0
 11
2618.13048110496
 21
937.3951163092357
 31
0.0
  0
LINE
  5
AE8
330
A3B
100
AcDbEntity
  8
0
  6
Continuous
 62
     7
370
    15
100
AcDbLine
 10
2606.18048110496
 20
930.5831280126005
 30
0.0
 11
2606.53048110496
 21
930.9331280126004
 31
0.0
  0
LINE
  5
AE9
330
A3B
100
AcDbEntity
  8
0
  6
Continuous
 62
     7
370
    15
100
AcDbLine
 10
2606.18048110496
 20
930.5831280126005
 30
0.0
 11
2602.28048110496
 21
930.5831280126005
 31
0.0
  0
LINE
  5
AEA
330
A3B
100
AcDbEntity
  8
0
  6
Continuous
 62
     7
370
    15
100
AcDbLine
 10
2601.930481104961
 20
930.9331280126002
 30
0.0
 11
2602.28048110496
 21
930.5831280126005
 31
0.0
  0
LINE
  5
AEB
330
A3B
100
AcDbEntity
  8
0
  6
Continuous
 62
     7
370
    15
100
AcDbLine
 10
2596.58048110496
 20
930.5831280126005
 30
0.0
 11
2596.93048110496
 21
930.9331280126004
 31
0.0
  0
LINE
  5
AEC
330
A3B
100
AcDbEntity
  8
0
  6
Continuous
 62
     7
370
    15
100
AcDbLine
 10
2596.58048110496
 20
930.5831280126005
 30
0.0
 11
2592.68048110496
 21
930.5831280126005
 31
0.0
  0
LINE
  5
AED
330
A3B
100
AcDbEntity
  8
0
  6
Continuous
 62
     7
370
    15
100
AcDbLine
 10
2592.330481104961
 20
930.9331280126
 30
0.0
 11
2592.68048110496
 21
930.5831280126005
 31
0.0
  0
LINE
  5
AEE
330
A3B
100
AcDbEntity
  8
0
  6
Continuous
 62
     7
370
    15
100
AcDbLine
 10
2586.980481104961
 20
930.5831280126005
 30
0.0
 11
2587.33048110496
 21
930.9331280126004
 31
0.0
  0
LINE
  5
AEF
330
A3B
100
AcDbEntity
  8
0
  6
Continuous
 62
     7
370
    15
100
AcDbLine
 10
2586.980481104961
 20
930.5831280126003
 30
0.0
 11
2583.080481104961
 21
930.5831280126003
 31
0.0
  0
LINE
  5
AF0
330
A3B
100
AcDbEntity
  8
0
  6
Continuous
 62
     7
370
    15
100
AcDbLine
 10
2582.73048110496
 20
930.9331280126
 30
0.0
 11
2583.080481104961
 21
930.5831280126003
 31
0.0
  0
LINE
  5
AF1
330
A3B
100
AcDbEntity
  8
0
  6
Continuous
 62
     7
370
    15
100
AcDbLine
 10
2577.38048110496
 20
930.5831280126003
 30
0.0
 11
2577.73048110496
 21
930.9331280126004
 31
0.0
  0
LINE
  5
AF2
330
A3B
100
AcDbEntity
  8
0
  6
Continuous
 62
     7
370
    15
100
AcDbLine
 10
2577.38048110496
 20
930.5831280126003
 30
0.0
 11
2573.48048110496
 21
930.5831280126003
 31
0.0
  0
LINE
  5
AF3
330
A3B
100
AcDbEntity
  8
0
  6
Continuous
 62
     7
370
    15
100
AcDbLine
 10
2573.130481104961
 20
930.9331280126
 30
0.0
 11
2573.48048110496
 21
930.5831280126003
 31
0.0
  0
LINE
  5
AF4
330
A3B
100
AcDbEntity
  8
0
  6
Continuous
 62
     7
370
    15
100
AcDbLine
 10
2567.78048110496
 20
930.5831280126003
 30
0.0
 11
2568.13048110496
 21
930.9331280126002
 31
0.0
  0
LINE
  5
AF5
330
A3B
100
AcDbEntity
  8
0
  6
Continuous
 62
     7
370
    15
100
AcDbLine
 10
2567.78048110496
 20
930.5831280126003
 30
0.0
 11
2563.88048110496
 21
930.5831280126003
 31
0.0
  0
LINE
  5
AF6
330
A3B
100
AcDbEntity
  8
0
  6
Continuous
 62
     7
370
    15
100
AcDbLine
 10
2563.53048110496
 20
930.9331280126
 30
0.0
 11
2563.88048110496
 21
930.5831280126003
 31
0.0
  0
LINE
  5
AF7
330
A3B
100
AcDbEntity
  8
0
  6
Continuous
 62
     7
370
    15
100
AcDbLine
 10
2558.18048110496
 20
930.5831280126001
 30
0.0
 11
2558.53048110496
 21
930.9331280126002
 31
0.0
  0
LINE
  5
AF8
330
A3B
100
AcDbEntity
  8
0
  6
Continuous
 62
     7
370
    15
100
AcDbLine
 10
2558.18048110496
 20
930.5831280126001
 30
0.0
 11
2554.28048110496
 21
930.5831280126001
 31
0.0
  0
LINE
  5
AF9
330
A3B
100
AcDbEntity
  8
0
  6
Continuous
 62
     7
370
    15
100
AcDbLine
 10
2553.930481104961
 20
930.9331280125999
 30
0.0
 11
2554.28048110496
 21
930.5831280126001
 31
0.0
  0
LINE
  5
AFA
330
A3B
100
AcDbEntity
  8
0
  6
Continuous
 62
     7
370
    15
100
AcDbLine
 10
2548.580481104961
 20
930.5831280126001
 30
0.0
 11
2548.930481104961
 21
930.9331280126002
 31
0.0
  0
LINE
  5
AFB
330
A3B
100
AcDbEntity
  8
0
  6
Continuous
 62
     7
370
    15
100
AcDbLine
 10
2548.580481104961
 20
930.5831280126001
 30
0.0
 11
2544.68048110496
 21
930.5831280126001
 31
0.0
  0
LINE
  5
AFC
330
A3B
100
AcDbEntity
  8
0
  6
Continuous
 62
     7
370
    15
100
AcDbLine
 10
2544.330481104961
 20
930.9331280125999
 30
0.0
 11
2544.68048110496
 21
930.5831280126001
 31
0.0
  0
LINE
  5
AFD
330
A3B
100
AcDbEntity
  8
0
  6
Continuous
 62
     7
370
    15
100
AcDbLine
 10
2538.98048110496
 20
930.5831280126001
 30
0.0
 11
2539.33048110496
 21
930.9331280126
 31
0.0
  0
LINE
  5
AFE
330
A3B
100
AcDbEntity
  8
0
  6
Continuous
 62
     7
370
    15
100
AcDbLine
 10
2538.980481104961
 20
930.5831280126001
 30
0.0
 11
2535.08048110496
 21
930.5831280126001
 31
0.0
  0
LINE
  5
AFF
330
A3B
100
AcDbEntity
  8
0
  6
Continuous
 62
     7
370
    15
100
AcDbLine
 10
2534.73048110496
 20
930.9331280125999
 30
0.0
 11
2535.08048110496
 21
930.5831280126001
 31
0.0
  0
LINE
  5
B00
330
A3B
100
AcDbEntity
  8
0
  6
Continuous
 62
     7
370
    15
100
AcDbLine
 10
2529.38048110496
 20
930.5831280126001
 30
0.0
 11
2529.73048110496
 21
930.9331280126
 31
0.0
  0
LINE
  5
B01
330
A3B
100
AcDbEntity
  8
0
  6
Continuous
 62
     7
370
    15
100
AcDbLine
 10
2529.38048110496
 20
930.5831280126001
 30
0.0
 11
2525.48048110496
 21
930.5831280126001
 31
0.0
  0
LINE
  5
B02
330
A3B
100
AcDbEntity
  8
0
  6
Continuous
 62
     7
370
    15
100
AcDbLine
 10
2525.130481104961
 20
930.9331280125999
 30
0.0
 11
2525.48048110496
 21
930.5831280126001
 31
0.0
  0
LINE
  5
B03
330
A3B
100
AcDbEntity
  8
0
  6
Continuous
 62
     7
370
    15
100
AcDbLine
 10
2612.33048110496
 20
928.8331280126026
 30
0.0
 11
2615.33048110496
 21
928.8331280126026
 31
0.0
  0
LINE
  5
B04
330
A3B
100
AcDbEntity
  8
0
  6
Continuous
 62
     7
370
    15
100
AcDbLine
 10
2612.33048110496
 20
929.0831280126026
 30
0.0
 11
2612.33048110496
 21
928.8331280126026
 31
0.0
  0
LINE
  5
B05
330
A3B
100
AcDbEntity
  8
0
  6
Continuous
 62
     7
370
    15
100
AcDbLine
 10
2615.33048110496
 20
929.0831280126026
 30
0.0
 11
2612.33048110496
 21
929.0831280126026
 31
0.0
  0
LINE
  5
B06
330
A3B
100
AcDbEntity
  8
0
  6
Continuous
 62
     7
370
    15
100
AcDbLine
 10
2615.33048110496
 20
928.8331280126026
 30
0.0
 11
2615.33048110496
 21
929.0831280126026
 31
0.0
  0
LINE
  5
B07
330
A3B
100
AcDbEntity
  8
0
  6
Continuous
 62
     7
370
    15
100
AcDbLine
 10
2614.991659338473
 20
921.1369019130932
 30
0.0
 11
2615.33048110496
 21
923.05845563746
 31
0.0
  0
ARC
  5
B08
330
A3B
100
AcDbEntity
  8
0
  6
Continuous
 62
     7
370
    15
100
AcDbCircle
 10
2614.302293911365
 20
921.2584556374602
 30
0.0
 40
0.7000000000000171
100
AcDbArc
 50
270.0
 51
349.9999999999896
  0
LINE
  5
B09
330
A3B
100
AcDbEntity
  8
0
  6
Continuous
 62
     7
370
    15
100
AcDbLine
 10
2613.358668298556
 20
920.5584556374603
 30
0.0
 11
2614.302293911365
 21
920.5584556374603
 31
0.0
  0
ARC
  5
B0A
330
A3B
100
AcDbEntity
  8
0
  6
Continuous
 62
     7
370
    15
100
AcDbCircle
 10
2613.358668298556
 20
921.2584556374602
 30
0.0
 40
0.7000000000000171
100
AcDbArc
 50
189.9999999999975
 51
270.0
  0
LINE
  5
B0B
330
A3B
100
AcDbEntity
  8
0
  6
Continuous
 62
     7
370
    15
100
AcDbLine
 10
2612.33048110496
 20
923.0584556374616
 30
0.0
 11
2612.669302871447
 21
921.1369019130934
 31
0.0
  0
LINE
  5
B0C
330
A3B
100
AcDbEntity
  8
0
  6
Continuous
 62
     7
370
    15
100
AcDbLine
 10
2612.33048110496
 20
928.8331280126026
 30
0.0
 11
2612.33048110496
 21
923.0584556374616
 31
0.0
  0
LINE
  5
B0D
330
A3B
100
AcDbEntity
  8
0
  6
Continuous
 62
     7
370
    15
100
AcDbLine
 10
2615.33048110496
 20
923.05845563746
 30
0.0
 11
2615.33048110496
 21
928.8331280126026
 31
0.0
  0
LINE
  5
B0E
330
A3B
100
AcDbEntity
  8
0
  6
Continuous
 62
     7
370
    15
100
AcDbLine
 10
2602.73048110496
 20
928.8331280126024
 30
0.0
 11
2605.73048110496
 21
928.8331280126024
 31
0.0
  0
LINE
  5
B0F
330
A3B
100
AcDbEntity
  8
0
  6
Continuous
 62
     7
370
    15
100
AcDbLine
 10
2602.73048110496
 20
929.0831280126026
 30
0.0
 11
2602.73048110496
 21
928.8331280126024
 31
0.0
  0
LINE
  5
B10
330
A3B
100
AcDbEntity
  8
0
  6
Continuous
 62
     7
370
    15
100
AcDbLine
 10
2605.73048110496
 20
929.0831280126026
 30
0.0
 11
2602.73048110496
 21
929.0831280126026
 31
0.0
  0
LINE
  5
B11
330
A3B
100
AcDbEntity
  8
0
  6
Continuous
 62
     7
370
    15
100
AcDbLine
 10
2605.73048110496
 20
928.8331280126024
 30
0.0
 11
2605.73048110496
 21
929.0831280126026
 31
0.0
  0
LINE
  5
B12
330
A3B
100
AcDbEntity
  8
0
  6
Continuous
 62
     7
370
    15
100
AcDbLine
 10
2605.391659338473
 20
921.1369019130932
 30
0.0
 11
2605.73048110496
 21
923.05845563746
 31
0.0
  0
ARC
  5
B13
330
A3B
100
AcDbEntity
  8
0
  6
Continuous
 62
     7
370
    15
100
AcDbCircle
 10
2604.702293911365
 20
921.2584556374602
 30
0.0
 40
0.7000000000000171
100
AcDbArc
 50
270.0
 51
349.9999999999896
  0
LINE
  5
B14
330
A3B
100
AcDbEntity
  8
0
  6
Continuous
 62
     7
370
    15
100
AcDbLine
 10
2603.758668298555
 20
920.5584556374601
 30
0.0
 11
2604.702293911365
 21
920.5584556374601
 31
0.0
  0
ARC
  5
B15
330
A3B
100
AcDbEntity
  8
0
  6
Continuous
 62
     7
370
    15
100
AcDbCircle
 10
2603.758668298555
 20
921.2584556374602
 30
0.0
 40
0.7000000000000171
100
AcDbArc
 50
189.9999999999975
 51
270.0
  0
LINE
  5
B16
330
A3B
100
AcDbEntity
  8
0
  6
Continuous
 62
     7
370
    15
100
AcDbLine
 10
2602.73048110496
 20
923.0584556374616
 30
0.0
 11
2603.069302871447
 21
921.1369019130934
 31
0.0
  0
LINE
  5
B17
330
A3B
100
AcDbEntity
  8
0
  6
Continuous
 62
     7
370
    15
100
AcDbLine
 10
2602.73048110496
 20
928.8331280126024
 30
0.0
 11
2602.73048110496
 21
923.0584556374616
 31
0.0
  0
LINE
  5
B18
330
A3B
100
AcDbEntity
  8
0
  6
Continuous
 62
     7
370
    15
100
AcDbLine
 10
2605.73048110496
 20
923.05845563746
 30
0.0
 11
2605.73048110496
 21
928.8331280126024
 31
0.0
  0
LINE
  5
B19
330
A3B
100
AcDbEntity
  8
0
  6
Continuous
 62
     7
370
    15
100
AcDbLine
 10
2593.13048110496
 20
928.8331280126024
 30
0.0
 11
2596.13048110496
 21
928.8331280126024
 31
0.0
  0
LINE
  5
B1A
330
A3B
100
AcDbEntity
  8
0
  6
Continuous
 62
     7
370
    15
100
AcDbLine
 10
2593.13048110496
 20
929.0831280126026
 30
0.0
 11
2593.13048110496
 21
928.8331280126024
 31
0.0
  0
LINE
  5
B1B
330
A3B
100
AcDbEntity
  8
0
  6
Continuous
 62
     7
370
    15
100
AcDbLine
 10
2596.13048110496
 20
929.0831280126026
 30
0.0
 11
2593.13048110496
 21
929.0831280126026
 31
0.0
  0
LINE
  5
B1C
330
A3B
100
AcDbEntity
  8
0
  6
Continuous
 62
     7
370
    15
100
AcDbLine
 10
2596.13048110496
 20
928.8331280126024
 30
0.0
 11
2596.13048110496
 21
929.0831280126026
 31
0.0
  0
LINE
  5
B1D
330
A3B
100
AcDbEntity
  8
0
  6
Continuous
 62
     7
370
    15
100
AcDbLine
 10
2595.791659338473
 20
921.1369019130932
 30
0.0
 11
2596.13048110496
 21
923.05845563746
 31
0.0
  0
ARC
  5
B1E
330
A3B
100
AcDbEntity
  8
0
  6
Continuous
 62
     7
370
    15
100
AcDbCircle
 10
2595.102293911365
 20
921.2584556374602
 30
0.0
 40
0.7000000000000171
100
AcDbArc
 50
270.0
 51
349.9999999999896
  0
LINE
  5
B1F
330
A3B
100
AcDbEntity
  8
0
  6
Continuous
 62
     7
370
    15
100
AcDbLine
 10
2594.158668298556
 20
920.5584556374601
 30
0.0
 11
2595.102293911365
 21
920.5584556374601
 31
0.0
  0
ARC
  5
B20
330
A3B
100
AcDbEntity
  8
0
  6
Continuous
 62
     7
370
    15
100
AcDbCircle
 10
2594.158668298556
 20
921.2584556374602
 30
0.0
 40
0.7000000000000171
100
AcDbArc
 50
189.9999999999975
 51
270.0
  0
LINE
  5
B21
330
A3B
100
AcDbEntity
  8
0
  6
Continuous
 62
     7
370
    15
100
AcDbLine
 10
2593.13048110496
 20
923.0584556374616
 30
0.0
 11
2593.469302871447
 21
921.1369019130932
 31
0.0
  0
LINE
  5
B22
330
A3B
100
AcDbEntity
  8
0
  6
Continuous
 62
     7
370
    15
100
AcDbLine
 10
2593.13048110496
 20
928.8331280126024
 30
0.0
 11
2593.13048110496
 21
923.0584556374616
 31
0.0
  0
LINE
  5
B23
330
A3B
100
AcDbEntity
  8
0
  6
Continuous
 62
     7
370
    15
100
AcDbLine
 10
2596.13048110496
 20
923.05845563746
 30
0.0
 11
2596.13048110496
 21
928.8331280126024
 31
0.0
  0
LINE
  5
B24
330
A3B
100
AcDbEntity
  8
0
  6
Continuous
 62
     7
370
    15
100
AcDbLine
 10
2583.53048110496
 20
928.8331280126024
 30
0.0
 11
2586.53048110496
 21
928.8331280126024
 31
0.0
  0
LINE
  5
B25
330
A3B
100
AcDbEntity
  8
0
  6
Continuous
 62
     7
370
    15
100
AcDbLine
 10
2583.53048110496
 20
929.0831280126024
 30
0.0
 11
2583.53048110496
 21
928.8331280126024
 31
0.0
  0
LINE
  5
B26
330
A3B
100
AcDbEntity
  8
0
  6
Continuous
 62
     7
370
    15
100
AcDbLine
 10
2586.53048110496
 20
929.0831280126024
 30
0.0
 11
2583.53048110496
 21
929.0831280126024
 31
0.0
  0
LINE
  5
B27
330
A3B
100
AcDbEntity
  8
0
  6
Continuous
 62
     7
370
    15
100
AcDbLine
 10
2586.53048110496
 20
928.8331280126024
 30
0.0
 11
2586.53048110496
 21
929.0831280126024
 31
0.0
  0
LINE
  5
B28
330
A3B
100
AcDbEntity
  8
0
  6
Continuous
 62
     7
370
    15
100
AcDbLine
 10
2586.191659338473
 20
921.136901913093
 30
0.0
 11
2586.53048110496
 21
923.05845563746
 31
0.0
  0
ARC
  5
B29
330
A3B
100
AcDbEntity
  8
0
  6
Continuous
 62
     7
370
    15
100
AcDbCircle
 10
2585.502293911364
 20
921.2584556374601
 30
0.0
 40
0.7000000000000171
100
AcDbArc
 50
270.0
 51
349.9999999999896
  0
LINE
  5
B2A
330
A3B
100
AcDbEntity
  8
0
  6
Continuous
 62
     7
370
    15
100
AcDbLine
 10
2584.558668298555
 20
920.5584556374601
 30
0.0
 11
2585.502293911364
 21
920.5584556374601
 31
0.0
  0
ARC
  5
B2B
330
A3B
100
AcDbEntity
  8
0
  6
Continuous
 62
     7
370
    15
100
AcDbCircle
 10
2584.558668298555
 20
921.2584556374601
 30
0.0
 40
0.7000000000000171
100
AcDbArc
 50
189.9999999999975
 51
270.0
  0
LINE
  5
B2C
330
A3B
100
AcDbEntity
  8
0
  6
Continuous
 62
     7
370
    15
100
AcDbLine
 10
2583.53048110496
 20
923.0584556374614
 30
0.0
 11
2583.869302871447
 21
921.1369019130932
 31
0.0
  0
LINE
  5
B2D
330
A3B
100
AcDbEntity
  8
0
  6
Continuous
 62
     7
370
    15
100
AcDbLine
 10
2583.53048110496
 20
928.8331280126024
 30
0.0
 11
2583.53048110496
 21
923.0584556374614
 31
0.0
  0
LINE
  5
B2E
330
A3B
100
AcDbEntity
  8
0
  6
Continuous
 62
     7
370
    15
100
AcDbLine
 10
2586.53048110496
 20
923.05845563746
 30
0.0
 11
2586.53048110496
 21
928.8331280126024
 31
0.0
  0
LINE
  5
B2F
330
A3B
100
AcDbEntity
  8
0
  6
Continuous
 62
     7
370
    15
100
AcDbLine
 10
2573.93048110496
 20
928.8331280126024
 30
0.0
 11
2576.93048110496
 21
928.8331280126024
 31
0.0
  0
LINE
  5
B30
330
A3B
100
AcDbEntity
  8
0
  6
Continuous
 62
     7
370
    15
100
AcDbLine
 10
2573.93048110496
 20
929.0831280126024
 30
0.0
 11
2573.93048110496
 21
928.8331280126024
 31
0.0
  0
LINE
  5
B31
330
A3B
100
AcDbEntity
  8
0
  6
Continuous
 62
     7
370
    15
100
AcDbLine
 10
2576.93048110496
 20
929.0831280126024
 30
0.0
 11
2573.93048110496
 21
929.0831280126024
 31
0.0
  0
LINE
  5
B32
330
A3B
100
AcDbEntity
  8
0
  6
Continuous
 62
     7
370
    15
100
AcDbLine
 10
2576.93048110496
 20
928.8331280126024
 30
0.0
 11
2576.93048110496
 21
929.0831280126024
 31
0.0
  0
LINE
  5
B33
330
A3B
100
AcDbEntity
  8
0
  6
Continuous
 62
     7
370
    15
100
AcDbLine
 10
2576.591659338473
 20
921.136901913093
 30
0.0
 11
2576.93048110496
 21
923.0584556374598
 31
0.0
  0
ARC
  5
B34
330
A3B
100
AcDbEntity
  8
0
  6
Continuous
 62
     7
370
    15
100
AcDbCircle
 10
2575.902293911365
 20
921.2584556374601
 30
0.0
 40
0.7000000000000171
100
AcDbArc
 50
270.0
 51
349.9999999999896
  0
LINE
  5
B35
330
A3B
100
AcDbEntity
  8
0
  6
Continuous
 62
     7
370
    15
100
AcDbLine
 10
2574.958668298556
 20
920.5584556374601
 30
0.0
 11
2575.902293911365
 21
920.5584556374601
 31
0.0
  0
ARC
  5
B36
330
A3B
100
AcDbEntity
  8
0
  6
Continuous
 62
     7
370
    15
100
AcDbCircle
 10
2574.958668298556
 20
921.2584556374601
 30
0.0
 40
0.7000000000000344
100
AcDbArc
 50
189.9999999999975
 51
270.0
  0
LINE
  5
B37
330
A3B
100
AcDbEntity
  8
0
  6
Continuous
 62
     7
370
    15
100
AcDbLine
 10
2573.930481104961
 20
923.0584556374612
 30
0.0
 11
2574.269302871447
 21
921.1369019130932
 31
0.0
  0
LINE
  5
B38
330
A3B
100
AcDbEntity
  8
0
  6
Continuous
 62
     7
370
    15
100
AcDbLine
 10
2573.93048110496
 20
928.8331280126024
 30
0.0
 11
2573.930481104961
 21
923.0584556374612
 31
0.0
  0
LINE
  5
B39
330
A3B
100
AcDbEntity
  8
0
  6
Continuous
 62
     7
370
    15
100
AcDbLine
 10
2576.93048110496
 20
923.0584556374598
 30
0.0
 11
2576.93048110496
 21
928.8331280126024
 31
0.0
  0
LINE
  5
B3A
330
A3B
100
AcDbEntity
  8
0
  6
Continuous
 62
     7
370
    15
100
AcDbLine
 10
2564.33048110496
 20
928.8331280126023
 30
0.0
 11
2567.33048110496
 21
928.8331280126023
 31
0.0
  0
LINE
  5
B3B
330
A3B
100
AcDbEntity
  8
0
  6
Continuous
 62
     7
370
    15
100
AcDbLine
 10
2564.33048110496
 20
929.0831280126022
 30
0.0
 11
2564.33048110496
 21
928.8331280126023
 31
0.0
  0
LINE
  5
B3C
330
A3B
100
AcDbEntity
  8
0
  6
Continuous
 62
     7
370
    15
100
AcDbLine
 10
2567.33048110496
 20
929.0831280126022
 30
0.0
 11
2564.33048110496
 21
929.0831280126022
 31
0.0
  0
LINE
  5
B3D
330
A3B
100
AcDbEntity
  8
0
  6
Continuous
 62
     7
370
    15
100
AcDbLine
 10
2567.33048110496
 20
928.8331280126023
 30
0.0
 11
2567.33048110496
 21
929.0831280126022
 31
0.0
  0
LINE
  5
B3E
330
A3B
100
AcDbEntity
  8
0
  6
Continuous
 62
     7
370
    15
100
AcDbLine
 10
2566.991659338473
 20
921.1369019130929
 30
0.0
 11
2567.33048110496
 21
923.0584556374598
 31
0.0
  0
ARC
  5
B3F
330
A3B
100
AcDbEntity
  8
0
  6
Continuous
 62
     7
370
    15
100
AcDbCircle
 10
2566.302293911365
 20
921.2584556374599
 30
0.0
 40
0.7000000000000171
100
AcDbArc
 50
270.0
 51
349.9999999999896
  0
LINE
  5
B40
330
A3B
100
AcDbEntity
  8
0
  6
Continuous
 62
     7
370
    15
100
AcDbLine
 10
2565.358668298556
 20
920.5584556374599
 30
0.0
 11
2566.302293911365
 21
920.5584556374599
 31
0.0
  0
ARC
  5
B41
330
A3B
100
AcDbEntity
  8
0
  6
Continuous
 62
     7
370
    15
100
AcDbCircle
 10
2565.358668298556
 20
921.2584556374599
 30
0.0
 40
0.7000000000000344
100
AcDbArc
 50
189.9999999999975
 51
270.0
  0
LINE
  5
B42
330
A3B
100
AcDbEntity
  8
0
  6
Continuous
 62
     7
370
    15
100
AcDbLine
 10
2564.33048110496
 20
923.0584556374612
 30
0.0
 11
2564.669302871447
 21
921.1369019130932
 31
0.0
  0
LINE
  5
B43
330
A3B
100
AcDbEntity
  8
0
  6
Continuous
 62
     7
370
    15
100
AcDbLine
 10
2564.33048110496
 20
928.8331280126023
 30
0.0
 11
2564.33048110496
 21
923.0584556374612
 31
0.0
  0
LINE
  5
B44
330
A3B
100
AcDbEntity
  8
0
  6
Continuous
 62
     7
370
    15
100
AcDbLine
 10
2567.33048110496
 20
923.0584556374598
 30
0.0
 11
2567.33048110496
 21
928.8331280126023
 31
0.0
  0
LINE
  5
B45
330
A3B
100
AcDbEntity
  8
0
  6
Continuous
 62
     7
370
    15
100
AcDbLine
 10
2554.73048110496
 20
928.8331280126023
 30
0.0
 11
2557.73048110496
 21
928.8331280126023
 31
0.0
  0
LINE
  5
B46
330
A3B
100
AcDbEntity
  8
0
  6
Continuous
 62
     7
370
    15
100
AcDbLine
 10
2554.73048110496
 20
929.0831280126022
 30
0.0
 11
2554.73048110496
 21
928.8331280126023
 31
0.0
  0
LINE
  5
B47
330
A3B
100
AcDbEntity
  8
0
  6
Continuous
 62
     7
370
    15
100
AcDbLine
 10
2557.73048110496
 20
929.0831280126022
 30
0.0
 11
2554.73048110496
 21
929.0831280126022
 31
0.0
  0
LINE
  5
B48
330
A3B
100
AcDbEntity
  8
0
  6
Continuous
 62
     7
370
    15
100
AcDbLine
 10
2557.73048110496
 20
928.8331280126023
 30
0.0
 11
2557.73048110496
 21
929.0831280126022
 31
0.0
  0
LINE
  5
B49
330
A3B
100
AcDbEntity
  8
0
  6
Continuous
 62
     7
370
    15
100
AcDbLine
 10
2557.391659338473
 20
921.1369019130929
 30
0.0
 11
2557.73048110496
 21
923.0584556374596
 31
0.0
  0
ARC
  5
B4A
330
A3B
100
AcDbEntity
  8
0
  6
Continuous
 62
     7
370
    15
100
AcDbCircle
 10
2556.702293911365
 20
921.2584556374599
 30
0.0
 40
0.7000000000000171
100
AcDbArc
 50
270.0
 51
349.9999999999896
  0
LINE
  5
B4B
330
A3B
100
AcDbEntity
  8
0
  6
Continuous
 62
     7
370
    15
100
AcDbLine
 10
2555.758668298556
 20
920.5584556374599
 30
0.0
 11
2556.702293911365
 21
920.5584556374599
 31
0.0
  0
ARC
  5
B4C
330
A3B
100
AcDbEntity
  8
0
  6
Continuous
 62
     7
370
    15
100
AcDbCircle
 10
2555.758668298555
 20
921.2584556374599
 30
0.0
 40
0.7000000000000344
100
AcDbArc
 50
189.9999999999975
 51
270.0
  0
LINE
  5
B4D
330
A3B
100
AcDbEntity
  8
0
  6
Continuous
 62
     7
370
    15
100
AcDbLine
 10
2554.73048110496
 20
923.0584556374612
 30
0.0
 11
2555.069302871447
 21
921.136901913093
 31
0.0
  0
LINE
  5
B4E
330
A3B
100
AcDbEntity
  8
0
  6
Continuous
 62
     7
370
    15
100
AcDbLine
 10
2554.73048110496
 20
928.8331280126023
 30
0.0
 11
2554.73048110496
 21
923.0584556374612
 31
0.0
  0
LINE
  5
B4F
330
A3B
100
AcDbEntity
  8
0
  6
Continuous
 62
     7
370
    15
100
AcDbLine
 10
2557.73048110496
 20
923.0584556374596
 30
0.0
 11
2557.73048110496
 21
928.8331280126023
 31
0.0
  0
LINE
  5
B50
330
A3B
100
AcDbEntity
  8
0
  6
Continuous
 62
     7
370
    15
100
AcDbLine
 10
2545.13048110496
 20
928.8331280126021
 30
0.0
 11
2548.13048110496
 21
928.8331280126021
 31
0.0
  0
LINE
  5
B51
330
A3B
100
AcDbEntity
  8
0
  6
Continuous
 62
     7
370
    15
100
AcDbLine
 10
2545.13048110496
 20
929.0831280126022
 30
0.0
 11
2545.13048110496
 21
928.8331280126021
 31
0.0
  0
LINE
  5
B52
330
A3B
100
AcDbEntity
  8
0
  6
Continuous
 62
     7
370
    15
100
AcDbLine
 10
2548.13048110496
 20
929.0831280126022
 30
0.0
 11
2545.13048110496
 21
929.0831280126022
 31
0.0
  0
LINE
  5
B53
330
A3B
100
AcDbEntity
  8
0
  6
Continuous
 62
     7
370
    15
100
AcDbLine
 10
2548.13048110496
 20
928.8331280126021
 30
0.0
 11
2548.13048110496
 21
929.0831280126022
 31
0.0
  0
LINE
  5
B54
330
A3B
100
AcDbEntity
  8
0
  6
Continuous
 62
     7
370
    15
100
AcDbLine
 10
2547.791659338473
 20
921.1369019130929
 30
0.0
 11
2548.13048110496
 21
923.0584556374596
 31
0.0
  0
ARC
  5
B55
330
A3B
100
AcDbEntity
  8
0
  6
Continuous
 62
     7
370
    15
100
AcDbCircle
 10
2547.102293911365
 20
921.2584556374599
 30
0.0
 40
0.7000000000000359
100
AcDbArc
 50
270.0
 51
349.9999999999896
  0
LINE
  5
B56
330
A3B
100
AcDbEntity
  8
0
  6
Continuous
 62
     7
370
    15
100
AcDbLine
 10
2546.158668298556
 20
920.5584556374599
 30
0.0
 11
2547.102293911365
 21
920.5584556374599
 31
0.0
  0
ARC
  5
B57
330
A3B
100
AcDbEntity
  8
0
  6
Continuous
 62
     7
370
    15
100
AcDbCircle
 10
2546.158668298556
 20
921.2584556374599
 30
0.0
 40
0.7000000000000344
100
AcDbArc
 50
189.9999999999975
 51
270.0
  0
LINE
  5
B58
330
A3B
100
AcDbEntity
  8
0
  6
Continuous
 62
     7
370
    15
100
AcDbLine
 10
2545.13048110496
 20
923.0584556374612
 30
0.0
 11
2545.469302871447
 21
921.136901913093
 31
0.0
  0
LINE
  5
B59
330
A3B
100
AcDbEntity
  8
0
  6
Continuous
 62
     7
370
    15
100
AcDbLine
 10
2545.13048110496
 20
928.8331280126021
 30
0.0
 11
2545.13048110496
 21
923.0584556374612
 31
0.0
  0
LINE
  5
B5A
330
A3B
100
AcDbEntity
  8
0
  6
Continuous
 62
     7
370
    15
100
AcDbLine
 10
2548.13048110496
 20
923.0584556374596
 30
0.0
 11
2548.13048110496
 21
928.8331280126021
 31
0.0
  0
LINE
  5
B5B
330
A3B
100
AcDbEntity
  8
0
  6
Continuous
 62
     7
370
    15
100
AcDbLine
 10
2535.53048110496
 20
928.8331280126021
 30
0.0
 11
2538.53048110496
 21
928.8331280126021
 31
0.0
  0
LINE
  5
B5C
330
A3B
100
AcDbEntity
  8
0
  6
Continuous
 62
     7
370
    15
100
AcDbLine
 10
2535.53048110496
 20
929.0831280126022
 30
0.0
 11
2535.53048110496
 21
928.8331280126021
 31
0.0
  0
LINE
  5
B5D
330
A3B
100
AcDbEntity
  8
0
  6
Continuous
 62
     7
370
    15
100
AcDbLine
 10
2538.53048110496
 20
929.0831280126022
 30
0.0
 11
2535.53048110496
 21
929.0831280126022
 31
0.0
  0
LINE
  5
B5E
330
A3B
100
AcDbEntity
  8
0
  6
Continuous
 62
     7
370
    15
100
AcDbLine
 10
2538.53048110496
 20
928.8331280126021
 30
0.0
 11
2538.53048110496
 21
929.0831280126022
 31
0.0
  0
LINE
  5
B5F
330
A3B
100
AcDbEntity
  8
0
  6
Continuous
 62
     7
370
    15
100
AcDbLine
 10
2525.93048110496
 20
928.8331280126021
 30
0.0
 11
2528.93048110496
 21
928.8331280126021
 31
0.0
  0
LINE
  5
B60
330
A3B
100
AcDbEntity
  8
0
  6
Continuous
 62
     7
370
    15
100
AcDbLine
 10
2525.93048110496
 20
929.0831280126022
 30
0.0
 11
2525.93048110496
 21
928.8331280126021
 31
0.0
  0
LINE
  5
B61
330
A3B
100
AcDbEntity
  8
0
  6
Continuous
 62
     7
370
    15
100
AcDbLine
 10
2528.93048110496
 20
929.0831280126022
 30
0.0
 11
2525.93048110496
 21
929.0831280126022
 31
0.0
  0
LINE
  5
B62
330
A3B
100
AcDbEntity
  8
0
  6
Continuous
 62
     7
370
    15
100
AcDbLine
 10
2528.93048110496
 20
928.8331280126021
 30
0.0
 11
2528.93048110496
 21
929.0831280126022
 31
0.0
  0
LINE
  5
B63
330
A3B
100
AcDbEntity
  8
0
  6
Continuous
 62
     7
370
    15
100
AcDbLine
 10
2538.191659338473
 20
921.1369019130929
 30
0.0
 11
2538.53048110496
 21
923.0584556374596
 31
0.0
  0
ARC
  5
B64
330
A3B
100
AcDbEntity
  8
0
  6
Continuous
 62
     7
370
    15
100
AcDbCircle
 10
2537.502293911365
 20
921.2584556374599
 30
0.0
 40
0.7000000000000359
100
AcDbArc
 50
270.0
 51
349.9999999999896
  0
LINE
  5
B65
330
A3B
100
AcDbEntity
  8
0
  6
Continuous
 62
     7
370
    15
100
AcDbLine
 10
2536.558668298555
 20
920.5584556374597
 30
0.0
 11
2537.502293911365
 21
920.5584556374597
 31
0.0
  0
ARC
  5
B66
330
A3B
100
AcDbEntity
  8
0
  6
Continuous
 62
     7
370
    15
100
AcDbCircle
 10
2536.558668298555
 20
921.2584556374599
 30
0.0
 40
0.7000000000000064
100
AcDbArc
 50
189.9999999999975
 51
270.0
  0
LINE
  5
B67
330
A3B
100
AcDbEntity
  8
0
  6
Continuous
 62
     7
370
    15
100
AcDbLine
 10
2535.53048110496
 20
923.058455637461
 30
0.0
 11
2535.869302871447
 21
921.1369019130929
 31
0.0
  0
LINE
  5
B68
330
A3B
100
AcDbEntity
  8
0
  6
Continuous
 62
     7
370
    15
100
AcDbLine
 10
2535.53048110496
 20
928.8331280126021
 30
0.0
 11
2535.53048110496
 21
923.058455637461
 31
0.0
  0
LINE
  5
B69
330
A3B
100
AcDbEntity
  8
0
  6
Continuous
 62
     7
370
    15
100
AcDbLine
 10
2538.53048110496
 20
923.0584556374596
 30
0.0
 11
2538.53048110496
 21
928.8331280126021
 31
0.0
  0
LINE
  5
B6A
330
A3B
100
AcDbEntity
  8
0
  6
Continuous
 62
     7
370
    15
100
AcDbLine
 10
2528.591659338474
 20
921.1369019130929
 30
0.0
 11
2528.93048110496
 21
923.0584556374596
 31
0.0
  0
ARC
  5
B6B
330
A3B
100
AcDbEntity
  8
0
  6
Continuous
 62
     7
370
    15
100
AcDbCircle
 10
2527.902293911365
 20
921.2584556374597
 30
0.0
 40
0.7000000000000031
100
AcDbArc
 50
270.0
 51
349.9999999999896
  0
LINE
  5
B6C
330
A3B
100
AcDbEntity
  8
0
  6
Continuous
 62
     7
370
    15
100
AcDbLine
 10
2526.958668298556
 20
920.5584556374597
 30
0.0
 11
2527.902293911365
 21
920.5584556374597
 31
0.0
  0
ARC
  5
B6D
330
A3B
100
AcDbEntity
  8
0
  6
Continuous
 62
     7
370
    15
100
AcDbCircle
 10
2526.958668298556
 20
921.2584556374597
 30
0.0
 40
0.7000000000000015
100
AcDbArc
 50
189.9999999999975
 51
270.0
  0
LINE
  5
B6E
330
A3B
100
AcDbEntity
  8
0
  6
Continuous
 62
     7
370
    15
100
AcDbLine
 10
2525.93048110496
 20
923.058455637461
 30
0.0
 11
2526.269302871447
 21
921.1369019130929
 31
0.0
  0
LINE
  5
B6F
330
A3B
100
AcDbEntity
  8
0
  6
Continuous
 62
     7
370
    15
100
AcDbLine
 10
2525.93048110496
 20
928.8331280126021
 30
0.0
 11
2525.93048110496
 21
923.058455637461
 31
0.0
  0
LINE
  5
B70
330
A3B
100
AcDbEntity
  8
0
  6
Continuous
 62
     7
370
    15
100
AcDbLine
 10
2528.93048110496
 20
923.0584556374596
 30
0.0
 11
2528.93048110496
 21
928.8331280126021
 31
0.0
  0
LINE
  5
B71
330
A3B
100
AcDbEntity
  8
0
  6
Continuous
 62
     7
370
    15
100
AcDbLine
 10
2612.33048110496
 20
929.3331280126025
 30
0.0
 11
2615.33048110496
 21
929.3331280126025
 31
0.0
  0
LINE
  5
B72
330
A3B
100
AcDbEntity
  8
0
  6
Continuous
 62
     7
370
    15
100
AcDbLine
 10
2612.33048110496
 20
929.3331280126025
 30
0.0
 11
2612.33048110496
 21
929.0831280126026
 31
0.0
  0
LINE
  5
B73
330
A3B
100
AcDbEntity
  8
0
  6
Continuous
 62
     7
370
    15
100
AcDbLine
 10
2615.33048110496
 20
929.0831280126026
 30
0.0
 11
2615.33048110496
 21
929.3331280126025
 31
0.0
  0
LINE
  5
B74
330
A3B
100
AcDbEntity
  8
0
  6
Continuous
 62
     7
370
    15
100
AcDbLine
 10
2602.73048110496
 20
929.3331280126025
 30
0.0
 11
2605.73048110496
 21
929.3331280126025
 31
0.0
  0
LINE
  5
B75
330
A3B
100
AcDbEntity
  8
0
  6
Continuous
 62
     7
370
    15
100
AcDbLine
 10
2602.73048110496
 20
929.3331280126025
 30
0.0
 11
2602.73048110496
 21
929.0831280126026
 31
0.0
  0
LINE
  5
B76
330
A3B
100
AcDbEntity
  8
0
  6
Continuous
 62
     7
370
    15
100
AcDbLine
 10
2605.73048110496
 20
929.0831280126026
 30
0.0
 11
2605.73048110496
 21
929.3331280126025
 31
0.0
  0
LINE
  5
B77
330
A3B
100
AcDbEntity
  8
0
  6
Continuous
 62
     7
370
    15
100
AcDbLine
 10
2593.13048110496
 20
929.3331280126025
 30
0.0
 11
2596.13048110496
 21
929.3331280126025
 31
0.0
  0
LINE
  5
B78
330
A3B
100
AcDbEntity
  8
0
  6
Continuous
 62
     7
370
    15
100
AcDbLine
 10
2593.13048110496
 20
929.3331280126025
 30
0.0
 11
2593.13048110496
 21
929.0831280126026
 31
0.0
  0
LINE
  5
B79
330
A3B
100
AcDbEntity
  8
0
  6
Continuous
 62
     7
370
    15
100
AcDbLine
 10
2596.13048110496
 20
929.0831280126026
 30
0.0
 11
2596.13048110496
 21
929.3331280126025
 31
0.0
  0
LINE
  5
B7A
330
A3B
100
AcDbEntity
  8
0
  6
Continuous
 62
     7
370
    15
100
AcDbLine
 10
2583.53048110496
 20
929.3331280126023
 30
0.0
 11
2586.53048110496
 21
929.3331280126023
 31
0.0
  0
LINE
  5
B7B
330
A3B
100
AcDbEntity
  8
0
  6
Continuous
 62
     7
370
    15
100
AcDbLine
 10
2583.53048110496
 20
929.3331280126023
 30
0.0
 11
2583.53048110496
 21
929.0831280126024
 31
0.0
  0
LINE
  5
B7C
330
A3B
100
AcDbEntity
  8
0
  6
Continuous
 62
     7
370
    15
100
AcDbLine
 10
2586.53048110496
 20
929.0831280126024
 30
0.0
 11
2586.53048110496
 21
929.3331280126023
 31
0.0
  0
LINE
  5
B7D
330
A3B
100
AcDbEntity
  8
0
  6
Continuous
 62
     7
370
    15
100
AcDbLine
 10
2573.93048110496
 20
929.3331280126023
 30
0.0
 11
2576.93048110496
 21
929.3331280126023
 31
0.0
  0
LINE
  5
B7E
330
A3B
100
AcDbEntity
  8
0
  6
Continuous
 62
     7
370
    15
100
AcDbLine
 10
2573.93048110496
 20
929.3331280126023
 30
0.0
 11
2573.93048110496
 21
929.0831280126024
 31
0.0
  0
LINE
  5
B7F
330
A3B
100
AcDbEntity
  8
0
  6
Continuous
 62
     7
370
    15
100
AcDbLine
 10
2576.93048110496
 20
929.0831280126024
 30
0.0
 11
2576.93048110496
 21
929.3331280126023
 31
0.0
  0
LINE
  5
B80
330
A3B
100
AcDbEntity
  8
0
  6
Continuous
 62
     7
370
    15
100
AcDbLine
 10
2564.33048110496
 20
929.3331280126023
 30
0.0
 11
2567.33048110496
 21
929.3331280126023
 31
0.0
  0
LINE
  5
B81
330
A3B
100
AcDbEntity
  8
0
  6
Continuous
 62
     7
370
    15
100
AcDbLine
 10
2564.33048110496
 20
929.3331280126023
 30
0.0
 11
2564.33048110496
 21
929.0831280126022
 31
0.0
  0
LINE
  5
B82
330
A3B
100
AcDbEntity
  8
0
  6
Continuous
 62
     7
370
    15
100
AcDbLine
 10
2567.33048110496
 20
929.0831280126022
 30
0.0
 11
2567.33048110496
 21
929.3331280126023
 31
0.0
  0
LINE
  5
B83
330
A3B
100
AcDbEntity
  8
0
  6
Continuous
 62
     7
370
    15
100
AcDbLine
 10
2554.73048110496
 20
929.3331280126023
 30
0.0
 11
2557.73048110496
 21
929.3331280126023
 31
0.0
  0
LINE
  5
B84
330
A3B
100
AcDbEntity
  8
0
  6
Continuous
 62
     7
370
    15
100
AcDbLine
 10
2554.73048110496
 20
929.3331280126023
 30
0.0
 11
2554.73048110496
 21
929.0831280126022
 31
0.0
  0
LINE
  5
B85
330
A3B
100
AcDbEntity
  8
0
  6
Continuous
 62
     7
370
    15
100
AcDbLine
 10
2557.73048110496
 20
929.0831280126022
 30
0.0
 11
2557.73048110496
 21
929.3331280126023
 31
0.0
  0
LINE
  5
B86
330
A3B
100
AcDbEntity
  8
0
  6
Continuous
 62
     7
370
    15
100
AcDbLine
 10
2545.13048110496
 20
929.3331280126022
 30
0.0
 11
2548.13048110496
 21
929.3331280126022
 31
0.0
  0
LINE
  5
B87
330
A3B
100
AcDbEntity
  8
0
  6
Continuous
 62
     7
370
    15
100
AcDbLine
 10
2545.13048110496
 20
929.3331280126022
 30
0.0
 11
2545.13048110496
 21
929.0831280126022
 31
0.0
  0
LINE
  5
B88
330
A3B
100
AcDbEntity
  8
0
  6
Continuous
 62
     7
370
    15
100
AcDbLine
 10
2548.13048110496
 20
929.0831280126022
 30
0.0
 11
2548.13048110496
 21
929.3331280126022
 31
0.0
  0
LINE
  5
B89
330
A3B
100
AcDbEntity
  8
0
  6
Continuous
 62
     7
370
    15
100
AcDbLine
 10
2525.93048110496
 20
929.3331280126022
 30
0.0
 11
2528.93048110496
 21
929.3331280126022
 31
0.0
  0
LINE
  5
B8A
330
A3B
100
AcDbEntity
  8
0
  6
Continuous
 62
     7
370
    15
100
AcDbLine
 10
2525.93048110496
 20
929.3331280126022
 30
0.0
 11
2525.93048110496
 21
929.0831280126022
 31
0.0
  0
LINE
  5
B8B
330
A3B
100
AcDbEntity
  8
0
  6
Continuous
 62
     7
370
    15
100
AcDbLine
 10
2528.93048110496
 20
929.0831280126022
 30
0.0
 11
2528.93048110496
 21
929.3331280126022
 31
0.0
  0
LINE
  5
B8C
330
A3B
100
AcDbEntity
  8
0
  6
Continuous
 62
     7
370
    15
100
AcDbLine
 10
2535.53048110496
 20
929.3331280126022
 30
0.0
 11
2538.53048110496
 21
929.3331280126022
 31
0.0
  0
LINE
  5
B8D
330
A3B
100
AcDbEntity
  8
0
  6
Continuous
 62
     7
370
    15
100
AcDbLine
 10
2535.53048110496
 20
929.3331280126022
 30
0.0
 11
2535.53048110496
 21
929.0831280126022
 31
0.0
  0
LINE
  5
B8E
330
A3B
100
AcDbEntity
  8
0
  6
Continuous
 62
     7
370
    15
100
AcDbLine
 10
2538.53048110496
 20
929.0831280126022
 30
0.0
 11
2538.53048110496
 21
929.3331280126022
 31
0.0
  0
LINE
  5
B8F
330
A3B
100
AcDbEntity
  8
0
  6
Continuous
 62
     7
370
    15
100
AcDbLine
 10
2612.33048110496
 20
930.5831280126005
 30
0.0
 11
2612.33048110496
 21
929.3331280126025
 31
0.0
  0
LINE
  5
B90
330
A3B
100
AcDbEntity
  8
0
  6
Continuous
 62
     7
370
    15
100
AcDbLine
 10
2615.33048110496
 20
929.3331280126025
 30
0.0
 11
2615.33048110496
 21
930.5831280126005
 31
0.0
  0
LINE
  5
B91
330
A3B
100
AcDbEntity
  8
0
  6
Continuous
 62
     7
370
    15
100
AcDbLine
 10
2602.73048110496
 20
930.5831280126005
 30
0.0
 11
2602.73048110496
 21
929.3331280126025
 31
0.0
  0
LINE
  5
B92
330
A3B
100
AcDbEntity
  8
0
  6
Continuous
 62
     7
370
    15
100
AcDbLine
 10
2605.73048110496
 20
929.3331280126025
 30
0.0
 11
2605.73048110496
 21
930.5831280126005
 31
0.0
  0
LINE
  5
B93
330
A3B
100
AcDbEntity
  8
0
  6
Continuous
 62
     7
370
    15
100
AcDbLine
 10
2593.13048110496
 20
930.5831280126005
 30
0.0
 11
2593.13048110496
 21
929.3331280126025
 31
0.0
  0
LINE
  5
B94
330
A3B
100
AcDbEntity
  8
0
  6
Continuous
 62
     7
370
    15
100
AcDbLine
 10
2596.13048110496
 20
929.3331280126025
 30
0.0
 11
2596.13048110496
 21
930.5831280126005
 31
0.0
  0
LINE
  5
B95
330
A3B
100
AcDbEntity
  8
0
  6
Continuous
 62
     7
370
    15
100
AcDbLine
 10
2583.53048110496
 20
930.5831280126003
 30
0.0
 11
2583.53048110496
 21
929.3331280126023
 31
0.0
  0
LINE
  5
B96
330
A3B
100
AcDbEntity
  8
0
  6
Continuous
 62
     7
370
    15
100
AcDbLine
 10
2586.53048110496
 20
929.3331280126023
 30
0.0
 11
2586.53048110496
 21
930.5831280126003
 31
0.0
  0
LINE
  5
B97
330
A3B
100
AcDbEntity
  8
0
  6
Continuous
 62
     7
370
    15
100
AcDbLine
 10
2573.93048110496
 20
930.5831280126003
 30
0.0
 11
2573.93048110496
 21
929.3331280126023
 31
0.0
  0
LINE
  5
B98
330
A3B
100
AcDbEntity
  8
0
  6
Continuous
 62
     7
370
    15
100
AcDbLine
 10
2576.93048110496
 20
929.3331280126023
 30
0.0
 11
2576.93048110496
 21
930.5831280126003
 31
0.0
  0
LINE
  5
B99
330
A3B
100
AcDbEntity
  8
0
  6
Continuous
 62
     7
370
    15
100
AcDbLine
 10
2564.33048110496
 20
930.5831280126003
 30
0.0
 11
2564.33048110496
 21
929.3331280126023
 31
0.0
  0
LINE
  5
B9A
330
A3B
100
AcDbEntity
  8
0
  6
Continuous
 62
     7
370
    15
100
AcDbLine
 10
2567.33048110496
 20
929.3331280126023
 30
0.0
 11
2567.33048110496
 21
930.5831280126001
 31
0.0
  0
LINE
  5
B9B
330
A3B
100
AcDbEntity
  8
0
  6
Continuous
 62
     7
370
    15
100
AcDbLine
 10
2554.73048110496
 20
930.5831280126001
 30
0.0
 11
2554.73048110496
 21
929.3331280126023
 31
0.0
  0
LINE
  5
B9C
330
A3B
100
AcDbEntity
  8
0
  6
Continuous
 62
     7
370
    15
100
AcDbLine
 10
2557.73048110496
 20
929.3331280126023
 30
0.0
 11
2557.73048110496
 21
930.5831280126001
 31
0.0
  0
LINE
  5
B9D
330
A3B
100
AcDbEntity
  8
0
  6
Continuous
 62
     7
370
    15
100
AcDbLine
 10
2545.13048110496
 20
930.5831280126001
 30
0.0
 11
2545.13048110496
 21
929.3331280126022
 31
0.0
  0
LINE
  5
B9E
330
A3B
100
AcDbEntity
  8
0
  6
Continuous
 62
     7
370
    15
100
AcDbLine
 10
2548.13048110496
 20
929.3331280126022
 30
0.0
 11
2548.13048110496
 21
930.5831280126001
 31
0.0
  0
LINE
  5
B9F
330
A3B
100
AcDbEntity
  8
0
  6
Continuous
 62
     7
370
    15
100
AcDbLine
 10
2535.53048110496
 20
930.5831280126001
 30
0.0
 11
2535.53048110496
 21
929.3331280126022
 31
0.0
  0
LINE
  5
BA0
330
A3B
100
AcDbEntity
  8
0
  6
Continuous
 62
     7
370
    15
100
AcDbLine
 10
2538.53048110496
 20
929.3331280126022
 30
0.0
 11
2538.53048110496
 21
930.5831280126001
 31
0.0
  0
LINE
  5
BA1
330
A3B
100
AcDbEntity
  8
0
  6
Continuous
 62
     7
370
    15
100
AcDbLine
 10
2525.93048110496
 20
930.5831280126001
 30
0.0
 11
2525.93048110496
 21
929.3331280126022
 31
0.0
  0
LINE
  5
BA2
330
A3B
100
AcDbEntity
  8
0
  6
Continuous
 62
     7
370
    15
100
AcDbLine
 10
2528.93048110496
 20
929.3331280126022
 30
0.0
 11
2528.93048110496
 21
930.5831280126001
 31
0.0
  0
ENDBLK
  5
A3D
330
A3B
100
AcDbEntity
  8
0
100
AcDbBlockEnd
  0
BLOCK
  5
BA5
330
BA4
100
AcDbEntity
  8
0
100
AcDbBlockBegin
  2
2
 70
     0
 10
0.0
 20
0.0
 30
0.0
  3
2
  1

  0
LINE
  5
BA7
330
BA4
100
AcDbEntity
  8
0
  6
Continuous
 62
     7
370
    15
100
AcDbLine
 10
2512.399184966217
 20
943.8617093522005
 30
0.0
 11
2511.649184966216
 21
943.8617093522005
 31
0.0
  0
LINE
  5
BA8
330
BA4
100
AcDbEntity
  8
0
  6
Continuous
 62
     7
370
    15
100
AcDbLine
 10
2511.649184966216
 20
943.8617093522005
 30
0.0
 11
2511.649184966216
 21
945.0617093522003
 31
0.0
  0
LINE
  5
BA9
330
BA4
100
AcDbEntity
  8
0
  6
Continuous
 62
     7
370
    15
100
AcDbLine
 10
2516.149184966217
 20
945.0617093522003
 30
0.0
 11
2511.649184966216
 21
945.0617093522003
 31
0.0
  0
LINE
  5
BAA
330
BA4
100
AcDbEntity
  8
0
  6
Continuous
 62
     7
370
    15
100
AcDbLine
 10
2516.149184966217
 20
943.8617093522005
 30
0.0
 11
2516.149184966217
 21
945.0617093522003
 31
0.0
  0
LINE
  5
BAB
330
BA4
100
AcDbEntity
  8
0
  6
Continuous
 62
     7
370
    15
100
AcDbLine
 10
2516.149184966217
 20
943.8617093522005
 30
0.0
 11
2515.399184966216
 21
943.8617093522005
 31
0.0
  0
LINE
  5
BAC
330
BA4
100
AcDbEntity
  8
0
  6
Continuous
 62
     7
370
    15
100
AcDbLine
 10
2515.399184966216
 20
937.3951163092355
 30
0.0
 11
2515.399184966216
 21
943.8617093522005
 31
0.0
  0
LINE
  5
BAD
330
BA4
100
AcDbEntity
  8
0
  6
Continuous
 62
     7
370
    15
100
AcDbLine
 10
2512.399184966216
 20
937.3951163092357
 30
0.0
 11
2515.399184966216
 21
937.3951163092357
 31
0.0
  0
LINE
  5
BAE
330
BA4
100
AcDbEntity
  8
0
  6
Continuous
 62
     7
370
    15
100
AcDbLine
 10
2512.399184966216
 20
943.8617093522005
 30
0.0
 11
2512.399184966216
 21
937.3951163092357
 31
0.0
  0
LINE
  5
BAF
330
BA4
100
AcDbEntity
  8
0
  6
Continuous
 62
     7
370
    15
100
AcDbLine
 10
2512.399184966216
 20
934.2617093522003
 30
0.0
 11
2515.399184966216
 21
934.2617093522003
 31
0.0
  0
LINE
  5
BB0
330
BA4
100
AcDbEntity
  8
0
  6
Continuous
 62
     7
370
    15
100
AcDbLine
 10
2512.399184966216
 20
937.3951163092357
 30
0.0
 11
2512.399184966216
 21
934.2617093522003
 31
0.0
  0
LINE
  5
BB1
330
BA4
100
AcDbEntity
  8
0
  6
Continuous
 62
     7
370
    15
100
AcDbLine
 10
2515.399184966216
 20
934.2617093522003
 30
0.0
 11
2515.399184966216
 21
937.3951163092357
 31
0.0
  0
LINE
  5
BB2
330
BA4
100
AcDbEntity
  8
0
  6
Continuous
 62
     7
370
    15
100
AcDbLine
 10
2512.399184966216
 20
933.9081559616071
 30
0.0
 11
2515.399184966216
 21
933.9081559616069
 31
0.0
  0
LINE
  5
BB3
330
BA4
100
AcDbEntity
  8
0
  6
Continuous
 62
     7
370
    15
100
AcDbLine
 10
2512.399184966216
 20
933.9081559616071
 30
0.0
 11
2512.399184966216
 21
934.2617093522003
 31
0.0
  0
LINE
  5
BB4
330
BA4
100
AcDbEntity
  8
0
  6
Continuous
 62
     7
370
    15
100
AcDbLine
 10
2515.399184966216
 20
933.9081559616069
 30
0.0
 11
2515.399184966216
 21
934.2617093522003
 31
0.0
  0
LINE
  5
BB5
330
BA4
100
AcDbEntity
  8
0
  6
Continuous
 62
     7
370
    15
100
AcDbLine
 10
2512.399184966216
 20
933.3010491804207
 30
0.0
 11
2515.399184966216
 21
933.3010491804206
 31
0.0
  0
LINE
  5
BB6
330
BA4
100
AcDbEntity
  8
0
  6
Continuous
 62
     7
370
    15
100
AcDbLine
 10
2512.399184966216
 20
933.9081559616071
 30
0.0
 11
2512.399184966216
 21
933.3010491804207
 31
0.0
  0
LINE
  5
BB7
330
BA4
100
AcDbEntity
  8
0
  6
Continuous
 62
     7
370
    15
100
AcDbLine
 10
2515.399184966216
 20
933.3010491804206
 30
0.0
 11
2515.399184966216
 21
933.9081559616069
 31
0.0
  0
LINE
  5
BB8
330
BA4
100
AcDbEntity
  8
0
  6
Continuous
 62
     7
370
    15
100
AcDbLine
 10
2515.399184966216
 20
932.9474957898273
 30
0.0
 11
2512.399184966216
 21
932.9474957898273
 31
0.0
  0
LINE
  5
BB9
330
BA4
100
AcDbEntity
  8
0
  6
Continuous
 62
     7
370
    15
100
AcDbLine
 10
2512.399184966216
 20
932.9474957898273
 30
0.0
 11
2512.399184966216
 21
933.3010491804207
 31
0.0
  0
LINE
  5
BBA
330
BA4
100
AcDbEntity
  8
0
  6
Continuous
 62
     7
370
    15
100
AcDbLine
 10
2515.399184966216
 20
933.3010491804206
 30
0.0
 11
2515.399184966216
 21
932.9474957898273
 31
0.0
  0
LINE
  5
BBB
330
BA4
100
AcDbEntity
  8
0
  6
Continuous
 62
     7
370
    15
100
AcDbLine
 10
2515.049184966216
 20
930.5831280126005
 30
0.0
 11
2515.399184966216
 21
930.9331280126004
 31
0.0
  0
LINE
  5
BBC
330
BA4
100
AcDbEntity
  8
0
  6
Continuous
 62
     7
370
    15
100
AcDbLine
 10
2515.049184966216
 20
930.5831280126005
 30
0.0
 11
2512.749184966216
 21
930.5831280126005
 31
0.0
  0
LINE
  5
BBD
330
BA4
100
AcDbEntity
  8
0
  6
Continuous
 62
     7
370
    15
100
AcDbLine
 10
2512.749184966216
 20
930.5831280126005
 30
0.0
 11
2512.399184966216
 21
930.9331280126006
 31
0.0
  0
LINE
  5
BBE
330
BA4
100
AcDbEntity
  8
0
  6
Continuous
 62
     7
370
    15
100
AcDbLine
 10
2512.399184966216
 20
930.9331280126006
 30
0.0
 11
2515.399184966216
 21
930.9331280126006
 31
0.0
  0
LINE
  5
BBF
330
BA4
100
AcDbEntity
  8
0
  6
Continuous
 62
     7
370
    15
100
AcDbLine
 10
2512.399184966216
 20
932.9474957898273
 30
0.0
 11
2512.399184966216
 21
930.9331280126006
 31
0.0
  0
LINE
  5
BC0
330
BA4
100
AcDbEntity
  8
0
  6
Continuous
 62
     7
370
    15
100
AcDbLine
 10
2515.399184966216
 20
930.9331280125999
 30
0.0
 11
2515.399184966216
 21
932.9474957898273
 31
0.0
  0
LINE
  5
BC1
330
BA4
100
AcDbEntity
  8
0
  6
Continuous
 62
     7
370
    15
100
AcDbLine
 10
2515.201985486067
 20
923.05845563746
 30
0.0
 11
2515.201985486068
 21
928.8331280126024
 31
0.0
  0
LINE
  5
BC2
330
BA4
100
AcDbEntity
  8
0
  6
Continuous
 62
     7
370
    15
100
AcDbLine
 10
2515.201985486067
 20
923.05845563746
 30
0.0
 11
2512.606384446365
 21
923.05845563746
 31
0.0
  0
LINE
  5
BC3
330
BA4
100
AcDbEntity
  8
0
  6
Continuous
 62
     7
370
    15
100
AcDbLine
 10
2512.606384446365
 20
923.05845563746
 30
0.0
 11
2512.606384446365
 21
928.8331280126026
 31
0.0
  0
ARC
  5
BC4
330
BA4
100
AcDbEntity
  8
0
  6
Continuous
 62
     7
370
    15
100
AcDbCircle
 10
2512.856384446364
 20
928.8331280126026
 30
0.0
 40
0.25
100
AcDbArc
 50
90.0
 51
180.0
  0
LINE
  5
BC5
330
BA4
100
AcDbEntity
  8
0
  6
Continuous
 62
     7
370
    15
100
AcDbLine
 10
2512.856384446364
 20
929.0831280126026
 30
0.0
 11
2512.959184966216
 21
929.0831280126026
 31
0.0
  0
ARC
  5
BC6
330
BA4
100
AcDbEntity
  8
0
  6
Continuous
 62
     7
370
    15
100
AcDbCircle
 10
2512.959184966216
 20
929.3331280126025
 30
0.0
 40
0.25
100
AcDbArc
 50
270.0
 51
0.0
  0
LINE
  5
BC7
330
BA4
100
AcDbEntity
  8
0
  6
Continuous
 62
     7
370
    15
100
AcDbLine
 10
2513.209184966216
 20
929.3331280126025
 30
0.0
 11
2513.209184966216
 21
930.5831280126005
 31
0.0
  0
LINE
  5
BC8
330
BA4
100
AcDbEntity
  8
0
  6
Continuous
 62
     7
370
    15
100
AcDbLine
 10
2514.599184966216
 20
930.5831280126005
 30
0.0
 11
2514.599184966216
 21
929.3331280126025
 31
0.0
  0
ARC
  5
BC9
330
BA4
100
AcDbEntity
  8
0
  6
Continuous
 62
     7
370
    15
100
AcDbCircle
 10
2514.849184966216
 20
929.3331280126025
 30
0.0
 40
0.25
100
AcDbArc
 50
180.0
 51
270.0
  0
LINE
  5
BCA
330
BA4
100
AcDbEntity
  8
0
  6
Continuous
 62
     7
370
    15
100
AcDbLine
 10
2514.849184966216
 20
929.0831280126026
 30
0.0
 11
2514.951985486068
 21
929.0831280126026
 31
0.0
  0
ARC
  5
BCB
330
BA4
100
AcDbEntity
  8
0
  6
Continuous
 62
     7
370
    15
100
AcDbCircle
 10
2514.951985486068
 20
928.8331280126024
 30
0.0
 40
0.25
100
AcDbArc
 50
0.0
 51
90.0
  0
LINE
  5
BCC
330
BA4
100
AcDbEntity
  8
0
  6
Continuous
 62
     7
370
    15
100
AcDbLine
 10
2515.399184966216
 20
935.2617093522002
 30
0.0
 11
2515.799184966216
 21
935.2617093522002
 31
0.0
  0
LINE
  5
BCD
330
BA4
100
AcDbEntity
  8
0
  6
Continuous
 62
     7
370
    15
100
AcDbLine
 10
2515.799184966216
 20
935.2617093522002
 30
0.0
 11
2515.399184966216
 21
933.9617093521994
 31
0.0
  0
LINE
  5
BCE
330
BA4
100
AcDbEntity
  8
0
  6
Continuous
 62
     7
370
    15
100
AcDbLine
 10
2512.399184966216
 20
933.9617093522006
 30
0.0
 11
2511.999184966216
 21
935.2617093522002
 31
0.0
  0
LINE
  5
BCF
330
BA4
100
AcDbEntity
  8
0
  6
Continuous
 62
     7
370
    15
100
AcDbLine
 10
2511.999184966216
 20
935.2617093522002
 30
0.0
 11
2512.399184966216
 21
935.2617093522002
 31
0.0
  0
LINE
  5
BD0
330
BA4
100
AcDbEntity
  8
0
  6
Continuous
 62
     7
370
    15
100
AcDbLine
 10
2515.201985486067
 20
921.1369019130932
 30
0.0
 11
2512.606384446365
 21
921.1369019130932
 31
0.0
  0
LINE
  5
BD1
330
BA4
100
AcDbEntity
  8
0
  6
Continuous
 62
     7
370
    15
100
AcDbLine
 10
2512.606384446365
 20
921.1369019130932
 30
0.0
 11
2512.606384446365
 21
923.05845563746
 31
0.0
  0
LINE
  5
BD2
330
BA4
100
AcDbEntity
  8
0
  6
Continuous
 62
     7
370
    15
100
AcDbLine
 10
2515.201985486067
 20
921.1369019130932
 30
0.0
 11
2515.201985486067
 21
923.05845563746
 31
0.0
  0
LINE
  5
BD3
330
BA4
100
AcDbEntity
  8
0
  6
Continuous
 62
     7
370
    15
100
AcDbLine
 10
2512.606384446365
 20
920.5584556374603
 30
0.0
 11
2515.201985486067
 21
920.5584556374601
 31
0.0
  0
LINE
  5
BD4
330
BA4
100
AcDbEntity
  8
0
  6
Continuous
 62
     7
370
    15
100
AcDbLine
 10
2512.606384446365
 20
921.1369019130932
 30
0.0
 11
2512.606384446365
 21
920.5584556374603
 31
0.0
  0
LINE
  5
BD5
330
BA4
100
AcDbEntity
  8
0
  6
Continuous
 62
     7
370
    15
100
AcDbLine
 10
2515.201985486067
 20
920.5584556374601
 30
0.0
 11
2515.201985486067
 21
921.1369019130932
 31
0.0
  0
ENDBLK
  5
BA6
330
BA4
100
AcDbEntity
  8
0
100
AcDbBlockEnd
  0
BLOCK
  5
BD8
330
BD7
100
AcDbEntity
  8
0
100
AcDbBlockBegin
  2
3
 70
     0
 10
0.0
 20
0.0
 30
0.0
  3
3
  1

  0
LINE
  5
BDA
330
BD7
100
AcDbEntity
  8
0
  6
Continuous
 62
     7
370
    15
100
AcDbLine
 10
2523.13048110496
 20
907.6924013212495
 30
0.0
 11
2523.13048110496
 21
912.1924013212497
 31
0.0
  0
LINE
  5
BDB
330
BD7
100
AcDbEntity
  8
0
  6
Continuous
 62
     7
370
    15
100
AcDbLine
 10
2618.13048110496
 20
912.192401321249
 30
0.0
 11
2618.13048110496
 21
907.692401321249
 31
0.0
  0
LINE
  5
BDC
330
BD7
100
AcDbEntity
  8
0
  6
Continuous
 62
     7
370
    15
100
AcDbLine
 10
2523.13048110496
 20
912.1924013212497
 30
0.0
 11
2618.13048110496
 21
912.192401321249
 31
0.0
  0
LINE
  5
BDD
330
BD7
100
AcDbEntity
  8
0
  6
Continuous
 62
     7
370
    15
100
AcDbLine
 10
2618.13048110496
 20
907.692401321249
 30
0.0
 11
2523.13048110496
 21
907.6924013212495
 31
0.0
  0
ENDBLK
  5
BD9
330
BD7
100
AcDbEntity
  8
0
100
AcDbBlockEnd
  0
BLOCK
  5
BE0
330
BDF
100
AcDbEntity
  8
0
100
AcDbBlockBegin
  2
4
 70
     0
 10
0.0
 20
0.0
 30
0.0
  3
4
  1

  0
LINE
  5
BE2
330
BDF
100
AcDbEntity
  8
0
  6
Continuous
 62
     7
370
    15
100
AcDbLine
 10
2645.876682268495
 20
912.7474691085424
 30
0.0
 11
2645.50222478692
 21
912.5312994057306
 31
0.0
  0
LINE
  5
BE3
330
BDF
100
AcDbEntity
  8
0
  6
Continuous
 62
     7
370
    15
100
AcDbLine
 10
2645.827504513701
 20
906.0452850521411
 30
0.0
 11
2647.662871610129
 21
904.9857501802069
 31
0.0
  0
LINE
  5
BE4
330
BDF
100
AcDbEntity
  8
0
  6
Continuous
 62
     7
370
    15
100
AcDbLine
 10
2652.664907367886
 20
916.6662280452914
 30
0.0
 11
2652.290449886311
 21
916.4500583424795
 31
0.0
  0
LINE
  5
BE5
330
BDF
100
AcDbEntity
  8
0
  6
Continuous
 62
     7
370
    15
100
AcDbLine
 10
2652.615729613092
 20
909.9640439888899
 30
0.0
 11
2654.45109670952
 21
908.9045091169559
 31
0.0
  0
LINE
  5
BE6
330
BDF
100
AcDbEntity
  8
0
  6
Continuous
 62
     7
370
    15
100
AcDbLine
 10
2659.453132467277
 20
920.5849869820404
 30
0.0
 11
2659.078674985702
 21
920.3688172792285
 31
0.0
  0
LINE
  5
BE7
330
BDF
100
AcDbEntity
  8
0
  6
Continuous
 62
     7
370
    15
100
AcDbLine
 10
2659.403954712483
 20
913.8828029256389
 30
0.0
 11
2661.239321808911
 21
912.8232680537049
 31
0.0
  0
LINE
  5
BE8
330
BDF
100
AcDbEntity
  8
0
  6
Continuous
 62
     7
370
    15
100
AcDbLine
 10
2666.241357566668
 20
924.5037459187894
 30
0.0
 11
2665.866900085092
 21
924.2875762159776
 31
0.0
  0
LINE
  5
BE9
330
BDF
100
AcDbEntity
  8
0
  6
Continuous
 62
     7
370
    15
100
AcDbLine
 10
2666.192179811874
 20
917.8015618623881
 30
0.0
 11
2668.027546908302
 21
916.7420269904539
 31
0.0
  0
LINE
  5
BEA
330
BDF
100
AcDbEntity
  8
0
  6
Continuous
 62
     7
370
    15
100
AcDbLine
 10
2673.029582666059
 20
928.4225048555386
 30
0.0
 11
2672.655125184483
 21
928.2063351527266
 31
0.0
  0
LINE
  5
BEB
330
BDF
100
AcDbEntity
  8
0
  6
Continuous
 62
     7
370
    15
100
AcDbLine
 10
2672.980404911264
 20
921.7203207991371
 30
0.0
 11
2674.815772007693
 21
920.6607859272029
 31
0.0
  0
LINE
  5
BEC
330
BDF
100
AcDbEntity
  8
0
  6
Continuous
 62
     7
370
    15
100
AcDbLine
 10
2679.817807765449
 20
932.3412637922876
 30
0.0
 11
2679.443350283874
 21
932.1250940894756
 31
0.0
  0
LINE
  5
BED
330
BDF
100
AcDbEntity
  8
0
  6
Continuous
 62
     7
370
    15
100
AcDbLine
 10
2679.768630010655
 20
925.6390797358861
 30
0.0
 11
2681.603997107084
 21
924.5795448639519
 31
0.0
  0
LINE
  5
BEE
330
BDF
100
AcDbEntity
  8
0
  6
Continuous
 62
     7
370
    15
100
AcDbLine
 10
2686.606032864841
 20
936.2600227290366
 30
0.0
 11
2686.231575383265
 21
936.0438530262246
 31
0.0
  0
LINE
  5
BEF
330
BDF
100
AcDbEntity
  8
0
  6
Continuous
 62
     7
370
    15
100
AcDbLine
 10
2686.556855110047
 20
929.5578386726351
 30
0.0
 11
2688.392222206475
 21
928.4983038007011
 31
0.0
  0
LINE
  5
BF0
330
BDF
100
AcDbEntity
  8
0
  6
Continuous
 62
     7
370
    15
100
AcDbLine
 10
2693.394257964231
 20
940.1787816657856
 30
0.0
 11
2693.019800482656
 21
939.9626119629736
 31
0.0
  0
LINE
  5
BF1
330
BDF
100
AcDbEntity
  8
0
  6
Continuous
 62
     7
370
    15
100
AcDbLine
 10
2693.345080209437
 20
933.4765976093841
 30
0.0
 11
2695.180447305866
 21
932.4170627374499
 31
0.0
  0
LINE
  5
BF2
330
BDF
100
AcDbEntity
  8
0
  6
Continuous
 62
     7
370
    15
100
AcDbLine
 10
2700.182483063622
 20
944.0975406025344
 30
0.0
 11
2699.808025582047
 21
943.8813708997226
 31
0.0
  0
LINE
  5
BF3
330
BDF
100
AcDbEntity
  8
0
  6
Continuous
 62
     7
370
    15
100
AcDbLine
 10
2700.133305308829
 20
937.3953565461331
 30
0.0
 11
2701.968672405256
 21
936.3358216741989
 31
0.0
  0
LINE
  5
BF4
330
BDF
100
AcDbEntity
  8
0
  6
Continuous
 62
     7
370
    15
100
AcDbLine
 10
2706.970708163013
 20
948.0162995392836
 30
0.0
 11
2706.596250681438
 21
947.8001298364716
 31
0.0
  0
LINE
  5
BF5
330
BDF
100
AcDbEntity
  8
0
  6
Continuous
 62
     7
370
    15
100
AcDbLine
 10
2706.921530408219
 20
941.3141154828821
 30
0.0
 11
2708.756897504648
 21
940.2545806109479
 31
0.0
  0
LINE
  5
BF6
330
BDF
100
AcDbEntity
  8
0
  6
Continuous
 62
     7
370
    15
100
AcDbLine
 10
2642.800767770331
 20
923.9319675256417
 30
0.0
 11
2643.331097856221
 21
923.6258144837082
 31
0.0
  0
LINE
  5
BF7
330
BDF
100
AcDbEntity
  8
0
  6
Continuous
 62
     7
370
    15
100
AcDbLine
 10
2642.800767770331
 20
923.9319675256417
 30
0.0
 11
2642.800767770331
 21
924.9118164999044
 31
0.0
  0
LINE
  5
BF8
330
BDF
100
AcDbEntity
  8
0
  6
Continuous
 62
     7
370
    15
100
AcDbLine
 10
2645.98274828567
 20
923.0748982483033
 30
0.0
 11
2642.800767770331
 21
924.9118164999044
 31
0.0
  0
LINE
  5
BF9
330
BDF
100
AcDbEntity
  8
0
  6
Continuous
 62
     7
370
    15
100
AcDbLine
 10
2645.98274828567
 20
923.0748982483033
 30
0.0
 11
2645.98274828567
 21
922.0950492740405
 31
0.0
  0
LINE
  5
BFA
330
BDF
100
AcDbEntity
  8
0
  6
Continuous
 62
     7
370
    15
100
AcDbLine
 10
2645.98274828567
 20
922.0950492740405
 30
0.0
 11
2645.452418199781
 21
922.401202315974
 31
0.0
  0
LINE
  5
BFB
330
BDF
100
AcDbEntity
  8
0
  6
Continuous
 62
     7
370
    15
100
AcDbLine
 10
2645.452418199781
 20
917.1209651825369
 30
0.0
 11
2645.452418199781
 21
922.401202315974
 31
0.0
  0
LINE
  5
BFC
330
BDF
100
AcDbEntity
  8
0
  6
Continuous
 62
     7
370
    15
100
AcDbLine
 10
2643.331097856221
 20
918.3455773502709
 30
0.0
 11
2645.452418199781
 21
917.1209651825368
 31
0.0
  0
LINE
  5
BFD
330
BDF
100
AcDbEntity
  8
0
  6
Continuous
 62
     7
370
    15
100
AcDbLine
 10
2643.331097856221
 20
923.6258144837082
 30
0.0
 11
2643.331097856221
 21
918.3455773502709
 31
0.0
  0
LINE
  5
BFE
330
BDF
100
AcDbEntity
  8
0
  6
Continuous
 62
     7
370
    15
100
AcDbLine
 10
2642.800767770331
 20
924.9118164999044
 30
0.0
 11
2709.975911983053
 21
963.6912018114832
 31
0.0
  0
LINE
  5
BFF
330
BDF
100
AcDbEntity
  8
0
  6
Continuous
 62
     7
370
    15
100
AcDbLine
 10
2709.975911983053
 20
963.6912018114832
 30
0.0
 11
2713.157892498393
 21
961.8542835598821
 31
0.0
  0
LINE
  5
C00
330
BDF
100
AcDbEntity
  8
0
  6
Continuous
 62
     7
370
    15
100
AcDbLine
 10
2713.157892498393
 20
961.8542835598821
 30
0.0
 11
2645.98274828567
 21
923.0748982483033
 31
0.0
  0
LINE
  5
C01
330
BDF
100
AcDbEntity
  8
0
  6
Continuous
 62
     7
370
    15
100
AcDbLine
 10
2713.157892498393
 20
960.8744345856193
 30
0.0
 11
2713.157892498393
 21
961.8542835598821
 31
0.0
  0
LINE
  5
C02
330
BDF
100
AcDbEntity
  8
0
  6
Continuous
 62
     7
370
    15
100
AcDbLine
 10
2645.98274828567
 20
922.0950492740405
 30
0.0
 11
2713.157892498393
 21
960.8744345856193
 31
0.0
  0
LINE
  5
C03
330
BDF
100
AcDbEntity
  8
0
  6
Continuous
 62
     7
370
    15
100
AcDbLine
 10
2708.526343081621
 20
951.7907531210497
 30
0.0
 11
2708.526343081621
 21
950.7292500655983
 31
0.0
  0
LINE
  5
C04
330
BDF
100
AcDbEntity
  8
0
  6
Continuous
 62
     7
370
    15
100
AcDbLine
 10
2710.647663425181
 20
951.9538622333325
 30
0.0
 11
2708.526343081621
 21
950.7292500655983
 31
0.0
  0
LINE
  5
C05
330
BDF
100
AcDbEntity
  8
0
  6
Continuous
 62
     7
370
    15
100
AcDbLine
 10
2710.647663425181
 20
953.0153652887838
 30
0.0
 11
2708.526343081621
 21
951.7907531210497
 31
0.0
  0
LINE
  5
C06
330
BDF
100
AcDbEntity
  8
0
  6
Continuous
 62
     7
370
    15
100
AcDbLine
 10
2694.94989288284
 20
943.9532352475517
 30
0.0
 11
2694.94989288284
 21
942.8917321921002
 31
0.0
  0
LINE
  5
C07
330
BDF
100
AcDbEntity
  8
0
  6
Continuous
 62
     7
370
    15
100
AcDbLine
 10
2697.071213226399
 20
944.1163443598345
 30
0.0
 11
2694.94989288284
 21
942.8917321921002
 31
0.0
  0
LINE
  5
C08
330
BDF
100
AcDbEntity
  8
0
  6
Continuous
 62
     7
370
    15
100
AcDbLine
 10
2697.071213226399
 20
945.1778474152856
 30
0.0
 11
2694.94989288284
 21
943.9532352475517
 31
0.0
  0
LINE
  5
C09
330
BDF
100
AcDbEntity
  8
0
  6
Continuous
 62
     7
370
    15
100
AcDbLine
 10
2681.373442684058
 20
936.1157173740537
 30
0.0
 11
2681.373442684058
 21
935.0542143186022
 31
0.0
  0
LINE
  5
C0A
330
BDF
100
AcDbEntity
  8
0
  6
Continuous
 62
     7
370
    15
100
AcDbLine
 10
2683.494763027618
 20
936.2788264863363
 30
0.0
 11
2681.373442684058
 21
935.0542143186022
 31
0.0
  0
LINE
  5
C0B
330
BDF
100
AcDbEntity
  8
0
  6
Continuous
 62
     7
370
    15
100
AcDbLine
 10
2683.494763027618
 20
937.3403295417876
 30
0.0
 11
2681.373442684058
 21
936.1157173740537
 31
0.0
  0
LINE
  5
C0C
330
BDF
100
AcDbEntity
  8
0
  6
Continuous
 62
     7
370
    15
100
AcDbLine
 10
2649.553637530663
 20
917.7465348580426
 30
0.0
 11
2647.432317187103
 21
916.5219226903086
 31
0.0
  0
LINE
  5
C0D
330
BDF
100
AcDbEntity
  8
0
  6
Continuous
 62
     7
370
    15
100
AcDbLine
 10
2647.432317187103
 20
916.5219226903086
 30
0.0
 11
2647.432317187103
 21
915.460419634857
 31
0.0
  0
LINE
  5
C0E
330
BDF
100
AcDbEntity
  8
0
  6
Continuous
 62
     7
370
    15
100
AcDbLine
 10
2649.553637530663
 20
916.6850318025913
 30
0.0
 11
2647.432317187103
 21
915.460419634857
 31
0.0
  0
LINE
  5
C0F
330
BDF
100
AcDbEntity
  8
0
  6
Continuous
 62
     7
370
    15
100
AcDbLine
 10
2654.220542286494
 20
920.4406816270576
 30
0.0
 11
2654.220542286494
 21
919.3791785716062
 31
0.0
  0
LINE
  5
C10
330
BDF
100
AcDbEntity
  8
0
  6
Continuous
 62
     7
370
    15
100
AcDbLine
 10
2656.341862630054
 20
920.6037907393405
 30
0.0
 11
2654.220542286494
 21
919.3791785716062
 31
0.0
  0
LINE
  5
C11
330
BDF
100
AcDbEntity
  8
0
  6
Continuous
 62
     7
370
    15
100
AcDbLine
 10
2656.341862630054
 20
921.6652937947916
 30
0.0
 11
2654.220542286494
 21
920.4406816270576
 31
0.0
  0
LINE
  5
C12
330
BDF
100
AcDbEntity
  8
0
  6
Continuous
 62
     7
370
    15
100
AcDbLine
 10
2661.008767385885
 20
924.3594405638067
 30
0.0
 11
2661.008767385885
 21
923.297937508355
 31
0.0
  0
LINE
  5
C13
330
BDF
100
AcDbEntity
  8
0
  6
Continuous
 62
     7
370
    15
100
AcDbLine
 10
2663.130087729445
 20
924.5225496760893
 30
0.0
 11
2661.008767385885
 21
923.297937508355
 31
0.0
  0
LINE
  5
C14
330
BDF
100
AcDbEntity
  8
0
  6
Continuous
 62
     7
370
    15
100
AcDbLine
 10
2663.130087729445
 20
925.5840527315406
 30
0.0
 11
2661.008767385885
 21
924.3594405638067
 31
0.0
  0
LINE
  5
C15
330
BDF
100
AcDbEntity
  8
0
  6
Continuous
 62
     7
370
    15
100
AcDbLine
 10
2667.796992485276
 20
928.2781995005557
 30
0.0
 11
2667.796992485276
 21
927.2166964451042
 31
0.0
  0
LINE
  5
C16
330
BDF
100
AcDbEntity
  8
0
  6
Continuous
 62
     7
370
    15
100
AcDbLine
 10
2669.918312828836
 20
928.4413086128383
 30
0.0
 11
2667.796992485276
 21
927.2166964451042
 31
0.0
  0
LINE
  5
C17
330
BDF
100
AcDbEntity
  8
0
  6
Continuous
 62
     7
370
    15
100
AcDbLine
 10
2669.918312828836
 20
929.5028116682898
 30
0.0
 11
2667.796992485276
 21
928.2781995005557
 31
0.0
  0
LINE
  5
C18
330
BDF
100
AcDbEntity
  8
0
  6
Continuous
 62
     7
370
    15
100
AcDbLine
 10
2674.585217584667
 20
932.1969584373047
 30
0.0
 11
2674.585217584667
 21
931.1354553818532
 31
0.0
  0
LINE
  5
C19
330
BDF
100
AcDbEntity
  8
0
  6
Continuous
 62
     7
370
    15
100
AcDbLine
 10
2676.706537928227
 20
932.3600675495873
 30
0.0
 11
2674.585217584667
 21
931.1354553818532
 31
0.0
  0
LINE
  5
C1A
330
BDF
100
AcDbEntity
  8
0
  6
Continuous
 62
     7
370
    15
100
AcDbLine
 10
2676.706537928227
 20
933.4215706050386
 30
0.0
 11
2674.585217584667
 21
932.1969584373047
 31
0.0
  0
LINE
  5
C1B
330
BDF
100
AcDbEntity
  8
0
  6
Continuous
 62
     7
370
    15
100
AcDbLine
 10
2688.161667783449
 20
940.0344763108027
 30
0.0
 11
2688.161667783449
 21
938.9729732553512
 31
0.0
  0
LINE
  5
C1C
330
BDF
100
AcDbEntity
  8
0
  6
Continuous
 62
     7
370
    15
100
AcDbLine
 10
2690.282988127008
 20
940.1975854230855
 30
0.0
 11
2688.161667783449
 21
938.9729732553512
 31
0.0
  0
LINE
  5
C1D
330
BDF
100
AcDbEntity
  8
0
  6
Continuous
 62
     7
370
    15
100
AcDbLine
 10
2690.282988127008
 20
941.2590884785366
 30
0.0
 11
2688.161667783449
 21
940.0344763108027
 31
0.0
  0
LINE
  5
C1E
330
BDF
100
AcDbEntity
  8
0
  6
Continuous
 62
     7
370
    15
100
AcDbLine
 10
2701.738117982231
 20
947.8719941843007
 30
0.0
 11
2701.738117982231
 21
946.8104911288492
 31
0.0
  0
LINE
  5
C1F
330
BDF
100
AcDbEntity
  8
0
  6
Continuous
 62
     7
370
    15
100
AcDbLine
 10
2703.85943832579
 20
948.0351032965835
 30
0.0
 11
2701.738117982231
 21
946.8104911288492
 31
0.0
  0
LINE
  5
C20
330
BDF
100
AcDbEntity
  8
0
  6
Continuous
 62
     7
370
    15
100
AcDbLine
 10
2703.85943832579
 20
949.0966063520348
 30
0.0
 11
2701.738117982231
 21
947.8719941843007
 31
0.0
  0
LINE
  5
C21
330
BDF
100
AcDbEntity
  8
0
  6
Continuous
 62
     7
370
    15
100
AcDbLine
 10
2712.627562412503
 20
960.5682815436857
 30
0.0
 11
2712.627562412503
 21
955.9003504941156
 31
0.0
  0
LINE
  5
C22
330
BDF
100
AcDbEntity
  8
0
  6
Continuous
 62
     7
370
    15
100
AcDbLine
 10
2711.849744953198
 20
955.451326032613
 30
0.0
 11
2712.627562412503
 21
955.9003504941156
 31
0.0
  0
LINE
  5
C23
330
BDF
100
AcDbEntity
  8
0
  6
Continuous
 62
     7
370
    15
100
AcDbLine
 10
2711.849744953198
 20
955.451326032613
 30
0.0
 11
2711.849744953198
 21
952.892771371947
 31
0.0
  0
ARC
  5
C24
330
BDF
100
AcDbEntity
  8
0
  6
Continuous
 62
     7
370
    15
100
AcDbCircle
 10
2711.128762378159
 20
952.9174005849638
 30
0.0
 40
0.7214031269984311
100
AcDbArc
 50
328.8562722006069
 51
358.043501357001
  0
LINE
  5
C25
330
BDF
100
AcDbEntity
  8
0
  6
Continuous
 62
     7
370
    15
100
AcDbLine
 10
2711.746191562605
 20
952.5443004994126
 30
0.0
 11
2711.316902240723
 21
951.8007495849499
 31
0.0
  0
ARC
  5
C26
330
BDF
100
AcDbEntity
  8
0
  6
Continuous
 62
     7
370
    15
100
AcDbCircle
 10
2711.93433142517
 20
951.4276494993982
 30
0.0
 40
0.7214031269995182
100
AcDbArc
 50
148.8562722006259
 51
178.043501356962
  0
LINE
  5
C27
330
BDF
100
AcDbEntity
  8
0
  6
Continuous
 62
     7
370
    15
100
AcDbLine
 10
2711.21334885013
 20
951.4522787124155
 30
0.0
 11
2711.21334885013
 21
949.8074652121623
 31
0.0
  0
LINE
  5
C28
330
BDF
100
AcDbEntity
  8
0
  6
Continuous
 62
     7
370
    15
100
AcDbLine
 10
2707.960657656672
 20
947.9297265549698
 30
0.0
 11
2711.21334885013
 21
949.8074652121623
 31
0.0
  0
LINE
  5
C29
330
BDF
100
AcDbEntity
  8
0
  6
Continuous
 62
     7
370
    15
100
AcDbLine
 10
2707.960657656672
 20
947.9297265549694
 30
0.0
 11
2707.960657656672
 21
949.574540055223
 31
0.0
  0
ARC
  5
C2A
330
BDF
100
AcDbEntity
  8
0
  6
Continuous
 62
     7
370
    15
100
AcDbCircle
 10
2707.710327869989
 20
949.5991750018538
 30
0.0
 40
0.2515390281768848
100
AcDbArc
 50
354.3796210362995
 51
54.30196147125468
  0
LINE
  5
C2B
330
BDF
100
AcDbEntity
  8
0
  6
Continuous
 62
     7
370
    15
100
AcDbLine
 10
2707.857104266079
 20
949.8034507278887
 30
0.0
 11
2707.427814944197
 21
950.0513547414485
 31
0.0
  0
ARC
  5
C2C
330
BDF
100
AcDbEntity
  8
0
  6
Continuous
 62
     7
370
    15
100
AcDbCircle
 10
2707.574591340287
 20
950.2556304674836
 30
0.0
 40
0.2515390281768978
100
AcDbArc
 50
174.3796210363449
 51
234.3019614712623
  0
LINE
  5
C2D
330
BDF
100
AcDbEntity
  8
0
  6
Continuous
 62
     7
370
    15
100
AcDbLine
 10
2707.324261553604
 20
950.280265414114
 30
0.0
 11
2707.324261553604
 21
952.8388200747805
 31
0.0
  0
LINE
  5
C2E
330
BDF
100
AcDbEntity
  8
0
  6
Continuous
 62
     7
370
    15
100
AcDbLine
 10
2705.061519853807
 20
951.5325670958638
 30
0.0
 11
2707.324261553604
 21
952.8388200747805
 31
0.0
  0
LINE
  5
C2F
330
BDF
100
AcDbEntity
  8
0
  6
Continuous
 62
     7
370
    15
100
AcDbLine
 10
2705.061519853807
 20
951.5325670958642
 30
0.0
 11
2705.061519853807
 21
948.9740124351978
 31
0.0
  0
ARC
  5
C30
330
BDF
100
AcDbEntity
  8
0
  6
Continuous
 62
     7
370
    15
100
AcDbCircle
 10
2704.340537278769
 20
948.9986416482146
 30
0.0
 40
0.7214031269978666
100
AcDbArc
 50
328.8562722005902
 51
358.043501357001
  0
LINE
  5
C31
330
BDF
100
AcDbEntity
  8
0
  6
Continuous
 62
     7
370
    15
100
AcDbLine
 10
2704.957966463214
 20
948.6255415626635
 30
0.0
 11
2704.528677141332
 21
947.8819906482009
 31
0.0
  0
ARC
  5
C32
330
BDF
100
AcDbEntity
  8
0
  6
Continuous
 62
     7
370
    15
100
AcDbCircle
 10
2705.146106325779
 20
947.5088905626494
 30
0.0
 40
0.7214031269992253
100
AcDbArc
 50
148.8562722006259
 51
178.043501356975
  0
LINE
  5
C33
330
BDF
100
AcDbEntity
  8
0
  6
Continuous
 62
     7
370
    15
100
AcDbLine
 10
2704.425123750739
 20
947.5335197756665
 30
0.0
 11
2704.425123750739
 21
945.8887062754131
 31
0.0
  0
LINE
  5
C34
330
BDF
100
AcDbEntity
  8
0
  6
Continuous
 62
     7
370
    15
100
AcDbLine
 10
2701.172432557281
 20
944.0109676182208
 30
0.0
 11
2704.425123750739
 21
945.8887062754131
 31
0.0
  0
LINE
  5
C35
330
BDF
100
AcDbEntity
  8
0
  6
Continuous
 62
     7
370
    15
100
AcDbLine
 10
2701.172432557281
 20
944.0109676182204
 30
0.0
 11
2701.172432557281
 21
945.655781118474
 31
0.0
  0
ARC
  5
C36
330
BDF
100
AcDbEntity
  8
0
  6
Continuous
 62
     7
370
    15
100
AcDbCircle
 10
2700.922102770598
 20
945.6804160651048
 30
0.0
 40
0.2515390281770435
100
AcDbArc
 50
354.379621036319
 51
54.30196147122972
  0
LINE
  5
C37
330
BDF
100
AcDbEntity
  8
0
  6
Continuous
 62
     7
370
    15
100
AcDbLine
 10
2701.068879166688
 20
945.8846917911399
 30
0.0
 11
2700.639589844807
 21
946.1325958046996
 31
0.0
  0
ARC
  5
C38
330
BDF
100
AcDbEntity
  8
0
  6
Continuous
 62
     7
370
    15
100
AcDbCircle
 10
2700.786366240896
 20
946.3368715307346
 30
0.0
 40
0.251539028176742
100
AcDbArc
 50
174.3796210363449
 51
234.3019614712949
  0
LINE
  5
C39
330
BDF
100
AcDbEntity
  8
0
  6
Continuous
 62
     7
370
    15
100
AcDbLine
 10
2700.536036454213
 20
946.361506477365
 30
0.0
 11
2700.536036454213
 21
948.9200611380315
 31
0.0
  0
LINE
  5
C3A
330
BDF
100
AcDbEntity
  8
0
  6
Continuous
 62
     7
370
    15
100
AcDbLine
 10
2698.273294754416
 20
947.6138081591148
 30
0.0
 11
2700.536036454213
 21
948.9200611380313
 31
0.0
  0
LINE
  5
C3B
330
BDF
100
AcDbEntity
  8
0
  6
Continuous
 62
     7
370
    15
100
AcDbLine
 10
2698.273294754416
 20
947.6138081591152
 30
0.0
 11
2698.273294754416
 21
945.0552534984488
 31
0.0
  0
ARC
  5
C3C
330
BDF
100
AcDbEntity
  8
0
  6
Continuous
 62
     7
370
    15
100
AcDbCircle
 10
2697.552312179376
 20
945.0798827114661
 30
0.0
 40
0.7214031270001451
100
AcDbArc
 50
328.8562722006482
 51
358.0435013569621
  0
LINE
  5
C3D
330
BDF
100
AcDbEntity
  8
0
  6
Continuous
 62
     7
370
    15
100
AcDbLine
 10
2698.169741363823
 20
944.7067826259145
 30
0.0
 11
2697.740452041941
 21
943.9632317114517
 31
0.0
  0
ARC
  5
C3E
330
BDF
100
AcDbEntity
  8
0
  6
Continuous
 62
     7
370
    15
100
AcDbCircle
 10
2698.357881226387
 20
943.5901316259004
 30
0.0
 40
0.7214031269985487
100
AcDbArc
 50
148.8562722005957
 51
178.0435013569815
  0
LINE
  5
C3F
330
BDF
100
AcDbEntity
  8
0
  6
Continuous
 62
     7
370
    15
100
AcDbLine
 10
2697.636898651348
 20
943.6147608389173
 30
0.0
 11
2697.636898651348
 21
941.9699473386641
 31
0.0
  0
LINE
  5
C40
330
BDF
100
AcDbEntity
  8
0
  6
Continuous
 62
     7
370
    15
100
AcDbLine
 10
2694.38420745789
 20
940.0922086814718
 30
0.0
 11
2697.636898651348
 21
941.9699473386641
 31
0.0
  0
LINE
  5
C41
330
BDF
100
AcDbEntity
  8
0
  6
Continuous
 62
     7
370
    15
100
AcDbLine
 10
2694.38420745789
 20
940.0922086814714
 30
0.0
 11
2694.38420745789
 21
941.737022181725
 31
0.0
  0
ARC
  5
C42
330
BDF
100
AcDbEntity
  8
0
  6
Continuous
 62
     7
370
    15
100
AcDbCircle
 10
2694.133877671207
 20
941.7616571283556
 30
0.0
 40
0.2515390281774551
100
AcDbArc
 50
354.3796210363773
 51
54.30196147116458
  0
LINE
  5
C43
330
BDF
100
AcDbEntity
  8
0
  6
Continuous
 62
     7
370
    15
100
AcDbLine
 10
2694.280654067297
 20
941.9659328543907
 30
0.0
 11
2693.851364745416
 21
942.2138368679505
 31
0.0
  0
ARC
  5
C44
330
BDF
100
AcDbEntity
  8
0
  6
Continuous
 62
     7
370
    15
100
AcDbCircle
 10
2693.998141141505
 20
942.4181125939856
 30
0.0
 40
0.2515390281769432
100
AcDbArc
 50
174.3796210363708
 51
234.3019614712872
  0
LINE
  5
C45
330
BDF
100
AcDbEntity
  8
0
  6
Continuous
 62
     7
370
    15
100
AcDbLine
 10
2693.747811354822
 20
942.442747540616
 30
0.0
 11
2693.747811354822
 21
945.0013022012823
 31
0.0
  0
LINE
  5
C46
330
BDF
100
AcDbEntity
  8
0
  6
Continuous
 62
     7
370
    15
100
AcDbLine
 10
2691.485069655025
 20
943.6950492223658
 30
0.0
 11
2693.747811354822
 21
945.0013022012822
 31
0.0
  0
LINE
  5
C47
330
BDF
100
AcDbEntity
  8
0
  6
Continuous
 62
     7
370
    15
100
AcDbLine
 10
2691.485069655025
 20
943.695049222366
 30
0.0
 11
2691.485069655025
 21
941.1364945616998
 31
0.0
  0
ARC
  5
C48
330
BDF
100
AcDbEntity
  8
0
  6
Continuous
 62
     7
370
    15
100
AcDbCircle
 10
2690.764087079986
 20
941.1611237747168
 30
0.0
 40
0.7214031269986551
100
AcDbArc
 50
328.8562722006259
 51
358.0435013569946
  0
LINE
  5
C49
330
BDF
100
AcDbEntity
  8
0
  6
Continuous
 62
     7
370
    15
100
AcDbLine
 10
2691.381516264432
 20
940.7880236891655
 30
0.0
 11
2690.952226942551
 21
940.0444727747029
 31
0.0
  0
ARC
  5
C4A
330
BDF
100
AcDbEntity
  8
0
  6
Continuous
 62
     7
370
    15
100
AcDbCircle
 10
2691.569656126998
 20
939.671372689151
 30
0.0
 40
0.7214031270008375
100
AcDbArc
 50
148.8562722006538
 51
178.0435013569425
  0
LINE
  5
C4B
330
BDF
100
AcDbEntity
  8
0
  6
Continuous
 62
     7
370
    15
100
AcDbLine
 10
2690.848673551958
 20
939.6960019021685
 30
0.0
 11
2690.848673551958
 21
938.0511884019151
 31
0.0
  0
LINE
  5
C4C
330
BDF
100
AcDbEntity
  8
0
  6
Continuous
 62
     7
370
    15
100
AcDbLine
 10
2687.595982358499
 20
936.1734497447228
 30
0.0
 11
2690.848673551958
 21
938.0511884019151
 31
0.0
  0
LINE
  5
C4D
330
BDF
100
AcDbEntity
  8
0
  6
Continuous
 62
     7
370
    15
100
AcDbLine
 10
2687.595982358499
 20
936.1734497447223
 30
0.0
 11
2687.595982358499
 21
937.8182632449762
 31
0.0
  0
ARC
  5
C4E
330
BDF
100
AcDbEntity
  8
0
  6
Continuous
 62
     7
370
    15
100
AcDbCircle
 10
2687.345652571816
 20
937.8428981916067
 30
0.0
 40
0.2515390281768617
100
AcDbArc
 50
354.3796210362931
 51
54.30196147122972
  0
LINE
  5
C4F
330
BDF
100
AcDbEntity
  8
0
  6
Continuous
 62
     7
370
    15
100
AcDbLine
 10
2687.492428967906
 20
938.0471739176417
 30
0.0
 11
2687.063139646025
 21
938.2950779312016
 31
0.0
  0
ARC
  5
C50
330
BDF
100
AcDbEntity
  8
0
  6
Continuous
 62
     7
370
    15
100
AcDbCircle
 10
2687.209916042114
 20
938.4993536572364
 30
0.0
 40
0.2515390281766205
100
AcDbArc
 50
174.3796210363255
 51
234.3019614713236
  0
LINE
  5
C51
330
BDF
100
AcDbEntity
  8
0
  6
Continuous
 62
     7
370
    15
100
AcDbLine
 10
2686.959586255432
 20
938.523988603867
 30
0.0
 11
2686.959586255432
 21
941.0825432645335
 31
0.0
  0
LINE
  5
C52
330
BDF
100
AcDbEntity
  8
0
  6
Continuous
 62
     7
370
    15
100
AcDbLine
 10
2684.696844555634
 20
939.776290285617
 30
0.0
 11
2686.959586255432
 21
941.0825432645333
 31
0.0
  0
LINE
  5
C53
330
BDF
100
AcDbEntity
  8
0
  6
Continuous
 62
     7
370
    15
100
AcDbLine
 10
2684.696844555634
 20
939.776290285617
 30
0.0
 11
2684.696844555634
 21
937.2177356249508
 31
0.0
  0
ARC
  5
C54
330
BDF
100
AcDbEntity
  8
0
  6
Continuous
 62
     7
370
    15
100
AcDbCircle
 10
2683.975861980595
 20
937.2423648379678
 30
0.0
 40
0.7214031269988805
100
AcDbArc
 50
328.8562722006316
 51
358.043501356988
  0
LINE
  5
C55
330
BDF
100
AcDbEntity
  8
0
  6
Continuous
 62
     7
370
    15
100
AcDbLine
 10
2684.593291165041
 20
936.8692647524165
 30
0.0
 11
2684.164001843159
 21
936.1257138379537
 31
0.0
  0
ARC
  5
C56
330
BDF
100
AcDbEntity
  8
0
  6
Continuous
 62
     7
370
    15
100
AcDbCircle
 10
2684.781431027608
 20
935.7526137524017
 30
0.0
 40
0.7214031270011842
100
AcDbArc
 50
148.8562722006538
 51
178.0435013569229
  0
LINE
  5
C57
330
BDF
100
AcDbEntity
  8
0
  6
Continuous
 62
     7
370
    15
100
AcDbLine
 10
2684.060448452566
 20
935.7772429654193
 30
0.0
 11
2684.060448452566
 21
934.1324294651661
 31
0.0
  0
LINE
  5
C58
330
BDF
100
AcDbEntity
  8
0
  6
Continuous
 62
     7
370
    15
100
AcDbLine
 10
2680.807757259108
 20
932.2546908079738
 30
0.0
 11
2684.060448452566
 21
934.1324294651661
 31
0.0
  0
LINE
  5
C59
330
BDF
100
AcDbEntity
  8
0
  6
Continuous
 62
     7
370
    15
100
AcDbLine
 10
2680.807757259108
 20
932.2546908079733
 30
0.0
 11
2680.807757259108
 21
933.899504308227
 31
0.0
  0
ARC
  5
C5A
330
BDF
100
AcDbEntity
  8
0
  6
Continuous
 62
     7
370
    15
100
AcDbCircle
 10
2680.557427472425
 20
933.9241392548576
 30
0.0
 40
0.251539028177381
100
AcDbArc
 50
354.3796210363644
 51
54.30196147119335
  0
LINE
  5
C5B
330
BDF
100
AcDbEntity
  8
0
  6
Continuous
 62
     7
370
    15
100
AcDbLine
 10
2680.704203868515
 20
934.1284149808927
 30
0.0
 11
2680.274914546634
 21
934.3763189944525
 31
0.0
  0
ARC
  5
C5C
330
BDF
100
AcDbEntity
  8
0
  6
Continuous
 62
     7
370
    15
100
AcDbCircle
 10
2680.421690942723
 20
934.5805947204874
 30
0.0
 40
0.251539028176742
100
AcDbArc
 50
174.3796210363514
 51
234.3019614712949
  0
LINE
  5
C5D
330
BDF
100
AcDbEntity
  8
0
  6
Continuous
 62
     7
370
    15
100
AcDbLine
 10
2680.171361156041
 20
934.605229667118
 30
0.0
 11
2680.171361156041
 21
937.1637843277845
 31
0.0
  0
LINE
  5
C5E
330
BDF
100
AcDbEntity
  8
0
  6
Continuous
 62
     7
370
    15
100
AcDbLine
 10
2677.908619456244
 20
935.857531348868
 30
0.0
 11
2680.17136115604
 21
937.1637843277843
 31
0.0
  0
LINE
  5
C5F
330
BDF
100
AcDbEntity
  8
0
  6
Continuous
 62
     7
370
    15
100
AcDbLine
 10
2677.908619456244
 20
935.857531348868
 30
0.0
 11
2677.908619456244
 21
933.2989766882018
 31
0.0
  0
ARC
  5
C60
330
BDF
100
AcDbEntity
  8
0
  6
Continuous
 62
     7
370
    15
100
AcDbCircle
 10
2677.187636881204
 20
933.3236059012186
 30
0.0
 40
0.721403126999059
100
AcDbArc
 50
328.8562722006371
 51
358.0435013569946
  0
LINE
  5
C61
330
BDF
100
AcDbEntity
  8
0
  6
Continuous
 62
     7
370
    15
100
AcDbLine
 10
2677.80506606565
 20
932.9505058156675
 30
0.0
 11
2677.375776743769
 21
932.2069549012047
 31
0.0
  0
ARC
  5
C62
330
BDF
100
AcDbEntity
  8
0
  6
Continuous
 62
     7
370
    15
100
AcDbCircle
 10
2677.993205928214
 20
931.8338548156534
 30
0.0
 40
0.7214031269986019
100
AcDbArc
 50
148.8562722006069
 51
178.043501356988
  0
LINE
  5
C63
330
BDF
100
AcDbEntity
  8
0
  6
Continuous
 62
     7
370
    15
100
AcDbLine
 10
2677.272223353176
 20
931.8584840286703
 30
0.0
 11
2677.272223353176
 21
930.2136705284171
 31
0.0
  0
LINE
  5
C64
330
BDF
100
AcDbEntity
  8
0
  6
Continuous
 62
     7
370
    15
100
AcDbLine
 10
2674.019532159717
 20
928.3359318712248
 30
0.0
 11
2677.272223353176
 21
930.2136705284171
 31
0.0
  0
LINE
  5
C65
330
BDF
100
AcDbEntity
  8
0
  6
Continuous
 62
     7
370
    15
100
AcDbLine
 10
2674.019532159717
 20
928.3359318712243
 30
0.0
 11
2674.019532159717
 21
929.980745371478
 31
0.0
  0
ARC
  5
C66
330
BDF
100
AcDbEntity
  8
0
  6
Continuous
 62
     7
370
    15
100
AcDbCircle
 10
2673.769202373034
 20
930.0053803181086
 30
0.0
 40
0.251539028177143
100
AcDbArc
 50
354.3796210363384
 51
54.30196147119715
  0
LINE
  5
C67
330
BDF
100
AcDbEntity
  8
0
  6
Continuous
 62
     7
370
    15
100
AcDbLine
 10
2673.915978769124
 20
930.2096560441437
 30
0.0
 11
2673.486689447243
 21
930.4575600577035
 31
0.0
  0
ARC
  5
C68
330
BDF
100
AcDbEntity
  8
0
  6
Continuous
 62
     7
370
    15
100
AcDbCircle
 10
2673.633465843332
 20
930.6618357837384
 30
0.0
 40
0.2515390281769998
100
AcDbArc
 50
174.3796210363708
 51
234.3019614712623
  0
LINE
  5
C69
330
BDF
100
AcDbEntity
  8
0
  6
Continuous
 62
     7
370
    15
100
AcDbLine
 10
2673.383136056649
 20
930.6864707303688
 30
0.0
 11
2673.383136056649
 21
933.2450253910353
 31
0.0
  0
LINE
  5
C6A
330
BDF
100
AcDbEntity
  8
0
  6
Continuous
 62
     7
370
    15
100
AcDbLine
 10
2671.120394356852
 20
931.938772412119
 30
0.0
 11
2673.383136056649
 21
933.2450253910353
 31
0.0
  0
LINE
  5
C6B
330
BDF
100
AcDbEntity
  8
0
  6
Continuous
 62
     7
370
    15
100
AcDbLine
 10
2671.120394356852
 20
931.938772412119
 30
0.0
 11
2671.120394356852
 21
929.3802177514528
 31
0.0
  0
ARC
  5
C6C
330
BDF
100
AcDbEntity
  8
0
  6
Continuous
 62
     7
370
    15
100
AcDbCircle
 10
2670.399411781813
 20
929.40484696447
 30
0.0
 40
0.7214031269992401
100
AcDbArc
 50
328.8562722006259
 51
358.0435013569685
  0
LINE
  5
C6D
330
BDF
100
AcDbEntity
  8
0
  6
Continuous
 62
     7
370
    15
100
AcDbLine
 10
2671.016840966259
 20
929.0317468789185
 30
0.0
 11
2670.587551644377
 21
928.2881959644557
 31
0.0
  0
ARC
  5
C6E
330
BDF
100
AcDbEntity
  8
0
  6
Continuous
 62
     7
370
    15
100
AcDbCircle
 10
2671.204980828824
 20
927.9150958789045
 30
0.0
 40
0.7214031269989953
100
AcDbArc
 50
148.8562722006315
 51
178.043501356988
  0
LINE
  5
C6F
330
BDF
100
AcDbEntity
  8
0
  6
Continuous
 62
     7
370
    15
100
AcDbLine
 10
2670.483998253785
 20
927.9397250919215
 30
0.0
 11
2670.483998253784
 21
926.2949115916681
 31
0.0
  0
LINE
  5
C70
330
BDF
100
AcDbEntity
  8
0
  6
Continuous
 62
     7
370
    15
100
AcDbLine
 10
2667.231307060327
 20
924.4171729344758
 30
0.0
 11
2670.483998253784
 21
926.2949115916681
 31
0.0
  0
LINE
  5
C71
330
BDF
100
AcDbEntity
  8
0
  6
Continuous
 62
     7
370
    15
100
AcDbLine
 10
2667.231307060327
 20
924.4171729344754
 30
0.0
 11
2667.231307060327
 21
926.061986434729
 31
0.0
  0
ARC
  5
C72
330
BDF
100
AcDbEntity
  8
0
  6
Continuous
 62
     7
370
    15
100
AcDbCircle
 10
2666.980977273643
 20
926.0866213813596
 30
0.0
 40
0.2515390281771329
100
AcDbArc
 50
354.3796210363384
 51
54.30196147122591
  0
LINE
  5
C73
330
BDF
100
AcDbEntity
  8
0
  6
Continuous
 62
     7
370
    15
100
AcDbLine
 10
2667.127753669733
 20
926.2908971073947
 30
0.0
 11
2666.698464347852
 21
926.5388011209545
 31
0.0
  0
ARC
  5
C74
330
BDF
100
AcDbEntity
  8
0
  6
Continuous
 62
     7
370
    15
100
AcDbCircle
 10
2666.845240743942
 20
926.7430768469894
 30
0.0
 40
0.2515390281768356
100
AcDbArc
 50
174.3796210363579
 51
234.3019614712872
  0
LINE
  5
C75
330
BDF
100
AcDbEntity
  8
0
  6
Continuous
 62
     7
370
    15
100
AcDbLine
 10
2666.594910957258
 20
926.76771179362
 30
0.0
 11
2666.594910957258
 21
929.3262664542863
 31
0.0
  0
LINE
  5
C76
330
BDF
100
AcDbEntity
  8
0
  6
Continuous
 62
     7
370
    15
100
AcDbLine
 10
2664.332169257461
 20
928.02001347537
 30
0.0
 11
2666.594910957258
 21
929.3262664542863
 31
0.0
  0
LINE
  5
C77
330
BDF
100
AcDbEntity
  8
0
  6
Continuous
 62
     7
370
    15
100
AcDbLine
 10
2664.332169257461
 20
928.02001347537
 30
0.0
 11
2664.332169257461
 21
925.4614588147036
 31
0.0
  0
ARC
  5
C78
330
BDF
100
AcDbEntity
  8
0
  6
Continuous
 62
     7
370
    15
100
AcDbCircle
 10
2663.611186682421
 20
925.4860880277213
 30
0.0
 40
0.7214031270007787
100
AcDbArc
 50
328.8562722006539
 51
358.0435013569425
  0
LINE
  5
C79
330
BDF
100
AcDbEntity
  8
0
  6
Continuous
 62
     7
370
    15
100
AcDbLine
 10
2664.228615866868
 20
925.1129879421695
 30
0.0
 11
2663.799326544987
 21
924.3694370277067
 31
0.0
  0
ARC
  5
C7A
330
BDF
100
AcDbEntity
  8
0
  6
Continuous
 62
     7
370
    15
100
AcDbCircle
 10
2664.416755729435
 20
923.9963369421548
 30
0.0
 40
0.721403127000664
100
AcDbArc
 50
148.8562722006482
 51
178.0435013569425
  0
LINE
  5
C7B
330
BDF
100
AcDbEntity
  8
0
  6
Continuous
 62
     7
370
    15
100
AcDbLine
 10
2663.695773154393
 20
924.0209661551725
 30
0.0
 11
2663.695773154393
 21
922.3761526549191
 31
0.0
  0
LINE
  5
C7C
330
BDF
100
AcDbEntity
  8
0
  6
Continuous
 62
     7
370
    15
100
AcDbLine
 10
2660.443081960935
 20
920.4984139977268
 30
0.0
 11
2663.695773154393
 21
922.3761526549189
 31
0.0
  0
LINE
  5
C7D
330
BDF
100
AcDbEntity
  8
0
  6
Continuous
 62
     7
370
    15
100
AcDbLine
 10
2660.443081960935
 20
920.4984139977263
 30
0.0
 11
2660.443081960935
 21
922.14322749798
 31
0.0
  0
ARC
  5
C7E
330
BDF
100
AcDbEntity
  8
0
  6
Continuous
 62
     7
370
    15
100
AcDbCircle
 10
2660.192752174252
 20
922.1678624446107
 30
0.0
 40
0.2515390281770164
100
AcDbArc
 50
354.379621036332
 51
54.30196147122591
  0
LINE
  5
C7F
330
BDF
100
AcDbEntity
  8
0
  6
Continuous
 62
     7
370
    15
100
AcDbLine
 10
2660.339528570342
 20
922.3721381706457
 30
0.0
 11
2659.910239248461
 21
922.6200421842055
 31
0.0
  0
ARC
  5
C80
330
BDF
100
AcDbEntity
  8
0
  6
Continuous
 62
     7
370
    15
100
AcDbCircle
 10
2660.057015644551
 20
922.8243179102404
 30
0.0
 40
0.2515390281768942
100
AcDbArc
 50
174.3796210363773
 51
234.3019614712872
  0
LINE
  5
C81
330
BDF
100
AcDbEntity
  8
0
  6
Continuous
 62
     7
370
    15
100
AcDbLine
 10
2659.806685857867
 20
922.848952856871
 30
0.0
 11
2659.806685857867
 21
925.4075075175373
 31
0.0
  0
LINE
  5
C82
330
BDF
100
AcDbEntity
  8
0
  6
Continuous
 62
     7
370
    15
100
AcDbLine
 10
2659.806685857867
 20
925.4075075175373
 30
0.0
 11
2657.54394415807
 21
924.101254538621
 31
0.0
  0
LINE
  5
C83
330
BDF
100
AcDbEntity
  8
0
  6
Continuous
 62
     7
370
    15
100
AcDbLine
 10
2657.54394415807
 20
924.101254538621
 30
0.0
 11
2657.54394415807
 21
921.5426998779548
 31
0.0
  0
ARC
  5
C84
330
BDF
100
AcDbEntity
  8
0
  6
Continuous
 62
     7
370
    15
100
AcDbCircle
 10
2656.82296158303
 20
921.5673290909721
 30
0.0
 40
0.721403127000146
100
AcDbArc
 50
328.8562722006427
 51
358.0435013569555
  0
LINE
  5
C85
330
BDF
100
AcDbEntity
  8
0
  6
Continuous
 62
     7
370
    15
100
AcDbLine
 10
2657.440390767478
 20
921.1942290054205
 30
0.0
 11
2657.011101445596
 21
920.4506780909579
 31
0.0
  0
ARC
  5
C86
330
BDF
100
AcDbEntity
  8
0
  6
Continuous
 62
     7
370
    15
100
AcDbCircle
 10
2657.628530630042
 20
920.0775780054064
 30
0.0
 40
0.7214031269992836
100
AcDbArc
 50
148.8562722006315
 51
178.0435013569815
  0
LINE
  5
C87
330
BDF
100
AcDbEntity
  8
0
  6
Continuous
 62
     7
370
    15
100
AcDbLine
 10
2656.907548055003
 20
920.1022072184233
 30
0.0
 11
2656.907548055003
 21
918.4573937181701
 31
0.0
  0
LINE
  5
C88
330
BDF
100
AcDbEntity
  8
0
  6
Continuous
 62
     7
370
    15
100
AcDbLine
 10
2653.654856861545
 20
916.5796550609778
 30
0.0
 11
2656.907548055003
 21
918.4573937181701
 31
0.0
  0
LINE
  5
C89
330
BDF
100
AcDbEntity
  8
0
  6
Continuous
 62
     7
370
    15
100
AcDbLine
 10
2653.654856861545
 20
916.5796550609773
 30
0.0
 11
2653.654856861545
 21
918.224468561231
 31
0.0
  0
ARC
  5
C8A
330
BDF
100
AcDbEntity
  8
0
  6
Continuous
 62
     7
370
    15
100
AcDbCircle
 10
2653.404527074861
 20
918.2491035078616
 30
0.0
 40
0.2515390281771444
100
AcDbArc
 50
354.3796210363449
 51
54.30196147122591
  0
LINE
  5
C8B
330
BDF
100
AcDbEntity
  8
0
  6
Continuous
 62
     7
370
    15
100
AcDbLine
 10
2653.551303470951
 20
918.4533792338966
 30
0.0
 11
2653.12201414907
 21
918.7012832474565
 31
0.0
  0
ARC
  5
C8C
330
BDF
100
AcDbEntity
  8
0
  6
Continuous
 62
     7
370
    15
100
AcDbCircle
 10
2653.26879054516
 20
918.9055589734916
 30
0.0
 40
0.2515390281771127
100
AcDbArc
 50
174.3796210363838
 51
234.3019614712547
  0
LINE
  5
C8D
330
BDF
100
AcDbEntity
  8
0
  6
Continuous
 62
     7
370
    15
100
AcDbLine
 10
2653.018460758477
 20
918.930193920122
 30
0.0
 11
2653.018460758477
 21
921.4887485807883
 31
0.0
  0
LINE
  5
C8E
330
BDF
100
AcDbEntity
  8
0
  6
Continuous
 62
     7
370
    15
100
AcDbLine
 10
2653.018460758477
 20
921.4887485807883
 30
0.0
 11
2650.755719058679
 21
920.182495601872
 31
0.0
  0
LINE
  5
C8F
330
BDF
100
AcDbEntity
  8
0
  6
Continuous
 62
     7
370
    15
100
AcDbLine
 10
2650.755719058679
 20
920.182495601872
 30
0.0
 11
2650.755719058679
 21
917.6239409412058
 31
0.0
  0
ARC
  5
C90
330
BDF
100
AcDbEntity
  8
0
  6
Continuous
 62
     7
370
    15
100
AcDbCircle
 10
2650.03473648364
 20
917.6485701542231
 30
0.0
 40
0.7214031269999217
100
AcDbArc
 50
328.8562722006427
 51
358.0435013569685
  0
LINE
  5
C91
330
BDF
100
AcDbEntity
  8
0
  6
Continuous
 62
     7
370
    15
100
AcDbLine
 10
2650.652165668086
 20
917.2754700686715
 30
0.0
 11
2650.222876346205
 21
916.5319191542085
 31
0.0
  0
ARC
  5
C92
330
BDF
100
AcDbEntity
  8
0
  6
Continuous
 62
     7
370
    15
100
AcDbCircle
 10
2650.840305530651
 20
916.158819068657
 30
0.0
 40
0.721403126999576
100
AcDbArc
 50
148.8562722006315
 51
178.043501356962
  0
LINE
  5
C93
330
BDF
100
AcDbEntity
  8
0
  6
Continuous
 62
     7
370
    15
100
AcDbLine
 10
2650.119322955612
 20
916.1834482816741
 30
0.0
 11
2650.119322955612
 21
914.5386347814209
 31
0.0
  0
LINE
  5
C94
330
BDF
100
AcDbEntity
  8
0
  6
Continuous
 62
     7
370
    15
100
AcDbLine
 10
2646.866631762153
 20
912.6608961242288
 30
0.0
 11
2650.119322955612
 21
914.5386347814209
 31
0.0
  0
LINE
  5
C95
330
BDF
100
AcDbEntity
  8
0
  6
Continuous
 62
     7
370
    15
100
AcDbLine
 10
2646.866631762153
 20
912.6608961242283
 30
0.0
 11
2646.866631762153
 21
914.305709624482
 31
0.0
  0
ARC
  5
C96
330
BDF
100
AcDbEntity
  8
0
  6
Continuous
 62
     7
370
    15
100
AcDbCircle
 10
2646.61630197547
 20
914.3303445711124
 30
0.0
 40
0.2515390281771315
100
AcDbArc
 50
354.379621036332
 51
54.30196147119715
  0
LINE
  5
C97
330
BDF
100
AcDbEntity
  8
0
  6
Continuous
 62
     7
370
    15
100
AcDbLine
 10
2646.76307837156
 20
914.5346202971476
 30
0.0
 11
2646.333789049679
 21
914.7825243107075
 31
0.0
  0
ARC
  5
C98
330
BDF
100
AcDbEntity
  8
0
  6
Continuous
 62
     7
370
    15
100
AcDbCircle
 10
2646.480565445769
 20
914.9868000367426
 30
0.0
 40
0.2515390281771639
100
AcDbArc
 50
174.3796210363903
 51
234.3019614712297
  0
LINE
  5
C99
330
BDF
100
AcDbEntity
  8
0
  6
Continuous
 62
     7
370
    15
100
AcDbLine
 10
2646.230235659086
 20
915.011434983373
 30
0.0
 11
2646.230235659086
 21
917.5699896440393
 31
0.0
  0
LINE
  5
C9A
330
BDF
100
AcDbEntity
  8
0
  6
Continuous
 62
     7
370
    15
100
AcDbLine
 10
2646.230235659086
 20
917.5699896440393
 30
0.0
 11
2645.452418199781
 21
917.1209651825369
 31
0.0
  0
LINE
  5
C9B
330
BDF
100
AcDbEntity
  8
0
  6
Continuous
 62
     7
370
    15
100
AcDbLine
 10
2644.108915315526
 20
916.2360471511069
 30
0.0
 11
2646.230235659086
 21
915.011434983373
 31
0.0
  0
LINE
  5
C9C
330
BDF
100
AcDbEntity
  8
0
  6
Continuous
 62
     7
370
    15
100
AcDbLine
 10
2644.108915315526
 20
917.8965528887683
 30
0.0
 11
2644.108915315526
 21
916.2360471511069
 31
0.0
  0
LINE
  5
C9D
330
BDF
100
AcDbEntity
  8
0
  6
Continuous
 62
     7
370
    15
100
AcDbLine
 10
2644.212468706119
 20
916.0071364784414
 30
0.0
 11
2646.333789049679
 21
914.7825243107075
 31
0.0
  0
ARC
  5
C9E
330
BDF
100
AcDbEntity
  8
0
  6
Continuous
 62
     7
370
    15
100
AcDbCircle
 10
2644.359245102209
 20
916.2114122044766
 30
0.0
 40
0.2515390281769998
100
AcDbArc
 50
174.3796210363708
 51
234.3019614712623
  0
LINE
  5
C9F
330
BDF
100
AcDbEntity
  8
0
  6
Continuous
 62
     7
370
    15
100
AcDbLine
 10
2649.836480243138
 20
917.5832532356782
 30
0.0
 11
2649.553637530663
 21
917.7465348580426
 31
0.0
  0
LINE
  5
CA0
330
BDF
100
AcDbEntity
  8
0
  6
Continuous
 62
     7
370
    15
100
AcDbLine
 10
2649.836480243138
 20
917.5832532356782
 30
0.0
 11
2647.715159899578
 21
916.3586410679441
 31
0.0
  0
LINE
  5
CA1
330
BDF
100
AcDbEntity
  8
0
  6
Continuous
 62
     7
370
    15
100
AcDbLine
 10
2647.715159899578
 20
916.3586410679441
 30
0.0
 11
2647.432317187103
 21
916.5219226903086
 31
0.0
  0
LINE
  5
CA2
330
BDF
100
AcDbEntity
  8
0
  6
Continuous
 62
     7
370
    15
100
AcDbLine
 10
2649.553637530663
 20
916.6850318025913
 30
0.0
 11
2649.836480243138
 21
917.5832532356782
 31
0.0
  0
LINE
  5
CA3
330
BDF
100
AcDbEntity
  8
0
  6
Continuous
 62
     7
370
    15
100
AcDbLine
 10
2647.432317187103
 20
915.460419634857
 30
0.0
 11
2647.715159899578
 21
916.3586410679441
 31
0.0
  0
LINE
  5
CA4
330
BDF
100
AcDbEntity
  8
0
  6
Continuous
 62
     7
370
    15
100
AcDbLine
 10
2644.641758028001
 20
915.7592324648815
 30
0.0
 11
2646.76307837156
 21
914.5346202971476
 31
0.0
  0
LINE
  5
CA5
330
BDF
100
AcDbEntity
  8
0
  6
Continuous
 62
     7
370
    15
100
AcDbLine
 10
2644.212468706119
 20
916.0071364784414
 30
0.0
 11
2644.641758028001
 21
915.7592324648815
 31
0.0
  0
LINE
  5
CA6
330
BDF
100
AcDbEntity
  8
0
  6
Continuous
 62
     7
370
    15
100
AcDbLine
 10
2646.866631762153
 20
914.305709624482
 30
0.0
 11
2644.745311418594
 21
915.530321792216
 31
0.0
  0
ARC
  5
CA7
330
BDF
100
AcDbEntity
  8
0
  6
Continuous
 62
     7
370
    15
100
AcDbCircle
 10
2644.494981631911
 20
915.5549567388465
 30
0.0
 40
0.2515390281770983
100
AcDbArc
 50
354.3796210363384
 51
54.30196147122212
  0
LINE
  5
CA8
330
BDF
100
AcDbEntity
  8
0
  6
Continuous
 62
     7
370
    15
100
AcDbLine
 10
2644.745311418594
 20
913.8855082919624
 30
0.0
 11
2646.866631762153
 21
912.6608961242283
 31
0.0
  0
LINE
  5
CA9
330
BDF
100
AcDbEntity
  8
0
  6
Continuous
 62
     7
370
    15
100
AcDbLine
 10
2644.745311418594
 20
915.530321792216
 30
0.0
 11
2644.745311418594
 21
913.8855082919622
 31
0.0
  0
LINE
  5
CAA
330
BDF
100
AcDbEntity
  8
0
  6
Continuous
 62
     7
370
    15
100
AcDbLine
 10
2645.240286165425
 20
913.5997190078027
 30
0.0
 11
2644.745311418594
 21
913.8855082919628
 31
0.0
  0
LINE
  5
CAB
330
BDF
100
AcDbEntity
  8
0
  6
Continuous
 62
     7
370
    15
100
AcDbLine
 10
2646.866631762153
 20
912.6608961242288
 30
0.0
 11
2646.866631762153
 21
912.6608496792067
 31
0.0
  0
LINE
  5
CAC
330
BDF
100
AcDbEntity
  8
0
  6
Continuous
 62
     7
370
    15
100
AcDbLine
 10
2646.866631762153
 20
912.6608496792067
 30
0.0
 11
2645.240286165425
 21
913.5997190078027
 31
0.0
  0
LINE
  5
CAD
330
BDF
100
AcDbEntity
  8
0
  6
Continuous
 62
     7
370
    15
100
AcDbLine
 10
2649.624348208782
 20
914.2528454972611
 30
0.0
 11
2650.119322955612
 21
914.5386347814209
 31
0.0
  0
LINE
  5
CAE
330
BDF
100
AcDbEntity
  8
0
  6
Continuous
 62
     7
370
    15
100
AcDbLine
 10
2649.624348208782
 20
914.2528454972611
 30
0.0
 11
2646.866631762153
 21
912.6608496792067
 31
0.0
  0
LINE
  5
CAF
330
BDF
100
AcDbEntity
  8
0
  6
Continuous
 62
     7
370
    15
100
AcDbLine
 10
2645.627214628499
 20
912.5189223931068
 30
0.0
 11
2645.699905573199
 21
912.4769588039553
 31
0.0
  0
ARC
  5
CB0
330
BDF
100
AcDbEntity
  8
0
  6
Continuous
 62
     7
370
    15
100
AcDbCircle
 10
2645.768913676639
 20
912.5615611937233
 30
0.0
 40
0.1091772993568857
100
AcDbArc
 50
230.7967147639874
 51
9.214036990773339
  0
LINE
  5
CB1
330
BDF
100
AcDbEntity
  8
0
  6
Continuous
 62
     7
370
    15
100
AcDbLine
 10
2645.876682268495
 20
912.5790429929491
 30
0.0
 11
2645.876682268494
 21
913.2323353574818
 31
0.0
  0
LINE
  5
CB2
330
BDF
100
AcDbEntity
  8
0
  6
Continuous
 62
     7
370
    15
100
AcDbLine
 10
2646.859560694342
 20
912.6649317197658
 30
0.0
 11
2646.859560694342
 21
912.0116393552304
 31
0.0
  0
ARC
  5
CB3
330
BDF
100
AcDbEntity
  8
0
  6
Continuous
 62
     7
370
    15
100
AcDbCircle
 10
2647.243364719683
 20
912.0291045682954
 30
0.0
 40
0.3842012018928148
100
AcDbArc
 50
182.6054784856368
 51
237.3945216599988
  0
LINE
  5
CB4
330
BDF
100
AcDbEntity
  8
0
  6
Continuous
 62
     7
370
    15
100
AcDbLine
 10
2647.036337389638
 20
911.7054531382812
 30
0.0
 11
2647.109028334335
 21
911.663489549128
 31
0.0
  0
ARC
  5
CB5
330
BDF
100
AcDbEntity
  8
0
  6
Continuous
 62
     7
370
    15
100
AcDbCircle
 10
2646.90200100429
 20
911.3398381191133
 30
0.0
 40
0.3842012018932326
100
AcDbArc
 50
2.605478485669381
 51
57.39452165996635
  0
LINE
  5
CB6
330
BDF
100
AcDbEntity
  8
0
  6
Continuous
 62
     7
370
    15
100
AcDbLine
 10
2647.285805029631
 20
911.3573033321786
 30
0.0
 11
2647.285805029631
 21
906.6420476626069
 31
0.0
  0
LINE
  5
CB7
330
BDF
100
AcDbEntity
  8
0
  6
Continuous
 62
     7
370
    15
100
AcDbLine
 10
2647.285805029631
 20
906.6420476626069
 30
0.0
 11
2645.450437933203
 21
907.701582534541
 31
0.0
  0
LINE
  5
CB8
330
BDF
100
AcDbEntity
  8
0
  6
Continuous
 62
     7
370
    15
100
AcDbLine
 10
2645.450437933203
 20
912.4168382041132
 30
0.0
 11
2645.450437933203
 21
907.701582534541
 31
0.0
  0
ARC
  5
CB9
330
BDF
100
AcDbEntity
  8
0
  6
Continuous
 62
     7
370
    15
100
AcDbCircle
 10
2645.55820652506
 20
912.4343200033383
 30
0.0
 40
0.1091772993571906
100
AcDbArc
 50
50.79671476430084
 51
189.2140369904435
  0
LINE
  5
CBA
330
BDF
100
AcDbEntity
  8
0
  6
Continuous
 62
     7
370
    15
100
AcDbLine
 10
2648.980881037902
 20
913.2362515229644
 30
0.0
 11
2648.980881037902
 21
913.8813798063818
 31
0.0
  0
LINE
  5
CBB
330
BDF
100
AcDbEntity
  8
0
  6
Continuous
 62
     7
370
    15
100
AcDbLine
 10
2646.859560694342
 20
912.0116393552304
 30
0.0
 11
2648.980881037902
 21
913.2362515229644
 31
0.0
  0
LINE
  5
CBC
330
BDF
100
AcDbEntity
  8
0
  6
Continuous
 62
     7
370
    15
100
AcDbLine
 10
2650.897140414917
 20
920.1548060878561
 30
0.0
 11
2653.018460758477
 21
918.930193920122
 31
0.0
  0
LINE
  5
CBD
330
BDF
100
AcDbEntity
  8
0
  6
Continuous
 62
     7
370
    15
100
AcDbLine
 10
2650.897140414917
 20
920.2641364130544
 30
0.0
 11
2650.897140414917
 21
920.1548060878561
 31
0.0
  0
LINE
  5
CBE
330
BDF
100
AcDbEntity
  8
0
  6
Continuous
 62
     7
370
    15
100
AcDbLine
 10
2647.285805029631
 20
911.3573033321786
 30
0.0
 11
2649.407125373191
 21
912.5819154999128
 31
0.0
  0
LINE
  5
CBF
330
BDF
100
AcDbEntity
  8
0
  6
Continuous
 62
     7
370
    15
100
AcDbLine
 10
2649.230348677895
 20
912.888101716862
 30
0.0
 11
2647.109028334335
 21
911.663489549128
 31
0.0
  0
ARC
  5
CC0
330
BDF
100
AcDbEntity
  8
0
  6
Continuous
 62
     7
370
    15
100
AcDbCircle
 10
2649.023321347849
 20
912.5644502868475
 30
0.0
 40
0.3842012018932647
100
AcDbArc
 50
2.605478485662874
 51
57.39452165993736
  0
ARC
  5
CC1
330
BDF
100
AcDbEntity
  8
0
  6
Continuous
 62
     7
370
    15
100
AcDbCircle
 10
2649.364685063243
 20
913.2537167360297
 30
0.0
 40
0.3842012018931934
100
AcDbArc
 50
182.6054784856628
 51
237.3945216599663
  0
LINE
  5
CC2
330
BDF
100
AcDbEntity
  8
0
  6
Continuous
 62
     7
370
    15
100
AcDbLine
 10
2649.157657733198
 20
912.9300653060152
 30
0.0
 11
2647.036337389638
 21
911.7054531382812
 31
0.0
  0
LINE
  5
CC3
330
BDF
100
AcDbEntity
  8
0
  6
Continuous
 62
     7
370
    15
100
AcDbLine
 10
2649.407125373191
 20
907.8666598303398
 30
0.0
 11
2649.407125373191
 21
912.5819154999128
 31
0.0
  0
LINE
  5
CC4
330
BDF
100
AcDbEntity
  8
0
  6
Continuous
 62
     7
370
    15
100
AcDbLine
 10
2649.167542204495
 20
906.1593243728523
 30
0.0
 11
2649.407125373191
 21
907.8666598303398
 31
0.0
  0
ARC
  5
CC5
330
BDF
100
AcDbEntity
  8
0
  6
Continuous
 62
     7
370
    15
100
AcDbCircle
 10
2648.085311222551
 20
906.3247433188632
 30
0.0
 40
1.09480013060731
100
AcDbArc
 50
302.9067666138693
 51
351.3096048990238
  0
LINE
  5
CC6
330
BDF
100
AcDbEntity
  8
0
  6
Continuous
 62
     7
370
    15
100
AcDbLine
 10
2648.012843166552
 20
905.0204058155532
 30
0.0
 11
2648.680087236271
 21
905.4055976179638
 31
0.0
  0
LWPOLYLINE
  5
CC7
330
BDF
100
AcDbEntity
  8
0
  6
Continuous
 62
     7
370
    15
100
AcDbPolyline
 90
        9
 70
   128
 43
0.0
 10
2648.012843166552
 20
905.0204058155532
 10
2647.926891703774
 20
904.9794706550384
 10
2647.843551832699
 20
904.9571464142273
 10
2647.765355793136
 20
904.9541114038804
 10
2647.694679532182
 20
904.9704578412514
 10
2647.633670512258
 20
905.0056890481123
 10
2647.584182461565
 20
905.0587345420703
 10
2647.54771904948
 20
905.1279825626345
 10
2647.525388198328
 20
905.2113290437404
  0
LINE
  5
CC8
330
BDF
100
AcDbEntity
  8
0
  6
Continuous
 62
     7
370
    15
100
AcDbLine
 10
2647.285805029631
 20
906.6420476626069
 30
0.0
 11
2647.525388198328
 21
905.2113290437404
 31
0.0
  0
LINE
  5
CC9
330
BDF
100
AcDbEntity
  8
0
  6
Continuous
 62
     7
370
    15
100
AcDbLine
 10
2649.230348677895
 20
912.888101716862
 30
0.0
 11
2649.157657733198
 21
912.9300653060152
 31
0.0
  0
LINE
  5
CCA
330
BDF
100
AcDbEntity
  8
0
  6
Continuous
 62
     7
370
    15
100
AcDbLine
 10
2651.000693805511
 20
919.9258954151906
 30
0.0
 11
2653.12201414907
 21
918.7012832474565
 31
0.0
  0
ARC
  5
CCB
330
BDF
100
AcDbEntity
  8
0
  6
Continuous
 62
     7
370
    15
100
AcDbCircle
 10
2651.1474702016
 20
920.1301711412256
 30
0.0
 40
0.2515390281772261
100
AcDbArc
 50
174.3796210363773
 51
234.3019614712221
  0
LINE
  5
CCC
330
BDF
100
AcDbEntity
  8
0
  6
Continuous
 62
     7
370
    15
100
AcDbLine
 10
2656.624705342528
 20
921.5020121724272
 30
0.0
 11
2654.503384998969
 21
920.2774000046931
 31
0.0
  0
LINE
  5
CCD
330
BDF
100
AcDbEntity
  8
0
  6
Continuous
 62
     7
370
    15
100
AcDbLine
 10
2656.341862630054
 20
920.6037907393405
 30
0.0
 11
2656.624705342528
 21
921.5020121724272
 31
0.0
  0
LINE
  5
CCE
330
BDF
100
AcDbEntity
  8
0
  6
Continuous
 62
     7
370
    15
100
AcDbLine
 10
2654.220542286494
 20
919.3791785716062
 30
0.0
 11
2654.503384998969
 21
920.2774000046931
 31
0.0
  0
LINE
  5
CCF
330
BDF
100
AcDbEntity
  8
0
  6
Continuous
 62
     7
370
    15
100
AcDbLine
 10
2654.503384998969
 20
920.2774000046931
 30
0.0
 11
2654.220542286494
 21
920.4406816270576
 31
0.0
  0
LINE
  5
CD0
330
BDF
100
AcDbEntity
  8
0
  6
Continuous
 62
     7
370
    15
100
AcDbLine
 10
2656.624705342528
 20
921.5020121724272
 30
0.0
 11
2656.341862630054
 21
921.6652937947916
 31
0.0
  0
LINE
  5
CD1
330
BDF
100
AcDbEntity
  8
0
  6
Continuous
 62
     7
370
    15
100
AcDbLine
 10
2651.429983127392
 20
919.6779914016307
 30
0.0
 11
2653.551303470951
 21
918.4533792338966
 31
0.0
  0
LINE
  5
CD2
330
BDF
100
AcDbEntity
  8
0
  6
Continuous
 62
     7
370
    15
100
AcDbLine
 10
2651.000693805511
 20
919.9258954151906
 30
0.0
 11
2651.429983127392
 21
919.6779914016307
 31
0.0
  0
LINE
  5
CD3
330
BDF
100
AcDbEntity
  8
0
  6
Continuous
 62
     7
370
    15
100
AcDbLine
 10
2653.654856861545
 20
918.224468561231
 30
0.0
 11
2651.533536517985
 21
919.4490807289652
 31
0.0
  0
ARC
  5
CD4
330
BDF
100
AcDbEntity
  8
0
  6
Continuous
 62
     7
370
    15
100
AcDbCircle
 10
2651.283206731302
 20
919.4737156755955
 30
0.0
 40
0.2515390281772641
100
AcDbArc
 50
354.3796210363579
 51
54.30196147119715
  0
LINE
  5
CD5
330
BDF
100
AcDbEntity
  8
0
  6
Continuous
 62
     7
370
    15
100
AcDbLine
 10
2651.533536517985
 20
917.8042672287112
 30
0.0
 11
2653.654856861545
 21
916.5796550609773
 31
0.0
  0
LINE
  5
CD6
330
BDF
100
AcDbEntity
  8
0
  6
Continuous
 62
     7
370
    15
100
AcDbLine
 10
2651.533536517985
 20
919.4490807289652
 30
0.0
 11
2651.533536517985
 21
917.8042672287112
 31
0.0
  0
LINE
  5
CD7
330
BDF
100
AcDbEntity
  8
0
  6
Continuous
 62
     7
370
    15
100
AcDbLine
 10
2647.525388198328
 20
905.2113290437404
 30
0.0
 11
2645.690021101899
 21
906.2708639156744
 31
0.0
  0
LINE
  5
CD8
330
BDF
100
AcDbEntity
  8
0
  6
Continuous
 62
     7
370
    15
100
AcDbLine
 10
2645.450437933203
 20
907.701582534541
 30
0.0
 11
2645.690021101899
 21
906.2708639156744
 31
0.0
  0
LINE
  5
CD9
330
BDF
100
AcDbEntity
  8
0
  6
Continuous
 62
     7
370
    15
100
AcDbLine
 10
2656.412573308172
 20
918.1716044340101
 30
0.0
 11
2656.907548055003
 21
918.4573937181699
 31
0.0
  0
LINE
  5
CDA
330
BDF
100
AcDbEntity
  8
0
  6
Continuous
 62
     7
370
    15
100
AcDbLine
 10
2656.412573308172
 20
918.1716044340101
 30
0.0
 11
2653.654856861545
 21
916.5796086159557
 31
0.0
  0
LINE
  5
CDB
330
BDF
100
AcDbEntity
  8
0
  6
Continuous
 62
     7
370
    15
100
AcDbLine
 10
2653.654856861545
 20
916.5796550609778
 30
0.0
 11
2653.654856861545
 21
916.5796086159557
 31
0.0
  0
LINE
  5
CDC
330
BDF
100
AcDbEntity
  8
0
  6
Continuous
 62
     7
370
    15
100
AcDbLine
 10
2652.028511264815
 20
917.5184779445517
 30
0.0
 11
2651.533536517985
 21
917.8042672287118
 31
0.0
  0
LINE
  5
CDD
330
BDF
100
AcDbEntity
  8
0
  6
Continuous
 62
     7
370
    15
100
AcDbLine
 10
2653.654856861545
 20
916.5796086159557
 30
0.0
 11
2652.028511264815
 21
917.5184779445517
 31
0.0
  0
LINE
  5
CDE
330
BDF
100
AcDbEntity
  8
0
  6
Continuous
 62
     7
370
    15
100
AcDbLine
 10
2652.41543972789
 20
916.4376813298558
 30
0.0
 11
2652.48813067259
 21
916.3957177407045
 31
0.0
  0
ARC
  5
CDF
330
BDF
100
AcDbEntity
  8
0
  6
Continuous
 62
     7
370
    15
100
AcDbCircle
 10
2652.55713877603
 20
916.4803201304723
 30
0.0
 40
0.1091772993568599
100
AcDbArc
 50
230.7967147639347
 51
9.214036990811916
  0
LINE
  5
CE0
330
BDF
100
AcDbEntity
  8
0
  6
Continuous
 62
     7
370
    15
100
AcDbLine
 10
2652.664907367887
 20
916.4978019296981
 30
0.0
 11
2652.664907367884
 21
917.151094294231
 31
0.0
  0
LINE
  5
CE1
330
BDF
100
AcDbEntity
  8
0
  6
Continuous
 62
     7
370
    15
100
AcDbLine
 10
2653.647785793733
 20
916.5836906565148
 30
0.0
 11
2653.647785793733
 21
915.9303982919794
 31
0.0
  0
ARC
  5
CE2
330
BDF
100
AcDbEntity
  8
0
  6
Continuous
 62
     7
370
    15
100
AcDbCircle
 10
2654.031589819075
 20
915.9478635050446
 30
0.0
 40
0.3842012018929849
100
AcDbArc
 50
182.6054784856498
 51
237.3945216599699
  0
LINE
  5
CE3
330
BDF
100
AcDbEntity
  8
0
  6
Continuous
 62
     7
370
    15
100
AcDbLine
 10
2653.82456248903
 20
915.6242120750302
 30
0.0
 11
2653.897253433726
 21
915.582248485877
 31
0.0
  0
ARC
  5
CE4
330
BDF
100
AcDbEntity
  8
0
  6
Continuous
 62
     7
370
    15
100
AcDbCircle
 10
2653.690226103681
 20
915.2585970558625
 30
0.0
 40
0.3842012018931585
100
AcDbArc
 50
2.605478485662874
 51
57.39452165996985
  0
LINE
  5
CE5
330
BDF
100
AcDbEntity
  8
0
  6
Continuous
 62
     7
370
    15
100
AcDbLine
 10
2654.074030129022
 20
915.2760622689276
 30
0.0
 11
2654.074030129022
 21
910.5608065993559
 31
0.0
  0
LINE
  5
CE6
330
BDF
100
AcDbEntity
  8
0
  6
Continuous
 62
     7
370
    15
100
AcDbLine
 10
2654.074030129022
 20
910.5608065993559
 30
0.0
 11
2652.238663032594
 21
911.6203414712899
 31
0.0
  0
LINE
  5
CE7
330
BDF
100
AcDbEntity
  8
0
  6
Continuous
 62
     7
370
    15
100
AcDbLine
 10
2652.238663032593
 20
916.3355971408622
 30
0.0
 11
2652.238663032594
 21
911.6203414712899
 31
0.0
  0
ARC
  5
CE8
330
BDF
100
AcDbEntity
  8
0
  6
Continuous
 62
     7
370
    15
100
AcDbCircle
 10
2652.34643162445
 20
916.3530789400873
 30
0.0
 40
0.1091772993571761
100
AcDbArc
 50
50.79671476432927
 51
189.2140369904435
  0
ARC
  5
CE9
330
BDF
100
AcDbEntity
  8
0
  6
Continuous
 62
     7
370
    15
100
AcDbCircle
 10
2645.991022355014
 20
906.2996295678999
 30
0.0
 40
0.3023726461243594
100
AcDbArc
 50
185.4589815371166
 51
237.2630757801053
  0
LINE
  5
CEA
330
BDF
100
AcDbEntity
  8
0
  6
Continuous
 62
     7
370
    15
100
AcDbLine
 10
2655.769106137292
 20
917.1550104597134
 30
0.0
 11
2655.769106137292
 21
917.8001387431306
 31
0.0
  0
LINE
  5
CEB
330
BDF
100
AcDbEntity
  8
0
  6
Continuous
 62
     7
370
    15
100
AcDbLine
 10
2653.647785793733
 20
915.9303982919794
 30
0.0
 11
2655.769106137292
 21
917.1550104597134
 31
0.0
  0
LINE
  5
CEC
330
BDF
100
AcDbEntity
  8
0
  6
Continuous
 62
     7
370
    15
100
AcDbLine
 10
2657.685365514308
 20
924.0735650246049
 30
0.0
 11
2659.806685857867
 21
922.848952856871
 31
0.0
  0
LINE
  5
CED
330
BDF
100
AcDbEntity
  8
0
  6
Continuous
 62
     7
370
    15
100
AcDbLine
 10
2657.685365514308
 20
924.1828953498034
 30
0.0
 11
2657.685365514308
 21
924.0735650246049
 31
0.0
  0
LINE
  5
CEE
330
BDF
100
AcDbEntity
  8
0
  6
Continuous
 62
     7
370
    15
100
AcDbLine
 10
2654.074030129022
 20
915.2760622689276
 30
0.0
 11
2656.195350472582
 21
916.5006744366618
 31
0.0
  0
LINE
  5
CEF
330
BDF
100
AcDbEntity
  8
0
  6
Continuous
 62
     7
370
    15
100
AcDbLine
 10
2656.018573777286
 20
916.806860653611
 30
0.0
 11
2653.897253433726
 21
915.582248485877
 31
0.0
  0
ARC
  5
CF0
330
BDF
100
AcDbEntity
  8
0
  6
Continuous
 62
     7
370
    15
100
AcDbCircle
 10
2655.811546447239
 20
916.4832092235965
 30
0.0
 40
0.3842012018934489
100
AcDbArc
 50
2.605478485675888
 51
57.39452165993386
  0
ARC
  5
CF1
330
BDF
100
AcDbEntity
  8
0
  6
Continuous
 62
     7
370
    15
100
AcDbCircle
 10
2656.152910162634
 20
917.1724756727787
 30
0.0
 40
0.3842012018929855
100
AcDbArc
 50
182.6054784856563
 51
237.3945216599734
  0
LINE
  5
CF2
330
BDF
100
AcDbEntity
  8
0
  6
Continuous
 62
     7
370
    15
100
AcDbLine
 10
2655.945882832589
 20
916.8488242427642
 30
0.0
 11
2653.82456248903
 21
915.6242120750302
 31
0.0
  0
LINE
  5
CF3
330
BDF
100
AcDbEntity
  8
0
  6
Continuous
 62
     7
370
    15
100
AcDbLine
 10
2656.195350472582
 20
911.7854187670886
 30
0.0
 11
2656.195350472582
 21
916.5006744366618
 31
0.0
  0
LINE
  5
CF4
330
BDF
100
AcDbEntity
  8
0
  6
Continuous
 62
     7
370
    15
100
AcDbLine
 10
2655.955767303885
 20
910.0780833096013
 30
0.0
 11
2656.195350472582
 21
911.7854187670886
 31
0.0
  0
ARC
  5
CF5
330
BDF
100
AcDbEntity
  8
0
  6
Continuous
 62
     7
370
    15
100
AcDbCircle
 10
2654.873536321942
 20
910.2435022556122
 30
0.0
 40
1.09480013060738
100
AcDbArc
 50
302.9067666138728
 51
351.3096048990238
  0
LINE
  5
CF6
330
BDF
100
AcDbEntity
  8
0
  6
Continuous
 62
     7
370
    15
100
AcDbLine
 10
2654.801068265943
 20
908.9391647523022
 30
0.0
 11
2655.468312335662
 21
909.324356554713
 31
0.0
  0
LWPOLYLINE
  5
CF7
330
BDF
100
AcDbEntity
  8
0
  6
Continuous
 62
     7
370
    15
100
AcDbPolyline
 90
        9
 70
   128
 43
0.0
 10
2654.801068265943
 20
908.9391647523022
 10
2654.715116803164
 20
908.8982295917874
 10
2654.631776932089
 20
908.8759053509765
 10
2654.553580892528
 20
908.8728703406294
 10
2654.482904631572
 20
908.8892167780004
 10
2654.421895611649
 20
908.9244479848613
 10
2654.372407560956
 20
908.9774934788195
 10
2654.335944148871
 20
909.0467414993835
 10
2654.313613297719
 20
909.1300879804894
  0
LINE
  5
CF8
330
BDF
100
AcDbEntity
  8
0
  6
Continuous
 62
     7
370
    15
100
AcDbLine
 10
2654.074030129022
 20
910.5608065993559
 30
0.0
 11
2654.313613297719
 21
909.1300879804894
 31
0.0
  0
LINE
  5
CF9
330
BDF
100
AcDbEntity
  8
0
  6
Continuous
 62
     7
370
    15
100
AcDbLine
 10
2656.018573777286
 20
916.806860653611
 30
0.0
 11
2655.945882832589
 21
916.8488242427642
 31
0.0
  0
LINE
  5
CFA
330
BDF
100
AcDbEntity
  8
0
  6
Continuous
 62
     7
370
    15
100
AcDbLine
 10
2657.788918904901
 20
923.8446543519394
 30
0.0
 11
2659.910239248461
 21
922.6200421842055
 31
0.0
  0
ARC
  5
CFB
330
BDF
100
AcDbEntity
  8
0
  6
Continuous
 62
     7
370
    15
100
AcDbCircle
 10
2657.935695300991
 20
924.0489300779747
 30
0.0
 40
0.2515390281773336
100
AcDbArc
 50
174.3796210363903
 51
234.3019614712221
  0
LINE
  5
CFC
330
BDF
100
AcDbEntity
  8
0
  6
Continuous
 62
     7
370
    15
100
AcDbLine
 10
2663.41293044192
 20
925.4207711091762
 30
0.0
 11
2663.130087729445
 21
925.5840527315406
 31
0.0
  0
LINE
  5
CFD
330
BDF
100
AcDbEntity
  8
0
  6
Continuous
 62
     7
370
    15
100
AcDbLine
 10
2663.41293044192
 20
925.4207711091762
 30
0.0
 11
2661.29161009836
 21
924.1961589414421
 31
0.0
  0
LINE
  5
CFE
330
BDF
100
AcDbEntity
  8
0
  6
Continuous
 62
     7
370
    15
100
AcDbLine
 10
2661.29161009836
 20
924.1961589414421
 30
0.0
 11
2661.008767385885
 21
924.3594405638067
 31
0.0
  0
LINE
  5
CFF
330
BDF
100
AcDbEntity
  8
0
  6
Continuous
 62
     7
370
    15
100
AcDbLine
 10
2661.008767385885
 20
923.297937508355
 30
0.0
 11
2661.29161009836
 21
924.1961589414421
 31
0.0
  0
LINE
  5
D00
330
BDF
100
AcDbEntity
  8
0
  6
Continuous
 62
     7
370
    15
100
AcDbLine
 10
2663.130087729445
 20
924.5225496760893
 30
0.0
 11
2663.41293044192
 21
925.4207711091762
 31
0.0
  0
LINE
  5
D01
330
BDF
100
AcDbEntity
  8
0
  6
Continuous
 62
     7
370
    15
100
AcDbLine
 10
2658.218208226783
 20
923.5967503383797
 30
0.0
 11
2660.339528570342
 21
922.3721381706457
 31
0.0
  0
LINE
  5
D02
330
BDF
100
AcDbEntity
  8
0
  6
Continuous
 62
     7
370
    15
100
AcDbLine
 10
2657.788918904901
 20
923.8446543519394
 30
0.0
 11
2658.218208226783
 21
923.5967503383797
 31
0.0
  0
LINE
  5
D03
330
BDF
100
AcDbEntity
  8
0
  6
Continuous
 62
     7
370
    15
100
AcDbLine
 10
2660.443081960935
 20
922.14322749798
 30
0.0
 11
2658.321761617376
 21
923.367839665714
 31
0.0
  0
ARC
  5
D04
330
BDF
100
AcDbEntity
  8
0
  6
Continuous
 62
     7
370
    15
100
AcDbCircle
 10
2658.071431830693
 20
923.3924746123447
 30
0.0
 40
0.2515390281770193
100
AcDbArc
 50
354.3796210363255
 51
54.30196147122591
  0
LINE
  5
D05
330
BDF
100
AcDbEntity
  8
0
  6
Continuous
 62
     7
370
    15
100
AcDbLine
 10
2658.321761617376
 20
921.7230261654604
 30
0.0
 11
2660.443081960935
 21
920.4984139977263
 31
0.0
  0
LINE
  5
D06
330
BDF
100
AcDbEntity
  8
0
  6
Continuous
 62
     7
370
    15
100
AcDbLine
 10
2658.321761617376
 20
923.367839665714
 30
0.0
 11
2658.321761617376
 21
921.7230261654604
 31
0.0
  0
LINE
  5
D07
330
BDF
100
AcDbEntity
  8
0
  6
Continuous
 62
     7
370
    15
100
AcDbLine
 10
2654.313613297719
 20
909.1300879804894
 30
0.0
 11
2652.478246201291
 21
910.1896228524235
 31
0.0
  0
LINE
  5
D08
330
BDF
100
AcDbEntity
  8
0
  6
Continuous
 62
     7
370
    15
100
AcDbLine
 10
2652.238663032594
 20
911.6203414712899
 30
0.0
 11
2652.478246201291
 21
910.1896228524235
 31
0.0
  0
LINE
  5
D09
330
BDF
100
AcDbEntity
  8
0
  6
Continuous
 62
     7
370
    15
100
AcDbLine
 10
2658.816736364206
 20
921.4372368813009
 30
0.0
 11
2658.321761617376
 21
921.7230261654608
 31
0.0
  0
LINE
  5
D0A
330
BDF
100
AcDbEntity
  8
0
  6
Continuous
 62
     7
370
    15
100
AcDbLine
 10
2660.443081960935
 20
920.4984139977268
 30
0.0
 11
2660.443081960935
 21
920.4983675527047
 31
0.0
  0
LINE
  5
D0B
330
BDF
100
AcDbEntity
  8
0
  6
Continuous
 62
     7
370
    15
100
AcDbLine
 10
2660.443081960935
 20
920.4983675527047
 30
0.0
 11
2658.816736364206
 21
921.4372368813007
 31
0.0
  0
LINE
  5
D0C
330
BDF
100
AcDbEntity
  8
0
  6
Continuous
 62
     7
370
    15
100
AcDbLine
 10
2663.200798407563
 20
922.0903633707591
 30
0.0
 11
2663.695773154393
 21
922.3761526549189
 31
0.0
  0
LINE
  5
D0D
330
BDF
100
AcDbEntity
  8
0
  6
Continuous
 62
     7
370
    15
100
AcDbLine
 10
2663.200798407563
 20
922.0903633707591
 30
0.0
 11
2660.443081960935
 21
920.4983675527047
 31
0.0
  0
LINE
  5
D0E
330
BDF
100
AcDbEntity
  8
0
  6
Continuous
 62
     7
370
    15
100
AcDbLine
 10
2659.203664827281
 20
920.3564402666048
 30
0.0
 11
2659.276355771981
 21
920.3144766774535
 31
0.0
  0
ARC
  5
D0F
330
BDF
100
AcDbEntity
  8
0
  6
Continuous
 62
     7
370
    15
100
AcDbCircle
 10
2659.345363875421
 20
920.3990790672213
 30
0.0
 40
0.1091772993568622
100
AcDbArc
 50
230.7967147639549
 51
9.214036990818344
  0
LINE
  5
D10
330
BDF
100
AcDbEntity
  8
0
  6
Continuous
 62
     7
370
    15
100
AcDbLine
 10
2659.453132467277
 20
920.4165608664471
 30
0.0
 11
2659.453132467275
 21
921.06985323098
 31
0.0
  0
LINE
  5
D11
330
BDF
100
AcDbEntity
  8
0
  6
Continuous
 62
     7
370
    15
100
AcDbLine
 10
2660.436010893123
 20
920.5024495932638
 30
0.0
 11
2660.436010893123
 21
919.8491572287284
 31
0.0
  0
ARC
  5
D12
330
BDF
100
AcDbEntity
  8
0
  6
Continuous
 62
     7
370
    15
100
AcDbCircle
 10
2660.819814918466
 20
919.8666224417937
 30
0.0
 40
0.3842012018932905
100
AcDbArc
 50
182.6054784856759
 51
237.3945216599444
  0
LINE
  5
D13
330
BDF
100
AcDbEntity
  8
0
  6
Continuous
 62
     7
370
    15
100
AcDbLine
 10
2660.61278758842
 20
919.5429710117791
 30
0.0
 11
2660.685478533117
 21
919.501007422626
 31
0.0
  0
ARC
  5
D14
330
BDF
100
AcDbEntity
  8
0
  6
Continuous
 62
     7
370
    15
100
AcDbCircle
 10
2660.478451203072
 20
919.1773559926117
 30
0.0
 40
0.3842012018929579
100
AcDbArc
 50
2.605478485643353
 51
57.39452165996985
  0
LINE
  5
D15
330
BDF
100
AcDbEntity
  8
0
  6
Continuous
 62
     7
370
    15
100
AcDbLine
 10
2660.862255228413
 20
919.1948212056768
 30
0.0
 11
2660.862255228413
 21
914.4795655361049
 31
0.0
  0
LINE
  5
D16
330
BDF
100
AcDbEntity
  8
0
  6
Continuous
 62
     7
370
    15
100
AcDbLine
 10
2660.862255228413
 20
914.4795655361049
 30
0.0
 11
2659.026888131985
 21
915.5391004080389
 31
0.0
  0
LINE
  5
D17
330
BDF
100
AcDbEntity
  8
0
  6
Continuous
 62
     7
370
    15
100
AcDbLine
 10
2659.026888131985
 20
920.2543560776112
 30
0.0
 11
2659.026888131985
 21
915.5391004080389
 31
0.0
  0
ARC
  5
D18
330
BDF
100
AcDbEntity
  8
0
  6
Continuous
 62
     7
370
    15
100
AcDbCircle
 10
2659.134656723841
 20
920.2718378768365
 30
0.0
 40
0.1091772993571355
100
AcDbArc
 50
50.79671476427242
 51
189.2140369904692
  0
ARC
  5
D19
330
BDF
100
AcDbEntity
  8
0
  6
Continuous
 62
     7
370
    15
100
AcDbCircle
 10
2652.779247454404
 20
910.2183885046487
 30
0.0
 40
0.3023726461239093
100
AcDbArc
 50
185.4589815370712
 51
237.2630757801378
  0
LINE
  5
D1A
330
BDF
100
AcDbEntity
  8
0
  6
Continuous
 62
     7
370
    15
100
AcDbLine
 10
2662.557331236683
 20
921.0737693964624
 30
0.0
 11
2662.557331236683
 21
921.7188976798796
 31
0.0
  0
LINE
  5
D1B
330
BDF
100
AcDbEntity
  8
0
  6
Continuous
 62
     7
370
    15
100
AcDbLine
 10
2660.436010893123
 20
919.8491572287284
 30
0.0
 11
2662.557331236683
 21
921.0737693964624
 31
0.0
  0
LINE
  5
D1C
330
BDF
100
AcDbEntity
  8
0
  6
Continuous
 62
     7
370
    15
100
AcDbLine
 10
2664.473590613699
 20
927.9923239613539
 30
0.0
 11
2666.594910957258
 21
926.76771179362
 31
0.0
  0
LINE
  5
D1D
330
BDF
100
AcDbEntity
  8
0
  6
Continuous
 62
     7
370
    15
100
AcDbLine
 10
2664.473590613699
 20
928.1016542865524
 30
0.0
 11
2664.473590613699
 21
927.9923239613539
 31
0.0
  0
LINE
  5
D1E
330
BDF
100
AcDbEntity
  8
0
  6
Continuous
 62
     7
370
    15
100
AcDbLine
 10
2660.862255228413
 20
919.1948212056768
 30
0.0
 11
2662.983575571973
 21
920.4194333734108
 31
0.0
  0
LINE
  5
D1F
330
BDF
100
AcDbEntity
  8
0
  6
Continuous
 62
     7
370
    15
100
AcDbLine
 10
2662.806798876677
 20
920.7256195903601
 30
0.0
 11
2660.685478533117
 21
919.501007422626
 31
0.0
  0
ARC
  5
D20
330
BDF
100
AcDbEntity
  8
0
  6
Continuous
 62
     7
370
    15
100
AcDbCircle
 10
2662.599771546631
 20
920.4019681603456
 30
0.0
 40
0.3842012018931948
100
AcDbArc
 50
2.605478485662874
 51
57.39452165994087
  0
ARC
  5
D21
330
BDF
100
AcDbEntity
  8
0
  6
Continuous
 62
     7
370
    15
100
AcDbCircle
 10
2662.941135262025
 20
921.0912346095275
 30
0.0
 40
0.3842012018928081
100
AcDbArc
 50
182.6054784856303
 51
237.3945216599988
  0
LINE
  5
D22
330
BDF
100
AcDbEntity
  8
0
  6
Continuous
 62
     7
370
    15
100
AcDbLine
 10
2662.73410793198
 20
920.7675831795132
 30
0.0
 11
2660.61278758842
 21
919.5429710117791
 31
0.0
  0
LINE
  5
D23
330
BDF
100
AcDbEntity
  8
0
  6
Continuous
 62
     7
370
    15
100
AcDbLine
 10
2662.983575571973
 20
915.7041777038378
 30
0.0
 11
2662.983575571973
 21
920.4194333734108
 31
0.0
  0
LINE
  5
D24
330
BDF
100
AcDbEntity
  8
0
  6
Continuous
 62
     7
370
    15
100
AcDbLine
 10
2662.743992403276
 20
913.9968422463503
 30
0.0
 11
2662.983575571973
 21
915.7041777038378
 31
0.0
  0
ARC
  5
D25
330
BDF
100
AcDbEntity
  8
0
  6
Continuous
 62
     7
370
    15
100
AcDbCircle
 10
2661.661761421333
 20
914.162261192361
 30
0.0
 40
1.094800130607001
100
AcDbArc
 50
302.9067666138474
 51
351.3096048990302
  0
LINE
  5
D26
330
BDF
100
AcDbEntity
  8
0
  6
Continuous
 62
     7
370
    15
100
AcDbLine
 10
2661.589293365334
 20
912.8579236890514
 30
0.0
 11
2662.256537435053
 21
913.243115491462
 31
0.0
  0
LWPOLYLINE
  5
D27
330
BDF
100
AcDbEntity
  8
0
  6
Continuous
 62
     7
370
    15
100
AcDbPolyline
 90
        9
 70
   128
 43
0.0
 10
2661.589293365334
 20
912.8579236890514
 10
2661.503341902556
 20
912.8169885285364
 10
2661.42000203148
 20
912.7946642877255
 10
2661.341805991919
 20
912.7916292773786
 10
2661.271129730963
 20
912.8079757147494
 10
2661.21012071104
 20
912.8432069216101
 10
2661.160632660346
 20
912.8962524155683
 10
2661.124169248262
 20
912.9655004361323
 10
2661.10183839711
 20
913.0488469172384
  0
LINE
  5
D28
330
BDF
100
AcDbEntity
  8
0
  6
Continuous
 62
     7
370
    15
100
AcDbLine
 10
2660.862255228413
 20
914.4795655361049
 30
0.0
 11
2661.10183839711
 21
913.0488469172384
 31
0.0
  0
LINE
  5
D29
330
BDF
100
AcDbEntity
  8
0
  6
Continuous
 62
     7
370
    15
100
AcDbLine
 10
2662.806798876677
 20
920.7256195903601
 30
0.0
 11
2662.73410793198
 21
920.7675831795132
 31
0.0
  0
LINE
  5
D2A
330
BDF
100
AcDbEntity
  8
0
  6
Continuous
 62
     7
370
    15
100
AcDbLine
 10
2664.577144004292
 20
927.7634132886886
 30
0.0
 11
2666.698464347852
 21
926.5388011209545
 31
0.0
  0
ARC
  5
D2B
330
BDF
100
AcDbEntity
  8
0
  6
Continuous
 62
     7
370
    15
100
AcDbCircle
 10
2664.723920400382
 20
927.9676890147237
 30
0.0
 40
0.2515390281774978
100
AcDbArc
 50
174.3796210364097
 51
234.3019614711896
  0
LINE
  5
D2C
330
BDF
100
AcDbEntity
  8
0
  6
Continuous
 62
     7
370
    15
100
AcDbLine
 10
2670.20115554131
 20
929.339530045925
 30
0.0
 11
2668.079835197751
 21
928.1149178781911
 31
0.0
  0
LINE
  5
D2D
330
BDF
100
AcDbEntity
  8
0
  6
Continuous
 62
     7
370
    15
100
AcDbLine
 10
2669.918312828836
 20
928.4413086128383
 30
0.0
 11
2670.20115554131
 21
929.339530045925
 31
0.0
  0
LINE
  5
D2E
330
BDF
100
AcDbEntity
  8
0
  6
Continuous
 62
     7
370
    15
100
AcDbLine
 10
2667.796992485276
 20
927.2166964451042
 30
0.0
 11
2668.079835197751
 21
928.1149178781911
 31
0.0
  0
LINE
  5
D2F
330
BDF
100
AcDbEntity
  8
0
  6
Continuous
 62
     7
370
    15
100
AcDbLine
 10
2668.079835197751
 20
928.1149178781911
 30
0.0
 11
2667.796992485276
 21
928.2781995005557
 31
0.0
  0
LINE
  5
D30
330
BDF
100
AcDbEntity
  8
0
  6
Continuous
 62
     7
370
    15
100
AcDbLine
 10
2670.20115554131
 20
929.339530045925
 30
0.0
 11
2669.918312828836
 21
929.5028116682898
 31
0.0
  0
LINE
  5
D31
330
BDF
100
AcDbEntity
  8
0
  6
Continuous
 62
     7
370
    15
100
AcDbLine
 10
2665.006433326174
 20
927.5155092751289
 30
0.0
 11
2667.127753669733
 21
926.2908971073947
 31
0.0
  0
LINE
  5
D32
330
BDF
100
AcDbEntity
  8
0
  6
Continuous
 62
     7
370
    15
100
AcDbLine
 10
2664.577144004292
 20
927.7634132886886
 30
0.0
 11
2665.006433326174
 21
927.5155092751289
 31
0.0
  0
LINE
  5
D33
330
BDF
100
AcDbEntity
  8
0
  6
Continuous
 62
     7
370
    15
100
AcDbLine
 10
2667.231307060327
 20
926.061986434729
 30
0.0
 11
2665.109986716767
 21
927.286598602463
 31
0.0
  0
ARC
  5
D34
330
BDF
100
AcDbEntity
  8
0
  6
Continuous
 62
     7
370
    15
100
AcDbCircle
 10
2664.859656930083
 20
927.3112335490937
 30
0.0
 40
0.2515390281770731
100
AcDbArc
 50
354.3796210363384
 51
54.30196147122972
  0
LINE
  5
D35
330
BDF
100
AcDbEntity
  8
0
  6
Continuous
 62
     7
370
    15
100
AcDbLine
 10
2665.109986716767
 20
925.6417851022094
 30
0.0
 11
2667.231307060327
 21
924.4171729344754
 31
0.0
  0
LINE
  5
D36
330
BDF
100
AcDbEntity
  8
0
  6
Continuous
 62
     7
370
    15
100
AcDbLine
 10
2665.109986716767
 20
927.286598602463
 30
0.0
 11
2665.109986716767
 21
925.6417851022094
 31
0.0
  0
LINE
  5
D37
330
BDF
100
AcDbEntity
  8
0
  6
Continuous
 62
     7
370
    15
100
AcDbLine
 10
2661.10183839711
 20
913.0488469172384
 30
0.0
 11
2659.266471300681
 21
914.1083817891725
 31
0.0
  0
LINE
  5
D38
330
BDF
100
AcDbEntity
  8
0
  6
Continuous
 62
     7
370
    15
100
AcDbLine
 10
2659.026888131985
 20
915.5391004080389
 30
0.0
 11
2659.266471300681
 21
914.1083817891725
 31
0.0
  0
LINE
  5
D39
330
BDF
100
AcDbEntity
  8
0
  6
Continuous
 62
     7
370
    15
100
AcDbLine
 10
2669.989023506954
 20
926.0091223075081
 30
0.0
 11
2670.483998253784
 21
926.2949115916681
 31
0.0
  0
LINE
  5
D3A
330
BDF
100
AcDbEntity
  8
0
  6
Continuous
 62
     7
370
    15
100
AcDbLine
 10
2669.989023506954
 20
926.0091223075081
 30
0.0
 11
2667.231307060327
 21
924.4171264894537
 31
0.0
  0
LINE
  5
D3B
330
BDF
100
AcDbEntity
  8
0
  6
Continuous
 62
     7
370
    15
100
AcDbLine
 10
2667.231307060327
 20
924.4171729344758
 30
0.0
 11
2667.231307060327
 21
924.4171264894537
 31
0.0
  0
LINE
  5
D3C
330
BDF
100
AcDbEntity
  8
0
  6
Continuous
 62
     7
370
    15
100
AcDbLine
 10
2665.604961463597
 20
925.3559958180499
 30
0.0
 11
2665.109986716767
 21
925.6417851022098
 31
0.0
  0
LINE
  5
D3D
330
BDF
100
AcDbEntity
  8
0
  6
Continuous
 62
     7
370
    15
100
AcDbLine
 10
2667.231307060327
 20
924.4171264894537
 30
0.0
 11
2665.604961463597
 21
925.3559958180499
 31
0.0
  0
LINE
  5
D3E
330
BDF
100
AcDbEntity
  8
0
  6
Continuous
 62
     7
370
    15
100
AcDbLine
 10
2665.991889926672
 20
924.2751992033538
 30
0.0
 11
2666.064580871372
 21
924.2332356142025
 31
0.0
  0
ARC
  5
D3F
330
BDF
100
AcDbEntity
  8
0
  6
Continuous
 62
     7
370
    15
100
AcDbCircle
 10
2666.133588974812
 20
924.3178380039703
 30
0.0
 40
0.1091772993568342
100
AcDbArc
 50
230.7967147639549
 51
9.214036990824775
  0
LINE
  5
D40
330
BDF
100
AcDbEntity
  8
0
  6
Continuous
 62
     7
370
    15
100
AcDbLine
 10
2666.241357566668
 20
924.3353198031961
 30
0.0
 11
2666.241357566666
 21
924.988612167729
 31
0.0
  0
LINE
  5
D41
330
BDF
100
AcDbEntity
  8
0
  6
Continuous
 62
     7
370
    15
100
AcDbLine
 10
2667.224235992515
 20
924.4212085300128
 30
0.0
 11
2667.224235992515
 21
923.7679161654774
 31
0.0
  0
ARC
  5
D42
330
BDF
100
AcDbEntity
  8
0
  6
Continuous
 62
     7
370
    15
100
AcDbCircle
 10
2667.608040017856
 20
923.7853813785424
 30
0.0
 40
0.3842012018926098
100
AcDbArc
 50
182.6054784856238
 51
237.3945216599988
  0
LINE
  5
D43
330
BDF
100
AcDbEntity
  8
0
  6
Continuous
 62
     7
370
    15
100
AcDbLine
 10
2667.401012687812
 20
923.4617299485282
 30
0.0
 11
2667.473703632508
 21
923.419766359375
 31
0.0
  0
ARC
  5
D44
330
BDF
100
AcDbEntity
  8
0
  6
Continuous
 62
     7
370
    15
100
AcDbCircle
 10
2667.266676302463
 20
923.0961149293605
 30
0.0
 40
0.3842012018929565
100
AcDbArc
 50
2.60547848564986
 51
57.39452165997335
  0
LINE
  5
D45
330
BDF
100
AcDbEntity
  8
0
  6
Continuous
 62
     7
370
    15
100
AcDbLine
 10
2667.650480327804
 20
923.1135801424258
 30
0.0
 11
2667.650480327804
 21
918.3983244728539
 31
0.0
  0
LINE
  5
D46
330
BDF
100
AcDbEntity
  8
0
  6
Continuous
 62
     7
370
    15
100
AcDbLine
 10
2667.650480327804
 20
918.3983244728539
 30
0.0
 11
2665.815113231376
 21
919.4578593447879
 31
0.0
  0
LINE
  5
D47
330
BDF
100
AcDbEntity
  8
0
  6
Continuous
 62
     7
370
    15
100
AcDbLine
 10
2665.815113231375
 20
924.1731150143603
 30
0.0
 11
2665.815113231376
 21
919.4578593447879
 31
0.0
  0
ARC
  5
D48
330
BDF
100
AcDbEntity
  8
0
  6
Continuous
 62
     7
370
    15
100
AcDbCircle
 10
2665.922881823232
 20
924.1905968135855
 30
0.0
 40
0.1091772993571223
100
AcDbArc
 50
50.79671476430495
 51
189.2140369904564
  0
ARC
  5
D49
330
BDF
100
AcDbEntity
  8
0
  6
Continuous
 62
     7
370
    15
100
AcDbCircle
 10
2659.567472553795
 20
914.1371474413977
 30
0.0
 40
0.3023726461241043
100
AcDbArc
 50
185.4589815370907
 51
237.2630757801053
  0
LINE
  5
D4A
330
BDF
100
AcDbEntity
  8
0
  6
Continuous
 62
     7
370
    15
100
AcDbLine
 10
2669.345556336074
 20
924.9925283332116
 30
0.0
 11
2669.345556336074
 21
925.6376566166286
 31
0.0
  0
LINE
  5
D4B
330
BDF
100
AcDbEntity
  8
0
  6
Continuous
 62
     7
370
    15
100
AcDbLine
 10
2667.224235992515
 20
923.7679161654774
 30
0.0
 11
2669.345556336074
 21
924.9925283332116
 31
0.0
  0
LINE
  5
D4C
330
BDF
100
AcDbEntity
  8
0
  6
Continuous
 62
     7
370
    15
100
AcDbLine
 10
2671.26181571309
 20
931.9110828981029
 30
0.0
 11
2673.383136056649
 21
930.6864707303688
 31
0.0
  0
LINE
  5
D4D
330
BDF
100
AcDbEntity
  8
0
  6
Continuous
 62
     7
370
    15
100
AcDbLine
 10
2671.26181571309
 20
932.0204132233014
 30
0.0
 11
2671.26181571309
 21
931.9110828981029
 31
0.0
  0
LINE
  5
D4E
330
BDF
100
AcDbEntity
  8
0
  6
Continuous
 62
     7
370
    15
100
AcDbLine
 10
2667.650480327804
 20
923.1135801424258
 30
0.0
 11
2669.771800671364
 21
924.3381923101599
 31
0.0
  0
LINE
  5
D4F
330
BDF
100
AcDbEntity
  8
0
  6
Continuous
 62
     7
370
    15
100
AcDbLine
 10
2669.595023976067
 20
924.6443785271091
 30
0.0
 11
2667.473703632508
 21
923.419766359375
 31
0.0
  0
ARC
  5
D50
330
BDF
100
AcDbEntity
  8
0
  6
Continuous
 62
     7
370
    15
100
AcDbCircle
 10
2669.387996646021
 20
924.3207270970943
 30
0.0
 40
0.3842012018937425
100
AcDbArc
 50
2.60547848571493
 51
57.3945216599084
  0
ARC
  5
D51
330
BDF
100
AcDbEntity
  8
0
  6
Continuous
 62
     7
370
    15
100
AcDbCircle
 10
2669.729360361416
 20
925.0099935462767
 30
0.0
 40
0.3842012018929239
100
AcDbArc
 50
182.6054784856563
 51
237.3945216599734
  0
LINE
  5
D52
330
BDF
100
AcDbEntity
  8
0
  6
Continuous
 62
     7
370
    15
100
AcDbLine
 10
2669.522333031371
 20
924.6863421162622
 30
0.0
 11
2667.401012687812
 21
923.4617299485282
 31
0.0
  0
LINE
  5
D53
330
BDF
100
AcDbEntity
  8
0
  6
Continuous
 62
     7
370
    15
100
AcDbLine
 10
2669.771800671364
 20
919.6229366405868
 30
0.0
 11
2669.771800671364
 21
924.3381923101599
 31
0.0
  0
LINE
  5
D54
330
BDF
100
AcDbEntity
  8
0
  6
Continuous
 62
     7
370
    15
100
AcDbLine
 10
2669.532217502667
 20
917.9156011830993
 30
0.0
 11
2669.771800671364
 21
919.6229366405868
 31
0.0
  0
ARC
  5
D55
330
BDF
100
AcDbEntity
  8
0
  6
Continuous
 62
     7
370
    15
100
AcDbCircle
 10
2668.449986520724
 20
918.0810201291102
 30
0.0
 40
1.094800130607126
100
AcDbArc
 50
302.9067666138693
 51
351.3096048990302
  0
LINE
  5
D56
330
BDF
100
AcDbEntity
  8
0
  6
Continuous
 62
     7
370
    15
100
AcDbLine
 10
2668.377518464724
 20
916.7766826258004
 30
0.0
 11
2669.044762534444
 21
917.161874428211
 31
0.0
  0
LWPOLYLINE
  5
D57
330
BDF
100
AcDbEntity
  8
0
  6
Continuous
 62
     7
370
    15
100
AcDbPolyline
 90
        9
 70
   128
 43
0.0
 10
2668.377518464724
 20
916.7766826258004
 10
2668.291567001946
 20
916.7357474652854
 10
2668.208227130871
 20
916.7134232244745
 10
2668.13003109131
 20
916.7103882141274
 10
2668.059354830354
 20
916.7267346514984
 10
2667.998345810431
 20
916.7619658583593
 10
2667.948857759738
 20
916.8150113523175
 10
2667.912394347653
 20
916.8842593728813
 10
2667.8900634965
 20
916.9676058539874
  0
LINE
  5
D58
330
BDF
100
AcDbEntity
  8
0
  6
Continuous
 62
     7
370
    15
100
AcDbLine
 10
2667.650480327804
 20
918.3983244728539
 30
0.0
 11
2667.8900634965
 21
916.9676058539874
 31
0.0
  0
LINE
  5
D59
330
BDF
100
AcDbEntity
  8
0
  6
Continuous
 62
     7
370
    15
100
AcDbLine
 10
2669.595023976067
 20
924.6443785271091
 30
0.0
 11
2669.522333031371
 21
924.6863421162622
 31
0.0
  0
LINE
  5
D5A
330
BDF
100
AcDbEntity
  8
0
  6
Continuous
 62
     7
370
    15
100
AcDbLine
 10
2671.365369103683
 20
931.6821722254374
 30
0.0
 11
2673.486689447243
 21
930.4575600577035
 31
0.0
  0
ARC
  5
D5B
330
BDF
100
AcDbEntity
  8
0
  6
Continuous
 62
     7
370
    15
100
AcDbCircle
 10
2671.512145499774
 20
931.8864479514727
 30
0.0
 40
0.251539028177495
100
AcDbArc
 50
174.3796210364162
 51
234.3019614711896
  0
LINE
  5
D5C
330
BDF
100
AcDbEntity
  8
0
  6
Continuous
 62
     7
370
    15
100
AcDbLine
 10
2676.989380640701
 20
933.2582889826742
 30
0.0
 11
2676.706537928227
 21
933.4215706050386
 31
0.0
  0
LINE
  5
D5D
330
BDF
100
AcDbEntity
  8
0
  6
Continuous
 62
     7
370
    15
100
AcDbLine
 10
2676.989380640701
 20
933.2582889826742
 30
0.0
 11
2674.868060297141
 21
932.0336768149401
 31
0.0
  0
LINE
  5
D5E
330
BDF
100
AcDbEntity
  8
0
  6
Continuous
 62
     7
370
    15
100
AcDbLine
 10
2674.868060297141
 20
932.0336768149401
 30
0.0
 11
2674.585217584667
 21
932.1969584373047
 31
0.0
  0
LINE
  5
D5F
330
BDF
100
AcDbEntity
  8
0
  6
Continuous
 62
     7
370
    15
100
AcDbLine
 10
2676.706537928227
 20
932.3600675495873
 30
0.0
 11
2676.989380640701
 21
933.2582889826742
 31
0.0
  0
LINE
  5
D60
330
BDF
100
AcDbEntity
  8
0
  6
Continuous
 62
     7
370
    15
100
AcDbLine
 10
2674.585217584667
 20
931.1354553818532
 30
0.0
 11
2674.868060297141
 21
932.0336768149401
 31
0.0
  0
LINE
  5
D61
330
BDF
100
AcDbEntity
  8
0
  6
Continuous
 62
     7
370
    15
100
AcDbLine
 10
2671.794658425564
 20
931.4342682118777
 30
0.0
 11
2673.915978769124
 21
930.2096560441437
 31
0.0
  0
LINE
  5
D62
330
BDF
100
AcDbEntity
  8
0
  6
Continuous
 62
     7
370
    15
100
AcDbLine
 10
2671.365369103683
 20
931.6821722254374
 30
0.0
 11
2671.794658425564
 21
931.4342682118777
 31
0.0
  0
LINE
  5
D63
330
BDF
100
AcDbEntity
  8
0
  6
Continuous
 62
     7
370
    15
100
AcDbLine
 10
2674.019532159717
 20
929.980745371478
 30
0.0
 11
2671.898211816158
 21
931.2053575392122
 31
0.0
  0
ARC
  5
D64
330
BDF
100
AcDbEntity
  8
0
  6
Continuous
 62
     7
370
    15
100
AcDbCircle
 10
2671.647882029475
 20
931.2299924858427
 30
0.0
 40
0.2515390281770204
100
AcDbArc
 50
354.3796210363255
 51
54.30196147122972
  0
LINE
  5
D65
330
BDF
100
AcDbEntity
  8
0
  6
Continuous
 62
     7
370
    15
100
AcDbLine
 10
2671.898211816158
 20
929.5605440389584
 30
0.0
 11
2674.019532159717
 21
928.3359318712243
 31
0.0
  0
LINE
  5
D66
330
BDF
100
AcDbEntity
  8
0
  6
Continuous
 62
     7
370
    15
100
AcDbLine
 10
2671.898211816158
 20
931.2053575392122
 30
0.0
 11
2671.898211816158
 21
929.5605440389584
 31
0.0
  0
LINE
  5
D67
330
BDF
100
AcDbEntity
  8
0
  6
Continuous
 62
     7
370
    15
100
AcDbLine
 10
2667.8900634965
 20
916.9676058539874
 30
0.0
 11
2666.054696400073
 21
918.0271407259215
 31
0.0
  0
LINE
  5
D68
330
BDF
100
AcDbEntity
  8
0
  6
Continuous
 62
     7
370
    15
100
AcDbLine
 10
2665.815113231376
 20
919.4578593447879
 30
0.0
 11
2666.054696400073
 21
918.0271407259215
 31
0.0
  0
LINE
  5
D69
330
BDF
100
AcDbEntity
  8
0
  6
Continuous
 62
     7
370
    15
100
AcDbLine
 10
2676.777248606345
 20
929.9278812442571
 30
0.0
 11
2677.272223353176
 21
930.2136705284171
 31
0.0
  0
LINE
  5
D6A
330
BDF
100
AcDbEntity
  8
0
  6
Continuous
 62
     7
370
    15
100
AcDbLine
 10
2676.777248606345
 20
929.9278812442571
 30
0.0
 11
2674.019532159717
 21
928.3358854262028
 31
0.0
  0
LINE
  5
D6B
330
BDF
100
AcDbEntity
  8
0
  6
Continuous
 62
     7
370
    15
100
AcDbLine
 10
2674.019532159717
 20
928.3359318712248
 30
0.0
 11
2674.019532159717
 21
928.3358854262028
 31
0.0
  0
LINE
  5
D6C
330
BDF
100
AcDbEntity
  8
0
  6
Continuous
 62
     7
370
    15
100
AcDbLine
 10
2672.393186562988
 20
929.2747547547989
 30
0.0
 11
2671.898211816158
 21
929.5605440389588
 31
0.0
  0
LINE
  5
D6D
330
BDF
100
AcDbEntity
  8
0
  6
Continuous
 62
     7
370
    15
100
AcDbLine
 10
2674.019532159717
 20
928.3358854262028
 30
0.0
 11
2672.393186562988
 21
929.2747547547989
 31
0.0
  0
LINE
  5
D6E
330
BDF
100
AcDbEntity
  8
0
  6
Continuous
 62
     7
370
    15
100
AcDbLine
 10
2672.780115026063
 20
928.1939581401029
 30
0.0
 11
2672.852805970763
 21
928.1519945509515
 31
0.0
  0
ARC
  5
D6F
330
BDF
100
AcDbEntity
  8
0
  6
Continuous
 62
     7
370
    15
100
AcDbCircle
 10
2672.921814074203
 20
928.2365969407193
 30
0.0
 40
0.1091772993568445
100
AcDbArc
 50
230.7967147639264
 51
9.214036990792626
  0
LINE
  5
D70
330
BDF
100
AcDbEntity
  8
0
  6
Continuous
 62
     7
370
    15
100
AcDbLine
 10
2673.029582666059
 20
928.2540787399451
 30
0.0
 11
2673.029582666057
 21
928.907371104478
 31
0.0
  0
LINE
  5
D71
330
BDF
100
AcDbEntity
  8
0
  6
Continuous
 62
     7
370
    15
100
AcDbLine
 10
2674.012461091905
 20
928.3399674667618
 30
0.0
 11
2674.012461091905
 21
927.6866751022264
 31
0.0
  0
ARC
  5
D72
330
BDF
100
AcDbEntity
  8
0
  6
Continuous
 62
     7
370
    15
100
AcDbCircle
 10
2674.396265117247
 20
927.7041403152916
 30
0.0
 40
0.3842012018928958
100
AcDbArc
 50
182.6054784856368
 51
237.3945216599953
  0
LINE
  5
D73
330
BDF
100
AcDbEntity
  8
0
  6
Continuous
 62
     7
370
    15
100
AcDbLine
 10
2674.189237787202
 20
927.3804888852772
 30
0.0
 11
2674.261928731898
 21
927.338525296124
 31
0.0
  0
ARC
  5
D74
330
BDF
100
AcDbEntity
  8
0
  6
Continuous
 62
     7
370
    15
100
AcDbCircle
 10
2674.054901401853
 20
927.0148738661097
 30
0.0
 40
0.384201201892808
100
AcDbArc
 50
2.605478485636846
 51
57.39452166000233
  0
LINE
  5
D75
330
BDF
100
AcDbEntity
  8
0
  6
Continuous
 62
     7
370
    15
100
AcDbLine
 10
2674.438705427196
 20
927.0323390791748
 30
0.0
 11
2674.438705427196
 21
922.3170834096031
 31
0.0
  0
LINE
  5
D76
330
BDF
100
AcDbEntity
  8
0
  6
Continuous
 62
     7
370
    15
100
AcDbLine
 10
2674.438705427196
 20
922.3170834096031
 30
0.0
 11
2672.603338330767
 21
923.376618281537
 31
0.0
  0
LINE
  5
D77
330
BDF
100
AcDbEntity
  8
0
  6
Continuous
 62
     7
370
    15
100
AcDbLine
 10
2672.603338330766
 20
928.0918739511092
 30
0.0
 11
2672.603338330767
 21
923.376618281537
 31
0.0
  0
ARC
  5
D78
330
BDF
100
AcDbEntity
  8
0
  6
Continuous
 62
     7
370
    15
100
AcDbCircle
 10
2672.711106922623
 20
928.1093557503345
 30
0.0
 40
0.1091772993571795
100
AcDbArc
 50
50.79671476429672
 51
189.2140369904564
  0
ARC
  5
D79
330
BDF
100
AcDbEntity
  8
0
  6
Continuous
 62
     7
370
    15
100
AcDbCircle
 10
2666.355697653187
 20
918.0559063781471
 30
0.0
 40
0.3023726461243311
100
AcDbArc
 50
185.4589815371166
 51
237.2630757801307
  0
LINE
  5
D7A
330
BDF
100
AcDbEntity
  8
0
  6
Continuous
 62
     7
370
    15
100
AcDbLine
 10
2676.133781435465
 20
928.9112872699606
 30
0.0
 11
2676.133781435465
 21
929.5564155533776
 31
0.0
  0
LINE
  5
D7B
330
BDF
100
AcDbEntity
  8
0
  6
Continuous
 62
     7
370
    15
100
AcDbLine
 10
2674.012461091905
 20
927.6866751022264
 30
0.0
 11
2676.133781435465
 21
928.9112872699606
 31
0.0
  0
LINE
  5
D7C
330
BDF
100
AcDbEntity
  8
0
  6
Continuous
 62
     7
370
    15
100
AcDbLine
 10
2678.050040812481
 20
935.8298418348519
 30
0.0
 11
2680.171361156041
 21
934.605229667118
 31
0.0
  0
LINE
  5
D7D
330
BDF
100
AcDbEntity
  8
0
  6
Continuous
 62
     7
370
    15
100
AcDbLine
 10
2678.050040812481
 20
935.9391721600504
 30
0.0
 11
2678.050040812481
 21
935.8298418348519
 31
0.0
  0
LINE
  5
D7E
330
BDF
100
AcDbEntity
  8
0
  6
Continuous
 62
     7
370
    15
100
AcDbLine
 10
2674.438705427196
 20
927.0323390791748
 30
0.0
 11
2676.560025770755
 21
928.2569512469088
 31
0.0
  0
LINE
  5
D7F
330
BDF
100
AcDbEntity
  8
0
  6
Continuous
 62
     7
370
    15
100
AcDbLine
 10
2676.383249075458
 20
928.5631374638581
 30
0.0
 11
2674.261928731898
 21
927.338525296124
 31
0.0
  0
ARC
  5
D80
330
BDF
100
AcDbEntity
  8
0
  6
Continuous
 62
     7
370
    15
100
AcDbCircle
 10
2676.176221745412
 20
928.2394860338435
 30
0.0
 40
0.3842012018935902
100
AcDbArc
 50
2.605478485675888
 51
57.3945216599084
  0
ARC
  5
D81
330
BDF
100
AcDbEntity
  8
0
  6
Continuous
 62
     7
370
    15
100
AcDbCircle
 10
2676.517585460806
 20
928.9287524830255
 30
0.0
 40
0.3842012018928693
100
AcDbArc
 50
182.6054784856498
 51
237.3945216599953
  0
LINE
  5
D82
330
BDF
100
AcDbEntity
  8
0
  6
Continuous
 62
     7
370
    15
100
AcDbLine
 10
2676.310558130762
 20
928.6051010530112
 30
0.0
 11
2674.189237787202
 21
927.3804888852772
 31
0.0
  0
LINE
  5
D83
330
BDF
100
AcDbEntity
  8
0
  6
Continuous
 62
     7
370
    15
100
AcDbLine
 10
2676.560025770755
 20
923.5416955773358
 30
0.0
 11
2676.560025770755
 21
928.2569512469088
 31
0.0
  0
LINE
  5
D84
330
BDF
100
AcDbEntity
  8
0
  6
Continuous
 62
     7
370
    15
100
AcDbLine
 10
2676.320442602058
 20
921.8343601198483
 30
0.0
 11
2676.560025770755
 21
923.5416955773358
 31
0.0
  0
ARC
  5
D85
330
BDF
100
AcDbEntity
  8
0
  6
Continuous
 62
     7
370
    15
100
AcDbCircle
 10
2675.238211620115
 20
921.9997790658592
 30
0.0
 40
1.094800130607143
100
AcDbArc
 50
302.9067666138474
 51
351.3096048990302
  0
LINE
  5
D86
330
BDF
100
AcDbEntity
  8
0
  6
Continuous
 62
     7
370
    15
100
AcDbLine
 10
2675.165743564116
 20
920.6954415625494
 30
0.0
 11
2675.832987633834
 21
921.08063336496
 31
0.0
  0
LWPOLYLINE
  5
D87
330
BDF
100
AcDbEntity
  8
0
  6
Continuous
 62
     7
370
    15
100
AcDbPolyline
 90
        9
 70
   128
 43
0.0
 10
2675.165743564116
 20
920.6954415625494
 10
2675.079792101338
 20
920.6545064020346
 10
2674.996452230262
 20
920.6321821612235
 10
2674.918256190701
 20
920.6291471508764
 10
2674.847579929745
 20
920.6454935882474
 10
2674.786570909822
 20
920.6807247951083
 10
2674.737082859128
 20
920.7337702890665
 10
2674.700619447043
 20
920.8030183096303
 10
2674.678288595892
 20
920.8863647907364
  0
LINE
  5
D88
330
BDF
100
AcDbEntity
  8
0
  6
Continuous
 62
     7
370
    15
100
AcDbLine
 10
2674.438705427196
 20
922.3170834096031
 30
0.0
 11
2674.678288595892
 21
920.8863647907364
 31
0.0
  0
LINE
  5
D89
330
BDF
100
AcDbEntity
  8
0
  6
Continuous
 62
     7
370
    15
100
AcDbLine
 10
2676.383249075458
 20
928.5631374638581
 30
0.0
 11
2676.310558130762
 21
928.6051010530112
 31
0.0
  0
LINE
  5
D8A
330
BDF
100
AcDbEntity
  8
0
  6
Continuous
 62
     7
370
    15
100
AcDbLine
 10
2678.153594203074
 20
935.6009311621864
 30
0.0
 11
2680.274914546634
 21
934.3763189944525
 31
0.0
  0
ARC
  5
D8B
330
BDF
100
AcDbEntity
  8
0
  6
Continuous
 62
     7
370
    15
100
AcDbCircle
 10
2678.300370599164
 20
935.8052068882219
 30
0.0
 40
0.2515390281777084
100
AcDbArc
 50
174.3796210364641
 51
234.3019614711646
  0
LINE
  5
D8C
330
BDF
100
AcDbEntity
  8
0
  6
Continuous
 62
     7
370
    15
100
AcDbLine
 10
2683.777605740092
 20
937.1770479194232
 30
0.0
 11
2681.656285396533
 21
935.9524357516891
 31
0.0
  0
LINE
  5
D8D
330
BDF
100
AcDbEntity
  8
0
  6
Continuous
 62
     7
370
    15
100
AcDbLine
 10
2683.494763027618
 20
936.2788264863363
 30
0.0
 11
2683.777605740092
 21
937.1770479194232
 31
0.0
  0
LINE
  5
D8E
330
BDF
100
AcDbEntity
  8
0
  6
Continuous
 62
     7
370
    15
100
AcDbLine
 10
2681.373442684058
 20
935.0542143186022
 30
0.0
 11
2681.656285396533
 21
935.9524357516891
 31
0.0
  0
LINE
  5
D8F
330
BDF
100
AcDbEntity
  8
0
  6
Continuous
 62
     7
370
    15
100
AcDbLine
 10
2681.656285396533
 20
935.9524357516891
 30
0.0
 11
2681.373442684058
 21
936.1157173740537
 31
0.0
  0
LINE
  5
D90
330
BDF
100
AcDbEntity
  8
0
  6
Continuous
 62
     7
370
    15
100
AcDbLine
 10
2683.777605740092
 20
937.1770479194232
 30
0.0
 11
2683.494763027618
 21
937.3403295417876
 31
0.0
  0
LINE
  5
D91
330
BDF
100
AcDbEntity
  8
0
  6
Continuous
 62
     7
370
    15
100
AcDbLine
 10
2678.582883524955
 20
935.3530271486267
 30
0.0
 11
2680.704203868515
 21
934.1284149808927
 31
0.0
  0
LINE
  5
D92
330
BDF
100
AcDbEntity
  8
0
  6
Continuous
 62
     7
370
    15
100
AcDbLine
 10
2678.153594203074
 20
935.6009311621864
 30
0.0
 11
2678.582883524955
 21
935.3530271486267
 31
0.0
  0
LINE
  5
D93
330
BDF
100
AcDbEntity
  8
0
  6
Continuous
 62
     7
370
    15
100
AcDbLine
 10
2680.807757259108
 20
933.899504308227
 30
0.0
 11
2678.686436915548
 21
935.1241164759612
 31
0.0
  0
ARC
  5
D94
330
BDF
100
AcDbEntity
  8
0
  6
Continuous
 62
     7
370
    15
100
AcDbCircle
 10
2678.436107128865
 20
935.1487514225917
 30
0.0
 40
0.2515390281771228
100
AcDbArc
 50
354.3796210363579
 51
54.30196147122972
  0
LINE
  5
D95
330
BDF
100
AcDbEntity
  8
0
  6
Continuous
 62
     7
370
    15
100
AcDbLine
 10
2678.686436915548
 20
933.4793029757074
 30
0.0
 11
2680.807757259108
 21
932.2546908079733
 31
0.0
  0
LINE
  5
D96
330
BDF
100
AcDbEntity
  8
0
  6
Continuous
 62
     7
370
    15
100
AcDbLine
 10
2678.686436915548
 20
935.1241164759612
 30
0.0
 11
2678.686436915548
 21
933.4793029757074
 31
0.0
  0
LINE
  5
D97
330
BDF
100
AcDbEntity
  8
0
  6
Continuous
 62
     7
370
    15
100
AcDbLine
 10
2674.678288595892
 20
920.8863647907364
 30
0.0
 11
2672.842921499463
 21
921.9458996626705
 31
0.0
  0
LINE
  5
D98
330
BDF
100
AcDbEntity
  8
0
  6
Continuous
 62
     7
370
    15
100
AcDbLine
 10
2672.603338330767
 20
923.376618281537
 30
0.0
 11
2672.842921499463
 21
921.9458996626705
 31
0.0
  0
LINE
  5
D99
330
BDF
100
AcDbEntity
  8
0
  6
Continuous
 62
     7
370
    15
100
AcDbLine
 10
2683.565473705736
 20
933.8466401810062
 30
0.0
 11
2684.060448452566
 21
934.1324294651661
 31
0.0
  0
LINE
  5
D9A
330
BDF
100
AcDbEntity
  8
0
  6
Continuous
 62
     7
370
    15
100
AcDbLine
 10
2683.565473705736
 20
933.8466401810061
 30
0.0
 11
2680.807757259108
 21
932.2546443629518
 31
0.0
  0
LINE
  5
D9B
330
BDF
100
AcDbEntity
  8
0
  6
Continuous
 62
     7
370
    15
100
AcDbLine
 10
2680.807757259108
 20
932.254690807974
 30
0.0
 11
2680.807757259108
 21
932.2546443629518
 31
0.0
  0
LINE
  5
D9C
330
BDF
100
AcDbEntity
  8
0
  6
Continuous
 62
     7
370
    15
100
AcDbLine
 10
2679.181411662379
 20
933.1935136915479
 30
0.0
 11
2678.686436915549
 21
933.4793029757078
 31
0.0
  0
LINE
  5
D9D
330
BDF
100
AcDbEntity
  8
0
  6
Continuous
 62
     7
370
    15
100
AcDbLine
 10
2680.807757259108
 20
932.2546443629518
 30
0.0
 11
2679.181411662379
 21
933.1935136915479
 31
0.0
  0
LINE
  5
D9E
330
BDF
100
AcDbEntity
  8
0
  6
Continuous
 62
     7
370
    15
100
AcDbLine
 10
2679.568340125454
 20
932.1127170768518
 30
0.0
 11
2679.641031070153
 21
932.0707534877005
 31
0.0
  0
ARC
  5
D9F
330
BDF
100
AcDbEntity
  8
0
  6
Continuous
 62
     7
370
    15
100
AcDbCircle
 10
2679.710039173594
 20
932.1553558774683
 30
0.0
 40
0.1091772993568445
100
AcDbArc
 50
230.7967147639264
 51
9.214036990811916
  0
LINE
  5
DA0
330
BDF
100
AcDbEntity
  8
0
  6
Continuous
 62
     7
370
    15
100
AcDbLine
 10
2679.81780776545
 20
932.1728376766941
 30
0.0
 11
2679.817807765448
 21
932.826130041227
 31
0.0
  0
LINE
  5
DA1
330
BDF
100
AcDbEntity
  8
0
  6
Continuous
 62
     7
370
    15
100
AcDbLine
 10
2680.800686191297
 20
932.258726403511
 30
0.0
 11
2680.800686191297
 21
931.6054340389754
 31
0.0
  0
ARC
  5
DA2
330
BDF
100
AcDbEntity
  8
0
  6
Continuous
 62
     7
370
    15
100
AcDbCircle
 10
2681.184490216638
 20
931.6228992520407
 30
0.0
 40
0.3842012018933063
100
AcDbArc
 50
182.6054784856759
 51
237.3945216599409
  0
LINE
  5
DA3
330
BDF
100
AcDbEntity
  8
0
  6
Continuous
 62
     7
370
    15
100
AcDbLine
 10
2680.977462886593
 20
931.2992478220262
 30
0.0
 11
2681.050153831289
 21
931.257284232873
 31
0.0
  0
ARC
  5
DA4
330
BDF
100
AcDbEntity
  8
0
  6
Continuous
 62
     7
370
    15
100
AcDbCircle
 10
2680.843126501244
 20
930.9336328028587
 30
0.0
 40
0.3842012018929565
100
AcDbArc
 50
2.60547848564986
 51
57.39452165996985
  0
LINE
  5
DA5
330
BDF
100
AcDbEntity
  8
0
  6
Continuous
 62
     7
370
    15
100
AcDbLine
 10
2681.226930526586
 20
930.9510980159238
 30
0.0
 11
2681.226930526586
 21
926.2358423463521
 31
0.0
  0
LINE
  5
DA6
330
BDF
100
AcDbEntity
  8
0
  6
Continuous
 62
     7
370
    15
100
AcDbLine
 10
2681.226930526586
 20
926.2358423463521
 30
0.0
 11
2679.391563430158
 21
927.295377218286
 31
0.0
  0
LINE
  5
DA7
330
BDF
100
AcDbEntity
  8
0
  6
Continuous
 62
     7
370
    15
100
AcDbLine
 10
2679.391563430157
 20
932.0106328878582
 30
0.0
 11
2679.391563430158
 21
927.295377218286
 31
0.0
  0
ARC
  5
DA8
330
BDF
100
AcDbEntity
  8
0
  6
Continuous
 62
     7
370
    15
100
AcDbCircle
 10
2679.499332022014
 20
932.0281146870835
 30
0.0
 40
0.1091772993571135
100
AcDbArc
 50
50.79671476426829
 51
189.2140369904756
  0
ARC
  5
DA9
330
BDF
100
AcDbEntity
  8
0
  6
Continuous
 62
     7
370
    15
100
AcDbCircle
 10
2673.143922752578
 20
921.9746653148961
 30
0.0
 40
0.3023726461245244
100
AcDbArc
 50
185.4589815371296
 51
237.2630757801018
  0
LINE
  5
DAA
330
BDF
100
AcDbEntity
  8
0
  6
Continuous
 62
     7
370
    15
100
AcDbLine
 10
2682.922006534856
 20
932.8300462067096
 30
0.0
 11
2682.922006534856
 21
933.4751744901266
 31
0.0
  0
LINE
  5
DAB
330
BDF
100
AcDbEntity
  8
0
  6
Continuous
 62
     7
370
    15
100
AcDbLine
 10
2680.800686191297
 20
931.6054340389754
 30
0.0
 11
2682.922006534856
 21
932.8300462067096
 31
0.0
  0
LINE
  5
DAC
330
BDF
100
AcDbEntity
  8
0
  6
Continuous
 62
     7
370
    15
100
AcDbLine
 10
2684.838265911872
 20
939.7486007716011
 30
0.0
 11
2686.959586255432
 21
938.523988603867
 31
0.0
  0
LINE
  5
DAD
330
BDF
100
AcDbEntity
  8
0
  6
Continuous
 62
     7
370
    15
100
AcDbLine
 10
2684.838265911872
 20
939.8579310967994
 30
0.0
 11
2684.838265911872
 21
939.7486007716011
 31
0.0
  0
LINE
  5
DAE
330
BDF
100
AcDbEntity
  8
0
  6
Continuous
 62
     7
370
    15
100
AcDbLine
 10
2681.226930526586
 20
930.9510980159238
 30
0.0
 11
2683.348250870146
 21
932.1757101836579
 31
0.0
  0
LINE
  5
DAF
330
BDF
100
AcDbEntity
  8
0
  6
Continuous
 62
     7
370
    15
100
AcDbLine
 10
2683.171474174849
 20
932.481896400607
 30
0.0
 11
2681.050153831289
 21
931.257284232873
 31
0.0
  0
ARC
  5
DB0
330
BDF
100
AcDbEntity
  8
0
  6
Continuous
 62
     7
370
    15
100
AcDbCircle
 10
2682.964446844803
 20
932.1582449705926
 30
0.0
 40
0.3842012018933193
100
AcDbArc
 50
2.605478485669381
 51
57.39452165993736
  0
ARC
  5
DB1
330
BDF
100
AcDbEntity
  8
0
  6
Continuous
 62
     7
370
    15
100
AcDbCircle
 10
2683.305810560198
 20
932.8475114197747
 30
0.0
 40
0.3842012018931862
100
AcDbArc
 50
182.6054784856563
 51
237.3945216599663
  0
LINE
  5
DB2
330
BDF
100
AcDbEntity
  8
0
  6
Continuous
 62
     7
370
    15
100
AcDbLine
 10
2683.098783230153
 20
932.5238599897602
 30
0.0
 11
2680.977462886593
 21
931.2992478220262
 31
0.0
  0
LINE
  5
DB3
330
BDF
100
AcDbEntity
  8
0
  6
Continuous
 62
     7
370
    15
100
AcDbLine
 10
2683.348250870146
 20
927.4604545140848
 30
0.0
 11
2683.348250870146
 21
932.1757101836579
 31
0.0
  0
LINE
  5
DB4
330
BDF
100
AcDbEntity
  8
0
  6
Continuous
 62
     7
370
    15
100
AcDbLine
 10
2683.108667701449
 20
925.7531190565973
 30
0.0
 11
2683.348250870146
 21
927.4604545140848
 31
0.0
  0
ARC
  5
DB5
330
BDF
100
AcDbEntity
  8
0
  6
Continuous
 62
     7
370
    15
100
AcDbCircle
 10
2682.026436719505
 20
925.9185380026083
 30
0.0
 40
1.094800130607454
100
AcDbArc
 50
302.9067666138728
 51
351.3096048990238
  0
LINE
  5
DB6
330
BDF
100
AcDbEntity
  8
0
  6
Continuous
 62
     7
370
    15
100
AcDbLine
 10
2681.953968663507
 20
924.6142004992984
 30
0.0
 11
2682.621212733225
 21
924.9993923017088
 31
0.0
  0
LWPOLYLINE
  5
DB7
330
BDF
100
AcDbEntity
  8
0
  6
Continuous
 62
     7
370
    15
100
AcDbPolyline
 90
        9
 70
   128
 43
0.0
 10
2681.953968663507
 20
924.6142004992984
 10
2681.868017200728
 20
924.5732653387836
 10
2681.784677329653
 20
924.5509410979725
 10
2681.706481290091
 20
924.5479060876254
 10
2681.635805029136
 20
924.5642525249964
 10
2681.574796009213
 20
924.5994837318573
 10
2681.525307958519
 20
924.6525292258153
 10
2681.488844546434
 20
924.7217772463795
 10
2681.466513695282
 20
924.8051237274854
  0
LINE
  5
DB8
330
BDF
100
AcDbEntity
  8
0
  6
Continuous
 62
     7
370
    15
100
AcDbLine
 10
2681.226930526586
 20
926.2358423463521
 30
0.0
 11
2681.466513695282
 21
924.8051237274854
 31
0.0
  0
LINE
  5
DB9
330
BDF
100
AcDbEntity
  8
0
  6
Continuous
 62
     7
370
    15
100
AcDbLine
 10
2683.171474174849
 20
932.481896400607
 30
0.0
 11
2683.098783230153
 21
932.5238599897602
 31
0.0
  0
LINE
  5
DBA
330
BDF
100
AcDbEntity
  8
0
  6
Continuous
 62
     7
370
    15
100
AcDbLine
 10
2684.941819302465
 20
939.5196900989354
 30
0.0
 11
2687.063139646025
 21
938.2950779312016
 31
0.0
  0
ARC
  5
DBB
330
BDF
100
AcDbEntity
  8
0
  6
Continuous
 62
     7
370
    15
100
AcDbCircle
 10
2685.088595698555
 20
939.7239658249707
 30
0.0
 40
0.2515390281775033
100
AcDbArc
 50
174.3796210363968
 51
234.3019614711646
  0
LINE
  5
DBC
330
BDF
100
AcDbEntity
  8
0
  6
Continuous
 62
     7
370
    15
100
AcDbLine
 10
2690.565830839483
 20
941.0958068561722
 30
0.0
 11
2688.444510495923
 21
939.8711946884382
 31
0.0
  0
LINE
  5
DBD
330
BDF
100
AcDbEntity
  8
0
  6
Continuous
 62
     7
370
    15
100
AcDbLine
 10
2690.282988127008
 20
940.1975854230855
 30
0.0
 11
2690.565830839483
 21
941.0958068561722
 31
0.0
  0
LINE
  5
DBE
330
BDF
100
AcDbEntity
  8
0
  6
Continuous
 62
     7
370
    15
100
AcDbLine
 10
2688.161667783449
 20
938.9729732553512
 30
0.0
 11
2688.444510495923
 21
939.8711946884382
 31
0.0
  0
LINE
  5
DBF
330
BDF
100
AcDbEntity
  8
0
  6
Continuous
 62
     7
370
    15
100
AcDbLine
 10
2688.444510495923
 20
939.8711946884382
 30
0.0
 11
2688.161667783449
 21
940.0344763108027
 31
0.0
  0
LINE
  5
DC0
330
BDF
100
AcDbEntity
  8
0
  6
Continuous
 62
     7
370
    15
100
AcDbLine
 10
2690.565830839483
 20
941.0958068561722
 30
0.0
 11
2690.282988127008
 21
941.2590884785366
 31
0.0
  0
LINE
  5
DC1
330
BDF
100
AcDbEntity
  8
0
  6
Continuous
 62
     7
370
    15
100
AcDbLine
 10
2685.371108624346
 20
939.2717860853757
 30
0.0
 11
2687.492428967906
 21
938.0471739176417
 31
0.0
  0
LINE
  5
DC2
330
BDF
100
AcDbEntity
  8
0
  6
Continuous
 62
     7
370
    15
100
AcDbLine
 10
2684.941819302465
 20
939.5196900989354
 30
0.0
 11
2685.371108624346
 21
939.2717860853757
 31
0.0
  0
LINE
  5
DC3
330
BDF
100
AcDbEntity
  8
0
  6
Continuous
 62
     7
370
    15
100
AcDbLine
 10
2687.595982358499
 20
937.8182632449762
 30
0.0
 11
2685.47466201494
 21
939.0428754127102
 31
0.0
  0
ARC
  5
DC4
330
BDF
100
AcDbEntity
  8
0
  6
Continuous
 62
     7
370
    15
100
AcDbCircle
 10
2685.224332228257
 20
939.0675103593407
 30
0.0
 40
0.2515390281769872
100
AcDbArc
 50
354.379621036319
 51
54.30196147125468
  0
LINE
  5
DC5
330
BDF
100
AcDbEntity
  8
0
  6
Continuous
 62
     7
370
    15
100
AcDbLine
 10
2685.47466201494
 20
937.3980619124564
 30
0.0
 11
2687.595982358499
 21
936.1734497447223
 31
0.0
  0
LINE
  5
DC6
330
BDF
100
AcDbEntity
  8
0
  6
Continuous
 62
     7
370
    15
100
AcDbLine
 10
2685.47466201494
 20
939.0428754127102
 30
0.0
 11
2685.47466201494
 21
937.3980619124564
 31
0.0
  0
LINE
  5
DC7
330
BDF
100
AcDbEntity
  8
0
  6
Continuous
 62
     7
370
    15
100
AcDbLine
 10
2681.466513695282
 20
924.8051237274854
 30
0.0
 11
2679.631146598854
 21
925.8646585994195
 31
0.0
  0
LINE
  5
DC8
330
BDF
100
AcDbEntity
  8
0
  6
Continuous
 62
     7
370
    15
100
AcDbLine
 10
2679.391563430158
 20
927.295377218286
 30
0.0
 11
2679.631146598854
 21
925.8646585994195
 31
0.0
  0
LINE
  5
DC9
330
BDF
100
AcDbEntity
  8
0
  6
Continuous
 62
     7
370
    15
100
AcDbLine
 10
2690.353698805127
 20
937.7653991177551
 30
0.0
 11
2690.848673551958
 21
938.0511884019151
 31
0.0
  0
LINE
  5
DCA
330
BDF
100
AcDbEntity
  8
0
  6
Continuous
 62
     7
370
    15
100
AcDbLine
 10
2690.353698805127
 20
937.7653991177551
 30
0.0
 11
2687.595982358499
 21
936.1734032997008
 31
0.0
  0
LINE
  5
DCB
330
BDF
100
AcDbEntity
  8
0
  6
Continuous
 62
     7
370
    15
100
AcDbLine
 10
2687.595982358499
 20
936.1734497447228
 30
0.0
 11
2687.595982358499
 21
936.1734032997008
 31
0.0
  0
LINE
  5
DCC
330
BDF
100
AcDbEntity
  8
0
  6
Continuous
 62
     7
370
    15
100
AcDbLine
 10
2685.96963676177
 20
937.1122726282969
 30
0.0
 11
2685.47466201494
 21
937.3980619124568
 31
0.0
  0
LINE
  5
DCD
330
BDF
100
AcDbEntity
  8
0
  6
Continuous
 62
     7
370
    15
100
AcDbLine
 10
2687.595982358499
 20
936.1734032997008
 30
0.0
 11
2685.96963676177
 21
937.1122726282969
 31
0.0
  0
LINE
  5
DCE
330
BDF
100
AcDbEntity
  8
0
  6
Continuous
 62
     7
370
    15
100
AcDbLine
 10
2686.356565224845
 20
936.0314760136009
 30
0.0
 11
2686.429256169545
 21
935.9895124244495
 31
0.0
  0
ARC
  5
DCF
330
BDF
100
AcDbEntity
  8
0
  6
Continuous
 62
     7
370
    15
100
AcDbCircle
 10
2686.498264272985
 20
936.0741148142174
 30
0.0
 40
0.1091772993568967
100
AcDbArc
 50
230.7967147639915
 51
9.214036990773339
  0
LINE
  5
DD0
330
BDF
100
AcDbEntity
  8
0
  6
Continuous
 62
     7
370
    15
100
AcDbLine
 10
2686.606032864841
 20
936.0915966134431
 30
0.0
 11
2686.606032864839
 21
936.744888977976
 31
0.0
  0
LINE
  5
DD1
330
BDF
100
AcDbEntity
  8
0
  6
Continuous
 62
     7
370
    15
100
AcDbLine
 10
2687.588911290687
 20
936.17748534026
 30
0.0
 11
2687.588911290687
 21
935.5241929757244
 31
0.0
  0
ARC
  5
DD2
330
BDF
100
AcDbEntity
  8
0
  6
Continuous
 62
     7
370
    15
100
AcDbCircle
 10
2687.972715316029
 20
935.5416581887896
 30
0.0
 40
0.3842012018929612
100
AcDbArc
 50
182.6054784856498
 51
237.3945216599699
  0
LINE
  5
DD3
330
BDF
100
AcDbEntity
  8
0
  6
Continuous
 62
     7
370
    15
100
AcDbLine
 10
2687.765687985984
 20
935.2180067587752
 30
0.0
 11
2687.83837893068
 21
935.176043169622
 31
0.0
  0
ARC
  5
DD4
330
BDF
100
AcDbEntity
  8
0
  6
Continuous
 62
     7
370
    15
100
AcDbCircle
 10
2687.631351600635
 20
934.8523917396077
 30
0.0
 40
0.3842012018929552
100
AcDbArc
 50
2.605478485643353
 51
57.39452165997335
  0
LINE
  5
DD5
330
BDF
100
AcDbEntity
  8
0
  6
Continuous
 62
     7
370
    15
100
AcDbLine
 10
2688.015155625977
 20
934.8698569526728
 30
0.0
 11
2688.015155625977
 21
930.1546012831009
 31
0.0
  0
LINE
  5
DD6
330
BDF
100
AcDbEntity
  8
0
  6
Continuous
 62
     7
370
    15
100
AcDbLine
 10
2688.015155625977
 20
930.1546012831009
 30
0.0
 11
2686.179788529548
 21
931.214136155035
 31
0.0
  0
LINE
  5
DD7
330
BDF
100
AcDbEntity
  8
0
  6
Continuous
 62
     7
370
    15
100
AcDbLine
 10
2686.179788529548
 20
935.9293918246073
 30
0.0
 11
2686.179788529548
 21
931.214136155035
 31
0.0
  0
ARC
  5
DD8
330
BDF
100
AcDbEntity
  8
0
  6
Continuous
 62
     7
370
    15
100
AcDbCircle
 10
2686.287557121405
 20
935.9468736238325
 30
0.0
 40
0.1091772993572163
100
AcDbArc
 50
50.79671476436592
 51
189.2140369903856
  0
ARC
  5
DD9
330
BDF
100
AcDbEntity
  8
0
  6
Continuous
 62
     7
370
    15
100
AcDbCircle
 10
2679.932147851968
 20
925.8934242516449
 30
0.0
 40
0.3023726461243216
100
AcDbArc
 50
185.4589815370972
 51
237.2630757801018
  0
LINE
  5
DDA
330
BDF
100
AcDbEntity
  8
0
  6
Continuous
 62
     7
370
    15
100
AcDbLine
 10
2689.710231634247
 20
936.7488051434586
 30
0.0
 11
2689.710231634247
 21
937.3939334268756
 31
0.0
  0
LINE
  5
DDB
330
BDF
100
AcDbEntity
  8
0
  6
Continuous
 62
     7
370
    15
100
AcDbLine
 10
2687.588911290687
 20
935.5241929757244
 30
0.0
 11
2689.710231634247
 21
936.7488051434586
 31
0.0
  0
LINE
  5
DDC
330
BDF
100
AcDbEntity
  8
0
  6
Continuous
 62
     7
370
    15
100
AcDbLine
 10
2691.626491011263
 20
943.6673597083501
 30
0.0
 11
2693.747811354822
 21
942.442747540616
 31
0.0
  0
LINE
  5
DDD
330
BDF
100
AcDbEntity
  8
0
  6
Continuous
 62
     7
370
    15
100
AcDbLine
 10
2691.626491011263
 20
943.7766900335484
 30
0.0
 11
2691.626491011263
 21
943.6673597083501
 31
0.0
  0
LINE
  5
DDE
330
BDF
100
AcDbEntity
  8
0
  6
Continuous
 62
     7
370
    15
100
AcDbLine
 10
2688.015155625977
 20
934.8698569526728
 30
0.0
 11
2690.136475969536
 21
936.0944691204068
 31
0.0
  0
LINE
  5
DDF
330
BDF
100
AcDbEntity
  8
0
  6
Continuous
 62
     7
370
    15
100
AcDbLine
 10
2689.95969927424
 20
936.400655337356
 30
0.0
 11
2687.83837893068
 21
935.176043169622
 31
0.0
  0
ARC
  5
DE0
330
BDF
100
AcDbEntity
  8
0
  6
Continuous
 62
     7
370
    15
100
AcDbCircle
 10
2689.752671944194
 20
936.0770039073415
 30
0.0
 40
0.3842012018933844
100
AcDbArc
 50
2.605478485682395
 51
57.39452165994087
  0
ARC
  5
DE1
330
BDF
100
AcDbEntity
  8
0
  6
Continuous
 62
     7
370
    15
100
AcDbCircle
 10
2690.094035659589
 20
936.7662703565237
 30
0.0
 40
0.3842012018931489
100
AcDbArc
 50
182.6054784856628
 51
237.3945216599444
  0
LINE
  5
DE2
330
BDF
100
AcDbEntity
  8
0
  6
Continuous
 62
     7
370
    15
100
AcDbLine
 10
2689.887008329544
 20
936.4426189265094
 30
0.0
 11
2687.765687985984
 21
935.2180067587752
 31
0.0
  0
LINE
  5
DE3
330
BDF
100
AcDbEntity
  8
0
  6
Continuous
 62
     7
370
    15
100
AcDbLine
 10
2690.136475969536
 20
931.3792134508338
 30
0.0
 11
2690.136475969536
 21
936.0944691204068
 31
0.0
  0
LINE
  5
DE4
330
BDF
100
AcDbEntity
  8
0
  6
Continuous
 62
     7
370
    15
100
AcDbLine
 10
2689.89689280084
 20
929.6718779933465
 30
0.0
 11
2690.136475969536
 21
931.3792134508338
 31
0.0
  0
ARC
  5
DE5
330
BDF
100
AcDbEntity
  8
0
  6
Continuous
 62
     7
370
    15
100
AcDbCircle
 10
2688.814661818896
 20
929.8372969393573
 30
0.0
 40
1.094800130607585
100
AcDbArc
 50
302.9067666138728
 51
351.3096048990238
  0
LINE
  5
DE6
330
BDF
100
AcDbEntity
  8
0
  6
Continuous
 62
     7
370
    15
100
AcDbLine
 10
2688.742193762898
 20
928.5329594360474
 30
0.0
 11
2689.409437832616
 21
928.918151238458
 31
0.0
  0
LWPOLYLINE
  5
DE7
330
BDF
100
AcDbEntity
  8
0
  6
Continuous
 62
     7
370
    15
100
AcDbPolyline
 90
        9
 70
   128
 43
0.0
 10
2688.742193762898
 20
928.5329594360474
 10
2688.656242300119
 20
928.4920242755326
 10
2688.572902429044
 20
928.4697000347215
 10
2688.494706389482
 20
928.4666650243746
 10
2688.424030128527
 20
928.4830114617454
 10
2688.363021108604
 20
928.5182426686063
 10
2688.313533057911
 20
928.5712881625645
 10
2688.277069645825
 20
928.6405361831285
 10
2688.254738794674
 20
928.7238826642344
  0
LINE
  5
DE8
330
BDF
100
AcDbEntity
  8
0
  6
Continuous
 62
     7
370
    15
100
AcDbLine
 10
2688.015155625977
 20
930.1546012831009
 30
0.0
 11
2688.254738794674
 21
928.7238826642344
 31
0.0
  0
LINE
  5
DE9
330
BDF
100
AcDbEntity
  8
0
  6
Continuous
 62
     7
370
    15
100
AcDbLine
 10
2689.95969927424
 20
936.400655337356
 30
0.0
 11
2689.887008329544
 21
936.4426189265094
 31
0.0
  0
LINE
  5
DEA
330
BDF
100
AcDbEntity
  8
0
  6
Continuous
 62
     7
370
    15
100
AcDbLine
 10
2691.730044401856
 20
943.4384490356846
 30
0.0
 11
2693.851364745416
 21
942.2138368679505
 31
0.0
  0
ARC
  5
DEB
330
BDF
100
AcDbEntity
  8
0
  6
Continuous
 62
     7
370
    15
100
AcDbCircle
 10
2691.876820797946
 20
943.6427247617197
 30
0.0
 40
0.2515390281773309
100
AcDbArc
 50
174.3796210363968
 51
234.3019614711971
  0
LINE
  5
DEC
330
BDF
100
AcDbEntity
  8
0
  6
Continuous
 62
     7
370
    15
100
AcDbLine
 10
2697.354055938874
 20
945.0145657929212
 30
0.0
 11
2697.071213226399
 21
945.1778474152856
 31
0.0
  0
LINE
  5
DED
330
BDF
100
AcDbEntity
  8
0
  6
Continuous
 62
     7
370
    15
100
AcDbLine
 10
2697.354055938874
 20
945.0145657929212
 30
0.0
 11
2695.232735595314
 21
943.7899536251872
 31
0.0
  0
LINE
  5
DEE
330
BDF
100
AcDbEntity
  8
0
  6
Continuous
 62
     7
370
    15
100
AcDbLine
 10
2695.232735595314
 20
943.7899536251872
 30
0.0
 11
2694.94989288284
 21
943.9532352475517
 31
0.0
  0
LINE
  5
DEF
330
BDF
100
AcDbEntity
  8
0
  6
Continuous
 62
     7
370
    15
100
AcDbLine
 10
2697.071213226399
 20
944.1163443598345
 30
0.0
 11
2697.354055938874
 21
945.0145657929212
 31
0.0
  0
LINE
  5
DF0
330
BDF
100
AcDbEntity
  8
0
  6
Continuous
 62
     7
370
    15
100
AcDbLine
 10
2694.94989288284
 20
942.8917321921002
 30
0.0
 11
2695.232735595314
 21
943.7899536251872
 31
0.0
  0
LINE
  5
DF1
330
BDF
100
AcDbEntity
  8
0
  6
Continuous
 62
     7
370
    15
100
AcDbLine
 10
2692.159333723737
 20
943.1905450221247
 30
0.0
 11
2694.280654067297
 21
941.9659328543907
 31
0.0
  0
LINE
  5
DF2
330
BDF
100
AcDbEntity
  8
0
  6
Continuous
 62
     7
370
    15
100
AcDbLine
 10
2691.730044401856
 20
943.4384490356846
 30
0.0
 11
2692.159333723737
 21
943.1905450221247
 31
0.0
  0
LINE
  5
DF3
330
BDF
100
AcDbEntity
  8
0
  6
Continuous
 62
     7
370
    15
100
AcDbLine
 10
2694.38420745789
 20
941.737022181725
 30
0.0
 11
2692.26288711433
 21
942.9616343494592
 31
0.0
  0
ARC
  5
DF4
330
BDF
100
AcDbEntity
  8
0
  6
Continuous
 62
     7
370
    15
100
AcDbCircle
 10
2692.012557327647
 20
942.9862692960895
 30
0.0
 40
0.2515390281772826
100
AcDbArc
 50
354.3796210363773
 51
54.30196147122591
  0
LINE
  5
DF5
330
BDF
100
AcDbEntity
  8
0
  6
Continuous
 62
     7
370
    15
100
AcDbLine
 10
2692.26288711433
 20
941.3168208492054
 30
0.0
 11
2694.38420745789
 21
940.0922086814714
 31
0.0
  0
LINE
  5
DF6
330
BDF
100
AcDbEntity
  8
0
  6
Continuous
 62
     7
370
    15
100
AcDbLine
 10
2692.26288711433
 20
942.9616343494592
 30
0.0
 11
2692.26288711433
 21
941.3168208492054
 31
0.0
  0
LINE
  5
DF7
330
BDF
100
AcDbEntity
  8
0
  6
Continuous
 62
     7
370
    15
100
AcDbLine
 10
2688.254738794674
 20
928.7238826642344
 30
0.0
 11
2686.419371698245
 21
929.7834175361685
 31
0.0
  0
LINE
  5
DF8
330
BDF
100
AcDbEntity
  8
0
  6
Continuous
 62
     7
370
    15
100
AcDbLine
 10
2686.179788529548
 20
931.214136155035
 30
0.0
 11
2686.419371698245
 21
929.7834175361685
 31
0.0
  0
LINE
  5
DF9
330
BDF
100
AcDbEntity
  8
0
  6
Continuous
 62
     7
370
    15
100
AcDbLine
 10
2697.141923904518
 20
941.6841580545042
 30
0.0
 11
2697.636898651348
 21
941.9699473386641
 31
0.0
  0
LINE
  5
DFA
330
BDF
100
AcDbEntity
  8
0
  6
Continuous
 62
     7
370
    15
100
AcDbLine
 10
2697.141923904518
 20
941.6841580545041
 30
0.0
 11
2694.38420745789
 21
940.0921622364499
 31
0.0
  0
LINE
  5
DFB
330
BDF
100
AcDbEntity
  8
0
  6
Continuous
 62
     7
370
    15
100
AcDbLine
 10
2694.38420745789
 20
940.0922086814718
 30
0.0
 11
2694.38420745789
 21
940.0921622364498
 31
0.0
  0
LINE
  5
DFC
330
BDF
100
AcDbEntity
  8
0
  6
Continuous
 62
     7
370
    15
100
AcDbLine
 10
2692.75786186116
 20
941.0310315650459
 30
0.0
 11
2692.262887114331
 21
941.3168208492058
 31
0.0
  0
LINE
  5
DFD
330
BDF
100
AcDbEntity
  8
0
  6
Continuous
 62
     7
370
    15
100
AcDbLine
 10
2694.38420745789
 20
940.0921622364499
 30
0.0
 11
2692.75786186116
 21
941.0310315650459
 31
0.0
  0
LINE
  5
DFE
330
BDF
100
AcDbEntity
  8
0
  6
Continuous
 62
     7
370
    15
100
AcDbLine
 10
2693.144790324236
 20
939.9502349503499
 30
0.0
 11
2693.217481268935
 21
939.9082713611985
 31
0.0
  0
ARC
  5
DFF
330
BDF
100
AcDbEntity
  8
0
  6
Continuous
 62
     7
370
    15
100
AcDbCircle
 10
2693.286489372376
 20
939.9928737509664
 30
0.0
 40
0.1091772993569282
100
AcDbArc
 50
230.7967147639915
 51
9.214036990754047
  0
LINE
  5
E00
330
BDF
100
AcDbEntity
  8
0
  6
Continuous
 62
     7
370
    15
100
AcDbLine
 10
2693.394257964232
 20
940.0103555501921
 30
0.0
 11
2693.39425796423
 21
940.663647914725
 31
0.0
  0
LINE
  5
E01
330
BDF
100
AcDbEntity
  8
0
  6
Continuous
 62
     7
370
    15
100
AcDbLine
 10
2694.377136390078
 20
940.096244277009
 30
0.0
 11
2694.377136390078
 21
939.4429519124734
 31
0.0
  0
ARC
  5
E02
330
BDF
100
AcDbEntity
  8
0
  6
Continuous
 62
     7
370
    15
100
AcDbCircle
 10
2694.76094041542
 20
939.4604171255387
 30
0.0
 40
0.3842012018930133
100
AcDbArc
 50
182.6054784856498
 51
237.3945216599699
  0
LINE
  5
E03
330
BDF
100
AcDbEntity
  8
0
  6
Continuous
 62
     7
370
    15
100
AcDbLine
 10
2694.553913085375
 20
939.1367656955242
 30
0.0
 11
2694.626604030072
 21
939.0948021063712
 31
0.0
  0
ARC
  5
E04
330
BDF
100
AcDbEntity
  8
0
  6
Continuous
 62
     7
370
    15
100
AcDbCircle
 10
2694.419576700026
 20
938.7711506763567
 30
0.0
 40
0.3842012018928627
100
AcDbArc
 50
2.605478485643353
 51
57.39452165999882
  0
LINE
  5
E05
330
BDF
100
AcDbEntity
  8
0
  6
Continuous
 62
     7
370
    15
100
AcDbLine
 10
2694.803380725368
 20
938.7886158894218
 30
0.0
 11
2694.803380725368
 21
934.0733602198499
 31
0.0
  0
LINE
  5
E06
330
BDF
100
AcDbEntity
  8
0
  6
Continuous
 62
     7
370
    15
100
AcDbLine
 10
2694.803380725368
 20
934.0733602198499
 30
0.0
 11
2692.968013628939
 21
935.132895091784
 31
0.0
  0
LINE
  5
E07
330
BDF
100
AcDbEntity
  8
0
  6
Continuous
 62
     7
370
    15
100
AcDbLine
 10
2692.968013628939
 20
939.8481507613562
 30
0.0
 11
2692.968013628939
 21
935.132895091784
 31
0.0
  0
ARC
  5
E08
330
BDF
100
AcDbEntity
  8
0
  6
Continuous
 62
     7
370
    15
100
AcDbCircle
 10
2693.075782220796
 20
939.8656325605813
 30
0.0
 40
0.1091772993572016
100
AcDbArc
 50
50.79671476430084
 51
189.2140369904371
  0
ARC
  5
E09
330
BDF
100
AcDbEntity
  8
0
  6
Continuous
 62
     7
370
    15
100
AcDbCircle
 10
2686.720372951359
 20
929.8121831883941
 30
0.0
 40
0.3023726461243604
100
AcDbArc
 50
185.4589815371231
 51
237.2630757801053
  0
LINE
  5
E0A
330
BDF
100
AcDbEntity
  8
0
  6
Continuous
 62
     7
370
    15
100
AcDbLine
 10
2696.498456733638
 20
940.6675640802076
 30
0.0
 11
2696.498456733638
 21
941.3126923636246
 31
0.0
  0
LINE
  5
E0B
330
BDF
100
AcDbEntity
  8
0
  6
Continuous
 62
     7
370
    15
100
AcDbLine
 10
2694.377136390078
 20
939.4429519124734
 30
0.0
 11
2696.498456733638
 21
940.6675640802076
 31
0.0
  0
LINE
  5
E0C
330
BDF
100
AcDbEntity
  8
0
  6
Continuous
 62
     7
370
    15
100
AcDbLine
 10
2698.414716110653
 20
947.5861186450991
 30
0.0
 11
2700.536036454213
 21
946.361506477365
 31
0.0
  0
LINE
  5
E0D
330
BDF
100
AcDbEntity
  8
0
  6
Continuous
 62
     7
370
    15
100
AcDbLine
 10
2698.414716110653
 20
947.6954489702974
 30
0.0
 11
2698.414716110653
 21
947.5861186450991
 31
0.0
  0
LINE
  5
E0E
330
BDF
100
AcDbEntity
  8
0
  6
Continuous
 62
     7
370
    15
100
AcDbLine
 10
2694.803380725368
 20
938.7886158894218
 30
0.0
 11
2696.924701068927
 21
940.0132280571558
 31
0.0
  0
LINE
  5
E0F
330
BDF
100
AcDbEntity
  8
0
  6
Continuous
 62
     7
370
    15
100
AcDbLine
 10
2696.747924373631
 20
940.3194142741051
 30
0.0
 11
2694.626604030072
 21
939.0948021063712
 31
0.0
  0
ARC
  5
E10
330
BDF
100
AcDbEntity
  8
0
  6
Continuous
 62
     7
370
    15
100
AcDbCircle
 10
2696.540897043585
 20
939.9957628440905
 30
0.0
 40
0.3842012018936094
100
AcDbArc
 50
2.605478485682395
 51
57.39452165991191
  0
ARC
  5
E11
330
BDF
100
AcDbEntity
  8
0
  6
Continuous
 62
     7
370
    15
100
AcDbCircle
 10
2696.882260758979
 20
940.6850292932725
 30
0.0
 40
0.3842012018928391
100
AcDbArc
 50
182.6054784856433
 51
237.3945216599734
  0
LINE
  5
E12
330
BDF
100
AcDbEntity
  8
0
  6
Continuous
 62
     7
370
    15
100
AcDbLine
 10
2696.675233428934
 20
940.3613778632584
 30
0.0
 11
2694.553913085375
 21
939.1367656955242
 31
0.0
  0
LINE
  5
E13
330
BDF
100
AcDbEntity
  8
0
  6
Continuous
 62
     7
370
    15
100
AcDbLine
 10
2696.924701068927
 20
935.2979723875828
 30
0.0
 11
2696.924701068927
 21
940.0132280571558
 31
0.0
  0
LINE
  5
E14
330
BDF
100
AcDbEntity
  8
0
  6
Continuous
 62
     7
370
    15
100
AcDbLine
 10
2696.685117900231
 20
933.5906369300955
 30
0.0
 11
2696.924701068927
 21
935.2979723875828
 31
0.0
  0
ARC
  5
E15
330
BDF
100
AcDbEntity
  8
0
  6
Continuous
 62
     7
370
    15
100
AcDbCircle
 10
2695.602886918287
 20
933.7560558761063
 30
0.0
 40
1.09480013060723
100
AcDbArc
 50
302.9067666138474
 51
351.3096048990302
  0
LINE
  5
E16
330
BDF
100
AcDbEntity
  8
0
  6
Continuous
 62
     7
370
    15
100
AcDbLine
 10
2695.530418862289
 20
932.4517183727964
 30
0.0
 11
2696.197662932007
 21
932.836910175207
 31
0.0
  0
LWPOLYLINE
  5
E17
330
BDF
100
AcDbEntity
  8
0
  6
Continuous
 62
     7
370
    15
100
AcDbPolyline
 90
        9
 70
   128
 43
0.0
 10
2695.530418862289
 20
932.4517183727964
 10
2695.44446739951
 20
932.4107832122816
 10
2695.361127528435
 20
932.3884589714705
 10
2695.282931488873
 20
932.3854239611236
 10
2695.212255227918
 20
932.4017703984944
 10
2695.151246207995
 20
932.4370016053553
 10
2695.101758157302
 20
932.4900470993135
 10
2695.065294745216
 20
932.5592951198775
 10
2695.042963894064
 20
932.6426416009834
  0
LINE
  5
E18
330
BDF
100
AcDbEntity
  8
0
  6
Continuous
 62
     7
370
    15
100
AcDbLine
 10
2694.803380725368
 20
934.0733602198499
 30
0.0
 11
2695.042963894064
 21
932.6426416009834
 31
0.0
  0
LINE
  5
E19
330
BDF
100
AcDbEntity
  8
0
  6
Continuous
 62
     7
370
    15
100
AcDbLine
 10
2696.747924373631
 20
940.3194142741051
 30
0.0
 11
2696.675233428934
 21
940.3613778632584
 31
0.0
  0
LINE
  5
E1A
330
BDF
100
AcDbEntity
  8
0
  6
Continuous
 62
     7
370
    15
100
AcDbLine
 10
2698.518269501247
 20
947.3572079724336
 30
0.0
 11
2700.639589844807
 21
946.1325958046996
 31
0.0
  0
ARC
  5
E1B
330
BDF
100
AcDbEntity
  8
0
  6
Continuous
 62
     7
370
    15
100
AcDbCircle
 10
2698.665045897337
 20
947.5614836984687
 30
0.0
 40
0.2515390281774242
100
AcDbArc
 50
174.3796210364032
 51
234.3019614711646
  0
LINE
  5
E1C
330
BDF
100
AcDbEntity
  8
0
  6
Continuous
 62
     7
370
    15
100
AcDbLine
 10
2704.142281038265
 20
948.9333247296702
 30
0.0
 11
2702.020960694705
 21
947.7087125619361
 31
0.0
  0
LINE
  5
E1D
330
BDF
100
AcDbEntity
  8
0
  6
Continuous
 62
     7
370
    15
100
AcDbLine
 10
2703.85943832579
 20
948.0351032965835
 30
0.0
 11
2704.142281038265
 21
948.9333247296702
 31
0.0
  0
LINE
  5
E1E
330
BDF
100
AcDbEntity
  8
0
  6
Continuous
 62
     7
370
    15
100
AcDbLine
 10
2701.738117982231
 20
946.8104911288492
 30
0.0
 11
2702.020960694705
 21
947.7087125619361
 31
0.0
  0
LINE
  5
E1F
330
BDF
100
AcDbEntity
  8
0
  6
Continuous
 62
     7
370
    15
100
AcDbLine
 10
2704.142281038265
 20
948.9333247296702
 30
0.0
 11
2703.85943832579
 21
949.0966063520348
 31
0.0
  0
LINE
  5
E20
330
BDF
100
AcDbEntity
  8
0
  6
Continuous
 62
     7
370
    15
100
AcDbLine
 10
2702.020960694705
 20
947.7087125619361
 30
0.0
 11
2701.738117982231
 21
947.8719941843007
 31
0.0
  0
LINE
  5
E21
330
BDF
100
AcDbEntity
  8
0
  6
Continuous
 62
     7
370
    15
100
AcDbLine
 10
2698.947558823128
 20
947.1093039588739
 30
0.0
 11
2701.068879166688
 21
945.8846917911399
 31
0.0
  0
LINE
  5
E22
330
BDF
100
AcDbEntity
  8
0
  6
Continuous
 62
     7
370
    15
100
AcDbLine
 10
2698.518269501247
 20
947.3572079724336
 30
0.0
 11
2698.947558823128
 21
947.1093039588739
 31
0.0
  0
LINE
  5
E23
330
BDF
100
AcDbEntity
  8
0
  6
Continuous
 62
     7
370
    15
100
AcDbLine
 10
2701.172432557281
 20
945.655781118474
 30
0.0
 11
2699.051112213722
 21
946.8803932862082
 31
0.0
  0
ARC
  5
E24
330
BDF
100
AcDbEntity
  8
0
  6
Continuous
 62
     7
370
    15
100
AcDbCircle
 10
2698.800782427038
 20
946.9050282328389
 30
0.0
 40
0.2515390281769117
100
AcDbArc
 50
354.3796210363125
 51
54.30196147125468
  0
LINE
  5
E25
330
BDF
100
AcDbEntity
  8
0
  6
Continuous
 62
     7
370
    15
100
AcDbLine
 10
2699.051112213722
 20
945.2355797859546
 30
0.0
 11
2701.172432557281
 21
944.0109676182204
 31
0.0
  0
LINE
  5
E26
330
BDF
100
AcDbEntity
  8
0
  6
Continuous
 62
     7
370
    15
100
AcDbLine
 10
2699.051112213722
 20
946.8803932862082
 30
0.0
 11
2699.051112213722
 21
945.2355797859544
 31
0.0
  0
LINE
  5
E27
330
BDF
100
AcDbEntity
  8
0
  6
Continuous
 62
     7
370
    15
100
AcDbLine
 10
2695.042963894064
 20
932.6426416009834
 30
0.0
 11
2693.207596797636
 21
933.7021764729175
 31
0.0
  0
LINE
  5
E28
330
BDF
100
AcDbEntity
  8
0
  6
Continuous
 62
     7
370
    15
100
AcDbLine
 10
2692.968013628939
 20
935.132895091784
 30
0.0
 11
2693.207596797636
 21
933.7021764729175
 31
0.0
  0
LINE
  5
E29
330
BDF
100
AcDbEntity
  8
0
  6
Continuous
 62
     7
370
    15
100
AcDbLine
 10
2703.930149003908
 20
945.6029169912532
 30
0.0
 11
2704.425123750739
 21
945.8887062754131
 31
0.0
  0
LINE
  5
E2A
330
BDF
100
AcDbEntity
  8
0
  6
Continuous
 62
     7
370
    15
100
AcDbLine
 10
2703.930149003908
 20
945.6029169912532
 30
0.0
 11
2701.172432557281
 21
944.0109211731989
 31
0.0
  0
LINE
  5
E2B
330
BDF
100
AcDbEntity
  8
0
  6
Continuous
 62
     7
370
    15
100
AcDbLine
 10
2701.172432557281
 20
944.010967618221
 30
0.0
 11
2701.172432557281
 21
944.0109211731989
 31
0.0
  0
LINE
  5
E2C
330
BDF
100
AcDbEntity
  8
0
  6
Continuous
 62
     7
370
    15
100
AcDbLine
 10
2699.546086960552
 20
944.9497905017949
 30
0.0
 11
2699.051112213722
 21
945.2355797859548
 31
0.0
  0
LINE
  5
E2D
330
BDF
100
AcDbEntity
  8
0
  6
Continuous
 62
     7
370
    15
100
AcDbLine
 10
2701.172432557281
 20
944.0109211731989
 30
0.0
 11
2699.546086960552
 21
944.9497905017949
 31
0.0
  0
LINE
  5
E2E
330
BDF
100
AcDbEntity
  8
0
  6
Continuous
 62
     7
370
    15
100
AcDbLine
 10
2699.933015423626
 20
943.8689938870989
 30
0.0
 11
2700.005706368326
 21
943.8270302979475
 31
0.0
  0
ARC
  5
E2F
330
BDF
100
AcDbEntity
  8
0
  6
Continuous
 62
     7
370
    15
100
AcDbCircle
 10
2700.074714471767
 20
943.9116326877153
 30
0.0
 40
0.1091772993568886
100
AcDbArc
 50
230.7967147639347
 51
9.214036990799057
  0
LINE
  5
E30
330
BDF
100
AcDbEntity
  8
0
  6
Continuous
 62
     7
370
    15
100
AcDbLine
 10
2700.182483063623
 20
943.9291144869413
 30
0.0
 11
2700.182483063621
 21
944.5824068514742
 31
0.0
  0
LINE
  5
E31
330
BDF
100
AcDbEntity
  8
0
  6
Continuous
 62
     7
370
    15
100
AcDbLine
 10
2701.165361489469
 20
944.015003213758
 30
0.0
 11
2701.165361489469
 21
943.3617108492226
 31
0.0
  0
ARC
  5
E32
330
BDF
100
AcDbEntity
  8
0
  6
Continuous
 62
     7
370
    15
100
AcDbCircle
 10
2701.549165514811
 20
943.3791760622877
 30
0.0
 40
0.3842012018933037
100
AcDbArc
 50
182.6054784856694
 51
237.3945216599409
  0
LINE
  5
E33
330
BDF
100
AcDbEntity
  8
0
  6
Continuous
 62
     7
370
    15
100
AcDbLine
 10
2701.342138184766
 20
943.0555246322732
 30
0.0
 11
2701.414829129462
 21
943.0135610431202
 31
0.0
  0
ARC
  5
E34
330
BDF
100
AcDbEntity
  8
0
  6
Continuous
 62
     7
370
    15
100
AcDbCircle
 10
2701.207801799416
 20
942.6899096131055
 30
0.0
 40
0.3842012018932514
100
AcDbArc
 50
2.605478485675888
 51
57.39452165994439
  0
LINE
  5
E35
330
BDF
100
AcDbEntity
  8
0
  6
Continuous
 62
     7
370
    15
100
AcDbLine
 10
2701.591605824759
 20
942.7073748261708
 30
0.0
 11
2701.591605824759
 21
937.9921191565991
 31
0.0
  0
LINE
  5
E36
330
BDF
100
AcDbEntity
  8
0
  6
Continuous
 62
     7
370
    15
100
AcDbLine
 10
2701.591605824759
 20
937.9921191565991
 30
0.0
 11
2699.75623872833
 21
939.0516540285331
 31
0.0
  0
LINE
  5
E37
330
BDF
100
AcDbEntity
  8
0
  6
Continuous
 62
     7
370
    15
100
AcDbLine
 10
2699.75623872833
 20
943.7669096981053
 30
0.0
 11
2699.75623872833
 21
939.0516540285331
 31
0.0
  0
ARC
  5
E38
330
BDF
100
AcDbEntity
  8
0
  6
Continuous
 62
     7
370
    15
100
AcDbCircle
 10
2699.864007320187
 20
943.7843914973305
 30
0.0
 40
0.1091772993571355
100
AcDbArc
 50
50.79671476427242
 51
189.2140369904564
  0
ARC
  5
E39
330
BDF
100
AcDbEntity
  8
0
  6
Continuous
 62
     7
370
    15
100
AcDbCircle
 10
2693.50859805075
 20
933.7309421251431
 30
0.0
 40
0.302372646124579
100
AcDbArc
 50
185.4589815371361
 51
237.2630757800982
  0
LINE
  5
E3A
330
BDF
100
AcDbEntity
  8
0
  6
Continuous
 62
     7
370
    15
100
AcDbLine
 10
2703.286681833029
 20
944.5863230169566
 30
0.0
 11
2703.286681833029
 21
945.2314513003736
 31
0.0
  0
LINE
  5
E3B
330
BDF
100
AcDbEntity
  8
0
  6
Continuous
 62
     7
370
    15
100
AcDbLine
 10
2701.165361489469
 20
943.3617108492226
 30
0.0
 11
2703.286681833029
 21
944.5863230169566
 31
0.0
  0
LINE
  5
E3C
330
BDF
100
AcDbEntity
  8
0
  6
Continuous
 62
     7
370
    15
100
AcDbLine
 10
2705.202941210044
 20
951.5048775818481
 30
0.0
 11
2707.324261553604
 21
950.280265414114
 31
0.0
  0
LINE
  5
E3D
330
BDF
100
AcDbEntity
  8
0
  6
Continuous
 62
     7
370
    15
100
AcDbLine
 10
2705.202941210044
 20
951.6142079070462
 30
0.0
 11
2705.202941210044
 21
951.5048775818481
 31
0.0
  0
LINE
  5
E3E
330
BDF
100
AcDbEntity
  8
0
  6
Continuous
 62
     7
370
    15
100
AcDbLine
 10
2701.591605824759
 20
942.7073748261708
 30
0.0
 11
2703.712926168318
 21
943.9319869939049
 31
0.0
  0
LINE
  5
E3F
330
BDF
100
AcDbEntity
  8
0
  6
Continuous
 62
     7
370
    15
100
AcDbLine
 10
2703.536149473022
 20
944.2381732108541
 30
0.0
 11
2701.414829129462
 21
943.0135610431202
 31
0.0
  0
ARC
  5
E40
330
BDF
100
AcDbEntity
  8
0
  6
Continuous
 62
     7
370
    15
100
AcDbCircle
 10
2703.329122142976
 20
943.9145217808395
 30
0.0
 40
0.3842012018933365
100
AcDbArc
 50
2.605478485675888
 51
57.39452165994087
  0
ARC
  5
E41
330
BDF
100
AcDbEntity
  8
0
  6
Continuous
 62
     7
370
    15
100
AcDbCircle
 10
2703.670485858371
 20
944.6037882300215
 30
0.0
 40
0.3842012018928352
100
AcDbArc
 50
182.6054784856238
 51
237.3945216599699
  0
LINE
  5
E42
330
BDF
100
AcDbEntity
  8
0
  6
Continuous
 62
     7
370
    15
100
AcDbLine
 10
2703.463458528326
 20
944.2801368000074
 30
0.0
 11
2701.342138184766
 21
943.0555246322732
 31
0.0
  0
LINE
  5
E43
330
BDF
100
AcDbEntity
  8
0
  6
Continuous
 62
     7
370
    15
100
AcDbLine
 10
2703.712926168318
 20
939.2167313243318
 30
0.0
 11
2703.712926168318
 21
943.9319869939049
 31
0.0
  0
LINE
  5
E44
330
BDF
100
AcDbEntity
  8
0
  6
Continuous
 62
     7
370
    15
100
AcDbLine
 10
2703.473342999622
 20
937.5093958668443
 30
0.0
 11
2703.712926168318
 21
939.2167313243318
 31
0.0
  0
ARC
  5
E45
330
BDF
100
AcDbEntity
  8
0
  6
Continuous
 62
     7
370
    15
100
AcDbCircle
 10
2702.391112017679
 20
937.674814812855
 30
0.0
 40
1.094800130606883
100
AcDbArc
 50
302.9067666138474
 51
351.3096048990367
  0
LINE
  5
E46
330
BDF
100
AcDbEntity
  8
0
  6
Continuous
 62
     7
370
    15
100
AcDbLine
 10
2702.318643961679
 20
936.3704773095454
 30
0.0
 11
2702.985888031398
 21
936.755669111956
 31
0.0
  0
LWPOLYLINE
  5
E47
330
BDF
100
AcDbEntity
  8
0
  6
Continuous
 62
     7
370
    15
100
AcDbPolyline
 90
        9
 70
   128
 43
0.0
 10
2702.318643961679
 20
936.3704773095454
 10
2702.232692498901
 20
936.3295421490306
 10
2702.149352627826
 20
936.3072179082195
 10
2702.071156588264
 20
936.3041828978726
 10
2702.000480327308
 20
936.3205293352434
 10
2701.939471307385
 20
936.3557605421043
 10
2701.889983256692
 20
936.4088060360625
 10
2701.853519844607
 20
936.4780540566265
 10
2701.831188993455
 20
936.5614005377324
  0
LINE
  5
E48
330
BDF
100
AcDbEntity
  8
0
  6
Continuous
 62
     7
370
    15
100
AcDbLine
 10
2701.591605824759
 20
937.9921191565991
 30
0.0
 11
2701.831188993455
 21
936.5614005377324
 31
0.0
  0
LINE
  5
E49
330
BDF
100
AcDbEntity
  8
0
  6
Continuous
 62
     7
370
    15
100
AcDbLine
 10
2703.536149473022
 20
944.2381732108541
 30
0.0
 11
2703.463458528326
 21
944.2801368000074
 31
0.0
  0
LINE
  5
E4A
330
BDF
100
AcDbEntity
  8
0
  6
Continuous
 62
     7
370
    15
100
AcDbLine
 10
2705.306494600638
 20
951.2759669091826
 30
0.0
 11
2707.427814944197
 21
950.0513547414485
 31
0.0
  0
ARC
  5
E4B
330
BDF
100
AcDbEntity
  8
0
  6
Continuous
 62
     7
370
    15
100
AcDbCircle
 10
2705.453270996728
 20
951.4802426352176
 30
0.0
 40
0.2515390281771723
100
AcDbArc
 50
174.3796210363708
 51
234.3019614712297
  0
LINE
  5
E4C
330
BDF
100
AcDbEntity
  8
0
  6
Continuous
 62
     7
370
    15
100
AcDbLine
 10
2708.526343081621
 20
950.7292500655983
 30
0.0
 11
2708.809185794096
 21
951.6274714986851
 31
0.0
  0
LINE
  5
E4D
330
BDF
100
AcDbEntity
  8
0
  6
Continuous
 62
     7
370
    15
100
AcDbLine
 10
2708.809185794096
 20
951.6274714986851
 30
0.0
 11
2708.526343081621
 21
951.7907531210497
 31
0.0
  0
LINE
  5
E4E
330
BDF
100
AcDbEntity
  8
0
  6
Continuous
 62
     7
370
    15
100
AcDbLine
 10
2710.930506137656
 20
952.8520836664192
 30
0.0
 11
2708.809185794096
 21
951.6274714986851
 31
0.0
  0
LINE
  5
E4F
330
BDF
100
AcDbEntity
  8
0
  6
Continuous
 62
     7
370
    15
100
AcDbLine
 10
2710.647663425181
 20
951.9538622333325
 30
0.0
 11
2710.930506137656
 21
952.8520836664192
 31
0.0
  0
LINE
  5
E50
330
BDF
100
AcDbEntity
  8
0
  6
Continuous
 62
     7
370
    15
100
AcDbLine
 10
2710.930506137656
 20
952.8520836664192
 30
0.0
 11
2710.647663425181
 21
953.0153652887838
 31
0.0
  0
LINE
  5
E51
330
BDF
100
AcDbEntity
  8
0
  6
Continuous
 62
     7
370
    15
100
AcDbLine
 10
2705.735783922519
 20
951.0280628956229
 30
0.0
 11
2707.857104266079
 21
949.8034507278887
 31
0.0
  0
LINE
  5
E52
330
BDF
100
AcDbEntity
  8
0
  6
Continuous
 62
     7
370
    15
100
AcDbLine
 10
2705.306494600638
 20
951.2759669091826
 30
0.0
 11
2705.735783922519
 21
951.0280628956229
 31
0.0
  0
LINE
  5
E53
330
BDF
100
AcDbEntity
  8
0
  6
Continuous
 62
     7
370
    15
100
AcDbLine
 10
2707.960657656672
 20
949.574540055223
 30
0.0
 11
2705.839337313112
 21
950.7991522229572
 31
0.0
  0
ARC
  5
E54
330
BDF
100
AcDbEntity
  8
0
  6
Continuous
 62
     7
370
    15
100
AcDbCircle
 10
2705.589007526429
 20
950.8237871695879
 30
0.0
 40
0.2515390281770406
100
AcDbArc
 50
354.3796210363125
 51
54.30196147119715
  0
LINE
  5
E55
330
BDF
100
AcDbEntity
  8
0
  6
Continuous
 62
     7
370
    15
100
AcDbLine
 10
2705.839337313112
 20
949.1543387227036
 30
0.0
 11
2707.960657656672
 21
947.9297265549694
 31
0.0
  0
LINE
  5
E56
330
BDF
100
AcDbEntity
  8
0
  6
Continuous
 62
     7
370
    15
100
AcDbLine
 10
2705.839337313112
 20
950.7991522229572
 30
0.0
 11
2705.839337313112
 21
949.1543387227034
 31
0.0
  0
LINE
  5
E57
330
BDF
100
AcDbEntity
  8
0
  6
Continuous
 62
     7
370
    15
100
AcDbLine
 10
2701.831188993455
 20
936.5614005377324
 30
0.0
 11
2699.995821897027
 21
937.6209354096667
 31
0.0
  0
LINE
  5
E58
330
BDF
100
AcDbEntity
  8
0
  6
Continuous
 62
     7
370
    15
100
AcDbLine
 10
2699.75623872833
 20
939.0516540285331
 30
0.0
 11
2699.995821897027
 21
937.6209354096667
 31
0.0
  0
LINE
  5
E59
330
BDF
100
AcDbEntity
  8
0
  6
Continuous
 62
     7
370
    15
100
AcDbLine
 10
2710.7183741033
 20
949.5216759280022
 30
0.0
 11
2711.21334885013
 21
949.8074652121621
 31
0.0
  0
LINE
  5
E5A
330
BDF
100
AcDbEntity
  8
0
  6
Continuous
 62
     7
370
    15
100
AcDbLine
 10
2710.7183741033
 20
949.5216759280022
 30
0.0
 11
2707.960657656672
 21
947.9296801099478
 31
0.0
  0
LINE
  5
E5B
330
BDF
100
AcDbEntity
  8
0
  6
Continuous
 62
     7
370
    15
100
AcDbLine
 10
2707.960657656672
 20
947.9297265549698
 30
0.0
 11
2707.960657656672
 21
947.9296801099478
 31
0.0
  0
LINE
  5
E5C
330
BDF
100
AcDbEntity
  8
0
  6
Continuous
 62
     7
370
    15
100
AcDbLine
 10
2706.334312059943
 20
948.8685494385441
 30
0.0
 11
2705.839337313112
 21
949.1543387227038
 31
0.0
  0
LINE
  5
E5D
330
BDF
100
AcDbEntity
  8
0
  6
Continuous
 62
     7
370
    15
100
AcDbLine
 10
2707.960657656672
 20
947.9296801099478
 30
0.0
 11
2706.334312059943
 21
948.8685494385439
 31
0.0
  0
LINE
  5
E5E
330
BDF
100
AcDbEntity
  8
0
  6
Continuous
 62
     7
370
    15
100
AcDbLine
 10
2706.721240523018
 20
947.7877528238479
 30
0.0
 11
2706.793931467717
 21
947.7457892346965
 31
0.0
  0
ARC
  5
E5F
330
BDF
100
AcDbEntity
  8
0
  6
Continuous
 62
     7
370
    15
100
AcDbCircle
 10
2706.862939571158
 20
947.8303916244644
 30
0.0
 40
0.1091772993569888
100
AcDbArc
 50
230.7967147639915
 51
9.214036990766906
  0
LINE
  5
E60
330
BDF
100
AcDbEntity
  8
0
  6
Continuous
 62
     7
370
    15
100
AcDbLine
 10
2706.970708163014
 20
947.8478734236901
 30
0.0
 11
2706.970708163012
 21
948.5011657882232
 31
0.0
  0
LINE
  5
E61
330
BDF
100
AcDbEntity
  8
0
  6
Continuous
 62
     7
370
    15
100
AcDbLine
 10
2707.95358658886
 20
947.9337621505068
 30
0.0
 11
2707.95358658886
 21
947.2804697859714
 31
0.0
  0
ARC
  5
E62
330
BDF
100
AcDbEntity
  8
0
  6
Continuous
 62
     7
370
    15
100
AcDbCircle
 10
2708.337390614202
 20
947.2979349990366
 30
0.0
 40
0.3842012018929539
100
AcDbArc
 50
182.6054784856433
 51
237.3945216599699
  0
LINE
  5
E63
330
BDF
100
AcDbEntity
  8
0
  6
Continuous
 62
     7
370
    15
100
AcDbLine
 10
2708.130363284157
 20
946.9742835690222
 30
0.0
 11
2708.203054228853
 21
946.9323199798692
 31
0.0
  0
ARC
  5
E64
330
BDF
100
AcDbEntity
  8
0
  6
Continuous
 62
     7
370
    15
100
AcDbCircle
 10
2707.996026898808
 20
946.6086685498545
 30
0.0
 40
0.384201201893238
100
AcDbArc
 50
2.605478485662874
 51
57.39452165996985
  0
LINE
  5
E65
330
BDF
100
AcDbEntity
  8
0
  6
Continuous
 62
     7
370
    15
100
AcDbLine
 10
2708.37983092415
 20
946.6261337629198
 30
0.0
 11
2708.37983092415
 21
941.9108780933481
 31
0.0
  0
LINE
  5
E66
330
BDF
100
AcDbEntity
  8
0
  6
Continuous
 62
     7
370
    15
100
AcDbLine
 10
2708.37983092415
 20
941.9108780933481
 30
0.0
 11
2706.544463827721
 21
942.9704129652821
 31
0.0
  0
LINE
  5
E67
330
BDF
100
AcDbEntity
  8
0
  6
Continuous
 62
     7
370
    15
100
AcDbLine
 10
2706.54446382772
 20
947.6856686348543
 30
0.0
 11
2706.544463827721
 21
942.9704129652821
 31
0.0
  0
ARC
  5
E68
330
BDF
100
AcDbEntity
  8
0
  6
Continuous
 62
     7
370
    15
100
AcDbCircle
 10
2706.652232419578
 20
947.7031504340795
 30
0.0
 40
0.1091772993572253
100
AcDbArc
 50
50.79671476430084
 51
189.2140369904178
  0
ARC
  5
E69
330
BDF
100
AcDbEntity
  8
0
  6
Continuous
 62
     7
370
    15
100
AcDbCircle
 10
2700.296823150141
 20
937.6497010618921
 30
0.0
 40
0.3023726461243243
100
AcDbArc
 50
185.4589815371037
 51
237.2630757801018
  0
LINE
  5
E6A
330
BDF
100
AcDbEntity
  8
0
  6
Continuous
 62
     7
370
    15
100
AcDbLine
 10
2710.074906932419
 20
948.5050819537056
 30
0.0
 11
2710.074906932419
 21
949.1502102371228
 31
0.0
  0
LINE
  5
E6B
330
BDF
100
AcDbEntity
  8
0
  6
Continuous
 62
     7
370
    15
100
AcDbLine
 10
2707.95358658886
 20
947.2804697859714
 30
0.0
 11
2710.074906932419
 21
948.5050819537056
 31
0.0
  0
LINE
  5
E6C
330
BDF
100
AcDbEntity
  8
0
  6
Continuous
 62
     7
370
    15
100
AcDbLine
 10
2708.37983092415
 20
946.6261337629198
 30
0.0
 11
2710.50115126771
 21
947.8507459306538
 31
0.0
  0
LINE
  5
E6D
330
BDF
100
AcDbEntity
  8
0
  6
Continuous
 62
     7
370
    15
100
AcDbLine
 10
2710.324374572413
 20
948.1569321476031
 30
0.0
 11
2708.203054228853
 21
946.9323199798692
 31
0.0
  0
ARC
  5
E6E
330
BDF
100
AcDbEntity
  8
0
  6
Continuous
 62
     7
370
    15
100
AcDbCircle
 10
2710.117347242367
 20
947.8332807175886
 30
0.0
 40
0.3842012018932819
100
AcDbArc
 50
2.605478485669381
 51
57.39452165994087
  0
ARC
  5
E6F
330
BDF
100
AcDbEntity
  8
0
  6
Continuous
 62
     7
370
    15
100
AcDbCircle
 10
2710.458710957761
 20
948.5225471667707
 30
0.0
 40
0.3842012018928416
100
AcDbArc
 50
182.6054784856498
 51
237.3945216599988
  0
LINE
  5
E70
330
BDF
100
AcDbEntity
  8
0
  6
Continuous
 62
     7
370
    15
100
AcDbLine
 10
2710.251683627716
 20
948.1988957367562
 30
0.0
 11
2708.130363284157
 21
946.9742835690222
 31
0.0
  0
LINE
  5
E71
330
BDF
100
AcDbEntity
  8
0
  6
Continuous
 62
     7
370
    15
100
AcDbLine
 10
2710.50115126771
 20
943.1354902610808
 30
0.0
 11
2710.50115126771
 21
947.8507459306538
 31
0.0
  0
LINE
  5
E72
330
BDF
100
AcDbEntity
  8
0
  6
Continuous
 62
     7
370
    15
100
AcDbLine
 10
2710.261568099013
 20
941.4281548035933
 30
0.0
 11
2710.50115126771
 21
943.1354902610808
 31
0.0
  0
ARC
  5
E73
330
BDF
100
AcDbEntity
  8
0
  6
Continuous
 62
     7
370
    15
100
AcDbCircle
 10
2709.17933711707
 20
941.5935737496042
 30
0.0
 40
1.094800130606984
100
AcDbArc
 50
302.9067666138474
 51
351.3096048990302
  0
LINE
  5
E74
330
BDF
100
AcDbEntity
  8
0
  6
Continuous
 62
     7
370
    15
100
AcDbLine
 10
2709.10686906107
 20
940.2892362462944
 30
0.0
 11
2709.774113130789
 21
940.674428048705
 31
0.0
  0
LWPOLYLINE
  5
E75
330
BDF
100
AcDbEntity
  8
0
  6
Continuous
 62
     7
370
    15
100
AcDbPolyline
 90
        9
 70
   128
 43
0.0
 10
2709.10686906107
 20
940.2892362462944
 10
2709.020917598292
 20
940.2483010857796
 10
2708.937577727216
 20
940.2259768449685
 10
2708.859381687655
 20
940.2229418346216
 10
2708.788705426699
 20
940.2392882719924
 10
2708.727696406776
 20
940.2745194788533
 10
2708.678208356083
 20
940.3275649728115
 10
2708.641744943998
 20
940.3968129933755
 10
2708.619414092846
 20
940.4801594744816
  0
LINE
  5
E76
330
BDF
100
AcDbEntity
  8
0
  6
Continuous
 62
     7
370
    15
100
AcDbLine
 10
2708.37983092415
 20
941.9108780933481
 30
0.0
 11
2708.619414092846
 21
940.4801594744816
 31
0.0
  0
LINE
  5
E77
330
BDF
100
AcDbEntity
  8
0
  6
Continuous
 62
     7
370
    15
100
AcDbLine
 10
2710.324374572413
 20
948.1569321476031
 30
0.0
 11
2710.251683627716
 21
948.1988957367562
 31
0.0
  0
LINE
  5
E78
330
BDF
100
AcDbEntity
  8
0
  6
Continuous
 62
     7
370
    15
100
AcDbLine
 10
2708.619414092846
 20
940.4801594744816
 30
0.0
 11
2706.784046996418
 21
941.5396943464157
 31
0.0
  0
LINE
  5
E79
330
BDF
100
AcDbEntity
  8
0
  6
Continuous
 62
     7
370
    15
100
AcDbLine
 10
2706.544463827721
 20
942.9704129652821
 30
0.0
 11
2706.784046996418
 21
941.5396943464157
 31
0.0
  0
ARC
  5
E7A
330
BDF
100
AcDbEntity
  8
0
  6
Continuous
 62
     7
370
    15
100
AcDbCircle
 10
2707.085048249532
 20
941.5684599986411
 30
0.0
 40
0.3023726461243604
100
AcDbArc
 50
185.4589815371231
 51
237.2630757801053
  0
LINE
  5
E7B
330
BDF
100
AcDbEntity
  8
0
  6
Continuous
 62
     8
370
    15
100
AcDbLine
 10
2645.699905573199
 20
912.4769588039553
 30
0.0
 11
2645.876682266164
 21
912.5790098165872
 31
0.0
  0
LINE
  5
E7C
330
BDF
100
AcDbEntity
  8
0
  6
Continuous
 62
     8
370
    15
100
AcDbLine
 10
2645.627214628499
 20
912.5189223931068
 30
0.0
 11
2645.876682268495
 21
912.6629369962396
 31
0.0
  0
LINE
  5
E7D
330
BDF
100
AcDbEntity
  8
0
  6
Continuous
 62
     8
370
    15
100
AcDbLine
 10
2652.48813067259
 20
916.3957177407045
 30
0.0
 11
2652.664907365555
 21
916.4977687533363
 31
0.0
  0
LINE
  5
E7E
330
BDF
100
AcDbEntity
  8
0
  6
Continuous
 62
     8
370
    15
100
AcDbLine
 10
2652.41543972789
 20
916.4376813298558
 30
0.0
 11
2652.664907367886
 21
916.5816959329886
 31
0.0
  0
LINE
  5
E7F
330
BDF
100
AcDbEntity
  8
0
  6
Continuous
 62
     8
370
    15
100
AcDbLine
 10
2659.276355771981
 20
920.3144766774535
 30
0.0
 11
2659.453132464946
 21
920.4165276900853
 31
0.0
  0
LINE
  5
E80
330
BDF
100
AcDbEntity
  8
0
  6
Continuous
 62
     8
370
    15
100
AcDbLine
 10
2659.203664827281
 20
920.3564402666048
 30
0.0
 11
2659.453132467277
 21
920.5004548697374
 31
0.0
  0
LINE
  5
E81
330
BDF
100
AcDbEntity
  8
0
  6
Continuous
 62
     8
370
    15
100
AcDbLine
 10
2666.064580871372
 20
924.2332356142025
 30
0.0
 11
2666.241357564337
 21
924.3352866268343
 31
0.0
  0
LINE
  5
E82
330
BDF
100
AcDbEntity
  8
0
  6
Continuous
 62
     8
370
    15
100
AcDbLine
 10
2665.991889926672
 20
924.2751992033538
 30
0.0
 11
2666.241357566668
 21
924.4192138064866
 31
0.0
  0
LINE
  5
E83
330
BDF
100
AcDbEntity
  8
0
  6
Continuous
 62
     8
370
    15
100
AcDbLine
 10
2672.852805970763
 20
928.1519945509515
 30
0.0
 11
2673.029582663728
 21
928.2540455635833
 31
0.0
  0
LINE
  5
E84
330
BDF
100
AcDbEntity
  8
0
  6
Continuous
 62
     8
370
    15
100
AcDbLine
 10
2672.780115026063
 20
928.1939581401029
 30
0.0
 11
2673.029582666059
 21
928.3379727432356
 31
0.0
  0
LINE
  5
E85
330
BDF
100
AcDbEntity
  8
0
  6
Continuous
 62
     8
370
    15
100
AcDbLine
 10
2679.641031070153
 20
932.0707534877005
 30
0.0
 11
2679.817807763118
 21
932.1728045003323
 31
0.0
  0
LINE
  5
E86
330
BDF
100
AcDbEntity
  8
0
  6
Continuous
 62
     8
370
    15
100
AcDbLine
 10
2679.568340125454
 20
932.1127170768518
 30
0.0
 11
2679.81780776545
 21
932.2567316799846
 31
0.0
  0
LINE
  5
E87
330
BDF
100
AcDbEntity
  8
0
  6
Continuous
 62
     8
370
    15
100
AcDbLine
 10
2686.429256169545
 20
935.9895124244495
 30
0.0
 11
2686.606032862509
 21
936.0915634370812
 31
0.0
  0
LINE
  5
E88
330
BDF
100
AcDbEntity
  8
0
  6
Continuous
 62
     8
370
    15
100
AcDbLine
 10
2686.356565224845
 20
936.0314760136009
 30
0.0
 11
2686.606032864841
 21
936.1754906167336
 31
0.0
  0
LINE
  5
E89
330
BDF
100
AcDbEntity
  8
0
  6
Continuous
 62
     8
370
    15
100
AcDbLine
 10
2693.217481268935
 20
939.9082713611985
 30
0.0
 11
2693.3942579619
 21
940.0103223738303
 31
0.0
  0
LINE
  5
E8A
330
BDF
100
AcDbEntity
  8
0
  6
Continuous
 62
     8
370
    15
100
AcDbLine
 10
2693.144790324236
 20
939.9502349503499
 30
0.0
 11
2693.394257964232
 21
940.0942495534826
 31
0.0
  0
LINE
  5
E8B
330
BDF
100
AcDbEntity
  8
0
  6
Continuous
 62
     8
370
    15
100
AcDbLine
 10
2700.005706368326
 20
943.8270302979475
 30
0.0
 11
2700.182483061291
 21
943.9290813105793
 31
0.0
  0
LINE
  5
E8C
330
BDF
100
AcDbEntity
  8
0
  6
Continuous
 62
     8
370
    15
100
AcDbLine
 10
2699.933015423626
 20
943.8689938870989
 30
0.0
 11
2700.182483063623
 21
944.0130084902316
 31
0.0
  0
LINE
  5
E8D
330
BDF
100
AcDbEntity
  8
0
  6
Continuous
 62
     8
370
    15
100
AcDbLine
 10
2706.793931467717
 20
947.7457892346965
 30
0.0
 11
2706.970708160682
 21
947.8478402473283
 31
0.0
  0
LINE
  5
E8E
330
BDF
100
AcDbEntity
  8
0
  6
Continuous
 62
     8
370
    15
100
AcDbLine
 10
2706.721240523018
 20
947.7877528238479
 30
0.0
 11
2706.970708163013
 21
947.9317674269806
 31
0.0
  0
ENDBLK
  5
BE1
330
BDF
100
AcDbEntity
  8
0
100
AcDbBlockEnd
  0
ENDSEC
  0
SECTION
  2
ENTITIES
  0
INSERT
  5
BA3
330
1F
100
AcDbEntity
  8
0
100
AcDbBlockReference
  2
1
 10
0.0
 20
0.0
 30
0.0
  0
INSERT
  5
BD6
330
1F
100
AcDbEntity
  8
0
100
AcDbBlockReference
  2
2
 10
0.0
 20
0.0
 30
0.0
  0
INSERT
  5
BDE
330
1F
100
AcDbEntity
  8
0
100
AcDbBlockReference
  2
3
 10
0.0
 20
0.0
 30
0.0
  0
INSERT
  5
E8F
330
1F
100
AcDbEntity
  8
0
100
AcDbBlockReference
  2
4
 10
0.0
 20
0.0
 30
0.0
  0
ENDSEC
  0
SECTION
  2
OBJECTS
  0
DICTIONARY
  5
C
330
0
100
AcDbDictionary
281
     1
  3
ACAD_COLOR
350
6B
  3
ACAD_GROUP
350
D
  3
ACAD_LAYOUT
350
1A
  3
ACAD_MATERIAL
350
6A
  3
ACAD_MLEADERSTYLE
350
12D
  3
ACAD_MLINESTYLE
350
17
  3
ACAD_PLOTSETTINGS
350
19
  3
ACAD_PLOTSTYLENAME
350
E
  3
ACAD_SCALELIST
350
10C
  3
ACAD_TABLESTYLE
350
7E
  3
ACAD_VISUALSTYLE
350
EF
  3
ACDB_RECOMPOSE_DATA
350
15D
  3
AcDbVariableDictionary
350
5E
  3
DWGPROPS
350
E9D
  0
DICTIONARY
  5
13C
330
10
100
AcDbDictionary
280
     1
281
     1
  3
ADSK_XREC_LAYER_RECONCILED
360
E90
  0
DICTIONARY
  5
6B
102
{ACAD_REACTORS
330
C
102
}
330
C
100
AcDbDictionary
281
     1
  0
DICTIONARY
  5
D
102
{ACAD_REACTORS
330
C
102
}
330
C
100
AcDbDictionary
281
     1
  0
DICTIONARY
  5
1A
102
{ACAD_REACTORS
330
C
102
}
330
C
100
AcDbDictionary
281
     1
  3
Layout1
350
D3
  3
Layout2
350
D7
  3
Model
350
22
  0
DICTIONARY
  5
6A
102
{ACAD_REACTORS
330
C
102
}
330
C
100
AcDbDictionary
281
     1
  3
ByBlock
350
ED
  3
ByLayer
350
EC
  3
Global
350
EE
  0
DICTIONARY
  5
12D
102
{ACAD_REACTORS
330
C
102
}
330
C
100
AcDbDictionary
281
     1
  3
Annotative
350
13B
  3
Standard
350
12E
  0
DICTIONARY
  5
17
102
{ACAD_REACTORS
330
C
102
}
330
C
100
AcDbDictionary
281
     1
  3
Standard
350
18
  0
DICTIONARY
  5
19
102
{ACAD_REACTORS
330
C
102
}
330
C
100
AcDbDictionary
281
     1
  0
ACDBDICTIONARYWDFLT
  5
E
102
{ACAD_REACTORS
330
C
102
}
330
C
100
AcDbDictionary
281
     1
  3
Normal
350
F
100
AcDbDictionaryWithDefault
340
F
  0
DICTIONARY
  5
10C
102
{ACAD_REACTORS
330
C
102
}
330
C
100
AcDbDictionary
281
     1
  3
A0
350
10D
  3
A1
350
188
  3
A2
350
189
  3
A3
350
18A
  3
A4
350
18B
  3
A5
350
18C
  3
A6
350
18D
  3
A7
350
18E
  3
A8
350
18F
  3
A9
350
190
  3
B0
350
191
  3
B1
350
192
  3
B2
350
193
  3
B3
350
194
  3
B4
350
195
  3
B5
350
196
  3
B6
350
197
  3
B7
350
198
  3
B8
350
199
  3
B9
350
19A
  3
C0
350
19B
  3
C1
350
19C
  3
C2
350
19D
  3
C3
350
19E
  3
C4
350
19F
  3
C5
350
1A0
  3
C6
350
1A1
  3
C7
350
1A2
  3
C8
350
1A3
  3
C9
350
1A4
  3
D0
350
1A5
  3
D1
350
1A6
  3
D2
350
1A7
  0
DICTIONARY
  5
7E
102
{ACAD_REACTORS
330
C
102
}
330
C
100
AcDbDictionary
281
     1
  3
Standard
350
7F
  0
DICTIONARY
  5
EF
102
{ACAD_REACTORS
330
C
102
}
330
C
100
AcDbDictionary
281
     1
  3
2dWireframe
350
F5
  3
3D Hidden
350
F7
  3
3dWireframe
350
F6
  3
Basic
350
F4
  3
Brighten
350
FB
  3
ColorChange
350
FF
  3
Conceptual
350
F8
  3
Dim
350
FA
  3
Facepattern
350
FE
  3
Flat
350
F0
  3
FlatWithEdges
350
F1
  3
Gouraud
350
F2
  3
GouraudWithEdges
350
F3
  3
Linepattern
350
FD
  3
Realistic
350
F9
  3
Thicken
350
FC
  0
XRECORD
  5
15D
102
{ACAD_REACTORS
330
C
102
}
330
C
100
AcDbXrecord
280
     1
 90
        1
330
7F
  0
DICTIONARY
  5
5E
102
{ACAD_REACTORS
330
C
102
}
330
C
100
AcDbDictionary
281
     1
  3
CANNOSCALE
350
146
  3
CMLEADERSTYLE
350
145
  3
CTABLESTYLE
350
84
  3
DIMASSOC
350
5F
  3
HIDETEXT
350
63
  3
INDEXCTL
350
E99
  3
LIGHTINGUNITS
350
E97
  3
MSLTSCALE
350
E96
  3
PSOLHEIGHT
350
E9B
  3
PSOLWIDTH
350
E9A
  3
SORTENTS
350
E98
  0
XRECORD
  5
E9D
102
{ACAD_REACTORS
330
C
102
}
330
C
100
AcDbXrecord
280
     1
  1
DWGPROPS COOKIE
  2

  3

  4

  6

  7

  8
orhan kara
  9

300
=
301
=
302
=
303
=
304
=
305
=
306
=
307
=
308
=
309
=
 40
0.0006328819444444
 41
2458933.471351262
 42
2458956.447599838
  1

 90
        0
  0
XRECORD
  5
E90
102
{ACAD_REACTORS
330
13C
102
}
330
13C
100
AcDbXrecord
280
     1
290
     1
  0
LAYOUT
  5
D3
102
{ACAD_XDICTIONARY
360
EA1
102
}
102
{ACAD_REACTORS
330
1A
102
}
330
1A
100
AcDbPlotSettings
  1

  2
C:\Documents and Settings\basas\Application Data\Autodesk\AutoCAD 2005\R16.1\enu\plotters\Default Windows System Printer.pc3
  4

  6

 40
0.0
 41
0.0
 42
0.0
 43
0.0
 44
0.0
 45
0.0
 46
0.0
 47
0.0
 48
0.0
 49
0.0
140
0.0
141
0.0
142
1.0
143
1.0
 70
   688
 72
     0
 73
     0
 74
     5
  7

 75
    16
147
1.0
148
0.0
149
0.0
100
AcDbLayout
  1
Layout1
 70
     1
 71
     1
 10
0.0
 20
0.0
 11
12.0
 21
9.0
 12
0.0
 22
0.0
 32
0.0
 14
0.0
 24
0.0
 34
0.0
 15
0.0
 25
0.0
 35
0.0
146
0.0
 13
0.0
 23
0.0
 33
0.0
 16
1.0
 26
0.0
 36
0.0
 17
0.0
 27
1.0
 37
0.0
 76
     0
330
D2
  0
LAYOUT
  5
D7
102
{ACAD_XDICTIONARY
360
EA3
102
}
102
{ACAD_REACTORS
330
1A
102
}
330
1A
100
AcDbPlotSettings
  1

  2
C:\Documents and Settings\basas\Application Data\Autodesk\AutoCAD 2005\R16.1\enu\plotters\Default Windows System Printer.pc3
  4

  6

 40
0.0
 41
0.0
 42
0.0
 43
0.0
 44
0.0
 45
0.0
 46
0.0
 47
0.0
 48
0.0
 49
0.0
140
0.0
141
0.0
142
1.0
143
1.0
 70
   688
 72
     0
 73
     0
 74
     5
  7

 75
    16
147
1.0
148
0.0
149
0.0
100
AcDbLayout
  1
Layout2
 70
     1
 71
     2
 10
0.0
 20
0.0
 11
12.0
 21
9.0
 12
0.0
 22
0.0
 32
0.0
 14
0.0
 24
0.0
 34
0.0
 15
0.0
 25
0.0
 35
0.0
146
0.0
 13
0.0
 23
0.0
 33
0.0
 16
1.0
 26
0.0
 36
0.0
 17
0.0
 27
1.0
 37
0.0
 76
     0
330
D6
  0
LAYOUT
  5
22
102
{ACAD_XDICTIONARY
360
E9E
102
}
102
{ACAD_REACTORS
330
1A
102
}
330
1A
100
AcDbPlotSettings
  1

  2
none_device
  4
ISO_A4_(210.00_x_297.00_MM)
  6

 40
7.5
 41
20.0
 42
7.5
 43
20.0
 44
210.0
 45
297.0
 46
11.54999923706054
 47
-13.65000009536743
 48
0.0
 49
0.0
140
0.0
141
0.0
142
1.0
143
8.704084754739808
 70
 11952
 72
     1
 73
     0
 74
     0
  7

 75
     0
147
0.1148885871608098
148
0.0
149
0.0
100
AcDbLayout
  1
Model
 70
     1
 71
     0
 10
0.0
 20
0.0
 11
12.0
 21
9.0
 12
0.0
 22
0.0
 32
0.0
 14
0.0
 24
0.0
 34
0.0
 15
0.0
 25
0.0
 35
0.0
146
0.0
 13
0.0
 23
0.0
 33
0.0
 16
1.0
 26
0.0
 36
0.0
 17
0.0
 27
1.0
 37
0.0
 76
     0
330
1F
331
EA
1001
ACAD_PSEXT
1000
None
1000
None
1000
Not applicable
1000
The layout will not be plotted unless a new plotter configuration name is selected.
1070
     0
  0
MATERIAL
  5
ED
102
{ACAD_XDICTIONARY
360
EA7
102
}
102
{ACAD_REACTORS
330
6A
102
}
330
6A
100
AcDbMaterial
  1
ByBlock
  0
MATERIAL
  5
EC
102
{ACAD_XDICTIONARY
360
EA5
102
}
102
{ACAD_REACTORS
330
6A
102
}
330
6A
100
AcDbMaterial
  1
ByLayer
  0
MATERIAL
  5
EE
102
{ACAD_XDICTIONARY
360
173
102
}
102
{ACAD_REACTORS
330
6A
102
}
330
6A
100
AcDbMaterial
  1
Global
 43
0.0007999999797903
 43
0.0
 43
0.0
 43
0.0
 43
0.0
 43
0.0007999999797903
 43
0.0
 43
0.0
 43
0.0
 43
0.0
 43
1.0
 43
0.0
 43
0.0
 43
0.0
 43
0.0
 43
1.0
 49
0.0007999999797903
 49
0.0
 49
0.0
 49
0.0
 49
0.0
 49
0.0007999999797903
 49
0.0
 49
0.0
 49
0.0
 49
0.0
 49
1.0
 49
0.0
 49
0.0
 49
0.0
 49
0.0
 49
1.0
142
0.0007999999797903
142
0.0
142
0.0
142
0.0
142
0.0
142
0.0007999999797903
142
0.0
142
0.0
142
0.0
142
0.0
142
1.0
142
0.0
142
0.0
142
0.0
142
0.0
142
1.0
144
0.0007999999797903
144
0.0
144
0.0
144
0.0
144
0.0
144
0.0007999999797903
144
0.0
144
0.0
144
0.0
144
0.0
144
1.0
144
0.0
144
0.0
144
0.0
144
0.0
144
1.0
1001
ACAD
1070
    -1
1070
     3
1070
     0
1000

1071
        0
1070
     0
  0
MLEADERSTYLE
  5
13B
102
{ACAD_REACTORS
330
12D
102
}
330
12D
100
AcDbMLeaderStyle
170
     2
171
     1
172
     0
 90
        2
 40
0.0
 41
0.0
173
     1
 91
-1056964608
340
14
 92
       -2
290
     1
 42
2.0
291
     1
 43
8.0
  3
Standard
 44
4.0
300

342
11
174
     1
178
     1
175
     1
176
     0
 93
-1056964608
 45
4.0
292
     0
297
     0
 46
4.0
 94
-1056964608
 47
1.0
 49
1.0
140
1.0
293
     1
141
0.0
294
     1
177
     0
142
1.0
295
     0
296
     1
143
3.75
1001
ACAD_MLEADERVER
1070
     2
  0
MLEADERSTYLE
  5
12E
102
{ACAD_REACTORS
330
12D
102
}
330
12D
100
AcDbMLeaderStyle
170
     2
171
     1
172
     0
 90
        2
 40
0.0
 41
0.0
173
     1
 91
-1056964608
340
14
 92
       -2
290
     1
 42
2.0
291
     1
 43
8.0
  3
Standard
 44
4.0
300

342
11
174
     1
178
     1
175
     1
176
     0
 93
-1056964608
 45
4.0
292
     0
297
     0
 46
4.0
 94
-1056964608
 47
1.0
 49
1.0
140
1.0
293
     1
141
0.0
294
     1
177
     0
142
1.0
295
     0
296
     0
143
3.75
1001
ACAD_MLEADERVER
1070
     2
  0
MLINESTYLE
  5
18
102
{ACAD_REACTORS
330
17
102
}
330
17
100
AcDbMlineStyle
  2
STANDARD
 70
     0
  3

 62
   256
 51
90.0
 52
90.0
 71
     2
 49
0.5
 62
   256
  6
BYLAYER
 49
-0.5
 62
   256
  6
BYLAYER
  0
ACDBPLACEHOLDER
  5
F
102
{ACAD_REACTORS
330
E
102
}
330
E
  0
SCALE
  5
10D
102
{ACAD_REACTORS
330
10C
102
}
330
10C
100
AcDbScale
 70
     0
300
1:1
140
1.0
141
1.0
290
     1
  0
SCALE
  5
188
102
{ACAD_REACTORS
330
10C
102
}
330
10C
100
AcDbScale
 70
     0
300
1:2
140
1.0
141
2.0
290
     0
  0
SCALE
  5
189
102
{ACAD_REACTORS
330
10C
102
}
330
10C
100
AcDbScale
 70
     0
300
1:4
140
1.0
141
4.0
290
     0
  0
SCALE
  5
18A
102
{ACAD_REACTORS
330
10C
102
}
330
10C
100
AcDbScale
 70
     0
300
1:5
140
1.0
141
5.0
290
     0
  0
SCALE
  5
18B
102
{ACAD_REACTORS
330
10C
102
}
330
10C
100
AcDbScale
 70
     0
300
1:8
140
1.0
141
8.0
290
     0
  0
SCALE
  5
18C
102
{ACAD_REACTORS
330
10C
102
}
330
10C
100
AcDbScale
 70
     0
300
1:10
140
1.0
141
10.0
290
     0
  0
SCALE
  5
18D
102
{ACAD_REACTORS
330
10C
102
}
330
10C
100
AcDbScale
 70
     0
300
1:16
140
1.0
141
16.0
290
     0
  0
SCALE
  5
18E
102
{ACAD_REACTORS
330
10C
102
}
330
10C
100
AcDbScale
 70
     0
300
1:20
140
1.0
141
20.0
290
     0
  0
SCALE
  5
18F
102
{ACAD_REACTORS
330
10C
102
}
330
10C
100
AcDbScale
 70
     0
300
1:30
140
1.0
141
30.0
290
     0
  0
SCALE
  5
190
102
{ACAD_REACTORS
330
10C
102
}
330
10C
100
AcDbScale
 70
     0
300
1:40
140
1.0
141
40.0
290
     0
  0
SCALE
  5
191
102
{ACAD_REACTORS
330
10C
102
}
330
10C
100
AcDbScale
 70
     0
300
1:50
140
1.0
141
50.0
290
     0
  0
SCALE
  5
192
102
{ACAD_REACTORS
330
10C
102
}
330
10C
100
AcDbScale
 70
     0
300
1:100
140
1.0
141
100.0
290
     0
  0
SCALE
  5
193
102
{ACAD_REACTORS
330
10C
102
}
330
10C
100
AcDbScale
 70
     0
300
2:1
140
2.0
141
1.0
290
     0
  0
SCALE
  5
194
102
{ACAD_REACTORS
330
10C
102
}
330
10C
100
AcDbScale
 70
     0
300
4:1
140
4.0
141
1.0
290
     0
  0
SCALE
  5
195
102
{ACAD_REACTORS
330
10C
102
}
330
10C
100
AcDbScale
 70
     0
300
8:1
140
8.0
141
1.0
290
     0
  0
SCALE
  5
196
102
{ACAD_REACTORS
330
10C
102
}
330
10C
100
AcDbScale
 70
     0
300
10:1
140
10.0
141
1.0
290
     0
  0
SCALE
  5
197
102
{ACAD_REACTORS
330
10C
102
}
330
10C
100
AcDbScale
 70
     0
300
100:1
140
100.0
141
1.0
290
     0
  0
SCALE
  5
198
102
{ACAD_REACTORS
330
10C
102
}
330
10C
100
AcDbScale
 70
     0
300
1/128" = 1'-0"
140
0.0078125
141
12.0
290
     0
  0
SCALE
  5
199
102
{ACAD_REACTORS
330
10C
102
}
330
10C
100
AcDbScale
 70
     0
300
1/64" = 1'-0"
140
0.015625
141
12.0
290
     0
  0
SCALE
  5
19A
102
{ACAD_REACTORS
330
10C
102
}
330
10C
100
AcDbScale
 70
     0
300
1/32" = 1'-0"
140
0.03125
141
12.0
290
     0
  0
SCALE
  5
19B
102
{ACAD_REACTORS
330
10C
102
}
330
10C
100
AcDbScale
 70
     0
300
1/16" = 1'-0"
140
0.0625
141
12.0
290
     0
  0
SCALE
  5
19C
102
{ACAD_REACTORS
330
10C
102
}
330
10C
100
AcDbScale
 70
     0
300
3/32" = 1'-0"
140
0.09375
141
12.0
290
     0
  0
SCALE
  5
19D
102
{ACAD_REACTORS
330
10C
102
}
330
10C
100
AcDbScale
 70
     0
300
1/8" = 1'-0"
140
0.125
141
12.0
290
     0
  0
SCALE
  5
19E
102
{ACAD_REACTORS
330
10C
102
}
330
10C
100
AcDbScale
 70
     0
300
3/16" = 1'-0"
140
0.1875
141
12.0
290
     0
  0
SCALE
  5
19F
102
{ACAD_REACTORS
330
10C
102
}
330
10C
100
AcDbScale
 70
     0
300
1/4" = 1'-0"
140
0.25
141
12.0
290
     0
  0
SCALE
  5
1A0
102
{ACAD_REACTORS
330
10C
102
}
330
10C
100
AcDbScale
 70
     0
300
3/8" = 1'-0"
140
0.375
141
12.0
290
     0
  0
SCALE
  5
1A1
102
{ACAD_REACTORS
330
10C
102
}
330
10C
100
AcDbScale
 70
     0
300
1/2" = 1'-0"
140
0.5
141
12.0
290
     0
  0
SCALE
  5
1A2
102
{ACAD_REACTORS
330
10C
102
}
330
10C
100
AcDbScale
 70
     0
300
3/4" = 1'-0"
140
0.75
141
12.0
290
     0
  0
SCALE
  5
1A3
102
{ACAD_REACTORS
330
10C
102
}
330
10C
100
AcDbScale
 70
     0
300
1" = 1'-0"
140
1.0
141
12.0
290
     0
  0
SCALE
  5
1A4
102
{ACAD_REACTORS
330
10C
102
}
330
10C
100
AcDbScale
 70
     0
300
1-1/2" = 1'-0"
140
1.5
141
12.0
290
     0
  0
SCALE
  5
1A5
102
{ACAD_REACTORS
330
10C
102
}
330
10C
100
AcDbScale
 70
     0
300
3" = 1'-0"
140
3.0
141
12.0
290
     0
  0
SCALE
  5
1A6
102
{ACAD_REACTORS
330
10C
102
}
330
10C
100
AcDbScale
 70
     0
300
6" = 1'-0"
140
6.0
141
12.0
290
     0
  0
SCALE
  5
1A7
102
{ACAD_REACTORS
330
10C
102
}
330
10C
100
AcDbScale
 70
     0
300
1'-0" = 1'-0"
140
12.0
141
12.0
290
     0
  0
TABLESTYLE
  5
7F
102
{ACAD_XDICTIONARY
360
162
102
}
102
{ACAD_REACTORS
330
7E
102
}
330
7E
100
AcDbTableStyle
  3
Standard
 70
     0
 71
     0
 40
1.5
 41
1.5
280
     0
281
     0
  7
Standard
140
4.5
170
     2
 62
     0
 63
     7
283
     0
274
    -2
284
     1
 64
     0
275
    -2
285
     1
 65
     0
276
    -2
286
     1
 66
     0
277
    -2
287
     1
 67
     0
278
    -2
288
     1
 68
     0
279
    -2
289
     1
 69
     0
  7
Standard
140
6.0
170
     5
 62
     0
 63
     7
283
     0
274
    -2
284
     1
 64
     0
275
    -2
285
     1
 65
     0
276
    -2
286
     1
 66
     0
277
    -2
287
     1
 67
     0
278
    -2
288
     1
 68
     0
279
    -2
289
     1
 69
     0
  7
Standard
140
4.5
170
     5
 62
     0
 63
     7
283
     0
274
    -2
284
     1
 64
     0
275
    -2
285
     1
 65
     0
276
    -2
286
     1
 66
     0
277
    -2
287
     1
 67
     0
278
    -2
288
     1
 68
     0
279
    -2
289
     1
 69
     0
  0
VISUALSTYLE
  5
F5
102
{ACAD_REACTORS
330
EF
102
}
330
EF
100
AcDbVisualStyle
  2
2dWireframe
 70
     4
 71
     0
 72
     2
 73
     1
 90
        0
 40
-0.6
 41
-30.0
 62
     5
 63
     7
 74
     1
 91
        4
 64
     7
 65
   257
 75
     1
175
     1
 42
1.0
 92
        0
 66
   257
 43
1.0
 76
     1
 77
     6
 78
     2
 67
     7
 79
     5
170
     0
171
     0
290
     0
174
     0
 93
        1
 44
0.0
173
     0
291
     0
 45
0.0
1001
ACAD
1000
AcDbSavedByObjectVersion
1070
     0
  0
VISUALSTYLE
  5
F7
102
{ACAD_REACTORS
330
EF
102
}
330
EF
100
AcDbVisualStyle
  2
3D Hidden
 70
     6
 71
     1
 72
     2
 73
     2
 90
        0
 40
-0.6
 41
-30.0
 62
     5
 63
     7
 74
     2
 91
        2
 64
     7
 65
   257
 75
     2
175
     1
 42
40.0
 92
        0
 66
   257
 43
1.0
 76
     1
 77
     6
 78
     2
 67
     7
 79
     3
170
     0
171
     0
290
     0
174
     0
 93
        1
 44
0.0
173
     0
291
     0
 45
0.0
1001
ACAD
1000
AcDbSavedByObjectVersion
1070
     0
  0
VISUALSTYLE
  5
F6
102
{ACAD_REACTORS
330
EF
102
}
330
EF
100
AcDbVisualStyle
  2
3dWireframe
 70
     5
 71
     0
 72
     2
 73
     1
 90
        0
 40
-0.6
 41
-30.0
 62
     5
 63
     7
 74
     1
 91
        4
 64
     7
 65
   257
 75
     1
175
     1
 42
1.0
 92
        0
 66
   257
 43
1.0
 76
     1
 77
     6
 78
     2
 67
     7
 79
     5
170
     0
171
     0
290
     0
174
     0
 93
        1
 44
0.0
173
     0
291
     0
 45
0.0
1001
ACAD
1000
AcDbSavedByObjectVersion
1070
     0
  0
VISUALSTYLE
  5
F4
102
{ACAD_REACTORS
330
EF
102
}
330
EF
100
AcDbVisualStyle
  2
Basic
 70
     7
 71
     1
 72
     0
 73
     1
 90
        0
 40
-0.6
 41
-30.0
 62
     5
 63
     7
 74
     0
 91
        4
 64
     7
 65
   257
 75
     1
175
     1
 42
1.0
 92
        8
 66
     7
 43
1.0
 76
     1
 77
     6
 78
     2
 67
     7
 79
     5
170
     0
171
     0
290
     0
174
     0
 93
        1
 44
0.0
173
     0
291
     1
 45
0.0
1001
ACAD
1000
AcDbSavedByObjectVersion
1070
     0
  0
VISUALSTYLE
  5
FB
102
{ACAD_REACTORS
330
EF
102
}
330
EF
100
AcDbVisualStyle
  2
Brighten
 70
    12
 71
     2
 72
     2
 73
     1
 90
        0
 40
-0.6
 41
-30.0
 62
     5
 63
     7
 74
     1
 91
        4
 64
     7
 65
   257
 75
     1
175
     1
 42
1.0
 92
        8
 66
     7
 43
1.0
 76
     1
 77
     6
 78
     2
 67
     7
 79
     5
170
     0
171
     0
290
     0
174
     0
 93
        1
 44
50.0
173
     0
291
     1
 45
0.0
1001
ACAD
1000
AcDbSavedByObjectVersion
1070
     0
  0
VISUALSTYLE
  5
FF
102
{ACAD_REACTORS
330
EF
102
}
330
EF
100
AcDbVisualStyle
  2
ColorChange
 70
    16
 71
     2
 72
     2
 73
     3
 90
        0
 40
-0.6
 41
-30.0
 62
     5
 63
     8
 74
     1
 91
        4
 64
     7
 65
   257
 75
     1
175
     1
 42
1.0
 92
        8
 66
     8
 43
1.0
 76
     1
 77
     6
 78
     2
 67
     7
 79
     5
170
     0
171
     0
290
     0
174
     0
 93
        1
 44
0.0
173
     0
291
     1
 45
0.0
1001
ACAD
1000
AcDbSavedByObjectVersion
1070
     0
  0
VISUALSTYLE
  5
F8
102
{ACAD_REACTORS
330
EF
102
}
330
EF
100
AcDbVisualStyle
  2
Conceptual
 70
     9
 71
     3
 72
     2
 73
     1
 90
        0
 40
-0.6
 41
-30.0
 62
     5
 63
     7
 74
     2
 91
        2
 64
     7
 65
   257
 75
     1
175
     1
 42
40.0
 92
        8
 66
     7
 43
1.0
 76
     1
 77
     6
 78
     2
 67
     7
 79
     3
170
     0
171
     0
290
     0
174
     0
 93
        1
 44
0.0
173
     0
291
     0
 45
0.0
1001
ACAD
1000
AcDbSavedByObjectVersion
1070
     0
  0
VISUALSTYLE
  5
FA
102
{ACAD_REACTORS
330
EF
102
}
330
EF
100
AcDbVisualStyle
  2
Dim
 70
    11
 71
     2
 72
     2
 73
     1
 90
        0
 40
-0.6
 41
-30.0
 62
     5
 63
     7
 74
     1
 91
        4
 64
     7
 65
   257
 75
     1
175
     1
 42
1.0
 92
        8
 66
     7
 43
1.0
 76
     1
 77
     6
 78
     2
 67
     7
 79
     5
170
     0
171
     0
290
     0
174
     0
 93
        1
 44
-50.0
173
     0
291
     1
 45
0.0
1001
ACAD
1000
AcDbSavedByObjectVersion
1070
     0
  0
VISUALSTYLE
  5
FE
102
{ACAD_REACTORS
330
EF
102
}
330
EF
100
AcDbVisualStyle
  2
Facepattern
 70
    15
 71
     2
 72
     2
 73
     1
 90
        0
 40
-0.6
 41
-30.0
 62
     5
 63
     7
 74
     1
 91
        4
 64
     7
 65
   257
 75
     1
175
     1
 42
1.0
 92
        8
 66
     7
 43
1.0
 76
     1
 77
     6
 78
     2
 67
     7
 79
     5
170
     0
171
     0
290
     0
174
     0
 93
        1
 44
0.0
173
     0
291
     1
 45
0.0
1001
ACAD
1000
AcDbSavedByObjectVersion
1070
     0
  0
VISUALSTYLE
  5
F0
102
{ACAD_REACTORS
330
EF
102
}
330
EF
100
AcDbVisualStyle
  2
Flat
 70
     0
 71
     2
 72
     1
 73
     1
 90
        2
 40
-0.6
 41
30.0
 62
     5
 63
     7
 74
     0
 91
        4
 64
     7
 65
   257
 75
     1
175
     1
 42
1.0
 92
        8
 66
     7
 43
1.0
 76
     1
 77
     6
 78
     2
 67
     7
 79
     5
170
     0
171
     0
290
     0
174
     0
 93
        1
 44
0.0
173
     0
291
     1
 45
0.0
1001
ACAD
1000
AcDbSavedByObjectVersion
1070
     0
  0
VISUALSTYLE
  5
F1
102
{ACAD_REACTORS
330
EF
102
}
330
EF
100
AcDbVisualStyle
  2
FlatWithEdges
 70
     1
 71
     2
 72
     1
 73
     1
 90
        2
 40
-0.6
 41
30.0
 62
     5
 63
     7
 74
     1
 91
        4
 64
     7
 65
   257
 75
     1
175
     1
 42
1.0
 92
        0
 66
   257
 43
1.0
 76
     1
 77
     6
 78
     2
 67
     7
 79
     5
170
     0
171
     0
290
     0
174
     0
 93
        1
 44
0.0
173
     0
291
     1
 45
0.0
1001
ACAD
1000
AcDbSavedByObjectVersion
1070
     0
  0
VISUALSTYLE
  5
F2
102
{ACAD_REACTORS
330
EF
102
}
330
EF
100
AcDbVisualStyle
  2
Gouraud
 70
     2
 71
     2
 72
     2
 73
     1
 90
        2
 40
-0.6
 41
30.0
 62
     5
 63
     7
 74
     0
 91
        4
 64
     7
 65
   257
 75
     1
175
     1
 42
1.0
 92
        0
 66
     7
 43
1.0
 76
     1
 77
     6
 78
     2
 67
     7
 79
     5
170
     0
171
     0
290
     0
174
     0
 93
        1
 44
0.0
173
     0
291
     1
 45
0.0
1001
ACAD
1000
AcDbSavedByObjectVersion
1070
     0
  0
VISUALSTYLE
  5
F3
102
{ACAD_REACTORS
330
EF
102
}
330
EF
100
AcDbVisualStyle
  2
GouraudWithEdges
 70
     3
 71
     2
 72
     2
 73
     1
 90
        2
 40
-0.6
 41
30.0
 62
     5
 63
     7
 74
     1
 91
        4
 64
     7
 65
   257
 75
     1
175
     1
 42
1.0
 92
        0
 66
   257
 43
1.0
 76
     1
 77
     6
 78
     2
 67
     7
 79
     5
170
     0
171
     0
290
     0
174
     0
 93
        1
 44
0.0
173
     0
291
     1
 45
0.0
1001
ACAD
1000
AcDbSavedByObjectVersion
1070
     0
  0
VISUALSTYLE
  5
FD
102
{ACAD_REACTORS
330
EF
102
}
330
EF
100
AcDbVisualStyle
  2
Linepattern
 70
    14
 71
     2
 72
     2
 73
     1
 90
        0
 40
-0.6
 41
-30.0
 62
     5
 63
     7
 74
     1
 91
        4
 64
     7
 65
   257
 75
     7
175
     7
 42
1.0
 92
        8
 66
     7
 43
1.0
 76
     1
 77
     6
 78
     2
 67
     7
 79
     5
170
     0
171
     0
290
     0
174
     0
 93
        1
 44
0.0
173
     0
291
     1
 45
0.0
1001
ACAD
1000
AcDbSavedByObjectVersion
1070
     0
  0
VISUALSTYLE
  5
F9
102
{ACAD_REACTORS
330
EF
102
}
330
EF
100
AcDbVisualStyle
  2
Realistic
 70
     8
 71
     2
 72
     2
 73
     1
 90
        0
 40
-0.6
 41
-30.0
 62
     5
 63
     7
 74
     1
 91
        0
 64
     7
 65
   257
 75
     1
175
     1
 42
1.0
 92
        8
 66
     8
 43
1.0
 76
     1
 77
     6
 78
     2
 67
     7
 79
     5
170
     0
171
     0
290
     0
174
     0
 93
       13
 44
0.0
173
     0
291
     0
 45
0.0
1001
ACAD
1000
AcDbSavedByObjectVersion
1070
     0
  0
VISUALSTYLE
  5
FC
102
{ACAD_REACTORS
330
EF
102
}
330
EF
100
AcDbVisualStyle
  2
Thicken
 70
    13
 71
     2
 72
     2
 73
     1
 90
        0
 40
-0.6
 41
-30.0
 62
     5
 63
     7
 74
     1
 91
        4
 64
     7
 65
   257
 75
     1
175
     1
 42
1.0
 92
       12
 66
     7
 43
1.0
 76
     1
 77
     6
 78
     2
 67
     7
 79
     5
170
     0
171
     0
290
     0
174
     0
 93
        1
 44
0.0
173
     0
291
     1
 45
0.0
1001
ACAD
1000
AcDbSavedByObjectVersion
1070
     0
  0
DICTIONARYVAR
  5
146
102
{ACAD_REACTORS
330
5E
102
}
330
5E
100
DictionaryVariables
280
     0
  1
1:1
  0
DICTIONARYVAR
  5
145
102
{ACAD_REACTORS
330
5E
102
}
330
5E
100
DictionaryVariables
280
     0
  1
STANDARD
  0
DICTIONARYVAR
  5
84
102
{ACAD_REACTORS
330
5E
102
}
330
5E
100
DictionaryVariables
280
     0
  1
STANDARD
  0
DICTIONARYVAR
  5
5F
102
{ACAD_REACTORS
330
5E
102
}
330
5E
100
DictionaryVariables
280
     0
  1
2
  0
DICTIONARYVAR
  5
63
102
{ACAD_REACTORS
330
5E
102
}
330
5E
100
DictionaryVariables
280
     0
  1
1
  0
DICTIONARYVAR
  5
E99
102
{ACAD_REACTORS
330
5E
102
}
330
5E
100
DictionaryVariables
280
     0
  1
0
  0
DICTIONARYVAR
  5
E97
102
{ACAD_REACTORS
330
5E
102
}
330
5E
100
DictionaryVariables
280
     0
  1
2
  0
DICTIONARYVAR
  5
E96
102
{ACAD_REACTORS
330
5E
102
}
330
5E
100
DictionaryVariables
280
     0
  1
1
  0
DICTIONARYVAR
  5
E9B
102
{ACAD_REACTORS
330
5E
102
}
330
5E
100
DictionaryVariables
280
     0
  1
80.000000
  0
DICTIONARYVAR
  5
E9A
102
{ACAD_REACTORS
330
5E
102
}
330
5E
100
DictionaryVariables
280
     0
  1
5.000000
  0
DICTIONARYVAR
  5
E98
102
{ACAD_REACTORS
330
5E
102
}
330
5E
100
DictionaryVariables
280
     0
  1
127
  0
DICTIONARY
  5
EA1
330
D3
100
AcDbDictionary
280
     1
281
     1
  3
ACAD_XREC_ROUNDTRIP
360
EA2
  0
DICTIONARY
  5
EA3
330
D7
100
AcDbDictionary
280
     1
281
     1
  3
ACAD_XREC_ROUNDTRIP
360
EA4
  0
DICTIONARY
  5
E9E
330
22
100
AcDbDictionary
280
     1
281
     1
  3
ACAD_XREC_ROUNDTRIP
360
E9F
  0
DICTIONARY
  5
EA7
330
ED
100
AcDbDictionary
280
     1
281
     1
  3
ACAD_XREC_ROUNDTRIP
360
EA8
  0
DICTIONARY
  5
EA5
330
EC
100
AcDbDictionary
280
     1
281
     1
  3
ACAD_XREC_ROUNDTRIP
360
EA6
  0
DICTIONARY
  5
173
330
EE
100
AcDbDictionary
280
     1
281
     1
  3
ACAD_XREC_ROUNDTRIP
360
EA9
  3
BUMPTILE
360
175
  3
DIFFUSETILE
360
174
  3
OPACITYTILE
360
176
  3
REFLECTIONTILE
360
177
  0
DICTIONARY
  5
162
330
7F
100
AcDbDictionary
280
     1
281
     1
  3
ACAD_ROUNDTRIP_2008_TABLESTYLE_CELLSTYLEMAP
360
E9C
  3
ACAD_XREC_ROUNDTRIP
360
EA0
  0
XRECORD
  5
EA2
102
{ACAD_REACTORS
330
EA1
102
}
330
EA1
100
AcDbXrecord
280
     1
102
SHADEPLOT
 70
     0
102
SHADEPLOTRESLEVEL
 70
     2
102
SHADEPLOTCUSTOMDPI
 70
   300
  0
XRECORD
  5
EA4
102
{ACAD_REACTORS
330
EA3
102
}
330
EA3
100
AcDbXrecord
280
     1
102
SHADEPLOT
 70
     0
102
SHADEPLOTRESLEVEL
 70
     2
102
SHADEPLOTCUSTOMDPI
 70
   300
  0
XRECORD
  5
E9F
102
{ACAD_REACTORS
330
E9E
102
}
330
E9E
100
AcDbXrecord
280
     1
102
SHADEPLOT
 70
     0
102
SHADEPLOTRESLEVEL
 70
     2
102
SHADEPLOTCUSTOMDPI
 70
   300
  0
XRECORD
  5
EA8
102
{ACAD_REACTORS
330
EA7
102
}
330
EA7
100
AcDbXrecord
280
     1
102
MATERIAL
148
0.0
149
0.0
149
0.0
 93
        0
 94
       63
282
     0
 72
     1
 77
     1
171
     1
175
     1
179
     1
273
     0
  0
XRECORD
  5
EA6
102
{ACAD_REACTORS
330
EA5
102
}
330
EA5
100
AcDbXrecord
280
     1
102
MATERIAL
148
0.0
149
0.0
149
0.0
 93
        0
 94
       63
282
     0
 72
     1
 77
     1
171
     1
175
     1
179
     1
273
     0
  0
XRECORD
  5
EA9
102
{ACAD_REACTORS
330
173
102
}
330
173
100
AcDbXrecord
280
     1
102
MATERIAL
148
0.0
149
0.0
149
0.0
 93
        0
 94
       63
282
     0
 72
     1
 77
     1
171
     1
175
     1
179
     1
273
     0
  0
XRECORD
  5
175
102
{ACAD_REACTORS
330
173
102
}
330
173
100
AcDbXrecord
280
     1
270
     1
271
     1
  0
XRECORD
  5
174
102
{ACAD_REACTORS
330
173
102
}
330
173
100
AcDbXrecord
280
     1
270
     1
271
     1
  0
XRECORD
  5
176
102
{ACAD_REACTORS
330
173
102
}
330
173
100
AcDbXrecord
280
     1
270
     1
271
     1
  0
XRECORD
  5
177
102
{ACAD_REACTORS
330
173
102
}
330
173
100
AcDbXrecord
280
     1
270
     1
271
     1
  0
CELLSTYLEMAP
  5
E9C
102
{ACAD_REACTORS
330
162
102
}
330
162
100
AcDbCellStyleMap
 90
        3
300
CELLSTYLE
  1
TABLEFORMAT_BEGIN
 90
        5
170
     1
 91
        0
 92
    32768
 62
   257
 93
        1
300
CONTENTFORMAT
  1
CONTENTFORMAT_BEGIN
 90
        0
 91
        0
 92
      512
 93
        0
300

 40
0.0
140
1.0
 94
        5
 62
     0
340
11
144
6.0
309
CONTENTFORMAT_END
171
     1
301
MARGIN
  1
CELLMARGIN_BEGIN
 40
1.5
 40
1.5
 40
1.5
 40
1.5
 40
4.5
 40
4.5
309
CELLMARGIN_END
 94
        6
 95
        1
302
GRIDFORMAT
  1
GRIDFORMAT_BEGIN
 90
        0
 91
        1
 62
     0
 92
       -2
340
14
 93
        0
 40
1.125
309
GRIDFORMAT_END
 95
        2
302
GRIDFORMAT
  1
GRIDFORMAT_BEGIN
 90
        0
 91
        1
 62
     0
 92
       -2
340
14
 93
        0
 40
1.125
309
GRIDFORMAT_END
 95
        4
302
GRIDFORMAT
  1
GRIDFORMAT_BEGIN
 90
        0
 91
        1
 62
     0
 92
       -2
340
14
 93
        0
 40
1.125
309
GRIDFORMAT_END
 95
        8
302
GRIDFORMAT
  1
GRIDFORMAT_BEGIN
 90
        0
 91
        1
 62
     0
 92
       -2
340
14
 93
        0
 40
1.125
309
GRIDFORMAT_END
 95
       16
302
GRIDFORMAT
  1
GRIDFORMAT_BEGIN
 90
        0
 91
        1
 62
     0
 92
       -2
340
14
 93
        0
 40
1.125
309
GRIDFORMAT_END
 95
       32
302
GRIDFORMAT
  1
GRIDFORMAT_BEGIN
 90
        0
 91
        1
 62
     0
 92
       -2
340
14
 93
        0
 40
1.125
309
GRIDFORMAT_END
309
TABLEFORMAT_END
  1
CELLSTYLE_BEGIN
 90
        1
 91
        1
300
_TITLE
309
CELLSTYLE_END
300
CELLSTYLE
  1
TABLEFORMAT_BEGIN
 90
        5
170
     1
 91
        0
 92
        0
 62
   257
 93
        1
300
CONTENTFORMAT
  1
CONTENTFORMAT_BEGIN
 90
        0
 91
        0
 92
      512
 93
        0
300

 40
0.0
140
1.0
 94
        5
 62
     0
340
11
144
4.5
309
CONTENTFORMAT_END
171
     1
301
MARGIN
  1
CELLMARGIN_BEGIN
 40
1.5
 40
1.5
 40
1.5
 40
1.5
 40
4.5
 40
4.5
309
CELLMARGIN_END
 94
        6
 95
        1
302
GRIDFORMAT
  1
GRIDFORMAT_BEGIN
 90
        0
 91
        1
 62
     0
 92
       -2
340
14
 93
        0
 40
1.125
309
GRIDFORMAT_END
 95
        2
302
GRIDFORMAT
  1
GRIDFORMAT_BEGIN
 90
        0
 91
        1
 62
     0
 92
       -2
340
14
 93
        0
 40
1.125
309
GRIDFORMAT_END
 95
        4
302
GRIDFORMAT
  1
GRIDFORMAT_BEGIN
 90
        0
 91
        1
 62
     0
 92
       -2
340
14
 93
        0
 40
1.125
309
GRIDFORMAT_END
 95
        8
302
GRIDFORMAT
  1
GRIDFORMAT_BEGIN
 90
        0
 91
        1
 62
     0
 92
       -2
340
14
 93
        0
 40
1.125
309
GRIDFORMAT_END
 95
       16
302
GRIDFORMAT
  1
GRIDFORMAT_BEGIN
 90
        0
 91
        1
 62
     0
 92
       -2
340
14
 93
        0
 40
1.125
309
GRIDFORMAT_END
 95
       32
302
GRIDFORMAT
  1
GRIDFORMAT_BEGIN
 90
        0
 91
        1
 62
     0
 92
       -2
340
14
 93
        0
 40
1.125
309
GRIDFORMAT_END
309
TABLEFORMAT_END
  1
CELLSTYLE_BEGIN
 90
        2
 91
        1
300
_HEADER
309
CELLSTYLE_END
300
CELLSTYLE
  1
TABLEFORMAT_BEGIN
 90
        5
170
     1
 91
        0
 92
        0
 62
   257
 93
        1
300
CONTENTFORMAT
  1
CONTENTFORMAT_BEGIN
 90
        0
 91
        0
 92
      512
 93
        0
300

 40
0.0
140
1.0
 94
        2
 62
     0
340
11
144
4.5
309
CONTENTFORMAT_END
171
     1
301
MARGIN
  1
CELLMARGIN_BEGIN
 40
1.5
 40
1.5
 40
1.5
 40
1.5
 40
4.5
 40
4.5
309
CELLMARGIN_END
 94
        6
 95
        1
302
GRIDFORMAT
  1
GRIDFORMAT_BEGIN
 90
        0
 91
        1
 62
     0
 92
       -2
340
14
 93
        0
 40
1.125
309
GRIDFORMAT_END
 95
        2
302
GRIDFORMAT
  1
GRIDFORMAT_BEGIN
 90
        0
 91
        1
 62
     0
 92
       -2
340
14
 93
        0
 40
1.125
309
GRIDFORMAT_END
 95
        4
302
GRIDFORMAT
  1
GRIDFORMAT_BEGIN
 90
        0
 91
        1
 62
     0
 92
       -2
340
14
 93
        0
 40
1.125
309
GRIDFORMAT_END
 95
        8
302
GRIDFORMAT
  1
GRIDFORMAT_BEGIN
 90
        0
 91
        1
 62
     0
 92
       -2
340
14
 93
        0
 40
1.125
309
GRIDFORMAT_END
 95
       16
302
GRIDFORMAT
  1
GRIDFORMAT_BEGIN
 90
        0
 91
        1
 62
     0
 92
       -2
340
14
 93
        0
 40
1.125
309
GRIDFORMAT_END
 95
       32
302
GRIDFORMAT
  1
GRIDFORMAT_BEGIN
 90
        0
 91
        1
 62
     0
 92
       -2
340
14
 93
        0
 40
1.125
309
GRIDFORMAT_END
309
TABLEFORMAT_END
  1
CELLSTYLE_BEGIN
 90
        3
 91
        2
300
_DATA
309
CELLSTYLE_END
  0
XRECORD
  5
EA0
102
{ACAD_REACTORS
330
162
102
}
330
162
100
AcDbXrecord
280
     1
102
ACAD_ROUNDTRIP_PRE2007_TABLESTYLE
 90
      512
 91
        0
  1

 92
      512
 93
        0
  2

 94
      512
 95
        0
  3

  0
ENDSEC
  0
EOF
