  0
SECTION
  2
HEADER
  9
$ACADVER
  1
AC1015
  9
$ACADMAINTVER
 70
    20
  9
$DWGCODEPAGE
  3
ANSI_1254
  9
$INSBASE
 10
0.0
 20
0.0
 30
0.0
  9
$EXTMIN
 10
2415.49706251271
 20
790.6987875914539
 30
0.0
  9
$EXTMAX
 10
2508.91799689571
 20
835.9512192841538
 30
0.0
  9
$LIMMIN
 10
0.0
 20
0.0
  9
$LIMMAX
 10
420.0
 20
297.0
  9
$ORTHOMODE
 70
     0
  9
$REGENMODE
 70
     1
  9
$FILLMODE
 70
     1
  9
$QTEXTMODE
 70
     0
  9
$MIRRTEXT
 70
     0
  9
$LTSCALE
 40
1.0
  9
$ATTMODE
 70
     1
  9
$TEXTSIZE
 40
2.5
  9
$TRACEWID
 40
1.0
  9
$TEXTSTYLE
  7
Standard
  9
$CLAYER
  8
0
  9
$CELTYPE
  6
ByLayer
  9
$CECOLOR
 62
   256
  9
$CELTSCALE
 40
1.0
  9
$DISPSILH
 70
     0
  9
$DIMSCALE
 40
1.0
  9
$DIMASZ
 40
2.5
  9
$DIMEXO
 40
0.625
  9
$DIMDLI
 40
3.75
  9
$DIMRND
 40
0.0
  9
$DIMDLE
 40
0.0
  9
$DIMEXE
 40
1.25
  9
$DIMTP
 40
0.0
  9
$DIMTM
 40
0.0
  9
$DIMTXT
 40
2.5
  9
$DIMCEN
 40
2.5
  9
$DIMTSZ
 40
0.0
  9
$DIMTOL
 70
     0
  9
$DIMLIM
 70
     0
  9
$DIMTIH
 70
     0
  9
$DIMTOH
 70
     0
  9
$DIMSE1
 70
     0
  9
$DIMSE2
 70
     0
  9
$DIMTAD
 70
     1
  9
$DIMZIN
 70
     8
  9
$DIMBLK
  1

  9
$DIMASO
 70
     1
  9
$DIMSHO
 70
     1
  9
$DIMPOST
  1

  9
$DIMAPOST
  1

  9
$DIMALT
 70
     0
  9
$DIMALTD
 70
     3
  9
$DIMALTF
 40
0.03937007874016
  9
$DIMLFAC
 40
1.0
  9
$DIMTOFL
 70
     1
  9
$DIMTVP
 40
0.0
  9
$DIMTIX
 70
     0
  9
$DIMSOXD
 70
     0
  9
$DIMSAH
 70
     0
  9
$DIMBLK1
  1

  9
$DIMBLK2
  1

  9
$DIMSTYLE
  2
ISO-25
  9
$DIMCLRD
 70
     0
  9
$DIMCLRE
 70
     0
  9
$DIMCLRT
 70
     0
  9
$DIMTFAC
 40
1.0
  9
$DIMGAP
 40
0.625
  9
$DIMJUST
 70
     0
  9
$DIMSD1
 70
     0
  9
$DIMSD2
 70
     0
  9
$DIMTOLJ
 70
     0
  9
$DIMTZIN
 70
     8
  9
$DIMALTZ
 70
     0
  9
$DIMALTTZ
 70
     0
  9
$DIMUPT
 70
     0
  9
$DIMDEC
 70
     2
  9
$DIMTDEC
 70
     2
  9
$DIMALTU
 70
     2
  9
$DIMALTTD
 70
     3
  9
$DIMTXSTY
  7
Standard
  9
$DIMAUNIT
 70
     0
  9
$DIMADEC
 70
     0
  9
$DIMALTRND
 40
0.0
  9
$DIMAZIN
 70
     0
  9
$DIMDSEP
 70
    44
  9
$DIMATFIT
 70
     3
  9
$DIMFRAC
 70
     0
  9
$DIMLDRBLK
  1

  9
$DIMLUNIT
 70
     2
  9
$DIMLWD
 70
    -2
  9
$DIMLWE
 70
    -2
  9
$DIMTMOVE
 70
     0
  9
$LUNITS
 70
     2
  9
$LUPREC
 70
     4
  9
$SKETCHINC
 40
1.0
  9
$FILLETRAD
 40
0.0
  9
$AUNITS
 70
     0
  9
$AUPREC
 70
     0
  9
$MENU
  1
.
  9
$ELEVATION
 40
0.0
  9
$PELEVATION
 40
0.0
  9
$THICKNESS
 40
0.0
  9
$LIMCHECK
 70
     0
  9
$CHAMFERA
 40
0.0
  9
$CHAMFERB
 40
0.0
  9
$CHAMFERC
 40
0.0
  9
$CHAMFERD
 40
0.0
  9
$SKPOLY
 70
     0
  9
$TDCREATE
 40
2458933.470190127
  9
$TDUCREATE
 40
2458933.345190128
  9
$TDUPDATE
 40
2458956.447126389
  9
$TDUUPDATE
 40
2458956.322126389
  9
$TDINDWG
 40
0.0003798495
  9
$TDUSRTIMER
 40
0.0003798495
  9
$USRTIMER
 70
     1
  9
$ANGBASE
 50
0.0
  9
$ANGDIR
 70
     0
  9
$PDMODE
 70
     0
  9
$PDSIZE
 40
0.0
  9
$PLINEWID
 40
0.0
  9
$SPLFRAME
 70
     0
  9
$SPLINETYPE
 70
     6
  9
$SPLINESEGS
 70
     8
  9
$HANDSEED
  5
78C
  9
$SURFTAB1
 70
     6
  9
$SURFTAB2
 70
     6
  9
$SURFTYPE
 70
     6
  9
$SURFU
 70
     6
  9
$SURFV
 70
     6
  9
$UCSBASE
  2

  9
$UCSNAME
  2

  9
$UCSORG
 10
0.0
 20
0.0
 30
0.0
  9
$UCSXDIR
 10
1.0
 20
0.0
 30
0.0
  9
$UCSYDIR
 10
0.0
 20
1.0
 30
0.0
  9
$UCSORTHOREF
  2

  9
$UCSORTHOVIEW
 70
     0
  9
$UCSORGTOP
 10
0.0
 20
0.0
 30
0.0
  9
$UCSORGBOTTOM
 10
0.0
 20
0.0
 30
0.0
  9
$UCSORGLEFT
 10
0.0
 20
0.0
 30
0.0
  9
$UCSORGRIGHT
 10
0.0
 20
0.0
 30
0.0
  9
$UCSORGFRONT
 10
0.0
 20
0.0
 30
0.0
  9
$UCSORGBACK
 10
0.0
 20
0.0
 30
0.0
  9
$PUCSBASE
  2

  9
$PUCSNAME
  2

  9
$PUCSORG
 10
0.0
 20
0.0
 30
0.0
  9
$PUCSXDIR
 10
1.0
 20
0.0
 30
0.0
  9
$PUCSYDIR
 10
0.0
 20
1.0
 30
0.0
  9
$PUCSORTHOREF
  2

  9
$PUCSORTHOVIEW
 70
     0
  9
$PUCSORGTOP
 10
0.0
 20
0.0
 30
0.0
  9
$PUCSORGBOTTOM
 10
0.0
 20
0.0
 30
0.0
  9
$PUCSORGLEFT
 10
0.0
 20
0.0
 30
0.0
  9
$PUCSORGRIGHT
 10
0.0
 20
0.0
 30
0.0
  9
$PUCSORGFRONT
 10
0.0
 20
0.0
 30
0.0
  9
$PUCSORGBACK
 10
0.0
 20
0.0
 30
0.0
  9
$USERI1
 70
     0
  9
$USERI2
 70
     0
  9
$USERI3
 70
     0
  9
$USERI4
 70
     0
  9
$USERI5
 70
     0
  9
$USERR1
 40
0.0
  9
$USERR2
 40
0.0
  9
$USERR3
 40
0.0
  9
$USERR4
 40
0.0
  9
$USERR5
 40
0.0
  9
$WORLDVIEW
 70
     1
  9
$SHADEDGE
 70
     3
  9
$SHADEDIF
 70
    70
  9
$TILEMODE
 70
     1
  9
$MAXACTVP
 70
    64
  9
$PINSBASE
 10
0.0
 20
0.0
 30
0.0
  9
$PLIMCHECK
 70
     0
  9
$PEXTMIN
 10
0.0
 20
0.0
 30
0.0
  9
$PEXTMAX
 10
0.0
 20
0.0
 30
0.0
  9
$PLIMMIN
 10
0.0
 20
0.0
  9
$PLIMMAX
 10
12.0
 20
9.0
  9
$UNITMODE
 70
     0
  9
$VISRETAIN
 70
     1
  9
$PLINEGEN
 70
     0
  9
$PSLTSCALE
 70
     1
  9
$TREEDEPTH
 70
  3020
  9
$CMLSTYLE
  2
Standard
  9
$CMLJUST
 70
     0
  9
$CMLSCALE
 40
20.0
  9
$PROXYGRAPHICS
 70
     1
  9
$MEASUREMENT
 70
     1
  9
$CELWEIGHT
370
    -1
  9
$ENDCAPS
280
     0
  9
$JOINSTYLE
280
     0
  9
$LWDISPLAY
290
     0
  9
$INSUNITS
 70
     4
  9
$HYPERLINKBASE
  1

  9
$STYLESHEET
  1

  9
$XEDIT
290
     1
  9
$CEPSNTYPE
380
     0
  9
$PSTYLEMODE
290
     1
  9
$FINGERPRINTGUID
  2
{7A58CCC0-0160-45DD-A769-7440C827F583}
  9
$VERSIONGUID
  2
{4350C3F9-5372-4AB5-B1BD-87EC78ECAA02}
  9
$EXTNAMES
290
     1
  9
$PSVPSCALE
 40
0.0
  9
$OLESTARTUP
290
     0
  0
ENDSEC
  0
SECTION
  2
CLASSES
  0
CLASS
  1
ACDBDICTIONARYWDFLT
  2
AcDbDictionaryWithDefault
  3
ObjectDBX Classes
 90
        0
280
     0
281
     0
  0
CLASS
  1
ACDBPLACEHOLDER
  2
AcDbPlaceHolder
  3
ObjectDBX Classes
 90
        0
280
     0
281
     0
  0
CLASS
  1
LAYOUT
  2
AcDbLayout
  3
ObjectDBX Classes
 90
        0
280
     0
281
     0
  0
CLASS
  1
DICTIONARYVAR
  2
AcDbDictionaryVar
  3
ObjectDBX Classes
 90
        0
280
     0
281
     0
  0
CLASS
  1
TABLESTYLE
  2
AcDbTableStyle
  3
ObjectDBX Classes
 90
     4095
280
     0
281
     0
  0
CLASS
  1
MATERIAL
  2
AcDbMaterial
  3
ObjectDBX Classes
 90
     1153
280
     0
281
     0
  0
CLASS
  1
VISUALSTYLE
  2
AcDbVisualStyle
  3
ObjectDBX Classes
 90
     4095
280
     0
281
     0
  0
CLASS
  1
SCALE
  2
AcDbScale
  3
ObjectDBX Classes
 90
     1153
280
     0
281
     0
  0
CLASS
  1
MLEADERSTYLE
  2
AcDbMLeaderStyle
  3
ACDB_MLEADERSTYLE_CLASS
 90
     4095
280
     0
281
     0
  0
CLASS
  1
CELLSTYLEMAP
  2
AcDbCellStyleMap
  3
ObjectDBX Classes
 90
     1152
280
     0
281
     0
  0
ENDSEC
  0
SECTION
  2
TABLES
  0
TABLE
  2
VPORT
  5
8
330
0
100
AcDbSymbolTable
 70
     1
  0
VPORT
  5
EA
330
8
100
AcDbSymbolTableRecord
100
AcDbViewportTableRecord
  2
*Active
 70
     0
 10
0.0
 20
0.0
 11
1.0
 21
1.0
 12
2466.266510612909
 22
823.5627005996672
 13
0.0
 23
0.0
 14
10.0
 24
10.0
 15
10.0
 25
10.0
 16
0.0
 26
0.0
 36
1.0
 17
0.0
 27
0.0
 37
0.0
 40
81.29433107248216
 41
1.903110047846889
 42
50.0
 43
0.0
 44
0.0
 50
0.0
 51
0.0
 71
     0
 72
  1000
 73
     1
 74
     3
 75
     0
 76
     0
 77
     0
 78
     0
281
     0
 65
     1
110
0.0
120
0.0
130
0.0
111
1.0
121
0.0
131
0.0
112
0.0
122
1.0
132
0.0
 79
     0
146
0.0
  0
ENDTAB
  0
TABLE
  2
LTYPE
  5
5
330
0
100
AcDbSymbolTable
 70
     1
  0
LTYPE
  5
14
330
5
100
AcDbSymbolTableRecord
100
AcDbLinetypeTableRecord
  2
ByBlock
 70
     0
  3

 72
    65
 73
     0
 40
0.0
  0
LTYPE
  5
15
330
5
100
AcDbSymbolTableRecord
100
AcDbLinetypeTableRecord
  2
ByLayer
 70
     0
  3

 72
    65
 73
     0
 40
0.0
  0
LTYPE
  5
16
330
5
100
AcDbSymbolTableRecord
100
AcDbLinetypeTableRecord
  2
Continuous
 70
     0
  3
Solid line
 72
    65
 73
     0
 40
0.0
  0
ENDTAB
  0
TABLE
  2
LAYER
  5
2
330
0
100
AcDbSymbolTable
 70
     1
  0
LAYER
  5
10
102
{ACAD_XDICTIONARY
360
13C
102
}
330
2
100
AcDbSymbolTableRecord
100
AcDbLayerTableRecord
  2
0
 70
     0
 62
     7
  6
Continuous
370
    -3
390
F
  0
ENDTAB
  0
TABLE
  2
STYLE
  5
3
330
0
100
AcDbSymbolTable
 70
     2
  0
STYLE
  5
11
330
3
100
AcDbSymbolTableRecord
100
AcDbTextStyleTableRecord
  2
Standard
 70
     0
 40
0.0
 41
1.0
 50
0.0
 71
     0
 42
2.5
  3
txt
  4

  0
STYLE
  5
132
330
3
100
AcDbSymbolTableRecord
100
AcDbTextStyleTableRecord
  2
Annotative
 70
     0
 40
0.0
 41
1.0
 50
0.0
 71
     0
 42
2.5
  3
txt.shx
  4

1001
AcadAnnotative
1000
AnnotativeData
1002
{
1070
     1
1070
     1
1002
}
  0
ENDTAB
  0
TABLE
  2
VIEW
  5
6
330
0
100
AcDbSymbolTable
 70
     0
  0
ENDTAB
  0
TABLE
  2
UCS
  5
7
330
0
100
AcDbSymbolTable
 70
     0
  0
ENDTAB
  0
TABLE
  2
APPID
  5
9
330
0
100
AcDbSymbolTable
 70
     7
  0
APPID
  5
12
330
9
100
AcDbSymbolTableRecord
100
AcDbRegAppTableRecord
  2
ACAD
 70
     0
  0
APPID
  5
9E
330
9
100
AcDbSymbolTableRecord
100
AcDbRegAppTableRecord
  2
ACAD_PSEXT
 70
     0
  0
APPID
  5
133
330
9
100
AcDbSymbolTableRecord
100
AcDbRegAppTableRecord
  2
AcadAnnoPO
 70
     0
  0
APPID
  5
134
330
9
100
AcDbSymbolTableRecord
100
AcDbRegAppTableRecord
  2
AcadAnnotative
 70
     0
  0
APPID
  5
135
330
9
100
AcDbSymbolTableRecord
100
AcDbRegAppTableRecord
  2
ACAD_DSTYLE_DIMJAG
 70
     0
  0
APPID
  5
136
330
9
100
AcDbSymbolTableRecord
100
AcDbRegAppTableRecord
  2
ACAD_DSTYLE_DIMTALN
 70
     0
  0
APPID
  5
165
330
9
100
AcDbSymbolTableRecord
100
AcDbRegAppTableRecord
  2
ACAD_MLEADERVER
 70
     0
  0
ENDTAB
  0
TABLE
  2
DIMSTYLE
  5
A
330
0
100
AcDbSymbolTable
 70
     2
100
AcDbDimStyleTable
 71
     2
340
27
340
137
  0
DIMSTYLE
105
27
330
A
100
AcDbSymbolTableRecord
100
AcDbDimStyleTableRecord
  2
ISO-25
 70
     0
 41
2.5
 42
0.625
 43
3.75
 44
1.25
 73
     0
 74
     0
 77
     1
 78
     8
140
2.5
141
2.5
143
0.03937007874016
147
0.625
171
     3
172
     1
271
     2
272
     2
274
     3
278
    44
283
     0
284
     8
340
11
  0
DIMSTYLE
105
137
330
A
100
AcDbSymbolTableRecord
100
AcDbDimStyleTableRecord
  2
Annotative
 70
     0
 40
0.0
 41
2.5
 42
0.625
 43
3.75
 44
1.25
 73
     0
 74
     0
 77
     1
 78
     8
140
2.5
141
2.5
143
0.03937007874016
147
0.625
171
     3
172
     1
271
     2
272
     2
274
     3
278
    44
283
     0
284
     8
340
11
1001
AcadAnnotative
1000
AnnotativeData
1002
{
1070
     1
1070
     1
1002
}
1001
ACAD_DSTYLE_DIMJAG
1070
   388
1040
1.5
1001
ACAD_DSTYLE_DIMTALN
1070
   392
1070
     0
  0
ENDTAB
  0
TABLE
  2
BLOCK_RECORD
  5
1
330
0
100
AcDbSymbolTable
 70
     5
  0
BLOCK_RECORD
  5
1F
330
1
100
AcDbSymbolTableRecord
100
AcDbBlockTableRecord
  2
*Model_Space
340
22
  0
BLOCK_RECORD
  5
D2
330
1
100
AcDbSymbolTableRecord
100
AcDbBlockTableRecord
  2
*Paper_Space
340
D3
  0
BLOCK_RECORD
  5
D6
330
1
100
AcDbSymbolTableRecord
100
AcDbBlockTableRecord
  2
*Paper_Space0
340
D7
  0
BLOCK_RECORD
  5
573
330
1
100
AcDbSymbolTableRecord
100
AcDbBlockTableRecord
  2
1
340
0
310
2800000020000000200000000100080000000000000400000000000000000000000000000000000000000000000080000080000000808000800000008000800080800000C0C0C000C0DCC000F0CAA6000020400000206000002080000020A0000020C0000020E00000400000004020000040400000406000004080000040A0
310
000040C0000040E00000600000006020000060400000606000006080000060A0000060C0000060E00000800000008020000080400000806000008080000080A0000080C0000080E00000A0000000A0200000A0400000A0600000A0800000A0A00000A0C00000A0E00000C0000000C0200000C0400000C0600000C0800000C0
310
A00000C0C00000C0E00000E0000000E0200000E0400000E0600000E0800000E0A00000E0C00000E0E00040000000400020004000400040006000400080004000A0004000C0004000E00040200000402020004020400040206000402080004020A0004020C0004020E000404000004040200040404000404060004040800040
310
40A0004040C0004040E00040600000406020004060400040606000406080004060A0004060C0004060E00040800000408020004080400040806000408080004080A0004080C0004080E00040A0000040A0200040A0400040A0600040A0800040A0A00040A0C00040A0E00040C0000040C0200040C0400040C0600040C08000
310
40C0A00040C0C00040C0E00040E0000040E0200040E0400040E0600040E0800040E0A00040E0C00040E0E00080000000800020008000400080006000800080008000A0008000C0008000E00080200000802020008020400080206000802080008020A0008020C0008020E00080400000804020008040400080406000804080
310
008040A0008040C0008040E00080600000806020008060400080606000806080008060A0008060C0008060E00080800000808020008080400080806000808080008080A0008080C0008080E00080A0000080A0200080A0400080A0600080A0800080A0A00080A0C00080A0E00080C0000080C0200080C0400080C0600080C0
310
800080C0A00080C0C00080C0E00080E0000080E0200080E0400080E0600080E0800080E0A00080E0C00080E0E000C0000000C0002000C0004000C0006000C0008000C000A000C000C000C000E000C0200000C0202000C0204000C0206000C0208000C020A000C020C000C020E000C0400000C0402000C0404000C0406000C0
310
408000C040A000C040C000C040E000C0600000C0602000C0604000C0606000C0608000C060A000C060C000C060E000C0800000C0802000C0804000C0806000C0808000C080A000C080C000C080E000C0A00000C0A02000C0A04000C0A06000C0A08000C0A0A000C0A0C000C0A0E000C0C00000C0C02000C0C04000C0C06000
310
C0C08000C0C0A000F0FBFF00A4A0A000808080000000FF0000FF000000FFFF00FF000000FF00FF00FFFF0000FFFFFF0000000000000000000000000000000000000000000000000000000000000000000000000000000000000000000000000000000000000000000000000000000000000000000000000000000000000000
310
000000000000000000000000000000000000000000000000000000000000000000000000000000000000000000000000000000000000000000000000000000000000000000000000000000000000000000000000000000000000000000000000000000000000000000000000000000000000000000FFFF000000000000FF00
310
0000000000FF000000000000FFFF0000000000000000FF00FF00000000FF00FF00000000FF00FF00000000FF00FF0000000000000000FF00FF00000000FF00FF00000000FF00FF00000000FF00FF0000000000000000FF00FF00000000FF00FF00000000FF00FF00000000FF00FF0000000000000000FF00FF00000000FF00
310
FF00000000FF00FF00000000FF00FF0000000000000000FF00FF00000000FF00FF00000000FF00FF00000000FF00FF0000000000000000FF00FF00000000FF00FF00000000FF00FF00000000FF00FF0000000000000000FFFFFF00000000FFFFFF00000000FFFFFF00000000FFFFFF00000000000000FFFFFFFF000000FFFF
310
FFFFFF0000FFFFFFFFFF000000FFFFFFFF000000000000FF0000FF000000FF000000FF0000FF000000FF000000FF0000FF0000000000FFFFFFFFFFFF0000FFFFFFFFFF0000FFFFFFFFFF0000FFFFFFFFFFFF00000000FF00FFFFFFFF00FF00FFFFFFFF0000FFFFFFFF00FF00FFFFFFFF00FF00000000FF00000000FF00FF00
310
000000FF0000FF00000000FF00FF00000000FF000000FFFF00000000FFFFFF00000000FFFFFFFF00000000FFFFFF00000000FFFF0000FF00000000000000000000000000000000000000000000000000000000FF0000FF00000000000000000000000000000000000000000000000000000000FF0000FF0000000000000000
310
0000000000000000000000000000000000000000FF0000FF00000000000000000000000000000000000000000000000000000000FF0000FFFFFFFFFFFFFFFFFFFFFFFFFFFFFFFFFFFFFFFFFFFFFFFFFFFFFFFFFFFF0000FFFFFFFFFFFFFFFFFFFFFFFFFFFFFFFFFFFFFFFFFFFFFFFFFFFFFFFFFFFF00000000000000000000
310
00000000000000000000000000000000000000000000000000000000000000000000000000000000000000000000000000000000000000000000000000000000000000000000000000000000000000000000000000000000000000000000000000000000000000000000000000000000000000000000000000000000000000
310
0000000000000000000000000000000000000000000000000000000000000000000000000000000000000000000000000000000000000000
102
{BLKREFS
331
609
102
}
1001
ACAD
1000
DesignCenter Data
1002
{
1070
     1
1070
     4
1002
}
  0
BLOCK_RECORD
  5
60A
330
1
100
AcDbSymbolTableRecord
100
AcDbBlockTableRecord
  2
2
340
0
310
2800000020000000200000000100080000000000000400000000000000000000000000000000000000000000000080000080000000808000800000008000800080800000C0C0C000C0DCC000F0CAA6000020400000206000002080000020A0000020C0000020E00000400000004020000040400000406000004080000040A0
310
000040C0000040E00000600000006020000060400000606000006080000060A0000060C0000060E00000800000008020000080400000806000008080000080A0000080C0000080E00000A0000000A0200000A0400000A0600000A0800000A0A00000A0C00000A0E00000C0000000C0200000C0400000C0600000C0800000C0
310
A00000C0C00000C0E00000E0000000E0200000E0400000E0600000E0800000E0A00000E0C00000E0E00040000000400020004000400040006000400080004000A0004000C0004000E00040200000402020004020400040206000402080004020A0004020C0004020E000404000004040200040404000404060004040800040
310
40A0004040C0004040E00040600000406020004060400040606000406080004060A0004060C0004060E00040800000408020004080400040806000408080004080A0004080C0004080E00040A0000040A0200040A0400040A0600040A0800040A0A00040A0C00040A0E00040C0000040C0200040C0400040C0600040C08000
310
40C0A00040C0C00040C0E00040E0000040E0200040E0400040E0600040E0800040E0A00040E0C00040E0E00080000000800020008000400080006000800080008000A0008000C0008000E00080200000802020008020400080206000802080008020A0008020C0008020E00080400000804020008040400080406000804080
310
008040A0008040C0008040E00080600000806020008060400080606000806080008060A0008060C0008060E00080800000808020008080400080806000808080008080A0008080C0008080E00080A0000080A0200080A0400080A0600080A0800080A0A00080A0C00080A0E00080C0000080C0200080C0400080C0600080C0
310
800080C0A00080C0C00080C0E00080E0000080E0200080E0400080E0600080E0800080E0A00080E0C00080E0E000C0000000C0002000C0004000C0006000C0008000C000A000C000C000C000E000C0200000C0202000C0204000C0206000C0208000C020A000C020C000C020E000C0400000C0402000C0404000C0406000C0
310
408000C040A000C040C000C040E000C0600000C0602000C0604000C0606000C0608000C060A000C060C000C060E000C0800000C0802000C0804000C0806000C0808000C080A000C080C000C080E000C0A00000C0A02000C0A04000C0A06000C0A08000C0A0A000C0A0C000C0A0E000C0C00000C0C02000C0C04000C0C06000
310
C0C08000C0C0A000F0FBFF00A4A0A000808080000000FF0000FF000000FFFF00FF000000FF00FF00FFFF0000FFFFFF0000000000000000000000000000000000000000000000000000000000000000000000000000000000000000000000FFFFFFFF00000000000000000000000000000000000000000000000000000000FF
310
FFFFFF00000000000000000000000000000000000000000000000000000000FF0000FF00000000000000000000000000000000000000000000000000000000FFFFFFFF00000000000000000000000000000000000000000000000000000000FF0000FF00000000000000000000000000000000000000000000000000000000
310
FF0000FF00000000000000000000000000000000000000000000000000000000FF0000FF00000000000000000000000000000000000000000000000000000000FF0000FF00000000000000000000000000000000000000000000000000000000FF0000FF000000000000000000000000000000000000000000000000000000
310
00FF0000FF00000000000000000000000000000000000000000000000000000000FF0000FF0000000000000000000000000000000000000000000000000000000000FFFF0000000000000000000000000000000000000000000000000000000000FFFFFFFF0000000000000000000000000000000000000000000000000000
310
0000FF0000FF00000000000000000000000000000000000000000000000000000000FF0000FF00000000000000000000000000000000000000000000000000000000FFFFFFFF00000000000000000000000000000000000000000000000000000000FFFFFFFF00000000000000000000000000000000000000000000000000
310
0000FFFF0000FFFF000000000000000000000000000000000000000000000000000000FF0000FF00000000000000000000000000000000000000000000000000000000FF0000FF00000000000000000000000000000000000000000000000000000000FFFFFFFF000000000000000000000000000000000000000000000000
310
00000000FF0000FF00000000000000000000000000000000000000000000000000000000FF0000FF00000000000000000000000000000000000000000000000000000000FF0000FF00000000000000000000000000000000000000000000000000000000FF0000FF0000000000000000000000000000000000000000000000
310
0000000000FF0000FF00000000000000000000000000000000000000000000000000000000FF0000FF000000000000000000000000000000000000000000000000000000FFFF0000FFFF0000000000000000000000000000000000000000000000000000FF00000000FF000000000000000000000000000000000000000000
310
0000000000FFFFFFFFFFFF000000000000000000000000000000000000000000000000000000000000000000000000000000000000000000
102
{BLKREFS
331
63C
102
}
1001
ACAD
1000
DesignCenter Data
1002
{
1070
     1
1070
     4
1002
}
  0
BLOCK_RECORD
  5
63D
330
1
100
AcDbSymbolTableRecord
100
AcDbBlockTableRecord
  2
3
340
0
310
2800000020000000200000000100080000000000000400000000000000000000000000000000000000000000000080000080000000808000800000008000800080800000C0C0C000C0DCC000F0CAA6000020400000206000002080000020A0000020C0000020E00000400000004020000040400000406000004080000040A0
310
000040C0000040E00000600000006020000060400000606000006080000060A0000060C0000060E00000800000008020000080400000806000008080000080A0000080C0000080E00000A0000000A0200000A0400000A0600000A0800000A0A00000A0C00000A0E00000C0000000C0200000C0400000C0600000C0800000C0
310
A00000C0C00000C0E00000E0000000E0200000E0400000E0600000E0800000E0A00000E0C00000E0E00040000000400020004000400040006000400080004000A0004000C0004000E00040200000402020004020400040206000402080004020A0004020C0004020E000404000004040200040404000404060004040800040
310
40A0004040C0004040E00040600000406020004060400040606000406080004060A0004060C0004060E00040800000408020004080400040806000408080004080A0004080C0004080E00040A0000040A0200040A0400040A0600040A0800040A0A00040A0C00040A0E00040C0000040C0200040C0400040C0600040C08000
310
40C0A00040C0C00040C0E00040E0000040E0200040E0400040E0600040E0800040E0A00040E0C00040E0E00080000000800020008000400080006000800080008000A0008000C0008000E00080200000802020008020400080206000802080008020A0008020C0008020E00080400000804020008040400080406000804080
310
008040A0008040C0008040E00080600000806020008060400080606000806080008060A0008060C0008060E00080800000808020008080400080806000808080008080A0008080C0008080E00080A0000080A0200080A0400080A0600080A0800080A0A00080A0C00080A0E00080C0000080C0200080C0400080C0600080C0
310
800080C0A00080C0C00080C0E00080E0000080E0200080E0400080E0600080E0800080E0A00080E0C00080E0E000C0000000C0002000C0004000C0006000C0008000C000A000C000C000C000E000C0200000C0202000C0204000C0206000C0208000C020A000C020C000C020E000C0400000C0402000C0404000C0406000C0
310
408000C040A000C040C000C040E000C0600000C0602000C0604000C0606000C0608000C060A000C060C000C060E000C0800000C0802000C0804000C0806000C0808000C080A000C080C000C080E000C0A00000C0A02000C0A04000C0A06000C0A08000C0A0A000C0A0C000C0A0E000C0C00000C0C02000C0C04000C0C06000
310
C0C08000C0C0A000F0FBFF00A4A0A000808080000000FF0000FF000000FFFF00FF000000FF00FF00FFFF0000FFFFFF0000000000000000000000000000000000000000000000000000000000000000000000000000000000000000000000000000000000000000000000000000000000000000000000000000000000000000
310
00000000000000000000000000000000000000000000000000000000000000000000000000000000000000000000000000000000000000000000000000000000000000000000000000000000000000000000000000000000000000000000000000000000000000000000000000000000000000000000000000000000000000
310
00000000000000000000000000000000000000000000000000000000000000000000000000000000000000000000000000000000000000000000000000000000000000000000000000000000000000000000000000000000000000000000000000000000000000000000000000000000000000000000000000000000000000
310
0000000000000000000000000000000000000000000000000000000000000000000000000000000000000000000000000000000000000000000000000000000000000000000000000000000000000000000000000000000000000000000000000000000000000000000000000000000000000000FFFFFFFFFFFFFFFFFFFFFF
310
FFFFFFFFFFFFFFFFFFFFFFFFFFFFFFFFFFFFFF0000FF00000000000000000000000000000000000000000000000000000000FF0000FF00000000000000000000000000000000000000000000000000000000FF0000FFFFFFFFFFFFFFFFFFFFFFFFFFFFFFFFFFFFFFFFFFFFFFFFFFFFFFFFFFFF000000000000000000000000
310
00000000000000000000000000000000000000000000000000000000000000000000000000000000000000000000000000000000000000000000000000000000000000000000000000000000000000000000000000000000000000000000000000000000000000000000000000000000000000000000000000000000000000
310
00000000000000000000000000000000000000000000000000000000000000000000000000000000000000000000000000000000000000000000000000000000000000000000000000000000000000000000000000000000000000000000000000000000000000000000000000000000000000000000000000000000000000
310
00000000000000000000000000000000000000000000000000000000000000000000000000000000000000000000000000000000000000000000000000000000000000000000000000000000000000000000000000000000000000000000000000000000000000000000000000000000000000000000000000000000000000
310
0000000000000000000000000000000000000000000000000000000000000000000000000000000000000000000000000000000000000000
102
{BLKREFS
331
644
102
}
1001
ACAD
1000
DesignCenter Data
1002
{
1070
     1
1070
     4
1002
}
  0
BLOCK_RECORD
  5
645
330
1
100
AcDbSymbolTableRecord
100
AcDbBlockTableRecord
  2
4
340
0
310
2800000020000000200000000100080000000000000400000000000000000000000000000000000000000000000080000080000000808000800000008000800080800000C0C0C000C0DCC000F0CAA6000020400000206000002080000020A0000020C0000020E00000400000004020000040400000406000004080000040A0
310
000040C0000040E00000600000006020000060400000606000006080000060A0000060C0000060E00000800000008020000080400000806000008080000080A0000080C0000080E00000A0000000A0200000A0400000A0600000A0800000A0A00000A0C00000A0E00000C0000000C0200000C0400000C0600000C0800000C0
310
A00000C0C00000C0E00000E0000000E0200000E0400000E0600000E0800000E0A00000E0C00000E0E00040000000400020004000400040006000400080004000A0004000C0004000E00040200000402020004020400040206000402080004020A0004020C0004020E000404000004040200040404000404060004040800040
310
40A0004040C0004040E00040600000406020004060400040606000406080004060A0004060C0004060E00040800000408020004080400040806000408080004080A0004080C0004080E00040A0000040A0200040A0400040A0600040A0800040A0A00040A0C00040A0E00040C0000040C0200040C0400040C0600040C08000
310
40C0A00040C0C00040C0E00040E0000040E0200040E0400040E0600040E0800040E0A00040E0C00040E0E00080000000800020008000400080006000800080008000A0008000C0008000E00080200000802020008020400080206000802080008020A0008020C0008020E00080400000804020008040400080406000804080
310
008040A0008040C0008040E00080600000806020008060400080606000806080008060A0008060C0008060E00080800000808020008080400080806000808080008080A0008080C0008080E00080A0000080A0200080A0400080A0600080A0800080A0A00080A0C00080A0E00080C0000080C0200080C0400080C0600080C0
310
800080C0A00080C0C00080C0E00080E0000080E0200080E0400080E0600080E0800080E0A00080E0C00080E0E000C0000000C0002000C0004000C0006000C0008000C000A000C000C000C000E000C0200000C0202000C0204000C0206000C0208000C020A000C020C000C020E000C0400000C0402000C0404000C0406000C0
310
408000C040A000C040C000C040E000C0600000C0602000C0604000C0606000C0608000C060A000C060C000C060E000C0800000C0802000C0804000C0806000C0808000C080A000C080C000C080E000C0A00000C0A02000C0A04000C0A06000C0A08000C0A0A000C0A0C000C0A0E000C0C00000C0C02000C0C04000C0C06000
310
C0C08000C0C0A000F0FBFF00A4A0A000808080000000FF0000FF000000FFFF00FF000000FF00FF00FFFF0000FFFFFF00000000000000000000000000000000000000000000000000000000000000000000000000000000FFFF0000000000000000000000000000000000000000000000000000000000FFFFFFFF0000000000
310
0000000000000000000000000000000000000000000000FFFF00FF00000000000000000000000000000000000000000000000000000000FFFF00FF00000000000000000000000000000000000000000000000000000000FFFF00FF0000FFFFFF0000000000000000000000000000000000000000000000FFFF00FF00FFFFFF
310
FF0000000000000000000000000000000000000000000000FFFF00FF00FFFFFFFF0000000000000000000000000000000000000000000000FFFFFFFF00FF00FFFF000000FFFF0000000000000000000000000000000000FFFFFFFFFFFFFF00FFFF0000FFFF00FF00000000000000000000000000000000FFFFFF0000FFFFFF
310
FFFF0000FFFF00FF00000000000000000000000000000000FFFFFFFFFFFFFFFFFFFF0000FFFF00FF000000FFFF00000000000000000000FFFFFF00FFFFFFFFFF00FFFF00FFFF00FF00FFFFFFFF00000000000000000000FF00FF000000FFFFFFFF00FF00FFFF00FF00FFFFFFFF00000000000000000000FF00FF000000FFFF
310
FFFFFFFF00FFFFFFFF00FF00FFFF00000000000000000000FF00FF00000000FFFF00FFFFFFFFFFFFFF00FF00FFFF00000000000000000000FF00FFFFFF000000000000FFFFFFFF00FF00FFFFFFFF00000000000000000000FFFF00FFFFFFFF00000000FFFFFFFFFFFF00FFFFFFFF0000000000000000000000FFFF0000FFFF
310
FFFF000000FFFF00FFFFFFFFFFFFFFFF000000000000000000000000FFFF0000FFFFFF00000000000000FFFFFFFF00FF0000000000000000000000000000FF000000FFFFFF0000000000FFFFFFFFFFFF000000000000000000000000000000FFFF0000FFFFFFFF00000000FFFF00FFFF000000000000000000000000000000
310
0000FF000000FFFFFFFF000000000000FF000000000000000000000000000000000000FFFF000000FFFFFF0000000000FFFF00000000000000000000000000000000000000FFFF000000FFFFFF00000000FF000000000000000000000000000000000000000000FF000000FFFFFFFF0000FF00000000000000000000000000
310
000000000000000000FFFF000000FFFFFFFFFF000000000000000000000000000000000000000000000000FF00000000FFFFFF00000000000000000000000000000000000000000000000000FFFF00000000FF000000000000000000000000000000000000000000000000000000FFFF00FF00000000000000000000000000
310
0000000000000000000000000000000000FF0000000000000000000000000000000000000000000000000000000000000000000000000000
102
{BLKREFS
331
763
102
}
1001
ACAD
1000
DesignCenter Data
1002
{
1070
     1
1070
     4
1002
}
  0
ENDTAB
  0
ENDSEC
  0
SECTION
  2
BLOCKS
  0
BLOCK
  5
20
330
1F
100
AcDbEntity
  8
0
100
AcDbBlockBegin
  2
*Model_Space
 70
     0
 10
0.0
 20
0.0
 30
0.0
  3
*Model_Space
  1

  0
ENDBLK
  5
21
330
1F
100
AcDbEntity
  8
0
100
AcDbBlockEnd
  0
BLOCK
  5
D4
330
D2
100
AcDbEntity
 67
     1
  8
0
100
AcDbBlockBegin
  2
*Paper_Space
 70
     0
 10
0.0
 20
0.0
 30
0.0
  3
*Paper_Space
  1

  0
ENDBLK
  5
D5
330
D2
100
AcDbEntity
 67
     1
  8
0
100
AcDbBlockEnd
  0
BLOCK
  5
D8
330
D6
100
AcDbEntity
 67
     1
  8
0
100
AcDbBlockBegin
  2
*Paper_Space0
 70
     0
 10
0.0
 20
0.0
 30
0.0
  3
*Paper_Space0
  1

  0
ENDBLK
  5
D9
330
D6
100
AcDbEntity
 67
     1
  8
0
100
AcDbBlockEnd
  0
BLOCK
  5
574
330
573
100
AcDbEntity
  8
0
100
AcDbBlockBegin
  2
1
 70
     0
 10
0.0
 20
0.0
 30
0.0
  3
1
  1

  0
LINE
  5
576
330
573
100
AcDbEntity
  8
0
  6
Continuous
 62
     7
370
    15
100
AcDbLine
 10
2426.978358651409
 20
826.8680956224539
 30
0.0
 11
2464.37835865141
 21
826.8680956224539
 31
0.0
  0
LINE
  5
577
330
573
100
AcDbEntity
  8
0
  6
Continuous
 62
     7
370
    15
100
AcDbLine
 10
2426.978358651409
 20
828.0680956224539
 30
0.0
 11
2426.978358651409
 21
826.8680956224539
 31
0.0
  0
LINE
  5
578
330
573
100
AcDbEntity
  8
0
  6
Continuous
 62
     7
370
    15
100
AcDbLine
 10
2464.37835865141
 20
828.0680956224539
 30
0.0
 11
2426.978358651409
 21
828.0680956224539
 31
0.0
  0
LINE
  5
579
330
573
100
AcDbEntity
  8
0
  6
Continuous
 62
     7
370
    15
100
AcDbLine
 10
2464.37835865141
 20
826.8680956224539
 30
0.0
 11
2464.37835865141
 21
828.0680956224539
 31
0.0
  0
LINE
  5
57A
330
573
100
AcDbEntity
  8
0
  6
Continuous
 62
     7
370
    15
100
AcDbLine
 10
2461.57835865141
 20
816.9680956224539
 30
0.0
 11
2458.57835865141
 21
816.9680956224539
 31
0.0
  0
LINE
  5
57B
330
573
100
AcDbEntity
  8
0
  6
Continuous
 62
     7
370
    15
100
AcDbLine
 10
2458.57835865141
 20
816.9680956224539
 30
0.0
 11
2458.57835865141
 21
818.2680956224539
 31
0.0
  0
LINE
  5
57C
330
573
100
AcDbEntity
  8
0
  6
Continuous
 62
     7
370
    15
100
AcDbLine
 10
2461.57835865141
 20
818.2680956224539
 30
0.0
 11
2458.57835865141
 21
818.2680956224539
 31
0.0
  0
LINE
  5
57D
330
573
100
AcDbEntity
  8
0
  6
Continuous
 62
     7
370
    15
100
AcDbLine
 10
2461.57835865141
 20
816.9680956224539
 30
0.0
 11
2461.57835865141
 21
818.2680956224539
 31
0.0
  0
LINE
  5
57E
330
573
100
AcDbEntity
  8
0
  6
Continuous
 62
     7
370
    15
100
AcDbLine
 10
2451.978358651409
 20
816.9680956224539
 30
0.0
 11
2448.97835865141
 21
816.9680956224539
 31
0.0
  0
LINE
  5
57F
330
573
100
AcDbEntity
  8
0
  6
Continuous
 62
     7
370
    15
100
AcDbLine
 10
2451.978358651409
 20
818.2680956224539
 30
0.0
 11
2448.97835865141
 21
818.2680956224539
 31
0.0
  0
LINE
  5
580
330
573
100
AcDbEntity
  8
0
  6
Continuous
 62
     7
370
    15
100
AcDbLine
 10
2451.978358651409
 20
816.9680956224539
 30
0.0
 11
2451.978358651409
 21
818.2680956224539
 31
0.0
  0
LINE
  5
581
330
573
100
AcDbEntity
  8
0
  6
Continuous
 62
     7
370
    15
100
AcDbLine
 10
2448.97835865141
 20
816.9680956224539
 30
0.0
 11
2448.97835865141
 21
818.2680956224539
 31
0.0
  0
LINE
  5
582
330
573
100
AcDbEntity
  8
0
  6
Continuous
 62
     7
370
    15
100
AcDbLine
 10
2442.37835865141
 20
818.2680956224539
 30
0.0
 11
2439.37835865141
 21
818.2680956224539
 31
0.0
  0
LINE
  5
583
330
573
100
AcDbEntity
  8
0
  6
Continuous
 62
     7
370
    15
100
AcDbLine
 10
2442.37835865141
 20
816.9680956224539
 30
0.0
 11
2439.37835865141
 21
816.9680956224539
 31
0.0
  0
LINE
  5
584
330
573
100
AcDbEntity
  8
0
  6
Continuous
 62
     7
370
    15
100
AcDbLine
 10
2442.37835865141
 20
816.9680956224539
 30
0.0
 11
2442.37835865141
 21
818.2680956224539
 31
0.0
  0
LINE
  5
585
330
573
100
AcDbEntity
  8
0
  6
Continuous
 62
     7
370
    15
100
AcDbLine
 10
2439.37835865141
 20
816.9680956224539
 30
0.0
 11
2439.37835865141
 21
818.2680956224539
 31
0.0
  0
LINE
  5
586
330
573
100
AcDbEntity
  8
0
  6
Continuous
 62
     7
370
    15
100
AcDbLine
 10
2432.77835865141
 20
818.2680956224539
 30
0.0
 11
2429.77835865141
 21
818.2680956224539
 31
0.0
  0
LINE
  5
587
330
573
100
AcDbEntity
  8
0
  6
Continuous
 62
     7
370
    15
100
AcDbLine
 10
2432.77835865141
 20
816.9680956224539
 30
0.0
 11
2432.77835865141
 21
818.2680956224539
 31
0.0
  0
LINE
  5
588
330
573
100
AcDbEntity
  8
0
  6
Continuous
 62
     7
370
    15
100
AcDbLine
 10
2432.77835865141
 20
816.9680956224539
 30
0.0
 11
2429.77835865141
 21
816.9680956224539
 31
0.0
  0
LINE
  5
589
330
573
100
AcDbEntity
  8
0
  6
Continuous
 62
     7
370
    15
100
AcDbLine
 10
2429.77835865141
 20
816.9680956224539
 30
0.0
 11
2429.77835865141
 21
818.2680956224539
 31
0.0
  0
ARC
  5
58A
330
573
100
AcDbEntity
  8
0
  6
Continuous
 62
     7
370
    15
100
AcDbCircle
 10
2453.17835865141
 20
817.2680956224539
 30
0.0
 40
0.5000000000000285
100
AcDbArc
 50
315.0000000000046
 51
0.0
  0
LINE
  5
58B
330
573
100
AcDbEntity
  8
0
  6
Continuous
 62
     7
370
    15
100
AcDbLine
 10
2453.53191204201
 20
816.9145422318539
 30
0.0
 11
2452.92480526081
 21
816.3074354506539
 31
0.0
  0
ARC
  5
58C
330
573
100
AcDbEntity
  8
0
  6
Continuous
 62
     7
370
    15
100
AcDbCircle
 10
2453.27835865141
 20
815.9538820600539
 30
0.0
 40
0.5000000000000569
100
AcDbArc
 50
135.0000000000046
 51
180.0
  0
LINE
  5
58D
330
573
100
AcDbEntity
  8
0
  6
Continuous
 62
     7
370
    15
100
AcDbLine
 10
2452.77835865141
 20
815.9538820600539
 30
0.0
 11
2452.77835865141
 21
813.9395142828538
 31
0.0
  0
LINE
  5
58E
330
573
100
AcDbEntity
  8
0
  6
Continuous
 62
     7
370
    15
100
AcDbLine
 10
2448.178358651409
 20
813.9395142828538
 30
0.0
 11
2452.77835865141
 21
813.9395142828538
 31
0.0
  0
LINE
  5
58F
330
573
100
AcDbEntity
  8
0
  6
Continuous
 62
     7
370
    15
100
AcDbLine
 10
2448.178358651409
 20
813.9395142828538
 30
0.0
 11
2448.178358651409
 21
815.9538820600539
 31
0.0
  0
ARC
  5
590
330
573
100
AcDbEntity
  8
0
  6
Continuous
 62
     7
370
    15
100
AcDbCircle
 10
2447.67835865141
 20
815.9538820600539
 30
0.0
 40
0.4999999999999433
100
AcDbArc
 50
0.0
 51
44.99999999999539
  0
LINE
  5
591
330
573
100
AcDbEntity
  8
0
  6
Continuous
 62
     7
370
    15
100
AcDbLine
 10
2448.03191204201
 20
816.3074354506539
 30
0.0
 11
2447.42480526081
 21
816.9145422318539
 31
0.0
  0
ARC
  5
592
330
573
100
AcDbEntity
  8
0
  6
Continuous
 62
     7
370
    15
100
AcDbCircle
 10
2447.77835865141
 20
817.2680956224539
 30
0.0
 40
0.4999999999999433
100
AcDbArc
 50
180.0
 51
224.9999999999954
  0
LINE
  5
593
330
573
100
AcDbEntity
  8
0
  6
Continuous
 62
     7
370
    15
100
AcDbLine
 10
2447.27835865141
 20
817.2680956224539
 30
0.0
 11
2447.27835865141
 21
820.4015025794539
 31
0.0
  0
LINE
  5
594
330
573
100
AcDbEntity
  8
0
  6
Continuous
 62
     7
370
    15
100
AcDbLine
 10
2447.27835865141
 20
820.4015025794539
 30
0.0
 11
2444.07835865141
 21
820.4015025794539
 31
0.0
  0
LINE
  5
595
330
573
100
AcDbEntity
  8
0
  6
Continuous
 62
     7
370
    15
100
AcDbLine
 10
2444.07835865141
 20
820.4015025794539
 30
0.0
 11
2444.07835865141
 21
817.2680956224539
 31
0.0
  0
ARC
  5
596
330
573
100
AcDbEntity
  8
0
  6
Continuous
 62
     7
370
    15
100
AcDbCircle
 10
2443.578358651409
 20
817.2680956224539
 30
0.0
 40
0.5000000000000443
100
AcDbArc
 50
315.0000000000046
 51
0.0
  0
LINE
  5
597
330
573
100
AcDbEntity
  8
0
  6
Continuous
 62
     7
370
    15
100
AcDbLine
 10
2443.931912042009
 20
816.9145422318539
 30
0.0
 11
2443.32480526081
 21
816.3074354506539
 31
0.0
  0
ARC
  5
598
330
573
100
AcDbEntity
  8
0
  6
Continuous
 62
     7
370
    15
100
AcDbCircle
 10
2443.678358651409
 20
815.9538820600539
 30
0.0
 40
0.5000000000000569
100
AcDbArc
 50
135.0000000000046
 51
180.0
  0
LINE
  5
599
330
573
100
AcDbEntity
  8
0
  6
Continuous
 62
     7
370
    15
100
AcDbLine
 10
2443.178358651409
 20
815.9538820600539
 30
0.0
 11
2443.178358651409
 21
813.9395142828538
 31
0.0
  0
LINE
  5
59A
330
573
100
AcDbEntity
  8
0
  6
Continuous
 62
     7
370
    15
100
AcDbLine
 10
2438.57835865141
 20
813.9395142828538
 30
0.0
 11
2443.178358651409
 21
813.9395142828538
 31
0.0
  0
LINE
  5
59B
330
573
100
AcDbEntity
  8
0
  6
Continuous
 62
     7
370
    15
100
AcDbLine
 10
2438.57835865141
 20
813.9395142828538
 30
0.0
 11
2438.57835865141
 21
815.9538820600539
 31
0.0
  0
ARC
  5
59C
330
573
100
AcDbEntity
  8
0
  6
Continuous
 62
     7
370
    15
100
AcDbCircle
 10
2438.07835865141
 20
815.9538820600539
 30
0.0
 40
0.4999999999999433
100
AcDbArc
 50
0.0
 51
44.99999999999539
  0
LINE
  5
59D
330
573
100
AcDbEntity
  8
0
  6
Continuous
 62
     7
370
    15
100
AcDbLine
 10
2438.431912042009
 20
816.3074354506539
 30
0.0
 11
2437.82480526081
 21
816.9145422318539
 31
0.0
  0
ARC
  5
59E
330
573
100
AcDbEntity
  8
0
  6
Continuous
 62
     7
370
    15
100
AcDbCircle
 10
2438.17835865141
 20
817.2680956224539
 30
0.0
 40
0.4999999999999539
100
AcDbArc
 50
180.0
 51
224.9999999999954
  0
LINE
  5
59F
330
573
100
AcDbEntity
  8
0
  6
Continuous
 62
     7
370
    15
100
AcDbLine
 10
2437.678358651409
 20
817.2680956224539
 30
0.0
 11
2437.678358651409
 21
820.4015025794539
 31
0.0
  0
LINE
  5
5A0
330
573
100
AcDbEntity
  8
0
  6
Continuous
 62
     7
370
    15
100
AcDbLine
 10
2437.678358651409
 20
820.4015025794539
 30
0.0
 11
2434.47835865141
 21
820.4015025794539
 31
0.0
  0
LINE
  5
5A1
330
573
100
AcDbEntity
  8
0
  6
Continuous
 62
     7
370
    15
100
AcDbLine
 10
2434.47835865141
 20
820.4015025794539
 30
0.0
 11
2434.47835865141
 21
817.2680956224539
 31
0.0
  0
ARC
  5
5A2
330
573
100
AcDbEntity
  8
0
  6
Continuous
 62
     7
370
    15
100
AcDbCircle
 10
2433.97835865141
 20
817.2680956224539
 30
0.0
 40
0.5000000000000543
100
AcDbArc
 50
315.0000000000046
 51
0.0
  0
LINE
  5
5A3
330
573
100
AcDbEntity
  8
0
  6
Continuous
 62
     7
370
    15
100
AcDbLine
 10
2434.33191204201
 20
816.9145422318539
 30
0.0
 11
2433.72480526081
 21
816.3074354506539
 31
0.0
  0
ARC
  5
5A4
330
573
100
AcDbEntity
  8
0
  6
Continuous
 62
     7
370
    15
100
AcDbCircle
 10
2434.07835865141
 20
815.9538820600539
 30
0.0
 40
0.5000000000000427
100
AcDbArc
 50
135.0000000000046
 51
180.0
  0
LINE
  5
5A5
330
573
100
AcDbEntity
  8
0
  6
Continuous
 62
     7
370
    15
100
AcDbLine
 10
2433.57835865141
 20
815.9538820600539
 30
0.0
 11
2433.57835865141
 21
813.9395142828538
 31
0.0
  0
LINE
  5
5A6
330
573
100
AcDbEntity
  8
0
  6
Continuous
 62
     7
370
    15
100
AcDbLine
 10
2428.97835865141
 20
813.9395142828538
 30
0.0
 11
2433.57835865141
 21
813.9395142828538
 31
0.0
  0
LINE
  5
5A7
330
573
100
AcDbEntity
  8
0
  6
Continuous
 62
     7
370
    15
100
AcDbLine
 10
2428.97835865141
 20
813.9395142828538
 30
0.0
 11
2428.97835865141
 21
815.9538820600539
 31
0.0
  0
ARC
  5
5A8
330
573
100
AcDbEntity
  8
0
  6
Continuous
 62
     7
370
    15
100
AcDbCircle
 10
2428.47835865141
 20
815.9538820600539
 30
0.0
 40
0.4999999999998734
100
AcDbArc
 50
0.0
 51
44.99999999999539
  0
LINE
  5
5A9
330
573
100
AcDbEntity
  8
0
  6
Continuous
 62
     7
370
    15
100
AcDbLine
 10
2428.83191204201
 20
816.3074354506539
 30
0.0
 11
2428.22480526081
 21
816.9145422318539
 31
0.0
  0
ARC
  5
5AA
330
573
100
AcDbEntity
  8
0
  6
Continuous
 62
     7
370
    15
100
AcDbCircle
 10
2428.57835865141
 20
817.2680956224539
 30
0.0
 40
0.4999999999999739
100
AcDbArc
 50
180.0
 51
224.9999999999954
  0
LINE
  5
5AB
330
573
100
AcDbEntity
  8
0
  6
Continuous
 62
     7
370
    15
100
AcDbLine
 10
2428.07835865141
 20
817.2680956224539
 30
0.0
 11
2428.07835865141
 21
820.4015025794539
 31
0.0
  0
LINE
  5
5AC
330
573
100
AcDbEntity
  8
0
  6
Continuous
 62
     7
370
    15
100
AcDbLine
 10
2428.07835865141
 20
820.4015025794539
 30
0.0
 11
2426.978358651409
 21
820.4015025794539
 31
0.0
  0
LINE
  5
5AD
330
573
100
AcDbEntity
  8
0
  6
Continuous
 62
     7
370
    15
100
AcDbLine
 10
2463.27835865141
 20
820.4015025794539
 30
0.0
 11
2464.37835865141
 21
820.4015025794539
 31
0.0
  0
LINE
  5
5AE
330
573
100
AcDbEntity
  8
0
  6
Continuous
 62
     7
370
    15
100
AcDbLine
 10
2463.27835865141
 20
820.4015025794539
 30
0.0
 11
2463.27835865141
 21
817.2680956224539
 31
0.0
  0
ARC
  5
5AF
330
573
100
AcDbEntity
  8
0
  6
Continuous
 62
     7
370
    15
100
AcDbCircle
 10
2462.77835865141
 20
817.2680956224539
 30
0.0
 40
0.5000000000000285
100
AcDbArc
 50
315.0000000000046
 51
0.0
  0
LINE
  5
5B0
330
573
100
AcDbEntity
  8
0
  6
Continuous
 62
     7
370
    15
100
AcDbLine
 10
2463.13191204201
 20
816.9145422318539
 30
0.0
 11
2462.52480526081
 21
816.3074354506539
 31
0.0
  0
ARC
  5
5B1
330
573
100
AcDbEntity
  8
0
  6
Continuous
 62
     7
370
    15
100
AcDbCircle
 10
2462.87835865141
 20
815.9538820600539
 30
0.0
 40
0.5000000000000569
100
AcDbArc
 50
135.0000000000046
 51
180.0
  0
LINE
  5
5B2
330
573
100
AcDbEntity
  8
0
  6
Continuous
 62
     7
370
    15
100
AcDbLine
 10
2462.37835865141
 20
815.9538820600539
 30
0.0
 11
2462.37835865141
 21
813.9395142828538
 31
0.0
  0
LINE
  5
5B3
330
573
100
AcDbEntity
  8
0
  6
Continuous
 62
     7
370
    15
100
AcDbLine
 10
2457.77835865141
 20
813.9395142828538
 30
0.0
 11
2462.37835865141
 21
813.9395142828538
 31
0.0
  0
LINE
  5
5B4
330
573
100
AcDbEntity
  8
0
  6
Continuous
 62
     7
370
    15
100
AcDbLine
 10
2457.77835865141
 20
813.9395142828538
 30
0.0
 11
2457.77835865141
 21
815.9538820600539
 31
0.0
  0
ARC
  5
5B5
330
573
100
AcDbEntity
  8
0
  6
Continuous
 62
     7
370
    15
100
AcDbCircle
 10
2457.27835865141
 20
815.9538820600539
 30
0.0
 40
0.4999999999999433
100
AcDbArc
 50
0.0
 51
44.99999999999539
  0
LINE
  5
5B6
330
573
100
AcDbEntity
  8
0
  6
Continuous
 62
     7
370
    15
100
AcDbLine
 10
2457.63191204201
 20
816.3074354506539
 30
0.0
 11
2457.02480526081
 21
816.9145422318539
 31
0.0
  0
ARC
  5
5B7
330
573
100
AcDbEntity
  8
0
  6
Continuous
 62
     7
370
    15
100
AcDbCircle
 10
2457.37835865141
 20
817.2680956224539
 30
0.0
 40
0.4999999999999433
100
AcDbArc
 50
180.0
 51
224.9999999999954
  0
LINE
  5
5B8
330
573
100
AcDbEntity
  8
0
  6
Continuous
 62
     7
370
    15
100
AcDbLine
 10
2456.87835865141
 20
817.2680956224539
 30
0.0
 11
2456.87835865141
 21
820.4015025794539
 31
0.0
  0
LINE
  5
5B9
330
573
100
AcDbEntity
  8
0
  6
Continuous
 62
     7
370
    15
100
AcDbLine
 10
2453.678358651409
 20
820.4015025794539
 30
0.0
 11
2456.87835865141
 21
820.4015025794539
 31
0.0
  0
LINE
  5
5BA
330
573
100
AcDbEntity
  8
0
  6
Continuous
 62
     7
370
    15
100
AcDbLine
 10
2453.678358651409
 20
820.4015025794539
 30
0.0
 11
2453.678358651409
 21
817.2680956224539
 31
0.0
  0
LINE
  5
5BB
330
573
100
AcDbEntity
  8
0
  6
Continuous
 62
     7
370
    15
100
AcDbLine
 10
2426.978358651409
 20
820.4015025794539
 30
0.0
 11
2426.978358651409
 21
826.8680956224539
 31
0.0
  0
LINE
  5
5BC
330
573
100
AcDbEntity
  8
0
  6
Continuous
 62
     7
370
    15
100
AcDbLine
 10
2464.37835865141
 20
826.8680956224539
 30
0.0
 11
2464.37835865141
 21
820.4015025794539
 31
0.0
  0
LINE
  5
5BD
330
573
100
AcDbEntity
  8
0
  6
Continuous
 62
     7
370
    15
100
AcDbLine
 10
2462.02835865141
 20
813.5895142828539
 30
0.0
 11
2462.37835865141
 21
813.9395142828538
 31
0.0
  0
LINE
  5
5BE
330
573
100
AcDbEntity
  8
0
  6
Continuous
 62
     7
370
    15
100
AcDbLine
 10
2462.02835865141
 20
813.5895142828539
 30
0.0
 11
2458.12835865141
 21
813.5895142828539
 31
0.0
  0
LINE
  5
5BF
330
573
100
AcDbEntity
  8
0
  6
Continuous
 62
     7
370
    15
100
AcDbLine
 10
2457.77835865141
 20
813.9395142828538
 30
0.0
 11
2458.12835865141
 21
813.5895142828539
 31
0.0
  0
LINE
  5
5C0
330
573
100
AcDbEntity
  8
0
  6
Continuous
 62
     7
370
    15
100
AcDbLine
 10
2452.42835865141
 20
813.5895142828539
 30
0.0
 11
2452.77835865141
 21
813.9395142828538
 31
0.0
  0
LINE
  5
5C1
330
573
100
AcDbEntity
  8
0
  6
Continuous
 62
     7
370
    15
100
AcDbLine
 10
2452.42835865141
 20
813.5895142828539
 30
0.0
 11
2448.52835865141
 21
813.5895142828539
 31
0.0
  0
LINE
  5
5C2
330
573
100
AcDbEntity
  8
0
  6
Continuous
 62
     7
370
    15
100
AcDbLine
 10
2448.178358651409
 20
813.9395142828538
 30
0.0
 11
2448.52835865141
 21
813.5895142828539
 31
0.0
  0
LINE
  5
5C3
330
573
100
AcDbEntity
  8
0
  6
Continuous
 62
     7
370
    15
100
AcDbLine
 10
2442.828358651409
 20
813.5895142828539
 30
0.0
 11
2443.178358651409
 21
813.9395142828538
 31
0.0
  0
LINE
  5
5C4
330
573
100
AcDbEntity
  8
0
  6
Continuous
 62
     7
370
    15
100
AcDbLine
 10
2442.828358651409
 20
813.5895142828539
 30
0.0
 11
2438.92835865141
 21
813.5895142828539
 31
0.0
  0
LINE
  5
5C5
330
573
100
AcDbEntity
  8
0
  6
Continuous
 62
     7
370
    15
100
AcDbLine
 10
2438.57835865141
 20
813.9395142828538
 30
0.0
 11
2438.92835865141
 21
813.5895142828539
 31
0.0
  0
LINE
  5
5C6
330
573
100
AcDbEntity
  8
0
  6
Continuous
 62
     7
370
    15
100
AcDbLine
 10
2433.22835865141
 20
813.5895142828539
 30
0.0
 11
2433.57835865141
 21
813.9395142828538
 31
0.0
  0
LINE
  5
5C7
330
573
100
AcDbEntity
  8
0
  6
Continuous
 62
     7
370
    15
100
AcDbLine
 10
2433.22835865141
 20
813.5895142828539
 30
0.0
 11
2429.328358651409
 21
813.5895142828539
 31
0.0
  0
LINE
  5
5C8
330
573
100
AcDbEntity
  8
0
  6
Continuous
 62
     7
370
    15
100
AcDbLine
 10
2428.97835865141
 20
813.9395142828538
 30
0.0
 11
2429.328358651409
 21
813.5895142828539
 31
0.0
  0
LINE
  5
5C9
330
573
100
AcDbEntity
  8
0
  6
Continuous
 62
     7
370
    15
100
AcDbLine
 10
2458.57835865141
 20
811.8395142828539
 30
0.0
 11
2461.57835865141
 21
811.8395142828539
 31
0.0
  0
LINE
  5
5CA
330
573
100
AcDbEntity
  8
0
  6
Continuous
 62
     7
370
    15
100
AcDbLine
 10
2458.57835865141
 20
812.0895142828539
 30
0.0
 11
2458.57835865141
 21
811.8395142828539
 31
0.0
  0
LINE
  5
5CB
330
573
100
AcDbEntity
  8
0
  6
Continuous
 62
     7
370
    15
100
AcDbLine
 10
2461.57835865141
 20
812.0895142828539
 30
0.0
 11
2458.57835865141
 21
812.0895142828539
 31
0.0
  0
LINE
  5
5CC
330
573
100
AcDbEntity
  8
0
  6
Continuous
 62
     7
370
    15
100
AcDbLine
 10
2461.57835865141
 20
811.8395142828539
 30
0.0
 11
2461.57835865141
 21
812.0895142828539
 31
0.0
  0
LINE
  5
5CD
330
573
100
AcDbEntity
  8
0
  6
Continuous
 62
     7
370
    15
100
AcDbLine
 10
2461.23953688491
 20
804.1432881833539
 30
0.0
 11
2461.57835865141
 21
806.0648419076539
 31
0.0
  0
ARC
  5
5CE
330
573
100
AcDbEntity
  8
0
  6
Continuous
 62
     7
370
    15
100
AcDbCircle
 10
2460.55017145781
 20
804.2648419076538
 30
0.0
 40
0.7000000000000172
100
AcDbArc
 50
270.0
 51
350.0000000000025
  0
LINE
  5
5CF
330
573
100
AcDbEntity
  8
0
  6
Continuous
 62
     7
370
    15
100
AcDbLine
 10
2459.60654584501
 20
803.5648419076538
 30
0.0
 11
2460.55017145781
 21
803.5648419076538
 31
0.0
  0
ARC
  5
5D0
330
573
100
AcDbEntity
  8
0
  6
Continuous
 62
     7
370
    15
100
AcDbCircle
 10
2459.60654584501
 20
804.2648419076538
 30
0.0
 40
0.7000000000000344
100
AcDbArc
 50
189.9999999999975
 51
270.0
  0
LINE
  5
5D1
330
573
100
AcDbEntity
  8
0
  6
Continuous
 62
     7
370
    15
100
AcDbLine
 10
2458.57835865141
 20
806.0648419076539
 30
0.0
 11
2458.917180417909
 21
804.1432881833539
 31
0.0
  0
LINE
  5
5D2
330
573
100
AcDbEntity
  8
0
  6
Continuous
 62
     7
370
    15
100
AcDbLine
 10
2458.57835865141
 20
811.8395142828539
 30
0.0
 11
2458.57835865141
 21
806.0648419076539
 31
0.0
  0
LINE
  5
5D3
330
573
100
AcDbEntity
  8
0
  6
Continuous
 62
     7
370
    15
100
AcDbLine
 10
2461.57835865141
 20
806.0648419076539
 30
0.0
 11
2461.57835865141
 21
811.8395142828539
 31
0.0
  0
LINE
  5
5D4
330
573
100
AcDbEntity
  8
0
  6
Continuous
 62
     7
370
    15
100
AcDbLine
 10
2448.97835865141
 20
811.8395142828539
 30
0.0
 11
2451.978358651409
 21
811.8395142828539
 31
0.0
  0
LINE
  5
5D5
330
573
100
AcDbEntity
  8
0
  6
Continuous
 62
     7
370
    15
100
AcDbLine
 10
2448.97835865141
 20
812.0895142828539
 30
0.0
 11
2448.97835865141
 21
811.8395142828539
 31
0.0
  0
LINE
  5
5D6
330
573
100
AcDbEntity
  8
0
  6
Continuous
 62
     7
370
    15
100
AcDbLine
 10
2451.978358651409
 20
812.0895142828539
 30
0.0
 11
2448.97835865141
 21
812.0895142828539
 31
0.0
  0
LINE
  5
5D7
330
573
100
AcDbEntity
  8
0
  6
Continuous
 62
     7
370
    15
100
AcDbLine
 10
2451.978358651409
 20
811.8395142828539
 30
0.0
 11
2451.978358651409
 21
812.0895142828539
 31
0.0
  0
LINE
  5
5D8
330
573
100
AcDbEntity
  8
0
  6
Continuous
 62
     7
370
    15
100
AcDbLine
 10
2451.639536884909
 20
804.1432881833539
 30
0.0
 11
2451.978358651409
 21
806.0648419076539
 31
0.0
  0
ARC
  5
5D9
330
573
100
AcDbEntity
  8
0
  6
Continuous
 62
     7
370
    15
100
AcDbCircle
 10
2450.95017145781
 20
804.2648419076538
 30
0.0
 40
0.7000000000000359
100
AcDbArc
 50
270.0
 51
350.0000000000025
  0
LINE
  5
5DA
330
573
100
AcDbEntity
  8
0
  6
Continuous
 62
     7
370
    15
100
AcDbLine
 10
2450.00654584501
 20
803.5648419076538
 30
0.0
 11
2450.95017145781
 21
803.5648419076538
 31
0.0
  0
ARC
  5
5DB
330
573
100
AcDbEntity
  8
0
  6
Continuous
 62
     7
370
    15
100
AcDbCircle
 10
2450.00654584501
 20
804.2648419076538
 30
0.0
 40
0.7000000000000344
100
AcDbArc
 50
189.9999999999975
 51
270.0
  0
LINE
  5
5DC
330
573
100
AcDbEntity
  8
0
  6
Continuous
 62
     7
370
    15
100
AcDbLine
 10
2448.97835865141
 20
806.0648419076539
 30
0.0
 11
2449.31718041791
 21
804.1432881833539
 31
0.0
  0
LINE
  5
5DD
330
573
100
AcDbEntity
  8
0
  6
Continuous
 62
     7
370
    15
100
AcDbLine
 10
2448.97835865141
 20
811.8395142828539
 30
0.0
 11
2448.97835865141
 21
806.0648419076539
 31
0.0
  0
LINE
  5
5DE
330
573
100
AcDbEntity
  8
0
  6
Continuous
 62
     7
370
    15
100
AcDbLine
 10
2451.978358651409
 20
806.0648419076539
 30
0.0
 11
2451.978358651409
 21
811.8395142828539
 31
0.0
  0
LINE
  5
5DF
330
573
100
AcDbEntity
  8
0
  6
Continuous
 62
     7
370
    15
100
AcDbLine
 10
2429.77835865141
 20
811.8395142828539
 30
0.0
 11
2432.77835865141
 21
811.8395142828539
 31
0.0
  0
LINE
  5
5E0
330
573
100
AcDbEntity
  8
0
  6
Continuous
 62
     7
370
    15
100
AcDbLine
 10
2429.77835865141
 20
812.0895142828539
 30
0.0
 11
2429.77835865141
 21
811.8395142828539
 31
0.0
  0
LINE
  5
5E1
330
573
100
AcDbEntity
  8
0
  6
Continuous
 62
     7
370
    15
100
AcDbLine
 10
2432.77835865141
 20
812.0895142828539
 30
0.0
 11
2429.77835865141
 21
812.0895142828539
 31
0.0
  0
LINE
  5
5E2
330
573
100
AcDbEntity
  8
0
  6
Continuous
 62
     7
370
    15
100
AcDbLine
 10
2432.77835865141
 20
811.8395142828539
 30
0.0
 11
2432.77835865141
 21
812.0895142828539
 31
0.0
  0
LINE
  5
5E3
330
573
100
AcDbEntity
  8
0
  6
Continuous
 62
     7
370
    15
100
AcDbLine
 10
2439.37835865141
 20
811.8395142828539
 30
0.0
 11
2442.37835865141
 21
811.8395142828539
 31
0.0
  0
LINE
  5
5E4
330
573
100
AcDbEntity
  8
0
  6
Continuous
 62
     7
370
    15
100
AcDbLine
 10
2439.37835865141
 20
812.0895142828539
 30
0.0
 11
2439.37835865141
 21
811.8395142828539
 31
0.0
  0
LINE
  5
5E5
330
573
100
AcDbEntity
  8
0
  6
Continuous
 62
     7
370
    15
100
AcDbLine
 10
2442.37835865141
 20
812.0895142828539
 30
0.0
 11
2439.37835865141
 21
812.0895142828539
 31
0.0
  0
LINE
  5
5E6
330
573
100
AcDbEntity
  8
0
  6
Continuous
 62
     7
370
    15
100
AcDbLine
 10
2442.37835865141
 20
811.8395142828539
 30
0.0
 11
2442.37835865141
 21
812.0895142828539
 31
0.0
  0
LINE
  5
5E7
330
573
100
AcDbEntity
  8
0
  6
Continuous
 62
     7
370
    15
100
AcDbLine
 10
2432.43953688491
 20
804.1432881833539
 30
0.0
 11
2432.77835865141
 21
806.0648419076539
 31
0.0
  0
ARC
  5
5E8
330
573
100
AcDbEntity
  8
0
  6
Continuous
 62
     7
370
    15
100
AcDbCircle
 10
2431.750171457809
 20
804.2648419076538
 30
0.0
 40
0.7000000000000031
100
AcDbArc
 50
270.0
 51
350.0000000000025
  0
LINE
  5
5E9
330
573
100
AcDbEntity
  8
0
  6
Continuous
 62
     7
370
    15
100
AcDbLine
 10
2430.80654584501
 20
803.5648419076538
 30
0.0
 11
2431.750171457809
 21
803.5648419076538
 31
0.0
  0
ARC
  5
5EA
330
573
100
AcDbEntity
  8
0
  6
Continuous
 62
     7
370
    15
100
AcDbCircle
 10
2430.80654584501
 20
804.2648419076538
 30
0.0
 40
0.7000000000000015
100
AcDbArc
 50
189.9999999999975
 51
270.0
  0
LINE
  5
5EB
330
573
100
AcDbEntity
  8
0
  6
Continuous
 62
     7
370
    15
100
AcDbLine
 10
2429.77835865141
 20
806.0648419076539
 30
0.0
 11
2430.11718041791
 21
804.1432881833539
 31
0.0
  0
LINE
  5
5EC
330
573
100
AcDbEntity
  8
0
  6
Continuous
 62
     7
370
    15
100
AcDbLine
 10
2429.77835865141
 20
811.8395142828539
 30
0.0
 11
2429.77835865141
 21
806.0648419076539
 31
0.0
  0
LINE
  5
5ED
330
573
100
AcDbEntity
  8
0
  6
Continuous
 62
     7
370
    15
100
AcDbLine
 10
2432.77835865141
 20
806.0648419076539
 30
0.0
 11
2432.77835865141
 21
811.8395142828539
 31
0.0
  0
LINE
  5
5EE
330
573
100
AcDbEntity
  8
0
  6
Continuous
 62
     7
370
    15
100
AcDbLine
 10
2442.03953688491
 20
804.1432881833539
 30
0.0
 11
2442.37835865141
 21
806.0648419076539
 31
0.0
  0
ARC
  5
5EF
330
573
100
AcDbEntity
  8
0
  6
Continuous
 62
     7
370
    15
100
AcDbCircle
 10
2441.35017145781
 20
804.2648419076538
 30
0.0
 40
0.7000000000000359
100
AcDbArc
 50
270.0
 51
350.0000000000025
  0
LINE
  5
5F0
330
573
100
AcDbEntity
  8
0
  6
Continuous
 62
     7
370
    15
100
AcDbLine
 10
2440.406545845009
 20
803.5648419076538
 30
0.0
 11
2441.35017145781
 21
803.5648419076538
 31
0.0
  0
ARC
  5
5F1
330
573
100
AcDbEntity
  8
0
  6
Continuous
 62
     7
370
    15
100
AcDbCircle
 10
2440.406545845009
 20
804.2648419076538
 30
0.0
 40
0.7000000000000064
100
AcDbArc
 50
189.9999999999975
 51
270.0
  0
LINE
  5
5F2
330
573
100
AcDbEntity
  8
0
  6
Continuous
 62
     7
370
    15
100
AcDbLine
 10
2439.37835865141
 20
806.0648419076539
 30
0.0
 11
2439.71718041791
 21
804.1432881833539
 31
0.0
  0
LINE
  5
5F3
330
573
100
AcDbEntity
  8
0
  6
Continuous
 62
     7
370
    15
100
AcDbLine
 10
2439.37835865141
 20
811.8395142828539
 30
0.0
 11
2439.37835865141
 21
806.0648419076539
 31
0.0
  0
LINE
  5
5F4
330
573
100
AcDbEntity
  8
0
  6
Continuous
 62
     7
370
    15
100
AcDbLine
 10
2442.37835865141
 20
806.0648419076539
 30
0.0
 11
2442.37835865141
 21
811.8395142828539
 31
0.0
  0
LINE
  5
5F5
330
573
100
AcDbEntity
  8
0
  6
Continuous
 62
     7
370
    15
100
AcDbLine
 10
2458.57835865141
 20
812.3395142828538
 30
0.0
 11
2461.57835865141
 21
812.3395142828538
 31
0.0
  0
LINE
  5
5F6
330
573
100
AcDbEntity
  8
0
  6
Continuous
 62
     7
370
    15
100
AcDbLine
 10
2458.57835865141
 20
812.3395142828538
 30
0.0
 11
2458.57835865141
 21
812.0895142828539
 31
0.0
  0
LINE
  5
5F7
330
573
100
AcDbEntity
  8
0
  6
Continuous
 62
     7
370
    15
100
AcDbLine
 10
2461.57835865141
 20
812.0895142828539
 30
0.0
 11
2461.57835865141
 21
812.3395142828538
 31
0.0
  0
LINE
  5
5F8
330
573
100
AcDbEntity
  8
0
  6
Continuous
 62
     7
370
    15
100
AcDbLine
 10
2448.97835865141
 20
812.3395142828538
 30
0.0
 11
2451.978358651409
 21
812.3395142828538
 31
0.0
  0
LINE
  5
5F9
330
573
100
AcDbEntity
  8
0
  6
Continuous
 62
     7
370
    15
100
AcDbLine
 10
2448.97835865141
 20
812.3395142828538
 30
0.0
 11
2448.97835865141
 21
812.0895142828539
 31
0.0
  0
LINE
  5
5FA
330
573
100
AcDbEntity
  8
0
  6
Continuous
 62
     7
370
    15
100
AcDbLine
 10
2451.978358651409
 20
812.0895142828539
 30
0.0
 11
2451.978358651409
 21
812.3395142828538
 31
0.0
  0
LINE
  5
5FB
330
573
100
AcDbEntity
  8
0
  6
Continuous
 62
     7
370
    15
100
AcDbLine
 10
2429.77835865141
 20
812.3395142828538
 30
0.0
 11
2432.77835865141
 21
812.3395142828538
 31
0.0
  0
LINE
  5
5FC
330
573
100
AcDbEntity
  8
0
  6
Continuous
 62
     7
370
    15
100
AcDbLine
 10
2429.77835865141
 20
812.3395142828538
 30
0.0
 11
2429.77835865141
 21
812.0895142828539
 31
0.0
  0
LINE
  5
5FD
330
573
100
AcDbEntity
  8
0
  6
Continuous
 62
     7
370
    15
100
AcDbLine
 10
2432.77835865141
 20
812.0895142828539
 30
0.0
 11
2432.77835865141
 21
812.3395142828538
 31
0.0
  0
LINE
  5
5FE
330
573
100
AcDbEntity
  8
0
  6
Continuous
 62
     7
370
    15
100
AcDbLine
 10
2439.37835865141
 20
812.3395142828538
 30
0.0
 11
2442.37835865141
 21
812.3395142828538
 31
0.0
  0
LINE
  5
5FF
330
573
100
AcDbEntity
  8
0
  6
Continuous
 62
     7
370
    15
100
AcDbLine
 10
2439.37835865141
 20
812.3395142828538
 30
0.0
 11
2439.37835865141
 21
812.0895142828539
 31
0.0
  0
LINE
  5
600
330
573
100
AcDbEntity
  8
0
  6
Continuous
 62
     7
370
    15
100
AcDbLine
 10
2442.37835865141
 20
812.0895142828539
 30
0.0
 11
2442.37835865141
 21
812.3395142828538
 31
0.0
  0
LINE
  5
601
330
573
100
AcDbEntity
  8
0
  6
Continuous
 62
     7
370
    15
100
AcDbLine
 10
2458.57835865141
 20
813.5895142828539
 30
0.0
 11
2458.57835865141
 21
812.3395142828538
 31
0.0
  0
LINE
  5
602
330
573
100
AcDbEntity
  8
0
  6
Continuous
 62
     7
370
    15
100
AcDbLine
 10
2461.57835865141
 20
812.3395142828538
 30
0.0
 11
2461.57835865141
 21
813.5895142828539
 31
0.0
  0
LINE
  5
603
330
573
100
AcDbEntity
  8
0
  6
Continuous
 62
     7
370
    15
100
AcDbLine
 10
2448.97835865141
 20
813.5895142828539
 30
0.0
 11
2448.97835865141
 21
812.3395142828538
 31
0.0
  0
LINE
  5
604
330
573
100
AcDbEntity
  8
0
  6
Continuous
 62
     7
370
    15
100
AcDbLine
 10
2451.978358651409
 20
812.3395142828538
 30
0.0
 11
2451.978358651409
 21
813.5895142828539
 31
0.0
  0
LINE
  5
605
330
573
100
AcDbEntity
  8
0
  6
Continuous
 62
     7
370
    15
100
AcDbLine
 10
2439.37835865141
 20
813.5895142828539
 30
0.0
 11
2439.37835865141
 21
812.3395142828538
 31
0.0
  0
LINE
  5
606
330
573
100
AcDbEntity
  8
0
  6
Continuous
 62
     7
370
    15
100
AcDbLine
 10
2442.37835865141
 20
812.3395142828538
 30
0.0
 11
2442.37835865141
 21
813.5895142828539
 31
0.0
  0
LINE
  5
607
330
573
100
AcDbEntity
  8
0
  6
Continuous
 62
     7
370
    15
100
AcDbLine
 10
2429.77835865141
 20
813.5895142828539
 30
0.0
 11
2429.77835865141
 21
812.3395142828538
 31
0.0
  0
LINE
  5
608
330
573
100
AcDbEntity
  8
0
  6
Continuous
 62
     7
370
    15
100
AcDbLine
 10
2432.77835865141
 20
812.3395142828538
 30
0.0
 11
2432.77835865141
 21
813.5895142828539
 31
0.0
  0
ENDBLK
  5
575
330
573
100
AcDbEntity
  8
0
100
AcDbBlockEnd
  0
BLOCK
  5
60B
330
60A
100
AcDbEntity
  8
0
100
AcDbBlockBegin
  2
2
 70
     0
 10
0.0
 20
0.0
 30
0.0
  3
2
  1

  0
LINE
  5
60D
330
60A
100
AcDbEntity
  8
0
  6
Continuous
 62
     7
370
    15
100
AcDbLine
 10
2416.24706251271
 20
826.8680956224539
 30
0.0
 11
2415.49706251271
 21
826.8680956224539
 31
0.0
  0
LINE
  5
60E
330
60A
100
AcDbEntity
  8
0
  6
Continuous
 62
     7
370
    15
100
AcDbLine
 10
2415.49706251271
 20
826.8680956224539
 30
0.0
 11
2415.49706251271
 21
828.0680956224539
 31
0.0
  0
LINE
  5
60F
330
60A
100
AcDbEntity
  8
0
  6
Continuous
 62
     7
370
    15
100
AcDbLine
 10
2419.99706251271
 20
828.0680956224539
 30
0.0
 11
2415.49706251271
 21
828.0680956224539
 31
0.0
  0
LINE
  5
610
330
60A
100
AcDbEntity
  8
0
  6
Continuous
 62
     7
370
    15
100
AcDbLine
 10
2419.99706251271
 20
826.8680956224539
 30
0.0
 11
2419.99706251271
 21
828.0680956224539
 31
0.0
  0
LINE
  5
611
330
60A
100
AcDbEntity
  8
0
  6
Continuous
 62
     7
370
    15
100
AcDbLine
 10
2419.99706251271
 20
826.8680956224539
 30
0.0
 11
2419.24706251271
 21
826.8680956224539
 31
0.0
  0
LINE
  5
612
330
60A
100
AcDbEntity
  8
0
  6
Continuous
 62
     7
370
    15
100
AcDbLine
 10
2419.24706251271
 20
820.4015025794539
 30
0.0
 11
2419.24706251271
 21
826.8680956224539
 31
0.0
  0
LINE
  5
613
330
60A
100
AcDbEntity
  8
0
  6
Continuous
 62
     7
370
    15
100
AcDbLine
 10
2416.24706251271
 20
820.4015025794539
 30
0.0
 11
2419.24706251271
 21
820.4015025794539
 31
0.0
  0
LINE
  5
614
330
60A
100
AcDbEntity
  8
0
  6
Continuous
 62
     7
370
    15
100
AcDbLine
 10
2416.24706251271
 20
826.8680956224539
 30
0.0
 11
2416.24706251271
 21
820.4015025794539
 31
0.0
  0
LINE
  5
615
330
60A
100
AcDbEntity
  8
0
  6
Continuous
 62
     7
370
    15
100
AcDbLine
 10
2416.24706251271
 20
817.2680956224539
 30
0.0
 11
2419.24706251271
 21
817.2680956224539
 31
0.0
  0
LINE
  5
616
330
60A
100
AcDbEntity
  8
0
  6
Continuous
 62
     7
370
    15
100
AcDbLine
 10
2416.24706251271
 20
820.4015025794539
 30
0.0
 11
2416.24706251271
 21
817.2680956224539
 31
0.0
  0
LINE
  5
617
330
60A
100
AcDbEntity
  8
0
  6
Continuous
 62
     7
370
    15
100
AcDbLine
 10
2419.24706251271
 20
817.2680956224539
 30
0.0
 11
2419.24706251271
 21
820.4015025794539
 31
0.0
  0
LINE
  5
618
330
60A
100
AcDbEntity
  8
0
  6
Continuous
 62
     7
370
    15
100
AcDbLine
 10
2416.24706251271
 20
816.9145422318539
 30
0.0
 11
2419.24706251271
 21
816.9145422318539
 31
0.0
  0
LINE
  5
619
330
60A
100
AcDbEntity
  8
0
  6
Continuous
 62
     7
370
    15
100
AcDbLine
 10
2416.24706251271
 20
816.9145422318539
 30
0.0
 11
2416.24706251271
 21
817.2680956224539
 31
0.0
  0
LINE
  5
61A
330
60A
100
AcDbEntity
  8
0
  6
Continuous
 62
     7
370
    15
100
AcDbLine
 10
2419.24706251271
 20
816.9145422318539
 30
0.0
 11
2419.24706251271
 21
817.2680956224539
 31
0.0
  0
LINE
  5
61B
330
60A
100
AcDbEntity
  8
0
  6
Continuous
 62
     7
370
    15
100
AcDbLine
 10
2416.24706251271
 20
816.3074354506539
 30
0.0
 11
2419.24706251271
 21
816.3074354506539
 31
0.0
  0
LINE
  5
61C
330
60A
100
AcDbEntity
  8
0
  6
Continuous
 62
     7
370
    15
100
AcDbLine
 10
2416.24706251271
 20
816.9145422318539
 30
0.0
 11
2416.24706251271
 21
816.3074354506539
 31
0.0
  0
LINE
  5
61D
330
60A
100
AcDbEntity
  8
0
  6
Continuous
 62
     7
370
    15
100
AcDbLine
 10
2419.24706251271
 20
816.3074354506539
 30
0.0
 11
2419.24706251271
 21
816.9145422318539
 31
0.0
  0
LINE
  5
61E
330
60A
100
AcDbEntity
  8
0
  6
Continuous
 62
     7
370
    15
100
AcDbLine
 10
2419.24706251271
 20
815.9538820600539
 30
0.0
 11
2416.24706251271
 21
815.9538820600539
 31
0.0
  0
LINE
  5
61F
330
60A
100
AcDbEntity
  8
0
  6
Continuous
 62
     7
370
    15
100
AcDbLine
 10
2416.24706251271
 20
815.9538820600539
 30
0.0
 11
2416.24706251271
 21
816.3074354506539
 31
0.0
  0
LINE
  5
620
330
60A
100
AcDbEntity
  8
0
  6
Continuous
 62
     7
370
    15
100
AcDbLine
 10
2419.24706251271
 20
816.3074354506539
 30
0.0
 11
2419.24706251271
 21
815.9538820600539
 31
0.0
  0
LINE
  5
621
330
60A
100
AcDbEntity
  8
0
  6
Continuous
 62
     7
370
    15
100
AcDbLine
 10
2416.24706251271
 20
813.9395142828538
 30
0.0
 11
2419.24706251271
 21
813.9395142828538
 31
0.0
  0
LINE
  5
622
330
60A
100
AcDbEntity
  8
0
  6
Continuous
 62
     7
370
    15
100
AcDbLine
 10
2416.24706251271
 20
815.9538820600539
 30
0.0
 11
2416.24706251271
 21
813.9395142828538
 31
0.0
  0
LINE
  5
623
330
60A
100
AcDbEntity
  8
0
  6
Continuous
 62
     7
370
    15
100
AcDbLine
 10
2419.24706251271
 20
813.9395142828538
 30
0.0
 11
2419.24706251271
 21
815.9538820600539
 31
0.0
  0
LINE
  5
624
330
60A
100
AcDbEntity
  8
0
  6
Continuous
 62
     7
370
    15
100
AcDbLine
 10
2418.897062512709
 20
813.5895142828539
 30
0.0
 11
2416.59706251271
 21
813.5895142828539
 31
0.0
  0
LINE
  5
625
330
60A
100
AcDbEntity
  8
0
  6
Continuous
 62
     7
370
    15
100
AcDbLine
 10
2416.59706251271
 20
813.5895142828539
 30
0.0
 11
2416.24706251271
 21
813.9395142828538
 31
0.0
  0
LINE
  5
626
330
60A
100
AcDbEntity
  8
0
  6
Continuous
 62
     7
370
    15
100
AcDbLine
 10
2418.897062512709
 20
813.5895142828539
 30
0.0
 11
2419.24706251271
 21
813.9395142828538
 31
0.0
  0
LINE
  5
627
330
60A
100
AcDbEntity
  8
0
  6
Continuous
 62
     7
370
    15
100
AcDbLine
 10
2419.04986303251
 20
806.0648419076539
 30
0.0
 11
2419.04986303251
 21
811.8395142828539
 31
0.0
  0
LINE
  5
628
330
60A
100
AcDbEntity
  8
0
  6
Continuous
 62
     7
370
    15
100
AcDbLine
 10
2419.04986303251
 20
806.0648419076539
 30
0.0
 11
2416.45426199281
 21
806.0648419076539
 31
0.0
  0
LINE
  5
629
330
60A
100
AcDbEntity
  8
0
  6
Continuous
 62
     7
370
    15
100
AcDbLine
 10
2416.45426199281
 20
806.0648419076539
 30
0.0
 11
2416.45426199281
 21
811.8395142828539
 31
0.0
  0
ARC
  5
62A
330
60A
100
AcDbEntity
  8
0
  6
Continuous
 62
     7
370
    15
100
AcDbCircle
 10
2416.70426199281
 20
811.8395142828539
 30
0.0
 40
0.25
100
AcDbArc
 50
90.0
 51
180.0
  0
LINE
  5
62B
330
60A
100
AcDbEntity
  8
0
  6
Continuous
 62
     7
370
    15
100
AcDbLine
 10
2416.70426199281
 20
812.0895142828539
 30
0.0
 11
2416.80706251271
 21
812.0895142828539
 31
0.0
  0
ARC
  5
62C
330
60A
100
AcDbEntity
  8
0
  6
Continuous
 62
     7
370
    15
100
AcDbCircle
 10
2416.80706251271
 20
812.3395142828538
 30
0.0
 40
0.25
100
AcDbArc
 50
270.0
 51
0.0
  0
LINE
  5
62D
330
60A
100
AcDbEntity
  8
0
  6
Continuous
 62
     7
370
    15
100
AcDbLine
 10
2417.057062512709
 20
812.3395142828538
 30
0.0
 11
2417.057062512709
 21
813.5895142828539
 31
0.0
  0
LINE
  5
62E
330
60A
100
AcDbEntity
  8
0
  6
Continuous
 62
     7
370
    15
100
AcDbLine
 10
2418.44706251271
 20
813.5895142828539
 30
0.0
 11
2418.44706251271
 21
812.3395142828538
 31
0.0
  0
ARC
  5
62F
330
60A
100
AcDbEntity
  8
0
  6
Continuous
 62
     7
370
    15
100
AcDbCircle
 10
2418.697062512709
 20
812.3395142828538
 30
0.0
 40
0.25
100
AcDbArc
 50
180.0
 51
270.0
  0
LINE
  5
630
330
60A
100
AcDbEntity
  8
0
  6
Continuous
 62
     7
370
    15
100
AcDbLine
 10
2418.697062512709
 20
812.0895142828539
 30
0.0
 11
2418.79986303251
 21
812.0895142828539
 31
0.0
  0
ARC
  5
631
330
60A
100
AcDbEntity
  8
0
  6
Continuous
 62
     7
370
    15
100
AcDbCircle
 10
2418.79986303251
 20
811.8395142828539
 30
0.0
 40
0.25
100
AcDbArc
 50
0.0
 51
90.0
  0
LINE
  5
632
330
60A
100
AcDbEntity
  8
0
  6
Continuous
 62
     7
370
    15
100
AcDbLine
 10
2419.24706251271
 20
818.2680956224539
 30
0.0
 11
2419.64706251271
 21
818.2680956224539
 31
0.0
  0
LINE
  5
633
330
60A
100
AcDbEntity
  8
0
  6
Continuous
 62
     7
370
    15
100
AcDbLine
 10
2419.64706251271
 20
818.2680956224539
 30
0.0
 11
2419.24706251271
 21
816.9680956224539
 31
0.0
  0
LINE
  5
634
330
60A
100
AcDbEntity
  8
0
  6
Continuous
 62
     7
370
    15
100
AcDbLine
 10
2416.24706251271
 20
816.9680956224539
 30
0.0
 11
2415.84706251271
 21
818.2680956224539
 31
0.0
  0
LINE
  5
635
330
60A
100
AcDbEntity
  8
0
  6
Continuous
 62
     7
370
    15
100
AcDbLine
 10
2415.84706251271
 20
818.2680956224539
 30
0.0
 11
2416.24706251271
 21
818.2680956224539
 31
0.0
  0
LINE
  5
636
330
60A
100
AcDbEntity
  8
0
  6
Continuous
 62
     7
370
    15
100
AcDbLine
 10
2419.04986303251
 20
804.1432881833539
 30
0.0
 11
2416.45426199281
 21
804.1432881833539
 31
0.0
  0
LINE
  5
637
330
60A
100
AcDbEntity
  8
0
  6
Continuous
 62
     7
370
    15
100
AcDbLine
 10
2416.45426199281
 20
804.1432881833539
 30
0.0
 11
2416.45426199281
 21
806.0648419076539
 31
0.0
  0
LINE
  5
638
330
60A
100
AcDbEntity
  8
0
  6
Continuous
 62
     7
370
    15
100
AcDbLine
 10
2419.04986303251
 20
804.1432881833539
 30
0.0
 11
2419.04986303251
 21
806.0648419076539
 31
0.0
  0
LINE
  5
639
330
60A
100
AcDbEntity
  8
0
  6
Continuous
 62
     7
370
    15
100
AcDbLine
 10
2416.45426199281
 20
803.5648419076538
 30
0.0
 11
2419.04986303251
 21
803.5648419076538
 31
0.0
  0
LINE
  5
63A
330
60A
100
AcDbEntity
  8
0
  6
Continuous
 62
     7
370
    15
100
AcDbLine
 10
2416.45426199281
 20
804.1432881833539
 30
0.0
 11
2416.45426199281
 21
803.5648419076538
 31
0.0
  0
LINE
  5
63B
330
60A
100
AcDbEntity
  8
0
  6
Continuous
 62
     7
370
    15
100
AcDbLine
 10
2419.04986303251
 20
803.5648419076538
 30
0.0
 11
2419.04986303251
 21
804.1432881833539
 31
0.0
  0
ENDBLK
  5
60C
330
60A
100
AcDbEntity
  8
0
100
AcDbBlockEnd
  0
BLOCK
  5
63E
330
63D
100
AcDbEntity
  8
0
100
AcDbBlockBegin
  2
3
 70
     0
 10
0.0
 20
0.0
 30
0.0
  3
3
  1

  0
LINE
  5
640
330
63D
100
AcDbEntity
  8
0
  6
Continuous
 62
     7
370
    15
100
AcDbLine
 10
2426.978358651409
 20
790.6987875914539
 30
0.0
 11
2426.978358651409
 21
795.1987875914539
 31
0.0
  0
LINE
  5
641
330
63D
100
AcDbEntity
  8
0
  6
Continuous
 62
     7
370
    15
100
AcDbLine
 10
2464.37835865141
 20
790.6987875914539
 30
0.0
 11
2426.978358651409
 21
790.6987875914539
 31
0.0
  0
LINE
  5
642
330
63D
100
AcDbEntity
  8
0
  6
Continuous
 62
     7
370
    15
100
AcDbLine
 10
2426.978358651409
 20
795.1987875914539
 30
0.0
 11
2464.37835865141
 21
795.1987875914539
 31
0.0
  0
LINE
  5
643
330
63D
100
AcDbEntity
  8
0
  6
Continuous
 62
     7
370
    15
100
AcDbLine
 10
2464.37835865141
 20
795.1987875914539
 30
0.0
 11
2464.37835865141
 21
790.6987875914539
 31
0.0
  0
ENDBLK
  5
63F
330
63D
100
AcDbEntity
  8
0
100
AcDbBlockEnd
  0
BLOCK
  5
646
330
645
100
AcDbEntity
  8
0
100
AcDbBlockBegin
  2
4
 70
     0
 10
0.0
 20
0.0
 30
0.0
  3
4
  1

  0
LINE
  5
648
330
645
100
AcDbEntity
  8
0
  6
Continuous
 62
     7
370
    15
100
AcDbLine
 10
2482.36613726221
 20
808.5200402017539
 30
0.0
 11
2481.991679780609
 21
808.3038704989538
 31
0.0
  0
LINE
  5
649
330
645
100
AcDbEntity
  8
0
  6
Continuous
 62
     7
370
    15
100
AcDbLine
 10
2482.316959507409
 20
801.8178561453538
 30
0.0
 11
2484.15232660381
 21
800.7583212734539
 31
0.0
  0
LINE
  5
64A
330
645
100
AcDbEntity
  8
0
  6
Continuous
 62
     7
370
    15
100
AcDbLine
 10
2489.15436236161
 20
812.4387991384539
 30
0.0
 11
2488.77990488001
 21
812.222629435654
 31
0.0
  0
LINE
  5
64B
330
645
100
AcDbEntity
  8
0
  6
Continuous
 62
     7
370
    15
100
AcDbLine
 10
2489.10518460681
 20
805.736615082054
 30
0.0
 11
2490.94055170321
 21
804.6770802101539
 31
0.0
  0
LINE
  5
64C
330
645
100
AcDbEntity
  8
0
  6
Continuous
 62
     7
370
    15
100
AcDbLine
 10
2495.94258746101
 20
816.3575580752539
 30
0.0
 11
2495.56812997941
 21
816.1413883724538
 31
0.0
  0
LINE
  5
64D
330
645
100
AcDbEntity
  8
0
  6
Continuous
 62
     7
370
    15
100
AcDbLine
 10
2495.89340970621
 20
809.6553740188538
 30
0.0
 11
2497.72877680261
 21
808.5958391469539
 31
0.0
  0
LINE
  5
64E
330
645
100
AcDbEntity
  8
0
  6
Continuous
 62
     7
370
    15
100
AcDbLine
 10
2502.73081256031
 20
820.2763170119538
 30
0.0
 11
2502.35635507881
 21
820.0601473091538
 31
0.0
  0
LINE
  5
64F
330
645
100
AcDbEntity
  8
0
  6
Continuous
 62
     7
370
    15
100
AcDbLine
 10
2502.68163480551
 20
813.5741329555539
 30
0.0
 11
2504.51700190201
 21
812.5145980836538
 31
0.0
  0
LINE
  5
650
330
645
100
AcDbEntity
  8
0
  6
Continuous
 62
     7
370
    15
100
AcDbLine
 10
2479.29022276401
 20
819.7045386188539
 30
0.0
 11
2479.820552849909
 21
819.3983855769538
 31
0.0
  0
LINE
  5
651
330
645
100
AcDbEntity
  8
0
  6
Continuous
 62
     7
370
    15
100
AcDbLine
 10
2479.29022276401
 20
819.7045386188539
 30
0.0
 11
2479.29022276401
 21
820.6843875931539
 31
0.0
  0
LINE
  5
652
330
645
100
AcDbEntity
  8
0
  6
Continuous
 62
     7
370
    15
100
AcDbLine
 10
2482.47220327931
 20
818.8474693415539
 30
0.0
 11
2479.29022276401
 21
820.6843875931539
 31
0.0
  0
LINE
  5
653
330
645
100
AcDbEntity
  8
0
  6
Continuous
 62
     7
370
    15
100
AcDbLine
 10
2482.47220327931
 20
818.8474693415539
 30
0.0
 11
2482.47220327931
 21
817.8676203672539
 31
0.0
  0
LINE
  5
654
330
645
100
AcDbEntity
  8
0
  6
Continuous
 62
     7
370
    15
100
AcDbLine
 10
2482.47220327931
 20
817.8676203672539
 30
0.0
 11
2481.941873193509
 21
818.1737734091539
 31
0.0
  0
LINE
  5
655
330
645
100
AcDbEntity
  8
0
  6
Continuous
 62
     7
370
    15
100
AcDbLine
 10
2481.941873193509
 20
812.8935362757539
 30
0.0
 11
2481.941873193509
 21
818.1737734091539
 31
0.0
  0
LINE
  5
656
330
645
100
AcDbEntity
  8
0
  6
Continuous
 62
     7
370
    15
100
AcDbLine
 10
2479.820552849909
 20
814.118148443454
 30
0.0
 11
2481.941873193509
 21
812.8935362757539
 31
0.0
  0
LINE
  5
657
330
645
100
AcDbEntity
  8
0
  6
Continuous
 62
     7
370
    15
100
AcDbLine
 10
2479.820552849909
 20
819.3983855769538
 30
0.0
 11
2479.820552849909
 21
814.118148443454
 31
0.0
  0
LINE
  5
658
330
645
100
AcDbEntity
  8
0
  6
Continuous
 62
     7
370
    15
100
AcDbLine
 10
2479.29022276401
 20
820.6843875931539
 30
0.0
 11
2505.73601638041
 21
835.9512192841538
 31
0.0
  0
LINE
  5
659
330
645
100
AcDbEntity
  8
0
  6
Continuous
 62
     7
370
    15
100
AcDbLine
 10
2505.73601638041
 20
835.9512192841538
 30
0.0
 11
2508.91799689571
 21
834.114301032554
 31
0.0
  0
LINE
  5
65A
330
645
100
AcDbEntity
  8
0
  6
Continuous
 62
     7
370
    15
100
AcDbLine
 10
2508.91799689571
 20
834.114301032554
 30
0.0
 11
2482.47220327931
 21
818.8474693415539
 31
0.0
  0
LINE
  5
65B
330
645
100
AcDbEntity
  8
0
  6
Continuous
 62
     7
370
    15
100
AcDbLine
 10
2508.91799689571
 20
833.1344520583538
 30
0.0
 11
2508.91799689571
 21
834.114301032554
 31
0.0
  0
LINE
  5
65C
330
645
100
AcDbEntity
  8
0
  6
Continuous
 62
     7
370
    15
100
AcDbLine
 10
2482.47220327931
 20
817.8676203672539
 30
0.0
 11
2508.91799689571
 21
833.1344520583538
 31
0.0
  0
LINE
  5
65D
330
645
100
AcDbEntity
  8
0
  6
Continuous
 62
     7
370
    15
100
AcDbLine
 10
2504.286447479009
 20
824.0507705937538
 30
0.0
 11
2504.286447479009
 21
822.9892675383538
 31
0.0
  0
LINE
  5
65E
330
645
100
AcDbEntity
  8
0
  6
Continuous
 62
     7
370
    15
100
AcDbLine
 10
2506.407767822509
 20
824.2138797060539
 30
0.0
 11
2504.286447479009
 21
822.9892675383538
 31
0.0
  0
LINE
  5
65F
330
645
100
AcDbEntity
  8
0
  6
Continuous
 62
     7
370
    15
100
AcDbLine
 10
2506.407767822509
 20
825.2753827614538
 30
0.0
 11
2504.286447479009
 21
824.0507705937538
 31
0.0
  0
LINE
  5
660
330
645
100
AcDbEntity
  8
0
  6
Continuous
 62
     7
370
    15
100
AcDbLine
 10
2497.49822237961
 20
820.1320116570538
 30
0.0
 11
2497.49822237961
 21
819.0705086015539
 31
0.0
  0
LINE
  5
661
330
645
100
AcDbEntity
  8
0
  6
Continuous
 62
     7
370
    15
100
AcDbLine
 10
2499.61954272311
 20
820.2951207692539
 30
0.0
 11
2497.49822237961
 21
819.0705086015539
 31
0.0
  0
LINE
  5
662
330
645
100
AcDbEntity
  8
0
  6
Continuous
 62
     7
370
    15
100
AcDbLine
 10
2499.61954272311
 20
821.3566238247539
 30
0.0
 11
2497.49822237961
 21
820.1320116570538
 31
0.0
  0
LINE
  5
663
330
645
100
AcDbEntity
  8
0
  6
Continuous
 62
     7
370
    15
100
AcDbLine
 10
2490.709997280209
 20
816.2132527202539
 30
0.0
 11
2490.709997280209
 21
815.1517496648539
 31
0.0
  0
LINE
  5
664
330
645
100
AcDbEntity
  8
0
  6
Continuous
 62
     7
370
    15
100
AcDbLine
 10
2492.831317623709
 20
816.3763618325539
 30
0.0
 11
2490.709997280209
 21
815.1517496648539
 31
0.0
  0
LINE
  5
665
330
645
100
AcDbEntity
  8
0
  6
Continuous
 62
     7
370
    15
100
AcDbLine
 10
2492.831317623709
 20
817.4378648879539
 30
0.0
 11
2490.709997280209
 21
816.2132527202539
 31
0.0
  0
LINE
  5
666
330
645
100
AcDbEntity
  8
0
  6
Continuous
 62
     7
370
    15
100
AcDbLine
 10
2486.043092524309
 20
813.5191059512539
 30
0.0
 11
2483.92177218081
 21
812.2944937835539
 31
0.0
  0
LINE
  5
667
330
645
100
AcDbEntity
  8
0
  6
Continuous
 62
     7
370
    15
100
AcDbLine
 10
2483.92177218081
 20
812.2944937835539
 30
0.0
 11
2483.92177218081
 21
811.2329907280539
 31
0.0
  0
LINE
  5
668
330
645
100
AcDbEntity
  8
0
  6
Continuous
 62
     7
370
    15
100
AcDbLine
 10
2486.043092524309
 20
812.4576028957539
 30
0.0
 11
2483.92177218081
 21
811.2329907280539
 31
0.0
  0
ARC
  5
669
330
645
100
AcDbEntity
  8
0
  6
Continuous
 62
     7
370
    15
100
AcDbCircle
 10
2500.10064167611
 20
821.2586591209539
 30
0.0
 40
0.7214031269992349
100
AcDbArc
 50
328.8562722005957
 51
358.043501357001
  0
LINE
  5
66A
330
645
100
AcDbEntity
  8
0
  6
Continuous
 62
     7
370
    15
100
AcDbLine
 10
2500.71807086051
 20
820.885559035354
 30
0.0
 11
2500.28878153871
 21
820.1420081209539
 31
0.0
  0
ARC
  5
66B
330
645
100
AcDbEntity
  8
0
  6
Continuous
 62
     7
370
    15
100
AcDbCircle
 10
2500.90621072311
 20
819.7689080353539
 30
0.0
 40
0.7214031269990266
100
AcDbArc
 50
148.8562722005957
 51
178.0435013570011
  0
LINE
  5
66C
330
645
100
AcDbEntity
  8
0
  6
Continuous
 62
     7
370
    15
100
AcDbLine
 10
2500.18522814811
 20
819.7935372483538
 30
0.0
 11
2500.18522814811
 21
818.1487237481539
 31
0.0
  0
LINE
  5
66D
330
645
100
AcDbEntity
  8
0
  6
Continuous
 62
     7
370
    15
100
AcDbLine
 10
2496.93253695461
 20
816.2709850909539
 30
0.0
 11
2500.18522814811
 21
818.1487237481539
 31
0.0
  0
LINE
  5
66E
330
645
100
AcDbEntity
  8
0
  6
Continuous
 62
     7
370
    15
100
AcDbLine
 10
2496.93253695461
 20
816.2709850909539
 30
0.0
 11
2496.93253695461
 21
817.9157985911539
 31
0.0
  0
ARC
  5
66F
330
645
100
AcDbEntity
  8
0
  6
Continuous
 62
     7
370
    15
100
AcDbCircle
 10
2496.682207167909
 20
817.9404335378539
 30
0.0
 40
0.2515390281771862
100
AcDbArc
 50
354.3796210362995
 51
54.30196147119715
  0
LINE
  5
670
330
645
100
AcDbEntity
  8
0
  6
Continuous
 62
     7
370
    15
100
AcDbLine
 10
2496.82898356401
 20
818.1447092638538
 30
0.0
 11
2496.399694242109
 21
818.3926132774539
 31
0.0
  0
ARC
  5
671
330
645
100
AcDbEntity
  8
0
  6
Continuous
 62
     7
370
    15
100
AcDbCircle
 10
2496.54647063821
 20
818.5968890034539
 30
0.0
 40
0.2515390281768867
100
AcDbArc
 50
174.3796210363968
 51
234.3019614712949
  0
LINE
  5
672
330
645
100
AcDbEntity
  8
0
  6
Continuous
 62
     7
370
    15
100
AcDbLine
 10
2496.29614085151
 20
818.6215239500539
 30
0.0
 11
2496.29614085151
 21
821.1800786107538
 31
0.0
  0
LINE
  5
673
330
645
100
AcDbEntity
  8
0
  6
Continuous
 62
     7
370
    15
100
AcDbLine
 10
2496.29614085151
 20
821.1800786107538
 30
0.0
 11
2494.03339915171
 21
819.873825631854
 31
0.0
  0
LINE
  5
674
330
645
100
AcDbEntity
  8
0
  6
Continuous
 62
     7
370
    15
100
AcDbLine
 10
2494.03339915171
 20
819.873825631854
 30
0.0
 11
2494.03339915171
 21
817.3152709711539
 31
0.0
  0
ARC
  5
675
330
645
100
AcDbEntity
  8
0
  6
Continuous
 62
     7
370
    15
100
AcDbCircle
 10
2493.312416576709
 20
817.339900184154
 30
0.0
 40
0.7214031269991108
100
AcDbArc
 50
328.8562722005957
 51
358.043501357001
  0
LINE
  5
676
330
645
100
AcDbEntity
  8
0
  6
Continuous
 62
     7
370
    15
100
AcDbLine
 10
2493.92984576121
 20
816.966800098654
 30
0.0
 11
2493.50055643931
 21
816.2232491841539
 31
0.0
  0
ARC
  5
677
330
645
100
AcDbEntity
  8
0
  6
Continuous
 62
     7
370
    15
100
AcDbCircle
 10
2494.11798562371
 20
815.8501490986539
 30
0.0
 40
0.7214031269998096
100
AcDbArc
 50
148.8562722005957
 51
178.0435013570011
  0
LINE
  5
678
330
645
100
AcDbEntity
  8
0
  6
Continuous
 62
     7
370
    15
100
AcDbLine
 10
2493.39700304871
 20
815.8747783116538
 30
0.0
 11
2493.39700304871
 21
814.2299648113539
 31
0.0
  0
LINE
  5
679
330
645
100
AcDbEntity
  8
0
  6
Continuous
 62
     7
370
    15
100
AcDbLine
 10
2490.14431185521
 20
812.3522261541538
 30
0.0
 11
2493.39700304871
 21
814.2299648113539
 31
0.0
  0
LINE
  5
67A
330
645
100
AcDbEntity
  8
0
  6
Continuous
 62
     7
370
    15
100
AcDbLine
 10
2490.14431185521
 20
812.3522261541538
 30
0.0
 11
2490.14431185521
 21
813.9970396544537
 31
0.0
  0
ARC
  5
67B
330
645
100
AcDbEntity
  8
0
  6
Continuous
 62
     7
370
    15
100
AcDbCircle
 10
2489.89398206851
 20
814.0216746010539
 30
0.0
 40
0.2515390281772117
100
AcDbArc
 50
354.3796210362995
 51
54.30196147119715
  0
LINE
  5
67C
330
645
100
AcDbEntity
  8
0
  6
Continuous
 62
     7
370
    15
100
AcDbLine
 10
2490.04075846461
 20
814.2259503271539
 30
0.0
 11
2489.61146914271
 21
814.4738543406539
 31
0.0
  0
ARC
  5
67D
330
645
100
AcDbEntity
  8
0
  6
Continuous
 62
     7
370
    15
100
AcDbCircle
 10
2489.75824553881
 20
814.6781300666539
 30
0.0
 40
0.2515390281770233
100
AcDbArc
 50
174.3796210363968
 51
234.3019614712949
  0
LINE
  5
67E
330
645
100
AcDbEntity
  8
0
  6
Continuous
 62
     7
370
    15
100
AcDbLine
 10
2489.50791575221
 20
814.7027650133539
 30
0.0
 11
2489.50791575221
 21
817.261319673954
 31
0.0
  0
LINE
  5
67F
330
645
100
AcDbEntity
  8
0
  6
Continuous
 62
     7
370
    15
100
AcDbLine
 10
2489.50791575221
 20
817.261319673954
 30
0.0
 11
2487.245174052409
 21
815.9550666950538
 31
0.0
  0
LINE
  5
680
330
645
100
AcDbEntity
  8
0
  6
Continuous
 62
     7
370
    15
100
AcDbLine
 10
2487.245174052409
 20
815.9550666950538
 30
0.0
 11
2487.245174052409
 21
813.3965120344539
 31
0.0
  0
ARC
  5
681
330
645
100
AcDbEntity
  8
0
  6
Continuous
 62
     7
370
    15
100
AcDbCircle
 10
2486.52419147731
 20
813.4211412474538
 30
0.0
 40
0.721403126999576
100
AcDbArc
 50
328.8562722005957
 51
358.043501357001
  0
LINE
  5
682
330
645
100
AcDbEntity
  8
0
  6
Continuous
 62
     7
370
    15
100
AcDbLine
 10
2487.14162066181
 20
813.0480411618538
 30
0.0
 11
2486.71233133991
 21
812.3044902474539
 31
0.0
  0
ARC
  5
683
330
645
100
AcDbEntity
  8
0
  6
Continuous
 62
     7
370
    15
100
AcDbCircle
 10
2487.32976052431
 20
811.9313901618538
 30
0.0
 40
0.7214031269995476
100
AcDbArc
 50
148.8562722005957
 51
178.0435013570011
  0
LINE
  5
684
330
645
100
AcDbEntity
  8
0
  6
Continuous
 62
     7
370
    15
100
AcDbLine
 10
2486.60877794931
 20
811.9560193748538
 30
0.0
 11
2486.60877794931
 21
810.3112058746539
 31
0.0
  0
LINE
  5
685
330
645
100
AcDbEntity
  8
0
  6
Continuous
 62
     7
370
    15
100
AcDbLine
 10
2483.35608675581
 20
808.4334672174538
 30
0.0
 11
2486.60877794931
 21
810.3112058746539
 31
0.0
  0
LINE
  5
686
330
645
100
AcDbEntity
  8
0
  6
Continuous
 62
     7
370
    15
100
AcDbLine
 10
2483.35608675581
 20
808.4334672174538
 30
0.0
 11
2483.35608675581
 21
810.0782807176539
 31
0.0
  0
ARC
  5
687
330
645
100
AcDbEntity
  8
0
  6
Continuous
 62
     7
370
    15
100
AcDbCircle
 10
2483.10575696911
 20
810.1029156643539
 30
0.0
 40
0.2515390281771579
100
AcDbArc
 50
354.3796210362995
 51
54.30196147119715
  0
LINE
  5
688
330
645
100
AcDbEntity
  8
0
  6
Continuous
 62
     7
370
    15
100
AcDbLine
 10
2483.25253336521
 20
810.3071913903539
 30
0.0
 11
2482.82324404341
 21
810.5550954039539
 31
0.0
  0
ARC
  5
689
330
645
100
AcDbEntity
  8
0
  6
Continuous
 62
     7
370
    15
100
AcDbCircle
 10
2482.97002043941
 20
810.7593711299539
 30
0.0
 40
0.2515390281771384
100
AcDbArc
 50
174.3796210363968
 51
234.3019614711971
  0
LINE
  5
68A
330
645
100
AcDbEntity
  8
0
  6
Continuous
 62
     7
370
    15
100
AcDbLine
 10
2482.71969065281
 20
810.7840060765537
 30
0.0
 11
2482.71969065281
 21
813.342560737254
 31
0.0
  0
LINE
  5
68B
330
645
100
AcDbEntity
  8
0
  6
Continuous
 62
     7
370
    15
100
AcDbLine
 10
2482.71969065281
 20
813.342560737254
 30
0.0
 11
2481.941873193509
 21
812.8935362757539
 31
0.0
  0
LINE
  5
68C
330
645
100
AcDbEntity
  8
0
  6
Continuous
 62
     7
370
    15
100
AcDbLine
 10
2508.38766680981
 20
832.8282990163538
 30
0.0
 11
2508.38766680981
 21
828.160367966854
 31
0.0
  0
LINE
  5
68D
330
645
100
AcDbEntity
  8
0
  6
Continuous
 62
     7
370
    15
100
AcDbLine
 10
2507.60984935051
 20
827.7113435053538
 30
0.0
 11
2508.38766680981
 21
828.160367966854
 31
0.0
  0
LINE
  5
68E
330
645
100
AcDbEntity
  8
0
  6
Continuous
 62
     7
370
    15
100
AcDbLine
 10
2507.60984935051
 20
827.7113435053538
 30
0.0
 11
2507.60984935051
 21
825.152788844654
 31
0.0
  0
ARC
  5
68F
330
645
100
AcDbEntity
  8
0
  6
Continuous
 62
     7
370
    15
100
AcDbCircle
 10
2506.88886677551
 20
825.1774180576539
 30
0.0
 40
0.7214031269996585
100
AcDbArc
 50
328.8562722005957
 51
358.043501357001
  0
LINE
  5
690
330
645
100
AcDbEntity
  8
0
  6
Continuous
 62
     7
370
    15
100
AcDbLine
 10
2507.50629595991
 20
824.8043179721539
 30
0.0
 11
2507.07700663811
 21
824.0607670576538
 31
0.0
  0
ARC
  5
691
330
645
100
AcDbEntity
  8
0
  6
Continuous
 62
     7
370
    15
100
AcDbCircle
 10
2507.694435822509
 20
823.6876669721539
 30
0.0
 40
0.7214031269998591
100
AcDbArc
 50
148.8562722005957
 51
178.0435013570011
  0
LINE
  5
692
330
645
100
AcDbEntity
  8
0
  6
Continuous
 62
     7
370
    15
100
AcDbLine
 10
2506.97345324751
 20
823.712296185154
 30
0.0
 11
2506.97345324751
 21
822.0674826848538
 31
0.0
  0
LINE
  5
693
330
645
100
AcDbEntity
  8
0
  6
Continuous
 62
     7
370
    15
100
AcDbLine
 10
2503.72076205401
 20
820.1897440276539
 30
0.0
 11
2506.97345324751
 21
822.0674826848538
 31
0.0
  0
LINE
  5
694
330
645
100
AcDbEntity
  8
0
  6
Continuous
 62
     7
370
    15
100
AcDbLine
 10
2503.72076205401
 20
820.1897440276539
 30
0.0
 11
2503.72076205401
 21
821.8345575279538
 31
0.0
  0
ARC
  5
695
330
645
100
AcDbEntity
  8
0
  6
Continuous
 62
     7
370
    15
100
AcDbCircle
 10
2503.47043226731
 20
821.8591924745538
 30
0.0
 40
0.2515390281770536
100
AcDbArc
 50
354.3796210362995
 51
54.30196147119715
  0
LINE
  5
696
330
645
100
AcDbEntity
  8
0
  6
Continuous
 62
     7
370
    15
100
AcDbLine
 10
2503.61720866341
 20
822.0634682005538
 30
0.0
 11
2503.18791934151
 21
822.3113722141539
 31
0.0
  0
ARC
  5
697
330
645
100
AcDbEntity
  8
0
  6
Continuous
 62
     7
370
    15
100
AcDbCircle
 10
2503.33469573761
 20
822.5156479401539
 30
0.0
 40
0.2515390281770508
100
AcDbArc
 50
174.3796210363968
 51
234.3019614712949
  0
LINE
  5
698
330
645
100
AcDbEntity
  8
0
  6
Continuous
 62
     7
370
    15
100
AcDbLine
 10
2503.08436595091
 20
822.5402828868539
 30
0.0
 11
2503.08436595091
 21
825.0988375474539
 31
0.0
  0
LINE
  5
699
330
645
100
AcDbEntity
  8
0
  6
Continuous
 62
     7
370
    15
100
AcDbLine
 10
2500.82162425111
 20
823.7925845685539
 30
0.0
 11
2503.08436595091
 21
825.0988375474539
 31
0.0
  0
LINE
  5
69A
330
645
100
AcDbEntity
  8
0
  6
Continuous
 62
     7
370
    15
100
AcDbLine
 10
2500.82162425111
 20
823.7925845685539
 30
0.0
 11
2500.82162425111
 21
821.2340299079539
 31
0.0
  0
LINE
  5
69B
330
645
100
AcDbEntity
  8
0
  6
Continuous
 62
     7
370
    15
100
AcDbLine
 10
2480.59837030921
 20
812.0086182443539
 30
0.0
 11
2482.71969065281
 21
810.7840060765537
 31
0.0
  0
LINE
  5
69C
330
645
100
AcDbEntity
  8
0
  6
Continuous
 62
     7
370
    15
100
AcDbLine
 10
2480.59837030921
 20
813.6691239819539
 30
0.0
 11
2480.59837030921
 21
812.0086182443539
 31
0.0
  0
LINE
  5
69D
330
645
100
AcDbEntity
  8
0
  6
Continuous
 62
     7
370
    15
100
AcDbLine
 10
2480.70192369981
 20
811.779707571654
 30
0.0
 11
2482.82324404341
 21
810.5550954039539
 31
0.0
  0
ARC
  5
69E
330
645
100
AcDbEntity
  8
0
  6
Continuous
 62
     7
370
    15
100
AcDbCircle
 10
2480.84870009591
 20
811.9839832976539
 30
0.0
 40
0.2515390281771127
100
AcDbArc
 50
174.3796210363968
 51
234.3019614711971
  0
LINE
  5
69F
330
645
100
AcDbEntity
  8
0
  6
Continuous
 62
     7
370
    15
100
AcDbLine
 10
2486.32593523681
 20
813.355824328854
 30
0.0
 11
2484.20461489331
 21
812.131212161154
 31
0.0
  0
LINE
  5
6A0
330
645
100
AcDbEntity
  8
0
  6
Continuous
 62
     7
370
    15
100
AcDbLine
 10
2486.043092524309
 20
812.4576028957539
 30
0.0
 11
2486.32593523681
 21
813.355824328854
 31
0.0
  0
LINE
  5
6A1
330
645
100
AcDbEntity
  8
0
  6
Continuous
 62
     7
370
    15
100
AcDbLine
 10
2483.92177218081
 20
811.2329907280539
 30
0.0
 11
2484.20461489331
 21
812.131212161154
 31
0.0
  0
LINE
  5
6A2
330
645
100
AcDbEntity
  8
0
  6
Continuous
 62
     7
370
    15
100
AcDbLine
 10
2484.20461489331
 20
812.131212161154
 30
0.0
 11
2483.92177218081
 21
812.2944937835539
 31
0.0
  0
LINE
  5
6A3
330
645
100
AcDbEntity
  8
0
  6
Continuous
 62
     7
370
    15
100
AcDbLine
 10
2486.32593523681
 20
813.355824328854
 30
0.0
 11
2486.043092524309
 21
813.5191059512539
 31
0.0
  0
LINE
  5
6A4
330
645
100
AcDbEntity
  8
0
  6
Continuous
 62
     7
370
    15
100
AcDbLine
 10
2481.13121302171
 20
811.5318035580539
 30
0.0
 11
2483.25253336521
 21
810.3071913903539
 31
0.0
  0
LINE
  5
6A5
330
645
100
AcDbEntity
  8
0
  6
Continuous
 62
     7
370
    15
100
AcDbLine
 10
2480.70192369981
 20
811.779707571654
 30
0.0
 11
2481.13121302171
 21
811.5318035580539
 31
0.0
  0
LINE
  5
6A6
330
645
100
AcDbEntity
  8
0
  6
Continuous
 62
     7
370
    15
100
AcDbLine
 10
2483.35608675581
 20
810.0782807176539
 30
0.0
 11
2481.23476641231
 21
811.3028928854539
 31
0.0
  0
ARC
  5
6A7
330
645
100
AcDbEntity
  8
0
  6
Continuous
 62
     7
370
    15
100
AcDbCircle
 10
2480.98443662561
 20
811.3275278320539
 30
0.0
 40
0.2515390281771163
100
AcDbArc
 50
354.3796210362995
 51
54.30196147119715
  0
LINE
  5
6A8
330
645
100
AcDbEntity
  8
0
  6
Continuous
 62
     7
370
    15
100
AcDbLine
 10
2481.23476641231
 20
809.6580793851538
 30
0.0
 11
2483.35608675581
 21
808.4334672174538
 31
0.0
  0
LINE
  5
6A9
330
645
100
AcDbEntity
  8
0
  6
Continuous
 62
     7
370
    15
100
AcDbLine
 10
2481.23476641231
 20
811.3028928854539
 30
0.0
 11
2481.23476641231
 21
809.6580793851538
 31
0.0
  0
LINE
  5
6AA
330
645
100
AcDbEntity
  8
0
  6
Continuous
 62
     7
370
    15
100
AcDbLine
 10
2481.72974115911
 20
809.3722901010538
 30
0.0
 11
2481.23476641231
 21
809.6580793851538
 31
0.0
  0
LINE
  5
6AB
330
645
100
AcDbEntity
  8
0
  6
Continuous
 62
     7
370
    15
100
AcDbLine
 10
2483.35608675581
 20
808.4334672174538
 30
0.0
 11
2483.35608675581
 21
808.4334207724539
 31
0.0
  0
LINE
  5
6AC
330
645
100
AcDbEntity
  8
0
  6
Continuous
 62
     7
370
    15
100
AcDbLine
 10
2483.35608675581
 20
808.4334207724539
 30
0.0
 11
2481.72974115911
 21
809.3722901010538
 31
0.0
  0
LINE
  5
6AD
330
645
100
AcDbEntity
  8
0
  6
Continuous
 62
     7
370
    15
100
AcDbLine
 10
2486.11380320251
 20
810.0254165904539
 30
0.0
 11
2486.60877794931
 21
810.3112058746539
 31
0.0
  0
LINE
  5
6AE
330
645
100
AcDbEntity
  8
0
  6
Continuous
 62
     7
370
    15
100
AcDbLine
 10
2486.11380320251
 20
810.0254165904539
 30
0.0
 11
2483.35608675581
 21
808.4334207724539
 31
0.0
  0
LINE
  5
6AF
330
645
100
AcDbEntity
  8
0
  6
Continuous
 62
     7
370
    15
100
AcDbLine
 10
2482.11666962221
 20
808.291493486354
 30
0.0
 11
2482.18936056691
 21
808.2495298971538
 31
0.0
  0
ARC
  5
6B0
330
645
100
AcDbEntity
  8
0
  6
Continuous
 62
     7
370
    15
100
AcDbCircle
 10
2482.25836867031
 20
808.3341322869539
 30
0.0
 40
0.1091772993568812
100
AcDbArc
 50
230.7967147639956
 51
9.214036990799057
  0
LINE
  5
6B1
330
645
100
AcDbEntity
  8
0
  6
Continuous
 62
     7
370
    15
100
AcDbLine
 10
2482.36613726221
 20
808.3516140861538
 30
0.0
 11
2482.36613726221
 21
809.0049064506539
 31
0.0
  0
LINE
  5
6B2
330
645
100
AcDbEntity
  8
0
  6
Continuous
 62
     7
370
    15
100
AcDbLine
 10
2483.34901568801
 20
808.4375028129539
 30
0.0
 11
2483.34901568801
 21
807.7842104484538
 31
0.0
  0
ARC
  5
6B3
330
645
100
AcDbEntity
  8
0
  6
Continuous
 62
     7
370
    15
100
AcDbCircle
 10
2483.73281971341
 20
807.8016756615538
 30
0.0
 40
0.3842012018928148
100
AcDbArc
 50
182.6054784855978
 51
237.3945216600024
  0
LINE
  5
6B4
330
645
100
AcDbEntity
  8
0
  6
Continuous
 62
     7
370
    15
100
AcDbLine
 10
2483.52579238331
 20
807.4780242314538
 30
0.0
 11
2483.598483328009
 21
807.4360606423539
 31
0.0
  0
ARC
  5
6B5
330
645
100
AcDbEntity
  8
0
  6
Continuous
 62
     7
370
    15
100
AcDbCircle
 10
2483.39145599801
 20
807.1124092123538
 30
0.0
 40
0.3842012018931594
100
AcDbArc
 50
2.605478485701916
 51
57.39452166000233
  0
LINE
  5
6B6
330
645
100
AcDbEntity
  8
0
  6
Continuous
 62
     7
370
    15
100
AcDbLine
 10
2483.77526002331
 20
807.1298744253539
 30
0.0
 11
2483.77526002331
 21
802.4146187558539
 31
0.0
  0
LINE
  5
6B7
330
645
100
AcDbEntity
  8
0
  6
Continuous
 62
     7
370
    15
100
AcDbLine
 10
2483.77526002331
 20
802.4146187558539
 30
0.0
 11
2481.93989292691
 21
803.474153627754
 31
0.0
  0
LINE
  5
6B8
330
645
100
AcDbEntity
  8
0
  6
Continuous
 62
     7
370
    15
100
AcDbLine
 10
2481.93989292691
 20
808.1894092973538
 30
0.0
 11
2481.93989292691
 21
803.474153627754
 31
0.0
  0
ARC
  5
6B9
330
645
100
AcDbEntity
  8
0
  6
Continuous
 62
     7
370
    15
100
AcDbCircle
 10
2482.04766151871
 20
808.2068910965539
 30
0.0
 40
0.1091772993571796
100
AcDbArc
 50
50.79671476429672
 51
189.2140369905013
  0
LINE
  5
6BA
330
645
100
AcDbEntity
  8
0
  6
Continuous
 62
     7
370
    15
100
AcDbLine
 10
2485.470336031609
 20
809.0088226161538
 30
0.0
 11
2485.470336031609
 21
809.6539508995538
 31
0.0
  0
LINE
  5
6BB
330
645
100
AcDbEntity
  8
0
  6
Continuous
 62
     7
370
    15
100
AcDbLine
 10
2483.34901568801
 20
807.7842104484538
 30
0.0
 11
2485.470336031609
 21
809.0088226161538
 31
0.0
  0
LINE
  5
6BC
330
645
100
AcDbEntity
  8
0
  6
Continuous
 62
     7
370
    15
100
AcDbLine
 10
2487.38659540861
 20
815.9273771810539
 30
0.0
 11
2489.50791575221
 21
814.7027650133539
 31
0.0
  0
LINE
  5
6BD
330
645
100
AcDbEntity
  8
0
  6
Continuous
 62
     7
370
    15
100
AcDbLine
 10
2487.38659540861
 20
816.0367075062538
 30
0.0
 11
2487.38659540861
 21
815.9273771810539
 31
0.0
  0
LINE
  5
6BE
330
645
100
AcDbEntity
  8
0
  6
Continuous
 62
     7
370
    15
100
AcDbLine
 10
2483.77526002331
 20
807.1298744253539
 30
0.0
 11
2485.896580366909
 21
808.3544865931539
 31
0.0
  0
LINE
  5
6BF
330
645
100
AcDbEntity
  8
0
  6
Continuous
 62
     7
370
    15
100
AcDbLine
 10
2485.71980367161
 20
808.6606728100539
 30
0.0
 11
2483.598483328009
 21
807.4360606423539
 31
0.0
  0
ARC
  5
6C0
330
645
100
AcDbEntity
  8
0
  6
Continuous
 62
     7
370
    15
100
AcDbCircle
 10
2485.51277634151
 20
808.3370213800538
 30
0.0
 40
0.3842012018931862
100
AcDbArc
 50
2.605478485701916
 51
57.39452165990488
  0
ARC
  5
6C1
330
645
100
AcDbEntity
  8
0
  6
Continuous
 62
     7
370
    15
100
AcDbCircle
 10
2485.85414005691
 20
809.0262878292538
 30
0.0
 40
0.3842012018931862
100
AcDbArc
 50
182.6054784857019
 51
237.3945216600024
  0
LINE
  5
6C2
330
645
100
AcDbEntity
  8
0
  6
Continuous
 62
     7
370
    15
100
AcDbLine
 10
2485.64711272691
 20
808.7026363992539
 30
0.0
 11
2483.52579238331
 21
807.4780242314538
 31
0.0
  0
LINE
  5
6C3
330
645
100
AcDbEntity
  8
0
  6
Continuous
 62
     7
370
    15
100
AcDbLine
 10
2485.896580366909
 20
803.6392309235539
 30
0.0
 11
2485.896580366909
 21
808.3544865931539
 31
0.0
  0
LINE
  5
6C4
330
645
100
AcDbEntity
  8
0
  6
Continuous
 62
     7
370
    15
100
AcDbLine
 10
2485.656997198209
 20
801.9318954660539
 30
0.0
 11
2485.896580366909
 21
803.6392309235539
 31
0.0
  0
ARC
  5
6C5
330
645
100
AcDbEntity
  8
0
  6
Continuous
 62
     7
370
    15
100
AcDbCircle
 10
2484.574766216209
 20
802.0973144120539
 30
0.0
 40
1.094800130607376
100
AcDbArc
 50
302.9067666139053
 51
351.3096048989981
  0
LINE
  5
6C6
330
645
100
AcDbEntity
  8
0
  6
Continuous
 62
     7
370
    15
100
AcDbLine
 10
2484.50229816021
 20
800.7929769087539
 30
0.0
 11
2485.16954222991
 21
801.178168711154
 31
0.0
  0
LWPOLYLINE
  5
6C7
330
645
100
AcDbEntity
  8
0
  6
Continuous
 62
     7
370
    15
100
AcDbPolyline
 90
        9
 70
   128
 43
0.0
 10
2484.50229816021
 20
800.7929769087539
 10
2484.41634669741
 20
800.7520417482538
 10
2484.33300682641
 20
800.7297175074539
 10
2484.25481078681
 20
800.7266824970539
 10
2484.184134525909
 20
800.7430289344538
 10
2484.12312550591
 20
800.778260141354
 10
2484.073637455209
 20
800.8313056352539
 10
2484.03717404321
 20
800.9005536558538
 10
2484.01484319201
 20
800.9839001369538
  0
LINE
  5
6C8
330
645
100
AcDbEntity
  8
0
  6
Continuous
 62
     7
370
    15
100
AcDbLine
 10
2483.77526002331
 20
802.4146187558539
 30
0.0
 11
2484.01484319201
 21
800.9839001369538
 31
0.0
  0
LINE
  5
6C9
330
645
100
AcDbEntity
  8
0
  6
Continuous
 62
     7
370
    15
100
AcDbLine
 10
2485.71980367161
 20
808.6606728100539
 30
0.0
 11
2485.64711272691
 21
808.7026363992539
 31
0.0
  0
LINE
  5
6CA
330
645
100
AcDbEntity
  8
0
  6
Continuous
 62
     7
370
    15
100
AcDbLine
 10
2487.49014879921
 20
815.6984665083539
 30
0.0
 11
2489.61146914271
 21
814.4738543406539
 31
0.0
  0
ARC
  5
6CB
330
645
100
AcDbEntity
  8
0
  6
Continuous
 62
     7
370
    15
100
AcDbCircle
 10
2487.63692519531
 20
815.9027422344538
 30
0.0
 40
0.2515390281773053
100
AcDbArc
 50
174.3796210363968
 51
234.3019614711971
  0
LINE
  5
6CC
330
645
100
AcDbEntity
  8
0
  6
Continuous
 62
     7
370
    15
100
AcDbLine
 10
2490.709997280209
 20
815.1517496648539
 30
0.0
 11
2490.99283999261
 21
816.0499710978539
 31
0.0
  0
LINE
  5
6CD
330
645
100
AcDbEntity
  8
0
  6
Continuous
 62
     7
370
    15
100
AcDbLine
 10
2490.99283999261
 20
816.0499710978539
 30
0.0
 11
2490.709997280209
 21
816.2132527202539
 31
0.0
  0
LINE
  5
6CE
330
645
100
AcDbEntity
  8
0
  6
Continuous
 62
     7
370
    15
100
AcDbLine
 10
2493.114160336209
 20
817.274583265654
 30
0.0
 11
2490.99283999261
 21
816.0499710978539
 31
0.0
  0
LINE
  5
6CF
330
645
100
AcDbEntity
  8
0
  6
Continuous
 62
     7
370
    15
100
AcDbLine
 10
2492.831317623709
 20
816.3763618325539
 30
0.0
 11
2493.114160336209
 21
817.274583265654
 31
0.0
  0
LINE
  5
6D0
330
645
100
AcDbEntity
  8
0
  6
Continuous
 62
     7
370
    15
100
AcDbLine
 10
2493.114160336209
 20
817.274583265654
 30
0.0
 11
2492.831317623709
 21
817.4378648879539
 31
0.0
  0
LINE
  5
6D1
330
645
100
AcDbEntity
  8
0
  6
Continuous
 62
     7
370
    15
100
AcDbLine
 10
2487.91943812111
 20
815.4505624948539
 30
0.0
 11
2490.04075846461
 21
814.2259503271539
 31
0.0
  0
LINE
  5
6D2
330
645
100
AcDbEntity
  8
0
  6
Continuous
 62
     7
370
    15
100
AcDbLine
 10
2487.49014879921
 20
815.6984665083539
 30
0.0
 11
2487.91943812111
 21
815.4505624948539
 31
0.0
  0
LINE
  5
6D3
330
645
100
AcDbEntity
  8
0
  6
Continuous
 62
     7
370
    15
100
AcDbLine
 10
2490.14431185521
 20
813.9970396544537
 30
0.0
 11
2488.02299151171
 21
815.2216518221539
 31
0.0
  0
ARC
  5
6D4
330
645
100
AcDbEntity
  8
0
  6
Continuous
 62
     7
370
    15
100
AcDbCircle
 10
2487.77266172501
 20
815.2462867688539
 30
0.0
 40
0.2515390281770536
100
AcDbArc
 50
354.3796210362995
 51
54.30196147119715
  0
LINE
  5
6D5
330
645
100
AcDbEntity
  8
0
  6
Continuous
 62
     7
370
    15
100
AcDbLine
 10
2488.02299151171
 20
813.5768383219538
 30
0.0
 11
2490.14431185521
 21
812.3522261541538
 31
0.0
  0
LINE
  5
6D6
330
645
100
AcDbEntity
  8
0
  6
Continuous
 62
     7
370
    15
100
AcDbLine
 10
2488.02299151171
 20
815.2216518221539
 30
0.0
 11
2488.02299151171
 21
813.5768383219538
 31
0.0
  0
LINE
  5
6D7
330
645
100
AcDbEntity
  8
0
  6
Continuous
 62
     7
370
    15
100
AcDbLine
 10
2484.01484319201
 20
800.9839001369538
 30
0.0
 11
2482.179476095609
 21
802.0434350088539
 31
0.0
  0
LINE
  5
6D8
330
645
100
AcDbEntity
  8
0
  6
Continuous
 62
     7
370
    15
100
AcDbLine
 10
2481.93989292691
 20
803.474153627754
 30
0.0
 11
2482.179476095609
 21
802.0434350088539
 31
0.0
  0
LINE
  5
6D9
330
645
100
AcDbEntity
  8
0
  6
Continuous
 62
     7
370
    15
100
AcDbLine
 10
2488.51796625851
 20
813.291049037754
 30
0.0
 11
2488.02299151171
 21
813.5768383219538
 31
0.0
  0
LINE
  5
6DA
330
645
100
AcDbEntity
  8
0
  6
Continuous
 62
     7
370
    15
100
AcDbLine
 10
2490.14431185521
 20
812.3522261541538
 30
0.0
 11
2490.14431185521
 21
812.3521797091539
 31
0.0
  0
LINE
  5
6DB
330
645
100
AcDbEntity
  8
0
  6
Continuous
 62
     7
370
    15
100
AcDbLine
 10
2490.14431185521
 20
812.3521797091539
 30
0.0
 11
2488.51796625851
 21
813.291049037754
 31
0.0
  0
LINE
  5
6DC
330
645
100
AcDbEntity
  8
0
  6
Continuous
 62
     7
370
    15
100
AcDbLine
 10
2492.90202830181
 20
813.9441755272539
 30
0.0
 11
2493.39700304871
 21
814.2299648113539
 31
0.0
  0
LINE
  5
6DD
330
645
100
AcDbEntity
  8
0
  6
Continuous
 62
     7
370
    15
100
AcDbLine
 10
2492.90202830181
 20
813.9441755272539
 30
0.0
 11
2490.14431185521
 21
812.3521797091539
 31
0.0
  0
LINE
  5
6DE
330
645
100
AcDbEntity
  8
0
  6
Continuous
 62
     7
370
    15
100
AcDbLine
 10
2488.90489472161
 20
812.2102524230539
 30
0.0
 11
2488.97758566631
 21
812.168288833954
 31
0.0
  0
ARC
  5
6DF
330
645
100
AcDbEntity
  8
0
  6
Continuous
 62
     7
370
    15
100
AcDbCircle
 10
2489.046593769709
 20
812.2528912236539
 30
0.0
 40
0.1091772993568903
100
AcDbArc
 50
230.7967147639956
 51
9.214036990799057
  0
LINE
  5
6E0
330
645
100
AcDbEntity
  8
0
  6
Continuous
 62
     7
370
    15
100
AcDbLine
 10
2489.15436236161
 20
812.2703730229538
 30
0.0
 11
2489.15436236161
 21
812.9236653874539
 31
0.0
  0
LINE
  5
6E1
330
645
100
AcDbEntity
  8
0
  6
Continuous
 62
     7
370
    15
100
AcDbLine
 10
2490.13724078741
 20
812.3562617497539
 30
0.0
 11
2490.13724078741
 21
811.7029693851538
 31
0.0
  0
ARC
  5
6E2
330
645
100
AcDbEntity
  8
0
  6
Continuous
 62
     7
370
    15
100
AcDbCircle
 10
2490.52104481271
 20
811.7204345982539
 30
0.0
 40
0.3842012018929392
100
AcDbArc
 50
182.6054784857019
 51
237.3945216600024
  0
LINE
  5
6E3
330
645
100
AcDbEntity
  8
0
  6
Continuous
 62
     7
370
    15
100
AcDbLine
 10
2490.31401748271
 20
811.396783168254
 30
0.0
 11
2490.38670842741
 21
811.3548195790539
 31
0.0
  0
ARC
  5
6E4
330
645
100
AcDbEntity
  8
0
  6
Continuous
 62
     7
370
    15
100
AcDbCircle
 10
2490.17968109741
 20
811.0311681490539
 30
0.0
 40
0.3842012018929392
100
AcDbArc
 50
2.605478485597803
 51
57.39452166000233
  0
LINE
  5
6E5
330
645
100
AcDbEntity
  8
0
  6
Continuous
 62
     7
370
    15
100
AcDbLine
 10
2490.56348512271
 20
811.0486333621539
 30
0.0
 11
2490.56348512271
 21
806.3333776925539
 31
0.0
  0
LINE
  5
6E6
330
645
100
AcDbEntity
  8
0
  6
Continuous
 62
     7
370
    15
100
AcDbLine
 10
2490.56348512271
 20
806.3333776925539
 30
0.0
 11
2488.72811802631
 21
807.3929125644539
 31
0.0
  0
LINE
  5
6E7
330
645
100
AcDbEntity
  8
0
  6
Continuous
 62
     7
370
    15
100
AcDbLine
 10
2488.72811802631
 20
812.1081682340539
 30
0.0
 11
2488.72811802631
 21
807.3929125644539
 31
0.0
  0
ARC
  5
6E8
330
645
100
AcDbEntity
  8
0
  6
Continuous
 62
     7
370
    15
100
AcDbCircle
 10
2488.83588661811
 20
812.1256500332538
 30
0.0
 40
0.1091772993571836
100
AcDbArc
 50
50.79671476429672
 51
189.2140369903985
  0
ARC
  5
6E9
330
645
100
AcDbEntity
  8
0
  6
Continuous
 62
     7
370
    15
100
AcDbCircle
 10
2482.48047734871
 20
802.0722006611539
 30
0.0
 40
0.3023726461242704
100
AcDbArc
 50
185.4589815370972
 51
237.2630757801018
  0
LINE
  5
6EA
330
645
100
AcDbEntity
  8
0
  6
Continuous
 62
     7
370
    15
100
AcDbLine
 10
2492.25856113101
 20
812.9275815529538
 30
0.0
 11
2492.25856113101
 21
813.5727098363538
 31
0.0
  0
LINE
  5
6EB
330
645
100
AcDbEntity
  8
0
  6
Continuous
 62
     7
370
    15
100
AcDbLine
 10
2490.13724078741
 20
811.7029693851538
 30
0.0
 11
2492.25856113101
 21
812.9275815529538
 31
0.0
  0
LINE
  5
6EC
330
645
100
AcDbEntity
  8
0
  6
Continuous
 62
     7
370
    15
100
AcDbLine
 10
2494.17482050801
 20
819.8461361178539
 30
0.0
 11
2496.29614085151
 21
818.6215239500539
 31
0.0
  0
LINE
  5
6ED
330
645
100
AcDbEntity
  8
0
  6
Continuous
 62
     7
370
    15
100
AcDbLine
 10
2494.17482050801
 20
819.9554664430538
 30
0.0
 11
2494.17482050801
 21
819.8461361178539
 31
0.0
  0
LINE
  5
6EE
330
645
100
AcDbEntity
  8
0
  6
Continuous
 62
     7
370
    15
100
AcDbLine
 10
2490.56348512271
 20
811.0486333621539
 30
0.0
 11
2492.68480546631
 21
812.2732455298539
 31
0.0
  0
LINE
  5
6EF
330
645
100
AcDbEntity
  8
0
  6
Continuous
 62
     7
370
    15
100
AcDbLine
 10
2492.50802877101
 20
812.5794317468539
 30
0.0
 11
2490.38670842741
 21
811.3548195790539
 31
0.0
  0
ARC
  5
6F0
330
645
100
AcDbEntity
  8
0
  6
Continuous
 62
     7
370
    15
100
AcDbCircle
 10
2492.30100144091
 20
812.255780316854
 30
0.0
 40
0.3842012018934779
100
AcDbArc
 50
2.605478485701916
 51
57.39452165990488
  0
ARC
  5
6F1
330
645
100
AcDbEntity
  8
0
  6
Continuous
 62
     7
370
    15
100
AcDbCircle
 10
2492.64236515631
 20
812.9450467659539
 30
0.0
 40
0.3842012018929281
100
AcDbArc
 50
182.6054784857019
 51
237.3945216600024
  0
LINE
  5
6F2
330
645
100
AcDbEntity
  8
0
  6
Continuous
 62
     7
370
    15
100
AcDbLine
 10
2492.435337826309
 20
812.6213953359538
 30
0.0
 11
2490.31401748271
 21
811.396783168254
 31
0.0
  0
LINE
  5
6F3
330
645
100
AcDbEntity
  8
0
  6
Continuous
 62
     7
370
    15
100
AcDbLine
 10
2492.68480546631
 20
807.5579898602539
 30
0.0
 11
2492.68480546631
 21
812.2732455298539
 31
0.0
  0
LINE
  5
6F4
330
645
100
AcDbEntity
  8
0
  6
Continuous
 62
     7
370
    15
100
AcDbLine
 10
2492.44522229761
 20
805.8506544028539
 30
0.0
 11
2492.68480546631
 21
807.5579898602539
 31
0.0
  0
ARC
  5
6F5
330
645
100
AcDbEntity
  8
0
  6
Continuous
 62
     7
370
    15
100
AcDbCircle
 10
2491.36299131561
 20
806.0160733488539
 30
0.0
 40
1.094800130607487
100
AcDbArc
 50
302.9067666139053
 51
351.3096048989981
  0
LINE
  5
6F6
330
645
100
AcDbEntity
  8
0
  6
Continuous
 62
     7
370
    15
100
AcDbLine
 10
2491.29052325961
 20
804.7117358455539
 30
0.0
 11
2491.95776732931
 21
805.0969276479538
 31
0.0
  0
LWPOLYLINE
  5
6F7
330
645
100
AcDbEntity
  8
0
  6
Continuous
 62
     7
370
    15
100
AcDbPolyline
 90
        9
 70
   128
 43
0.0
 10
2491.29052325961
 20
804.7117358455539
 10
2491.20457179681
 20
804.670800684954
 10
2491.12123192581
 20
804.6484764441538
 10
2491.04303588621
 20
804.6454414338539
 10
2490.97235962521
 20
804.6617878712538
 10
2490.91135060531
 20
804.6970190780539
 10
2490.86186255461
 20
804.7500645720539
 10
2490.82539914251
 20
804.8193125925537
 10
2490.803068291409
 20
804.902659073654
  0
LINE
  5
6F8
330
645
100
AcDbEntity
  8
0
  6
Continuous
 62
     7
370
    15
100
AcDbLine
 10
2490.56348512271
 20
806.3333776925539
 30
0.0
 11
2490.803068291409
 21
804.902659073654
 31
0.0
  0
LINE
  5
6F9
330
645
100
AcDbEntity
  8
0
  6
Continuous
 62
     7
370
    15
100
AcDbLine
 10
2492.50802877101
 20
812.5794317468539
 30
0.0
 11
2492.435337826309
 21
812.6213953359538
 31
0.0
  0
LINE
  5
6FA
330
645
100
AcDbEntity
  8
0
  6
Continuous
 62
     7
370
    15
100
AcDbLine
 10
2494.278373898609
 20
819.6172254451539
 30
0.0
 11
2496.399694242109
 21
818.3926132774539
 31
0.0
  0
ARC
  5
6FB
330
645
100
AcDbEntity
  8
0
  6
Continuous
 62
     7
370
    15
100
AcDbCircle
 10
2494.42515029471
 20
819.8215011711537
 30
0.0
 40
0.2515390281772916
100
AcDbArc
 50
174.3796210363968
 51
234.3019614711971
  0
LINE
  5
6FC
330
645
100
AcDbEntity
  8
0
  6
Continuous
 62
     7
370
    15
100
AcDbLine
 10
2497.49822237961
 20
819.0705086015539
 30
0.0
 11
2497.78106509201
 21
819.9687300346537
 31
0.0
  0
LINE
  5
6FD
330
645
100
AcDbEntity
  8
0
  6
Continuous
 62
     7
370
    15
100
AcDbLine
 10
2497.78106509201
 20
819.9687300346537
 30
0.0
 11
2497.49822237961
 21
820.1320116570538
 31
0.0
  0
LINE
  5
6FE
330
645
100
AcDbEntity
  8
0
  6
Continuous
 62
     7
370
    15
100
AcDbLine
 10
2499.90238543561
 20
821.1933422023539
 30
0.0
 11
2497.78106509201
 21
819.9687300346537
 31
0.0
  0
LINE
  5
6FF
330
645
100
AcDbEntity
  8
0
  6
Continuous
 62
     7
370
    15
100
AcDbLine
 10
2499.61954272311
 20
820.2951207692539
 30
0.0
 11
2499.90238543561
 21
821.1933422023539
 31
0.0
  0
LINE
  5
700
330
645
100
AcDbEntity
  8
0
  6
Continuous
 62
     7
370
    15
100
AcDbLine
 10
2499.90238543561
 20
821.1933422023539
 30
0.0
 11
2499.61954272311
 21
821.3566238247539
 31
0.0
  0
LINE
  5
701
330
645
100
AcDbEntity
  8
0
  6
Continuous
 62
     7
370
    15
100
AcDbLine
 10
2494.70766322051
 20
819.3693214315539
 30
0.0
 11
2496.82898356401
 21
818.1447092638538
 31
0.0
  0
LINE
  5
702
330
645
100
AcDbEntity
  8
0
  6
Continuous
 62
     7
370
    15
100
AcDbLine
 10
2494.278373898609
 20
819.6172254451539
 30
0.0
 11
2494.70766322051
 21
819.3693214315539
 31
0.0
  0
LINE
  5
703
330
645
100
AcDbEntity
  8
0
  6
Continuous
 62
     7
370
    15
100
AcDbLine
 10
2496.93253695461
 20
817.9157985911539
 30
0.0
 11
2494.81121661101
 21
819.1404107589539
 31
0.0
  0
ARC
  5
704
330
645
100
AcDbEntity
  8
0
  6
Continuous
 62
     7
370
    15
100
AcDbCircle
 10
2494.560886824409
 20
819.1650457055539
 30
0.0
 40
0.251539028177037
100
AcDbArc
 50
354.3796210362995
 51
54.30196147119715
  0
LINE
  5
705
330
645
100
AcDbEntity
  8
0
  6
Continuous
 62
     7
370
    15
100
AcDbLine
 10
2494.81121661101
 20
817.4955972586539
 30
0.0
 11
2496.93253695461
 21
816.2709850909539
 31
0.0
  0
LINE
  5
706
330
645
100
AcDbEntity
  8
0
  6
Continuous
 62
     7
370
    15
100
AcDbLine
 10
2494.81121661101
 20
819.1404107589539
 30
0.0
 11
2494.81121661111
 21
817.4955972586539
 31
0.0
  0
LINE
  5
707
330
645
100
AcDbEntity
  8
0
  6
Continuous
 62
     7
370
    15
100
AcDbLine
 10
2490.803068291409
 20
804.902659073654
 30
0.0
 11
2488.96770119501
 21
805.9621939456539
 31
0.0
  0
LINE
  5
708
330
645
100
AcDbEntity
  8
0
  6
Continuous
 62
     7
370
    15
100
AcDbLine
 10
2488.72811802631
 20
807.3929125644539
 30
0.0
 11
2488.96770119501
 21
805.9621939456539
 31
0.0
  0
LINE
  5
709
330
645
100
AcDbEntity
  8
0
  6
Continuous
 62
     7
370
    15
100
AcDbLine
 10
2495.30619135791
 20
817.2098079745538
 30
0.0
 11
2494.81121661111
 21
817.4955972586539
 31
0.0
  0
LINE
  5
70A
330
645
100
AcDbEntity
  8
0
  6
Continuous
 62
     7
370
    15
100
AcDbLine
 10
2496.93253695461
 20
816.2709850909539
 30
0.0
 11
2496.93253695461
 21
816.2709386459539
 31
0.0
  0
LINE
  5
70B
330
645
100
AcDbEntity
  8
0
  6
Continuous
 62
     7
370
    15
100
AcDbLine
 10
2496.93253695461
 20
816.2709386459539
 30
0.0
 11
2495.30619135791
 21
817.2098079745538
 31
0.0
  0
LINE
  5
70C
330
645
100
AcDbEntity
  8
0
  6
Continuous
 62
     7
370
    15
100
AcDbLine
 10
2499.69025340121
 20
817.8629344639539
 30
0.0
 11
2500.18522814811
 21
818.1487237481539
 31
0.0
  0
LINE
  5
70D
330
645
100
AcDbEntity
  8
0
  6
Continuous
 62
     7
370
    15
100
AcDbLine
 10
2499.69025340121
 20
817.8629344639539
 30
0.0
 11
2496.93253695461
 21
816.2709386459539
 31
0.0
  0
LINE
  5
70E
330
645
100
AcDbEntity
  8
0
  6
Continuous
 62
     7
370
    15
100
AcDbLine
 10
2495.69311982101
 20
816.1290113598537
 30
0.0
 11
2495.76581076571
 21
816.087047770654
 31
0.0
  0
ARC
  5
70F
330
645
100
AcDbEntity
  8
0
  6
Continuous
 62
     7
370
    15
100
AcDbCircle
 10
2495.83481886911
 20
816.1716501604539
 30
0.0
 40
0.1091772993568706
100
AcDbArc
 50
230.7967147639956
 51
9.214036990799057
  0
LINE
  5
710
330
645
100
AcDbEntity
  8
0
  6
Continuous
 62
     7
370
    15
100
AcDbLine
 10
2495.94258746101
 20
816.1891319596538
 30
0.0
 11
2495.94258746091
 21
816.8424243241538
 31
0.0
  0
LINE
  5
711
330
645
100
AcDbEntity
  8
0
  6
Continuous
 62
     7
370
    15
100
AcDbLine
 10
2496.92546588681
 20
816.2750206864538
 30
0.0
 11
2496.92546588681
 21
815.621728321954
 31
0.0
  0
ARC
  5
712
330
645
100
AcDbEntity
  8
0
  6
Continuous
 62
     7
370
    15
100
AcDbCircle
 10
2497.309269912109
 20
815.6391935349539
 30
0.0
 40
0.3842012018932185
100
AcDbArc
 50
182.6054784857019
 51
237.3945216600024
  0
LINE
  5
713
330
645
100
AcDbEntity
  8
0
  6
Continuous
 62
     7
370
    15
100
AcDbLine
 10
2497.102242582109
 20
815.315542104954
 30
0.0
 11
2497.17493352681
 21
815.2735785158538
 31
0.0
  0
ARC
  5
714
330
645
100
AcDbEntity
  8
0
  6
Continuous
 62
     7
370
    15
100
AcDbCircle
 10
2496.96790619671
 20
814.9499270858539
 30
0.0
 40
0.3842012018930404
100
AcDbArc
 50
2.605478485597803
 51
57.39452166000233
  0
LINE
  5
715
330
645
100
AcDbEntity
  8
0
  6
Continuous
 62
     7
370
    15
100
AcDbLine
 10
2497.35171022211
 20
814.9673922988538
 30
0.0
 11
2497.35171022211
 21
810.2521366293538
 31
0.0
  0
LINE
  5
716
330
645
100
AcDbEntity
  8
0
  6
Continuous
 62
     7
370
    15
100
AcDbLine
 10
2497.35171022211
 20
810.2521366293538
 30
0.0
 11
2495.51634312571
 21
811.3116715012537
 31
0.0
  0
LINE
  5
717
330
645
100
AcDbEntity
  8
0
  6
Continuous
 62
     7
370
    15
100
AcDbLine
 10
2495.51634312571
 20
816.0269271708539
 30
0.0
 11
2495.51634312571
 21
811.3116715012537
 31
0.0
  0
ARC
  5
718
330
645
100
AcDbEntity
  8
0
  6
Continuous
 62
     7
370
    15
100
AcDbCircle
 10
2495.62411171751
 20
816.044408970054
 30
0.0
 40
0.1091772993571549
100
AcDbArc
 50
50.79671476429672
 51
189.2140369905013
  0
ARC
  5
719
330
645
100
AcDbEntity
  8
0
  6
Continuous
 62
     7
370
    15
100
AcDbCircle
 10
2489.26870244811
 20
805.9909595978538
 30
0.0
 40
0.3023726461242187
100
AcDbArc
 50
185.4589815370972
 51
237.2630757801018
  0
LINE
  5
71A
330
645
100
AcDbEntity
  8
0
  6
Continuous
 62
     7
370
    15
100
AcDbLine
 10
2499.046786230409
 20
816.8463404896538
 30
0.0
 11
2499.046786230409
 21
817.4914687730538
 31
0.0
  0
LINE
  5
71B
330
645
100
AcDbEntity
  8
0
  6
Continuous
 62
     7
370
    15
100
AcDbLine
 10
2496.92546588681
 20
815.621728321954
 30
0.0
 11
2499.046786230409
 21
816.8463404896538
 31
0.0
  0
LINE
  5
71C
330
645
100
AcDbEntity
  8
0
  6
Continuous
 62
     7
370
    15
100
AcDbLine
 10
2500.96304560741
 20
823.7648950545539
 30
0.0
 11
2503.08436595091
 21
822.5402828868539
 31
0.0
  0
LINE
  5
71D
330
645
100
AcDbEntity
  8
0
  6
Continuous
 62
     7
370
    15
100
AcDbLine
 10
2500.96304560741
 20
823.8742253797537
 30
0.0
 11
2500.96304560741
 21
823.7648950545539
 31
0.0
  0
LINE
  5
71E
330
645
100
AcDbEntity
  8
0
  6
Continuous
 62
     7
370
    15
100
AcDbLine
 10
2497.35171022211
 20
814.9673922988538
 30
0.0
 11
2499.47303056561
 21
816.1920044666539
 31
0.0
  0
LINE
  5
71F
330
645
100
AcDbEntity
  8
0
  6
Continuous
 62
     7
370
    15
100
AcDbLine
 10
2499.29625387041
 20
816.4981906835539
 30
0.0
 11
2497.17493352681
 21
815.2735785158538
 31
0.0
  0
ARC
  5
720
330
645
100
AcDbEntity
  8
0
  6
Continuous
 62
     7
370
    15
100
AcDbCircle
 10
2499.08922654031
 20
816.1745392535539
 30
0.0
 40
0.384201201893101
100
AcDbArc
 50
2.605478485701916
 51
57.39452165990488
  0
ARC
  5
721
330
645
100
AcDbEntity
  8
0
  6
Continuous
 62
     7
370
    15
100
AcDbCircle
 10
2499.430590255709
 20
816.8638057027539
 30
0.0
 40
0.3842012018928215
100
AcDbArc
 50
182.6054784855978
 51
237.3945216600024
  0
LINE
  5
722
330
645
100
AcDbEntity
  8
0
  6
Continuous
 62
     7
370
    15
100
AcDbLine
 10
2499.22356292571
 20
816.5401542727538
 30
0.0
 11
2497.102242582109
 21
815.315542104954
 31
0.0
  0
LINE
  5
723
330
645
100
AcDbEntity
  8
0
  6
Continuous
 62
     7
370
    15
100
AcDbLine
 10
2499.47303056561
 20
811.4767487970539
 30
0.0
 11
2499.47303056561
 21
816.1920044666539
 31
0.0
  0
LINE
  5
724
330
645
100
AcDbEntity
  8
0
  6
Continuous
 62
     7
370
    15
100
AcDbLine
 10
2499.23344739701
 20
809.7694133395538
 30
0.0
 11
2499.47303056561
 21
811.4767487970539
 31
0.0
  0
ARC
  5
725
330
645
100
AcDbEntity
  8
0
  6
Continuous
 62
     7
370
    15
100
AcDbCircle
 10
2498.15121641501
 20
809.934832285554
 30
0.0
 40
1.094800130607157
100
AcDbArc
 50
302.9067666139053
 51
351.3096048989981
  0
LINE
  5
726
330
645
100
AcDbEntity
  8
0
  6
Continuous
 62
     7
370
    15
100
AcDbLine
 10
2498.078748359009
 20
808.6304947822538
 30
0.0
 11
2498.745992428709
 21
809.0156865846537
 31
0.0
  0
LWPOLYLINE
  5
727
330
645
100
AcDbEntity
  8
0
  6
Continuous
 62
     7
370
    15
100
AcDbPolyline
 90
        9
 70
   128
 43
0.0
 10
2498.078748359009
 20
808.6304947822538
 10
2497.99279689621
 20
808.5895596217538
 10
2497.90945702521
 20
808.5672353809538
 10
2497.83126098561
 20
808.5642003705538
 10
2497.76058472461
 20
808.5805468079538
 10
2497.69957570471
 20
808.6157780148539
 10
2497.650087654009
 20
808.6688235087539
 10
2497.61362424191
 20
808.7380715293539
 10
2497.59129339081
 20
808.8214180104539
  0
LINE
  5
728
330
645
100
AcDbEntity
  8
0
  6
Continuous
 62
     7
370
    15
100
AcDbLine
 10
2497.35171022211
 20
810.2521366293538
 30
0.0
 11
2497.59129339081
 21
808.8214180104539
 31
0.0
  0
LINE
  5
729
330
645
100
AcDbEntity
  8
0
  6
Continuous
 62
     7
370
    15
100
AcDbLine
 10
2499.29625387041
 20
816.4981906835539
 30
0.0
 11
2499.22356292571
 21
816.5401542727538
 31
0.0
  0
LINE
  5
72A
330
645
100
AcDbEntity
  8
0
  6
Continuous
 62
     7
370
    15
100
AcDbLine
 10
2501.06659899801
 20
823.5359843818539
 30
0.0
 11
2503.18791934151
 21
822.3113722141539
 31
0.0
  0
ARC
  5
72B
330
645
100
AcDbEntity
  8
0
  6
Continuous
 62
     7
370
    15
100
AcDbCircle
 10
2501.213375394109
 20
823.7402601079539
 30
0.0
 40
0.2515390281776592
100
AcDbArc
 50
174.3796210363968
 51
234.3019614711971
  0
LINE
  5
72C
330
645
100
AcDbEntity
  8
0
  6
Continuous
 62
     7
370
    15
100
AcDbLine
 10
2506.69061053501
 20
825.1121011391539
 30
0.0
 11
2506.407767822509
 21
825.2753827614538
 31
0.0
  0
LINE
  5
72D
330
645
100
AcDbEntity
  8
0
  6
Continuous
 62
     7
370
    15
100
AcDbLine
 10
2506.69061053501
 20
825.1121011391539
 30
0.0
 11
2504.56929019141
 21
823.8874889713539
 31
0.0
  0
LINE
  5
72E
330
645
100
AcDbEntity
  8
0
  6
Continuous
 62
     7
370
    15
100
AcDbLine
 10
2504.56929019141
 20
823.8874889713539
 30
0.0
 11
2504.286447479009
 21
824.0507705937538
 31
0.0
  0
LINE
  5
72F
330
645
100
AcDbEntity
  8
0
  6
Continuous
 62
     7
370
    15
100
AcDbLine
 10
2504.286447479009
 20
822.9892675383538
 30
0.0
 11
2504.56929019141
 21
823.8874889713539
 31
0.0
  0
LINE
  5
730
330
645
100
AcDbEntity
  8
0
  6
Continuous
 62
     7
370
    15
100
AcDbLine
 10
2506.407767822509
 20
824.2138797060539
 30
0.0
 11
2506.69061053501
 21
825.1121011391539
 31
0.0
  0
LINE
  5
731
330
645
100
AcDbEntity
  8
0
  6
Continuous
 62
     7
370
    15
100
AcDbLine
 10
2501.49588831981
 20
823.2880803683539
 30
0.0
 11
2503.61720866341
 21
822.0634682005538
 31
0.0
  0
LINE
  5
732
330
645
100
AcDbEntity
  8
0
  6
Continuous
 62
     7
370
    15
100
AcDbLine
 10
2501.06659899801
 20
823.5359843818539
 30
0.0
 11
2501.49588831981
 21
823.2880803683539
 31
0.0
  0
LINE
  5
733
330
645
100
AcDbEntity
  8
0
  6
Continuous
 62
     7
370
    15
100
AcDbLine
 10
2503.72076205401
 20
821.8345575279538
 30
0.0
 11
2501.599441710409
 21
823.0591696956539
 31
0.0
  0
ARC
  5
734
330
645
100
AcDbEntity
  8
0
  6
Continuous
 62
     7
370
    15
100
AcDbCircle
 10
2501.34911192381
 20
823.0838046422539
 30
0.0
 40
0.2515390281772057
100
AcDbArc
 50
354.3796210363968
 51
54.30196147119715
  0
LINE
  5
735
330
645
100
AcDbEntity
  8
0
  6
Continuous
 62
     7
370
    15
100
AcDbLine
 10
2501.599441710409
 20
821.4143561954539
 30
0.0
 11
2503.72076205401
 21
820.1897440276539
 31
0.0
  0
LINE
  5
736
330
645
100
AcDbEntity
  8
0
  6
Continuous
 62
     7
370
    15
100
AcDbLine
 10
2501.599441710409
 20
823.0591696956539
 30
0.0
 11
2501.599441710409
 21
821.4143561954539
 31
0.0
  0
LINE
  5
737
330
645
100
AcDbEntity
  8
0
  6
Continuous
 62
     7
370
    15
100
AcDbLine
 10
2497.59129339081
 20
808.8214180104539
 30
0.0
 11
2495.75592629441
 21
809.8809528823538
 31
0.0
  0
LINE
  5
738
330
645
100
AcDbEntity
  8
0
  6
Continuous
 62
     7
370
    15
100
AcDbLine
 10
2495.51634312571
 20
811.3116715012537
 30
0.0
 11
2495.75592629441
 21
809.8809528823538
 31
0.0
  0
LINE
  5
739
330
645
100
AcDbEntity
  8
0
  6
Continuous
 62
     7
370
    15
100
AcDbLine
 10
2506.47847850061
 20
821.781693400754
 30
0.0
 11
2506.97345324751
 21
822.0674826848538
 31
0.0
  0
LINE
  5
73A
330
645
100
AcDbEntity
  8
0
  6
Continuous
 62
     7
370
    15
100
AcDbLine
 10
2506.47847850061
 20
821.781693400754
 30
0.0
 11
2503.72076205401
 21
820.1896975826539
 31
0.0
  0
LINE
  5
73B
330
645
100
AcDbEntity
  8
0
  6
Continuous
 62
     7
370
    15
100
AcDbLine
 10
2503.72076205401
 20
820.1897440276539
 30
0.0
 11
2503.72076205401
 21
820.1896975826539
 31
0.0
  0
LINE
  5
73C
330
645
100
AcDbEntity
  8
0
  6
Continuous
 62
     7
370
    15
100
AcDbLine
 10
2502.09441645731
 20
821.1285669112537
 30
0.0
 11
2501.599441710409
 21
821.4143561954539
 31
0.0
  0
LINE
  5
73D
330
645
100
AcDbEntity
  8
0
  6
Continuous
 62
     7
370
    15
100
AcDbLine
 10
2503.72076205401
 20
820.1896975826539
 30
0.0
 11
2502.09441645731
 21
821.1285669112537
 31
0.0
  0
LINE
  5
73E
330
645
100
AcDbEntity
  8
0
  6
Continuous
 62
     7
370
    15
100
AcDbLine
 10
2502.48134492031
 20
820.0477702965539
 30
0.0
 11
2502.55403586501
 21
820.0058067074538
 31
0.0
  0
ARC
  5
73F
330
645
100
AcDbEntity
  8
0
  6
Continuous
 62
     7
370
    15
100
AcDbCircle
 10
2502.62304396851
 20
820.0904090971539
 30
0.0
 40
0.1091772993569092
100
AcDbArc
 50
230.7967147639956
 51
9.214036990799057
  0
LINE
  5
740
330
645
100
AcDbEntity
  8
0
  6
Continuous
 62
     7
370
    15
100
AcDbLine
 10
2502.73081256031
 20
820.1078908964539
 30
0.0
 11
2502.73081256031
 21
820.7611832609538
 31
0.0
  0
LINE
  5
741
330
645
100
AcDbEntity
  8
0
  6
Continuous
 62
     7
370
    15
100
AcDbLine
 10
2503.71369098621
 20
820.1937796232538
 30
0.0
 11
2503.71369098621
 21
819.5404872586539
 31
0.0
  0
ARC
  5
742
330
645
100
AcDbEntity
  8
0
  6
Continuous
 62
     7
370
    15
100
AcDbCircle
 10
2504.09749501151
 20
819.5579524717539
 30
0.0
 40
0.3842012018928687
100
AcDbArc
 50
182.6054784855978
 51
237.3945216600024
  0
LINE
  5
743
330
645
100
AcDbEntity
  8
0
  6
Continuous
 62
     7
370
    15
100
AcDbLine
 10
2503.89046768151
 20
819.2343010417539
 30
0.0
 11
2503.96315862621
 21
819.192337452554
 31
0.0
  0
ARC
  5
744
330
645
100
AcDbEntity
  8
0
  6
Continuous
 62
     7
370
    15
100
AcDbCircle
 10
2503.75613129611
 20
818.8686860225539
 30
0.0
 40
0.3842012018930404
100
AcDbArc
 50
2.605478485597803
 51
57.39452166000233
  0
LINE
  5
745
330
645
100
AcDbEntity
  8
0
  6
Continuous
 62
     7
370
    15
100
AcDbLine
 10
2504.13993532151
 20
818.8861512356538
 30
0.0
 11
2504.13993532151
 21
814.1708955660538
 31
0.0
  0
LINE
  5
746
330
645
100
AcDbEntity
  8
0
  6
Continuous
 62
     7
370
    15
100
AcDbLine
 10
2504.13993532151
 20
814.1708955660538
 30
0.0
 11
2502.30456822501
 21
815.2304304379539
 31
0.0
  0
LINE
  5
747
330
645
100
AcDbEntity
  8
0
  6
Continuous
 62
     7
370
    15
100
AcDbLine
 10
2502.30456822501
 20
819.9456861075539
 30
0.0
 11
2502.30456822501
 21
815.2304304379539
 31
0.0
  0
ARC
  5
748
330
645
100
AcDbEntity
  8
0
  6
Continuous
 62
     7
370
    15
100
AcDbCircle
 10
2502.412336816909
 20
819.963167906754
 30
0.0
 40
0.1091772993571755
100
AcDbArc
 50
50.79671476429672
 51
189.2140369905013
  0
ARC
  5
749
330
645
100
AcDbEntity
  8
0
  6
Continuous
 62
     7
370
    15
100
AcDbCircle
 10
2496.05692754751
 20
809.9097185346538
 30
0.0
 40
0.3023726461241438
100
AcDbArc
 50
185.4589815370972
 51
237.2630757801018
  0
LINE
  5
74A
330
645
100
AcDbEntity
  8
0
  6
Continuous
 62
     7
370
    15
100
AcDbLine
 10
2505.83501132971
 20
820.7650994264538
 30
0.0
 11
2505.83501132971
 21
821.4102277098538
 31
0.0
  0
LINE
  5
74B
330
645
100
AcDbEntity
  8
0
  6
Continuous
 62
     7
370
    15
100
AcDbLine
 10
2503.71369098621
 20
819.5404872586539
 30
0.0
 11
2505.83501132971
 21
820.7650994264538
 31
0.0
  0
LINE
  5
74C
330
645
100
AcDbEntity
  8
0
  6
Continuous
 62
     7
370
    15
100
AcDbLine
 10
2504.13993532151
 20
818.8861512356538
 30
0.0
 11
2506.26125566501
 21
820.1107634033538
 31
0.0
  0
LINE
  5
74D
330
645
100
AcDbEntity
  8
0
  6
Continuous
 62
     7
370
    15
100
AcDbLine
 10
2506.08447896971
 20
820.4169496203538
 30
0.0
 11
2503.96315862621
 21
819.192337452554
 31
0.0
  0
ARC
  5
74E
330
645
100
AcDbEntity
  8
0
  6
Continuous
 62
     7
370
    15
100
AcDbCircle
 10
2505.87745163971
 20
820.0932981902539
 30
0.0
 40
0.3842012018935941
100
AcDbArc
 50
2.605478485701916
 51
57.39452165990488
  0
ARC
  5
74F
330
645
100
AcDbEntity
  8
0
  6
Continuous
 62
     7
370
    15
100
AcDbCircle
 10
2506.21881535511
 20
820.7825646394539
 30
0.0
 40
0.3842012018930713
100
AcDbArc
 50
182.6054784857019
 51
237.3945216600024
  0
LINE
  5
750
330
645
100
AcDbEntity
  8
0
  6
Continuous
 62
     7
370
    15
100
AcDbLine
 10
2506.01178802501
 20
820.4589132094538
 30
0.0
 11
2503.89046768151
 21
819.2343010417539
 31
0.0
  0
LINE
  5
751
330
645
100
AcDbEntity
  8
0
  6
Continuous
 62
     7
370
    15
100
AcDbLine
 10
2506.26125566501
 20
815.3955077337538
 30
0.0
 11
2506.26125566501
 21
820.1107634033538
 31
0.0
  0
LINE
  5
752
330
645
100
AcDbEntity
  8
0
  6
Continuous
 62
     7
370
    15
100
AcDbLine
 10
2506.02167249631
 20
813.688172276354
 30
0.0
 11
2506.26125566501
 21
815.3955077337538
 31
0.0
  0
ARC
  5
753
330
645
100
AcDbEntity
  8
0
  6
Continuous
 62
     7
370
    15
100
AcDbCircle
 10
2504.93944151441
 20
813.8535912223538
 30
0.0
 40
1.094800130607244
100
AcDbArc
 50
302.9067666139053
 51
351.3096048989981
  0
LINE
  5
754
330
645
100
AcDbEntity
  8
0
  6
Continuous
 62
     7
370
    15
100
AcDbLine
 10
2504.86697345841
 20
812.5492537190538
 30
0.0
 11
2505.53421752811
 21
812.9344455214539
 31
0.0
  0
LWPOLYLINE
  5
755
330
645
100
AcDbEntity
  8
0
  6
Continuous
 62
     7
370
    15
100
AcDbPolyline
 90
        9
 70
   128
 43
0.0
 10
2504.86697345841
 20
812.5492537190538
 10
2504.78102199561
 20
812.5083185584539
 10
2504.69768212451
 20
812.4859943176538
 10
2504.61948608501
 20
812.4829593073538
 10
2504.54880982401
 20
812.4993057447538
 10
2504.48780080411
 20
812.5345369515539
 10
2504.43831275341
 20
812.5875824455539
 10
2504.40184934131
 20
812.6568304660539
 10
2504.37951849021
 20
812.7401769471539
  0
LINE
  5
756
330
645
100
AcDbEntity
  8
0
  6
Continuous
 62
     7
370
    15
100
AcDbLine
 10
2504.13993532151
 20
814.1708955660538
 30
0.0
 11
2504.37951849021
 21
812.7401769471539
 31
0.0
  0
LINE
  5
757
330
645
100
AcDbEntity
  8
0
  6
Continuous
 62
     7
370
    15
100
AcDbLine
 10
2506.08447896971
 20
820.4169496203538
 30
0.0
 11
2506.01178802501
 21
820.4589132094538
 31
0.0
  0
LINE
  5
758
330
645
100
AcDbEntity
  8
0
  6
Continuous
 62
     7
370
    15
100
AcDbLine
 10
2504.37951849021
 20
812.7401769471539
 30
0.0
 11
2502.54415139371
 21
813.7997118191538
 31
0.0
  0
LINE
  5
759
330
645
100
AcDbEntity
  8
0
  6
Continuous
 62
     7
370
    15
100
AcDbLine
 10
2502.30456822501
 20
815.2304304379539
 30
0.0
 11
2502.54415139371
 21
813.7997118191538
 31
0.0
  0
ARC
  5
75A
330
645
100
AcDbEntity
  8
0
  6
Continuous
 62
     7
370
    15
100
AcDbCircle
 10
2502.845152646909
 20
813.8284774713538
 30
0.0
 40
0.3023726461242187
100
AcDbArc
 50
185.4589815370972
 51
237.2630757801018
  0
LINE
  5
75B
330
645
100
AcDbEntity
  8
0
  6
Continuous
 62
     8
370
    15
100
AcDbLine
 10
2482.18936056691
 20
808.2495298971538
 30
0.0
 11
2482.36613725981
 21
808.3515809097539
 31
0.0
  0
LINE
  5
75C
330
645
100
AcDbEntity
  8
0
  6
Continuous
 62
     8
370
    15
100
AcDbLine
 10
2482.11666962221
 20
808.291493486354
 30
0.0
 11
2482.36613726221
 21
808.4355080894537
 31
0.0
  0
LINE
  5
75D
330
645
100
AcDbEntity
  8
0
  6
Continuous
 62
     8
370
    15
100
AcDbLine
 10
2488.97758566631
 20
812.168288833954
 30
0.0
 11
2489.15436235921
 21
812.2703398465539
 31
0.0
  0
LINE
  5
75E
330
645
100
AcDbEntity
  8
0
  6
Continuous
 62
     8
370
    15
100
AcDbLine
 10
2488.90489472161
 20
812.2102524230539
 30
0.0
 11
2489.15436236161
 21
812.3542670261539
 31
0.0
  0
LINE
  5
75F
330
645
100
AcDbEntity
  8
0
  6
Continuous
 62
     8
370
    15
100
AcDbLine
 10
2495.76581076571
 20
816.087047770654
 30
0.0
 11
2495.94258745861
 21
816.1890987832538
 31
0.0
  0
LINE
  5
760
330
645
100
AcDbEntity
  8
0
  6
Continuous
 62
     8
370
    15
100
AcDbLine
 10
2495.69311982101
 20
816.1290113598537
 30
0.0
 11
2495.94258746101
 21
816.2730259629539
 31
0.0
  0
LINE
  5
761
330
645
100
AcDbEntity
  8
0
  6
Continuous
 62
     8
370
    15
100
AcDbLine
 10
2502.55403586501
 20
820.0058067074538
 30
0.0
 11
2502.73081255801
 21
820.107857720054
 31
0.0
  0
LINE
  5
762
330
645
100
AcDbEntity
  8
0
  6
Continuous
 62
     8
370
    15
100
AcDbLine
 10
2502.48134492031
 20
820.0477702965539
 30
0.0
 11
2502.73081256031
 21
820.1917848996538
 31
0.0
  0
ENDBLK
  5
647
330
645
100
AcDbEntity
  8
0
100
AcDbBlockEnd
  0
ENDSEC
  0
SECTION
  2
ENTITIES
  0
INSERT
  5
609
330
1F
100
AcDbEntity
  8
0
100
AcDbBlockReference
  2
1
 10
0.0
 20
0.0
 30
0.0
  0
INSERT
  5
63C
330
1F
100
AcDbEntity
  8
0
100
AcDbBlockReference
  2
2
 10
0.0
 20
0.0
 30
0.0
  0
INSERT
  5
644
330
1F
100
AcDbEntity
  8
0
100
AcDbBlockReference
  2
3
 10
0.0
 20
0.0
 30
0.0
  0
INSERT
  5
763
330
1F
100
AcDbEntity
  8
0
100
AcDbBlockReference
  2
4
 10
0.0
 20
0.0
 30
0.0
  0
ENDSEC
  0
SECTION
  2
OBJECTS
  0
DICTIONARY
  5
C
330
0
100
AcDbDictionary
281
     1
  3
ACAD_COLOR
350
6B
  3
ACAD_GROUP
350
D
  3
ACAD_LAYOUT
350
1A
  3
ACAD_MATERIAL
350
6A
  3
ACAD_MLEADERSTYLE
350
12D
  3
ACAD_MLINESTYLE
350
17
  3
ACAD_PLOTSETTINGS
350
19
  3
ACAD_PLOTSTYLENAME
350
E
  3
ACAD_SCALELIST
350
10C
  3
ACAD_TABLESTYLE
350
7E
  3
ACAD_VISUALSTYLE
350
EF
  3
ACDB_RECOMPOSE_DATA
350
15D
  3
AcDbVariableDictionary
350
5E
  3
DWGPROPS
350
77F
  0
DICTIONARY
  5
13C
330
10
100
AcDbDictionary
280
     1
281
     1
  3
ADSK_XREC_LAYER_RECONCILED
360
764
  0
DICTIONARY
  5
6B
102
{ACAD_REACTORS
330
C
102
}
330
C
100
AcDbDictionary
281
     1
  0
DICTIONARY
  5
D
102
{ACAD_REACTORS
330
C
102
}
330
C
100
AcDbDictionary
281
     1
  0
DICTIONARY
  5
1A
102
{ACAD_REACTORS
330
C
102
}
330
C
100
AcDbDictionary
281
     1
  3
Layout1
350
D3
  3
Layout2
350
D7
  3
Model
350
22
  0
DICTIONARY
  5
6A
102
{ACAD_REACTORS
330
C
102
}
330
C
100
AcDbDictionary
281
     1
  3
ByBlock
350
ED
  3
ByLayer
350
EC
  3
Global
350
EE
  0
DICTIONARY
  5
12D
102
{ACAD_REACTORS
330
C
102
}
330
C
100
AcDbDictionary
281
     1
  3
Annotative
350
13B
  3
Standard
350
12E
  0
DICTIONARY
  5
17
102
{ACAD_REACTORS
330
C
102
}
330
C
100
AcDbDictionary
281
     1
  3
Standard
350
18
  0
DICTIONARY
  5
19
102
{ACAD_REACTORS
330
C
102
}
330
C
100
AcDbDictionary
281
     1
  0
ACDBDICTIONARYWDFLT
  5
E
102
{ACAD_REACTORS
330
C
102
}
330
C
100
AcDbDictionary
281
     1
  3
Normal
350
F
100
AcDbDictionaryWithDefault
340
F
  0
DICTIONARY
  5
10C
102
{ACAD_REACTORS
330
C
102
}
330
C
100
AcDbDictionary
281
     1
  3
A0
350
10D
  3
A1
350
188
  3
A2
350
189
  3
A3
350
18A
  3
A4
350
18B
  3
A5
350
18C
  3
A6
350
18D
  3
A7
350
18E
  3
A8
350
18F
  3
A9
350
190
  3
B0
350
191
  3
B1
350
192
  3
B2
350
193
  3
B3
350
194
  3
B4
350
195
  3
B5
350
196
  3
B6
350
197
  3
B7
350
198
  3
B8
350
199
  3
B9
350
19A
  3
C0
350
19B
  3
C1
350
19C
  3
C2
350
19D
  3
C3
350
19E
  3
C4
350
19F
  3
C5
350
1A0
  3
C6
350
1A1
  3
C7
350
1A2
  3
C8
350
1A3
  3
C9
350
1A4
  3
D0
350
1A5
  3
D1
350
1A6
  3
D2
350
1A7
  0
DICTIONARY
  5
7E
102
{ACAD_REACTORS
330
C
102
}
330
C
100
AcDbDictionary
281
     1
  3
Standard
350
7F
  0
DICTIONARY
  5
EF
102
{ACAD_REACTORS
330
C
102
}
330
C
100
AcDbDictionary
281
     1
  3
2dWireframe
350
F5
  3
3D Hidden
350
F7
  3
3dWireframe
350
F6
  3
Basic
350
F4
  3
Brighten
350
FB
  3
ColorChange
350
FF
  3
Conceptual
350
F8
  3
Dim
350
FA
  3
Facepattern
350
FE
  3
Flat
350
F0
  3
FlatWithEdges
350
F1
  3
Gouraud
350
F2
  3
GouraudWithEdges
350
F3
  3
Linepattern
350
FD
  3
Realistic
350
F9
  3
Thicken
350
FC
  0
XRECORD
  5
15D
102
{ACAD_REACTORS
330
C
102
}
330
C
100
AcDbXrecord
280
     1
 90
        1
330
7F
  0
DICTIONARY
  5
5E
102
{ACAD_REACTORS
330
C
102
}
330
C
100
AcDbDictionary
281
     1
  3
CANNOSCALE
350
146
  3
CMLEADERSTYLE
350
145
  3
CTABLESTYLE
350
84
  3
DIMASSOC
350
5F
  3
HIDETEXT
350
63
  3
INDEXCTL
350
77D
  3
LIGHTINGUNITS
350
766
  3
MSLTSCALE
350
765
  3
PSOLHEIGHT
350
768
  3
PSOLWIDTH
350
767
  3
SORTENTS
350
77C
  0
XRECORD
  5
77F
102
{ACAD_REACTORS
330
C
102
}
330
C
100
AcDbXrecord
280
     1
  1
DWGPROPS COOKIE
  2

  3

  4

  6

  7

  8
orhan kara
  9

300
=
301
=
302
=
303
=
304
=
305
=
306
=
307
=
308
=
309
=
 40
0.000379849537037
 41
2458933.470190127
 42
2458956.447126389
  1

 90
        0
  0
XRECORD
  5
764
102
{ACAD_REACTORS
330
13C
102
}
330
13C
100
AcDbXrecord
280
     1
290
     1
  0
LAYOUT
  5
D3
102
{ACAD_XDICTIONARY
360
783
102
}
102
{ACAD_REACTORS
330
1A
102
}
330
1A
100
AcDbPlotSettings
  1

  2
C:\Documents and Settings\basas\Application Data\Autodesk\AutoCAD 2005\R16.1\enu\plotters\Default Windows System Printer.pc3
  4

  6

 40
0.0
 41
0.0
 42
0.0
 43
0.0
 44
0.0
 45
0.0
 46
0.0
 47
0.0
 48
0.0
 49
0.0
140
0.0
141
0.0
142
1.0
143
1.0
 70
   688
 72
     0
 73
     0
 74
     5
  7

 75
    16
147
1.0
148
0.0
149
0.0
100
AcDbLayout
  1
Layout1
 70
     1
 71
     1
 10
0.0
 20
0.0
 11
12.0
 21
9.0
 12
0.0
 22
0.0
 32
0.0
 14
0.0
 24
0.0
 34
0.0
 15
0.0
 25
0.0
 35
0.0
146
0.0
 13
0.0
 23
0.0
 33
0.0
 16
1.0
 26
0.0
 36
0.0
 17
0.0
 27
1.0
 37
0.0
 76
     0
330
D2
  0
LAYOUT
  5
D7
102
{ACAD_XDICTIONARY
360
785
102
}
102
{ACAD_REACTORS
330
1A
102
}
330
1A
100
AcDbPlotSettings
  1

  2
C:\Documents and Settings\basas\Application Data\Autodesk\AutoCAD 2005\R16.1\enu\plotters\Default Windows System Printer.pc3
  4

  6

 40
0.0
 41
0.0
 42
0.0
 43
0.0
 44
0.0
 45
0.0
 46
0.0
 47
0.0
 48
0.0
 49
0.0
140
0.0
141
0.0
142
1.0
143
1.0
 70
   688
 72
     0
 73
     0
 74
     5
  7

 75
    16
147
1.0
148
0.0
149
0.0
100
AcDbLayout
  1
Layout2
 70
     1
 71
     2
 10
0.0
 20
0.0
 11
12.0
 21
9.0
 12
0.0
 22
0.0
 32
0.0
 14
0.0
 24
0.0
 34
0.0
 15
0.0
 25
0.0
 35
0.0
146
0.0
 13
0.0
 23
0.0
 33
0.0
 16
1.0
 26
0.0
 36
0.0
 17
0.0
 27
1.0
 37
0.0
 76
     0
330
D6
  0
LAYOUT
  5
22
102
{ACAD_XDICTIONARY
360
780
102
}
102
{ACAD_REACTORS
330
1A
102
}
330
1A
100
AcDbPlotSettings
  1

  2
none_device
  4
ISO_A4_(210.00_x_297.00_MM)
  6

 40
7.5
 41
20.0
 42
7.5
 43
20.0
 44
210.0
 45
297.0
 46
11.54999923706054
 47
-13.65000009536743
 48
0.0
 49
0.0
140
0.0
141
0.0
142
1.0
143
8.704084754739808
 70
 11952
 72
     1
 73
     0
 74
     0
  7

 75
     0
147
0.1148885871608098
148
0.0
149
0.0
100
AcDbLayout
  1
Model
 70
     1
 71
     0
 10
0.0
 20
0.0
 11
12.0
 21
9.0
 12
0.0
 22
0.0
 32
0.0
 14
0.0
 24
0.0
 34
0.0
 15
0.0
 25
0.0
 35
0.0
146
0.0
 13
0.0
 23
0.0
 33
0.0
 16
1.0
 26
0.0
 36
0.0
 17
0.0
 27
1.0
 37
0.0
 76
     0
330
1F
331
EA
1001
ACAD_PSEXT
1000
None
1000
None
1000
Not applicable
1000
The layout will not be plotted unless a new plotter configuration name is selected.
1070
     0
  0
MATERIAL
  5
ED
102
{ACAD_XDICTIONARY
360
789
102
}
102
{ACAD_REACTORS
330
6A
102
}
330
6A
100
AcDbMaterial
  1
ByBlock
  0
MATERIAL
  5
EC
102
{ACAD_XDICTIONARY
360
787
102
}
102
{ACAD_REACTORS
330
6A
102
}
330
6A
100
AcDbMaterial
  1
ByLayer
  0
MATERIAL
  5
EE
102
{ACAD_XDICTIONARY
360
173
102
}
102
{ACAD_REACTORS
330
6A
102
}
330
6A
100
AcDbMaterial
  1
Global
 43
0.0007999999797903
 43
0.0
 43
0.0
 43
0.0
 43
0.0
 43
0.0007999999797903
 43
0.0
 43
0.0
 43
0.0
 43
0.0
 43
1.0
 43
0.0
 43
0.0
 43
0.0
 43
0.0
 43
1.0
 49
0.0007999999797903
 49
0.0
 49
0.0
 49
0.0
 49
0.0
 49
0.0007999999797903
 49
0.0
 49
0.0
 49
0.0
 49
0.0
 49
1.0
 49
0.0
 49
0.0
 49
0.0
 49
0.0
 49
1.0
142
0.0007999999797903
142
0.0
142
0.0
142
0.0
142
0.0
142
0.0007999999797903
142
0.0
142
0.0
142
0.0
142
0.0
142
1.0
142
0.0
142
0.0
142
0.0
142
0.0
142
1.0
144
0.0007999999797903
144
0.0
144
0.0
144
0.0
144
0.0
144
0.0007999999797903
144
0.0
144
0.0
144
0.0
144
0.0
144
1.0
144
0.0
144
0.0
144
0.0
144
0.0
144
1.0
1001
ACAD
1070
    -1
1070
     3
1070
     0
1000

1071
        0
1070
     0
  0
MLEADERSTYLE
  5
13B
102
{ACAD_REACTORS
330
12D
102
}
330
12D
100
AcDbMLeaderStyle
170
     2
171
     1
172
     0
 90
        2
 40
0.0
 41
0.0
173
     1
 91
-1056964608
340
14
 92
       -2
290
     1
 42
2.0
291
     1
 43
8.0
  3
Standard
 44
4.0
300

342
11
174
     1
178
     1
175
     1
176
     0
 93
-1056964608
 45
4.0
292
     0
297
     0
 46
4.0
 94
-1056964608
 47
1.0
 49
1.0
140
1.0
293
     1
141
0.0
294
     1
177
     0
142
1.0
295
     0
296
     1
143
3.75
1001
ACAD_MLEADERVER
1070
     2
  0
MLEADERSTYLE
  5
12E
102
{ACAD_REACTORS
330
12D
102
}
330
12D
100
AcDbMLeaderStyle
170
     2
171
     1
172
     0
 90
        2
 40
0.0
 41
0.0
173
     1
 91
-1056964608
340
14
 92
       -2
290
     1
 42
2.0
291
     1
 43
8.0
  3
Standard
 44
4.0
300

342
11
174
     1
178
     1
175
     1
176
     0
 93
-1056964608
 45
4.0
292
     0
297
     0
 46
4.0
 94
-1056964608
 47
1.0
 49
1.0
140
1.0
293
     1
141
0.0
294
     1
177
     0
142
1.0
295
     0
296
     0
143
3.75
1001
ACAD_MLEADERVER
1070
     2
  0
MLINESTYLE
  5
18
102
{ACAD_REACTORS
330
17
102
}
330
17
100
AcDbMlineStyle
  2
STANDARD
 70
     0
  3

 62
   256
 51
90.0
 52
90.0
 71
     2
 49
0.5
 62
   256
  6
BYLAYER
 49
-0.5
 62
   256
  6
BYLAYER
  0
ACDBPLACEHOLDER
  5
F
102
{ACAD_REACTORS
330
E
102
}
330
E
  0
SCALE
  5
10D
102
{ACAD_REACTORS
330
10C
102
}
330
10C
100
AcDbScale
 70
     0
300
1:1
140
1.0
141
1.0
290
     1
  0
SCALE
  5
188
102
{ACAD_REACTORS
330
10C
102
}
330
10C
100
AcDbScale
 70
     0
300
1:2
140
1.0
141
2.0
290
     0
  0
SCALE
  5
189
102
{ACAD_REACTORS
330
10C
102
}
330
10C
100
AcDbScale
 70
     0
300
1:4
140
1.0
141
4.0
290
     0
  0
SCALE
  5
18A
102
{ACAD_REACTORS
330
10C
102
}
330
10C
100
AcDbScale
 70
     0
300
1:5
140
1.0
141
5.0
290
     0
  0
SCALE
  5
18B
102
{ACAD_REACTORS
330
10C
102
}
330
10C
100
AcDbScale
 70
     0
300
1:8
140
1.0
141
8.0
290
     0
  0
SCALE
  5
18C
102
{ACAD_REACTORS
330
10C
102
}
330
10C
100
AcDbScale
 70
     0
300
1:10
140
1.0
141
10.0
290
     0
  0
SCALE
  5
18D
102
{ACAD_REACTORS
330
10C
102
}
330
10C
100
AcDbScale
 70
     0
300
1:16
140
1.0
141
16.0
290
     0
  0
SCALE
  5
18E
102
{ACAD_REACTORS
330
10C
102
}
330
10C
100
AcDbScale
 70
     0
300
1:20
140
1.0
141
20.0
290
     0
  0
SCALE
  5
18F
102
{ACAD_REACTORS
330
10C
102
}
330
10C
100
AcDbScale
 70
     0
300
1:30
140
1.0
141
30.0
290
     0
  0
SCALE
  5
190
102
{ACAD_REACTORS
330
10C
102
}
330
10C
100
AcDbScale
 70
     0
300
1:40
140
1.0
141
40.0
290
     0
  0
SCALE
  5
191
102
{ACAD_REACTORS
330
10C
102
}
330
10C
100
AcDbScale
 70
     0
300
1:50
140
1.0
141
50.0
290
     0
  0
SCALE
  5
192
102
{ACAD_REACTORS
330
10C
102
}
330
10C
100
AcDbScale
 70
     0
300
1:100
140
1.0
141
100.0
290
     0
  0
SCALE
  5
193
102
{ACAD_REACTORS
330
10C
102
}
330
10C
100
AcDbScale
 70
     0
300
2:1
140
2.0
141
1.0
290
     0
  0
SCALE
  5
194
102
{ACAD_REACTORS
330
10C
102
}
330
10C
100
AcDbScale
 70
     0
300
4:1
140
4.0
141
1.0
290
     0
  0
SCALE
  5
195
102
{ACAD_REACTORS
330
10C
102
}
330
10C
100
AcDbScale
 70
     0
300
8:1
140
8.0
141
1.0
290
     0
  0
SCALE
  5
196
102
{ACAD_REACTORS
330
10C
102
}
330
10C
100
AcDbScale
 70
     0
300
10:1
140
10.0
141
1.0
290
     0
  0
SCALE
  5
197
102
{ACAD_REACTORS
330
10C
102
}
330
10C
100
AcDbScale
 70
     0
300
100:1
140
100.0
141
1.0
290
     0
  0
SCALE
  5
198
102
{ACAD_REACTORS
330
10C
102
}
330
10C
100
AcDbScale
 70
     0
300
1/128" = 1'-0"
140
0.0078125
141
12.0
290
     0
  0
SCALE
  5
199
102
{ACAD_REACTORS
330
10C
102
}
330
10C
100
AcDbScale
 70
     0
300
1/64" = 1'-0"
140
0.015625
141
12.0
290
     0
  0
SCALE
  5
19A
102
{ACAD_REACTORS
330
10C
102
}
330
10C
100
AcDbScale
 70
     0
300
1/32" = 1'-0"
140
0.03125
141
12.0
290
     0
  0
SCALE
  5
19B
102
{ACAD_REACTORS
330
10C
102
}
330
10C
100
AcDbScale
 70
     0
300
1/16" = 1'-0"
140
0.0625
141
12.0
290
     0
  0
SCALE
  5
19C
102
{ACAD_REACTORS
330
10C
102
}
330
10C
100
AcDbScale
 70
     0
300
3/32" = 1'-0"
140
0.09375
141
12.0
290
     0
  0
SCALE
  5
19D
102
{ACAD_REACTORS
330
10C
102
}
330
10C
100
AcDbScale
 70
     0
300
1/8" = 1'-0"
140
0.125
141
12.0
290
     0
  0
SCALE
  5
19E
102
{ACAD_REACTORS
330
10C
102
}
330
10C
100
AcDbScale
 70
     0
300
3/16" = 1'-0"
140
0.1875
141
12.0
290
     0
  0
SCALE
  5
19F
102
{ACAD_REACTORS
330
10C
102
}
330
10C
100
AcDbScale
 70
     0
300
1/4" = 1'-0"
140
0.25
141
12.0
290
     0
  0
SCALE
  5
1A0
102
{ACAD_REACTORS
330
10C
102
}
330
10C
100
AcDbScale
 70
     0
300
3/8" = 1'-0"
140
0.375
141
12.0
290
     0
  0
SCALE
  5
1A1
102
{ACAD_REACTORS
330
10C
102
}
330
10C
100
AcDbScale
 70
     0
300
1/2" = 1'-0"
140
0.5
141
12.0
290
     0
  0
SCALE
  5
1A2
102
{ACAD_REACTORS
330
10C
102
}
330
10C
100
AcDbScale
 70
     0
300
3/4" = 1'-0"
140
0.75
141
12.0
290
     0
  0
SCALE
  5
1A3
102
{ACAD_REACTORS
330
10C
102
}
330
10C
100
AcDbScale
 70
     0
300
1" = 1'-0"
140
1.0
141
12.0
290
     0
  0
SCALE
  5
1A4
102
{ACAD_REACTORS
330
10C
102
}
330
10C
100
AcDbScale
 70
     0
300
1-1/2" = 1'-0"
140
1.5
141
12.0
290
     0
  0
SCALE
  5
1A5
102
{ACAD_REACTORS
330
10C
102
}
330
10C
100
AcDbScale
 70
     0
300
3" = 1'-0"
140
3.0
141
12.0
290
     0
  0
SCALE
  5
1A6
102
{ACAD_REACTORS
330
10C
102
}
330
10C
100
AcDbScale
 70
     0
300
6" = 1'-0"
140
6.0
141
12.0
290
     0
  0
SCALE
  5
1A7
102
{ACAD_REACTORS
330
10C
102
}
330
10C
100
AcDbScale
 70
     0
300
1'-0" = 1'-0"
140
12.0
141
12.0
290
     0
  0
TABLESTYLE
  5
7F
102
{ACAD_XDICTIONARY
360
162
102
}
102
{ACAD_REACTORS
330
7E
102
}
330
7E
100
AcDbTableStyle
  3
Standard
 70
     0
 71
     0
 40
1.5
 41
1.5
280
     0
281
     0
  7
Standard
140
4.5
170
     2
 62
     0
 63
     7
283
     0
274
    -2
284
     1
 64
     0
275
    -2
285
     1
 65
     0
276
    -2
286
     1
 66
     0
277
    -2
287
     1
 67
     0
278
    -2
288
     1
 68
     0
279
    -2
289
     1
 69
     0
  7
Standard
140
6.0
170
     5
 62
     0
 63
     7
283
     0
274
    -2
284
     1
 64
     0
275
    -2
285
     1
 65
     0
276
    -2
286
     1
 66
     0
277
    -2
287
     1
 67
     0
278
    -2
288
     1
 68
     0
279
    -2
289
     1
 69
     0
  7
Standard
140
4.5
170
     5
 62
     0
 63
     7
283
     0
274
    -2
284
     1
 64
     0
275
    -2
285
     1
 65
     0
276
    -2
286
     1
 66
     0
277
    -2
287
     1
 67
     0
278
    -2
288
     1
 68
     0
279
    -2
289
     1
 69
     0
  0
VISUALSTYLE
  5
F5
102
{ACAD_REACTORS
330
EF
102
}
330
EF
100
AcDbVisualStyle
  2
2dWireframe
 70
     4
 71
     0
 72
     2
 73
     1
 90
        0
 40
-0.6
 41
-30.0
 62
     5
 63
     7
 74
     1
 91
        4
 64
     7
 65
   257
 75
     1
175
     1
 42
1.0
 92
        0
 66
   257
 43
1.0
 76
     1
 77
     6
 78
     2
 67
     7
 79
     5
170
     0
171
     0
290
     0
174
     0
 93
        1
 44
0.0
173
     0
291
     0
 45
0.0
1001
ACAD
1000
AcDbSavedByObjectVersion
1070
     0
  0
VISUALSTYLE
  5
F7
102
{ACAD_REACTORS
330
EF
102
}
330
EF
100
AcDbVisualStyle
  2
3D Hidden
 70
     6
 71
     1
 72
     2
 73
     2
 90
        0
 40
-0.6
 41
-30.0
 62
     5
 63
     7
 74
     2
 91
        2
 64
     7
 65
   257
 75
     2
175
     1
 42
40.0
 92
        0
 66
   257
 43
1.0
 76
     1
 77
     6
 78
     2
 67
     7
 79
     3
170
     0
171
     0
290
     0
174
     0
 93
        1
 44
0.0
173
     0
291
     0
 45
0.0
1001
ACAD
1000
AcDbSavedByObjectVersion
1070
     0
  0
VISUALSTYLE
  5
F6
102
{ACAD_REACTORS
330
EF
102
}
330
EF
100
AcDbVisualStyle
  2
3dWireframe
 70
     5
 71
     0
 72
     2
 73
     1
 90
        0
 40
-0.6
 41
-30.0
 62
     5
 63
     7
 74
     1
 91
        4
 64
     7
 65
   257
 75
     1
175
     1
 42
1.0
 92
        0
 66
   257
 43
1.0
 76
     1
 77
     6
 78
     2
 67
     7
 79
     5
170
     0
171
     0
290
     0
174
     0
 93
        1
 44
0.0
173
     0
291
     0
 45
0.0
1001
ACAD
1000
AcDbSavedByObjectVersion
1070
     0
  0
VISUALSTYLE
  5
F4
102
{ACAD_REACTORS
330
EF
102
}
330
EF
100
AcDbVisualStyle
  2
Basic
 70
     7
 71
     1
 72
     0
 73
     1
 90
        0
 40
-0.6
 41
-30.0
 62
     5
 63
     7
 74
     0
 91
        4
 64
     7
 65
   257
 75
     1
175
     1
 42
1.0
 92
        8
 66
     7
 43
1.0
 76
     1
 77
     6
 78
     2
 67
     7
 79
     5
170
     0
171
     0
290
     0
174
     0
 93
        1
 44
0.0
173
     0
291
     1
 45
0.0
1001
ACAD
1000
AcDbSavedByObjectVersion
1070
     0
  0
VISUALSTYLE
  5
FB
102
{ACAD_REACTORS
330
EF
102
}
330
EF
100
AcDbVisualStyle
  2
Brighten
 70
    12
 71
     2
 72
     2
 73
     1
 90
        0
 40
-0.6
 41
-30.0
 62
     5
 63
     7
 74
     1
 91
        4
 64
     7
 65
   257
 75
     1
175
     1
 42
1.0
 92
        8
 66
     7
 43
1.0
 76
     1
 77
     6
 78
     2
 67
     7
 79
     5
170
     0
171
     0
290
     0
174
     0
 93
        1
 44
50.0
173
     0
291
     1
 45
0.0
1001
ACAD
1000
AcDbSavedByObjectVersion
1070
     0
  0
VISUALSTYLE
  5
FF
102
{ACAD_REACTORS
330
EF
102
}
330
EF
100
AcDbVisualStyle
  2
ColorChange
 70
    16
 71
     2
 72
     2
 73
     3
 90
        0
 40
-0.6
 41
-30.0
 62
     5
 63
     8
 74
     1
 91
        4
 64
     7
 65
   257
 75
     1
175
     1
 42
1.0
 92
        8
 66
     8
 43
1.0
 76
     1
 77
     6
 78
     2
 67
     7
 79
     5
170
     0
171
     0
290
     0
174
     0
 93
        1
 44
0.0
173
     0
291
     1
 45
0.0
1001
ACAD
1000
AcDbSavedByObjectVersion
1070
     0
  0
VISUALSTYLE
  5
F8
102
{ACAD_REACTORS
330
EF
102
}
330
EF
100
AcDbVisualStyle
  2
Conceptual
 70
     9
 71
     3
 72
     2
 73
     1
 90
        0
 40
-0.6
 41
-30.0
 62
     5
 63
     7
 74
     2
 91
        2
 64
     7
 65
   257
 75
     1
175
     1
 42
40.0
 92
        8
 66
     7
 43
1.0
 76
     1
 77
     6
 78
     2
 67
     7
 79
     3
170
     0
171
     0
290
     0
174
     0
 93
        1
 44
0.0
173
     0
291
     0
 45
0.0
1001
ACAD
1000
AcDbSavedByObjectVersion
1070
     0
  0
VISUALSTYLE
  5
FA
102
{ACAD_REACTORS
330
EF
102
}
330
EF
100
AcDbVisualStyle
  2
Dim
 70
    11
 71
     2
 72
     2
 73
     1
 90
        0
 40
-0.6
 41
-30.0
 62
     5
 63
     7
 74
     1
 91
        4
 64
     7
 65
   257
 75
     1
175
     1
 42
1.0
 92
        8
 66
     7
 43
1.0
 76
     1
 77
     6
 78
     2
 67
     7
 79
     5
170
     0
171
     0
290
     0
174
     0
 93
        1
 44
-50.0
173
     0
291
     1
 45
0.0
1001
ACAD
1000
AcDbSavedByObjectVersion
1070
     0
  0
VISUALSTYLE
  5
FE
102
{ACAD_REACTORS
330
EF
102
}
330
EF
100
AcDbVisualStyle
  2
Facepattern
 70
    15
 71
     2
 72
     2
 73
     1
 90
        0
 40
-0.6
 41
-30.0
 62
     5
 63
     7
 74
     1
 91
        4
 64
     7
 65
   257
 75
     1
175
     1
 42
1.0
 92
        8
 66
     7
 43
1.0
 76
     1
 77
     6
 78
     2
 67
     7
 79
     5
170
     0
171
     0
290
     0
174
     0
 93
        1
 44
0.0
173
     0
291
     1
 45
0.0
1001
ACAD
1000
AcDbSavedByObjectVersion
1070
     0
  0
VISUALSTYLE
  5
F0
102
{ACAD_REACTORS
330
EF
102
}
330
EF
100
AcDbVisualStyle
  2
Flat
 70
     0
 71
     2
 72
     1
 73
     1
 90
        2
 40
-0.6
 41
30.0
 62
     5
 63
     7
 74
     0
 91
        4
 64
     7
 65
   257
 75
     1
175
     1
 42
1.0
 92
        8
 66
     7
 43
1.0
 76
     1
 77
     6
 78
     2
 67
     7
 79
     5
170
     0
171
     0
290
     0
174
     0
 93
        1
 44
0.0
173
     0
291
     1
 45
0.0
1001
ACAD
1000
AcDbSavedByObjectVersion
1070
     0
  0
VISUALSTYLE
  5
F1
102
{ACAD_REACTORS
330
EF
102
}
330
EF
100
AcDbVisualStyle
  2
FlatWithEdges
 70
     1
 71
     2
 72
     1
 73
     1
 90
        2
 40
-0.6
 41
30.0
 62
     5
 63
     7
 74
     1
 91
        4
 64
     7
 65
   257
 75
     1
175
     1
 42
1.0
 92
        0
 66
   257
 43
1.0
 76
     1
 77
     6
 78
     2
 67
     7
 79
     5
170
     0
171
     0
290
     0
174
     0
 93
        1
 44
0.0
173
     0
291
     1
 45
0.0
1001
ACAD
1000
AcDbSavedByObjectVersion
1070
     0
  0
VISUALSTYLE
  5
F2
102
{ACAD_REACTORS
330
EF
102
}
330
EF
100
AcDbVisualStyle
  2
Gouraud
 70
     2
 71
     2
 72
     2
 73
     1
 90
        2
 40
-0.6
 41
30.0
 62
     5
 63
     7
 74
     0
 91
        4
 64
     7
 65
   257
 75
     1
175
     1
 42
1.0
 92
        0
 66
     7
 43
1.0
 76
     1
 77
     6
 78
     2
 67
     7
 79
     5
170
     0
171
     0
290
     0
174
     0
 93
        1
 44
0.0
173
     0
291
     1
 45
0.0
1001
ACAD
1000
AcDbSavedByObjectVersion
1070
     0
  0
VISUALSTYLE
  5
F3
102
{ACAD_REACTORS
330
EF
102
}
330
EF
100
AcDbVisualStyle
  2
GouraudWithEdges
 70
     3
 71
     2
 72
     2
 73
     1
 90
        2
 40
-0.6
 41
30.0
 62
     5
 63
     7
 74
     1
 91
        4
 64
     7
 65
   257
 75
     1
175
     1
 42
1.0
 92
        0
 66
   257
 43
1.0
 76
     1
 77
     6
 78
     2
 67
     7
 79
     5
170
     0
171
     0
290
     0
174
     0
 93
        1
 44
0.0
173
     0
291
     1
 45
0.0
1001
ACAD
1000
AcDbSavedByObjectVersion
1070
     0
  0
VISUALSTYLE
  5
FD
102
{ACAD_REACTORS
330
EF
102
}
330
EF
100
AcDbVisualStyle
  2
Linepattern
 70
    14
 71
     2
 72
     2
 73
     1
 90
        0
 40
-0.6
 41
-30.0
 62
     5
 63
     7
 74
     1
 91
        4
 64
     7
 65
   257
 75
     7
175
     7
 42
1.0
 92
        8
 66
     7
 43
1.0
 76
     1
 77
     6
 78
     2
 67
     7
 79
     5
170
     0
171
     0
290
     0
174
     0
 93
        1
 44
0.0
173
     0
291
     1
 45
0.0
1001
ACAD
1000
AcDbSavedByObjectVersion
1070
     0
  0
VISUALSTYLE
  5
F9
102
{ACAD_REACTORS
330
EF
102
}
330
EF
100
AcDbVisualStyle
  2
Realistic
 70
     8
 71
     2
 72
     2
 73
     1
 90
        0
 40
-0.6
 41
-30.0
 62
     5
 63
     7
 74
     1
 91
        0
 64
     7
 65
   257
 75
     1
175
     1
 42
1.0
 92
        8
 66
     8
 43
1.0
 76
     1
 77
     6
 78
     2
 67
     7
 79
     5
170
     0
171
     0
290
     0
174
     0
 93
       13
 44
0.0
173
     0
291
     0
 45
0.0
1001
ACAD
1000
AcDbSavedByObjectVersion
1070
     0
  0
VISUALSTYLE
  5
FC
102
{ACAD_REACTORS
330
EF
102
}
330
EF
100
AcDbVisualStyle
  2
Thicken
 70
    13
 71
     2
 72
     2
 73
     1
 90
        0
 40
-0.6
 41
-30.0
 62
     5
 63
     7
 74
     1
 91
        4
 64
     7
 65
   257
 75
     1
175
     1
 42
1.0
 92
       12
 66
     7
 43
1.0
 76
     1
 77
     6
 78
     2
 67
     7
 79
     5
170
     0
171
     0
290
     0
174
     0
 93
        1
 44
0.0
173
     0
291
     1
 45
0.0
1001
ACAD
1000
AcDbSavedByObjectVersion
1070
     0
  0
DICTIONARYVAR
  5
146
102
{ACAD_REACTORS
330
5E
102
}
330
5E
100
DictionaryVariables
280
     0
  1
1:1
  0
DICTIONARYVAR
  5
145
102
{ACAD_REACTORS
330
5E
102
}
330
5E
100
DictionaryVariables
280
     0
  1
STANDARD
  0
DICTIONARYVAR
  5
84
102
{ACAD_REACTORS
330
5E
102
}
330
5E
100
DictionaryVariables
280
     0
  1
STANDARD
  0
DICTIONARYVAR
  5
5F
102
{ACAD_REACTORS
330
5E
102
}
330
5E
100
DictionaryVariables
280
     0
  1
2
  0
DICTIONARYVAR
  5
63
102
{ACAD_REACTORS
330
5E
102
}
330
5E
100
DictionaryVariables
280
     0
  1
1
  0
DICTIONARYVAR
  5
77D
102
{ACAD_REACTORS
330
5E
102
}
330
5E
100
DictionaryVariables
280
     0
  1
0
  0
DICTIONARYVAR
  5
766
102
{ACAD_REACTORS
330
5E
102
}
330
5E
100
DictionaryVariables
280
     0
  1
2
  0
DICTIONARYVAR
  5
765
102
{ACAD_REACTORS
330
5E
102
}
330
5E
100
DictionaryVariables
280
     0
  1
1
  0
DICTIONARYVAR
  5
768
102
{ACAD_REACTORS
330
5E
102
}
330
5E
100
DictionaryVariables
280
     0
  1
80.000000
  0
DICTIONARYVAR
  5
767
102
{ACAD_REACTORS
330
5E
102
}
330
5E
100
DictionaryVariables
280
     0
  1
5.000000
  0
DICTIONARYVAR
  5
77C
102
{ACAD_REACTORS
330
5E
102
}
330
5E
100
DictionaryVariables
280
     0
  1
127
  0
DICTIONARY
  5
783
330
D3
100
AcDbDictionary
280
     1
281
     1
  3
ACAD_XREC_ROUNDTRIP
360
784
  0
DICTIONARY
  5
785
330
D7
100
AcDbDictionary
280
     1
281
     1
  3
ACAD_XREC_ROUNDTRIP
360
786
  0
DICTIONARY
  5
780
330
22
100
AcDbDictionary
280
     1
281
     1
  3
ACAD_XREC_ROUNDTRIP
360
781
  0
DICTIONARY
  5
789
330
ED
100
AcDbDictionary
280
     1
281
     1
  3
ACAD_XREC_ROUNDTRIP
360
78A
  0
DICTIONARY
  5
787
330
EC
100
AcDbDictionary
280
     1
281
     1
  3
ACAD_XREC_ROUNDTRIP
360
788
  0
DICTIONARY
  5
173
330
EE
100
AcDbDictionary
280
     1
281
     1
  3
ACAD_XREC_ROUNDTRIP
360
78B
  3
BUMPTILE
360
175
  3
DIFFUSETILE
360
174
  3
OPACITYTILE
360
176
  3
REFLECTIONTILE
360
177
  0
DICTIONARY
  5
162
330
7F
100
AcDbDictionary
280
     1
281
     1
  3
ACAD_ROUNDTRIP_2008_TABLESTYLE_CELLSTYLEMAP
360
77E
  3
ACAD_XREC_ROUNDTRIP
360
782
  0
XRECORD
  5
784
102
{ACAD_REACTORS
330
783
102
}
330
783
100
AcDbXrecord
280
     1
102
SHADEPLOT
 70
     0
102
SHADEPLOTRESLEVEL
 70
     2
102
SHADEPLOTCUSTOMDPI
 70
   300
  0
XRECORD
  5
786
102
{ACAD_REACTORS
330
785
102
}
330
785
100
AcDbXrecord
280
     1
102
SHADEPLOT
 70
     0
102
SHADEPLOTRESLEVEL
 70
     2
102
SHADEPLOTCUSTOMDPI
 70
   300
  0
XRECORD
  5
781
102
{ACAD_REACTORS
330
780
102
}
330
780
100
AcDbXrecord
280
     1
102
SHADEPLOT
 70
     0
102
SHADEPLOTRESLEVEL
 70
     2
102
SHADEPLOTCUSTOMDPI
 70
   300
  0
XRECORD
  5
78A
102
{ACAD_REACTORS
330
789
102
}
330
789
100
AcDbXrecord
280
     1
102
MATERIAL
148
0.0
149
0.0
149
0.0
 93
        0
 94
       63
282
     0
 72
     1
 77
     1
171
     1
175
     1
179
     1
273
     0
  0
XRECORD
  5
788
102
{ACAD_REACTORS
330
787
102
}
330
787
100
AcDbXrecord
280
     1
102
MATERIAL
148
0.0
149
0.0
149
0.0
 93
        0
 94
       63
282
     0
 72
     1
 77
     1
171
     1
175
     1
179
     1
273
     0
  0
XRECORD
  5
78B
102
{ACAD_REACTORS
330
173
102
}
330
173
100
AcDbXrecord
280
     1
102
MATERIAL
148
0.0
149
0.0
149
0.0
 93
        0
 94
       63
282
     0
 72
     1
 77
     1
171
     1
175
     1
179
     1
273
     0
  0
XRECORD
  5
175
102
{ACAD_REACTORS
330
173
102
}
330
173
100
AcDbXrecord
280
     1
270
     1
271
     1
  0
XRECORD
  5
174
102
{ACAD_REACTORS
330
173
102
}
330
173
100
AcDbXrecord
280
     1
270
     1
271
     1
  0
XRECORD
  5
176
102
{ACAD_REACTORS
330
173
102
}
330
173
100
AcDbXrecord
280
     1
270
     1
271
     1
  0
XRECORD
  5
177
102
{ACAD_REACTORS
330
173
102
}
330
173
100
AcDbXrecord
280
     1
270
     1
271
     1
  0
CELLSTYLEMAP
  5
77E
102
{ACAD_REACTORS
330
162
102
}
330
162
100
AcDbCellStyleMap
 90
        3
300
CELLSTYLE
  1
TABLEFORMAT_BEGIN
 90
        5
170
     1
 91
        0
 92
    32768
 62
   257
 93
        1
300
CONTENTFORMAT
  1
CONTENTFORMAT_BEGIN
 90
        0
 91
        0
 92
      512
 93
        0
300

 40
0.0
140
1.0
 94
        5
 62
     0
340
11
144
6.0
309
CONTENTFORMAT_END
171
     1
301
MARGIN
  1
CELLMARGIN_BEGIN
 40
1.5
 40
1.5
 40
1.5
 40
1.5
 40
4.5
 40
4.5
309
CELLMARGIN_END
 94
        6
 95
        1
302
GRIDFORMAT
  1
GRIDFORMAT_BEGIN
 90
        0
 91
        1
 62
     0
 92
       -2
340
14
 93
        0
 40
1.125
309
GRIDFORMAT_END
 95
        2
302
GRIDFORMAT
  1
GRIDFORMAT_BEGIN
 90
        0
 91
        1
 62
     0
 92
       -2
340
14
 93
        0
 40
1.125
309
GRIDFORMAT_END
 95
        4
302
GRIDFORMAT
  1
GRIDFORMAT_BEGIN
 90
        0
 91
        1
 62
     0
 92
       -2
340
14
 93
        0
 40
1.125
309
GRIDFORMAT_END
 95
        8
302
GRIDFORMAT
  1
GRIDFORMAT_BEGIN
 90
        0
 91
        1
 62
     0
 92
       -2
340
14
 93
        0
 40
1.125
309
GRIDFORMAT_END
 95
       16
302
GRIDFORMAT
  1
GRIDFORMAT_BEGIN
 90
        0
 91
        1
 62
     0
 92
       -2
340
14
 93
        0
 40
1.125
309
GRIDFORMAT_END
 95
       32
302
GRIDFORMAT
  1
GRIDFORMAT_BEGIN
 90
        0
 91
        1
 62
     0
 92
       -2
340
14
 93
        0
 40
1.125
309
GRIDFORMAT_END
309
TABLEFORMAT_END
  1
CELLSTYLE_BEGIN
 90
        1
 91
        1
300
_TITLE
309
CELLSTYLE_END
300
CELLSTYLE
  1
TABLEFORMAT_BEGIN
 90
        5
170
     1
 91
        0
 92
        0
 62
   257
 93
        1
300
CONTENTFORMAT
  1
CONTENTFORMAT_BEGIN
 90
        0
 91
        0
 92
      512
 93
        0
300

 40
0.0
140
1.0
 94
        5
 62
     0
340
11
144
4.5
309
CONTENTFORMAT_END
171
     1
301
MARGIN
  1
CELLMARGIN_BEGIN
 40
1.5
 40
1.5
 40
1.5
 40
1.5
 40
4.5
 40
4.5
309
CELLMARGIN_END
 94
        6
 95
        1
302
GRIDFORMAT
  1
GRIDFORMAT_BEGIN
 90
        0
 91
        1
 62
     0
 92
       -2
340
14
 93
        0
 40
1.125
309
GRIDFORMAT_END
 95
        2
302
GRIDFORMAT
  1
GRIDFORMAT_BEGIN
 90
        0
 91
        1
 62
     0
 92
       -2
340
14
 93
        0
 40
1.125
309
GRIDFORMAT_END
 95
        4
302
GRIDFORMAT
  1
GRIDFORMAT_BEGIN
 90
        0
 91
        1
 62
     0
 92
       -2
340
14
 93
        0
 40
1.125
309
GRIDFORMAT_END
 95
        8
302
GRIDFORMAT
  1
GRIDFORMAT_BEGIN
 90
        0
 91
        1
 62
     0
 92
       -2
340
14
 93
        0
 40
1.125
309
GRIDFORMAT_END
 95
       16
302
GRIDFORMAT
  1
GRIDFORMAT_BEGIN
 90
        0
 91
        1
 62
     0
 92
       -2
340
14
 93
        0
 40
1.125
309
GRIDFORMAT_END
 95
       32
302
GRIDFORMAT
  1
GRIDFORMAT_BEGIN
 90
        0
 91
        1
 62
     0
 92
       -2
340
14
 93
        0
 40
1.125
309
GRIDFORMAT_END
309
TABLEFORMAT_END
  1
CELLSTYLE_BEGIN
 90
        2
 91
        1
300
_HEADER
309
CELLSTYLE_END
300
CELLSTYLE
  1
TABLEFORMAT_BEGIN
 90
        5
170
     1
 91
        0
 92
        0
 62
   257
 93
        1
300
CONTENTFORMAT
  1
CONTENTFORMAT_BEGIN
 90
        0
 91
        0
 92
      512
 93
        0
300

 40
0.0
140
1.0
 94
        2
 62
     0
340
11
144
4.5
309
CONTENTFORMAT_END
171
     1
301
MARGIN
  1
CELLMARGIN_BEGIN
 40
1.5
 40
1.5
 40
1.5
 40
1.5
 40
4.5
 40
4.5
309
CELLMARGIN_END
 94
        6
 95
        1
302
GRIDFORMAT
  1
GRIDFORMAT_BEGIN
 90
        0
 91
        1
 62
     0
 92
       -2
340
14
 93
        0
 40
1.125
309
GRIDFORMAT_END
 95
        2
302
GRIDFORMAT
  1
GRIDFORMAT_BEGIN
 90
        0
 91
        1
 62
     0
 92
       -2
340
14
 93
        0
 40
1.125
309
GRIDFORMAT_END
 95
        4
302
GRIDFORMAT
  1
GRIDFORMAT_BEGIN
 90
        0
 91
        1
 62
     0
 92
       -2
340
14
 93
        0
 40
1.125
309
GRIDFORMAT_END
 95
        8
302
GRIDFORMAT
  1
GRIDFORMAT_BEGIN
 90
        0
 91
        1
 62
     0
 92
       -2
340
14
 93
        0
 40
1.125
309
GRIDFORMAT_END
 95
       16
302
GRIDFORMAT
  1
GRIDFORMAT_BEGIN
 90
        0
 91
        1
 62
     0
 92
       -2
340
14
 93
        0
 40
1.125
309
GRIDFORMAT_END
 95
       32
302
GRIDFORMAT
  1
GRIDFORMAT_BEGIN
 90
        0
 91
        1
 62
     0
 92
       -2
340
14
 93
        0
 40
1.125
309
GRIDFORMAT_END
309
TABLEFORMAT_END
  1
CELLSTYLE_BEGIN
 90
        3
 91
        2
300
_DATA
309
CELLSTYLE_END
  0
XRECORD
  5
782
102
{ACAD_REACTORS
330
162
102
}
330
162
100
AcDbXrecord
280
     1
102
ACAD_ROUNDTRIP_PRE2007_TABLESTYLE
 90
      512
 91
        0
  1

 92
      512
 93
        0
  2

 94
      512
 95
        0
  3

  0
ENDSEC
  0
EOF
