  0
SECTION
  2
HEADER
  9
$ACADVER
  1
AC1015
  9
$ACADMAINTVER
 70
    20
  9
$DWGCODEPAGE
  3
ANSI_1254
  9
$INSBASE
 10
0.0
 20
0.0
 30
0.0
  9
$EXTMIN
 10
2199.804482766623
 20
863.406722619592
 30
0.0
  9
$EXTMAX
 10
2394.496711157394
 20
928.7019017183563
 30
0.0
  9
$LIMMIN
 10
0.0
 20
0.0
  9
$LIMMAX
 10
420.0
 20
297.0
  9
$ORTHOMODE
 70
     0
  9
$REGENMODE
 70
     1
  9
$FILLMODE
 70
     1
  9
$QTEXTMODE
 70
     0
  9
$MIRRTEXT
 70
     0
  9
$LTSCALE
 40
1.0
  9
$ATTMODE
 70
     1
  9
$TEXTSIZE
 40
2.5
  9
$TRACEWID
 40
1.0
  9
$TEXTSTYLE
  7
Standard
  9
$CLAYER
  8
0
  9
$CELTYPE
  6
ByLayer
  9
$CECOLOR
 62
   256
  9
$CELTSCALE
 40
1.0
  9
$DISPSILH
 70
     0
  9
$DIMSCALE
 40
1.0
  9
$DIMASZ
 40
2.5
  9
$DIMEXO
 40
0.625
  9
$DIMDLI
 40
3.75
  9
$DIMRND
 40
0.0
  9
$DIMDLE
 40
0.0
  9
$DIMEXE
 40
1.25
  9
$DIMTP
 40
0.0
  9
$DIMTM
 40
0.0
  9
$DIMTXT
 40
2.5
  9
$DIMCEN
 40
2.5
  9
$DIMTSZ
 40
0.0
  9
$DIMTOL
 70
     0
  9
$DIMLIM
 70
     0
  9
$DIMTIH
 70
     0
  9
$DIMTOH
 70
     0
  9
$DIMSE1
 70
     0
  9
$DIMSE2
 70
     0
  9
$DIMTAD
 70
     1
  9
$DIMZIN
 70
     8
  9
$DIMBLK
  1

  9
$DIMASO
 70
     1
  9
$DIMSHO
 70
     1
  9
$DIMPOST
  1

  9
$DIMAPOST
  1

  9
$DIMALT
 70
     0
  9
$DIMALTD
 70
     3
  9
$DIMALTF
 40
0.03937007874016
  9
$DIMLFAC
 40
1.0
  9
$DIMTOFL
 70
     1
  9
$DIMTVP
 40
0.0
  9
$DIMTIX
 70
     0
  9
$DIMSOXD
 70
     0
  9
$DIMSAH
 70
     0
  9
$DIMBLK1
  1

  9
$DIMBLK2
  1

  9
$DIMSTYLE
  2
ISO-25
  9
$DIMCLRD
 70
     0
  9
$DIMCLRE
 70
     0
  9
$DIMCLRT
 70
     0
  9
$DIMTFAC
 40
1.0
  9
$DIMGAP
 40
0.625
  9
$DIMJUST
 70
     0
  9
$DIMSD1
 70
     0
  9
$DIMSD2
 70
     0
  9
$DIMTOLJ
 70
     0
  9
$DIMTZIN
 70
     8
  9
$DIMALTZ
 70
     0
  9
$DIMALTTZ
 70
     0
  9
$DIMUPT
 70
     0
  9
$DIMDEC
 70
     2
  9
$DIMTDEC
 70
     2
  9
$DIMALTU
 70
     2
  9
$DIMALTTD
 70
     3
  9
$DIMTXSTY
  7
Standard
  9
$DIMAUNIT
 70
     0
  9
$DIMADEC
 70
     0
  9
$DIMALTRND
 40
0.0
  9
$DIMAZIN
 70
     0
  9
$DIMDSEP
 70
    44
  9
$DIMATFIT
 70
     3
  9
$DIMFRAC
 70
     0
  9
$DIMLDRBLK
  1

  9
$DIMLUNIT
 70
     2
  9
$DIMLWD
 70
    -2
  9
$DIMLWE
 70
    -2
  9
$DIMTMOVE
 70
     0
  9
$LUNITS
 70
     2
  9
$LUPREC
 70
     4
  9
$SKETCHINC
 40
1.0
  9
$FILLETRAD
 40
0.0
  9
$AUNITS
 70
     0
  9
$AUPREC
 70
     0
  9
$MENU
  1
.
  9
$ELEVATION
 40
0.0
  9
$PELEVATION
 40
0.0
  9
$THICKNESS
 40
0.0
  9
$LIMCHECK
 70
     0
  9
$CHAMFERA
 40
0.0
  9
$CHAMFERB
 40
0.0
  9
$CHAMFERC
 40
0.0
  9
$CHAMFERD
 40
0.0
  9
$SKPOLY
 70
     0
  9
$TDCREATE
 40
2458932.680531238
  9
$TDUCREATE
 40
2458932.555531238
  9
$TDUPDATE
 40
2458956.446191621
  9
$TDUUPDATE
 40
2458956.321191620
  9
$TDINDWG
 40
0.0003715625
  9
$TDUSRTIMER
 40
0.0003713889
  9
$USRTIMER
 70
     1
  9
$ANGBASE
 50
0.0
  9
$ANGDIR
 70
     0
  9
$PDMODE
 70
     0
  9
$PDSIZE
 40
0.0
  9
$PLINEWID
 40
0.0
  9
$SPLFRAME
 70
     0
  9
$SPLINETYPE
 70
     6
  9
$SPLINESEGS
 70
     8
  9
$HANDSEED
  5
E8F
  9
$SURFTAB1
 70
     6
  9
$SURFTAB2
 70
     6
  9
$SURFTYPE
 70
     6
  9
$SURFU
 70
     6
  9
$SURFV
 70
     6
  9
$UCSBASE
  2

  9
$UCSNAME
  2

  9
$UCSORG
 10
0.0
 20
0.0
 30
0.0
  9
$UCSXDIR
 10
1.0
 20
0.0
 30
0.0
  9
$UCSYDIR
 10
0.0
 20
1.0
 30
0.0
  9
$UCSORTHOREF
  2

  9
$UCSORTHOVIEW
 70
     0
  9
$UCSORGTOP
 10
0.0
 20
0.0
 30
0.0
  9
$UCSORGBOTTOM
 10
0.0
 20
0.0
 30
0.0
  9
$UCSORGLEFT
 10
0.0
 20
0.0
 30
0.0
  9
$UCSORGRIGHT
 10
0.0
 20
0.0
 30
0.0
  9
$UCSORGFRONT
 10
0.0
 20
0.0
 30
0.0
  9
$UCSORGBACK
 10
0.0
 20
0.0
 30
0.0
  9
$PUCSBASE
  2

  9
$PUCSNAME
  2

  9
$PUCSORG
 10
0.0
 20
0.0
 30
0.0
  9
$PUCSXDIR
 10
1.0
 20
0.0
 30
0.0
  9
$PUCSYDIR
 10
0.0
 20
1.0
 30
0.0
  9
$PUCSORTHOREF
  2

  9
$PUCSORTHOVIEW
 70
     0
  9
$PUCSORGTOP
 10
0.0
 20
0.0
 30
0.0
  9
$PUCSORGBOTTOM
 10
0.0
 20
0.0
 30
0.0
  9
$PUCSORGLEFT
 10
0.0
 20
0.0
 30
0.0
  9
$PUCSORGRIGHT
 10
0.0
 20
0.0
 30
0.0
  9
$PUCSORGFRONT
 10
0.0
 20
0.0
 30
0.0
  9
$PUCSORGBACK
 10
0.0
 20
0.0
 30
0.0
  9
$USERI1
 70
     0
  9
$USERI2
 70
     0
  9
$USERI3
 70
     0
  9
$USERI4
 70
     0
  9
$USERI5
 70
     0
  9
$USERR1
 40
0.0
  9
$USERR2
 40
0.0
  9
$USERR3
 40
0.0
  9
$USERR4
 40
0.0
  9
$USERR5
 40
0.0
  9
$WORLDVIEW
 70
     1
  9
$SHADEDGE
 70
     3
  9
$SHADEDIF
 70
    70
  9
$TILEMODE
 70
     1
  9
$MAXACTVP
 70
    64
  9
$PINSBASE
 10
0.0
 20
0.0
 30
0.0
  9
$PLIMCHECK
 70
     0
  9
$PEXTMIN
 10
0.0
 20
0.0
 30
0.0
  9
$PEXTMAX
 10
0.0
 20
0.0
 30
0.0
  9
$PLIMMIN
 10
0.0
 20
0.0
  9
$PLIMMAX
 10
12.0
 20
9.0
  9
$UNITMODE
 70
     0
  9
$VISRETAIN
 70
     1
  9
$PLINEGEN
 70
     0
  9
$PSLTSCALE
 70
     1
  9
$TREEDEPTH
 70
  3020
  9
$CMLSTYLE
  2
Standard
  9
$CMLJUST
 70
     0
  9
$CMLSCALE
 40
20.0
  9
$PROXYGRAPHICS
 70
     1
  9
$MEASUREMENT
 70
     1
  9
$CELWEIGHT
370
    -1
  9
$ENDCAPS
280
     0
  9
$JOINSTYLE
280
     0
  9
$LWDISPLAY
290
     0
  9
$INSUNITS
 70
     4
  9
$HYPERLINKBASE
  1

  9
$STYLESHEET
  1

  9
$XEDIT
290
     1
  9
$CEPSNTYPE
380
     0
  9
$PSTYLEMODE
290
     1
  9
$FINGERPRINTGUID
  2
{34DB2C44-5D20-4045-8966-6A9460A3F199}
  9
$VERSIONGUID
  2
{5B83B63D-752F-4FE5-8A4C-5D98E0A26F18}
  9
$EXTNAMES
290
     1
  9
$PSVPSCALE
 40
0.0
  9
$OLESTARTUP
290
     0
  0
ENDSEC
  0
SECTION
  2
CLASSES
  0
CLASS
  1
ACDBDICTIONARYWDFLT
  2
AcDbDictionaryWithDefault
  3
ObjectDBX Classes
 90
        0
280
     0
281
     0
  0
CLASS
  1
ACDBPLACEHOLDER
  2
AcDbPlaceHolder
  3
ObjectDBX Classes
 90
        0
280
     0
281
     0
  0
CLASS
  1
LAYOUT
  2
AcDbLayout
  3
ObjectDBX Classes
 90
        0
280
     0
281
     0
  0
CLASS
  1
DICTIONARYVAR
  2
AcDbDictionaryVar
  3
ObjectDBX Classes
 90
        0
280
     0
281
     0
  0
CLASS
  1
TABLESTYLE
  2
AcDbTableStyle
  3
ObjectDBX Classes
 90
     4095
280
     0
281
     0
  0
CLASS
  1
MATERIAL
  2
AcDbMaterial
  3
ObjectDBX Classes
 90
     1153
280
     0
281
     0
  0
CLASS
  1
VISUALSTYLE
  2
AcDbVisualStyle
  3
ObjectDBX Classes
 90
     4095
280
     0
281
     0
  0
CLASS
  1
SCALE
  2
AcDbScale
  3
ObjectDBX Classes
 90
     1153
280
     0
281
     0
  0
CLASS
  1
MLEADERSTYLE
  2
AcDbMLeaderStyle
  3
ACDB_MLEADERSTYLE_CLASS
 90
     4095
280
     0
281
     0
  0
CLASS
  1
CELLSTYLEMAP
  2
AcDbCellStyleMap
  3
ObjectDBX Classes
 90
     1152
280
     0
281
     0
  0
ENDSEC
  0
SECTION
  2
TABLES
  0
TABLE
  2
VPORT
  5
8
330
0
100
AcDbSymbolTable
 70
     1
  0
VPORT
  5
EA
330
8
100
AcDbSymbolTableRecord
100
AcDbViewportTableRecord
  2
*Active
 70
     0
 10
0.0
 20
0.0
 11
1.0
 21
1.0
 12
2304.902988314352
 22
913.1124762148758
 13
0.0
 23
0.0
 14
10.0
 24
10.0
 15
10.0
 25
10.0
 16
0.0
 26
0.0
 36
1.0
 17
0.0
 27
0.0
 37
0.0
 40
161.9309295627478
 41
1.90311004784689
 42
50.0
 43
0.0
 44
0.0
 50
0.0
 51
0.0
 71
     0
 72
  1000
 73
     1
 74
     3
 75
     0
 76
     0
 77
     0
 78
     0
281
     0
 65
     1
110
0.0
120
0.0
130
0.0
111
1.0
121
0.0
131
0.0
112
0.0
122
1.0
132
0.0
 79
     0
146
0.0
  0
ENDTAB
  0
TABLE
  2
LTYPE
  5
5
330
0
100
AcDbSymbolTable
 70
     1
  0
LTYPE
  5
14
330
5
100
AcDbSymbolTableRecord
100
AcDbLinetypeTableRecord
  2
ByBlock
 70
     0
  3

 72
    65
 73
     0
 40
0.0
  0
LTYPE
  5
15
330
5
100
AcDbSymbolTableRecord
100
AcDbLinetypeTableRecord
  2
ByLayer
 70
     0
  3

 72
    65
 73
     0
 40
0.0
  0
LTYPE
  5
16
330
5
100
AcDbSymbolTableRecord
100
AcDbLinetypeTableRecord
  2
Continuous
 70
     0
  3
Solid line
 72
    65
 73
     0
 40
0.0
  0
ENDTAB
  0
TABLE
  2
LAYER
  5
2
330
0
100
AcDbSymbolTable
 70
     1
  0
LAYER
  5
10
102
{ACAD_XDICTIONARY
360
13C
102
}
330
2
100
AcDbSymbolTableRecord
100
AcDbLayerTableRecord
  2
0
 70
     0
 62
     7
  6
Continuous
370
    -3
390
F
  0
ENDTAB
  0
TABLE
  2
STYLE
  5
3
330
0
100
AcDbSymbolTable
 70
     2
  0
STYLE
  5
11
330
3
100
AcDbSymbolTableRecord
100
AcDbTextStyleTableRecord
  2
Standard
 70
     0
 40
0.0
 41
1.0
 50
0.0
 71
     0
 42
2.5
  3
txt
  4

  0
STYLE
  5
132
330
3
100
AcDbSymbolTableRecord
100
AcDbTextStyleTableRecord
  2
Annotative
 70
     0
 40
0.0
 41
1.0
 50
0.0
 71
     0
 42
2.5
  3
txt.shx
  4

1001
AcadAnnotative
1000
AnnotativeData
1002
{
1070
     1
1070
     1
1002
}
  0
ENDTAB
  0
TABLE
  2
VIEW
  5
6
330
0
100
AcDbSymbolTable
 70
     0
  0
ENDTAB
  0
TABLE
  2
UCS
  5
7
330
0
100
AcDbSymbolTable
 70
     0
  0
ENDTAB
  0
TABLE
  2
APPID
  5
9
330
0
100
AcDbSymbolTable
 70
     7
  0
APPID
  5
12
330
9
100
AcDbSymbolTableRecord
100
AcDbRegAppTableRecord
  2
ACAD
 70
     0
  0
APPID
  5
9E
330
9
100
AcDbSymbolTableRecord
100
AcDbRegAppTableRecord
  2
ACAD_PSEXT
 70
     0
  0
APPID
  5
133
330
9
100
AcDbSymbolTableRecord
100
AcDbRegAppTableRecord
  2
AcadAnnoPO
 70
     0
  0
APPID
  5
134
330
9
100
AcDbSymbolTableRecord
100
AcDbRegAppTableRecord
  2
AcadAnnotative
 70
     0
  0
APPID
  5
135
330
9
100
AcDbSymbolTableRecord
100
AcDbRegAppTableRecord
  2
ACAD_DSTYLE_DIMJAG
 70
     0
  0
APPID
  5
136
330
9
100
AcDbSymbolTableRecord
100
AcDbRegAppTableRecord
  2
ACAD_DSTYLE_DIMTALN
 70
     0
  0
APPID
  5
165
330
9
100
AcDbSymbolTableRecord
100
AcDbRegAppTableRecord
  2
ACAD_MLEADERVER
 70
     0
  0
ENDTAB
  0
TABLE
  2
DIMSTYLE
  5
A
330
0
100
AcDbSymbolTable
 70
     2
100
AcDbDimStyleTable
 71
     2
340
27
340
137
  0
DIMSTYLE
105
27
330
A
100
AcDbSymbolTableRecord
100
AcDbDimStyleTableRecord
  2
ISO-25
 70
     0
 41
2.5
 42
0.625
 43
3.75
 44
1.25
 73
     0
 74
     0
 77
     1
 78
     8
140
2.5
141
2.5
143
0.03937007874016
147
0.625
171
     3
172
     1
271
     2
272
     2
274
     3
278
    44
283
     0
284
     8
340
11
  0
DIMSTYLE
105
137
330
A
100
AcDbSymbolTableRecord
100
AcDbDimStyleTableRecord
  2
Annotative
 70
     0
 40
0.0
 41
2.5
 42
0.625
 43
3.75
 44
1.25
 73
     0
 74
     0
 77
     1
 78
     8
140
2.5
141
2.5
143
0.03937007874016
147
0.625
171
     3
172
     1
271
     2
272
     2
274
     3
278
    44
283
     0
284
     8
340
11
1001
AcadAnnotative
1000
AnnotativeData
1002
{
1070
     1
1070
     1
1002
}
1001
ACAD_DSTYLE_DIMJAG
1070
   388
1040
1.5
1001
ACAD_DSTYLE_DIMTALN
1070
   392
1070
     0
  0
ENDTAB
  0
TABLE
  2
BLOCK_RECORD
  5
1
330
0
100
AcDbSymbolTable
 70
     5
  0
BLOCK_RECORD
  5
1F
330
1
100
AcDbSymbolTableRecord
100
AcDbBlockTableRecord
  2
*Model_Space
340
22
  0
BLOCK_RECORD
  5
D2
330
1
100
AcDbSymbolTableRecord
100
AcDbBlockTableRecord
  2
*Paper_Space
340
D3
  0
BLOCK_RECORD
  5
D6
330
1
100
AcDbSymbolTableRecord
100
AcDbBlockTableRecord
  2
*Paper_Space0
340
D7
  0
BLOCK_RECORD
  5
A29
330
1
100
AcDbSymbolTableRecord
100
AcDbBlockTableRecord
  2
1
340
0
310
2800000020000000200000000100080000000000000400000000000000000000000000000000000000000000000080000080000000808000800000008000800080800000C0C0C000C0DCC000F0CAA6000020400000206000002080000020A0000020C0000020E00000400000004020000040400000406000004080000040A0
310
000040C0000040E00000600000006020000060400000606000006080000060A0000060C0000060E00000800000008020000080400000806000008080000080A0000080C0000080E00000A0000000A0200000A0400000A0600000A0800000A0A00000A0C00000A0E00000C0000000C0200000C0400000C0600000C0800000C0
310
A00000C0C00000C0E00000E0000000E0200000E0400000E0600000E0800000E0A00000E0C00000E0E00040000000400020004000400040006000400080004000A0004000C0004000E00040200000402020004020400040206000402080004020A0004020C0004020E000404000004040200040404000404060004040800040
310
40A0004040C0004040E00040600000406020004060400040606000406080004060A0004060C0004060E00040800000408020004080400040806000408080004080A0004080C0004080E00040A0000040A0200040A0400040A0600040A0800040A0A00040A0C00040A0E00040C0000040C0200040C0400040C0600040C08000
310
40C0A00040C0C00040C0E00040E0000040E0200040E0400040E0600040E0800040E0A00040E0C00040E0E00080000000800020008000400080006000800080008000A0008000C0008000E00080200000802020008020400080206000802080008020A0008020C0008020E00080400000804020008040400080406000804080
310
008040A0008040C0008040E00080600000806020008060400080606000806080008060A0008060C0008060E00080800000808020008080400080806000808080008080A0008080C0008080E00080A0000080A0200080A0400080A0600080A0800080A0A00080A0C00080A0E00080C0000080C0200080C0400080C0600080C0
310
800080C0A00080C0C00080C0E00080E0000080E0200080E0400080E0600080E0800080E0A00080E0C00080E0E000C0000000C0002000C0004000C0006000C0008000C000A000C000C000C000E000C0200000C0202000C0204000C0206000C0208000C020A000C020C000C020E000C0400000C0402000C0404000C0406000C0
310
408000C040A000C040C000C040E000C0600000C0602000C0604000C0606000C0608000C060A000C060C000C060E000C0800000C0802000C0804000C0806000C0808000C080A000C080C000C080E000C0A00000C0A02000C0A04000C0A06000C0A08000C0A0A000C0A0C000C0A0E000C0C00000C0C02000C0C04000C0C06000
310
C0C08000C0C0A000F0FBFF00A4A0A000808080000000FF0000FF000000FFFF00FF000000FF00FF00FFFF0000FFFFFF0000000000000000000000000000000000000000000000000000000000000000000000000000000000000000000000000000000000000000000000000000000000000000000000000000000000000000
310
00000000000000000000000000000000000000000000000000000000000000000000000000000000000000000000000000000000000000000000000000000000000000000000000000000000000000000000000000000000000000000000000000000000000000000000000000000000000000000000000000000000000000
310
00000000000000000000000000000000000000000000000000000000000000000000000000000000000000000000000000000000000000000000000000000000000000000000000000000000000000000000000000000000000000000000000000000000000000000000000000000000000000000000000000000000000000
310
000000000000000000000000000000000000000000FFFF00FFFF00FFFF00FFFF00FF0000FF00FFFF00FFFF00FFFF00FFFF00000000FFFF00FFFF00FFFF00FFFF00FFFFFFFF00FFFF00FFFF00FFFF00FFFF00000000FFFF00FFFF00FFFF00FFFF00FFFFFFFF00FFFF00FFFF00FFFF00FFFF00000000FFFF00FFFF00FFFF00FF
310
FF00FFFFFFFF00FFFF00FFFF00FFFF00FFFF00000000FFFFFFFFFF00FFFFFFFFFFFFFFFFFFFFFFFFFFFFFFFF00FFFFFFFFFF00000000FFFFFFFFFFFFFFFFFFFFFFFFFFFFFFFFFFFFFFFFFFFFFFFFFFFFFFFF000000FFFF00FFFFFFFF00FFFF00FFFF00FFFF00FFFF00FFFF00FFFFFFFF00FFFF0000FF000000000000000000
310
00000000000000000000000000000000000000FF0000FFFFFFFFFFFFFFFFFFFFFFFFFFFFFFFFFFFFFFFFFFFFFFFFFFFFFFFFFFFF0000FFFFFFFFFFFFFFFFFFFFFFFFFFFFFFFFFFFFFFFFFFFFFFFFFFFFFFFFFFFF00000000000000000000000000000000000000000000000000000000000000000000000000000000000000
310
00000000000000000000000000000000000000000000000000000000000000000000000000000000000000000000000000000000000000000000000000000000000000000000000000000000000000000000000000000000000000000000000000000000000000000000000000000000000000000000000000000000000000
310
00000000000000000000000000000000000000000000000000000000000000000000000000000000000000000000000000000000000000000000000000000000000000000000000000000000000000000000000000000000000000000000000000000000000000000000000000000000000000000000000000000000000000
310
0000000000000000000000000000000000000000000000000000000000000000000000000000000000000000000000000000000000000000
102
{BLKREFS
331
B91
102
}
1001
ACAD
1000
DesignCenter Data
1002
{
1070
     1
1070
     4
1002
}
  0
BLOCK_RECORD
  5
B92
330
1
100
AcDbSymbolTableRecord
100
AcDbBlockTableRecord
  2
2
340
0
310
2800000020000000200000000100080000000000000400000000000000000000000000000000000000000000000080000080000000808000800000008000800080800000C0C0C000C0DCC000F0CAA6000020400000206000002080000020A0000020C0000020E00000400000004020000040400000406000004080000040A0
310
000040C0000040E00000600000006020000060400000606000006080000060A0000060C0000060E00000800000008020000080400000806000008080000080A0000080C0000080E00000A0000000A0200000A0400000A0600000A0800000A0A00000A0C00000A0E00000C0000000C0200000C0400000C0600000C0800000C0
310
A00000C0C00000C0E00000E0000000E0200000E0400000E0600000E0800000E0A00000E0C00000E0E00040000000400020004000400040006000400080004000A0004000C0004000E00040200000402020004020400040206000402080004020A0004020C0004020E000404000004040200040404000404060004040800040
310
40A0004040C0004040E00040600000406020004060400040606000406080004060A0004060C0004060E00040800000408020004080400040806000408080004080A0004080C0004080E00040A0000040A0200040A0400040A0600040A0800040A0A00040A0C00040A0E00040C0000040C0200040C0400040C0600040C08000
310
40C0A00040C0C00040C0E00040E0000040E0200040E0400040E0600040E0800040E0A00040E0C00040E0E00080000000800020008000400080006000800080008000A0008000C0008000E00080200000802020008020400080206000802080008020A0008020C0008020E00080400000804020008040400080406000804080
310
008040A0008040C0008040E00080600000806020008060400080606000806080008060A0008060C0008060E00080800000808020008080400080806000808080008080A0008080C0008080E00080A0000080A0200080A0400080A0600080A0800080A0A00080A0C00080A0E00080C0000080C0200080C0400080C0600080C0
310
800080C0A00080C0C00080C0E00080E0000080E0200080E0400080E0600080E0800080E0A00080E0C00080E0E000C0000000C0002000C0004000C0006000C0008000C000A000C000C000C000E000C0200000C0202000C0204000C0206000C0208000C020A000C020C000C020E000C0400000C0402000C0404000C0406000C0
310
408000C040A000C040C000C040E000C0600000C0602000C0604000C0606000C0608000C060A000C060C000C060E000C0800000C0802000C0804000C0806000C0808000C080A000C080C000C080E000C0A00000C0A02000C0A04000C0A06000C0A08000C0A0A000C0A0C000C0A0E000C0C00000C0C02000C0C04000C0C06000
310
C0C08000C0C0A000F0FBFF00A4A0A000808080000000FF0000FF000000FFFF00FF000000FF00FF00FFFF0000FFFFFF0000000000000000000000000000000000000000000000000000000000000000000000000000000000000000000000FFFFFFFF00000000000000000000000000000000000000000000000000000000FF
310
FFFFFF00000000000000000000000000000000000000000000000000000000FF0000FF00000000000000000000000000000000000000000000000000000000FFFFFFFF00000000000000000000000000000000000000000000000000000000FF0000FF00000000000000000000000000000000000000000000000000000000
310
FF0000FF00000000000000000000000000000000000000000000000000000000FF0000FF00000000000000000000000000000000000000000000000000000000FF0000FF00000000000000000000000000000000000000000000000000000000FF0000FF000000000000000000000000000000000000000000000000000000
310
00FF0000FF00000000000000000000000000000000000000000000000000000000FF0000FF0000000000000000000000000000000000000000000000000000000000FFFF0000000000000000000000000000000000000000000000000000000000FFFFFFFF0000000000000000000000000000000000000000000000000000
310
0000FF0000FF00000000000000000000000000000000000000000000000000000000FF0000FF00000000000000000000000000000000000000000000000000000000FFFFFFFF00000000000000000000000000000000000000000000000000000000FFFFFFFF00000000000000000000000000000000000000000000000000
310
0000FFFF0000FFFF000000000000000000000000000000000000000000000000000000FF0000FF00000000000000000000000000000000000000000000000000000000FF0000FF00000000000000000000000000000000000000000000000000000000FFFFFFFF000000000000000000000000000000000000000000000000
310
00000000FF0000FF00000000000000000000000000000000000000000000000000000000FF0000FF00000000000000000000000000000000000000000000000000000000FF0000FF00000000000000000000000000000000000000000000000000000000FF0000FF0000000000000000000000000000000000000000000000
310
0000000000FF0000FF00000000000000000000000000000000000000000000000000000000FF0000FF000000000000000000000000000000000000000000000000000000FFFF0000FFFF0000000000000000000000000000000000000000000000000000FF00000000FF000000000000000000000000000000000000000000
310
0000000000FFFFFFFFFFFF000000000000000000000000000000000000000000000000000000000000000000000000000000000000000000
102
{BLKREFS
331
BC4
102
}
1001
ACAD
1000
DesignCenter Data
1002
{
1070
     1
1070
     4
1002
}
  0
BLOCK_RECORD
  5
BC5
330
1
100
AcDbSymbolTableRecord
100
AcDbBlockTableRecord
  2
3
340
0
310
2800000020000000200000000100080000000000000400000000000000000000000000000000000000000000000080000080000000808000800000008000800080800000C0C0C000C0DCC000F0CAA6000020400000206000002080000020A0000020C0000020E00000400000004020000040400000406000004080000040A0
310
000040C0000040E00000600000006020000060400000606000006080000060A0000060C0000060E00000800000008020000080400000806000008080000080A0000080C0000080E00000A0000000A0200000A0400000A0600000A0800000A0A00000A0C00000A0E00000C0000000C0200000C0400000C0600000C0800000C0
310
A00000C0C00000C0E00000E0000000E0200000E0400000E0600000E0800000E0A00000E0C00000E0E00040000000400020004000400040006000400080004000A0004000C0004000E00040200000402020004020400040206000402080004020A0004020C0004020E000404000004040200040404000404060004040800040
310
40A0004040C0004040E00040600000406020004060400040606000406080004060A0004060C0004060E00040800000408020004080400040806000408080004080A0004080C0004080E00040A0000040A0200040A0400040A0600040A0800040A0A00040A0C00040A0E00040C0000040C0200040C0400040C0600040C08000
310
40C0A00040C0C00040C0E00040E0000040E0200040E0400040E0600040E0800040E0A00040E0C00040E0E00080000000800020008000400080006000800080008000A0008000C0008000E00080200000802020008020400080206000802080008020A0008020C0008020E00080400000804020008040400080406000804080
310
008040A0008040C0008040E00080600000806020008060400080606000806080008060A0008060C0008060E00080800000808020008080400080806000808080008080A0008080C0008080E00080A0000080A0200080A0400080A0600080A0800080A0A00080A0C00080A0E00080C0000080C0200080C0400080C0600080C0
310
800080C0A00080C0C00080C0E00080E0000080E0200080E0400080E0600080E0800080E0A00080E0C00080E0E000C0000000C0002000C0004000C0006000C0008000C000A000C000C000C000E000C0200000C0202000C0204000C0206000C0208000C020A000C020C000C020E000C0400000C0402000C0404000C0406000C0
310
408000C040A000C040C000C040E000C0600000C0602000C0604000C0606000C0608000C060A000C060C000C060E000C0800000C0802000C0804000C0806000C0808000C080A000C080C000C080E000C0A00000C0A02000C0A04000C0A06000C0A08000C0A0A000C0A0C000C0A0E000C0C00000C0C02000C0C04000C0C06000
310
C0C08000C0C0A000F0FBFF00A4A0A000808080000000FF0000FF000000FFFF00FF000000FF00FF00FFFF0000FFFFFF0000000000000000000000000000000000000000000000000000000000000000000000000000000000000000000000000000000000000000000000000000000000000000000000000000000000000000
310
00000000000000000000000000000000000000000000000000000000000000000000000000000000000000000000000000000000000000000000000000000000000000000000000000000000000000000000000000000000000000000000000000000000000000000000000000000000000000000000000000000000000000
310
00000000000000000000000000000000000000000000000000000000000000000000000000000000000000000000000000000000000000000000000000000000000000000000000000000000000000000000000000000000000000000000000000000000000000000000000000000000000000000000000000000000000000
310
00000000000000000000000000000000000000000000000000000000000000000000000000000000000000000000000000000000000000000000000000000000000000000000000000000000000000000000000000000000000000000000000000000000000000000000000000000000000000000000000000000000000000
310
000000000000000000000000000000000000000000FFFFFFFFFFFFFFFFFFFFFFFFFFFFFFFFFFFFFFFFFFFFFFFFFFFFFFFFFFFF0000FFFFFFFFFFFFFFFFFFFFFFFFFFFFFFFFFFFFFFFFFFFFFFFFFFFFFFFFFFFF0000000000000000000000000000000000000000000000000000000000000000000000000000000000000000
310
00000000000000000000000000000000000000000000000000000000000000000000000000000000000000000000000000000000000000000000000000000000000000000000000000000000000000000000000000000000000000000000000000000000000000000000000000000000000000000000000000000000000000
310
00000000000000000000000000000000000000000000000000000000000000000000000000000000000000000000000000000000000000000000000000000000000000000000000000000000000000000000000000000000000000000000000000000000000000000000000000000000000000000000000000000000000000
310
00000000000000000000000000000000000000000000000000000000000000000000000000000000000000000000000000000000000000000000000000000000000000000000000000000000000000000000000000000000000000000000000000000000000000000000000000000000000000000000000000000000000000
310
0000000000000000000000000000000000000000000000000000000000000000000000000000000000000000000000000000000000000000
102
{BLKREFS
331
BCC
102
}
1001
ACAD
1000
DesignCenter Data
1002
{
1070
     1
1070
     4
1002
}
  0
BLOCK_RECORD
  5
BCD
330
1
100
AcDbSymbolTableRecord
100
AcDbBlockTableRecord
  2
4
340
0
310
2800000020000000200000000100080000000000000400000000000000000000000000000000000000000000000080000080000000808000800000008000800080800000C0C0C000C0DCC000F0CAA6000020400000206000002080000020A0000020C0000020E00000400000004020000040400000406000004080000040A0
310
000040C0000040E00000600000006020000060400000606000006080000060A0000060C0000060E00000800000008020000080400000806000008080000080A0000080C0000080E00000A0000000A0200000A0400000A0600000A0800000A0A00000A0C00000A0E00000C0000000C0200000C0400000C0600000C0800000C0
310
A00000C0C00000C0E00000E0000000E0200000E0400000E0600000E0800000E0A00000E0C00000E0E00040000000400020004000400040006000400080004000A0004000C0004000E00040200000402020004020400040206000402080004020A0004020C0004020E000404000004040200040404000404060004040800040
310
40A0004040C0004040E00040600000406020004060400040606000406080004060A0004060C0004060E00040800000408020004080400040806000408080004080A0004080C0004080E00040A0000040A0200040A0400040A0600040A0800040A0A00040A0C00040A0E00040C0000040C0200040C0400040C0600040C08000
310
40C0A00040C0C00040C0E00040E0000040E0200040E0400040E0600040E0800040E0A00040E0C00040E0E00080000000800020008000400080006000800080008000A0008000C0008000E00080200000802020008020400080206000802080008020A0008020C0008020E00080400000804020008040400080406000804080
310
008040A0008040C0008040E00080600000806020008060400080606000806080008060A0008060C0008060E00080800000808020008080400080806000808080008080A0008080C0008080E00080A0000080A0200080A0400080A0600080A0800080A0A00080A0C00080A0E00080C0000080C0200080C0400080C0600080C0
310
800080C0A00080C0C00080C0E00080E0000080E0200080E0400080E0600080E0800080E0A00080E0C00080E0E000C0000000C0002000C0004000C0006000C0008000C000A000C000C000C000E000C0200000C0202000C0204000C0206000C0208000C020A000C020C000C020E000C0400000C0402000C0404000C0406000C0
310
408000C040A000C040C000C040E000C0600000C0602000C0604000C0606000C0608000C060A000C060C000C060E000C0800000C0802000C0804000C0806000C0808000C080A000C080C000C080E000C0A00000C0A02000C0A04000C0A06000C0A08000C0A0A000C0A0C000C0A0E000C0C00000C0C02000C0C04000C0C06000
310
C0C08000C0C0A000F0FBFF00A4A0A000808080000000FF0000FF000000FFFF00FF000000FF00FF00FFFF0000FFFFFF0000000000000000000000000000000000000000000000000000000000000000000000000000000000000000000000000000000000000000000000000000000000000000000000000000000000000000
310
0000000000000000000000000000000000000000FFFF0000000000000000000000000000000000000000000000000000000000FFFFFF0000000000000000000000000000000000000000000000000000000000FFFFFFFFFFFF0000000000000000000000000000000000000000000000000000FFFFFFFFFFFF00FF00000000
310
0000000000000000000000000000000000000000FFFFFFFFFFFFFFFFFF0000000000000000000000000000000000000000000000FFFFFFFFFFFFFFFFFFFFFF000000000000000000000000000000000000000000FFFFFFFFFFFFFFFFFFFFFF00FF00000000000000000000000000000000000000FFFF00FFFFFFFFFFFFFFFF
310
FFFFFF000000000000000000000000000000000000FFFF0000FFFFFFFFFFFFFFFFFFFFFFFFFF0000000000000000000000000000FFFFFFFFFF00FFFFFFFFFFFFFFFFFFFFFFFF00FF00000000000000000000000000FFFFFFFFFFFF0000FFFFFFFFFFFFFFFFFFFFFF000000000000000000000000000000FFFFFFFFFF0000FF
310
FFFFFFFFFFFFFFFFFF00FFFF0000000000000000000000000000FF00FFFFFF0000FFFFFFFFFFFFFFFFFFFFFF000000000000000000000000000000FFFF00FFFFFF000000FFFFFFFFFFFFFFFFFFFFFF0000000000000000000000000000FFFF00FFFF0000FF00FFFFFFFFFFFFFFFFFF00FF0000000000000000000000000000
310
FF00FFFFFF0000FFFFFFFFFFFFFFFFFFFFFFFF0000000000000000000000000000FFFF00FFFFFF000000FFFFFFFFFFFFFFFFFF00000000000000000000000000000000FFFF00FFFFFF0000FFFFFFFFFFFFFFFF000000000000000000000000000000000000FFFF00FFFF000000FFFFFFFFFFFF000000000000000000000000
310
0000000000000000FF0000FFFF0000FFFFFFFFFF000000000000000000000000000000000000000000FFFF00FFFFFF00FFFFFFFF0000000000000000000000000000000000000000000000FFFF00FFFF000000FF00000000000000000000000000000000000000000000000000FF0000FFFF00FF0000000000000000000000
310
000000000000000000000000000000FFFF0000FFFF00000000000000000000000000000000000000000000000000000000FFFF0000FF0000000000000000000000000000000000000000000000000000000000FFFF000000000000000000000000000000000000000000000000000000000000000000000000000000000000
310
0000000000000000000000000000000000000000000000000000000000000000000000000000000000000000000000000000000000000000
102
{BLKREFS
331
E74
102
}
1001
ACAD
1000
DesignCenter Data
1002
{
1070
     1
1070
     4
1002
}
  0
ENDTAB
  0
ENDSEC
  0
SECTION
  2
BLOCKS
  0
BLOCK
  5
20
330
1F
100
AcDbEntity
  8
0
100
AcDbBlockBegin
  2
*Model_Space
 70
     0
 10
0.0
 20
0.0
 30
0.0
  3
*Model_Space
  1

  0
ENDBLK
  5
21
330
1F
100
AcDbEntity
  8
0
100
AcDbBlockEnd
  0
BLOCK
  5
D4
330
D2
100
AcDbEntity
 67
     1
  8
0
100
AcDbBlockBegin
  2
*Paper_Space
 70
     0
 10
0.0
 20
0.0
 30
0.0
  3
*Paper_Space
  1

  0
ENDBLK
  5
D5
330
D2
100
AcDbEntity
 67
     1
  8
0
100
AcDbBlockEnd
  0
BLOCK
  5
D8
330
D6
100
AcDbEntity
 67
     1
  8
0
100
AcDbBlockBegin
  2
*Paper_Space0
 70
     0
 10
0.0
 20
0.0
 30
0.0
  3
*Paper_Space0
  1

  0
ENDBLK
  5
D9
330
D6
100
AcDbEntity
 67
     1
  8
0
100
AcDbBlockEnd
  0
BLOCK
  5
A2A
330
A29
100
AcDbEntity
  8
0
100
AcDbBlockBegin
  2
1
 70
     0
 10
0.0
 20
0.0
 30
0.0
  3
1
  1

  0
LINE
  5
A2C
330
A29
100
AcDbEntity
  8
0
  6
Continuous
 62
     7
370
    15
100
AcDbLine
 10
2299.712605717454
 20
913.2556983141702
 30
0.0
 11
2218.312605717454
 21
913.2556983141705
 31
0.0
  0
LINE
  5
A2D
330
A29
100
AcDbEntity
  8
0
  6
Continuous
 62
     7
370
    15
100
AcDbLine
 10
2299.712605717454
 20
912.0556983141705
 30
0.0
 11
2299.712605717454
 21
913.2556983141702
 31
0.0
  0
LINE
  5
A2E
330
A29
100
AcDbEntity
  8
0
  6
Continuous
 62
     7
370
    15
100
AcDbLine
 10
2218.312605717454
 20
913.2556983141705
 30
0.0
 11
2218.312605717454
 21
912.0556983141709
 31
0.0
  0
LINE
  5
A2F
330
A29
100
AcDbEntity
  8
0
  6
Continuous
 62
     7
370
    15
100
AcDbLine
 10
2299.712605717454
 20
912.0556983141705
 30
0.0
 11
2218.312605717454
 21
912.0556983141709
 31
0.0
  0
LINE
  5
A30
330
A29
100
AcDbEntity
  8
0
  6
Continuous
 62
     7
370
    15
100
AcDbLine
 10
2231.562605717454
 20
902.1556983141707
 30
0.0
 11
2231.562605717454
 21
903.4556983141706
 31
0.0
  0
LINE
  5
A31
330
A29
100
AcDbEntity
  8
0
  6
Continuous
 62
     7
370
    15
100
AcDbLine
 10
2231.562605717454
 20
902.1556983141707
 30
0.0
 11
2229.062605717454
 21
902.1556983141707
 31
0.0
  0
LINE
  5
A32
330
A29
100
AcDbEntity
  8
0
  6
Continuous
 62
     7
370
    15
100
AcDbLine
 10
2229.062605717454
 20
902.1556983141707
 30
0.0
 11
2229.062605717454
 21
903.4556983141706
 31
0.0
  0
LINE
  5
A33
330
A29
100
AcDbEntity
  8
0
  6
Continuous
 62
     7
370
    15
100
AcDbLine
 10
2231.562605717454
 20
903.4556983141706
 30
0.0
 11
2229.062605717454
 21
903.4556983141706
 31
0.0
  0
LINE
  5
A34
330
A29
100
AcDbEntity
  8
0
  6
Continuous
 62
     7
370
    15
100
AcDbLine
 10
2239.762605717455
 20
903.4556983141706
 30
0.0
 11
2237.262605717454
 21
903.4556983141706
 31
0.0
  0
LINE
  5
A35
330
A29
100
AcDbEntity
  8
0
  6
Continuous
 62
     7
370
    15
100
AcDbLine
 10
2239.762605717455
 20
902.1556983141707
 30
0.0
 11
2237.262605717454
 21
902.1556983141707
 31
0.0
  0
LINE
  5
A36
330
A29
100
AcDbEntity
  8
0
  6
Continuous
 62
     7
370
    15
100
AcDbLine
 10
2237.262605717454
 20
902.1556983141707
 30
0.0
 11
2237.262605717454
 21
903.4556983141706
 31
0.0
  0
LINE
  5
A37
330
A29
100
AcDbEntity
  8
0
  6
Continuous
 62
     7
370
    15
100
AcDbLine
 10
2239.762605717455
 20
902.1556983141707
 30
0.0
 11
2239.762605717455
 21
903.4556983141706
 31
0.0
  0
LINE
  5
A38
330
A29
100
AcDbEntity
  8
0
  6
Continuous
 62
     7
370
    15
100
AcDbLine
 10
2288.962605717454
 20
903.4556983141703
 30
0.0
 11
2286.462605717455
 21
903.4556983141703
 31
0.0
  0
LINE
  5
A39
330
A29
100
AcDbEntity
  8
0
  6
Continuous
 62
     7
370
    15
100
AcDbLine
 10
2288.962605717454
 20
902.1556983141703
 30
0.0
 11
2288.962605717454
 21
903.4556983141703
 31
0.0
  0
LINE
  5
A3A
330
A29
100
AcDbEntity
  8
0
  6
Continuous
 62
     7
370
    15
100
AcDbLine
 10
2288.962605717454
 20
902.1556983141703
 30
0.0
 11
2286.462605717455
 21
902.1556983141703
 31
0.0
  0
LINE
  5
A3B
330
A29
100
AcDbEntity
  8
0
  6
Continuous
 62
     7
370
    15
100
AcDbLine
 10
2286.462605717455
 20
902.1556983141703
 30
0.0
 11
2286.462605717455
 21
903.4556983141703
 31
0.0
  0
LINE
  5
A3C
330
A29
100
AcDbEntity
  8
0
  6
Continuous
 62
     7
370
    15
100
AcDbLine
 10
2256.162605717455
 20
902.1556983141705
 30
0.0
 11
2256.162605717455
 21
903.4556983141705
 31
0.0
  0
LINE
  5
A3D
330
A29
100
AcDbEntity
  8
0
  6
Continuous
 62
     7
370
    15
100
AcDbLine
 10
2256.162605717455
 20
902.1556983141705
 30
0.0
 11
2253.662605717455
 21
902.1556983141705
 31
0.0
  0
LINE
  5
A3E
330
A29
100
AcDbEntity
  8
0
  6
Continuous
 62
     7
370
    15
100
AcDbLine
 10
2256.162605717455
 20
903.4556983141705
 30
0.0
 11
2253.662605717455
 21
903.4556983141705
 31
0.0
  0
LINE
  5
A3F
330
A29
100
AcDbEntity
  8
0
  6
Continuous
 62
     7
370
    15
100
AcDbLine
 10
2253.662605717455
 20
902.1556983141705
 30
0.0
 11
2253.662605717455
 21
903.4556983141705
 31
0.0
  0
LINE
  5
A40
330
A29
100
AcDbEntity
  8
0
  6
Continuous
 62
     7
370
    15
100
AcDbLine
 10
2280.762605717455
 20
903.4556983141703
 30
0.0
 11
2278.262605717454
 21
903.4556983141703
 31
0.0
  0
LINE
  5
A41
330
A29
100
AcDbEntity
  8
0
  6
Continuous
 62
     7
370
    15
100
AcDbLine
 10
2280.762605717455
 20
902.1556983141703
 30
0.0
 11
2280.762605717455
 21
903.4556983141703
 31
0.0
  0
LINE
  5
A42
330
A29
100
AcDbEntity
  8
0
  6
Continuous
 62
     7
370
    15
100
AcDbLine
 10
2280.762605717455
 20
902.1556983141703
 30
0.0
 11
2278.262605717454
 21
902.1556983141703
 31
0.0
  0
LINE
  5
A43
330
A29
100
AcDbEntity
  8
0
  6
Continuous
 62
     7
370
    15
100
AcDbLine
 10
2278.262605717454
 20
902.1556983141703
 30
0.0
 11
2278.262605717454
 21
903.4556983141703
 31
0.0
  0
LINE
  5
A44
330
A29
100
AcDbEntity
  8
0
  6
Continuous
 62
     7
370
    15
100
AcDbLine
 10
2272.562605717454
 20
902.1556983141705
 30
0.0
 11
2272.562605717454
 21
903.4556983141703
 31
0.0
  0
LINE
  5
A45
330
A29
100
AcDbEntity
  8
0
  6
Continuous
 62
     7
370
    15
100
AcDbLine
 10
2272.562605717454
 20
902.1556983141705
 30
0.0
 11
2270.062605717454
 21
902.1556983141705
 31
0.0
  0
LINE
  5
A46
330
A29
100
AcDbEntity
  8
0
  6
Continuous
 62
     7
370
    15
100
AcDbLine
 10
2270.062605717454
 20
902.1556983141705
 30
0.0
 11
2270.062605717454
 21
903.4556983141703
 31
0.0
  0
LINE
  5
A47
330
A29
100
AcDbEntity
  8
0
  6
Continuous
 62
     7
370
    15
100
AcDbLine
 10
2272.562605717454
 20
903.4556983141703
 30
0.0
 11
2270.062605717454
 21
903.4556983141703
 31
0.0
  0
LINE
  5
A48
330
A29
100
AcDbEntity
  8
0
  6
Continuous
 62
     7
370
    15
100
AcDbLine
 10
2297.162605717455
 20
903.4556983141701
 30
0.0
 11
2294.662605717455
 21
903.4556983141701
 31
0.0
  0
LINE
  5
A49
330
A29
100
AcDbEntity
  8
0
  6
Continuous
 62
     7
370
    15
100
AcDbLine
 10
2297.162605717455
 20
902.1556983141701
 30
0.0
 11
2294.662605717455
 21
902.1556983141701
 31
0.0
  0
LINE
  5
A4A
330
A29
100
AcDbEntity
  8
0
  6
Continuous
 62
     7
370
    15
100
AcDbLine
 10
2294.662605717455
 20
902.1556983141701
 30
0.0
 11
2294.662605717455
 21
903.4556983141701
 31
0.0
  0
LINE
  5
A4B
330
A29
100
AcDbEntity
  8
0
  6
Continuous
 62
     7
370
    15
100
AcDbLine
 10
2297.162605717455
 20
902.1556983141701
 30
0.0
 11
2297.162605717455
 21
903.4556983141701
 31
0.0
  0
LINE
  5
A4C
330
A29
100
AcDbEntity
  8
0
  6
Continuous
 62
     7
370
    15
100
AcDbLine
 10
2264.362605717455
 20
903.4556983141705
 30
0.0
 11
2261.862605717454
 21
903.4556983141705
 31
0.0
  0
LINE
  5
A4D
330
A29
100
AcDbEntity
  8
0
  6
Continuous
 62
     7
370
    15
100
AcDbLine
 10
2264.362605717455
 20
902.1556983141705
 30
0.0
 11
2264.362605717455
 21
903.4556983141705
 31
0.0
  0
LINE
  5
A4E
330
A29
100
AcDbEntity
  8
0
  6
Continuous
 62
     7
370
    15
100
AcDbLine
 10
2264.362605717455
 20
902.1556983141705
 30
0.0
 11
2261.862605717454
 21
902.1556983141705
 31
0.0
  0
LINE
  5
A4F
330
A29
100
AcDbEntity
  8
0
  6
Continuous
 62
     7
370
    15
100
AcDbLine
 10
2261.862605717454
 20
902.1556983141705
 30
0.0
 11
2261.862605717454
 21
903.4556983141705
 31
0.0
  0
LINE
  5
A50
330
A29
100
AcDbEntity
  8
0
  6
Continuous
 62
     7
370
    15
100
AcDbLine
 10
2247.962605717454
 20
902.1556983141707
 30
0.0
 11
2247.962605717454
 21
903.4556983141706
 31
0.0
  0
LINE
  5
A51
330
A29
100
AcDbEntity
  8
0
  6
Continuous
 62
     7
370
    15
100
AcDbLine
 10
2247.962605717454
 20
902.1556983141707
 30
0.0
 11
2245.462605717454
 21
902.1556983141707
 31
0.0
  0
LINE
  5
A52
330
A29
100
AcDbEntity
  8
0
  6
Continuous
 62
     7
370
    15
100
AcDbLine
 10
2245.462605717454
 20
902.1556983141707
 30
0.0
 11
2245.462605717454
 21
903.4556983141706
 31
0.0
  0
LINE
  5
A53
330
A29
100
AcDbEntity
  8
0
  6
Continuous
 62
     7
370
    15
100
AcDbLine
 10
2247.962605717454
 20
903.4556983141706
 30
0.0
 11
2245.462605717454
 21
903.4556983141706
 31
0.0
  0
LINE
  5
A54
330
A29
100
AcDbEntity
  8
0
  6
Continuous
 62
     7
370
    15
100
AcDbLine
 10
2223.362605717454
 20
903.4556983141706
 30
0.0
 11
2220.862605717454
 21
903.4556983141706
 31
0.0
  0
LINE
  5
A55
330
A29
100
AcDbEntity
  8
0
  6
Continuous
 62
     7
370
    15
100
AcDbLine
 10
2223.362605717454
 20
902.1556983141707
 30
0.0
 11
2220.862605717454
 21
902.1556983141707
 31
0.0
  0
LINE
  5
A56
330
A29
100
AcDbEntity
  8
0
  6
Continuous
 62
     7
370
    15
100
AcDbLine
 10
2220.862605717454
 20
902.1556983141707
 30
0.0
 11
2220.862605717454
 21
903.4556983141706
 31
0.0
  0
LINE
  5
A57
330
A29
100
AcDbEntity
  8
0
  6
Continuous
 62
     7
370
    15
100
AcDbLine
 10
2223.362605717454
 20
902.1556983141707
 30
0.0
 11
2223.362605717454
 21
903.4556983141706
 31
0.0
  0
ARC
  5
A58
330
A29
100
AcDbEntity
  8
0
  6
Continuous
 62
     7
370
    15
100
AcDbCircle
 10
2281.662605717454
 20
901.9056983141707
 30
0.0
 40
0.5000000000000241
100
AcDbArc
 50
315.0000000000092
 51
0.0
  0
LINE
  5
A59
330
A29
100
AcDbEntity
  8
0
  6
Continuous
 62
     7
370
    15
100
AcDbLine
 10
2281.959052326861
 20
901.4950381423904
 30
0.0
 11
2282.016159108048
 21
901.5521449235775
 31
0.0
  0
ARC
  5
A5A
330
A29
100
AcDbEntity
  8
0
  6
Continuous
 62
     7
370
    15
100
AcDbCircle
 10
2282.312605717454
 20
901.1414847517972
 30
0.0
 40
0.5000000000000569
100
AcDbArc
 50
135.0000000000046
 51
180.0
  0
LINE
  5
A5B
330
A29
100
AcDbEntity
  8
0
  6
Continuous
 62
     7
370
    15
100
AcDbLine
 10
2281.812605717454
 20
899.1271169745704
 30
0.0
 11
2281.812605717454
 21
901.1414847517972
 31
0.0
  0
LINE
  5
A5C
330
A29
100
AcDbEntity
  8
0
  6
Continuous
 62
     7
370
    15
100
AcDbLine
 10
2277.212605717454
 20
899.1271169745704
 30
0.0
 11
2281.812605717454
 21
899.1271169745704
 31
0.0
  0
LINE
  5
A5D
330
A29
100
AcDbEntity
  8
0
  6
Continuous
 62
     7
370
    15
100
AcDbLine
 10
2277.212605717454
 20
901.1414847517972
 30
0.0
 11
2277.212605717454
 21
899.1271169745704
 31
0.0
  0
ARC
  5
A5E
330
A29
100
AcDbEntity
  8
0
  6
Continuous
 62
     7
370
    15
100
AcDbCircle
 10
2276.712605717454
 20
901.1414847517972
 30
0.0
 40
0.5
100
AcDbArc
 50
0.0
 51
45.00000000002303
  0
LINE
  5
A5F
330
A29
100
AcDbEntity
  8
0
  6
Continuous
 62
     7
370
    15
100
AcDbLine
 10
2277.009052326861
 20
901.552144923577
 30
0.0
 11
2277.066159108047
 21
901.4950381423904
 31
0.0
  0
ARC
  5
A60
330
A29
100
AcDbEntity
  8
0
  6
Continuous
 62
     7
370
    15
100
AcDbCircle
 10
2277.362605717454
 20
901.9056983141702
 30
0.0
 40
0.5
100
AcDbArc
 50
180.0
 51
224.9999999999954
  0
LINE
  5
A61
330
A29
100
AcDbEntity
  8
0
  6
Continuous
 62
     7
370
    15
100
AcDbLine
 10
2276.862605717454
 20
905.5891052712055
 30
0.0
 11
2276.862605717454
 21
901.9056983141702
 31
0.0
  0
LINE
  5
A62
330
A29
100
AcDbEntity
  8
0
  6
Continuous
 62
     7
370
    15
100
AcDbLine
 10
2276.862605717454
 20
905.5891052712059
 30
0.0
 11
2273.962605717454
 21
905.5891052712059
 31
0.0
  0
LINE
  5
A63
330
A29
100
AcDbEntity
  8
0
  6
Continuous
 62
     7
370
    15
100
AcDbLine
 10
2273.962605717454
 20
901.9056983141707
 30
0.0
 11
2273.962605717454
 21
905.5891052712057
 31
0.0
  0
ARC
  5
A64
330
A29
100
AcDbEntity
  8
0
  6
Continuous
 62
     7
370
    15
100
AcDbCircle
 10
2273.462605717454
 20
901.9056983141707
 30
0.0
 40
0.5000000000000241
100
AcDbArc
 50
315.0000000000092
 51
0.0
  0
LINE
  5
A65
330
A29
100
AcDbEntity
  8
0
  6
Continuous
 62
     7
370
    15
100
AcDbLine
 10
2273.759052326861
 20
901.4950381423904
 30
0.0
 11
2273.816159108047
 21
901.5521449235775
 31
0.0
  0
ARC
  5
A66
330
A29
100
AcDbEntity
  8
0
  6
Continuous
 62
     7
370
    15
100
AcDbCircle
 10
2274.112605717454
 20
901.1414847517972
 30
0.0
 40
0.5000000000000569
100
AcDbArc
 50
135.0000000000046
 51
180.0
  0
LINE
  5
A67
330
A29
100
AcDbEntity
  8
0
  6
Continuous
 62
     7
370
    15
100
AcDbLine
 10
2273.612605717454
 20
899.1271169745704
 30
0.0
 11
2273.612605717454
 21
901.1414847517972
 31
0.0
  0
LINE
  5
A68
330
A29
100
AcDbEntity
  8
0
  6
Continuous
 62
     7
370
    15
100
AcDbLine
 10
2269.012605717454
 20
899.1271169745704
 30
0.0
 11
2273.612605717454
 21
899.1271169745704
 31
0.0
  0
LINE
  5
A69
330
A29
100
AcDbEntity
  8
0
  6
Continuous
 62
     7
370
    15
100
AcDbLine
 10
2269.012605717454
 20
901.1414847517972
 30
0.0
 11
2269.012605717454
 21
899.1271169745704
 31
0.0
  0
ARC
  5
A6A
330
A29
100
AcDbEntity
  8
0
  6
Continuous
 62
     7
370
    15
100
AcDbCircle
 10
2268.512605717454
 20
901.1414847517972
 30
0.0
 40
0.5
100
AcDbArc
 50
0.0
 51
45.00000000002303
  0
LINE
  5
A6B
330
A29
100
AcDbEntity
  8
0
  6
Continuous
 62
     7
370
    15
100
AcDbLine
 10
2268.809052326861
 20
901.5521449235771
 30
0.0
 11
2268.866159108047
 21
901.4950381423906
 31
0.0
  0
ARC
  5
A6C
330
A29
100
AcDbEntity
  8
0
  6
Continuous
 62
     7
370
    15
100
AcDbCircle
 10
2269.162605717454
 20
901.9056983141704
 30
0.0
 40
0.5
100
AcDbArc
 50
180.0
 51
224.9999999999954
  0
LINE
  5
A6D
330
A29
100
AcDbEntity
  8
0
  6
Continuous
 62
     7
370
    15
100
AcDbLine
 10
2268.662605717454
 20
905.5891052712057
 30
0.0
 11
2268.662605717454
 21
901.9056983141704
 31
0.0
  0
LINE
  5
A6E
330
A29
100
AcDbEntity
  8
0
  6
Continuous
 62
     7
370
    15
100
AcDbLine
 10
2268.662605717454
 20
905.5891052712059
 30
0.0
 11
2265.762605717454
 21
905.5891052712059
 31
0.0
  0
LINE
  5
A6F
330
A29
100
AcDbEntity
  8
0
  6
Continuous
 62
     7
370
    15
100
AcDbLine
 10
2265.762605717454
 20
901.9056983141707
 30
0.0
 11
2265.762605717454
 21
905.5891052712059
 31
0.0
  0
ARC
  5
A70
330
A29
100
AcDbEntity
  8
0
  6
Continuous
 62
     7
370
    15
100
AcDbCircle
 10
2265.262605717454
 20
901.9056983141707
 30
0.0
 40
0.5000000000000342
100
AcDbArc
 50
315.0000000000092
 51
0.0
  0
LINE
  5
A71
330
A29
100
AcDbEntity
  8
0
  6
Continuous
 62
     7
370
    15
100
AcDbLine
 10
2265.559052326861
 20
901.4950381423906
 30
0.0
 11
2265.616159108047
 21
901.5521449235775
 31
0.0
  0
ARC
  5
A72
330
A29
100
AcDbEntity
  8
0
  6
Continuous
 62
     7
370
    15
100
AcDbCircle
 10
2265.912605717454
 20
901.1414847517972
 30
0.0
 40
0.5000000000000569
100
AcDbArc
 50
135.0000000000046
 51
180.0
  0
LINE
  5
A73
330
A29
100
AcDbEntity
  8
0
  6
Continuous
 62
     7
370
    15
100
AcDbLine
 10
2265.412605717454
 20
899.1271169745704
 30
0.0
 11
2265.412605717454
 21
901.1414847517972
 31
0.0
  0
LINE
  5
A74
330
A29
100
AcDbEntity
  8
0
  6
Continuous
 62
     7
370
    15
100
AcDbLine
 10
2260.812605717454
 20
899.1271169745704
 30
0.0
 11
2265.412605717454
 21
899.1271169745704
 31
0.0
  0
LINE
  5
A75
330
A29
100
AcDbEntity
  8
0
  6
Continuous
 62
     7
370
    15
100
AcDbLine
 10
2260.812605717454
 20
901.1414847517972
 30
0.0
 11
2260.812605717454
 21
899.1271169745704
 31
0.0
  0
ARC
  5
A76
330
A29
100
AcDbEntity
  8
0
  6
Continuous
 62
     7
370
    15
100
AcDbCircle
 10
2260.312605717454
 20
901.1414847517972
 30
0.0
 40
0.5
100
AcDbArc
 50
0.0
 51
45.00000000002303
  0
LINE
  5
A77
330
A29
100
AcDbEntity
  8
0
  6
Continuous
 62
     7
370
    15
100
AcDbLine
 10
2260.609052326861
 20
901.5521449235771
 30
0.0
 11
2260.666159108047
 21
901.4950381423908
 31
0.0
  0
ARC
  5
A78
330
A29
100
AcDbEntity
  8
0
  6
Continuous
 62
     7
370
    15
100
AcDbCircle
 10
2260.962605717454
 20
901.9056983141704
 30
0.0
 40
0.5
100
AcDbArc
 50
180.0
 51
224.9999999999954
  0
LINE
  5
A79
330
A29
100
AcDbEntity
  8
0
  6
Continuous
 62
     7
370
    15
100
AcDbLine
 10
2260.462605717454
 20
905.5891052712059
 30
0.0
 11
2260.462605717454
 21
901.9056983141704
 31
0.0
  0
LINE
  5
A7A
330
A29
100
AcDbEntity
  8
0
  6
Continuous
 62
     7
370
    15
100
AcDbLine
 10
2260.462605717454
 20
905.5891052712059
 30
0.0
 11
2257.562605717454
 21
905.5891052712059
 31
0.0
  0
LINE
  5
A7B
330
A29
100
AcDbEntity
  8
0
  6
Continuous
 62
     7
370
    15
100
AcDbLine
 10
2257.562605717454
 20
901.9056983141709
 30
0.0
 11
2257.562605717454
 21
905.5891052712059
 31
0.0
  0
ARC
  5
A7C
330
A29
100
AcDbEntity
  8
0
  6
Continuous
 62
     7
370
    15
100
AcDbCircle
 10
2257.062605717454
 20
901.9056983141709
 30
0.0
 40
0.5000000000000342
100
AcDbArc
 50
315.0000000000092
 51
0.0
  0
LINE
  5
A7D
330
A29
100
AcDbEntity
  8
0
  6
Continuous
 62
     7
370
    15
100
AcDbLine
 10
2257.359052326861
 20
901.4950381423908
 30
0.0
 11
2257.416159108048
 21
901.5521449235777
 31
0.0
  0
ARC
  5
A7E
330
A29
100
AcDbEntity
  8
0
  6
Continuous
 62
     7
370
    15
100
AcDbCircle
 10
2257.712605717454
 20
901.1414847517974
 30
0.0
 40
0.5000000000000569
100
AcDbArc
 50
135.0
 51
180.0
  0
LINE
  5
A7F
330
A29
100
AcDbEntity
  8
0
  6
Continuous
 62
     7
370
    15
100
AcDbLine
 10
2257.212605717453
 20
899.1271169745704
 30
0.0
 11
2257.212605717453
 21
901.1414847517974
 31
0.0
  0
LINE
  5
A80
330
A29
100
AcDbEntity
  8
0
  6
Continuous
 62
     7
370
    15
100
AcDbLine
 10
2252.612605717454
 20
899.1271169745704
 30
0.0
 11
2257.212605717453
 21
899.1271169745704
 31
0.0
  0
LINE
  5
A81
330
A29
100
AcDbEntity
  8
0
  6
Continuous
 62
     7
370
    15
100
AcDbLine
 10
2252.612605717454
 20
901.1414847517974
 30
0.0
 11
2252.612605717454
 21
899.1271169745704
 31
0.0
  0
ARC
  5
A82
330
A29
100
AcDbEntity
  8
0
  6
Continuous
 62
     7
370
    15
100
AcDbCircle
 10
2252.112605717454
 20
901.1414847517974
 30
0.0
 40
0.5000000000000142
100
AcDbArc
 50
0.0
 51
45.00000000002303
  0
LINE
  5
A83
330
A29
100
AcDbEntity
  8
0
  6
Continuous
 62
     7
370
    15
100
AcDbLine
 10
2252.409052326861
 20
901.5521449235771
 30
0.0
 11
2252.466159108047
 21
901.4950381423908
 31
0.0
  0
ARC
  5
A84
330
A29
100
AcDbEntity
  8
0
  6
Continuous
 62
     7
370
    15
100
AcDbCircle
 10
2252.762605717454
 20
901.9056983141704
 30
0.0
 40
0.5
100
AcDbArc
 50
180.0
 51
224.9999999999954
  0
LINE
  5
A85
330
A29
100
AcDbEntity
  8
0
  6
Continuous
 62
     7
370
    15
100
AcDbLine
 10
2252.262605717454
 20
905.5891052712059
 30
0.0
 11
2252.262605717454
 21
901.9056983141704
 31
0.0
  0
LINE
  5
A86
330
A29
100
AcDbEntity
  8
0
  6
Continuous
 62
     7
370
    15
100
AcDbLine
 10
2252.262605717454
 20
905.5891052712059
 30
0.0
 11
2249.362605717454
 21
905.5891052712059
 31
0.0
  0
LINE
  5
A87
330
A29
100
AcDbEntity
  8
0
  6
Continuous
 62
     7
370
    15
100
AcDbLine
 10
2249.362605717454
 20
901.9056983141709
 30
0.0
 11
2249.362605717454
 21
905.5891052712059
 31
0.0
  0
ARC
  5
A88
330
A29
100
AcDbEntity
  8
0
  6
Continuous
 62
     7
370
    15
100
AcDbCircle
 10
2248.862605717454
 20
901.9056983141709
 30
0.0
 40
0.5000000000000342
100
AcDbArc
 50
315.0000000000092
 51
0.0
  0
LINE
  5
A89
330
A29
100
AcDbEntity
  8
0
  6
Continuous
 62
     7
370
    15
100
AcDbLine
 10
2249.159052326861
 20
901.4950381423908
 30
0.0
 11
2249.216159108047
 21
901.5521449235777
 31
0.0
  0
ARC
  5
A8A
330
A29
100
AcDbEntity
  8
0
  6
Continuous
 62
     7
370
    15
100
AcDbCircle
 10
2249.512605717454
 20
901.1414847517974
 30
0.0
 40
0.5000000000000569
100
AcDbArc
 50
135.0
 51
180.0
  0
LINE
  5
A8B
330
A29
100
AcDbEntity
  8
0
  6
Continuous
 62
     7
370
    15
100
AcDbLine
 10
2249.012605717454
 20
899.1271169745706
 30
0.0
 11
2249.012605717454
 21
901.1414847517974
 31
0.0
  0
LINE
  5
A8C
330
A29
100
AcDbEntity
  8
0
  6
Continuous
 62
     7
370
    15
100
AcDbLine
 10
2244.412605717454
 20
899.1271169745706
 30
0.0
 11
2249.012605717454
 21
899.1271169745706
 31
0.0
  0
LINE
  5
A8D
330
A29
100
AcDbEntity
  8
0
  6
Continuous
 62
     7
370
    15
100
AcDbLine
 10
2244.412605717454
 20
901.1414847517974
 30
0.0
 11
2244.412605717454
 21
899.1271169745706
 31
0.0
  0
ARC
  5
A8E
330
A29
100
AcDbEntity
  8
0
  6
Continuous
 62
     7
370
    15
100
AcDbCircle
 10
2243.912605717454
 20
901.1414847517974
 30
0.0
 40
0.5
100
AcDbArc
 50
0.0
 51
45.00000000002303
  0
LINE
  5
A8F
330
A29
100
AcDbEntity
  8
0
  6
Continuous
 62
     7
370
    15
100
AcDbLine
 10
2244.209052326861
 20
901.5521449235771
 30
0.0
 11
2244.266159108047
 21
901.4950381423908
 31
0.0
  0
ARC
  5
A90
330
A29
100
AcDbEntity
  8
0
  6
Continuous
 62
     7
370
    15
100
AcDbCircle
 10
2244.562605717454
 20
901.9056983141705
 30
0.0
 40
0.5
100
AcDbArc
 50
180.0
 51
224.9999999999954
  0
LINE
  5
A91
330
A29
100
AcDbEntity
  8
0
  6
Continuous
 62
     7
370
    15
100
AcDbLine
 10
2244.062605717454
 20
905.5891052712059
 30
0.0
 11
2244.062605717454
 21
901.9056983141705
 31
0.0
  0
LINE
  5
A92
330
A29
100
AcDbEntity
  8
0
  6
Continuous
 62
     7
370
    15
100
AcDbLine
 10
2244.062605717454
 20
905.5891052712059
 30
0.0
 11
2241.162605717454
 21
905.5891052712059
 31
0.0
  0
LINE
  5
A93
330
A29
100
AcDbEntity
  8
0
  6
Continuous
 62
     7
370
    15
100
AcDbLine
 10
2241.162605717454
 20
901.9056983141709
 30
0.0
 11
2241.162605717454
 21
905.5891052712059
 31
0.0
  0
ARC
  5
A94
330
A29
100
AcDbEntity
  8
0
  6
Continuous
 62
     7
370
    15
100
AcDbCircle
 10
2240.662605717454
 20
901.9056983141709
 30
0.0
 40
0.5000000000000543
100
AcDbArc
 50
315.0000000000092
 51
0.0
  0
LINE
  5
A95
330
A29
100
AcDbEntity
  8
0
  6
Continuous
 62
     7
370
    15
100
AcDbLine
 10
2240.959052326861
 20
901.4950381423908
 30
0.0
 11
2241.016159108047
 21
901.5521449235777
 31
0.0
  0
ARC
  5
A96
330
A29
100
AcDbEntity
  8
0
  6
Continuous
 62
     7
370
    15
100
AcDbCircle
 10
2241.312605717454
 20
901.1414847517976
 30
0.0
 40
0.5000000000000569
100
AcDbArc
 50
135.0000000000046
 51
180.0
  0
LINE
  5
A97
330
A29
100
AcDbEntity
  8
0
  6
Continuous
 62
     7
370
    15
100
AcDbLine
 10
2240.812605717454
 20
899.1271169745706
 30
0.0
 11
2240.812605717454
 21
901.1414847517976
 31
0.0
  0
LINE
  5
A98
330
A29
100
AcDbEntity
  8
0
  6
Continuous
 62
     7
370
    15
100
AcDbLine
 10
2236.212605717454
 20
899.1271169745706
 30
0.0
 11
2240.812605717454
 21
899.1271169745706
 31
0.0
  0
LINE
  5
A99
330
A29
100
AcDbEntity
  8
0
  6
Continuous
 62
     7
370
    15
100
AcDbLine
 10
2236.212605717454
 20
901.1414847517976
 30
0.0
 11
2236.212605717454
 21
899.1271169745706
 31
0.0
  0
ARC
  5
A9A
330
A29
100
AcDbEntity
  8
0
  6
Continuous
 62
     7
370
    15
100
AcDbCircle
 10
2235.712605717454
 20
901.1414847517976
 30
0.0
 40
0.5
100
AcDbArc
 50
0.0
 51
45.00000000002303
  0
LINE
  5
A9B
330
A29
100
AcDbEntity
  8
0
  6
Continuous
 62
     7
370
    15
100
AcDbLine
 10
2236.009052326861
 20
901.5521449235773
 30
0.0
 11
2236.066159108047
 21
901.4950381423908
 31
0.0
  0
ARC
  5
A9C
330
A29
100
AcDbEntity
  8
0
  6
Continuous
 62
     7
370
    15
100
AcDbCircle
 10
2236.362605717454
 20
901.9056983141705
 30
0.0
 40
0.5000000000000142
100
AcDbArc
 50
180.0
 51
224.9999999999954
  0
LINE
  5
A9D
330
A29
100
AcDbEntity
  8
0
  6
Continuous
 62
     7
370
    15
100
AcDbLine
 10
2235.862605717454
 20
905.5891052712059
 30
0.0
 11
2235.862605717454
 21
901.9056983141705
 31
0.0
  0
LINE
  5
A9E
330
A29
100
AcDbEntity
  8
0
  6
Continuous
 62
     7
370
    15
100
AcDbLine
 10
2232.962605717454
 20
905.5891052712061
 30
0.0
 11
2235.862605717454
 21
905.5891052712059
 31
0.0
  0
LINE
  5
A9F
330
A29
100
AcDbEntity
  8
0
  6
Continuous
 62
     7
370
    15
100
AcDbLine
 10
2232.962605717454
 20
901.9056983141709
 30
0.0
 11
2232.962605717454
 21
905.5891052712061
 31
0.0
  0
ARC
  5
AA0
330
A29
100
AcDbEntity
  8
0
  6
Continuous
 62
     7
370
    15
100
AcDbCircle
 10
2232.462605717454
 20
901.9056983141711
 30
0.0
 40
0.5000000000000543
100
AcDbArc
 50
315.0000000000092
 51
0.0
  0
LINE
  5
AA1
330
A29
100
AcDbEntity
  8
0
  6
Continuous
 62
     7
370
    15
100
AcDbLine
 10
2232.759052326861
 20
901.4950381423908
 30
0.0
 11
2232.816159108048
 21
901.5521449235777
 31
0.0
  0
ARC
  5
AA2
330
A29
100
AcDbEntity
  8
0
  6
Continuous
 62
     7
370
    15
100
AcDbCircle
 10
2233.112605717454
 20
901.1414847517976
 30
0.0
 40
0.5000000000000569
100
AcDbArc
 50
135.0000000000046
 51
180.0
  0
LINE
  5
AA3
330
A29
100
AcDbEntity
  8
0
  6
Continuous
 62
     7
370
    15
100
AcDbLine
 10
2232.612605717454
 20
899.1271169745708
 30
0.0
 11
2232.612605717454
 21
901.1414847517976
 31
0.0
  0
LINE
  5
AA4
330
A29
100
AcDbEntity
  8
0
  6
Continuous
 62
     7
370
    15
100
AcDbLine
 10
2228.012605717454
 20
899.1271169745708
 30
0.0
 11
2232.612605717454
 21
899.1271169745708
 31
0.0
  0
LINE
  5
AA5
330
A29
100
AcDbEntity
  8
0
  6
Continuous
 62
     7
370
    15
100
AcDbLine
 10
2228.012605717454
 20
901.1414847517976
 30
0.0
 11
2228.012605717454
 21
899.1271169745708
 31
0.0
  0
ARC
  5
AA6
330
A29
100
AcDbEntity
  8
0
  6
Continuous
 62
     7
370
    15
100
AcDbCircle
 10
2227.512605717454
 20
901.1414847517976
 30
0.0
 40
0.5
100
AcDbArc
 50
0.0
 51
45.00000000002303
  0
LINE
  5
AA7
330
A29
100
AcDbEntity
  8
0
  6
Continuous
 62
     7
370
    15
100
AcDbLine
 10
2227.809052326861
 20
901.5521449235773
 30
0.0
 11
2227.866159108047
 21
901.495038142391
 31
0.0
  0
ARC
  5
AA8
330
A29
100
AcDbEntity
  8
0
  6
Continuous
 62
     7
370
    15
100
AcDbCircle
 10
2228.162605717454
 20
901.9056983141707
 30
0.0
 40
0.5
100
AcDbArc
 50
180.0
 51
224.9999999999954
  0
LINE
  5
AA9
330
A29
100
AcDbEntity
  8
0
  6
Continuous
 62
     7
370
    15
100
AcDbLine
 10
2227.662605717454
 20
905.5891052712061
 30
0.0
 11
2227.662605717454
 21
901.9056983141707
 31
0.0
  0
LINE
  5
AAA
330
A29
100
AcDbEntity
  8
0
  6
Continuous
 62
     7
370
    15
100
AcDbLine
 10
2224.762605717454
 20
905.5891052712061
 30
0.0
 11
2227.662605717454
 21
905.5891052712061
 31
0.0
  0
LINE
  5
AAB
330
A29
100
AcDbEntity
  8
0
  6
Continuous
 62
     7
370
    15
100
AcDbLine
 10
2224.762605717454
 20
901.9056983141707
 30
0.0
 11
2224.762605717454
 21
905.5891052712061
 31
0.0
  0
ARC
  5
AAC
330
A29
100
AcDbEntity
  8
0
  6
Continuous
 62
     7
370
    15
100
AcDbCircle
 10
2224.262605717453
 20
901.9056983141707
 30
0.0
 40
0.5
100
AcDbArc
 50
315.0000000000092
 51
0.0
  0
LINE
  5
AAD
330
A29
100
AcDbEntity
  8
0
  6
Continuous
 62
     7
370
    15
100
AcDbLine
 10
2224.55905232686
 20
901.495038142391
 30
0.0
 11
2224.616159108047
 21
901.5521449235775
 31
0.0
  0
ARC
  5
AAE
330
A29
100
AcDbEntity
  8
0
  6
Continuous
 62
     7
370
    15
100
AcDbCircle
 10
2224.912605717454
 20
901.1414847517976
 30
0.0
 40
0.5000000000000342
100
AcDbArc
 50
134.9999999999816
 51
180.0
  0
LINE
  5
AAF
330
A29
100
AcDbEntity
  8
0
  6
Continuous
 62
     7
370
    15
100
AcDbLine
 10
2224.412605717454
 20
899.127116974571
 30
0.0
 11
2224.412605717454
 21
901.1414847517976
 31
0.0
  0
LINE
  5
AB0
330
A29
100
AcDbEntity
  8
0
  6
Continuous
 62
     7
370
    15
100
AcDbLine
 10
2219.812605717454
 20
899.127116974571
 30
0.0
 11
2224.412605717454
 21
899.127116974571
 31
0.0
  0
LINE
  5
AB1
330
A29
100
AcDbEntity
  8
0
  6
Continuous
 62
     7
370
    15
100
AcDbLine
 10
2219.812605717454
 20
901.1414847517976
 30
0.0
 11
2219.812605717454
 21
899.127116974571
 31
0.0
  0
ARC
  5
AB2
330
A29
100
AcDbEntity
  8
0
  6
Continuous
 62
     7
370
    15
100
AcDbCircle
 10
2219.312605717453
 20
901.1414847517976
 30
0.0
 40
0.5000000000000342
100
AcDbArc
 50
0.0
 51
44.99999999999539
  0
LINE
  5
AB3
330
A29
100
AcDbEntity
  8
0
  6
Continuous
 62
     7
370
    15
100
AcDbLine
 10
2219.609052326861
 20
901.5521449235777
 30
0.0
 11
2219.666159108047
 21
901.4950381423908
 31
0.0
  0
ARC
  5
AB4
330
A29
100
AcDbEntity
  8
0
  6
Continuous
 62
     7
370
    15
100
AcDbCircle
 10
2219.962605717453
 20
901.9056983141711
 30
0.0
 40
0.5000000000000142
100
AcDbArc
 50
180.0
 51
225.0
  0
LINE
  5
AB5
330
A29
100
AcDbEntity
  8
0
  6
Continuous
 62
     7
370
    15
100
AcDbLine
 10
2219.462605717454
 20
905.5891052712061
 30
0.0
 11
2219.462605717454
 21
901.9056983141711
 31
0.0
  0
LINE
  5
AB6
330
A29
100
AcDbEntity
  8
0
  6
Continuous
 62
     7
370
    15
100
AcDbLine
 10
2219.462605717454
 20
905.5891052712061
 30
0.0
 11
2218.312605717454
 21
905.5891052712061
 31
0.0
  0
LINE
  5
AB7
330
A29
100
AcDbEntity
  8
0
  6
Continuous
 62
     7
370
    15
100
AcDbLine
 10
2299.712605717454
 20
905.5891052712055
 30
0.0
 11
2298.562605717454
 21
905.5891052712055
 31
0.0
  0
LINE
  5
AB8
330
A29
100
AcDbEntity
  8
0
  6
Continuous
 62
     7
370
    15
100
AcDbLine
 10
2298.562605717454
 20
901.9056983141705
 30
0.0
 11
2298.562605717454
 21
905.5891052712055
 31
0.0
  0
ARC
  5
AB9
330
A29
100
AcDbEntity
  8
0
  6
Continuous
 62
     7
370
    15
100
AcDbCircle
 10
2298.062605717454
 20
901.9056983141707
 30
0.0
 40
0.5000000000000543
100
AcDbArc
 50
315.0000000000092
 51
0.0
  0
LINE
  5
ABA
330
A29
100
AcDbEntity
  8
0
  6
Continuous
 62
     7
370
    15
100
AcDbLine
 10
2298.359052326861
 20
901.4950381423904
 30
0.0
 11
2298.416159108048
 21
901.5521449235773
 31
0.0
  0
ARC
  5
ABB
330
A29
100
AcDbEntity
  8
0
  6
Continuous
 62
     7
370
    15
100
AcDbCircle
 10
2298.712605717454
 20
901.141484751797
 30
0.0
 40
0.5000000000000285
100
AcDbArc
 50
135.0
 51
180.0
  0
LINE
  5
ABC
330
A29
100
AcDbEntity
  8
0
  6
Continuous
 62
     7
370
    15
100
AcDbLine
 10
2298.212605717454
 20
899.1271169745703
 30
0.0
 11
2298.212605717454
 21
901.141484751797
 31
0.0
  0
LINE
  5
ABD
330
A29
100
AcDbEntity
  8
0
  6
Continuous
 62
     7
370
    15
100
AcDbLine
 10
2293.612605717454
 20
899.1271169745703
 30
0.0
 11
2298.212605717454
 21
899.1271169745703
 31
0.0
  0
LINE
  5
ABE
330
A29
100
AcDbEntity
  8
0
  6
Continuous
 62
     7
370
    15
100
AcDbLine
 10
2293.612605717454
 20
901.141484751797
 30
0.0
 11
2293.612605717454
 21
899.1271169745703
 31
0.0
  0
ARC
  5
ABF
330
A29
100
AcDbEntity
  8
0
  6
Continuous
 62
     7
370
    15
100
AcDbCircle
 10
2293.112605717454
 20
901.141484751797
 30
0.0
 40
0.5000000000000285
100
AcDbArc
 50
0.0
 51
45.00000000002303
  0
LINE
  5
AC0
330
A29
100
AcDbEntity
  8
0
  6
Continuous
 62
     7
370
    15
100
AcDbLine
 10
2293.409052326861
 20
901.5521449235768
 30
0.0
 11
2293.466159108047
 21
901.4950381423904
 31
0.0
  0
ARC
  5
AC1
330
A29
100
AcDbEntity
  8
0
  6
Continuous
 62
     7
370
    15
100
AcDbCircle
 10
2293.762605717454
 20
901.9056983141702
 30
0.0
 40
0.5
100
AcDbArc
 50
180.0
 51
224.9999999999954
  0
LINE
  5
AC2
330
A29
100
AcDbEntity
  8
0
  6
Continuous
 62
     7
370
    15
100
AcDbLine
 10
2293.262605717454
 20
905.5891052712055
 30
0.0
 11
2293.262605717454
 21
901.9056983141702
 31
0.0
  0
LINE
  5
AC3
330
A29
100
AcDbEntity
  8
0
  6
Continuous
 62
     7
370
    15
100
AcDbLine
 10
2293.262605717454
 20
905.5891052712055
 30
0.0
 11
2290.362605717454
 21
905.5891052712059
 31
0.0
  0
LINE
  5
AC4
330
A29
100
AcDbEntity
  8
0
  6
Continuous
 62
     7
370
    15
100
AcDbLine
 10
2290.362605717454
 20
901.9056983141707
 30
0.0
 11
2290.362605717454
 21
905.5891052712055
 31
0.0
  0
ARC
  5
AC5
330
A29
100
AcDbEntity
  8
0
  6
Continuous
 62
     7
370
    15
100
AcDbCircle
 10
2289.862605717454
 20
901.9056983141707
 30
0.0
 40
0.5000000000000543
100
AcDbArc
 50
315.0000000000092
 51
0.0
  0
LINE
  5
AC6
330
A29
100
AcDbEntity
  8
0
  6
Continuous
 62
     7
370
    15
100
AcDbLine
 10
2290.159052326861
 20
901.4950381423904
 30
0.0
 11
2290.216159108047
 21
901.5521449235775
 31
0.0
  0
ARC
  5
AC7
330
A29
100
AcDbEntity
  8
0
  6
Continuous
 62
     7
370
    15
100
AcDbCircle
 10
2290.512605717454
 20
901.1414847517972
 30
0.0
 40
0.5000000000000569
100
AcDbArc
 50
135.0000000000046
 51
180.0
  0
LINE
  5
AC8
330
A29
100
AcDbEntity
  8
0
  6
Continuous
 62
     7
370
    15
100
AcDbLine
 10
2290.012605717454
 20
899.1271169745703
 30
0.0
 11
2290.012605717454
 21
901.1414847517972
 31
0.0
  0
LINE
  5
AC9
330
A29
100
AcDbEntity
  8
0
  6
Continuous
 62
     7
370
    15
100
AcDbLine
 10
2285.412605717454
 20
899.1271169745703
 30
0.0
 11
2290.012605717454
 21
899.1271169745703
 31
0.0
  0
LINE
  5
ACA
330
A29
100
AcDbEntity
  8
0
  6
Continuous
 62
     7
370
    15
100
AcDbLine
 10
2285.412605717454
 20
901.1414847517972
 30
0.0
 11
2285.412605717454
 21
899.1271169745703
 31
0.0
  0
ARC
  5
ACB
330
A29
100
AcDbEntity
  8
0
  6
Continuous
 62
     7
370
    15
100
AcDbCircle
 10
2284.912605717454
 20
901.1414847517972
 30
0.0
 40
0.5
100
AcDbArc
 50
0.0
 51
45.00000000002303
  0
LINE
  5
ACC
330
A29
100
AcDbEntity
  8
0
  6
Continuous
 62
     7
370
    15
100
AcDbLine
 10
2285.209052326861
 20
901.552144923577
 30
0.0
 11
2285.266159108047
 21
901.4950381423904
 31
0.0
  0
ARC
  5
ACD
330
A29
100
AcDbEntity
  8
0
  6
Continuous
 62
     7
370
    15
100
AcDbCircle
 10
2285.562605717454
 20
901.9056983141702
 30
0.0
 40
0.5
100
AcDbArc
 50
180.0
 51
224.9999999999954
  0
LINE
  5
ACE
330
A29
100
AcDbEntity
  8
0
  6
Continuous
 62
     7
370
    15
100
AcDbLine
 10
2285.062605717454
 20
905.5891052712055
 30
0.0
 11
2285.062605717454
 21
901.9056983141702
 31
0.0
  0
LINE
  5
ACF
330
A29
100
AcDbEntity
  8
0
  6
Continuous
 62
     7
370
    15
100
AcDbLine
 10
2285.062605717454
 20
905.5891052712059
 30
0.0
 11
2282.162605717454
 21
905.5891052712059
 31
0.0
  0
LINE
  5
AD0
330
A29
100
AcDbEntity
  8
0
  6
Continuous
 62
     7
370
    15
100
AcDbLine
 10
2282.162605717454
 20
901.9056983141707
 30
0.0
 11
2282.162605717454
 21
905.5891052712055
 31
0.0
  0
LINE
  5
AD1
330
A29
100
AcDbEntity
  8
0
  6
Continuous
 62
     7
370
    15
100
AcDbLine
 10
2218.312605717454
 20
912.0556983141709
 30
0.0
 11
2218.312605717454
 21
905.5891052712061
 31
0.0
  0
LINE
  5
AD2
330
A29
100
AcDbEntity
  8
0
  6
Continuous
 62
     7
370
    15
100
AcDbLine
 10
2299.712605717454
 20
905.5891052712055
 30
0.0
 11
2299.712605717454
 21
912.0556983141705
 31
0.0
  0
LINE
  5
AD3
330
A29
100
AcDbEntity
  8
0
  6
Continuous
 62
     7
370
    15
100
AcDbLine
 10
2277.562605717454
 20
898.7771169745707
 30
0.0
 11
2281.462605717454
 21
898.7771169745707
 31
0.0
  0
LINE
  5
AD4
330
A29
100
AcDbEntity
  8
0
  6
Continuous
 62
     7
370
    15
100
AcDbLine
 10
2277.212605717454
 20
899.1271169745706
 30
0.0
 11
2277.562605717454
 21
898.7771169745707
 31
0.0
  0
LINE
  5
AD5
330
A29
100
AcDbEntity
  8
0
  6
Continuous
 62
     7
370
    15
100
AcDbLine
 10
2281.462605717454
 20
898.7771169745707
 30
0.0
 11
2281.812605717454
 21
899.1271169745704
 31
0.0
  0
LINE
  5
AD6
330
A29
100
AcDbEntity
  8
0
  6
Continuous
 62
     7
370
    15
100
AcDbLine
 10
2244.762605717454
 20
898.7771169745709
 30
0.0
 11
2248.662605717454
 21
898.7771169745711
 31
0.0
  0
LINE
  5
AD7
330
A29
100
AcDbEntity
  8
0
  6
Continuous
 62
     7
370
    15
100
AcDbLine
 10
2244.412605717454
 20
899.1271169745708
 30
0.0
 11
2244.762605717454
 21
898.7771169745709
 31
0.0
  0
LINE
  5
AD8
330
A29
100
AcDbEntity
  8
0
  6
Continuous
 62
     7
370
    15
100
AcDbLine
 10
2248.662605717454
 20
898.7771169745711
 30
0.0
 11
2249.012605717454
 21
899.1271169745708
 31
0.0
  0
LINE
  5
AD9
330
A29
100
AcDbEntity
  8
0
  6
Continuous
 62
     7
370
    15
100
AcDbLine
 10
2293.962605717453
 20
898.7771169745705
 30
0.0
 11
2297.862605717454
 21
898.7771169745705
 31
0.0
  0
LINE
  5
ADA
330
A29
100
AcDbEntity
  8
0
  6
Continuous
 62
     7
370
    15
100
AcDbLine
 10
2297.862605717454
 20
898.7771169745705
 30
0.0
 11
2298.212605717454
 21
899.1271169745703
 31
0.0
  0
LINE
  5
ADB
330
A29
100
AcDbEntity
  8
0
  6
Continuous
 62
     7
370
    15
100
AcDbLine
 10
2293.612605717454
 20
899.1271169745704
 30
0.0
 11
2293.962605717453
 21
898.7771169745705
 31
0.0
  0
LINE
  5
ADC
330
A29
100
AcDbEntity
  8
0
  6
Continuous
 62
     7
370
    15
100
AcDbLine
 10
2228.362605717453
 20
898.7771169745711
 30
0.0
 11
2232.262605717454
 21
898.7771169745711
 31
0.0
  0
LINE
  5
ADD
330
A29
100
AcDbEntity
  8
0
  6
Continuous
 62
     7
370
    15
100
AcDbLine
 10
2228.012605717454
 20
899.127116974571
 30
0.0
 11
2228.362605717453
 21
898.7771169745711
 31
0.0
  0
LINE
  5
ADE
330
A29
100
AcDbEntity
  8
0
  6
Continuous
 62
     7
370
    15
100
AcDbLine
 10
2232.262605717454
 20
898.7771169745711
 30
0.0
 11
2232.612605717454
 21
899.1271169745708
 31
0.0
  0
LINE
  5
ADF
330
A29
100
AcDbEntity
  8
0
  6
Continuous
 62
     7
370
    15
100
AcDbLine
 10
2261.162605717454
 20
898.7771169745709
 30
0.0
 11
2265.062605717454
 21
898.7771169745709
 31
0.0
  0
LINE
  5
AE0
330
A29
100
AcDbEntity
  8
0
  6
Continuous
 62
     7
370
    15
100
AcDbLine
 10
2260.812605717454
 20
899.1271169745708
 30
0.0
 11
2261.162605717454
 21
898.7771169745709
 31
0.0
  0
LINE
  5
AE1
330
A29
100
AcDbEntity
  8
0
  6
Continuous
 62
     7
370
    15
100
AcDbLine
 10
2265.062605717454
 20
898.7771169745709
 30
0.0
 11
2265.412605717454
 21
899.1271169745704
 31
0.0
  0
LINE
  5
AE2
330
A29
100
AcDbEntity
  8
0
  6
Continuous
 62
     7
370
    15
100
AcDbLine
 10
2269.362605717454
 20
898.7771169745709
 30
0.0
 11
2273.262605717454
 21
898.7771169745709
 31
0.0
  0
LINE
  5
AE3
330
A29
100
AcDbEntity
  8
0
  6
Continuous
 62
     7
370
    15
100
AcDbLine
 10
2273.262605717454
 20
898.7771169745709
 30
0.0
 11
2273.612605717454
 21
899.1271169745704
 31
0.0
  0
LINE
  5
AE4
330
A29
100
AcDbEntity
  8
0
  6
Continuous
 62
     7
370
    15
100
AcDbLine
 10
2269.012605717454
 20
899.1271169745706
 30
0.0
 11
2269.362605717454
 21
898.7771169745707
 31
0.0
  0
LINE
  5
AE5
330
A29
100
AcDbEntity
  8
0
  6
Continuous
 62
     7
370
    15
100
AcDbLine
 10
2236.562605717454
 20
898.7771169745711
 30
0.0
 11
2240.462605717453
 21
898.7771169745711
 31
0.0
  0
LINE
  5
AE6
330
A29
100
AcDbEntity
  8
0
  6
Continuous
 62
     7
370
    15
100
AcDbLine
 10
2236.212605717454
 20
899.1271169745708
 30
0.0
 11
2236.562605717454
 21
898.7771169745711
 31
0.0
  0
LINE
  5
AE7
330
A29
100
AcDbEntity
  8
0
  6
Continuous
 62
     7
370
    15
100
AcDbLine
 10
2240.462605717453
 20
898.7771169745711
 30
0.0
 11
2240.812605717454
 21
899.1271169745708
 31
0.0
  0
LINE
  5
AE8
330
A29
100
AcDbEntity
  8
0
  6
Continuous
 62
     7
370
    15
100
AcDbLine
 10
2252.962605717453
 20
898.7771169745709
 30
0.0
 11
2256.862605717454
 21
898.7771169745709
 31
0.0
  0
LINE
  5
AE9
330
A29
100
AcDbEntity
  8
0
  6
Continuous
 62
     7
370
    15
100
AcDbLine
 10
2256.862605717454
 20
898.7771169745709
 30
0.0
 11
2257.212605717453
 21
899.1271169745706
 31
0.0
  0
LINE
  5
AEA
330
A29
100
AcDbEntity
  8
0
  6
Continuous
 62
     7
370
    15
100
AcDbLine
 10
2252.612605717454
 20
899.1271169745708
 30
0.0
 11
2252.962605717453
 21
898.7771169745709
 31
0.0
  0
LINE
  5
AEB
330
A29
100
AcDbEntity
  8
0
  6
Continuous
 62
     7
370
    15
100
AcDbLine
 10
2285.762605717454
 20
898.7771169745707
 30
0.0
 11
2289.662605717454
 21
898.7771169745707
 31
0.0
  0
LINE
  5
AEC
330
A29
100
AcDbEntity
  8
0
  6
Continuous
 62
     7
370
    15
100
AcDbLine
 10
2289.662605717454
 20
898.7771169745707
 30
0.0
 11
2290.012605717454
 21
899.1271169745704
 31
0.0
  0
LINE
  5
AED
330
A29
100
AcDbEntity
  8
0
  6
Continuous
 62
     7
370
    15
100
AcDbLine
 10
2285.412605717453
 20
899.1271169745704
 30
0.0
 11
2285.762605717454
 21
898.7771169745705
 31
0.0
  0
LINE
  5
AEE
330
A29
100
AcDbEntity
  8
0
  6
Continuous
 62
     7
370
    15
100
AcDbLine
 10
2224.062605717454
 20
898.7771169745711
 30
0.0
 11
2224.412605717454
 21
899.1271169745708
 31
0.0
  0
LINE
  5
AEF
330
A29
100
AcDbEntity
  8
0
  6
Continuous
 62
     7
370
    15
100
AcDbLine
 10
2220.162605717454
 20
898.7771169745712
 30
0.0
 11
2224.062605717454
 21
898.7771169745711
 31
0.0
  0
LINE
  5
AF0
330
A29
100
AcDbEntity
  8
0
  6
Continuous
 62
     7
370
    15
100
AcDbLine
 10
2219.812605717454
 20
899.127116974571
 30
0.0
 11
2220.162605717454
 21
898.7771169745711
 31
0.0
  0
LINE
  5
AF1
330
A29
100
AcDbEntity
  8
0
  6
Continuous
 62
     7
370
    15
100
AcDbLine
 10
2294.412605717454
 20
891.2590247425399
 30
0.0
 11
2294.412605717454
 21
897.0271169745721
 31
0.0
  0
LINE
  5
AF2
330
A29
100
AcDbEntity
  8
0
  6
Continuous
 62
     7
370
    15
100
AcDbLine
 10
2294.412605717454
 20
897.0271169745721
 30
0.0
 11
2297.412605717454
 21
897.0271169745721
 31
0.0
  0
LINE
  5
AF3
330
A29
100
AcDbEntity
  8
0
  6
Continuous
 62
     7
370
    15
100
AcDbLine
 10
2297.412605717454
 20
897.0271169745721
 30
0.0
 11
2297.412605717454
 21
891.2590247425404
 31
0.0
  0
LINE
  5
AF4
330
A29
100
AcDbEntity
  8
0
  6
Continuous
 62
     7
370
    15
100
AcDbLine
 10
2297.412605717454
 20
891.2590247425404
 30
0.0
 11
2297.0726236942
 21
889.3308908750629
 31
0.0
  0
ARC
  5
AF5
330
A29
100
AcDbEntity
  8
0
  6
Continuous
 62
     7
370
    15
100
AcDbCircle
 10
2296.383258267092
 20
889.4524445994296
 30
0.0
 40
0.7000000000000029
100
AcDbArc
 50
270.0
 51
350.0000000000089
  0
LINE
  5
AF6
330
A29
100
AcDbEntity
  8
0
  6
Continuous
 62
     7
370
    15
100
AcDbLine
 10
2295.441953167816
 20
888.7524445994298
 30
0.0
 11
2296.383258267092
 21
888.7524445994298
 31
0.0
  0
ARC
  5
AF7
330
A29
100
AcDbEntity
  8
0
  6
Continuous
 62
     7
370
    15
100
AcDbCircle
 10
2295.441953167816
 20
889.4524445994296
 30
0.0
 40
0.7000000000000029
100
AcDbArc
 50
189.999999999991
 51
270.0
  0
LINE
  5
AF8
330
A29
100
AcDbEntity
  8
0
  6
Continuous
 62
     7
370
    15
100
AcDbLine
 10
2294.752587740708
 20
889.3308908750629
 30
0.0
 11
2294.412605717454
 21
891.2590247425399
 31
0.0
  0
LINE
  5
AF9
330
A29
100
AcDbEntity
  8
0
  6
Continuous
 62
     7
370
    15
100
AcDbLine
 10
2240.012605717454
 20
897.2771169745724
 30
0.0
 11
2237.012605717454
 21
897.2771169745726
 31
0.0
  0
LINE
  5
AFA
330
A29
100
AcDbEntity
  8
0
  6
Continuous
 62
     7
370
    15
100
AcDbLine
 10
2240.012605717454
 20
897.0271169745727
 30
0.0
 11
2240.012605717454
 21
897.2771169745724
 31
0.0
  0
LINE
  5
AFB
330
A29
100
AcDbEntity
  8
0
  6
Continuous
 62
     7
370
    15
100
AcDbLine
 10
2237.012605717454
 20
897.0271169745727
 30
0.0
 11
2240.012605717454
 21
897.0271169745727
 31
0.0
  0
LINE
  5
AFC
330
A29
100
AcDbEntity
  8
0
  6
Continuous
 62
     7
370
    15
100
AcDbLine
 10
2237.012605717454
 20
897.2771169745726
 30
0.0
 11
2237.012605717454
 21
897.0271169745727
 31
0.0
  0
LINE
  5
AFD
330
A29
100
AcDbEntity
  8
0
  6
Continuous
 62
     7
370
    15
100
AcDbLine
 10
2278.012605717454
 20
891.2590247425399
 30
0.0
 11
2278.012605717454
 21
897.0271169745723
 31
0.0
  0
LINE
  5
AFE
330
A29
100
AcDbEntity
  8
0
  6
Continuous
 62
     7
370
    15
100
AcDbLine
 10
2278.012605717454
 20
897.0271169745723
 30
0.0
 11
2281.012605717454
 21
897.0271169745723
 31
0.0
  0
LINE
  5
AFF
330
A29
100
AcDbEntity
  8
0
  6
Continuous
 62
     7
370
    15
100
AcDbLine
 10
2281.012605717454
 20
897.0271169745723
 30
0.0
 11
2281.012605717454
 21
891.2590247425406
 31
0.0
  0
LINE
  5
B00
330
A29
100
AcDbEntity
  8
0
  6
Continuous
 62
     7
370
    15
100
AcDbLine
 10
2281.012605717454
 20
891.2590247425406
 30
0.0
 11
2280.6726236942
 21
889.3308908750629
 31
0.0
  0
ARC
  5
B01
330
A29
100
AcDbEntity
  8
0
  6
Continuous
 62
     7
370
    15
100
AcDbCircle
 10
2279.983258267092
 20
889.4524445994298
 30
0.0
 40
0.7000000000000029
100
AcDbArc
 50
270.0
 51
350.0000000000089
  0
LINE
  5
B02
330
A29
100
AcDbEntity
  8
0
  6
Continuous
 62
     7
370
    15
100
AcDbLine
 10
2279.041953167816
 20
888.7524445994298
 30
0.0
 11
2279.983258267092
 21
888.7524445994298
 31
0.0
  0
ARC
  5
B03
330
A29
100
AcDbEntity
  8
0
  6
Continuous
 62
     7
370
    15
100
AcDbCircle
 10
2279.041953167816
 20
889.4524445994298
 30
0.0
 40
0.7000000000000029
100
AcDbArc
 50
189.999999999991
 51
270.0
  0
LINE
  5
B04
330
A29
100
AcDbEntity
  8
0
  6
Continuous
 62
     7
370
    15
100
AcDbLine
 10
2278.352587740708
 20
889.3308908750629
 30
0.0
 11
2278.012605717454
 21
891.2590247425399
 31
0.0
  0
LINE
  5
B05
330
A29
100
AcDbEntity
  8
0
  6
Continuous
 62
     7
370
    15
100
AcDbLine
 10
2228.812605717454
 20
891.2590247425402
 30
0.0
 11
2228.812605717454
 21
897.0271169745727
 31
0.0
  0
LINE
  5
B06
330
A29
100
AcDbEntity
  8
0
  6
Continuous
 62
     7
370
    15
100
AcDbLine
 10
2228.812605717454
 20
897.0271169745727
 30
0.0
 11
2231.812605717454
 21
897.0271169745727
 31
0.0
  0
LINE
  5
B07
330
A29
100
AcDbEntity
  8
0
  6
Continuous
 62
     7
370
    15
100
AcDbLine
 10
2231.812605717454
 20
891.2590247425409
 30
0.0
 11
2231.4726236942
 21
889.3308908750634
 31
0.0
  0
ARC
  5
B08
330
A29
100
AcDbEntity
  8
0
  6
Continuous
 62
     7
370
    15
100
AcDbCircle
 10
2230.783258267092
 20
889.4524445994303
 30
0.0
 40
0.7000000000000029
100
AcDbArc
 50
270.0
 51
350.0000000000089
  0
LINE
  5
B09
330
A29
100
AcDbEntity
  8
0
  6
Continuous
 62
     7
370
    15
100
AcDbLine
 10
2229.841953167817
 20
888.7524445994301
 30
0.0
 11
2230.783258267092
 21
888.7524445994301
 31
0.0
  0
ARC
  5
B0A
330
A29
100
AcDbEntity
  8
0
  6
Continuous
 62
     7
370
    15
100
AcDbCircle
 10
2229.841953167817
 20
889.4524445994303
 30
0.0
 40
0.7000000000000029
100
AcDbArc
 50
189.999999999991
 51
270.0
  0
LINE
  5
B0B
330
A29
100
AcDbEntity
  8
0
  6
Continuous
 62
     7
370
    15
100
AcDbLine
 10
2229.152587740708
 20
889.3308908750634
 30
0.0
 11
2228.812605717454
 21
891.2590247425402
 31
0.0
  0
LINE
  5
B0C
330
A29
100
AcDbEntity
  8
0
  6
Continuous
 62
     7
370
    15
100
AcDbLine
 10
2231.812605717454
 20
897.0271169745727
 30
0.0
 11
2231.812605717454
 21
891.2590247425409
 31
0.0
  0
LINE
  5
B0D
330
A29
100
AcDbEntity
  8
0
  6
Continuous
 62
     7
370
    15
100
AcDbLine
 10
2269.812605717454
 20
891.25902474254
 30
0.0
 11
2269.812605717454
 21
897.0271169745725
 31
0.0
  0
LINE
  5
B0E
330
A29
100
AcDbEntity
  8
0
  6
Continuous
 62
     7
370
    15
100
AcDbLine
 10
2269.812605717454
 20
897.0271169745725
 30
0.0
 11
2272.812605717454
 21
897.0271169745725
 31
0.0
  0
LINE
  5
B0F
330
A29
100
AcDbEntity
  8
0
  6
Continuous
 62
     7
370
    15
100
AcDbLine
 10
2272.812605717454
 20
891.2590247425406
 30
0.0
 11
2272.4726236942
 21
889.3308908750631
 31
0.0
  0
ARC
  5
B10
330
A29
100
AcDbEntity
  8
0
  6
Continuous
 62
     7
370
    15
100
AcDbCircle
 10
2271.783258267092
 20
889.4524445994299
 30
0.0
 40
0.7000000000000029
100
AcDbArc
 50
270.0
 51
350.0000000000089
  0
LINE
  5
B11
330
A29
100
AcDbEntity
  8
0
  6
Continuous
 62
     7
370
    15
100
AcDbLine
 10
2270.841953167817
 20
888.7524445994298
 30
0.0
 11
2271.783258267092
 21
888.7524445994298
 31
0.0
  0
ARC
  5
B12
330
A29
100
AcDbEntity
  8
0
  6
Continuous
 62
     7
370
    15
100
AcDbCircle
 10
2270.841953167817
 20
889.4524445994299
 30
0.0
 40
0.7000000000000221
100
AcDbArc
 50
189.999999999991
 51
270.0
  0
LINE
  5
B13
330
A29
100
AcDbEntity
  8
0
  6
Continuous
 62
     7
370
    15
100
AcDbLine
 10
2270.152587740708
 20
889.3308908750631
 30
0.0
 11
2269.812605717454
 21
891.25902474254
 31
0.0
  0
LINE
  5
B14
330
A29
100
AcDbEntity
  8
0
  6
Continuous
 62
     7
370
    15
100
AcDbLine
 10
2272.812605717454
 20
897.0271169745725
 30
0.0
 11
2272.812605717454
 21
891.2590247425406
 31
0.0
  0
LINE
  5
B15
330
A29
100
AcDbEntity
  8
0
  6
Continuous
 62
     7
370
    15
100
AcDbLine
 10
2297.412605717454
 20
897.2771169745721
 30
0.0
 11
2294.412605717454
 21
897.2771169745723
 31
0.0
  0
LINE
  5
B16
330
A29
100
AcDbEntity
  8
0
  6
Continuous
 62
     7
370
    15
100
AcDbLine
 10
2294.412605717454
 20
897.2771169745723
 30
0.0
 11
2294.412605717454
 21
897.0271169745721
 31
0.0
  0
LINE
  5
B17
330
A29
100
AcDbEntity
  8
0
  6
Continuous
 62
     7
370
    15
100
AcDbLine
 10
2297.412605717454
 20
897.0271169745721
 30
0.0
 11
2297.412605717454
 21
897.2771169745721
 31
0.0
  0
LINE
  5
B18
330
A29
100
AcDbEntity
  8
0
  6
Continuous
 62
     7
370
    15
100
AcDbLine
 10
2281.012605717454
 20
897.2771169745723
 30
0.0
 11
2278.012605717454
 21
897.2771169745723
 31
0.0
  0
LINE
  5
B19
330
A29
100
AcDbEntity
  8
0
  6
Continuous
 62
     7
370
    15
100
AcDbLine
 10
2281.012605717454
 20
897.0271169745723
 30
0.0
 11
2281.012605717454
 21
897.2771169745723
 31
0.0
  0
LINE
  5
B1A
330
A29
100
AcDbEntity
  8
0
  6
Continuous
 62
     7
370
    15
100
AcDbLine
 10
2278.012605717454
 20
897.2771169745723
 30
0.0
 11
2278.012605717454
 21
897.0271169745723
 31
0.0
  0
LINE
  5
B1B
330
A29
100
AcDbEntity
  8
0
  6
Continuous
 62
     7
370
    15
100
AcDbLine
 10
2272.812605717454
 20
897.2771169745723
 30
0.0
 11
2269.812605717454
 21
897.2771169745724
 31
0.0
  0
LINE
  5
B1C
330
A29
100
AcDbEntity
  8
0
  6
Continuous
 62
     7
370
    15
100
AcDbLine
 10
2269.812605717454
 20
897.2771169745724
 30
0.0
 11
2269.812605717454
 21
897.0271169745725
 31
0.0
  0
LINE
  5
B1D
330
A29
100
AcDbEntity
  8
0
  6
Continuous
 62
     7
370
    15
100
AcDbLine
 10
2272.812605717454
 20
897.0271169745725
 30
0.0
 11
2272.812605717454
 21
897.2771169745723
 31
0.0
  0
LINE
  5
B1E
330
A29
100
AcDbEntity
  8
0
  6
Continuous
 62
     7
370
    15
100
AcDbLine
 10
2289.212605717453
 20
897.2771169745723
 30
0.0
 11
2286.212605717454
 21
897.2771169745723
 31
0.0
  0
LINE
  5
B1F
330
A29
100
AcDbEntity
  8
0
  6
Continuous
 62
     7
370
    15
100
AcDbLine
 10
2289.212605717453
 20
897.0271169745721
 30
0.0
 11
2289.212605717453
 21
897.2771169745723
 31
0.0
  0
LINE
  5
B20
330
A29
100
AcDbEntity
  8
0
  6
Continuous
 62
     7
370
    15
100
AcDbLine
 10
2286.212605717454
 20
897.0271169745721
 30
0.0
 11
2289.212605717453
 21
897.0271169745721
 31
0.0
  0
LINE
  5
B21
330
A29
100
AcDbEntity
  8
0
  6
Continuous
 62
     7
370
    15
100
AcDbLine
 10
2286.212605717454
 20
897.2771169745723
 30
0.0
 11
2286.212605717454
 21
897.0271169745721
 31
0.0
  0
LINE
  5
B22
330
A29
100
AcDbEntity
  8
0
  6
Continuous
 62
     7
370
    15
100
AcDbLine
 10
2237.012605717454
 20
891.2590247425402
 30
0.0
 11
2237.012605717454
 21
897.0271169745727
 31
0.0
  0
LINE
  5
B23
330
A29
100
AcDbEntity
  8
0
  6
Continuous
 62
     7
370
    15
100
AcDbLine
 10
2240.012605717454
 20
891.2590247425407
 30
0.0
 11
2239.6726236942
 21
889.3308908750633
 31
0.0
  0
ARC
  5
B24
330
A29
100
AcDbEntity
  8
0
  6
Continuous
 62
     7
370
    15
100
AcDbCircle
 10
2238.983258267092
 20
889.4524445994301
 30
0.0
 40
0.7000000000000029
100
AcDbArc
 50
270.0
 51
350.0000000000089
  0
LINE
  5
B25
330
A29
100
AcDbEntity
  8
0
  6
Continuous
 62
     7
370
    15
100
AcDbLine
 10
2238.041953167817
 20
888.75244459943
 30
0.0
 11
2238.983258267092
 21
888.75244459943
 31
0.0
  0
ARC
  5
B26
330
A29
100
AcDbEntity
  8
0
  6
Continuous
 62
     7
370
    15
100
AcDbCircle
 10
2238.041953167817
 20
889.4524445994301
 30
0.0
 40
0.7000000000000029
100
AcDbArc
 50
189.999999999991
 51
270.0
  0
LINE
  5
B27
330
A29
100
AcDbEntity
  8
0
  6
Continuous
 62
     7
370
    15
100
AcDbLine
 10
2237.352587740708
 20
889.3308908750633
 30
0.0
 11
2237.012605717454
 21
891.2590247425402
 31
0.0
  0
LINE
  5
B28
330
A29
100
AcDbEntity
  8
0
  6
Continuous
 62
     7
370
    15
100
AcDbLine
 10
2240.012605717454
 20
897.0271169745727
 30
0.0
 11
2240.012605717454
 21
891.2590247425407
 31
0.0
  0
LINE
  5
B29
330
A29
100
AcDbEntity
  8
0
  6
Continuous
 62
     7
370
    15
100
AcDbLine
 10
2286.212605717454
 20
891.2590247425399
 30
0.0
 11
2286.212605717454
 21
897.0271169745721
 31
0.0
  0
LINE
  5
B2A
330
A29
100
AcDbEntity
  8
0
  6
Continuous
 62
     7
370
    15
100
AcDbLine
 10
2289.212605717453
 20
897.0271169745721
 30
0.0
 11
2289.212605717453
 21
891.2590247425404
 31
0.0
  0
LINE
  5
B2B
330
A29
100
AcDbEntity
  8
0
  6
Continuous
 62
     7
370
    15
100
AcDbLine
 10
2289.212605717453
 20
891.2590247425404
 30
0.0
 11
2288.8726236942
 21
889.3308908750629
 31
0.0
  0
ARC
  5
B2C
330
A29
100
AcDbEntity
  8
0
  6
Continuous
 62
     7
370
    15
100
AcDbCircle
 10
2288.183258267091
 20
889.4524445994298
 30
0.0
 40
0.7000000000000029
100
AcDbArc
 50
270.0
 51
350.0000000000089
  0
LINE
  5
B2D
330
A29
100
AcDbEntity
  8
0
  6
Continuous
 62
     7
370
    15
100
AcDbLine
 10
2287.241953167816
 20
888.7524445994298
 30
0.0
 11
2288.183258267091
 21
888.7524445994298
 31
0.0
  0
ARC
  5
B2E
330
A29
100
AcDbEntity
  8
0
  6
Continuous
 62
     7
370
    15
100
AcDbCircle
 10
2287.241953167816
 20
889.4524445994298
 30
0.0
 40
0.7000000000000029
100
AcDbArc
 50
189.999999999991
 51
270.0
  0
LINE
  5
B2F
330
A29
100
AcDbEntity
  8
0
  6
Continuous
 62
     7
370
    15
100
AcDbLine
 10
2286.552587740708
 20
889.3308908750629
 30
0.0
 11
2286.212605717454
 21
891.2590247425399
 31
0.0
  0
LINE
  5
B30
330
A29
100
AcDbEntity
  8
0
  6
Continuous
 62
     7
370
    15
100
AcDbLine
 10
2253.412605717454
 20
891.2590247425402
 30
0.0
 11
2253.412605717454
 21
897.0271169745725
 31
0.0
  0
LINE
  5
B31
330
A29
100
AcDbEntity
  8
0
  6
Continuous
 62
     7
370
    15
100
AcDbLine
 10
2253.412605717454
 20
897.0271169745725
 30
0.0
 11
2256.412605717454
 21
897.0271169745725
 31
0.0
  0
LINE
  5
B32
330
A29
100
AcDbEntity
  8
0
  6
Continuous
 62
     7
370
    15
100
AcDbLine
 10
2256.412605717454
 20
891.2590247425407
 30
0.0
 11
2256.0726236942
 21
889.3308908750633
 31
0.0
  0
ARC
  5
B33
330
A29
100
AcDbEntity
  8
0
  6
Continuous
 62
     7
370
    15
100
AcDbCircle
 10
2255.383258267092
 20
889.4524445994299
 30
0.0
 40
0.7000000000000171
100
AcDbArc
 50
270.0
 51
350.0000000000089
  0
LINE
  5
B34
330
A29
100
AcDbEntity
  8
0
  6
Continuous
 62
     7
370
    15
100
AcDbLine
 10
2254.441953167816
 20
888.75244459943
 30
0.0
 11
2255.383258267092
 21
888.75244459943
 31
0.0
  0
ARC
  5
B35
330
A29
100
AcDbEntity
  8
0
  6
Continuous
 62
     7
370
    15
100
AcDbCircle
 10
2254.441953167816
 20
889.4524445994299
 30
0.0
 40
0.7000000000000221
100
AcDbArc
 50
189.999999999991
 51
270.0
  0
LINE
  5
B36
330
A29
100
AcDbEntity
  8
0
  6
Continuous
 62
     7
370
    15
100
AcDbLine
 10
2253.752587740708
 20
889.3308908750633
 30
0.0
 11
2253.412605717454
 21
891.2590247425402
 31
0.0
  0
LINE
  5
B37
330
A29
100
AcDbEntity
  8
0
  6
Continuous
 62
     7
370
    15
100
AcDbLine
 10
2256.412605717454
 20
897.0271169745725
 30
0.0
 11
2256.412605717454
 21
891.2590247425407
 31
0.0
  0
LINE
  5
B38
330
A29
100
AcDbEntity
  8
0
  6
Continuous
 62
     7
370
    15
100
AcDbLine
 10
2231.812605717454
 20
897.2771169745726
 30
0.0
 11
2228.812605717454
 21
897.2771169745726
 31
0.0
  0
LINE
  5
B39
330
A29
100
AcDbEntity
  8
0
  6
Continuous
 62
     7
370
    15
100
AcDbLine
 10
2228.812605717454
 20
897.2771169745726
 30
0.0
 11
2228.812605717454
 21
897.0271169745727
 31
0.0
  0
LINE
  5
B3A
330
A29
100
AcDbEntity
  8
0
  6
Continuous
 62
     7
370
    15
100
AcDbLine
 10
2231.812605717454
 20
897.0271169745727
 30
0.0
 11
2231.812605717454
 21
897.2771169745726
 31
0.0
  0
LINE
  5
B3B
330
A29
100
AcDbEntity
  8
0
  6
Continuous
 62
     7
370
    15
100
AcDbLine
 10
2245.212605717454
 20
891.2590247425402
 30
0.0
 11
2245.212605717454
 21
897.0271169745725
 31
0.0
  0
LINE
  5
B3C
330
A29
100
AcDbEntity
  8
0
  6
Continuous
 62
     7
370
    15
100
AcDbLine
 10
2245.212605717454
 20
897.0271169745725
 30
0.0
 11
2248.212605717454
 21
897.0271169745725
 31
0.0
  0
LINE
  5
B3D
330
A29
100
AcDbEntity
  8
0
  6
Continuous
 62
     7
370
    15
100
AcDbLine
 10
2248.212605717454
 20
891.2590247425407
 30
0.0
 11
2247.8726236942
 21
889.3308908750633
 31
0.0
  0
ARC
  5
B3E
330
A29
100
AcDbEntity
  8
0
  6
Continuous
 62
     7
370
    15
100
AcDbCircle
 10
2247.183258267091
 20
889.4524445994299
 30
0.0
 40
0.7000000000000029
100
AcDbArc
 50
270.0
 51
350.0000000000089
  0
LINE
  5
B3F
330
A29
100
AcDbEntity
  8
0
  6
Continuous
 62
     7
370
    15
100
AcDbLine
 10
2246.241953167816
 20
888.75244459943
 30
0.0
 11
2247.183258267091
 21
888.75244459943
 31
0.0
  0
ARC
  5
B40
330
A29
100
AcDbEntity
  8
0
  6
Continuous
 62
     7
370
    15
100
AcDbCircle
 10
2246.241953167816
 20
889.4524445994299
 30
0.0
 40
0.7000000000000029
100
AcDbArc
 50
189.999999999991
 51
270.0
  0
LINE
  5
B41
330
A29
100
AcDbEntity
  8
0
  6
Continuous
 62
     7
370
    15
100
AcDbLine
 10
2245.552587740708
 20
889.3308908750633
 30
0.0
 11
2245.212605717454
 21
891.2590247425402
 31
0.0
  0
LINE
  5
B42
330
A29
100
AcDbEntity
  8
0
  6
Continuous
 62
     7
370
    15
100
AcDbLine
 10
2248.212605717454
 20
897.0271169745725
 30
0.0
 11
2248.212605717454
 21
891.2590247425407
 31
0.0
  0
LINE
  5
B43
330
A29
100
AcDbEntity
  8
0
  6
Continuous
 62
     7
370
    15
100
AcDbLine
 10
2256.412605717454
 20
897.2771169745724
 30
0.0
 11
2253.412605717454
 21
897.2771169745724
 31
0.0
  0
LINE
  5
B44
330
A29
100
AcDbEntity
  8
0
  6
Continuous
 62
     7
370
    15
100
AcDbLine
 10
2253.412605717454
 20
897.2771169745724
 30
0.0
 11
2253.412605717454
 21
897.0271169745725
 31
0.0
  0
LINE
  5
B45
330
A29
100
AcDbEntity
  8
0
  6
Continuous
 62
     7
370
    15
100
AcDbLine
 10
2256.412605717454
 20
897.0271169745725
 30
0.0
 11
2256.412605717454
 21
897.2771169745724
 31
0.0
  0
LINE
  5
B46
330
A29
100
AcDbEntity
  8
0
  6
Continuous
 62
     7
370
    15
100
AcDbLine
 10
2248.212605717454
 20
897.2771169745724
 30
0.0
 11
2245.212605717454
 21
897.2771169745724
 31
0.0
  0
LINE
  5
B47
330
A29
100
AcDbEntity
  8
0
  6
Continuous
 62
     7
370
    15
100
AcDbLine
 10
2245.212605717454
 20
897.2771169745724
 30
0.0
 11
2245.212605717454
 21
897.0271169745725
 31
0.0
  0
LINE
  5
B48
330
A29
100
AcDbEntity
  8
0
  6
Continuous
 62
     7
370
    15
100
AcDbLine
 10
2248.212605717454
 20
897.0271169745725
 30
0.0
 11
2248.212605717454
 21
897.2771169745724
 31
0.0
  0
LINE
  5
B49
330
A29
100
AcDbEntity
  8
0
  6
Continuous
 62
     7
370
    15
100
AcDbLine
 10
2261.612605717454
 20
891.25902474254
 30
0.0
 11
2261.612605717454
 21
897.0271169745725
 31
0.0
  0
LINE
  5
B4A
330
A29
100
AcDbEntity
  8
0
  6
Continuous
 62
     7
370
    15
100
AcDbLine
 10
2261.612605717454
 20
897.0271169745725
 30
0.0
 11
2264.612605717454
 21
897.0271169745725
 31
0.0
  0
LINE
  5
B4B
330
A29
100
AcDbEntity
  8
0
  6
Continuous
 62
     7
370
    15
100
AcDbLine
 10
2264.612605717454
 20
891.2590247425406
 30
0.0
 11
2264.2726236942
 21
889.3308908750631
 31
0.0
  0
ARC
  5
B4C
330
A29
100
AcDbEntity
  8
0
  6
Continuous
 62
     7
370
    15
100
AcDbCircle
 10
2263.583258267091
 20
889.4524445994299
 30
0.0
 40
0.7000000000000171
100
AcDbArc
 50
270.0
 51
350.0000000000089
  0
LINE
  5
B4D
330
A29
100
AcDbEntity
  8
0
  6
Continuous
 62
     7
370
    15
100
AcDbLine
 10
2262.641953167817
 20
888.75244459943
 30
0.0
 11
2263.583258267091
 21
888.75244459943
 31
0.0
  0
ARC
  5
B4E
330
A29
100
AcDbEntity
  8
0
  6
Continuous
 62
     7
370
    15
100
AcDbCircle
 10
2262.641953167817
 20
889.4524445994299
 30
0.0
 40
0.7000000000000221
100
AcDbArc
 50
189.999999999991
 51
270.0
  0
LINE
  5
B4F
330
A29
100
AcDbEntity
  8
0
  6
Continuous
 62
     7
370
    15
100
AcDbLine
 10
2261.952587740708
 20
889.3308908750633
 30
0.0
 11
2261.612605717454
 21
891.25902474254
 31
0.0
  0
LINE
  5
B50
330
A29
100
AcDbEntity
  8
0
  6
Continuous
 62
     7
370
    15
100
AcDbLine
 10
2264.612605717454
 20
897.0271169745725
 30
0.0
 11
2264.612605717454
 21
891.2590247425406
 31
0.0
  0
LINE
  5
B51
330
A29
100
AcDbEntity
  8
0
  6
Continuous
 62
     7
370
    15
100
AcDbLine
 10
2264.612605717454
 20
897.2771169745723
 30
0.0
 11
2261.612605717454
 21
897.2771169745724
 31
0.0
  0
LINE
  5
B52
330
A29
100
AcDbEntity
  8
0
  6
Continuous
 62
     7
370
    15
100
AcDbLine
 10
2261.612605717454
 20
897.2771169745724
 30
0.0
 11
2261.612605717454
 21
897.0271169745725
 31
0.0
  0
LINE
  5
B53
330
A29
100
AcDbEntity
  8
0
  6
Continuous
 62
     7
370
    15
100
AcDbLine
 10
2264.612605717454
 20
897.0271169745725
 30
0.0
 11
2264.612605717454
 21
897.2771169745723
 31
0.0
  0
LINE
  5
B54
330
A29
100
AcDbEntity
  8
0
  6
Continuous
 62
     7
370
    15
100
AcDbLine
 10
2223.612605717454
 20
897.2771169745726
 30
0.0
 11
2220.612605717454
 21
897.2771169745726
 31
0.0
  0
LINE
  5
B55
330
A29
100
AcDbEntity
  8
0
  6
Continuous
 62
     7
370
    15
100
AcDbLine
 10
2220.612605717454
 20
897.0271169745727
 30
0.0
 11
2223.612605717454
 21
897.0271169745727
 31
0.0
  0
LINE
  5
B56
330
A29
100
AcDbEntity
  8
0
  6
Continuous
 62
     7
370
    15
100
AcDbLine
 10
2220.612605717454
 20
897.2771169745726
 30
0.0
 11
2220.612605717454
 21
897.0271169745727
 31
0.0
  0
LINE
  5
B57
330
A29
100
AcDbEntity
  8
0
  6
Continuous
 62
     7
370
    15
100
AcDbLine
 10
2223.612605717454
 20
897.0271169745727
 30
0.0
 11
2223.612605717454
 21
897.2771169745726
 31
0.0
  0
LINE
  5
B58
330
A29
100
AcDbEntity
  8
0
  6
Continuous
 62
     7
370
    15
100
AcDbLine
 10
2220.612605717454
 20
891.2590247425404
 30
0.0
 11
2220.612605717454
 21
897.0271169745727
 31
0.0
  0
LINE
  5
B59
330
A29
100
AcDbEntity
  8
0
  6
Continuous
 62
     7
370
    15
100
AcDbLine
 10
2223.612605717454
 20
891.2590247425402
 30
0.0
 11
2223.2726236942
 21
889.3308908750633
 31
0.0
  0
ARC
  5
B5A
330
A29
100
AcDbEntity
  8
0
  6
Continuous
 62
     7
370
    15
100
AcDbCircle
 10
2222.583258267091
 20
889.4524445994303
 30
0.0
 40
0.7000000000000029
100
AcDbArc
 50
270.0
 51
350.0000000000025
  0
LINE
  5
B5B
330
A29
100
AcDbEntity
  8
0
  6
Continuous
 62
     7
370
    15
100
AcDbLine
 10
2221.641953167816
 20
888.7524445994301
 30
0.0
 11
2222.583258267091
 21
888.7524445994301
 31
0.0
  0
ARC
  5
B5C
330
A29
100
AcDbEntity
  8
0
  6
Continuous
 62
     7
370
    15
100
AcDbCircle
 10
2221.641953167816
 20
889.4524445994303
 30
0.0
 40
0.7000000000000029
100
AcDbArc
 50
189.999999999991
 51
270.0
  0
LINE
  5
B5D
330
A29
100
AcDbEntity
  8
0
  6
Continuous
 62
     7
370
    15
100
AcDbLine
 10
2220.952587740708
 20
889.3308908750634
 30
0.0
 11
2220.612605717454
 21
891.2590247425404
 31
0.0
  0
LINE
  5
B5E
330
A29
100
AcDbEntity
  8
0
  6
Continuous
 62
     7
370
    15
100
AcDbLine
 10
2223.612605717454
 20
897.0271169745727
 30
0.0
 11
2223.612605717454
 21
891.2590247425402
 31
0.0
  0
LINE
  5
B5F
330
A29
100
AcDbEntity
  8
0
  6
Continuous
 62
     7
370
    15
100
AcDbLine
 10
2245.212605717454
 20
897.5271169745726
 30
0.0
 11
2248.212605717453
 21
897.5271169745726
 31
0.0
  0
LINE
  5
B60
330
A29
100
AcDbEntity
  8
0
  6
Continuous
 62
     7
370
    15
100
AcDbLine
 10
2245.212605717454
 20
897.5271169745726
 30
0.0
 11
2245.212605717454
 21
897.2771169745724
 31
0.0
  0
LINE
  5
B61
330
A29
100
AcDbEntity
  8
0
  6
Continuous
 62
     7
370
    15
100
AcDbLine
 10
2248.212605717453
 20
897.2771169745724
 30
0.0
 11
2248.212605717453
 21
897.5271169745726
 31
0.0
  0
LINE
  5
B62
330
A29
100
AcDbEntity
  8
0
  6
Continuous
 62
     7
370
    15
100
AcDbLine
 10
2286.212605717454
 20
897.5271169745722
 30
0.0
 11
2289.212605717453
 21
897.5271169745722
 31
0.0
  0
LINE
  5
B63
330
A29
100
AcDbEntity
  8
0
  6
Continuous
 62
     7
370
    15
100
AcDbLine
 10
2286.212605717454
 20
897.5271169745722
 30
0.0
 11
2286.212605717454
 21
897.2771169745723
 31
0.0
  0
LINE
  5
B64
330
A29
100
AcDbEntity
  8
0
  6
Continuous
 62
     7
370
    15
100
AcDbLine
 10
2289.212605717453
 20
897.2771169745723
 30
0.0
 11
2289.212605717453
 21
897.5271169745722
 31
0.0
  0
LINE
  5
B65
330
A29
100
AcDbEntity
  8
0
  6
Continuous
 62
     7
370
    15
100
AcDbLine
 10
2228.812605717454
 20
897.5271169745726
 30
0.0
 11
2231.812605717453
 21
897.5271169745726
 31
0.0
  0
LINE
  5
B66
330
A29
100
AcDbEntity
  8
0
  6
Continuous
 62
     7
370
    15
100
AcDbLine
 10
2228.812605717454
 20
897.5271169745726
 30
0.0
 11
2228.812605717454
 21
897.2771169745726
 31
0.0
  0
LINE
  5
B67
330
A29
100
AcDbEntity
  8
0
  6
Continuous
 62
     7
370
    15
100
AcDbLine
 10
2231.812605717453
 20
897.2771169745726
 30
0.0
 11
2231.812605717453
 21
897.5271169745726
 31
0.0
  0
LINE
  5
B68
330
A29
100
AcDbEntity
  8
0
  6
Continuous
 62
     7
370
    15
100
AcDbLine
 10
2253.412605717454
 20
897.5271169745726
 30
0.0
 11
2256.412605717453
 21
897.5271169745726
 31
0.0
  0
LINE
  5
B69
330
A29
100
AcDbEntity
  8
0
  6
Continuous
 62
     7
370
    15
100
AcDbLine
 10
2253.412605717454
 20
897.5271169745726
 30
0.0
 11
2253.412605717454
 21
897.2771169745724
 31
0.0
  0
LINE
  5
B6A
330
A29
100
AcDbEntity
  8
0
  6
Continuous
 62
     7
370
    15
100
AcDbLine
 10
2256.412605717453
 20
897.2771169745724
 30
0.0
 11
2256.412605717453
 21
897.5271169745726
 31
0.0
  0
LINE
  5
B6B
330
A29
100
AcDbEntity
  8
0
  6
Continuous
 62
     7
370
    15
100
AcDbLine
 10
2261.612605717454
 20
897.5271169745724
 30
0.0
 11
2264.612605717453
 21
897.5271169745724
 31
0.0
  0
LINE
  5
B6C
330
A29
100
AcDbEntity
  8
0
  6
Continuous
 62
     7
370
    15
100
AcDbLine
 10
2261.612605717454
 20
897.5271169745724
 30
0.0
 11
2261.612605717454
 21
897.2771169745724
 31
0.0
  0
LINE
  5
B6D
330
A29
100
AcDbEntity
  8
0
  6
Continuous
 62
     7
370
    15
100
AcDbLine
 10
2264.612605717453
 20
897.2771169745724
 30
0.0
 11
2264.612605717453
 21
897.5271169745724
 31
0.0
  0
LINE
  5
B6E
330
A29
100
AcDbEntity
  8
0
  6
Continuous
 62
     7
370
    15
100
AcDbLine
 10
2269.812605717454
 20
897.5271169745724
 30
0.0
 11
2272.812605717453
 21
897.5271169745724
 31
0.0
  0
LINE
  5
B6F
330
A29
100
AcDbEntity
  8
0
  6
Continuous
 62
     7
370
    15
100
AcDbLine
 10
2269.812605717454
 20
897.5271169745724
 30
0.0
 11
2269.812605717454
 21
897.2771169745724
 31
0.0
  0
LINE
  5
B70
330
A29
100
AcDbEntity
  8
0
  6
Continuous
 62
     7
370
    15
100
AcDbLine
 10
2272.812605717453
 20
897.2771169745723
 30
0.0
 11
2272.812605717453
 21
897.5271169745724
 31
0.0
  0
LINE
  5
B71
330
A29
100
AcDbEntity
  8
0
  6
Continuous
 62
     7
370
    15
100
AcDbLine
 10
2278.012605717454
 20
897.5271169745722
 30
0.0
 11
2281.012605717453
 21
897.5271169745722
 31
0.0
  0
LINE
  5
B72
330
A29
100
AcDbEntity
  8
0
  6
Continuous
 62
     7
370
    15
100
AcDbLine
 10
2278.012605717454
 20
897.5271169745722
 30
0.0
 11
2278.012605717454
 21
897.2771169745723
 31
0.0
  0
LINE
  5
B73
330
A29
100
AcDbEntity
  8
0
  6
Continuous
 62
     7
370
    15
100
AcDbLine
 10
2281.012605717453
 20
897.2771169745723
 30
0.0
 11
2281.012605717453
 21
897.5271169745722
 31
0.0
  0
LINE
  5
B74
330
A29
100
AcDbEntity
  8
0
  6
Continuous
 62
     7
370
    15
100
AcDbLine
 10
2237.012605717454
 20
897.5271169745726
 30
0.0
 11
2240.012605717453
 21
897.5271169745726
 31
0.0
  0
LINE
  5
B75
330
A29
100
AcDbEntity
  8
0
  6
Continuous
 62
     7
370
    15
100
AcDbLine
 10
2237.012605717454
 20
897.5271169745726
 30
0.0
 11
2237.012605717454
 21
897.2771169745726
 31
0.0
  0
LINE
  5
B76
330
A29
100
AcDbEntity
  8
0
  6
Continuous
 62
     7
370
    15
100
AcDbLine
 10
2240.012605717453
 20
897.2771169745726
 30
0.0
 11
2240.012605717453
 21
897.5271169745726
 31
0.0
  0
LINE
  5
B77
330
A29
100
AcDbEntity
  8
0
  6
Continuous
 62
     7
370
    15
100
AcDbLine
 10
2294.412605717454
 20
897.5271169745722
 30
0.0
 11
2297.412605717453
 21
897.5271169745722
 31
0.0
  0
LINE
  5
B78
330
A29
100
AcDbEntity
  8
0
  6
Continuous
 62
     7
370
    15
100
AcDbLine
 10
2294.412605717454
 20
897.5271169745722
 30
0.0
 11
2294.412605717454
 21
897.2771169745723
 31
0.0
  0
LINE
  5
B79
330
A29
100
AcDbEntity
  8
0
  6
Continuous
 62
     7
370
    15
100
AcDbLine
 10
2297.412605717453
 20
897.2771169745723
 30
0.0
 11
2297.412605717453
 21
897.5271169745722
 31
0.0
  0
LINE
  5
B7A
330
A29
100
AcDbEntity
  8
0
  6
Continuous
 62
     7
370
    15
100
AcDbLine
 10
2220.612605717454
 20
897.5271169745726
 30
0.0
 11
2223.612605717453
 21
897.5271169745726
 31
0.0
  0
LINE
  5
B7B
330
A29
100
AcDbEntity
  8
0
  6
Continuous
 62
     7
370
    15
100
AcDbLine
 10
2220.612605717454
 20
897.5271169745726
 30
0.0
 11
2220.612605717454
 21
897.2771169745726
 31
0.0
  0
LINE
  5
B7C
330
A29
100
AcDbEntity
  8
0
  6
Continuous
 62
     7
370
    15
100
AcDbLine
 10
2223.612605717453
 20
897.2771169745726
 30
0.0
 11
2223.612605717453
 21
897.5271169745726
 31
0.0
  0
LINE
  5
B7D
330
A29
100
AcDbEntity
  8
0
  6
Continuous
 62
     7
370
    15
100
AcDbLine
 10
2294.412605717454
 20
898.7771169745705
 30
0.0
 11
2294.412605717454
 21
897.5271169745722
 31
0.0
  0
LINE
  5
B7E
330
A29
100
AcDbEntity
  8
0
  6
Continuous
 62
     7
370
    15
100
AcDbLine
 10
2297.412605717453
 20
897.5271169745722
 30
0.0
 11
2297.412605717454
 21
898.7771169745705
 31
0.0
  0
LINE
  5
B7F
330
A29
100
AcDbEntity
  8
0
  6
Continuous
 62
     7
370
    15
100
AcDbLine
 10
2237.012605717454
 20
898.7771169745709
 30
0.0
 11
2237.012605717454
 21
897.5271169745726
 31
0.0
  0
LINE
  5
B80
330
A29
100
AcDbEntity
  8
0
  6
Continuous
 62
     7
370
    15
100
AcDbLine
 10
2240.012605717453
 20
897.5271169745726
 30
0.0
 11
2240.012605717454
 21
898.7771169745711
 31
0.0
  0
LINE
  5
B81
330
A29
100
AcDbEntity
  8
0
  6
Continuous
 62
     7
370
    15
100
AcDbLine
 10
2253.412605717454
 20
898.7771169745709
 30
0.0
 11
2253.412605717454
 21
897.5271169745726
 31
0.0
  0
LINE
  5
B82
330
A29
100
AcDbEntity
  8
0
  6
Continuous
 62
     7
370
    15
100
AcDbLine
 10
2256.412605717453
 20
897.5271169745726
 30
0.0
 11
2256.412605717454
 21
898.7771169745709
 31
0.0
  0
LINE
  5
B83
330
A29
100
AcDbEntity
  8
0
  6
Continuous
 62
     7
370
    15
100
AcDbLine
 10
2245.212605717454
 20
898.7771169745709
 30
0.0
 11
2245.212605717454
 21
897.5271169745726
 31
0.0
  0
LINE
  5
B84
330
A29
100
AcDbEntity
  8
0
  6
Continuous
 62
     7
370
    15
100
AcDbLine
 10
2248.212605717453
 20
897.5271169745726
 30
0.0
 11
2248.212605717454
 21
898.7771169745709
 31
0.0
  0
LINE
  5
B85
330
A29
100
AcDbEntity
  8
0
  6
Continuous
 62
     7
370
    15
100
AcDbLine
 10
2261.612605717454
 20
898.7771169745707
 30
0.0
 11
2261.612605717454
 21
897.5271169745724
 31
0.0
  0
LINE
  5
B86
330
A29
100
AcDbEntity
  8
0
  6
Continuous
 62
     7
370
    15
100
AcDbLine
 10
2264.612605717453
 20
897.5271169745724
 30
0.0
 11
2264.612605717454
 21
898.7771169745709
 31
0.0
  0
LINE
  5
B87
330
A29
100
AcDbEntity
  8
0
  6
Continuous
 62
     7
370
    15
100
AcDbLine
 10
2269.812605717454
 20
898.7771169745705
 30
0.0
 11
2269.812605717454
 21
897.5271169745724
 31
0.0
  0
LINE
  5
B88
330
A29
100
AcDbEntity
  8
0
  6
Continuous
 62
     7
370
    15
100
AcDbLine
 10
2272.812605717453
 20
897.5271169745724
 30
0.0
 11
2272.812605717454
 21
898.7771169745707
 31
0.0
  0
LINE
  5
B89
330
A29
100
AcDbEntity
  8
0
  6
Continuous
 62
     7
370
    15
100
AcDbLine
 10
2278.012605717454
 20
898.7771169745705
 30
0.0
 11
2278.012605717454
 21
897.5271169745722
 31
0.0
  0
LINE
  5
B8A
330
A29
100
AcDbEntity
  8
0
  6
Continuous
 62
     7
370
    15
100
AcDbLine
 10
2281.012605717453
 20
897.5271169745722
 30
0.0
 11
2281.012605717454
 21
898.7771169745707
 31
0.0
  0
LINE
  5
B8B
330
A29
100
AcDbEntity
  8
0
  6
Continuous
 62
     7
370
    15
100
AcDbLine
 10
2286.212605717454
 20
898.7771169745705
 30
0.0
 11
2286.212605717454
 21
897.5271169745722
 31
0.0
  0
LINE
  5
B8C
330
A29
100
AcDbEntity
  8
0
  6
Continuous
 62
     7
370
    15
100
AcDbLine
 10
2289.212605717453
 20
897.5271169745722
 30
0.0
 11
2289.212605717453
 21
898.7771169745705
 31
0.0
  0
LINE
  5
B8D
330
A29
100
AcDbEntity
  8
0
  6
Continuous
 62
     7
370
    15
100
AcDbLine
 10
2228.812605717454
 20
898.7771169745709
 30
0.0
 11
2228.812605717454
 21
897.5271169745726
 31
0.0
  0
LINE
  5
B8E
330
A29
100
AcDbEntity
  8
0
  6
Continuous
 62
     7
370
    15
100
AcDbLine
 10
2231.812605717453
 20
897.5271169745726
 30
0.0
 11
2231.812605717454
 21
898.7771169745711
 31
0.0
  0
LINE
  5
B8F
330
A29
100
AcDbEntity
  8
0
  6
Continuous
 62
     7
370
    15
100
AcDbLine
 10
2220.612605717454
 20
898.7771169745709
 30
0.0
 11
2220.612605717454
 21
897.5271169745726
 31
0.0
  0
LINE
  5
B90
330
A29
100
AcDbEntity
  8
0
  6
Continuous
 62
     7
370
    15
100
AcDbLine
 10
2223.612605717453
 20
897.5271169745726
 30
0.0
 11
2223.612605717454
 21
898.7771169745711
 31
0.0
  0
ENDBLK
  5
A2B
330
A29
100
AcDbEntity
  8
0
100
AcDbBlockEnd
  0
BLOCK
  5
B93
330
B92
100
AcDbEntity
  8
0
100
AcDbBlockBegin
  2
2
 70
     0
 10
0.0
 20
0.0
 30
0.0
  3
2
  1

  0
LINE
  5
B95
330
B92
100
AcDbEntity
  8
0
  6
Continuous
 62
     7
370
    15
100
AcDbLine
 10
2200.554482766623
 20
905.5891052712055
 30
0.0
 11
2200.554482766623
 21
912.0556983141705
 31
0.0
  0
LINE
  5
B96
330
B92
100
AcDbEntity
  8
0
  6
Continuous
 62
     7
370
    15
100
AcDbLine
 10
2200.554482766623
 20
912.0556983141705
 30
0.0
 11
2199.804482766623
 21
912.0556983141705
 31
0.0
  0
LINE
  5
B97
330
B92
100
AcDbEntity
  8
0
  6
Continuous
 62
     7
370
    15
100
AcDbLine
 10
2199.804482766623
 20
912.0556983141705
 30
0.0
 11
2199.804482766623
 21
913.2556983141702
 31
0.0
  0
LINE
  5
B98
330
B92
100
AcDbEntity
  8
0
  6
Continuous
 62
     7
370
    15
100
AcDbLine
 10
2199.804482766623
 20
913.2556983141702
 30
0.0
 11
2204.304482766624
 21
913.25569831417
 31
0.0
  0
LINE
  5
B99
330
B92
100
AcDbEntity
  8
0
  6
Continuous
 62
     7
370
    15
100
AcDbLine
 10
2204.304482766624
 20
913.25569831417
 30
0.0
 11
2204.304482766624
 21
912.0556983141705
 31
0.0
  0
LINE
  5
B9A
330
B92
100
AcDbEntity
  8
0
  6
Continuous
 62
     7
370
    15
100
AcDbLine
 10
2204.304482766624
 20
912.0556983141705
 30
0.0
 11
2203.554482766624
 21
912.0556983141705
 31
0.0
  0
LINE
  5
B9B
330
B92
100
AcDbEntity
  8
0
  6
Continuous
 62
     7
370
    15
100
AcDbLine
 10
2203.554482766624
 20
912.0556983141705
 30
0.0
 11
2203.554482766624
 21
905.5891052712055
 31
0.0
  0
LINE
  5
B9C
330
B92
100
AcDbEntity
  8
0
  6
Continuous
 62
     7
370
    15
100
AcDbLine
 10
2203.554482766624
 20
905.5891052712055
 30
0.0
 11
2200.554482766623
 21
905.5891052712055
 31
0.0
  0
LINE
  5
B9D
330
B92
100
AcDbEntity
  8
0
  6
Continuous
 62
     7
370
    15
100
AcDbLine
 10
2203.554482766623
 20
901.9056983141705
 30
0.0
 11
2200.554482766623
 21
901.9056983141705
 31
0.0
  0
LINE
  5
B9E
330
B92
100
AcDbEntity
  8
0
  6
Continuous
 62
     7
370
    15
100
AcDbLine
 10
2200.554482766623
 20
901.9056983141705
 30
0.0
 11
2200.554482766623
 21
905.5891052712055
 31
0.0
  0
LINE
  5
B9F
330
B92
100
AcDbEntity
  8
0
  6
Continuous
 62
     7
370
    15
100
AcDbLine
 10
2203.554482766624
 20
905.5891052712055
 30
0.0
 11
2203.554482766623
 21
901.9056983141705
 31
0.0
  0
LINE
  5
BA0
330
B92
100
AcDbEntity
  8
0
  6
Continuous
 62
     7
370
    15
100
AcDbLine
 10
2200.554482766623
 20
901.5521449235773
 30
0.0
 11
2203.554482766623
 21
901.5521449235777
 31
0.0
  0
LINE
  5
BA1
330
B92
100
AcDbEntity
  8
0
  6
Continuous
 62
     7
370
    15
100
AcDbLine
 10
2200.554482766623
 20
901.9056983141705
 30
0.0
 11
2200.554482766623
 21
901.5521449235773
 31
0.0
  0
LINE
  5
BA2
330
B92
100
AcDbEntity
  8
0
  6
Continuous
 62
     7
370
    15
100
AcDbLine
 10
2203.554482766623
 20
901.5521449235777
 30
0.0
 11
2203.554482766623
 21
901.9056983141705
 31
0.0
  0
LINE
  5
BA3
330
B92
100
AcDbEntity
  8
0
  6
Continuous
 62
     7
370
    15
100
AcDbLine
 10
2200.554482766623
 20
901.4950381423904
 30
0.0
 11
2203.554482766623
 21
901.4950381423899
 31
0.0
  0
LINE
  5
BA4
330
B92
100
AcDbEntity
  8
0
  6
Continuous
 62
     7
370
    15
100
AcDbLine
 10
2200.554482766623
 20
901.4950381423904
 30
0.0
 11
2200.554482766623
 21
901.5521449235773
 31
0.0
  0
LINE
  5
BA5
330
B92
100
AcDbEntity
  8
0
  6
Continuous
 62
     7
370
    15
100
AcDbLine
 10
2203.554482766623
 20
901.4950381423899
 30
0.0
 11
2203.554482766623
 21
901.5521449235777
 31
0.0
  0
LINE
  5
BA6
330
B92
100
AcDbEntity
  8
0
  6
Continuous
 62
     7
370
    15
100
AcDbLine
 10
2200.554482766623
 20
901.141484751797
 30
0.0
 11
2203.554482766623
 21
901.141484751797
 31
0.0
  0
LINE
  5
BA7
330
B92
100
AcDbEntity
  8
0
  6
Continuous
 62
     7
370
    15
100
AcDbLine
 10
2200.554482766623
 20
901.141484751797
 30
0.0
 11
2200.554482766623
 21
901.4950381423904
 31
0.0
  0
LINE
  5
BA8
330
B92
100
AcDbEntity
  8
0
  6
Continuous
 62
     7
370
    15
100
AcDbLine
 10
2203.554482766623
 20
901.141484751797
 30
0.0
 11
2203.554482766623
 21
901.4950381423899
 31
0.0
  0
LINE
  5
BA9
330
B92
100
AcDbEntity
  8
0
  6
Continuous
 62
     7
370
    15
100
AcDbLine
 10
2203.554482766623
 20
899.1271169745703
 30
0.0
 11
2203.204482766623
 21
898.7771169745705
 31
0.0
  0
LINE
  5
BAA
330
B92
100
AcDbEntity
  8
0
  6
Continuous
 62
     7
370
    15
100
AcDbLine
 10
2203.204482766623
 20
898.7771169745705
 30
0.0
 11
2200.904482766623
 21
898.7771169745705
 31
0.0
  0
LINE
  5
BAB
330
B92
100
AcDbEntity
  8
0
  6
Continuous
 62
     7
370
    15
100
AcDbLine
 10
2200.904482766623
 20
898.7771169745705
 30
0.0
 11
2200.554482766623
 21
899.1271169745703
 31
0.0
  0
LINE
  5
BAC
330
B92
100
AcDbEntity
  8
0
  6
Continuous
 62
     7
370
    15
100
AcDbLine
 10
2203.554482766623
 20
899.1271169745704
 30
0.0
 11
2200.554482766623
 21
899.1271169745704
 31
0.0
  0
LINE
  5
BAD
330
B92
100
AcDbEntity
  8
0
  6
Continuous
 62
     7
370
    15
100
AcDbLine
 10
2200.554482766623
 20
899.1271169745703
 30
0.0
 11
2200.554482766623
 21
901.141484751797
 31
0.0
  0
LINE
  5
BAE
330
B92
100
AcDbEntity
  8
0
  6
Continuous
 62
     7
370
    15
100
AcDbLine
 10
2203.554482766623
 20
901.141484751797
 30
0.0
 11
2203.554482766623
 21
899.1271169745704
 31
0.0
  0
LINE
  5
BAF
330
B92
100
AcDbEntity
  8
0
  6
Continuous
 62
     7
370
    15
100
AcDbLine
 10
2200.701682246772
 20
897.0271169745721
 30
0.0
 11
2200.701682246773
 21
891.2590247425404
 31
0.0
  0
ARC
  5
BB0
330
B92
100
AcDbEntity
  8
0
  6
Continuous
 62
     7
370
    15
100
AcDbCircle
 10
2200.951682246772
 20
897.0271169745721
 30
0.0
 40
0.2500000000000284
100
AcDbArc
 50
90.0
 51
180.0
  0
LINE
  5
BB1
330
B92
100
AcDbEntity
  8
0
  6
Continuous
 62
     7
370
    15
100
AcDbLine
 10
2200.951682246772
 20
897.2771169745721
 30
0.0
 11
2201.104482766623
 21
897.2771169745723
 31
0.0
  0
ARC
  5
BB2
330
B92
100
AcDbEntity
  8
0
  6
Continuous
 62
     7
370
    15
100
AcDbCircle
 10
2201.104482766623
 20
897.5271169745722
 30
0.0
 40
0.2500000000000284
100
AcDbArc
 50
270.0
 51
0.0000000002475235
  0
LINE
  5
BB3
330
B92
100
AcDbEntity
  8
0
  6
Continuous
 62
     7
370
    15
100
AcDbLine
 10
2202.744482766624
 20
898.7771169745705
 30
0.0
 11
2202.744482766624
 21
897.527116974572
 31
0.0
  0
ARC
  5
BB4
330
B92
100
AcDbEntity
  8
0
  6
Continuous
 62
     7
370
    15
100
AcDbCircle
 10
2202.994482766623
 20
897.527116974572
 30
0.0
 40
0.2500000000000284
100
AcDbArc
 50
180.0
 51
270.0
  0
LINE
  5
BB5
330
B92
100
AcDbEntity
  8
0
  6
Continuous
 62
     7
370
    15
100
AcDbLine
 10
2202.994482766623
 20
897.2771169745721
 30
0.0
 11
2203.147283286475
 21
897.2771169745721
 31
0.0
  0
ARC
  5
BB6
330
B92
100
AcDbEntity
  8
0
  6
Continuous
 62
     7
370
    15
100
AcDbCircle
 10
2203.147283286475
 20
897.0271169745721
 30
0.0
 40
0.2500000000000426
100
AcDbArc
 50
359.999999999987
 51
90.0
  0
LINE
  5
BB7
330
B92
100
AcDbEntity
  8
0
  6
Continuous
 62
     7
370
    15
100
AcDbLine
 10
2203.397283286475
 20
891.25902474254
 30
0.0
 11
2203.397283286475
 21
897.0271169745721
 31
0.0
  0
LINE
  5
BB8
330
B92
100
AcDbEntity
  8
0
  6
Continuous
 62
     7
370
    15
100
AcDbLine
 10
2200.701682246773
 20
891.2590247425404
 30
0.0
 11
2203.397283286475
 21
891.25902474254
 31
0.0
  0
LINE
  5
BB9
330
B92
100
AcDbEntity
  8
0
  6
Continuous
 62
     7
370
    15
100
AcDbLine
 10
2201.354482766623
 20
897.5271169745722
 30
0.0
 11
2201.354482766623
 21
898.7771169745705
 31
0.0
  0
LINE
  5
BBA
330
B92
100
AcDbEntity
  8
0
  6
Continuous
 62
     7
370
    15
100
AcDbLine
 10
2203.397283286475
 20
889.3308908750629
 30
0.0
 11
2200.701682246773
 21
889.3308908750629
 31
0.0
  0
LINE
  5
BBB
330
B92
100
AcDbEntity
  8
0
  6
Continuous
 62
     7
370
    15
100
AcDbLine
 10
2200.701682246773
 20
891.2590247425404
 30
0.0
 11
2200.701682246773
 21
889.3308908750629
 31
0.0
  0
LINE
  5
BBC
330
B92
100
AcDbEntity
  8
0
  6
Continuous
 62
     7
370
    15
100
AcDbLine
 10
2203.397283286475
 20
889.3308908750629
 30
0.0
 11
2203.397283286475
 21
891.25902474254
 31
0.0
  0
LINE
  5
BBD
330
B92
100
AcDbEntity
  8
0
  6
Continuous
 62
     7
370
    15
100
AcDbLine
 10
2203.554482766623
 20
903.4556983141701
 30
0.0
 11
2203.904482766624
 21
903.4556983141701
 31
0.0
  0
LINE
  5
BBE
330
B92
100
AcDbEntity
  8
0
  6
Continuous
 62
     7
370
    15
100
AcDbLine
 10
2203.904482766624
 20
903.4556983141701
 30
0.0
 11
2203.554482766623
 21
902.1556983141696
 31
0.0
  0
LINE
  5
BBF
330
B92
100
AcDbEntity
  8
0
  6
Continuous
 62
     7
370
    15
100
AcDbLine
 10
2200.554482766623
 20
902.1556983141701
 30
0.0
 11
2200.204482766623
 21
903.4556983141701
 31
0.0
  0
LINE
  5
BC0
330
B92
100
AcDbEntity
  8
0
  6
Continuous
 62
     7
370
    15
100
AcDbLine
 10
2200.204482766623
 20
903.4556983141701
 30
0.0
 11
2200.554482766623
 21
903.4556983141701
 31
0.0
  0
LINE
  5
BC1
330
B92
100
AcDbEntity
  8
0
  6
Continuous
 62
     7
370
    15
100
AcDbLine
 10
2200.701682246773
 20
888.7524445994298
 30
0.0
 11
2203.397283286475
 21
888.7524445994296
 31
0.0
  0
LINE
  5
BC2
330
B92
100
AcDbEntity
  8
0
  6
Continuous
 62
     7
370
    15
100
AcDbLine
 10
2200.701682246773
 20
889.3308908750629
 30
0.0
 11
2200.701682246773
 21
888.7524445994298
 31
0.0
  0
LINE
  5
BC3
330
B92
100
AcDbEntity
  8
0
  6
Continuous
 62
     7
370
    15
100
AcDbLine
 10
2203.397283286475
 20
888.7524445994296
 30
0.0
 11
2203.397283286475
 21
889.3308908750629
 31
0.0
  0
ENDBLK
  5
B94
330
B92
100
AcDbEntity
  8
0
100
AcDbBlockEnd
  0
BLOCK
  5
BC6
330
BC5
100
AcDbEntity
  8
0
100
AcDbBlockBegin
  2
3
 70
     0
 10
0.0
 20
0.0
 30
0.0
  3
3
  1

  0
LINE
  5
BC8
330
BC5
100
AcDbEntity
  8
0
  6
Continuous
 62
     7
370
    15
100
AcDbLine
 10
2218.312605717454
 20
867.906722619592
 30
0.0
 11
2299.712605717454
 21
867.906722619592
 31
0.0
  0
LINE
  5
BC9
330
BC5
100
AcDbEntity
  8
0
  6
Continuous
 62
     7
370
    15
100
AcDbLine
 10
2299.712605717454
 20
863.406722619592
 30
0.0
 11
2299.712605717454
 21
867.906722619592
 31
0.0
  0
LINE
  5
BCA
330
BC5
100
AcDbEntity
  8
0
  6
Continuous
 62
     7
370
    15
100
AcDbLine
 10
2218.312605717454
 20
867.906722619592
 30
0.0
 11
2218.312605717454
 21
863.406722619592
 31
0.0
  0
LINE
  5
BCB
330
BC5
100
AcDbEntity
  8
0
  6
Continuous
 62
     7
370
    15
100
AcDbLine
 10
2299.712605717454
 20
863.406722619592
 30
0.0
 11
2218.312605717454
 21
863.406722619592
 31
0.0
  0
ENDBLK
  5
BC7
330
BC5
100
AcDbEntity
  8
0
100
AcDbBlockEnd
  0
BLOCK
  5
BCE
330
BCD
100
AcDbEntity
  8
0
100
AcDbBlockBegin
  2
4
 70
     0
 10
0.0
 20
0.0
 30
0.0
  3
4
  1

  0
LINE
  5
BD0
330
BCD
100
AcDbEntity
  8
0
  6
Continuous
 62
     7
370
    15
100
AcDbLine
 10
2336.48567082885
 20
883.1423805128858
 30
0.0
 11
2336.075858008217
 21
882.9058006072795
 31
0.0
  0
LINE
  5
BD1
330
BCD
100
AcDbEntity
  8
0
  6
Continuous
 62
     7
370
    15
100
AcDbLine
 10
2336.401958160427
 20
876.4202598752079
 30
0.0
 11
2338.308035934973
 21
875.3199045976828
 31
0.0
  0
LINE
  5
BD2
330
BCD
100
AcDbEntity
  8
0
  6
Continuous
 62
     7
370
    15
100
AcDbLine
 10
2342.28394643458
 20
886.4896537713589
 30
0.0
 11
2341.874133613947
 21
886.2530738657525
 31
0.0
  0
LINE
  5
BD3
330
BCD
100
AcDbEntity
  8
0
  6
Continuous
 62
     7
370
    15
100
AcDbLine
 10
2342.200233766156
 20
879.7675331336812
 30
0.0
 11
2344.106311540703
 21
878.6671778561558
 31
0.0
  0
LINE
  5
BD4
330
BCD
100
AcDbEntity
  8
0
  6
Continuous
 62
     7
370
    15
100
AcDbLine
 10
2348.08222204031
 20
889.8369270298319
 30
0.0
 11
2347.672409219677
 21
889.6003471242256
 31
0.0
  0
LINE
  5
BD5
330
BCD
100
AcDbEntity
  8
0
  6
Continuous
 62
     7
370
    15
100
AcDbLine
 10
2347.998509371886
 20
883.1148063921542
 30
0.0
 11
2349.904587146433
 21
882.0144511146288
 31
0.0
  0
LINE
  5
BD6
330
BCD
100
AcDbEntity
  8
0
  6
Continuous
 62
     7
370
    15
100
AcDbLine
 10
2353.88049764604
 20
893.1842002883049
 30
0.0
 11
2353.470684825407
 21
892.9476203826986
 31
0.0
  0
LINE
  5
BD7
330
BCD
100
AcDbEntity
  8
0
  6
Continuous
 62
     7
370
    15
100
AcDbLine
 10
2353.796784977616
 20
886.4620796506271
 30
0.0
 11
2355.702862752163
 21
885.361724373102
 31
0.0
  0
LINE
  5
BD8
330
BCD
100
AcDbEntity
  8
0
  6
Continuous
 62
     7
370
    15
100
AcDbLine
 10
2359.678773251769
 20
896.5314735467782
 30
0.0
 11
2359.268960431136
 21
896.2948936411718
 31
0.0
  0
LINE
  5
BD9
330
BCD
100
AcDbEntity
  8
0
  6
Continuous
 62
     7
370
    15
100
AcDbLine
 10
2359.595060583346
 20
889.8093529091001
 30
0.0
 11
2361.501138357892
 21
888.7089976315749
 31
0.0
  0
LINE
  5
BDA
330
BCD
100
AcDbEntity
  8
0
  6
Continuous
 62
     7
370
    15
100
AcDbLine
 10
2365.477048857499
 20
899.878746805251
 30
0.0
 11
2365.067236036866
 21
899.6421668996449
 31
0.0
  0
LINE
  5
BDB
330
BCD
100
AcDbEntity
  8
0
  6
Continuous
 62
     7
370
    15
100
AcDbLine
 10
2365.393336189075
 20
893.1566261675731
 30
0.0
 11
2367.299413963622
 21
892.0562708900479
 31
0.0
  0
LINE
  5
BDC
330
BCD
100
AcDbEntity
  8
0
  6
Continuous
 62
     7
370
    15
100
AcDbLine
 10
2371.275324463228
 20
903.226020063724
 30
0.0
 11
2370.865511642596
 21
902.9894401581179
 31
0.0
  0
LINE
  5
BDD
330
BCD
100
AcDbEntity
  8
0
  6
Continuous
 62
     7
370
    15
100
AcDbLine
 10
2371.191611794805
 20
896.5038994260464
 30
0.0
 11
2373.097689569352
 21
895.4035441485212
 31
0.0
  0
LINE
  5
BDE
330
BCD
100
AcDbEntity
  8
0
  6
Continuous
 62
     7
370
    15
100
AcDbLine
 10
2377.073600068958
 20
906.5732933221973
 30
0.0
 11
2376.663787248326
 21
906.3367134165909
 31
0.0
  0
LINE
  5
BDF
330
BCD
100
AcDbEntity
  8
0
  6
Continuous
 62
     7
370
    15
100
AcDbLine
 10
2376.989887400535
 20
899.8511726845194
 30
0.0
 11
2378.895965175082
 21
898.7508174069942
 31
0.0
  0
LINE
  5
BE0
330
BCD
100
AcDbEntity
  8
0
  6
Continuous
 62
     7
370
    15
100
AcDbLine
 10
2382.871875674688
 20
909.9205665806703
 30
0.0
 11
2382.462062854055
 21
909.683986675064
 31
0.0
  0
LINE
  5
BE1
330
BCD
100
AcDbEntity
  8
0
  6
Continuous
 62
     7
370
    15
100
AcDbLine
 10
2382.788163006265
 20
903.1984459429924
 30
0.0
 11
2384.694240780811
 21
902.0980906654672
 31
0.0
  0
LINE
  5
BE2
330
BCD
100
AcDbEntity
  8
0
  6
Continuous
 62
     7
370
    15
100
AcDbLine
 10
2388.670151280418
 20
913.2678398391433
 30
0.0
 11
2388.260338459785
 21
913.031259933537
 31
0.0
  0
LINE
  5
BE3
330
BCD
100
AcDbEntity
  8
0
  6
Continuous
 62
     7
370
    15
100
AcDbLine
 10
2388.586438611994
 20
906.5457192014655
 30
0.0
 11
2390.492516386541
 21
905.4453639239403
 31
0.0
  0
LINE
  5
BE4
330
BCD
100
AcDbEntity
  8
0
  6
Continuous
 62
     7
370
    15
100
AcDbLine
 10
2333.75623865347
 20
894.4942425929101
 30
0.0
 11
2333.75623865347
 21
895.4740915671726
 31
0.0
  0
LINE
  5
BE5
330
BCD
100
AcDbEntity
  8
0
  6
Continuous
 62
     7
370
    15
100
AcDbLine
 10
2333.75623865347
 20
895.4740915671726
 30
0.0
 11
2336.938219168809
 21
893.6371733155715
 31
0.0
  0
LINE
  5
BE6
330
BCD
100
AcDbEntity
  8
0
  6
Continuous
 62
     7
370
    15
100
AcDbLine
 10
2336.938219168809
 20
893.6371733155715
 30
0.0
 11
2336.938219168809
 21
892.6573243413089
 31
0.0
  0
LINE
  5
BE7
330
BCD
100
AcDbEntity
  8
0
  6
Continuous
 62
     7
370
    15
100
AcDbLine
 10
2336.938219168809
 20
892.6573243413089
 30
0.0
 11
2336.407889082919
 21
892.9634773832423
 31
0.0
  0
LINE
  5
BE8
330
BCD
100
AcDbEntity
  8
0
  6
Continuous
 62
     7
370
    15
100
AcDbLine
 10
2336.407889082919
 20
892.9634773832423
 30
0.0
 11
2336.40788908292
 21
887.6832402498049
 31
0.0
  0
LINE
  5
BE9
330
BCD
100
AcDbEntity
  8
0
  6
Continuous
 62
     7
370
    15
100
AcDbLine
 10
2336.40788908292
 20
887.6832402498049
 30
0.0
 11
2334.28656873936
 21
888.907852417539
 31
0.0
  0
LINE
  5
BEA
330
BCD
100
AcDbEntity
  8
0
  6
Continuous
 62
     7
370
    15
100
AcDbLine
 10
2334.28656873936
 20
888.907852417539
 30
0.0
 11
2334.28656873936
 21
894.1880895509765
 31
0.0
  0
LINE
  5
BEB
330
BCD
100
AcDbEntity
  8
0
  6
Continuous
 62
     7
370
    15
100
AcDbLine
 10
2334.28656873936
 20
894.1880895509765
 30
0.0
 11
2333.75623865347
 21
894.4942425929101
 31
0.0
  0
LINE
  5
BEC
330
BCD
100
AcDbEntity
  8
0
  6
Continuous
 62
     7
370
    15
100
AcDbLine
 10
2394.496711157394
 20
926.8649834667554
 30
0.0
 11
2336.938219168809
 21
893.6371733155715
 31
0.0
  0
LINE
  5
BED
330
BCD
100
AcDbEntity
  8
0
  6
Continuous
 62
     7
370
    15
100
AcDbLine
 10
2394.496711157394
 20
925.8851344924925
 30
0.0
 11
2394.496711157394
 21
926.8649834667554
 31
0.0
  0
LINE
  5
BEE
330
BCD
100
AcDbEntity
  8
0
  6
Continuous
 62
     7
370
    15
100
AcDbLine
 10
2394.496711157394
 20
925.8851344924925
 30
0.0
 11
2336.938219168809
 21
892.6573243413089
 31
0.0
  0
LINE
  5
BEF
330
BCD
100
AcDbEntity
  8
0
  6
Continuous
 62
     7
370
    15
100
AcDbLine
 10
2333.75623865347
 20
895.4740915671726
 30
0.0
 11
2391.314730642055
 21
928.7019017183563
 31
0.0
  0
LINE
  5
BF0
330
BCD
100
AcDbEntity
  8
0
  6
Continuous
 62
     7
370
    15
100
AcDbLine
 10
2394.496711157394
 20
926.8649834667554
 30
0.0
 11
2391.314730642055
 21
928.7019017183563
 31
0.0
  0
LINE
  5
BF1
330
BCD
100
AcDbEntity
  8
0
  6
Continuous
 62
     7
370
    15
100
AcDbLine
 10
2392.163258779479
 20
918.1281162096345
 30
0.0
 11
2390.395491826513
 21
917.1076060698561
 31
0.0
  0
LINE
  5
BF2
330
BCD
100
AcDbEntity
  8
0
  6
Continuous
 62
     7
370
    15
100
AcDbLine
 10
2390.395491826513
 20
917.1076060698561
 30
0.0
 11
2390.395491826513
 21
916.0461030144047
 31
0.0
  0
LINE
  5
BF3
330
BCD
100
AcDbEntity
  8
0
  6
Continuous
 62
     7
370
    15
100
AcDbLine
 10
2392.163258779479
 20
917.0666131541832
 30
0.0
 11
2390.395491826513
 21
916.0461030144047
 31
0.0
  0
LINE
  5
BF4
330
BCD
100
AcDbEntity
  8
0
  6
Continuous
 62
     7
370
    15
100
AcDbLine
 10
2386.364983173749
 20
914.7808429511615
 30
0.0
 11
2384.597216220783
 21
913.7603328113831
 31
0.0
  0
LINE
  5
BF5
330
BCD
100
AcDbEntity
  8
0
  6
Continuous
 62
     7
370
    15
100
AcDbLine
 10
2384.597216220783
 20
913.7603328113831
 30
0.0
 11
2384.597216220783
 21
912.6988297559316
 31
0.0
  0
LINE
  5
BF6
330
BCD
100
AcDbEntity
  8
0
  6
Continuous
 62
     7
370
    15
100
AcDbLine
 10
2386.364983173749
 20
913.71933989571
 30
0.0
 11
2384.597216220783
 21
912.6988297559316
 31
0.0
  0
LINE
  5
BF7
330
BCD
100
AcDbEntity
  8
0
  6
Continuous
 62
     7
370
    15
100
AcDbLine
 10
2380.56670756802
 20
911.4335696926884
 30
0.0
 11
2378.798940615054
 21
910.4130595529101
 31
0.0
  0
LINE
  5
BF8
330
BCD
100
AcDbEntity
  8
0
  6
Continuous
 62
     7
370
    15
100
AcDbLine
 10
2378.798940615054
 20
910.4130595529101
 30
0.0
 11
2378.798940615054
 21
909.3515564974586
 31
0.0
  0
LINE
  5
BF9
330
BCD
100
AcDbEntity
  8
0
  6
Continuous
 62
     7
370
    15
100
AcDbLine
 10
2380.56670756802
 20
910.3720666372369
 30
0.0
 11
2378.798940615054
 21
909.3515564974586
 31
0.0
  0
LINE
  5
BFA
330
BCD
100
AcDbEntity
  8
0
  6
Continuous
 62
     7
370
    15
100
AcDbLine
 10
2374.76843196229
 20
908.0862964342154
 30
0.0
 11
2373.000665009324
 21
907.065786294437
 31
0.0
  0
LINE
  5
BFB
330
BCD
100
AcDbEntity
  8
0
  6
Continuous
 62
     7
370
    15
100
AcDbLine
 10
2373.000665009324
 20
907.065786294437
 30
0.0
 11
2373.000665009324
 21
906.0042832389855
 31
0.0
  0
LINE
  5
BFC
330
BCD
100
AcDbEntity
  8
0
  6
Continuous
 62
     7
370
    15
100
AcDbLine
 10
2374.76843196229
 20
907.0247933787639
 30
0.0
 11
2373.000665009324
 21
906.0042832389855
 31
0.0
  0
LINE
  5
BFD
330
BCD
100
AcDbEntity
  8
0
  6
Continuous
 62
     7
370
    15
100
AcDbLine
 10
2368.970156356561
 20
904.7390231757423
 30
0.0
 11
2367.202389403594
 21
903.718513035964
 31
0.0
  0
LINE
  5
BFE
330
BCD
100
AcDbEntity
  8
0
  6
Continuous
 62
     7
370
    15
100
AcDbLine
 10
2367.202389403594
 20
903.718513035964
 30
0.0
 11
2367.202389403594
 21
902.6570099805125
 31
0.0
  0
LINE
  5
BFF
330
BCD
100
AcDbEntity
  8
0
  6
Continuous
 62
     7
370
    15
100
AcDbLine
 10
2368.970156356561
 20
903.6775201202909
 30
0.0
 11
2367.202389403594
 21
902.6570099805125
 31
0.0
  0
LINE
  5
C00
330
BCD
100
AcDbEntity
  8
0
  6
Continuous
 62
     7
370
    15
100
AcDbLine
 10
2363.171880750831
 20
901.3917499172693
 30
0.0
 11
2361.404113797864
 21
900.371239777491
 31
0.0
  0
LINE
  5
C01
330
BCD
100
AcDbEntity
  8
0
  6
Continuous
 62
     7
370
    15
100
AcDbLine
 10
2361.404113797864
 20
900.371239777491
 30
0.0
 11
2361.404113797864
 21
899.3097367220395
 31
0.0
  0
LINE
  5
C02
330
BCD
100
AcDbEntity
  8
0
  6
Continuous
 62
     7
370
    15
100
AcDbLine
 10
2363.171880750831
 20
900.3302468618178
 30
0.0
 11
2361.404113797864
 21
899.3097367220395
 31
0.0
  0
LINE
  5
C03
330
BCD
100
AcDbEntity
  8
0
  6
Continuous
 62
     7
370
    15
100
AcDbLine
 10
2357.373605145101
 20
898.0444766587963
 30
0.0
 11
2355.605838192134
 21
897.0239665190179
 31
0.0
  0
LINE
  5
C04
330
BCD
100
AcDbEntity
  8
0
  6
Continuous
 62
     7
370
    15
100
AcDbLine
 10
2355.605838192134
 20
897.0239665190179
 30
0.0
 11
2355.605838192134
 21
895.9624634635664
 31
0.0
  0
LINE
  5
C05
330
BCD
100
AcDbEntity
  8
0
  6
Continuous
 62
     7
370
    15
100
AcDbLine
 10
2357.373605145101
 20
896.9829736033448
 30
0.0
 11
2355.605838192134
 21
895.9624634635664
 31
0.0
  0
LINE
  5
C06
330
BCD
100
AcDbEntity
  8
0
  6
Continuous
 62
     7
370
    15
100
AcDbLine
 10
2339.978778327912
 20
888.002656883377
 30
0.0
 11
2338.211011374946
 21
886.9821467435986
 31
0.0
  0
LINE
  5
C07
330
BCD
100
AcDbEntity
  8
0
  6
Continuous
 62
     7
370
    15
100
AcDbLine
 10
2338.211011374946
 20
886.9821467435986
 30
0.0
 11
2338.211011374946
 21
885.9206436881473
 31
0.0
  0
LINE
  5
C08
330
BCD
100
AcDbEntity
  8
0
  6
Continuous
 62
     7
370
    15
100
AcDbLine
 10
2339.978778327912
 20
886.9411538279257
 30
0.0
 11
2338.211011374946
 21
885.9206436881473
 31
0.0
  0
LINE
  5
C09
330
BCD
100
AcDbEntity
  8
0
  6
Continuous
 62
     7
370
    15
100
AcDbLine
 10
2345.777053933641
 20
891.34993014185
 30
0.0
 11
2344.009286980675
 21
890.3294200020717
 31
0.0
  0
LINE
  5
C0A
330
BCD
100
AcDbEntity
  8
0
  6
Continuous
 62
     7
370
    15
100
AcDbLine
 10
2344.009286980675
 20
890.3294200020717
 30
0.0
 11
2344.009286980675
 21
889.2679169466203
 31
0.0
  0
LINE
  5
C0B
330
BCD
100
AcDbEntity
  8
0
  6
Continuous
 62
     7
370
    15
100
AcDbLine
 10
2345.777053933641
 20
890.2884270863987
 30
0.0
 11
2344.009286980675
 21
889.2679169466203
 31
0.0
  0
LINE
  5
C0C
330
BCD
100
AcDbEntity
  8
0
  6
Continuous
 62
     7
370
    15
100
AcDbLine
 10
2351.575329539371
 20
894.6972034003232
 30
0.0
 11
2349.807562586405
 21
893.6766932605447
 31
0.0
  0
LINE
  5
C0D
330
BCD
100
AcDbEntity
  8
0
  6
Continuous
 62
     7
370
    15
100
AcDbLine
 10
2349.807562586405
 20
893.6766932605447
 30
0.0
 11
2349.807562586405
 21
892.6151902050932
 31
0.0
  0
LINE
  5
C0E
330
BCD
100
AcDbEntity
  8
0
  6
Continuous
 62
     7
370
    15
100
AcDbLine
 10
2351.575329539371
 20
893.6357003448717
 30
0.0
 11
2349.807562586405
 21
892.6151902050932
 31
0.0
  0
ARC
  5
C0F
330
BCD
100
AcDbEntity
  8
0
  6
Continuous
 62
     7
370
    15
100
AcDbCircle
 10
2380.83567448664
 20
910.764046325559
 30
0.0
 40
0.7214031270003261
100
AcDbArc
 50
328.8562722006427
 51
358.0435013569425
  0
LINE
  5
C10
330
BCD
100
AcDbEntity
  8
0
  6
Continuous
 62
     7
370
    15
100
AcDbLine
 10
2381.412723078859
 20
910.3210050028323
 30
0.0
 11
2381.453103671088
 21
910.3909462400073
 31
0.0
  0
ARC
  5
C11
330
BCD
100
AcDbEntity
  8
0
  6
Continuous
 62
     7
370
    15
100
AcDbCircle
 10
2382.030152263304
 20
909.9479049172808
 30
0.0
 40
0.7214031269989462
100
AcDbArc
 50
148.8562722006013
 51
178.0435013569685
  0
LINE
  5
C12
330
BCD
100
AcDbEntity
  8
0
  6
Continuous
 62
     7
370
    15
100
AcDbLine
 10
2381.309169688265
 20
908.3277206300447
 30
0.0
 11
2381.309169688265
 21
909.9725341302981
 31
0.0
  0
LINE
  5
C13
330
BCD
100
AcDbEntity
  8
0
  6
Continuous
 62
     7
370
    15
100
AcDbLine
 10
2378.056478494807
 20
906.4499819728524
 30
0.0
 11
2381.309169688265
 21
908.3277206300447
 31
0.0
  0
LINE
  5
C14
330
BCD
100
AcDbEntity
  8
0
  6
Continuous
 62
     7
370
    15
100
AcDbLine
 10
2378.056478494807
 20
908.0947954731058
 30
0.0
 11
2378.056478494807
 21
906.4499819728524
 31
0.0
  0
ARC
  5
C15
330
BCD
100
AcDbEntity
  8
0
  6
Continuous
 62
     7
370
    15
100
AcDbCircle
 10
2377.806148708124
 20
908.1194304197362
 30
0.0
 40
0.2515390281773985
100
AcDbArc
 50
354.3796210363773
 51
54.30196147125468
  0
LINE
  5
C16
330
BCD
100
AcDbEntity
  8
0
  6
Continuous
 62
     7
370
    15
100
AcDbLine
 10
2377.912544511985
 20
908.3470249435453
 30
0.0
 11
2377.952925104214
 21
908.3237061457715
 31
0.0
  0
ARC
  5
C17
330
BCD
100
AcDbEntity
  8
0
  6
Continuous
 62
     7
370
    15
100
AcDbCircle
 10
2378.059320908075
 20
908.5513006695805
 30
0.0
 40
0.2515390281771862
100
AcDbArc
 50
174.3796210363384
 51
234.3019614712259
  0
LINE
  5
C18
330
BCD
100
AcDbEntity
  8
0
  6
Continuous
 62
     7
370
    15
100
AcDbLine
 10
2377.808991121392
 20
911.5835877234145
 30
0.0
 11
2377.808991121392
 21
908.575935616211
 31
0.0
  0
LINE
  5
C19
330
BCD
100
AcDbEntity
  8
0
  6
Continuous
 62
     7
370
    15
100
AcDbLine
 10
2377.808991121392
 20
911.5835877234147
 30
0.0
 11
2375.758381455951
 21
910.3997959612716
 31
0.0
  0
LINE
  5
C1A
330
BCD
100
AcDbEntity
  8
0
  6
Continuous
 62
     7
370
    15
100
AcDbLine
 10
2375.758381455951
 20
907.3921438540685
 30
0.0
 11
2375.758381455951
 21
910.3997959612716
 31
0.0
  0
ARC
  5
C1B
330
BCD
100
AcDbEntity
  8
0
  6
Continuous
 62
     7
370
    15
100
AcDbCircle
 10
2375.037398880911
 20
907.4167730670858
 30
0.0
 40
0.7214031269998634
100
AcDbArc
 50
328.8562722006371
 51
358.0435013569555
  0
LINE
  5
C1C
330
BCD
100
AcDbEntity
  8
0
  6
Continuous
 62
     7
370
    15
100
AcDbLine
 10
2375.614447473129
 20
906.9737317443594
 30
0.0
 11
2375.654828065358
 21
907.0436729815341
 31
0.0
  0
ARC
  5
C1D
330
BCD
100
AcDbEntity
  8
0
  6
Continuous
 62
     7
370
    15
100
AcDbCircle
 10
2376.231876657577
 20
906.6006316588071
 30
0.0
 40
0.721403127001241
100
AcDbArc
 50
148.8562722006482
 51
178.0435013569229
  0
LINE
  5
C1E
330
BCD
100
AcDbEntity
  8
0
  6
Continuous
 62
     7
370
    15
100
AcDbLine
 10
2375.510894082536
 20
904.9804473715717
 30
0.0
 11
2375.510894082536
 21
906.6252608718249
 31
0.0
  0
LINE
  5
C1F
330
BCD
100
AcDbEntity
  8
0
  6
Continuous
 62
     7
370
    15
100
AcDbLine
 10
2372.258202889077
 20
903.1027087143794
 30
0.0
 11
2375.510894082536
 21
904.9804473715717
 31
0.0
  0
LINE
  5
C20
330
BCD
100
AcDbEntity
  8
0
  6
Continuous
 62
     7
370
    15
100
AcDbLine
 10
2372.258202889077
 20
904.7475222146328
 30
0.0
 11
2372.258202889077
 21
903.1027087143794
 31
0.0
  0
ARC
  5
C21
330
BCD
100
AcDbEntity
  8
0
  6
Continuous
 62
     7
370
    15
100
AcDbCircle
 10
2372.007873102394
 20
904.7721571612632
 30
0.0
 40
0.2515390281772844
100
AcDbArc
 50
354.3796210363773
 51
54.30196147125847
  0
LINE
  5
C22
330
BCD
100
AcDbEntity
  8
0
  6
Continuous
 62
     7
370
    15
100
AcDbLine
 10
2372.114268906255
 20
904.9997516850723
 30
0.0
 11
2372.154649498484
 21
904.9764328872983
 31
0.0
  0
ARC
  5
C23
330
BCD
100
AcDbEntity
  8
0
  6
Continuous
 62
     7
370
    15
100
AcDbCircle
 10
2372.261045302345
 20
905.2040274111075
 30
0.0
 40
0.251539028177179
100
AcDbArc
 50
174.3796210363579
 51
234.3019614712259
  0
LINE
  5
C24
330
BCD
100
AcDbEntity
  8
0
  6
Continuous
 62
     7
370
    15
100
AcDbLine
 10
2372.010715515662
 20
908.2363144649415
 30
0.0
 11
2372.010715515662
 21
905.2286623577378
 31
0.0
  0
LINE
  5
C25
330
BCD
100
AcDbEntity
  8
0
  6
Continuous
 62
     7
370
    15
100
AcDbLine
 10
2372.010715515662
 20
908.2363144649415
 30
0.0
 11
2369.960105850221
 21
907.0525227027985
 31
0.0
  0
LINE
  5
C26
330
BCD
100
AcDbEntity
  8
0
  6
Continuous
 62
     7
370
    15
100
AcDbLine
 10
2369.960105850221
 20
904.0448705955954
 30
0.0
 11
2369.960105850221
 21
907.0525227027983
 31
0.0
  0
ARC
  5
C27
330
BCD
100
AcDbEntity
  8
0
  6
Continuous
 62
     7
370
    15
100
AcDbCircle
 10
2369.239123275181
 20
904.0694998086127
 30
0.0
 40
0.7214031270000918
100
AcDbArc
 50
328.8562722006482
 51
358.0435013569555
  0
LINE
  5
C28
330
BCD
100
AcDbEntity
  8
0
  6
Continuous
 62
     7
370
    15
100
AcDbLine
 10
2369.816171867399
 20
903.6264584858862
 30
0.0
 11
2369.856552459628
 21
903.6963997230612
 31
0.0
  0
ARC
  5
C29
330
BCD
100
AcDbEntity
  8
0
  6
Continuous
 62
     7
370
    15
100
AcDbCircle
 10
2370.433601051845
 20
903.2533584003349
 30
0.0
 40
0.7214031269987151
100
AcDbArc
 50
148.8562722006013
 51
178.043501356975
  0
LINE
  5
C2A
330
BCD
100
AcDbEntity
  8
0
  6
Continuous
 62
     7
370
    15
100
AcDbLine
 10
2369.712618476806
 20
901.6331741130985
 30
0.0
 11
2369.712618476806
 21
903.2779876133519
 31
0.0
  0
LINE
  5
C2B
330
BCD
100
AcDbEntity
  8
0
  6
Continuous
 62
     7
370
    15
100
AcDbLine
 10
2366.459927283348
 20
899.7554354559063
 30
0.0
 11
2369.712618476806
 21
901.6331741130985
 31
0.0
  0
LINE
  5
C2C
330
BCD
100
AcDbEntity
  8
0
  6
Continuous
 62
     7
370
    15
100
AcDbLine
 10
2366.459927283348
 20
901.4002489561596
 30
0.0
 11
2366.459927283348
 21
899.7554354559063
 31
0.0
  0
ARC
  5
C2D
330
BCD
100
AcDbEntity
  8
0
  6
Continuous
 62
     7
370
    15
100
AcDbCircle
 10
2366.209597496665
 20
901.4248839027903
 30
0.0
 40
0.2515390281772386
100
AcDbArc
 50
354.3796210363514
 51
54.30196147125468
  0
LINE
  5
C2E
330
BCD
100
AcDbEntity
  8
0
  6
Continuous
 62
     7
370
    15
100
AcDbLine
 10
2366.315993300526
 20
901.6524784265993
 30
0.0
 11
2366.356373892755
 21
901.6291596288253
 31
0.0
  0
ARC
  5
C2F
330
BCD
100
AcDbEntity
  8
0
  6
Continuous
 62
     7
370
    15
100
AcDbCircle
 10
2366.462769696616
 20
901.8567541526344
 30
0.0
 40
0.2515390281770717
100
AcDbArc
 50
174.3796210363384
 51
234.3019614712585
  0
LINE
  5
C30
330
BCD
100
AcDbEntity
  8
0
  6
Continuous
 62
     7
370
    15
100
AcDbLine
 10
2366.212439909933
 20
904.8890412064684
 30
0.0
 11
2366.212439909933
 21
901.8813890992648
 31
0.0
  0
LINE
  5
C31
330
BCD
100
AcDbEntity
  8
0
  6
Continuous
 62
     7
370
    15
100
AcDbLine
 10
2366.212439909933
 20
904.8890412064684
 30
0.0
 11
2364.161830244492
 21
903.7052494443255
 31
0.0
  0
LINE
  5
C32
330
BCD
100
AcDbEntity
  8
0
  6
Continuous
 62
     7
370
    15
100
AcDbLine
 10
2364.161830244492
 20
900.6975973371224
 30
0.0
 11
2364.161830244492
 21
903.7052494443255
 31
0.0
  0
ARC
  5
C33
330
BCD
100
AcDbEntity
  8
0
  6
Continuous
 62
     7
370
    15
100
AcDbCircle
 10
2363.440847669453
 20
900.7222265501395
 30
0.0
 40
0.7214031269991325
100
AcDbArc
 50
328.8562722006316
 51
358.043501356975
  0
LINE
  5
C34
330
BCD
100
AcDbEntity
  8
0
  6
Continuous
 62
     7
370
    15
100
AcDbLine
 10
2364.01789626167
 20
900.2791852274132
 30
0.0
 11
2364.058276853898
 21
900.3491264645882
 31
0.0
  0
ARC
  5
C35
330
BCD
100
AcDbEntity
  8
0
  6
Continuous
 62
     7
370
    15
100
AcDbCircle
 10
2364.635325446116
 20
899.9060851418615
 30
0.0
 40
0.7214031269999756
100
AcDbArc
 50
148.8562722006315
 51
178.0435013569555
  0
LINE
  5
C36
330
BCD
100
AcDbEntity
  8
0
  6
Continuous
 62
     7
370
    15
100
AcDbLine
 10
2363.914342871076
 20
898.2859008546254
 30
0.0
 11
2363.914342871076
 21
899.9307143548788
 31
0.0
  0
LINE
  5
C37
330
BCD
100
AcDbEntity
  8
0
  6
Continuous
 62
     7
370
    15
100
AcDbLine
 10
2360.661651677618
 20
896.4081621974333
 30
0.0
 11
2363.914342871076
 21
898.2859008546254
 31
0.0
  0
LINE
  5
C38
330
BCD
100
AcDbEntity
  8
0
  6
Continuous
 62
     7
370
    15
100
AcDbLine
 10
2360.661651677618
 20
898.0529756976865
 30
0.0
 11
2360.661651677618
 21
896.4081621974333
 31
0.0
  0
ARC
  5
C39
330
BCD
100
AcDbEntity
  8
0
  6
Continuous
 62
     7
370
    15
100
AcDbCircle
 10
2360.411321890935
 20
898.0776106443173
 30
0.0
 40
0.2515390281770759
100
AcDbArc
 50
354.379621036332
 51
54.30196147126228
  0
LINE
  5
C3A
330
BCD
100
AcDbEntity
  8
0
  6
Continuous
 62
     7
370
    15
100
AcDbLine
 10
2360.517717694797
 20
898.3052051681262
 30
0.0
 11
2360.558098287025
 21
898.2818863703524
 31
0.0
  0
ARC
  5
C3B
330
BCD
100
AcDbEntity
  8
0
  6
Continuous
 62
     7
370
    15
100
AcDbCircle
 10
2360.664494090887
 20
898.5094808941616
 30
0.0
 40
0.2515390281775062
100
AcDbArc
 50
174.3796210363903
 51
234.3019614711971
  0
LINE
  5
C3C
330
BCD
100
AcDbEntity
  8
0
  6
Continuous
 62
     7
370
    15
100
AcDbLine
 10
2360.414164304203
 20
901.5417679479952
 30
0.0
 11
2360.414164304203
 21
898.5341158407917
 31
0.0
  0
LINE
  5
C3D
330
BCD
100
AcDbEntity
  8
0
  6
Continuous
 62
     7
370
    15
100
AcDbLine
 10
2360.414164304203
 20
901.5417679479952
 30
0.0
 11
2358.363554638762
 21
900.3579761858524
 31
0.0
  0
LINE
  5
C3E
330
BCD
100
AcDbEntity
  8
0
  6
Continuous
 62
     7
370
    15
100
AcDbLine
 10
2358.363554638762
 20
897.3503240786493
 30
0.0
 11
2358.363554638762
 21
900.3579761858524
 31
0.0
  0
ARC
  5
C3F
330
BCD
100
AcDbEntity
  8
0
  6
Continuous
 62
     7
370
    15
100
AcDbCircle
 10
2357.642572063721
 20
897.3749532916668
 30
0.0
 40
0.7214031270007757
100
AcDbArc
 50
328.8562722006785
 51
358.043501356949
  0
LINE
  5
C40
330
BCD
100
AcDbEntity
  8
0
  6
Continuous
 62
     7
370
    15
100
AcDbLine
 10
2358.21962065594
 20
896.93191196894
 30
0.0
 11
2358.260001248169
 21
897.0018532061152
 31
0.0
  0
ARC
  5
C41
330
BCD
100
AcDbEntity
  8
0
  6
Continuous
 62
     7
370
    15
100
AcDbCircle
 10
2358.837049840385
 20
896.558811883389
 30
0.0
 40
0.7214031269983705
100
AcDbArc
 50
148.8562722006013
 51
178.0435013569946
  0
LINE
  5
C42
330
BCD
100
AcDbEntity
  8
0
  6
Continuous
 62
     7
370
    15
100
AcDbLine
 10
2358.116067265347
 20
894.9386275961526
 30
0.0
 11
2358.116067265347
 21
896.5834410964058
 31
0.0
  0
LINE
  5
C43
330
BCD
100
AcDbEntity
  8
0
  6
Continuous
 62
     7
370
    15
100
AcDbLine
 10
2354.863376071889
 20
893.0608889389603
 30
0.0
 11
2358.116067265347
 21
894.9386275961526
 31
0.0
  0
LINE
  5
C44
330
BCD
100
AcDbEntity
  8
0
  6
Continuous
 62
     7
370
    15
100
AcDbLine
 10
2354.863376071889
 20
894.7057024392135
 30
0.0
 11
2354.863376071889
 21
893.0608889389603
 31
0.0
  0
ARC
  5
C45
330
BCD
100
AcDbEntity
  8
0
  6
Continuous
 62
     7
370
    15
100
AcDbCircle
 10
2354.613046285206
 20
894.7303373858442
 30
0.0
 40
0.2515390281769354
100
AcDbArc
 50
354.3796210363255
 51
54.30196147129485
  0
LINE
  5
C46
330
BCD
100
AcDbEntity
  8
0
  6
Continuous
 62
     7
370
    15
100
AcDbLine
 10
2354.719442089066
 20
894.9579319096532
 30
0.0
 11
2354.759822681295
 21
894.9346131118794
 31
0.0
  0
ARC
  5
C47
330
BCD
100
AcDbEntity
  8
0
  6
Continuous
 62
     7
370
    15
100
AcDbCircle
 10
2354.866218485156
 20
895.1622076356885
 30
0.0
 40
0.2515390281775599
100
AcDbArc
 50
174.3796210363968
 51
234.3019614711934
  0
LINE
  5
C48
330
BCD
100
AcDbEntity
  8
0
  6
Continuous
 62
     7
370
    15
100
AcDbLine
 10
2354.615888698473
 20
898.1944946895222
 30
0.0
 11
2354.615888698473
 21
895.1868425823189
 31
0.0
  0
LINE
  5
C49
330
BCD
100
AcDbEntity
  8
0
  6
Continuous
 62
     7
370
    15
100
AcDbLine
 10
2354.615888698473
 20
898.1944946895222
 30
0.0
 11
2352.565279033032
 21
897.0107029273792
 31
0.0
  0
LINE
  5
C4A
330
BCD
100
AcDbEntity
  8
0
  6
Continuous
 62
     7
370
    15
100
AcDbLine
 10
2352.565279033032
 20
894.0030508201763
 30
0.0
 11
2352.565279033032
 21
897.0107029273792
 31
0.0
  0
ARC
  5
C4B
330
BCD
100
AcDbEntity
  8
0
  6
Continuous
 62
     7
370
    15
100
AcDbCircle
 10
2351.844296457993
 20
894.0276800331933
 30
0.0
 40
0.7214031269991783
100
AcDbArc
 50
328.8562722006371
 51
358.0435013569815
  0
LINE
  5
C4C
330
BCD
100
AcDbEntity
  8
0
  6
Continuous
 62
     7
370
    15
100
AcDbLine
 10
2352.42134505021
 20
893.5846387104671
 30
0.0
 11
2352.461725642439
 21
893.6545799476421
 31
0.0
  0
ARC
  5
C4D
330
BCD
100
AcDbEntity
  8
0
  6
Continuous
 62
     7
370
    15
100
AcDbCircle
 10
2353.038774234657
 20
893.2115386249154
 30
0.0
 40
0.721403127000146
100
AcDbArc
 50
148.8562722006427
 51
178.0435013569555
  0
LINE
  5
C4E
330
BCD
100
AcDbEntity
  8
0
  6
Continuous
 62
     7
370
    15
100
AcDbLine
 10
2352.317791659617
 20
891.5913543376793
 30
0.0
 11
2352.317791659617
 21
893.2361678379328
 31
0.0
  0
LINE
  5
C4F
330
BCD
100
AcDbEntity
  8
0
  6
Continuous
 62
     7
370
    15
100
AcDbLine
 10
2349.065100466159
 20
889.7136156804872
 30
0.0
 11
2352.317791659617
 21
891.5913543376793
 31
0.0
  0
LINE
  5
C50
330
BCD
100
AcDbEntity
  8
0
  6
Continuous
 62
     7
370
    15
100
AcDbLine
 10
2349.065100466159
 20
891.3584291807406
 30
0.0
 11
2349.065100466159
 21
889.7136156804872
 31
0.0
  0
ARC
  5
C51
330
BCD
100
AcDbEntity
  8
0
  6
Continuous
 62
     7
370
    15
100
AcDbCircle
 10
2348.814770679475
 20
891.383064127371
 30
0.0
 40
0.2515390281773623
100
AcDbArc
 50
354.3796210363644
 51
54.30196147122972
  0
LINE
  5
C52
330
BCD
100
AcDbEntity
  8
0
  6
Continuous
 62
     7
370
    15
100
AcDbLine
 10
2348.921166483337
 20
891.61065865118
 30
0.0
 11
2348.961547075565
 21
891.5873398534063
 31
0.0
  0
ARC
  5
C53
330
BCD
100
AcDbEntity
  8
0
  6
Continuous
 62
     7
370
    15
100
AcDbCircle
 10
2349.067942879427
 20
891.8149343772153
 30
0.0
 40
0.2515390281772372
100
AcDbArc
 50
174.3796210363514
 51
234.3019614712221
  0
LINE
  5
C54
330
BCD
100
AcDbEntity
  8
0
  6
Continuous
 62
     7
370
    15
100
AcDbLine
 10
2348.817613092743
 20
894.8472214310491
 30
0.0
 11
2348.817613092744
 21
891.8395693238458
 31
0.0
  0
LINE
  5
C55
330
BCD
100
AcDbEntity
  8
0
  6
Continuous
 62
     7
370
    15
100
AcDbLine
 10
2346.767003427302
 20
893.6634296689062
 30
0.0
 11
2348.817613092743
 21
894.8472214310491
 31
0.0
  0
LINE
  5
C56
330
BCD
100
AcDbEntity
  8
0
  6
Continuous
 62
     7
370
    15
100
AcDbLine
 10
2346.767003427302
 20
890.6557775617031
 30
0.0
 11
2346.767003427302
 21
893.6634296689062
 31
0.0
  0
ARC
  5
C57
330
BCD
100
AcDbEntity
  8
0
  6
Continuous
 62
     7
370
    15
100
AcDbCircle
 10
2346.046020852264
 20
890.68040677472
 30
0.0
 40
0.7214031269988278
100
AcDbArc
 50
328.8562722006371
 51
358.043501356988
  0
LINE
  5
C58
330
BCD
100
AcDbEntity
  8
0
  6
Continuous
 62
     7
370
    15
100
AcDbLine
 10
2346.62306944448
 20
890.2373654519941
 30
0.0
 11
2346.663450036709
 21
890.3073066891691
 31
0.0
  0
ARC
  5
C59
330
BCD
100
AcDbEntity
  8
0
  6
Continuous
 62
     7
370
    15
100
AcDbCircle
 10
2347.240498628928
 20
889.8642653664424
 30
0.0
 40
0.7214031269999827
100
AcDbArc
 50
148.8562722006371
 51
178.043501356962
  0
LINE
  5
C5A
330
BCD
100
AcDbEntity
  8
0
  6
Continuous
 62
     7
370
    15
100
AcDbLine
 10
2346.519516053887
 20
888.2440810792063
 30
0.0
 11
2346.519516053887
 21
889.8888945794597
 31
0.0
  0
LINE
  5
C5B
330
BCD
100
AcDbEntity
  8
0
  6
Continuous
 62
     7
370
    15
100
AcDbLine
 10
2343.266824860429
 20
886.3663424220142
 30
0.0
 11
2346.519516053887
 21
888.2440810792063
 31
0.0
  0
LINE
  5
C5C
330
BCD
100
AcDbEntity
  8
0
  6
Continuous
 62
     7
370
    15
100
AcDbLine
 10
2343.266824860429
 20
888.0111559222676
 30
0.0
 11
2343.266824860429
 21
886.3663424220142
 31
0.0
  0
ARC
  5
C5D
330
BCD
100
AcDbEntity
  8
0
  6
Continuous
 62
     7
370
    15
100
AcDbCircle
 10
2343.016495073746
 20
888.035790868898
 30
0.0
 40
0.2515390281773954
100
AcDbArc
 50
354.3796210363773
 51
54.30196147122972
  0
LINE
  5
C5E
330
BCD
100
AcDbEntity
  8
0
  6
Continuous
 62
     7
370
    15
100
AcDbLine
 10
2343.122890877607
 20
888.2633853927071
 30
0.0
 11
2343.163271469836
 21
888.2400665949333
 31
0.0
  0
ARC
  5
C5F
330
BCD
100
AcDbEntity
  8
0
  6
Continuous
 62
     7
370
    15
100
AcDbCircle
 10
2343.269667273697
 20
888.4676611187421
 30
0.0
 40
0.2515390281772108
100
AcDbArc
 50
174.3796210363384
 51
234.3019614711971
  0
LINE
  5
C60
330
BCD
100
AcDbEntity
  8
0
  6
Continuous
 62
     7
370
    15
100
AcDbLine
 10
2343.019337487014
 20
891.4999481725761
 30
0.0
 11
2343.019337487014
 21
888.4922960653728
 31
0.0
  0
LINE
  5
C61
330
BCD
100
AcDbEntity
  8
0
  6
Continuous
 62
     7
370
    15
100
AcDbLine
 10
2340.968727821572
 20
890.316156410433
 30
0.0
 11
2343.019337487014
 21
891.4999481725761
 31
0.0
  0
LINE
  5
C62
330
BCD
100
AcDbEntity
  8
0
  6
Continuous
 62
     7
370
    15
100
AcDbLine
 10
2340.968727821572
 20
887.3085043032295
 30
0.0
 11
2340.968727821572
 21
890.316156410433
 31
0.0
  0
ARC
  5
C63
330
BCD
100
AcDbEntity
  8
0
  6
Continuous
 62
     7
370
    15
100
AcDbCircle
 10
2340.247745246532
 20
887.3331335162472
 30
0.0
 40
0.7214031270006207
100
AcDbArc
 50
328.8562722006482
 51
358.0435013569425
  0
LINE
  5
C64
330
BCD
100
AcDbEntity
  8
0
  6
Continuous
 62
     7
370
    15
100
AcDbLine
 10
2340.82479383875
 20
886.8900921935207
 30
0.0
 11
2340.865174430979
 21
886.9600334306953
 31
0.0
  0
ARC
  5
C65
330
BCD
100
AcDbEntity
  8
0
  6
Continuous
 62
     7
370
    15
100
AcDbCircle
 10
2341.442223023198
 20
886.5169921079692
 30
0.0
 40
0.7214031270001506
100
AcDbArc
 50
148.8562722006427
 51
178.043501356962
  0
LINE
  5
C66
330
BCD
100
AcDbEntity
  8
0
  6
Continuous
 62
     7
370
    15
100
AcDbLine
 10
2340.721240448157
 20
884.8968078207333
 30
0.0
 11
2340.721240448157
 21
886.5416213209865
 31
0.0
  0
LINE
  5
C67
330
BCD
100
AcDbEntity
  8
0
  6
Continuous
 62
     7
370
    15
100
AcDbLine
 10
2337.468549254699
 20
883.019069163541
 30
0.0
 11
2340.721240448157
 21
884.8968078207333
 31
0.0
  0
LINE
  5
C68
330
BCD
100
AcDbEntity
  8
0
  6
Continuous
 62
     7
370
    15
100
AcDbLine
 10
2337.468549254699
 20
884.6638826637942
 30
0.0
 11
2337.468549254699
 21
883.019069163541
 31
0.0
  0
ARC
  5
C69
330
BCD
100
AcDbEntity
  8
0
  6
Continuous
 62
     7
370
    15
100
AcDbCircle
 10
2337.218219468016
 20
884.6885176104247
 30
0.0
 40
0.2515390281771352
100
AcDbArc
 50
354.3796210363255
 51
54.30196147122972
  0
LINE
  5
C6A
330
BCD
100
AcDbEntity
  8
0
  6
Continuous
 62
     7
370
    15
100
AcDbLine
 10
2337.324615271877
 20
884.9161121342341
 30
0.0
 11
2337.364995864106
 21
884.8927933364599
 31
0.0
  0
ARC
  5
C6B
330
BCD
100
AcDbEntity
  8
0
  6
Continuous
 62
     7
370
    15
100
AcDbCircle
 10
2337.471391667967
 20
885.1203878602692
 30
0.0
 40
0.25153902817728
100
AcDbArc
 50
174.3796210363449
 51
234.3019614712221
  0
LINE
  5
C6C
330
BCD
100
AcDbEntity
  8
0
  6
Continuous
 62
     7
370
    15
100
AcDbLine
 10
2337.221061881284
 20
888.1526749141029
 30
0.0
 11
2337.221061881284
 21
885.1450228068998
 31
0.0
  0
LINE
  5
C6D
330
BCD
100
AcDbEntity
  8
0
  6
Continuous
 62
     7
370
    15
100
AcDbLine
 10
2337.221061881284
 20
888.1526749141029
 30
0.0
 11
2336.40788908292
 21
887.6832402498049
 31
0.0
  0
LINE
  5
C6E
330
BCD
100
AcDbEntity
  8
0
  6
Continuous
 62
     7
370
    15
100
AcDbLine
 10
2393.966381071505
 20
920.9110504009887
 30
0.0
 11
2393.966381071505
 21
925.5789814505591
 31
0.0
  0
LINE
  5
C6F
330
BCD
100
AcDbEntity
  8
0
  6
Continuous
 62
     7
370
    15
100
AcDbLine
 10
2393.966381071505
 20
920.9110504009887
 30
0.0
 11
2393.15320827314
 21
920.4416157366907
 31
0.0
  0
LINE
  5
C70
330
BCD
100
AcDbEntity
  8
0
  6
Continuous
 62
     7
370
    15
100
AcDbLine
 10
2393.15320827314
 20
917.4339636294876
 30
0.0
 11
2393.15320827314
 21
920.4416157366907
 31
0.0
  0
ARC
  5
C71
330
BCD
100
AcDbEntity
  8
0
  6
Continuous
 62
     7
370
    15
100
AcDbCircle
 10
2392.4322256981
 20
917.4585928425051
 30
0.0
 40
0.7214031270003792
100
AcDbArc
 50
328.8562722006539
 51
358.043501356949
  0
LINE
  5
C72
330
BCD
100
AcDbEntity
  8
0
  6
Continuous
 62
     7
370
    15
100
AcDbLine
 10
2393.009274290318
 20
917.0155515197784
 30
0.0
 11
2393.049654882547
 21
917.0854927569534
 31
0.0
  0
ARC
  5
C73
330
BCD
100
AcDbEntity
  8
0
  6
Continuous
 62
     7
370
    15
100
AcDbCircle
 10
2393.626703474764
 20
916.6424514342269
 30
0.0
 40
0.7214031269991235
100
AcDbArc
 50
148.8562722006069
 51
178.0435013569685
  0
LINE
  5
C74
330
BCD
100
AcDbEntity
  8
0
  6
Continuous
 62
     7
370
    15
100
AcDbLine
 10
2392.905720899725
 20
915.0222671469908
 30
0.0
 11
2392.905720899725
 21
916.667080647244
 31
0.0
  0
LINE
  5
C75
330
BCD
100
AcDbEntity
  8
0
  6
Continuous
 62
     7
370
    15
100
AcDbLine
 10
2389.653029706267
 20
913.1445284897987
 30
0.0
 11
2392.905720899725
 21
915.0222671469908
 31
0.0
  0
LINE
  5
C76
330
BCD
100
AcDbEntity
  8
0
  6
Continuous
 62
     7
370
    15
100
AcDbLine
 10
2389.653029706267
 20
914.7893419900519
 30
0.0
 11
2389.653029706267
 21
913.1445284897987
 31
0.0
  0
ARC
  5
C77
330
BCD
100
AcDbEntity
  8
0
  6
Continuous
 62
     7
370
    15
100
AcDbCircle
 10
2389.402699919584
 20
914.8139769366826
 30
0.0
 40
0.2515390281770233
100
AcDbArc
 50
354.3796210363255
 51
54.30196147126228
  0
LINE
  5
C78
330
BCD
100
AcDbEntity
  8
0
  6
Continuous
 62
     7
370
    15
100
AcDbLine
 10
2389.509095723445
 20
915.0415714604914
 30
0.0
 11
2389.549476315673
 21
915.0182526627176
 31
0.0
  0
ARC
  5
C79
330
BCD
100
AcDbEntity
  8
0
  6
Continuous
 62
     7
370
    15
100
AcDbCircle
 10
2389.655872119535
 20
915.2458471865264
 30
0.0
 40
0.2515390281768747
100
AcDbArc
 50
174.3796210363125
 51
234.3019614712585
  0
LINE
  5
C7A
330
BCD
100
AcDbEntity
  8
0
  6
Continuous
 62
     7
370
    15
100
AcDbLine
 10
2389.405542332851
 20
918.2781342403604
 30
0.0
 11
2389.405542332851
 21
915.2704821331571
 31
0.0
  0
LINE
  5
C7B
330
BCD
100
AcDbEntity
  8
0
  6
Continuous
 62
     7
370
    15
100
AcDbLine
 10
2389.405542332851
 20
918.2781342403604
 30
0.0
 11
2387.35493266741
 21
917.0943424782178
 31
0.0
  0
LINE
  5
C7C
330
BCD
100
AcDbEntity
  8
0
  6
Continuous
 62
     7
370
    15
100
AcDbLine
 10
2387.35493266741
 20
914.0866903710145
 30
0.0
 11
2387.35493266741
 21
917.0943424782176
 31
0.0
  0
ARC
  5
C7D
330
BCD
100
AcDbEntity
  8
0
  6
Continuous
 62
     7
370
    15
100
AcDbCircle
 10
2386.63395009237
 20
914.1113195840318
 30
0.0
 40
0.7214031269999756
100
AcDbArc
 50
328.8562722006482
 51
358.0435013569555
  0
LINE
  5
C7E
330
BCD
100
AcDbEntity
  8
0
  6
Continuous
 62
     7
370
    15
100
AcDbLine
 10
2387.210998684588
 20
913.6682782613053
 30
0.0
 11
2387.251379276817
 21
913.7382194984803
 31
0.0
  0
ARC
  5
C7F
330
BCD
100
AcDbEntity
  8
0
  6
Continuous
 62
     7
370
    15
100
AcDbCircle
 10
2387.828427869035
 20
913.2951781757538
 30
0.0
 40
0.7214031269991735
100
AcDbArc
 50
148.8562722006069
 51
178.0435013569685
  0
LINE
  5
C80
330
BCD
100
AcDbEntity
  8
0
  6
Continuous
 62
     7
370
    15
100
AcDbLine
 10
2387.107445293995
 20
911.6749938885178
 30
0.0
 11
2387.107445293995
 21
913.319807388771
 31
0.0
  0
LINE
  5
C81
330
BCD
100
AcDbEntity
  8
0
  6
Continuous
 62
     7
370
    15
100
AcDbLine
 10
2383.854754100537
 20
909.7972552313256
 30
0.0
 11
2387.107445293995
 21
911.6749938885178
 31
0.0
  0
LINE
  5
C82
330
BCD
100
AcDbEntity
  8
0
  6
Continuous
 62
     7
370
    15
100
AcDbLine
 10
2383.854754100537
 20
911.4420687315789
 30
0.0
 11
2383.854754100537
 21
909.7972552313256
 31
0.0
  0
ARC
  5
C83
330
BCD
100
AcDbEntity
  8
0
  6
Continuous
 62
     7
370
    15
100
AcDbCircle
 10
2383.604424313854
 20
911.4667036782094
 30
0.0
 40
0.2515390281770248
100
AcDbArc
 50
354.379621036319
 51
54.30196147126228
  0
LINE
  5
C84
330
BCD
100
AcDbEntity
  8
0
  6
Continuous
 62
     7
370
    15
100
AcDbLine
 10
2383.710820117715
 20
911.6942982020184
 30
0.0
 11
2383.751200709943
 21
911.6709794042446
 31
0.0
  0
ARC
  5
C85
330
BCD
100
AcDbEntity
  8
0
  6
Continuous
 62
     7
370
    15
100
AcDbCircle
 10
2383.857596513805
 20
911.8985739280535
 30
0.0
 40
0.2515390281771268
100
AcDbArc
 50
174.3796210363449
 51
234.3019614712547
  0
LINE
  5
C86
330
BCD
100
AcDbEntity
  8
0
  6
Continuous
 62
     7
370
    15
100
AcDbLine
 10
2383.607266727121
 20
914.9308609818874
 30
0.0
 11
2383.607266727122
 21
911.9232088746841
 31
0.0
  0
LINE
  5
C87
330
BCD
100
AcDbEntity
  8
0
  6
Continuous
 62
     7
370
    15
100
AcDbLine
 10
2383.607266727121
 20
914.9308609818877
 30
0.0
 11
2381.556657061681
 21
913.7470692197448
 31
0.0
  0
LINE
  5
C88
330
BCD
100
AcDbEntity
  8
0
  6
Continuous
 62
     7
370
    15
100
AcDbLine
 10
2381.556657061681
 20
910.7394171125415
 30
0.0
 11
2381.556657061681
 21
913.7470692197446
 31
0.0
  0
LINE
  5
C89
330
BCD
100
AcDbEntity
  8
0
  6
Continuous
 62
     7
370
    15
100
AcDbLine
 10
2337.221061881284
 20
885.1450228068998
 30
0.0
 11
2335.099741537725
 21
886.3696349746339
 31
0.0
  0
LINE
  5
C8A
330
BCD
100
AcDbEntity
  8
0
  6
Continuous
 62
     7
370
    15
100
AcDbLine
 10
2335.099741537725
 20
886.3696349746339
 30
0.0
 11
2335.099741537725
 21
888.438417753241
 31
0.0
  0
LINE
  5
C8B
330
BCD
100
AcDbEntity
  8
0
  6
Continuous
 62
     7
370
    15
100
AcDbLine
 10
2340.226265701327
 20
887.859785463808
 30
0.0
 11
2339.978778327912
 21
888.002656883377
 31
0.0
  0
LINE
  5
C8C
330
BCD
100
AcDbEntity
  8
0
  6
Continuous
 62
     7
370
    15
100
AcDbLine
 10
2340.226265701327
 20
887.859785463808
 30
0.0
 11
2338.45849874836
 21
886.8392753240296
 31
0.0
  0
LINE
  5
C8D
330
BCD
100
AcDbEntity
  8
0
  6
Continuous
 62
     7
370
    15
100
AcDbLine
 10
2338.45849874836
 20
886.8392753240296
 30
0.0
 11
2338.211011374946
 21
886.9821467435986
 31
0.0
  0
LINE
  5
C8E
330
BCD
100
AcDbEntity
  8
0
  6
Continuous
 62
     7
370
    15
100
AcDbLine
 10
2339.978778327912
 20
886.9411538279257
 30
0.0
 11
2340.226265701327
 21
887.859785463808
 31
0.0
  0
LINE
  5
C8F
330
BCD
100
AcDbEntity
  8
0
  6
Continuous
 62
     7
370
    15
100
AcDbLine
 10
2338.211011374946
 20
885.9206436881473
 30
0.0
 11
2338.45849874836
 21
886.8392753240296
 31
0.0
  0
LINE
  5
C90
330
BCD
100
AcDbEntity
  8
0
  6
Continuous
 62
     7
370
    15
100
AcDbLine
 10
2335.203294928318
 20
886.140724301968
 30
0.0
 11
2337.324615271877
 21
884.9161121342341
 31
0.0
  0
ARC
  5
C91
330
BCD
100
AcDbEntity
  8
0
  6
Continuous
 62
     7
370
    15
100
AcDbCircle
 10
2335.350071324407
 20
886.3450000280032
 30
0.0
 40
0.2515390281773147
100
AcDbArc
 50
174.3796210363255
 51
234.3019614712221
  0
LINE
  5
C92
330
BCD
100
AcDbEntity
  8
0
  6
Continuous
 62
     7
370
    15
100
AcDbLine
 10
2335.243675520546
 20
886.117405504194
 30
0.0
 11
2337.364995864106
 21
884.8927933364599
 31
0.0
  0
LINE
  5
C93
330
BCD
100
AcDbEntity
  8
0
  6
Continuous
 62
     7
370
    15
100
AcDbLine
 10
2335.243675520546
 20
886.117405504194
 30
0.0
 11
2335.203294928318
 21
886.140724301968
 31
0.0
  0
LINE
  5
C94
330
BCD
100
AcDbEntity
  8
0
  6
Continuous
 62
     7
370
    15
100
AcDbLine
 10
2335.34722891114
 20
885.8884948315283
 30
0.0
 11
2337.468549254699
 21
884.6638826637942
 31
0.0
  0
ARC
  5
C95
330
BCD
100
AcDbEntity
  8
0
  6
Continuous
 62
     7
370
    15
100
AcDbCircle
 10
2335.096899124456
 20
885.9131297781587
 30
0.0
 40
0.2515390281773147
100
AcDbArc
 50
354.3796210363514
 51
54.30196147122212
  0
LINE
  5
C96
330
BCD
100
AcDbEntity
  8
0
  6
Continuous
 62
     7
370
    15
100
AcDbLine
 10
2337.468549254699
 20
883.0190691635412
 30
0.0
 11
2335.34722891114
 21
884.2436813312751
 31
0.0
  0
LINE
  5
C97
330
BCD
100
AcDbEntity
  8
0
  6
Continuous
 62
     7
370
    15
100
AcDbLine
 10
2335.34722891114
 20
884.2436813312751
 30
0.0
 11
2335.34722891114
 21
885.8884948315283
 31
0.0
  0
LINE
  5
C98
330
BCD
100
AcDbEntity
  8
0
  6
Continuous
 62
     7
370
    15
100
AcDbLine
 10
2337.468549254699
 20
883.019069163541
 30
0.0
 11
2337.468549254699
 21
883.0190227185191
 31
0.0
  0
LINE
  5
C99
330
BCD
100
AcDbEntity
  8
0
  6
Continuous
 62
     7
370
    15
100
AcDbLine
 10
2337.468549254699
 20
883.0190227185191
 30
0.0
 11
2335.84220365797
 21
883.9578920471151
 31
0.0
  0
LINE
  5
C9A
330
BCD
100
AcDbEntity
  8
0
  6
Continuous
 62
     7
370
    15
100
AcDbLine
 10
2335.84220365797
 20
883.9578920471151
 30
0.0
 11
2335.34722891114
 21
884.2436813312751
 31
0.0
  0
LINE
  5
C9B
330
BCD
100
AcDbEntity
  8
0
  6
Continuous
 62
     7
370
    15
100
AcDbLine
 10
2340.226265701327
 20
884.6110185365736
 30
0.0
 11
2340.721240448157
 21
884.8968078207333
 31
0.0
  0
LINE
  5
C9C
330
BCD
100
AcDbEntity
  8
0
  6
Continuous
 62
     7
370
    15
100
AcDbLine
 10
2337.468549254699
 20
883.0190227185191
 30
0.0
 11
2340.226265701327
 21
884.6110185365736
 31
0.0
  0
LINE
  5
C9D
330
BCD
100
AcDbEntity
  8
0
  6
Continuous
 62
     7
370
    15
100
AcDbLine
 10
2337.645325949996
 20
882.0595441370345
 30
0.0
 11
2337.753372233752
 21
881.997170345086
 31
0.0
  0
ARC
  5
C9E
330
BCD
100
AcDbEntity
  8
0
  6
Continuous
 62
     7
370
    15
100
AcDbCircle
 10
2337.546344903706
 20
881.6735189150714
 30
0.0
 40
0.3842012018932805
100
AcDbArc
 50
2.605478485675888
 51
57.39452165996985
  0
LINE
  5
C9F
330
BCD
100
AcDbEntity
  8
0
  6
Continuous
 62
     7
370
    15
100
AcDbLine
 10
2337.930148929048
 20
876.9811014139612
 30
0.0
 11
2337.930148929048
 21
881.6909841281367
 31
0.0
  0
LINE
  5
CA0
330
BCD
100
AcDbEntity
  8
0
  6
Continuous
 62
     7
370
    15
100
AcDbLine
 10
2336.024071154501
 20
878.0814566914868
 30
0.0
 11
2337.930148929048
 21
876.9811014139612
 31
0.0
  0
LINE
  5
CA1
330
BCD
100
AcDbEntity
  8
0
  6
Continuous
 62
     7
370
    15
100
AcDbLine
 10
2336.024071154501
 20
882.791339405662
 30
0.0
 11
2336.024071154501
 21
878.0814566914868
 31
0.0
  0
ARC
  5
CA2
330
BCD
100
AcDbEntity
  8
0
  6
Continuous
 62
     7
370
    15
100
AcDbCircle
 10
2336.131839746357
 20
882.8088212048873
 30
0.0
 40
0.1091772993571784
100
AcDbArc
 50
50.79671476432927
 51
189.2140369904499
  0
LINE
  5
CA3
330
BCD
100
AcDbEntity
  8
0
  6
Continuous
 62
     7
370
    15
100
AcDbLine
 10
2336.200847849797
 20
882.8934235946558
 30
0.0
 11
2336.308894133554
 21
882.8310498027066
 31
0.0
  0
ARC
  5
CA4
330
BCD
100
AcDbEntity
  8
0
  6
Continuous
 62
     7
370
    15
100
AcDbCircle
 10
2336.377902236994
 20
882.9156521924751
 30
0.0
 40
0.1091772993570776
100
AcDbArc
 50
230.7967147642967
 51
9.214036990494944
  0
LINE
  5
CA5
330
BCD
100
AcDbEntity
  8
0
  6
Continuous
 62
     7
370
    15
100
AcDbLine
 10
2336.48567082885
 20
882.9331339917004
 30
0.0
 11
2336.48567082885
 21
883.5864263562356
 31
0.0
  0
LINE
  5
CA6
330
BCD
100
AcDbEntity
  8
0
  6
Continuous
 62
     7
370
    15
100
AcDbLine
 10
2337.468549254699
 20
883.0190227185191
 30
0.0
 11
2337.468549254699
 21
882.3657303539839
 31
0.0
  0
ARC
  5
CA7
330
BCD
100
AcDbEntity
  8
0
  6
Continuous
 62
     7
370
    15
100
AcDbCircle
 10
2337.852353280041
 20
882.3831955670488
 30
0.0
 40
0.3842012018926622
100
AcDbArc
 50
182.6054784856173
 51
237.3945216600058
  0
LINE
  5
CA8
330
BCD
100
AcDbEntity
  8
0
  6
Continuous
 62
     7
370
    15
100
AcDbLine
 10
2337.468549254699
 20
882.3657303539839
 30
0.0
 11
2339.589869598258
 21
883.5903425217173
 31
0.0
  0
LINE
  5
CA9
330
BCD
100
AcDbEntity
  8
0
  6
Continuous
 62
     7
370
    15
100
AcDbLine
 10
2339.589869598258
 20
883.5903425217173
 30
0.0
 11
2339.589869598259
 21
884.2436348862531
 31
0.0
  0
LINE
  5
CAA
330
BCD
100
AcDbEntity
  8
0
  6
Continuous
 62
     7
370
    15
100
AcDbLine
 10
2339.874692577311
 20
883.2217825128198
 30
0.0
 11
2337.753372233752
 21
881.997170345086
 31
0.0
  0
ARC
  5
CAB
330
BCD
100
AcDbEntity
  8
0
  6
Continuous
 62
     7
370
    15
100
AcDbCircle
 10
2339.667665247266
 20
882.8981310828057
 30
0.0
 40
0.3842012018924939
100
AcDbArc
 50
2.605478485617325
 51
57.39452166000233
  0
LINE
  5
CAC
330
BCD
100
AcDbEntity
  8
0
  6
Continuous
 62
     7
370
    15
100
AcDbLine
 10
2337.930148929048
 20
881.6909841281367
 30
0.0
 11
2340.051469272607
 21
882.9155962958706
 31
0.0
  0
ARC
  5
CAD
330
BCD
100
AcDbEntity
  8
0
  6
Continuous
 62
     7
370
    15
100
AcDbCircle
 10
2339.973673623597
 20
883.6078077347806
 30
0.0
 40
0.3842012018898642
100
AcDbArc
 50
182.6054784854026
 51
237.3945216602157
  0
LINE
  5
CAE
330
BCD
100
AcDbEntity
  8
0
  6
Continuous
 62
     7
370
    15
100
AcDbLine
 10
2339.766646293554
 20
883.2841563047681
 30
0.0
 11
2337.645325949996
 21
882.0595441370345
 31
0.0
  0
LINE
  5
CAF
330
BCD
100
AcDbEntity
  8
0
  6
Continuous
 62
     7
370
    15
100
AcDbLine
 10
2340.051469272607
 20
882.9155962958706
 30
0.0
 11
2340.051469272607
 21
878.2057135816952
 31
0.0
  0
LINE
  5
CB0
330
BCD
100
AcDbEntity
  8
0
  6
Continuous
 62
     7
370
    15
100
AcDbLine
 10
2340.051469272607
 20
878.2057135816952
 30
0.0
 11
2339.811065678483
 21
876.492531547292
 31
0.0
  0
ARC
  5
CB1
330
BCD
100
AcDbEntity
  8
0
  6
Continuous
 62
     7
370
    15
100
AcDbCircle
 10
2338.728834696539
 20
876.6579504933028
 30
0.0
 40
1.09480013060744
100
AcDbArc
 50
302.9067666138728
 51
351.3096048990302
  0
LINE
  5
CB2
330
BCD
100
AcDbEntity
  8
0
  6
Continuous
 62
     7
370
    15
100
AcDbLine
 10
2338.658007491396
 20
875.3545602330293
 30
0.0
 11
2339.323610710259
 21
875.7388047924035
 31
0.0
  0
LWPOLYLINE
  5
CB3
330
BCD
100
AcDbEntity
  8
0
  6
Continuous
 62
     7
370
    15
100
AcDbPolyline
 90
        9
 70
   128
 43
0.0
 10
2338.658007491396
 20
875.3545602330293
 10
2338.572056028618
 20
875.3136250725143
 10
2338.488716157542
 20
875.2913008317033
 10
2338.410520117981
 20
875.2882658213563
 10
2338.339843857026
 20
875.3046122587273
 10
2338.278834837102
 20
875.3398434655881
 10
2338.229346786409
 20
875.3928889595464
 10
2338.192883374324
 20
875.4621369801101
 10
2338.170552523172
 20
875.5454834612164
  0
LINE
  5
CB4
330
BCD
100
AcDbEntity
  8
0
  6
Continuous
 62
     7
370
    15
100
AcDbLine
 10
2338.170552523172
 20
875.5454834612164
 30
0.0
 11
2337.930148929048
 21
876.9811014139612
 31
0.0
  0
LINE
  5
CB5
330
BCD
100
AcDbEntity
  8
0
  6
Continuous
 62
     7
370
    15
100
AcDbLine
 10
2339.874692577311
 20
883.2217825128198
 30
0.0
 11
2339.766646293554
 21
883.2841563047681
 31
0.0
  0
LINE
  5
CB6
330
BCD
100
AcDbEntity
  8
0
  6
Continuous
 62
     7
370
    15
100
AcDbLine
 10
2346.024541307057
 20
891.2070587222812
 30
0.0
 11
2344.25677435409
 21
890.1865485825029
 31
0.0
  0
LINE
  5
CB7
330
BCD
100
AcDbEntity
  8
0
  6
Continuous
 62
     7
370
    15
100
AcDbLine
 10
2345.777053933641
 20
890.2884270863987
 30
0.0
 11
2346.024541307057
 21
891.2070587222812
 31
0.0
  0
LINE
  5
CB8
330
BCD
100
AcDbEntity
  8
0
  6
Continuous
 62
     7
370
    15
100
AcDbLine
 10
2344.009286980675
 20
889.2679169466203
 30
0.0
 11
2344.25677435409
 21
890.1865485825029
 31
0.0
  0
LINE
  5
CB9
330
BCD
100
AcDbEntity
  8
0
  6
Continuous
 62
     7
370
    15
100
AcDbLine
 10
2344.25677435409
 20
890.1865485825029
 30
0.0
 11
2344.009286980675
 21
890.3294200020717
 31
0.0
  0
LINE
  5
CBA
330
BCD
100
AcDbEntity
  8
0
  6
Continuous
 62
     7
370
    15
100
AcDbLine
 10
2346.024541307057
 20
891.2070587222812
 30
0.0
 11
2345.777053933641
 21
891.34993014185
 31
0.0
  0
LINE
  5
CBB
330
BCD
100
AcDbEntity
  8
0
  6
Continuous
 62
     7
370
    15
100
AcDbLine
 10
2341.001570534047
 20
889.4879975604411
 30
0.0
 11
2343.122890877607
 21
888.2633853927071
 31
0.0
  0
LWPOLYLINE
  5
CBC
330
BCD
100
AcDbEntity
  8
0
  6
Continuous
 62
     7
370
    15
100
AcDbPolyline
 90
        3
 70
   128
 43
0.0
 10
2340.968727821572
 20
889.5127663951326
 10
2340.978270067297
 20
889.5042332562473
 10
2341.001570534047
 20
889.4879975604411
  0
LINE
  5
CBD
330
BCD
100
AcDbEntity
  8
0
  6
Continuous
 62
     7
370
    15
100
AcDbLine
 10
2341.041951126276
 20
889.4646787626673
 30
0.0
 11
2343.163271469836
 21
888.2400665949333
 31
0.0
  0
LINE
  5
CBE
330
BCD
100
AcDbEntity
  8
0
  6
Continuous
 62
     7
370
    15
100
AcDbLine
 10
2341.041951126276
 20
889.4646787626673
 30
0.0
 11
2341.001570534047
 21
889.4879975604411
 31
0.0
  0
LINE
  5
CBF
330
BCD
100
AcDbEntity
  8
0
  6
Continuous
 62
     7
370
    15
100
AcDbLine
 10
2341.14550451687
 20
889.2357680900015
 30
0.0
 11
2343.266824860429
 21
888.0111559222676
 31
0.0
  0
ARC
  5
CC0
330
BCD
100
AcDbEntity
  8
0
  6
Continuous
 62
     7
370
    15
100
AcDbCircle
 10
2340.895174730186
 20
889.2604030366319
 30
0.0
 40
0.2515390281773508
100
AcDbArc
 50
354.3796210363709
 51
54.30196147122972
  0
LINE
  5
CC1
330
BCD
100
AcDbEntity
  8
0
  6
Continuous
 62
     7
370
    15
100
AcDbLine
 10
2343.266824860429
 20
886.3663424220142
 30
0.0
 11
2341.14550451687
 21
887.5909545897483
 31
0.0
  0
LINE
  5
CC2
330
BCD
100
AcDbEntity
  8
0
  6
Continuous
 62
     7
370
    15
100
AcDbLine
 10
2341.14550451687
 20
887.5909545897483
 30
0.0
 11
2341.14550451687
 21
889.2357680900015
 31
0.0
  0
LINE
  5
CC3
330
BCD
100
AcDbEntity
  8
0
  6
Continuous
 62
     7
370
    15
100
AcDbLine
 10
2343.266824860429
 20
886.3662959769921
 30
0.0
 11
2346.024541307057
 21
887.9582917950466
 31
0.0
  0
LINE
  5
CC4
330
BCD
100
AcDbEntity
  8
0
  6
Continuous
 62
     7
370
    15
100
AcDbLine
 10
2343.266824860429
 20
886.3663424220142
 30
0.0
 11
2343.266824860429
 21
886.3662959769921
 31
0.0
  0
LINE
  5
CC5
330
BCD
100
AcDbEntity
  8
0
  6
Continuous
 62
     7
370
    15
100
AcDbLine
 10
2346.024541307057
 20
887.9582917950466
 30
0.0
 11
2346.519516053887
 21
888.2440810792065
 31
0.0
  0
LINE
  5
CC6
330
BCD
100
AcDbEntity
  8
0
  6
Continuous
 62
     7
370
    15
100
AcDbLine
 10
2343.266824860429
 20
886.3662959769921
 30
0.0
 11
2341.6404792637
 21
887.3051653055881
 31
0.0
  0
LINE
  5
CC7
330
BCD
100
AcDbEntity
  8
0
  6
Continuous
 62
     7
370
    15
100
AcDbLine
 10
2341.6404792637
 20
887.3051653055881
 30
0.0
 11
2341.145504516869
 21
887.5909545897483
 31
0.0
  0
LINE
  5
CC8
330
BCD
100
AcDbEntity
  8
0
  6
Continuous
 62
     7
370
    15
100
AcDbLine
 10
2338.170552523172
 20
875.5454834612164
 30
0.0
 11
2336.264474748626
 21
876.6458387387414
 31
0.0
  0
LINE
  5
CC9
330
BCD
100
AcDbEntity
  8
0
  6
Continuous
 62
     7
370
    15
100
AcDbLine
 10
2336.024071154501
 20
878.0814566914868
 30
0.0
 11
2336.264474748626
 21
876.6458387387414
 31
0.0
  0
LINE
  5
CCA
330
BCD
100
AcDbEntity
  8
0
  6
Continuous
 62
     7
370
    15
100
AcDbLine
 10
2343.443601555726
 20
885.4068173955077
 30
0.0
 11
2343.551647839481
 21
885.3444436035591
 31
0.0
  0
ARC
  5
CCB
330
BCD
100
AcDbEntity
  8
0
  6
Continuous
 62
     7
370
    15
100
AcDbCircle
 10
2343.344620509435
 20
885.0207921735446
 30
0.0
 40
0.3842012018931307
100
AcDbArc
 50
2.605478485662874
 51
57.39452165996985
  0
LINE
  5
CCC
330
BCD
100
AcDbEntity
  8
0
  6
Continuous
 62
     7
370
    15
100
AcDbLine
 10
2343.728424534778
 20
880.3283746724343
 30
0.0
 11
2343.728424534778
 21
885.0382573866097
 31
0.0
  0
LINE
  5
CCD
330
BCD
100
AcDbEntity
  8
0
  6
Continuous
 62
     7
370
    15
100
AcDbLine
 10
2343.728424534778
 20
880.3283746724343
 30
0.0
 11
2341.822346760231
 21
881.4287299499596
 31
0.0
  0
LINE
  5
CCE
330
BCD
100
AcDbEntity
  8
0
  6
Continuous
 62
     7
370
    15
100
AcDbLine
 10
2341.82234676023
 20
886.1386126641352
 30
0.0
 11
2341.822346760231
 21
881.4287299499596
 31
0.0
  0
ARC
  5
CCF
330
BCD
100
AcDbEntity
  8
0
  6
Continuous
 62
     7
370
    15
100
AcDbCircle
 10
2341.930115352087
 20
886.1560944633604
 30
0.0
 40
0.1091772993571875
100
AcDbArc
 50
50.79671476426829
 51
189.2140369904756
  0
LINE
  5
CD0
330
BCD
100
AcDbEntity
  8
0
  6
Continuous
 62
     7
370
    15
100
AcDbLine
 10
2341.999123455527
 20
886.2406968531288
 30
0.0
 11
2342.107169739283
 21
886.1783230611798
 31
0.0
  0
ARC
  5
CD1
330
BCD
100
AcDbEntity
  8
0
  6
Continuous
 62
     7
370
    15
100
AcDbCircle
 10
2342.176177842723
 20
886.2629254509482
 30
0.0
 40
0.1091772993570555
100
AcDbArc
 50
230.7967147642926
 51
9.214036990501373
  0
LINE
  5
CD2
330
BCD
100
AcDbEntity
  8
0
  6
Continuous
 62
     7
370
    15
100
AcDbLine
 10
2342.28394643458
 20
886.2804072501734
 30
0.0
 11
2342.28394643458
 21
886.9336996147087
 31
0.0
  0
LINE
  5
CD3
330
BCD
100
AcDbEntity
  8
0
  6
Continuous
 62
     7
370
    15
100
AcDbLine
 10
2343.266824860429
 20
886.3662959769921
 30
0.0
 11
2343.266824860429
 21
885.7130036124569
 31
0.0
  0
ARC
  5
CD4
330
BCD
100
AcDbEntity
  8
0
  6
Continuous
 62
     7
370
    15
100
AcDbCircle
 10
2343.65062888577
 20
885.730468825522
 30
0.0
 40
0.3842012018927242
100
AcDbArc
 50
182.6054784856368
 51
237.3945216600313
  0
LINE
  5
CD5
330
BCD
100
AcDbEntity
  8
0
  6
Continuous
 62
     7
370
    15
100
AcDbLine
 10
2343.266824860429
 20
885.7130036124569
 30
0.0
 11
2345.388145203988
 21
886.9376157801905
 31
0.0
  0
LINE
  5
CD6
330
BCD
100
AcDbEntity
  8
0
  6
Continuous
 62
     7
370
    15
100
AcDbLine
 10
2345.388145203988
 20
886.9376157801905
 30
0.0
 11
2345.388145203989
 21
887.5909081447259
 31
0.0
  0
LINE
  5
CD7
330
BCD
100
AcDbEntity
  8
0
  6
Continuous
 62
     7
370
    15
100
AcDbLine
 10
2345.672968183041
 20
886.5690557712929
 30
0.0
 11
2343.551647839481
 21
885.3444436035591
 31
0.0
  0
ARC
  5
CD8
330
BCD
100
AcDbEntity
  8
0
  6
Continuous
 62
     7
370
    15
100
AcDbCircle
 10
2345.465940852996
 20
886.2454043412787
 30
0.0
 40
0.3842012018925538
100
AcDbArc
 50
2.605478485636846
 51
57.39452166000584
  0
LINE
  5
CD9
330
BCD
100
AcDbEntity
  8
0
  6
Continuous
 62
     7
370
    15
100
AcDbLine
 10
2343.728424534778
 20
885.0382573866097
 30
0.0
 11
2345.849744878337
 21
886.2628695543437
 31
0.0
  0
ARC
  5
CDA
330
BCD
100
AcDbEntity
  8
0
  6
Continuous
 62
     7
370
    15
100
AcDbCircle
 10
2336.565476001739
 20
876.674604390967
 30
0.0
 40
0.302372646124261
100
AcDbArc
 50
185.4589815370907
 51
237.2630757801307
  0
ARC
  5
CDB
330
BCD
100
AcDbEntity
  8
0
  6
Continuous
 62
     7
370
    15
100
AcDbCircle
 10
2345.771949229327
 20
886.955080993254
 30
0.0
 40
0.3842012018903311
100
AcDbArc
 50
182.6054784854416
 51
237.3945216601832
  0
LINE
  5
CDC
330
BCD
100
AcDbEntity
  8
0
  6
Continuous
 62
     7
370
    15
100
AcDbLine
 10
2345.564921899284
 20
886.6314295632411
 30
0.0
 11
2343.443601555726
 21
885.4068173955077
 31
0.0
  0
LINE
  5
CDD
330
BCD
100
AcDbEntity
  8
0
  6
Continuous
 62
     7
370
    15
100
AcDbLine
 10
2345.849744878337
 20
886.2628695543437
 30
0.0
 11
2345.849744878337
 21
881.5529868401688
 31
0.0
  0
LINE
  5
CDE
330
BCD
100
AcDbEntity
  8
0
  6
Continuous
 62
     7
370
    15
100
AcDbLine
 10
2345.849744878337
 20
881.5529868401688
 30
0.0
 11
2345.609341284213
 21
879.8398048057652
 31
0.0
  0
ARC
  5
CDF
330
BCD
100
AcDbEntity
  8
0
  6
Continuous
 62
     7
370
    15
100
AcDbCircle
 10
2344.527110302269
 20
880.0052237517759
 30
0.0
 40
1.094800130607259
100
AcDbArc
 50
302.9067666138693
 51
351.3096048990367
  0
LINE
  5
CE0
330
BCD
100
AcDbEntity
  8
0
  6
Continuous
 62
     7
370
    15
100
AcDbLine
 10
2344.456283097126
 20
878.7018334915023
 30
0.0
 11
2345.121886315989
 21
879.0860780508765
 31
0.0
  0
LWPOLYLINE
  5
CE1
330
BCD
100
AcDbEntity
  8
0
  6
Continuous
 62
     7
370
    15
100
AcDbPolyline
 90
        9
 70
   128
 43
0.0
 10
2344.456283097126
 20
878.7018334915023
 10
2344.370331634348
 20
878.6608983309875
 10
2344.286991763272
 20
878.6385740901764
 10
2344.20879572371
 20
878.6355390798293
 10
2344.138119462755
 20
878.6518855172003
 10
2344.077110442832
 20
878.6871167240612
 10
2344.027622392139
 20
878.7401622180194
 10
2343.991158980054
 20
878.8094102385834
 10
2343.968828128902
 20
878.8927567196893
  0
LINE
  5
CE2
330
BCD
100
AcDbEntity
  8
0
  6
Continuous
 62
     7
370
    15
100
AcDbLine
 10
2343.968828128902
 20
878.8927567196893
 30
0.0
 11
2343.728424534778
 21
880.3283746724343
 31
0.0
  0
LINE
  5
CE3
330
BCD
100
AcDbEntity
  8
0
  6
Continuous
 62
     7
370
    15
100
AcDbLine
 10
2345.672968183041
 20
886.5690557712929
 30
0.0
 11
2345.564921899284
 21
886.6314295632411
 31
0.0
  0
LINE
  5
CE4
330
BCD
100
AcDbEntity
  8
0
  6
Continuous
 62
     7
370
    15
100
AcDbLine
 10
2350.05504995982
 20
893.5338218409759
 30
0.0
 11
2349.807562586405
 21
893.6766932605447
 31
0.0
  0
LINE
  5
CE5
330
BCD
100
AcDbEntity
  8
0
  6
Continuous
 62
     7
370
    15
100
AcDbLine
 10
2349.807562586405
 20
892.6151902050932
 30
0.0
 11
2350.05504995982
 21
893.5338218409759
 31
0.0
  0
LINE
  5
CE6
330
BCD
100
AcDbEntity
  8
0
  6
Continuous
 62
     7
370
    15
100
AcDbLine
 10
2351.822816912787
 20
894.5543319807542
 30
0.0
 11
2351.575329539371
 21
894.6972034003232
 31
0.0
  0
LINE
  5
CE7
330
BCD
100
AcDbEntity
  8
0
  6
Continuous
 62
     7
370
    15
100
AcDbLine
 10
2351.822816912787
 20
894.5543319807542
 30
0.0
 11
2350.05504995982
 21
893.5338218409759
 31
0.0
  0
LINE
  5
CE8
330
BCD
100
AcDbEntity
  8
0
  6
Continuous
 62
     7
370
    15
100
AcDbLine
 10
2351.575329539371
 20
893.6357003448717
 30
0.0
 11
2351.822816912787
 21
894.5543319807542
 31
0.0
  0
LINE
  5
CE9
330
BCD
100
AcDbEntity
  8
0
  6
Continuous
 62
     7
370
    15
100
AcDbLine
 10
2346.799846139777
 20
892.8352708189141
 30
0.0
 11
2348.921166483337
 21
891.61065865118
 31
0.0
  0
LWPOLYLINE
  5
CEA
330
BCD
100
AcDbEntity
  8
0
  6
Continuous
 62
     7
370
    15
100
AcDbPolyline
 90
        3
 70
   128
 43
0.0
 10
2346.767003427302
 20
892.8600396536053
 10
2346.776545673026
 20
892.8515065147204
 10
2346.799846139777
 20
892.8352708189141
  0
LINE
  5
CEB
330
BCD
100
AcDbEntity
  8
0
  6
Continuous
 62
     7
370
    15
100
AcDbLine
 10
2346.840226732006
 20
892.8119520211403
 30
0.0
 11
2348.961547075565
 21
891.5873398534063
 31
0.0
  0
LINE
  5
CEC
330
BCD
100
AcDbEntity
  8
0
  6
Continuous
 62
     7
370
    15
100
AcDbLine
 10
2346.840226732006
 20
892.8119520211403
 30
0.0
 11
2346.799846139777
 21
892.8352708189141
 31
0.0
  0
LINE
  5
CED
330
BCD
100
AcDbEntity
  8
0
  6
Continuous
 62
     7
370
    15
100
AcDbLine
 10
2346.943780122599
 20
892.5830413484746
 30
0.0
 11
2349.065100466159
 21
891.3584291807406
 31
0.0
  0
ARC
  5
CEE
330
BCD
100
AcDbEntity
  8
0
  6
Continuous
 62
     7
370
    15
100
AcDbCircle
 10
2346.693450335916
 20
892.6076762951053
 30
0.0
 40
0.2515390281768041
100
AcDbArc
 50
354.3796210362995
 51
54.30196147131599
  0
LINE
  5
CEF
330
BCD
100
AcDbEntity
  8
0
  6
Continuous
 62
     7
370
    15
100
AcDbLine
 10
2349.065100466159
 20
889.7136156804872
 30
0.0
 11
2346.943780122599
 21
890.9382278482214
 31
0.0
  0
LINE
  5
CF0
330
BCD
100
AcDbEntity
  8
0
  6
Continuous
 62
     7
370
    15
100
AcDbLine
 10
2346.943780122599
 20
890.9382278482214
 30
0.0
 11
2346.943780122599
 21
892.5830413484746
 31
0.0
  0
LINE
  5
CF1
330
BCD
100
AcDbEntity
  8
0
  6
Continuous
 62
     7
370
    15
100
AcDbLine
 10
2349.065100466159
 20
889.7136156804872
 30
0.0
 11
2349.065100466159
 21
889.713569235465
 31
0.0
  0
LINE
  5
CF2
330
BCD
100
AcDbEntity
  8
0
  6
Continuous
 62
     7
370
    15
100
AcDbLine
 10
2349.065100466159
 20
889.7135692354652
 30
0.0
 11
2347.438754869429
 21
890.6524385640611
 31
0.0
  0
LINE
  5
CF3
330
BCD
100
AcDbEntity
  8
0
  6
Continuous
 62
     7
370
    15
100
AcDbLine
 10
2347.438754869429
 20
890.6524385640611
 30
0.0
 11
2346.943780122599
 21
890.9382278482214
 31
0.0
  0
LINE
  5
CF4
330
BCD
100
AcDbEntity
  8
0
  6
Continuous
 62
     7
370
    15
100
AcDbLine
 10
2349.065100466159
 20
889.7135692354652
 30
0.0
 11
2351.822816912787
 21
891.3055650535197
 31
0.0
  0
LINE
  5
CF5
330
BCD
100
AcDbEntity
  8
0
  6
Continuous
 62
     7
370
    15
100
AcDbLine
 10
2351.822816912787
 20
891.3055650535197
 30
0.0
 11
2352.317791659617
 21
891.5913543376795
 31
0.0
  0
LINE
  5
CF6
330
BCD
100
AcDbEntity
  8
0
  6
Continuous
 62
     7
370
    15
100
AcDbLine
 10
2343.968828128902
 20
878.8927567196893
 30
0.0
 11
2342.062750354355
 21
879.9931119972146
 31
0.0
  0
LINE
  5
CF7
330
BCD
100
AcDbEntity
  8
0
  6
Continuous
 62
     7
370
    15
100
AcDbLine
 10
2341.822346760231
 20
881.4287299499596
 30
0.0
 11
2342.062750354355
 21
879.9931119972146
 31
0.0
  0
LINE
  5
CF8
330
BCD
100
AcDbEntity
  8
0
  6
Continuous
 62
     7
370
    15
100
AcDbLine
 10
2349.241877161455
 20
888.7540906539808
 30
0.0
 11
2349.349923445211
 21
888.6917168620321
 31
0.0
  0
ARC
  5
CF9
330
BCD
100
AcDbEntity
  8
0
  6
Continuous
 62
     7
370
    15
100
AcDbCircle
 10
2349.142896115166
 20
888.3680654320176
 30
0.0
 40
0.3842012018930727
100
AcDbArc
 50
2.605478485656367
 51
57.39452165996985
  0
LINE
  5
CFA
330
BCD
100
AcDbEntity
  8
0
  6
Continuous
 62
     7
370
    15
100
AcDbLine
 10
2349.526700140507
 20
883.6756479309073
 30
0.0
 11
2349.526700140507
 21
888.3855306450827
 31
0.0
  0
LINE
  5
CFB
330
BCD
100
AcDbEntity
  8
0
  6
Continuous
 62
     7
370
    15
100
AcDbLine
 10
2349.526700140507
 20
883.6756479309073
 30
0.0
 11
2347.62062236596
 21
884.7760032084327
 31
0.0
  0
LINE
  5
CFC
330
BCD
100
AcDbEntity
  8
0
  6
Continuous
 62
     7
370
    15
100
AcDbLine
 10
2347.62062236596
 20
889.4858859226083
 30
0.0
 11
2347.62062236596
 21
884.7760032084327
 31
0.0
  0
ARC
  5
CFD
330
BCD
100
AcDbEntity
  8
0
  6
Continuous
 62
     7
370
    15
100
AcDbCircle
 10
2347.728390957817
 20
889.5033677218336
 30
0.0
 40
0.1091772993571291
100
AcDbArc
 50
50.79671476429672
 51
189.2140369904756
  0
LINE
  5
CFE
330
BCD
100
AcDbEntity
  8
0
  6
Continuous
 62
     7
370
    15
100
AcDbLine
 10
2347.797399061256
 20
889.5879701116019
 30
0.0
 11
2347.905445345013
 21
889.5255963196529
 31
0.0
  0
ARC
  5
CFF
330
BCD
100
AcDbEntity
  8
0
  6
Continuous
 62
     7
370
    15
100
AcDbCircle
 10
2347.974453448453
 20
889.6101987094212
 30
0.0
 40
0.1091772993571245
100
AcDbArc
 50
230.7967147642683
 51
9.214036990488514
  0
LINE
  5
D00
330
BCD
100
AcDbEntity
  8
0
  6
Continuous
 62
     7
370
    15
100
AcDbLine
 10
2348.08222204031
 20
889.6276805086465
 30
0.0
 11
2348.08222204031
 21
890.2809728731817
 31
0.0
  0
LINE
  5
D01
330
BCD
100
AcDbEntity
  8
0
  6
Continuous
 62
     7
370
    15
100
AcDbLine
 10
2349.065100466159
 20
889.713569235465
 30
0.0
 11
2349.065100466159
 21
889.06027687093
 31
0.0
  0
ARC
  5
D02
330
BCD
100
AcDbEntity
  8
0
  6
Continuous
 62
     7
370
    15
100
AcDbCircle
 10
2349.448904491501
 20
889.0777420839951
 30
0.0
 40
0.3842012018928545
100
AcDbArc
 50
182.6054784856498
 51
237.3945216600313
  0
LINE
  5
D03
330
BCD
100
AcDbEntity
  8
0
  6
Continuous
 62
     7
370
    15
100
AcDbLine
 10
2349.065100466159
 20
889.06027687093
 30
0.0
 11
2351.186420809717
 21
890.2848890386636
 31
0.0
  0
LINE
  5
D04
330
BCD
100
AcDbEntity
  8
0
  6
Continuous
 62
     7
370
    15
100
AcDbLine
 10
2351.186420809717
 20
890.2848890386636
 30
0.0
 11
2351.186420809717
 21
890.9381814031991
 31
0.0
  0
LINE
  5
D05
330
BCD
100
AcDbEntity
  8
0
  6
Continuous
 62
     7
370
    15
100
AcDbLine
 10
2351.47124378877
 20
889.9163290297661
 30
0.0
 11
2349.349923445211
 21
888.6917168620321
 31
0.0
  0
ARC
  5
D06
330
BCD
100
AcDbEntity
  8
0
  6
Continuous
 62
     7
370
    15
100
AcDbCircle
 10
2351.264216458726
 20
889.5926775997518
 30
0.0
 40
0.3842012018927229
100
AcDbArc
 50
2.605478485630339
 51
57.39452165999882
  0
LINE
  5
D07
330
BCD
100
AcDbEntity
  8
0
  6
Continuous
 62
     7
370
    15
100
AcDbLine
 10
2349.526700140507
 20
888.3855306450827
 30
0.0
 11
2351.648020484067
 21
889.6101428128167
 31
0.0
  0
ARC
  5
D08
330
BCD
100
AcDbEntity
  8
0
  6
Continuous
 62
     7
370
    15
100
AcDbCircle
 10
2342.363751607469
 20
880.02187764944
 30
0.0
 40
0.3023726461245507
100
AcDbArc
 50
185.4589815370972
 51
237.2630757800728
  0
ARC
  5
D09
330
BCD
100
AcDbEntity
  8
0
  6
Continuous
 62
     7
370
    15
100
AcDbCircle
 10
2351.570224835056
 20
890.3023542517267
 30
0.0
 40
0.3842012018898706
100
AcDbArc
 50
182.605478485396
 51
237.3945216602157
  0
LINE
  5
D0A
330
BCD
100
AcDbEntity
  8
0
  6
Continuous
 62
     7
370
    15
100
AcDbLine
 10
2351.363197505014
 20
889.9787028217142
 30
0.0
 11
2349.241877161455
 21
888.7540906539808
 31
0.0
  0
LINE
  5
D0B
330
BCD
100
AcDbEntity
  8
0
  6
Continuous
 62
     7
370
    15
100
AcDbLine
 10
2351.648020484067
 20
889.6101428128167
 30
0.0
 11
2351.648020484067
 21
884.9002600986418
 31
0.0
  0
LINE
  5
D0C
330
BCD
100
AcDbEntity
  8
0
  6
Continuous
 62
     7
370
    15
100
AcDbLine
 10
2351.648020484067
 20
884.9002600986418
 30
0.0
 11
2351.407616889943
 21
883.1870780642383
 31
0.0
  0
ARC
  5
D0D
330
BCD
100
AcDbEntity
  8
0
  6
Continuous
 62
     7
370
    15
100
AcDbCircle
 10
2350.325385907999
 20
883.3524970102491
 30
0.0
 40
1.094800130607811
100
AcDbArc
 50
302.9067666138764
 51
351.3096048990238
  0
LINE
  5
D0E
330
BCD
100
AcDbEntity
  8
0
  6
Continuous
 62
     7
370
    15
100
AcDbLine
 10
2350.254558702856
 20
882.0491067499753
 30
0.0
 11
2350.920161921719
 21
882.4333513093495
 31
0.0
  0
LWPOLYLINE
  5
D0F
330
BCD
100
AcDbEntity
  8
0
  6
Continuous
 62
     7
370
    15
100
AcDbPolyline
 90
        9
 70
   128
 43
0.0
 10
2350.254558702856
 20
882.0491067499753
 10
2350.168607240077
 20
882.0081715894605
 10
2350.085267369002
 20
881.9858473486494
 10
2350.00707132944
 20
881.9828123383025
 10
2349.936395068485
 20
881.9991587756733
 10
2349.875386048562
 20
882.0343899825344
 10
2349.825897997869
 20
882.0874354764924
 10
2349.789434585784
 20
882.1566834970564
 10
2349.767103734631
 20
882.2400299781623
  0
LINE
  5
D10
330
BCD
100
AcDbEntity
  8
0
  6
Continuous
 62
     7
370
    15
100
AcDbLine
 10
2349.767103734631
 20
882.2400299781623
 30
0.0
 11
2349.526700140507
 21
883.6756479309073
 31
0.0
  0
LINE
  5
D11
330
BCD
100
AcDbEntity
  8
0
  6
Continuous
 62
     7
370
    15
100
AcDbLine
 10
2351.47124378877
 20
889.9163290297661
 30
0.0
 11
2351.363197505014
 21
889.9787028217142
 31
0.0
  0
LINE
  5
D12
330
BCD
100
AcDbEntity
  8
0
  6
Continuous
 62
     7
370
    15
100
AcDbLine
 10
2357.621092518516
 20
897.9016052392273
 30
0.0
 11
2355.85332556555
 21
896.8810950994489
 31
0.0
  0
LINE
  5
D13
330
BCD
100
AcDbEntity
  8
0
  6
Continuous
 62
     7
370
    15
100
AcDbLine
 10
2357.373605145101
 20
896.9829736033448
 30
0.0
 11
2357.621092518516
 21
897.9016052392273
 31
0.0
  0
LINE
  5
D14
330
BCD
100
AcDbEntity
  8
0
  6
Continuous
 62
     7
370
    15
100
AcDbLine
 10
2355.605838192134
 20
895.9624634635664
 30
0.0
 11
2355.85332556555
 21
896.8810950994489
 31
0.0
  0
LINE
  5
D15
330
BCD
100
AcDbEntity
  8
0
  6
Continuous
 62
     7
370
    15
100
AcDbLine
 10
2357.621092518516
 20
897.9016052392273
 30
0.0
 11
2357.373605145101
 21
898.0444766587963
 31
0.0
  0
LINE
  5
D16
330
BCD
100
AcDbEntity
  8
0
  6
Continuous
 62
     7
370
    15
100
AcDbLine
 10
2355.85332556555
 20
896.8810950994489
 30
0.0
 11
2355.605838192134
 21
897.0239665190179
 31
0.0
  0
LINE
  5
D17
330
BCD
100
AcDbEntity
  8
0
  6
Continuous
 62
     7
370
    15
100
AcDbLine
 10
2352.598121745507
 20
896.1825440773871
 30
0.0
 11
2354.719442089066
 21
894.9579319096532
 31
0.0
  0
LWPOLYLINE
  5
D18
330
BCD
100
AcDbEntity
  8
0
  6
Continuous
 62
     7
370
    15
100
AcDbPolyline
 90
        3
 70
   128
 43
0.0
 10
2352.565279033032
 20
896.2073129120783
 10
2352.574821278756
 20
896.1987797731934
 10
2352.598121745507
 20
896.1825440773871
  0
LINE
  5
D19
330
BCD
100
AcDbEntity
  8
0
  6
Continuous
 62
     7
370
    15
100
AcDbLine
 10
2352.638502337736
 20
896.1592252796133
 30
0.0
 11
2354.759822681295
 21
894.9346131118794
 31
0.0
  0
LINE
  5
D1A
330
BCD
100
AcDbEntity
  8
0
  6
Continuous
 62
     7
370
    15
100
AcDbLine
 10
2352.638502337736
 20
896.1592252796133
 30
0.0
 11
2352.598121745507
 21
896.1825440773871
 31
0.0
  0
LINE
  5
D1B
330
BCD
100
AcDbEntity
  8
0
  6
Continuous
 62
     7
370
    15
100
AcDbLine
 10
2352.742055728329
 20
895.9303146069476
 30
0.0
 11
2354.863376071889
 21
894.7057024392135
 31
0.0
  0
ARC
  5
D1C
330
BCD
100
AcDbEntity
  8
0
  6
Continuous
 62
     7
370
    15
100
AcDbCircle
 10
2352.491725941646
 20
895.9549495535782
 30
0.0
 40
0.2515390281770248
100
AcDbArc
 50
354.3796210363255
 51
54.30196147128724
  0
LINE
  5
D1D
330
BCD
100
AcDbEntity
  8
0
  6
Continuous
 62
     7
370
    15
100
AcDbLine
 10
2354.863376071889
 20
893.0608889389603
 30
0.0
 11
2352.742055728329
 21
894.2855011066944
 31
0.0
  0
LINE
  5
D1E
330
BCD
100
AcDbEntity
  8
0
  6
Continuous
 62
     7
370
    15
100
AcDbLine
 10
2352.742055728329
 20
894.2855011066944
 30
0.0
 11
2352.742055728329
 21
895.9303146069476
 31
0.0
  0
LINE
  5
D1F
330
BCD
100
AcDbEntity
  8
0
  6
Continuous
 62
     7
370
    15
100
AcDbLine
 10
2354.863376071889
 20
893.0608424939382
 30
0.0
 11
2357.621092518516
 21
894.6528383119927
 31
0.0
  0
LINE
  5
D20
330
BCD
100
AcDbEntity
  8
0
  6
Continuous
 62
     7
370
    15
100
AcDbLine
 10
2354.863376071889
 20
893.0608889389603
 30
0.0
 11
2354.863376071889
 21
893.0608424939382
 31
0.0
  0
LINE
  5
D21
330
BCD
100
AcDbEntity
  8
0
  6
Continuous
 62
     7
370
    15
100
AcDbLine
 10
2357.621092518516
 20
894.6528383119927
 30
0.0
 11
2358.116067265346
 21
894.9386275961526
 31
0.0
  0
LINE
  5
D22
330
BCD
100
AcDbEntity
  8
0
  6
Continuous
 62
     7
370
    15
100
AcDbLine
 10
2354.863376071889
 20
893.0608424939382
 30
0.0
 11
2353.23703047516
 21
893.9997118225342
 31
0.0
  0
LINE
  5
D23
330
BCD
100
AcDbEntity
  8
0
  6
Continuous
 62
     7
370
    15
100
AcDbLine
 10
2353.23703047516
 20
893.9997118225342
 30
0.0
 11
2352.742055728329
 21
894.2855011066944
 31
0.0
  0
LINE
  5
D24
330
BCD
100
AcDbEntity
  8
0
  6
Continuous
 62
     7
370
    15
100
AcDbLine
 10
2349.767103734631
 20
882.2400299781623
 30
0.0
 11
2347.861025960085
 21
883.3403852556877
 31
0.0
  0
LINE
  5
D25
330
BCD
100
AcDbEntity
  8
0
  6
Continuous
 62
     7
370
    15
100
AcDbLine
 10
2347.62062236596
 20
884.7760032084327
 30
0.0
 11
2347.861025960085
 21
883.3403852556877
 31
0.0
  0
LINE
  5
D26
330
BCD
100
AcDbEntity
  8
0
  6
Continuous
 62
     7
370
    15
100
AcDbLine
 10
2355.040152767185
 20
892.1013639124536
 30
0.0
 11
2355.14819905094
 21
892.0389901205052
 31
0.0
  0
ARC
  5
D27
330
BCD
100
AcDbEntity
  8
0
  6
Continuous
 62
     7
370
    15
100
AcDbCircle
 10
2354.941171720895
 20
891.7153386904907
 30
0.0
 40
0.3842012018932436
100
AcDbArc
 50
2.605478485662874
 51
57.39452165994439
  0
LINE
  5
D28
330
BCD
100
AcDbEntity
  8
0
  6
Continuous
 62
     7
370
    15
100
AcDbLine
 10
2355.324975746237
 20
887.0229211893803
 30
0.0
 11
2355.324975746237
 21
891.732803903556
 31
0.0
  0
LINE
  5
D29
330
BCD
100
AcDbEntity
  8
0
  6
Continuous
 62
     7
370
    15
100
AcDbLine
 10
2355.324975746237
 20
887.0229211893803
 30
0.0
 11
2353.41889797169
 21
888.1232764669057
 31
0.0
  0
LINE
  5
D2A
330
BCD
100
AcDbEntity
  8
0
  6
Continuous
 62
     7
370
    15
100
AcDbLine
 10
2353.41889797169
 20
892.8331591810813
 30
0.0
 11
2353.41889797169
 21
888.1232764669057
 31
0.0
  0
ARC
  5
D2B
330
BCD
100
AcDbEntity
  8
0
  6
Continuous
 62
     7
370
    15
100
AcDbCircle
 10
2353.526666563547
 20
892.8506409803064
 30
0.0
 40
0.1091772993571575
100
AcDbArc
 50
50.79671476429261
 51
189.2140369904564
  0
LINE
  5
D2C
330
BCD
100
AcDbEntity
  8
0
  6
Continuous
 62
     7
370
    15
100
AcDbLine
 10
2353.595674666987
 20
892.9352433700749
 30
0.0
 11
2353.703720950742
 21
892.8728695781259
 31
0.0
  0
ARC
  5
D2D
330
BCD
100
AcDbEntity
  8
0
  6
Continuous
 62
     7
370
    15
100
AcDbCircle
 10
2353.772729054182
 20
892.9574719678942
 30
0.0
 40
0.1091772993571135
100
AcDbArc
 50
230.7967147642683
 51
9.214036990501373
  0
LINE
  5
D2E
330
BCD
100
AcDbEntity
  8
0
  6
Continuous
 62
     7
370
    15
100
AcDbLine
 10
2353.88049764604
 20
892.9749537671195
 30
0.0
 11
2353.88049764604
 21
893.6282461316549
 31
0.0
  0
LINE
  5
D2F
330
BCD
100
AcDbEntity
  8
0
  6
Continuous
 62
     7
370
    15
100
AcDbLine
 10
2354.863376071888
 20
893.060842493938
 30
0.0
 11
2354.863376071888
 21
892.407550129403
 31
0.0
  0
ARC
  5
D30
330
BCD
100
AcDbEntity
  8
0
  6
Continuous
 62
     7
370
    15
100
AcDbCircle
 10
2355.24718009723
 20
892.4250153424679
 30
0.0
 40
0.3842012018925506
100
AcDbArc
 50
182.6054784856238
 51
237.3945216600602
  0
LINE
  5
D31
330
BCD
100
AcDbEntity
  8
0
  6
Continuous
 62
     7
370
    15
100
AcDbLine
 10
2354.863376071888
 20
892.407550129403
 30
0.0
 11
2356.984696415447
 21
893.6321622971366
 31
0.0
  0
LINE
  5
D32
330
BCD
100
AcDbEntity
  8
0
  6
Continuous
 62
     7
370
    15
100
AcDbLine
 10
2356.984696415447
 20
893.6321622971366
 30
0.0
 11
2356.984696415448
 21
894.2854546616722
 31
0.0
  0
LINE
  5
D33
330
BCD
100
AcDbEntity
  8
0
  6
Continuous
 62
     7
370
    15
100
AcDbLine
 10
2357.2695193945
 20
893.2636022882391
 30
0.0
 11
2355.14819905094
 21
892.0389901205052
 31
0.0
  0
ARC
  5
D34
330
BCD
100
AcDbEntity
  8
0
  6
Continuous
 62
     7
370
    15
100
AcDbCircle
 10
2357.062492064455
 20
892.9399508582246
 30
0.0
 40
0.3842012018930185
100
AcDbArc
 50
2.605478485669381
 51
57.39452165997335
  0
LINE
  5
D35
330
BCD
100
AcDbEntity
  8
0
  6
Continuous
 62
     7
370
    15
100
AcDbLine
 10
2355.324975746237
 20
891.732803903556
 30
0.0
 11
2357.446296089797
 21
892.9574160712899
 31
0.0
  0
ARC
  5
D36
330
BCD
100
AcDbEntity
  8
0
  6
Continuous
 62
     7
370
    15
100
AcDbCircle
 10
2348.162027213199
 20
883.3691509079129
 30
0.0
 40
0.3023726461241936
100
AcDbArc
 50
185.4589815370712
 51
237.2630757801053
  0
ARC
  5
D37
330
BCD
100
AcDbEntity
  8
0
  6
Continuous
 62
     7
370
    15
100
AcDbCircle
 10
2357.368500440786
 20
893.6496275102001
 30
0.0
 40
0.3842012018902165
100
AcDbArc
 50
182.6054784854351
 51
237.3945216601902
  0
LINE
  5
D38
330
BCD
100
AcDbEntity
  8
0
  6
Continuous
 62
     7
370
    15
100
AcDbLine
 10
2357.161473110744
 20
893.3259760801872
 30
0.0
 11
2355.040152767185
 21
892.1013639124536
 31
0.0
  0
LINE
  5
D39
330
BCD
100
AcDbEntity
  8
0
  6
Continuous
 62
     7
370
    15
100
AcDbLine
 10
2357.446296089797
 20
892.9574160712899
 30
0.0
 11
2357.446296089797
 21
888.2475333571148
 31
0.0
  0
LINE
  5
D3A
330
BCD
100
AcDbEntity
  8
0
  6
Continuous
 62
     7
370
    15
100
AcDbLine
 10
2357.446296089797
 20
888.2475333571148
 30
0.0
 11
2357.205892495672
 21
886.5343513227113
 31
0.0
  0
ARC
  5
D3B
330
BCD
100
AcDbEntity
  8
0
  6
Continuous
 62
     7
370
    15
100
AcDbCircle
 10
2356.123661513729
 20
886.6997702687218
 30
0.0
 40
1.094800130607077
100
AcDbArc
 50
302.9067666138693
 51
351.3096048990367
  0
LINE
  5
D3C
330
BCD
100
AcDbEntity
  8
0
  6
Continuous
 62
     7
370
    15
100
AcDbLine
 10
2356.052834308585
 20
885.3963800084484
 30
0.0
 11
2356.718437527448
 21
885.7806245678226
 31
0.0
  0
LWPOLYLINE
  5
D3D
330
BCD
100
AcDbEntity
  8
0
  6
Continuous
 62
     7
370
    15
100
AcDbPolyline
 90
        9
 70
   128
 43
0.0
 10
2356.052834308585
 20
885.3963800084484
 10
2355.966882845807
 20
885.3554448479336
 10
2355.883542974732
 20
885.3331206071224
 10
2355.80534693517
 20
885.3300855967756
 10
2355.734670674215
 20
885.3464320341464
 10
2355.673661654291
 20
885.3816632410072
 10
2355.624173603598
 20
885.4347087349655
 10
2355.587710191513
 20
885.5039567555294
 10
2355.565379340362
 20
885.5873032366355
  0
LINE
  5
D3E
330
BCD
100
AcDbEntity
  8
0
  6
Continuous
 62
     7
370
    15
100
AcDbLine
 10
2355.565379340362
 20
885.5873032366355
 30
0.0
 11
2355.324975746237
 21
887.0229211893803
 31
0.0
  0
LINE
  5
D3F
330
BCD
100
AcDbEntity
  8
0
  6
Continuous
 62
     7
370
    15
100
AcDbLine
 10
2357.2695193945
 20
893.2636022882391
 30
0.0
 11
2357.161473110744
 21
893.3259760801872
 31
0.0
  0
LINE
  5
D40
330
BCD
100
AcDbEntity
  8
0
  6
Continuous
 62
     7
370
    15
100
AcDbLine
 10
2363.419368124246
 20
901.2488784977003
 30
0.0
 11
2363.171880750831
 21
901.3917499172693
 31
0.0
  0
LINE
  5
D41
330
BCD
100
AcDbEntity
  8
0
  6
Continuous
 62
     7
370
    15
100
AcDbLine
 10
2363.419368124246
 20
901.2488784977003
 30
0.0
 11
2361.65160117128
 21
900.228368357922
 31
0.0
  0
LINE
  5
D42
330
BCD
100
AcDbEntity
  8
0
  6
Continuous
 62
     7
370
    15
100
AcDbLine
 10
2361.65160117128
 20
900.228368357922
 30
0.0
 11
2361.404113797864
 21
900.371239777491
 31
0.0
  0
LINE
  5
D43
330
BCD
100
AcDbEntity
  8
0
  6
Continuous
 62
     7
370
    15
100
AcDbLine
 10
2363.171880750831
 20
900.3302468618178
 30
0.0
 11
2363.419368124246
 21
901.2488784977003
 31
0.0
  0
LINE
  5
D44
330
BCD
100
AcDbEntity
  8
0
  6
Continuous
 62
     7
370
    15
100
AcDbLine
 10
2361.404113797864
 20
899.3097367220395
 30
0.0
 11
2361.65160117128
 21
900.228368357922
 31
0.0
  0
LINE
  5
D45
330
BCD
100
AcDbEntity
  8
0
  6
Continuous
 62
     7
370
    15
100
AcDbLine
 10
2358.396397351237
 20
899.5298173358602
 30
0.0
 11
2360.517717694797
 21
898.3052051681262
 31
0.0
  0
LWPOLYLINE
  5
D46
330
BCD
100
AcDbEntity
  8
0
  6
Continuous
 62
     7
370
    15
100
AcDbPolyline
 90
        3
 70
   128
 43
0.0
 10
2358.363554638762
 20
899.5545861705513
 10
2358.373096884486
 20
899.5460530316663
 10
2358.396397351237
 20
899.5298173358602
  0
LINE
  5
D47
330
BCD
100
AcDbEntity
  8
0
  6
Continuous
 62
     7
370
    15
100
AcDbLine
 10
2358.436777943465
 20
899.5064985380864
 30
0.0
 11
2360.558098287025
 21
898.2818863703524
 31
0.0
  0
LINE
  5
D48
330
BCD
100
AcDbEntity
  8
0
  6
Continuous
 62
     7
370
    15
100
AcDbLine
 10
2358.436777943465
 20
899.5064985380864
 30
0.0
 11
2358.396397351237
 21
899.5298173358602
 31
0.0
  0
LINE
  5
D49
330
BCD
100
AcDbEntity
  8
0
  6
Continuous
 62
     7
370
    15
100
AcDbLine
 10
2358.540331334058
 20
899.2775878654207
 30
0.0
 11
2360.661651677618
 21
898.0529756976865
 31
0.0
  0
ARC
  5
D4A
330
BCD
100
AcDbEntity
  8
0
  6
Continuous
 62
     7
370
    15
100
AcDbCircle
 10
2358.290001547376
 20
899.3022228120514
 30
0.0
 40
0.2515390281770911
100
AcDbArc
 50
354.379621036332
 51
54.30196147125847
  0
LINE
  5
D4B
330
BCD
100
AcDbEntity
  8
0
  6
Continuous
 62
     7
370
    15
100
AcDbLine
 10
2360.661651677618
 20
896.4081621974333
 30
0.0
 11
2358.540331334058
 21
897.6327743651674
 31
0.0
  0
LINE
  5
D4C
330
BCD
100
AcDbEntity
  8
0
  6
Continuous
 62
     7
370
    15
100
AcDbLine
 10
2358.540331334058
 20
897.6327743651674
 30
0.0
 11
2358.540331334058
 21
899.2775878654207
 31
0.0
  0
LINE
  5
D4D
330
BCD
100
AcDbEntity
  8
0
  6
Continuous
 62
     7
370
    15
100
AcDbLine
 10
2360.661651677618
 20
896.4081157524113
 30
0.0
 11
2363.419368124246
 21
898.0001115704657
 31
0.0
  0
LINE
  5
D4E
330
BCD
100
AcDbEntity
  8
0
  6
Continuous
 62
     7
370
    15
100
AcDbLine
 10
2360.661651677618
 20
896.4081621974333
 30
0.0
 11
2360.661651677618
 21
896.4081157524113
 31
0.0
  0
LINE
  5
D4F
330
BCD
100
AcDbEntity
  8
0
  6
Continuous
 62
     7
370
    15
100
AcDbLine
 10
2363.419368124246
 20
898.0001115704657
 30
0.0
 11
2363.914342871076
 21
898.2859008546256
 31
0.0
  0
LINE
  5
D50
330
BCD
100
AcDbEntity
  8
0
  6
Continuous
 62
     7
370
    15
100
AcDbLine
 10
2360.661651677618
 20
896.4081157524113
 30
0.0
 11
2359.035306080889
 21
897.3469850810074
 31
0.0
  0
LINE
  5
D51
330
BCD
100
AcDbEntity
  8
0
  6
Continuous
 62
     7
370
    15
100
AcDbLine
 10
2359.035306080889
 20
897.3469850810072
 30
0.0
 11
2358.540331334058
 21
897.6327743651674
 31
0.0
  0
LINE
  5
D52
330
BCD
100
AcDbEntity
  8
0
  6
Continuous
 62
     7
370
    15
100
AcDbLine
 10
2355.565379340362
 20
885.5873032366355
 30
0.0
 11
2353.659301565814
 21
886.6876585141607
 31
0.0
  0
LINE
  5
D53
330
BCD
100
AcDbEntity
  8
0
  6
Continuous
 62
     7
370
    15
100
AcDbLine
 10
2353.41889797169
 20
888.1232764669057
 30
0.0
 11
2353.659301565814
 21
886.6876585141607
 31
0.0
  0
LINE
  5
D54
330
BCD
100
AcDbEntity
  8
0
  6
Continuous
 62
     7
370
    15
100
AcDbLine
 10
2360.838428372915
 20
895.4486371709267
 30
0.0
 11
2360.94647465667
 21
895.3862633789782
 31
0.0
  0
ARC
  5
D55
330
BCD
100
AcDbEntity
  8
0
  6
Continuous
 62
     7
370
    15
100
AcDbCircle
 10
2360.739447326625
 20
895.0626119489639
 30
0.0
 40
0.3842012018928952
100
AcDbArc
 50
2.605478485636846
 51
57.39452165996985
  0
LINE
  5
D56
330
BCD
100
AcDbEntity
  8
0
  6
Continuous
 62
     7
370
    15
100
AcDbLine
 10
2361.123251351967
 20
890.3701944478534
 30
0.0
 11
2361.123251351967
 21
895.080077162029
 31
0.0
  0
LINE
  5
D57
330
BCD
100
AcDbEntity
  8
0
  6
Continuous
 62
     7
370
    15
100
AcDbLine
 10
2361.123251351967
 20
890.3701944478534
 30
0.0
 11
2359.21717357742
 21
891.4705497253789
 31
0.0
  0
LINE
  5
D58
330
BCD
100
AcDbEntity
  8
0
  6
Continuous
 62
     7
370
    15
100
AcDbLine
 10
2359.217173577419
 20
896.1804324395544
 30
0.0
 11
2359.21717357742
 21
891.4705497253789
 31
0.0
  0
ARC
  5
D59
330
BCD
100
AcDbEntity
  8
0
  6
Continuous
 62
     7
370
    15
100
AcDbCircle
 10
2359.324942169276
 20
896.1979142387797
 30
0.0
 40
0.1091772993572016
100
AcDbArc
 50
50.79671476430084
 51
189.2140369904564
  0
LINE
  5
D5A
330
BCD
100
AcDbEntity
  8
0
  6
Continuous
 62
     7
370
    15
100
AcDbLine
 10
2359.393950272716
 20
896.2825166285481
 30
0.0
 11
2359.501996556472
 21
896.220142836599
 31
0.0
  0
ARC
  5
D5B
330
BCD
100
AcDbEntity
  8
0
  6
Continuous
 62
     7
370
    15
100
AcDbCircle
 10
2359.571004659912
 20
896.3047452263674
 30
0.0
 40
0.1091772993571135
100
AcDbArc
 50
230.7967147642683
 51
9.214036990494944
  0
LINE
  5
D5C
330
BCD
100
AcDbEntity
  8
0
  6
Continuous
 62
     7
370
    15
100
AcDbLine
 10
2359.678773251769
 20
896.3222270255926
 30
0.0
 11
2359.678773251769
 21
896.975519390128
 31
0.0
  0
LINE
  5
D5D
330
BCD
100
AcDbEntity
  8
0
  6
Continuous
 62
     7
370
    15
100
AcDbLine
 10
2360.661651677618
 20
896.4081157524113
 30
0.0
 11
2360.661651677618
 21
895.7548233878762
 31
0.0
  0
ARC
  5
D5E
330
BCD
100
AcDbEntity
  8
0
  6
Continuous
 62
     7
370
    15
100
AcDbCircle
 10
2361.04545570296
 20
895.7722886009412
 30
0.0
 40
0.3842012018927281
100
AcDbArc
 50
182.6054784856368
 51
237.3945216600278
  0
LINE
  5
D5F
330
BCD
100
AcDbEntity
  8
0
  6
Continuous
 62
     7
370
    15
100
AcDbLine
 10
2360.661651677618
 20
895.7548233878762
 30
0.0
 11
2362.782972021177
 21
896.9794355556096
 31
0.0
  0
LINE
  5
D60
330
BCD
100
AcDbEntity
  8
0
  6
Continuous
 62
     7
370
    15
100
AcDbLine
 10
2362.782972021177
 20
896.9794355556096
 30
0.0
 11
2362.782972021177
 21
897.6327279201452
 31
0.0
  0
LINE
  5
D61
330
BCD
100
AcDbEntity
  8
0
  6
Continuous
 62
     7
370
    15
100
AcDbLine
 10
2363.06779500023
 20
896.6108755467121
 30
0.0
 11
2360.94647465667
 21
895.3862633789782
 31
0.0
  0
ARC
  5
D62
330
BCD
100
AcDbEntity
  8
0
  6
Continuous
 62
     7
370
    15
100
AcDbCircle
 10
2362.860767670185
 20
896.2872241166978
 30
0.0
 40
0.3842012018927823
100
AcDbArc
 50
2.605478485636846
 51
57.39452165999882
  0
LINE
  5
D63
330
BCD
100
AcDbEntity
  8
0
  6
Continuous
 62
     7
370
    15
100
AcDbLine
 10
2361.123251351967
 20
895.080077162029
 30
0.0
 11
2363.244571695526
 21
896.3046893297629
 31
0.0
  0
ARC
  5
D64
330
BCD
100
AcDbEntity
  8
0
  6
Continuous
 62
     7
370
    15
100
AcDbCircle
 10
2353.960302818929
 20
886.7164241663861
 30
0.0
 40
0.3023726461243741
100
AcDbArc
 50
185.4589815370907
 51
237.2630757800982
  0
ARC
  5
D65
330
BCD
100
AcDbEntity
  8
0
  6
Continuous
 62
     7
370
    15
100
AcDbCircle
 10
2363.166776046516
 20
896.9969007686733
 30
0.0
 40
0.3842012018903111
100
AcDbArc
 50
182.6054784854481
 51
237.3945216602157
  0
LINE
  5
D66
330
BCD
100
AcDbEntity
  8
0
  6
Continuous
 62
     7
370
    15
100
AcDbLine
 10
2362.959748716473
 20
896.6732493386603
 30
0.0
 11
2360.838428372915
 21
895.4486371709267
 31
0.0
  0
LINE
  5
D67
330
BCD
100
AcDbEntity
  8
0
  6
Continuous
 62
     7
370
    15
100
AcDbLine
 10
2363.244571695526
 20
896.3046893297629
 30
0.0
 11
2363.244571695526
 21
891.5948066155879
 31
0.0
  0
LINE
  5
D68
330
BCD
100
AcDbEntity
  8
0
  6
Continuous
 62
     7
370
    15
100
AcDbLine
 10
2363.244571695526
 20
891.5948066155879
 30
0.0
 11
2363.004168101402
 21
889.8816245811842
 31
0.0
  0
ARC
  5
D69
330
BCD
100
AcDbEntity
  8
0
  6
Continuous
 62
     7
370
    15
100
AcDbCircle
 10
2361.921937119459
 20
890.0470435271952
 30
0.0
 40
1.094800130607503
100
AcDbArc
 50
302.9067666138728
 51
351.3096048990302
  0
LINE
  5
D6A
330
BCD
100
AcDbEntity
  8
0
  6
Continuous
 62
     7
370
    15
100
AcDbLine
 10
2361.851109914315
 20
888.7436532669214
 30
0.0
 11
2362.516713133178
 21
889.1278978262956
 31
0.0
  0
LWPOLYLINE
  5
D6B
330
BCD
100
AcDbEntity
  8
0
  6
Continuous
 62
     7
370
    15
100
AcDbPolyline
 90
        9
 70
   128
 43
0.0
 10
2361.851109914315
 20
888.7436532669214
 10
2361.765158451536
 20
888.7027181064066
 10
2361.681818580462
 20
888.6803938655955
 10
2361.6036225409
 20
888.6773588552486
 10
2361.532946279945
 20
888.6937052926196
 10
2361.471937260021
 20
888.7289364994803
 10
2361.422449209328
 20
888.7819819934387
 10
2361.385985797243
 20
888.8512300140025
 10
2361.363654946091
 20
888.9345764951086
  0
LINE
  5
D6C
330
BCD
100
AcDbEntity
  8
0
  6
Continuous
 62
     7
370
    15
100
AcDbLine
 10
2361.363654946091
 20
888.9345764951086
 30
0.0
 11
2361.123251351967
 21
890.3701944478534
 31
0.0
  0
LINE
  5
D6D
330
BCD
100
AcDbEntity
  8
0
  6
Continuous
 62
     7
370
    15
100
AcDbLine
 10
2363.06779500023
 20
896.6108755467121
 30
0.0
 11
2362.959748716473
 21
896.6732493386603
 31
0.0
  0
LINE
  5
D6E
330
BCD
100
AcDbEntity
  8
0
  6
Continuous
 62
     7
370
    15
100
AcDbLine
 10
2369.217643729975
 20
904.5961517561734
 30
0.0
 11
2368.970156356561
 21
904.7390231757423
 31
0.0
  0
LINE
  5
D6F
330
BCD
100
AcDbEntity
  8
0
  6
Continuous
 62
     7
370
    15
100
AcDbLine
 10
2369.217643729975
 20
904.5961517561734
 30
0.0
 11
2367.449876777009
 21
903.575641616395
 31
0.0
  0
LINE
  5
D70
330
BCD
100
AcDbEntity
  8
0
  6
Continuous
 62
     7
370
    15
100
AcDbLine
 10
2367.449876777009
 20
903.575641616395
 30
0.0
 11
2367.202389403594
 21
903.718513035964
 31
0.0
  0
LINE
  5
D71
330
BCD
100
AcDbEntity
  8
0
  6
Continuous
 62
     7
370
    15
100
AcDbLine
 10
2368.970156356561
 20
903.6775201202909
 30
0.0
 11
2369.217643729975
 21
904.5961517561734
 31
0.0
  0
LINE
  5
D72
330
BCD
100
AcDbEntity
  8
0
  6
Continuous
 62
     7
370
    15
100
AcDbLine
 10
2367.202389403594
 20
902.6570099805125
 30
0.0
 11
2367.449876777009
 21
903.575641616395
 31
0.0
  0
LINE
  5
D73
330
BCD
100
AcDbEntity
  8
0
  6
Continuous
 62
     7
370
    15
100
AcDbLine
 10
2364.194672956966
 20
902.8770905943332
 30
0.0
 11
2366.315993300526
 21
901.6524784265993
 31
0.0
  0
LWPOLYLINE
  5
D74
330
BCD
100
AcDbEntity
  8
0
  6
Continuous
 62
     7
370
    15
100
AcDbPolyline
 90
        3
 70
   128
 43
0.0
 10
2364.161830244492
 20
902.9018594290244
 10
2364.171372490216
 20
902.8933262901393
 10
2364.194672956966
 20
902.8770905943332
  0
LINE
  5
D75
330
BCD
100
AcDbEntity
  8
0
  6
Continuous
 62
     7
370
    15
100
AcDbLine
 10
2364.235053549195
 20
902.8537717965594
 30
0.0
 11
2366.356373892755
 21
901.6291596288253
 31
0.0
  0
LINE
  5
D76
330
BCD
100
AcDbEntity
  8
0
  6
Continuous
 62
     7
370
    15
100
AcDbLine
 10
2364.235053549195
 20
902.8537717965594
 30
0.0
 11
2364.194672956966
 21
902.8770905943332
 31
0.0
  0
LINE
  5
D77
330
BCD
100
AcDbEntity
  8
0
  6
Continuous
 62
     7
370
    15
100
AcDbLine
 10
2364.338606939789
 20
902.6248611238937
 30
0.0
 11
2366.459927283348
 21
901.4002489561596
 31
0.0
  0
ARC
  5
D78
330
BCD
100
AcDbEntity
  8
0
  6
Continuous
 62
     7
370
    15
100
AcDbCircle
 10
2364.088277153105
 20
902.6494960705241
 30
0.0
 40
0.2515390281773462
100
AcDbArc
 50
354.3796210363644
 51
54.30196147122972
  0
LINE
  5
D79
330
BCD
100
AcDbEntity
  8
0
  6
Continuous
 62
     7
370
    15
100
AcDbLine
 10
2366.459927283348
 20
899.7554354559063
 30
0.0
 11
2364.338606939789
 21
900.9800476236405
 31
0.0
  0
LINE
  5
D7A
330
BCD
100
AcDbEntity
  8
0
  6
Continuous
 62
     7
370
    15
100
AcDbLine
 10
2364.338606939789
 20
900.9800476236405
 30
0.0
 11
2364.338606939789
 21
902.6248611238937
 31
0.0
  0
LINE
  5
D7B
330
BCD
100
AcDbEntity
  8
0
  6
Continuous
 62
     7
370
    15
100
AcDbLine
 10
2366.459927283347
 20
899.7553890108843
 30
0.0
 11
2369.217643729975
 21
901.3473848289388
 31
0.0
  0
LINE
  5
D7C
330
BCD
100
AcDbEntity
  8
0
  6
Continuous
 62
     7
370
    15
100
AcDbLine
 10
2366.459927283348
 20
899.7554354559063
 30
0.0
 11
2366.459927283347
 21
899.7553890108843
 31
0.0
  0
LINE
  5
D7D
330
BCD
100
AcDbEntity
  8
0
  6
Continuous
 62
     7
370
    15
100
AcDbLine
 10
2369.217643729975
 20
901.3473848289388
 30
0.0
 11
2369.712618476806
 21
901.6331741130986
 31
0.0
  0
LINE
  5
D7E
330
BCD
100
AcDbEntity
  8
0
  6
Continuous
 62
     7
370
    15
100
AcDbLine
 10
2366.459927283347
 20
899.7553890108843
 30
0.0
 11
2364.833581686619
 21
900.6942583394803
 31
0.0
  0
LINE
  5
D7F
330
BCD
100
AcDbEntity
  8
0
  6
Continuous
 62
     7
370
    15
100
AcDbLine
 10
2364.833581686619
 20
900.6942583394803
 30
0.0
 11
2364.338606939788
 21
900.9800476236405
 31
0.0
  0
LINE
  5
D80
330
BCD
100
AcDbEntity
  8
0
  6
Continuous
 62
     7
370
    15
100
AcDbLine
 10
2361.363654946091
 20
888.9345764951086
 30
0.0
 11
2359.457577171544
 21
890.0349317726337
 31
0.0
  0
LINE
  5
D81
330
BCD
100
AcDbEntity
  8
0
  6
Continuous
 62
     7
370
    15
100
AcDbLine
 10
2359.21717357742
 20
891.4705497253789
 30
0.0
 11
2359.457577171544
 21
890.0349317726337
 31
0.0
  0
LINE
  5
D82
330
BCD
100
AcDbEntity
  8
0
  6
Continuous
 62
     7
370
    15
100
AcDbLine
 10
2366.636703978645
 20
898.7959104293997
 30
0.0
 11
2366.7447502624
 21
898.7335366374512
 31
0.0
  0
ARC
  5
D83
330
BCD
100
AcDbEntity
  8
0
  6
Continuous
 62
     7
370
    15
100
AcDbCircle
 10
2366.537722932355
 20
898.4098852074369
 30
0.0
 40
0.3842012018929066
100
AcDbArc
 50
2.605478485630339
 51
57.39452165996985
  0
LINE
  5
D84
330
BCD
100
AcDbEntity
  8
0
  6
Continuous
 62
     7
370
    15
100
AcDbLine
 10
2366.921526957696
 20
893.7174677063264
 30
0.0
 11
2366.921526957697
 21
898.4273504205019
 31
0.0
  0
LINE
  5
D85
330
BCD
100
AcDbEntity
  8
0
  6
Continuous
 62
     7
370
    15
100
AcDbLine
 10
2366.921526957696
 20
893.7174677063264
 30
0.0
 11
2365.01544918315
 21
894.8178229838518
 31
0.0
  0
LINE
  5
D86
330
BCD
100
AcDbEntity
  8
0
  6
Continuous
 62
     7
370
    15
100
AcDbLine
 10
2365.015449183149
 20
899.5277056980274
 30
0.0
 11
2365.01544918315
 21
894.8178229838518
 31
0.0
  0
ARC
  5
D87
330
BCD
100
AcDbEntity
  8
0
  6
Continuous
 62
     7
370
    15
100
AcDbCircle
 10
2365.123217775006
 20
899.5451874972527
 30
0.0
 40
0.1091772993570885
100
AcDbArc
 50
50.79671476429672
 51
189.2140369904821
  0
LINE
  5
D88
330
BCD
100
AcDbEntity
  8
0
  6
Continuous
 62
     7
370
    15
100
AcDbLine
 10
2365.192225878446
 20
899.629789887021
 30
0.0
 11
2365.300272162202
 21
899.567416095072
 31
0.0
  0
ARC
  5
D89
330
BCD
100
AcDbEntity
  8
0
  6
Continuous
 62
     7
370
    15
100
AcDbCircle
 10
2365.369280265642
 20
899.6520184848405
 30
0.0
 40
0.1091772993571806
100
AcDbArc
 50
230.796714764305
 51
9.214036990456367
  0
LINE
  5
D8A
330
BCD
100
AcDbEntity
  8
0
  6
Continuous
 62
     7
370
    15
100
AcDbLine
 10
2365.477048857499
 20
899.6695002840656
 30
0.0
 11
2365.477048857499
 21
900.322792648601
 31
0.0
  0
LINE
  5
D8B
330
BCD
100
AcDbEntity
  8
0
  6
Continuous
 62
     7
370
    15
100
AcDbLine
 10
2366.459927283347
 20
899.7553890108841
 30
0.0
 11
2366.459927283347
 21
899.1020966463493
 31
0.0
  0
ARC
  5
D8C
330
BCD
100
AcDbEntity
  8
0
  6
Continuous
 62
     7
370
    15
100
AcDbCircle
 10
2366.843731308689
 20
899.119561859414
 30
0.0
 40
0.3842012018924127
100
AcDbArc
 50
182.6054784856108
 51
237.3945216600602
  0
LINE
  5
D8D
330
BCD
100
AcDbEntity
  8
0
  6
Continuous
 62
     7
370
    15
100
AcDbLine
 10
2366.459927283347
 20
899.1020966463493
 30
0.0
 11
2368.581247626907
 21
900.3267088140827
 31
0.0
  0
LINE
  5
D8E
330
BCD
100
AcDbEntity
  8
0
  6
Continuous
 62
     7
370
    15
100
AcDbLine
 10
2368.581247626907
 20
900.3267088140827
 30
0.0
 11
2368.581247626907
 21
900.9800011786181
 31
0.0
  0
LINE
  5
D8F
330
BCD
100
AcDbEntity
  8
0
  6
Continuous
 62
     7
370
    15
100
AcDbLine
 10
2368.86607060596
 20
899.9581488051852
 30
0.0
 11
2366.7447502624
 21
898.7335366374512
 31
0.0
  0
ARC
  5
D90
330
BCD
100
AcDbEntity
  8
0
  6
Continuous
 62
     7
370
    15
100
AcDbCircle
 10
2368.659043275915
 20
899.634497375171
 30
0.0
 40
0.3842012018924394
100
AcDbArc
 50
2.605478485610817
 51
57.39452166000584
  0
LINE
  5
D91
330
BCD
100
AcDbEntity
  8
0
  6
Continuous
 62
     7
370
    15
100
AcDbLine
 10
2366.921526957697
 20
898.4273504205019
 30
0.0
 11
2369.042847301257
 21
899.651962588236
 31
0.0
  0
ARC
  5
D92
330
BCD
100
AcDbEntity
  8
0
  6
Continuous
 62
     7
370
    15
100
AcDbCircle
 10
2359.758578424658
 20
890.0636974248591
 30
0.0
 40
0.3023726461242528
100
AcDbArc
 50
185.4589815370842
 51
237.2630757801018
  0
ARC
  5
D93
330
BCD
100
AcDbEntity
  8
0
  6
Continuous
 62
     7
370
    15
100
AcDbCircle
 10
2368.965051652246
 20
900.3441740271462
 30
0.0
 40
0.3842012018902153
100
AcDbArc
 50
182.6054784854351
 51
237.3945216601867
  0
LINE
  5
D94
330
BCD
100
AcDbEntity
  8
0
  6
Continuous
 62
     7
370
    15
100
AcDbLine
 10
2368.758024322203
 20
900.0205225971333
 30
0.0
 11
2366.636703978645
 21
898.7959104293997
 31
0.0
  0
LINE
  5
D95
330
BCD
100
AcDbEntity
  8
0
  6
Continuous
 62
     7
370
    15
100
AcDbLine
 10
2369.042847301257
 20
899.651962588236
 30
0.0
 11
2369.042847301257
 21
894.9420798740609
 31
0.0
  0
LINE
  5
D96
330
BCD
100
AcDbEntity
  8
0
  6
Continuous
 62
     7
370
    15
100
AcDbLine
 10
2369.042847301257
 20
894.9420798740609
 30
0.0
 11
2368.802443707131
 21
893.2288978396572
 31
0.0
  0
ARC
  5
D97
330
BCD
100
AcDbEntity
  8
0
  6
Continuous
 62
     7
370
    15
100
AcDbCircle
 10
2367.720212725188
 20
893.394316785668
 30
0.0
 40
1.094800130607313
100
AcDbArc
 50
302.9067666138728
 51
351.3096048990367
  0
LINE
  5
D98
330
BCD
100
AcDbEntity
  8
0
  6
Continuous
 62
     7
370
    15
100
AcDbLine
 10
2367.649385520045
 20
892.0909265253945
 30
0.0
 11
2368.314988738908
 21
892.4751710847687
 31
0.0
  0
LWPOLYLINE
  5
D99
330
BCD
100
AcDbEntity
  8
0
  6
Continuous
 62
     7
370
    15
100
AcDbPolyline
 90
        9
 70
   128
 43
0.0
 10
2367.649385520045
 20
892.0909265253945
 10
2367.563434057267
 20
892.0499913648797
 10
2367.480094186191
 20
892.0276671240685
 10
2367.40189814663
 20
892.0246321137216
 10
2367.331221885674
 20
892.0409785510926
 10
2367.270212865751
 20
892.0762097579533
 10
2367.220724815058
 20
892.1292552519117
 10
2367.184261402973
 20
892.1985032724755
 10
2367.161930551821
 20
892.2818497535816
  0
LINE
  5
D9A
330
BCD
100
AcDbEntity
  8
0
  6
Continuous
 62
     7
370
    15
100
AcDbLine
 10
2367.161930551821
 20
892.2818497535816
 30
0.0
 11
2366.921526957696
 21
893.7174677063264
 31
0.0
  0
LINE
  5
D9B
330
BCD
100
AcDbEntity
  8
0
  6
Continuous
 62
     7
370
    15
100
AcDbLine
 10
2368.86607060596
 20
899.9581488051852
 30
0.0
 11
2368.758024322203
 21
900.0205225971333
 31
0.0
  0
LINE
  5
D9C
330
BCD
100
AcDbEntity
  8
0
  6
Continuous
 62
     7
370
    15
100
AcDbLine
 10
2375.015919335705
 20
907.9434250146464
 30
0.0
 11
2374.76843196229
 21
908.0862964342154
 31
0.0
  0
LINE
  5
D9D
330
BCD
100
AcDbEntity
  8
0
  6
Continuous
 62
     7
370
    15
100
AcDbLine
 10
2375.015919335705
 20
907.9434250146464
 30
0.0
 11
2373.248152382739
 21
906.922914874868
 31
0.0
  0
LINE
  5
D9E
330
BCD
100
AcDbEntity
  8
0
  6
Continuous
 62
     7
370
    15
100
AcDbLine
 10
2373.248152382739
 20
906.922914874868
 30
0.0
 11
2373.000665009324
 21
907.065786294437
 31
0.0
  0
LINE
  5
D9F
330
BCD
100
AcDbEntity
  8
0
  6
Continuous
 62
     7
370
    15
100
AcDbLine
 10
2374.76843196229
 20
907.0247933787639
 30
0.0
 11
2375.015919335705
 21
907.9434250146464
 31
0.0
  0
LINE
  5
DA0
330
BCD
100
AcDbEntity
  8
0
  6
Continuous
 62
     7
370
    15
100
AcDbLine
 10
2373.000665009324
 20
906.0042832389855
 30
0.0
 11
2373.248152382739
 21
906.922914874868
 31
0.0
  0
LINE
  5
DA1
330
BCD
100
AcDbEntity
  8
0
  6
Continuous
 62
     7
370
    15
100
AcDbLine
 10
2369.992948562696
 20
906.2243638528062
 30
0.0
 11
2372.114268906255
 21
904.9997516850723
 31
0.0
  0
LWPOLYLINE
  5
DA2
330
BCD
100
AcDbEntity
  8
0
  6
Continuous
 62
     7
370
    15
100
AcDbPolyline
 90
        3
 70
   128
 43
0.0
 10
2369.960105850221
 20
906.2491326874974
 10
2369.969648095946
 20
906.2405995486123
 10
2369.992948562696
 20
906.2243638528062
  0
LINE
  5
DA3
330
BCD
100
AcDbEntity
  8
0
  6
Continuous
 62
     7
370
    15
100
AcDbLine
 10
2370.033329154924
 20
906.2010450550324
 30
0.0
 11
2372.154649498484
 21
904.9764328872983
 31
0.0
  0
LINE
  5
DA4
330
BCD
100
AcDbEntity
  8
0
  6
Continuous
 62
     7
370
    15
100
AcDbLine
 10
2370.033329154924
 20
906.2010450550324
 30
0.0
 11
2369.992948562696
 21
906.2243638528062
 31
0.0
  0
LINE
  5
DA5
330
BCD
100
AcDbEntity
  8
0
  6
Continuous
 62
     7
370
    15
100
AcDbLine
 10
2370.136882545518
 20
905.9721343823667
 30
0.0
 11
2372.258202889077
 21
904.7475222146328
 31
0.0
  0
ARC
  5
DA6
330
BCD
100
AcDbEntity
  8
0
  6
Continuous
 62
     7
370
    15
100
AcDbCircle
 10
2369.886552758835
 20
905.9967693289971
 30
0.0
 40
0.2515390281775627
100
AcDbArc
 50
354.3796210363904
 51
54.30196147122212
  0
LINE
  5
DA7
330
BCD
100
AcDbEntity
  8
0
  6
Continuous
 62
     7
370
    15
100
AcDbLine
 10
2372.258202889077
 20
903.1027087143794
 30
0.0
 11
2370.136882545518
 21
904.3273208821135
 31
0.0
  0
LINE
  5
DA8
330
BCD
100
AcDbEntity
  8
0
  6
Continuous
 62
     7
370
    15
100
AcDbLine
 10
2370.136882545518
 20
904.3273208821135
 30
0.0
 11
2370.136882545518
 21
905.9721343823667
 31
0.0
  0
LINE
  5
DA9
330
BCD
100
AcDbEntity
  8
0
  6
Continuous
 62
     7
370
    15
100
AcDbLine
 10
2372.258202889078
 20
903.1027087143794
 30
0.0
 11
2372.258202889077
 21
903.1026622693573
 31
0.0
  0
LINE
  5
DAA
330
BCD
100
AcDbEntity
  8
0
  6
Continuous
 62
     7
370
    15
100
AcDbLine
 10
2372.258202889077
 20
903.1026622693573
 30
0.0
 11
2370.631857292348
 21
904.0415315979533
 31
0.0
  0
LINE
  5
DAB
330
BCD
100
AcDbEntity
  8
0
  6
Continuous
 62
     7
370
    15
100
AcDbLine
 10
2370.631857292348
 20
904.0415315979533
 30
0.0
 11
2370.136882545518
 21
904.3273208821135
 31
0.0
  0
LINE
  5
DAC
330
BCD
100
AcDbEntity
  8
0
  6
Continuous
 62
     7
370
    15
100
AcDbLine
 10
2372.258202889077
 20
903.1026622693573
 30
0.0
 11
2375.015919335705
 21
904.6946580874118
 31
0.0
  0
LINE
  5
DAD
330
BCD
100
AcDbEntity
  8
0
  6
Continuous
 62
     7
370
    15
100
AcDbLine
 10
2375.015919335705
 20
904.6946580874118
 30
0.0
 11
2375.510894082536
 21
904.9804473715717
 31
0.0
  0
LINE
  5
DAE
330
BCD
100
AcDbEntity
  8
0
  6
Continuous
 62
     7
370
    15
100
AcDbLine
 10
2367.161930551821
 20
892.2818497535816
 30
0.0
 11
2365.255852777274
 21
893.3822050311068
 31
0.0
  0
LINE
  5
DAF
330
BCD
100
AcDbEntity
  8
0
  6
Continuous
 62
     7
370
    15
100
AcDbLine
 10
2365.01544918315
 20
894.8178229838518
 30
0.0
 11
2365.255852777274
 21
893.3822050311068
 31
0.0
  0
LINE
  5
DB0
330
BCD
100
AcDbEntity
  8
0
  6
Continuous
 62
     7
370
    15
100
AcDbLine
 10
2372.434979584374
 20
902.1431836878729
 30
0.0
 11
2372.54302586813
 21
902.0808098959243
 31
0.0
  0
ARC
  5
DB1
330
BCD
100
AcDbEntity
  8
0
  6
Continuous
 62
     7
370
    15
100
AcDbCircle
 10
2372.335998538085
 20
901.75715846591
 30
0.0
 40
0.3842012018927908
100
AcDbArc
 50
2.605478485636846
 51
57.39452165999882
  0
LINE
  5
DB2
330
BCD
100
AcDbEntity
  8
0
  6
Continuous
 62
     7
370
    15
100
AcDbLine
 10
2372.719802563426
 20
897.0647409647995
 30
0.0
 11
2372.719802563426
 21
901.7746236789751
 31
0.0
  0
LINE
  5
DB3
330
BCD
100
AcDbEntity
  8
0
  6
Continuous
 62
     7
370
    15
100
AcDbLine
 10
2372.719802563426
 20
897.0647409647995
 30
0.0
 11
2370.813724788879
 21
898.1650962423248
 31
0.0
  0
LINE
  5
DB4
330
BCD
100
AcDbEntity
  8
0
  6
Continuous
 62
     7
370
    15
100
AcDbLine
 10
2370.813724788879
 20
902.8749789565004
 30
0.0
 11
2370.813724788879
 21
898.1650962423248
 31
0.0
  0
ARC
  5
DB5
330
BCD
100
AcDbEntity
  8
0
  6
Continuous
 62
     7
370
    15
100
AcDbCircle
 10
2370.921493380735
 20
902.8924607557256
 30
0.0
 40
0.1091772993571767
100
AcDbArc
 50
50.79671476433338
 51
189.2140369904371
  0
LINE
  5
DB6
330
BCD
100
AcDbEntity
  8
0
  6
Continuous
 62
     7
370
    15
100
AcDbLine
 10
2370.990501484175
 20
902.9770631454942
 30
0.0
 11
2371.098547767932
 21
902.914689353545
 31
0.0
  0
ARC
  5
DB7
330
BCD
100
AcDbEntity
  8
0
  6
Continuous
 62
     7
370
    15
100
AcDbCircle
 10
2371.167555871372
 20
902.9992917433135
 30
0.0
 40
0.1091772993571761
100
AcDbArc
 50
230.7967147643292
 51
9.214036990443508
  0
LINE
  5
DB8
330
BCD
100
AcDbEntity
  8
0
  6
Continuous
 62
     7
370
    15
100
AcDbLine
 10
2371.275324463228
 20
903.0167735425386
 30
0.0
 11
2371.275324463228
 21
903.670065907074
 31
0.0
  0
LINE
  5
DB9
330
BCD
100
AcDbEntity
  8
0
  6
Continuous
 62
     7
370
    15
100
AcDbLine
 10
2372.258202889077
 20
903.1026622693573
 30
0.0
 11
2372.258202889077
 21
902.4493699048221
 31
0.0
  0
ARC
  5
DBA
330
BCD
100
AcDbEntity
  8
0
  6
Continuous
 62
     7
370
    15
100
AcDbCircle
 10
2372.642006914419
 20
902.4668351178871
 30
0.0
 40
0.3842012018924193
100
AcDbArc
 50
182.6054784856108
 51
237.3945216600348
  0
LINE
  5
DBB
330
BCD
100
AcDbEntity
  8
0
  6
Continuous
 62
     7
370
    15
100
AcDbLine
 10
2372.258202889077
 20
902.4493699048221
 30
0.0
 11
2374.379523232636
 21
903.6739820725557
 31
0.0
  0
LINE
  5
DBC
330
BCD
100
AcDbEntity
  8
0
  6
Continuous
 62
     7
370
    15
100
AcDbLine
 10
2374.379523232636
 20
903.6739820725557
 30
0.0
 11
2374.379523232637
 21
904.3272744370913
 31
0.0
  0
LINE
  5
DBD
330
BCD
100
AcDbEntity
  8
0
  6
Continuous
 62
     7
370
    15
100
AcDbLine
 10
2374.664346211689
 20
903.3054220636582
 30
0.0
 11
2372.54302586813
 21
902.0808098959243
 31
0.0
  0
ARC
  5
DBE
330
BCD
100
AcDbEntity
  8
0
  6
Continuous
 62
     7
370
    15
100
AcDbCircle
 10
2374.457318881644
 20
902.9817706336441
 30
0.0
 40
0.3842012018925512
100
AcDbArc
 50
2.605478485630339
 51
57.39452166000233
  0
LINE
  5
DBF
330
BCD
100
AcDbEntity
  8
0
  6
Continuous
 62
     7
370
    15
100
AcDbLine
 10
2372.719802563426
 20
901.7746236789751
 30
0.0
 11
2374.841122906985
 21
902.999235846709
 31
0.0
  0
ARC
  5
DC0
330
BCD
100
AcDbEntity
  8
0
  6
Continuous
 62
     7
370
    15
100
AcDbCircle
 10
2365.556854030387
 20
893.4109706833321
 30
0.0
 40
0.3023726461242153
100
AcDbArc
 50
185.4589815370972
 51
237.2630757801307
  0
ARC
  5
DC1
330
BCD
100
AcDbEntity
  8
0
  6
Continuous
 62
     7
370
    15
100
AcDbCircle
 10
2374.763327257976
 20
903.6914472856194
 30
0.0
 40
0.3842012018904476
100
AcDbArc
 50
182.6054784854481
 51
237.3945216601832
  0
LINE
  5
DC2
330
BCD
100
AcDbEntity
  8
0
  6
Continuous
 62
     7
370
    15
100
AcDbLine
 10
2374.556299927933
 20
903.3677958556065
 30
0.0
 11
2372.434979584374
 21
902.1431836878729
 31
0.0
  0
LINE
  5
DC3
330
BCD
100
AcDbEntity
  8
0
  6
Continuous
 62
     7
370
    15
100
AcDbLine
 10
2374.841122906985
 20
902.999235846709
 30
0.0
 11
2374.841122906985
 21
898.2893531325339
 31
0.0
  0
LINE
  5
DC4
330
BCD
100
AcDbEntity
  8
0
  6
Continuous
 62
     7
370
    15
100
AcDbLine
 10
2374.841122906985
 20
898.2893531325339
 30
0.0
 11
2374.600719312861
 21
896.5761710981304
 31
0.0
  0
ARC
  5
DC5
330
BCD
100
AcDbEntity
  8
0
  6
Continuous
 62
     7
370
    15
100
AcDbCircle
 10
2373.518488330918
 20
896.7415900441411
 30
0.0
 40
1.094800130607278
100
AcDbArc
 50
302.9067666138728
 51
351.3096048990367
  0
LINE
  5
DC6
330
BCD
100
AcDbEntity
  8
0
  6
Continuous
 62
     7
370
    15
100
AcDbLine
 10
2373.447661125775
 20
895.4381997838675
 30
0.0
 11
2374.113264344638
 21
895.8224443432417
 31
0.0
  0
LWPOLYLINE
  5
DC7
330
BCD
100
AcDbEntity
  8
0
  6
Continuous
 62
     7
370
    15
100
AcDbPolyline
 90
        9
 70
   128
 43
0.0
 10
2373.447661125775
 20
895.4381997838675
 10
2373.361709662996
 20
895.3972646233527
 10
2373.278369791921
 20
895.3749403825417
 10
2373.200173752359
 20
895.3719053721947
 10
2373.129497491404
 20
895.3882518095657
 10
2373.06848847148
 20
895.4234830164264
 10
2373.019000420787
 20
895.4765285103846
 10
2372.982537008702
 20
895.5457765309486
 10
2372.96020615755
 20
895.6291230120546
  0
LINE
  5
DC8
330
BCD
100
AcDbEntity
  8
0
  6
Continuous
 62
     7
370
    15
100
AcDbLine
 10
2372.96020615755
 20
895.6291230120546
 30
0.0
 11
2372.719802563426
 21
897.0647409647995
 31
0.0
  0
LINE
  5
DC9
330
BCD
100
AcDbEntity
  8
0
  6
Continuous
 62
     7
370
    15
100
AcDbLine
 10
2374.664346211689
 20
903.3054220636582
 30
0.0
 11
2374.556299927933
 21
903.3677958556065
 31
0.0
  0
LINE
  5
DCA
330
BCD
100
AcDbEntity
  8
0
  6
Continuous
 62
     7
370
    15
100
AcDbLine
 10
2380.814194941435
 20
911.2906982731194
 30
0.0
 11
2380.56670756802
 21
911.4335696926884
 31
0.0
  0
LINE
  5
DCB
330
BCD
100
AcDbEntity
  8
0
  6
Continuous
 62
     7
370
    15
100
AcDbLine
 10
2380.814194941435
 20
911.2906982731194
 30
0.0
 11
2379.046427988469
 21
910.2701881333411
 31
0.0
  0
LINE
  5
DCC
330
BCD
100
AcDbEntity
  8
0
  6
Continuous
 62
     7
370
    15
100
AcDbLine
 10
2379.046427988469
 20
910.2701881333411
 30
0.0
 11
2378.798940615054
 21
910.4130595529101
 31
0.0
  0
LINE
  5
DCD
330
BCD
100
AcDbEntity
  8
0
  6
Continuous
 62
     7
370
    15
100
AcDbLine
 10
2380.56670756802
 20
910.3720666372369
 30
0.0
 11
2380.814194941435
 21
911.2906982731194
 31
0.0
  0
LINE
  5
DCE
330
BCD
100
AcDbEntity
  8
0
  6
Continuous
 62
     7
370
    15
100
AcDbLine
 10
2378.798940615054
 20
909.3515564974586
 30
0.0
 11
2379.046427988469
 21
910.2701881333411
 31
0.0
  0
LINE
  5
DCF
330
BCD
100
AcDbEntity
  8
0
  6
Continuous
 62
     7
370
    15
100
AcDbLine
 10
2375.791224168426
 20
909.5716371112795
 30
0.0
 11
2377.912544511985
 21
908.3470249435453
 31
0.0
  0
LWPOLYLINE
  5
DD0
330
BCD
100
AcDbEntity
  8
0
  6
Continuous
 62
     7
370
    15
100
AcDbPolyline
 90
        3
 70
   128
 43
0.0
 10
2375.758381455951
 20
909.5964059459705
 10
2375.767923701675
 20
909.5878728070855
 10
2375.791224168426
 20
909.5716371112795
  0
LINE
  5
DD1
330
BCD
100
AcDbEntity
  8
0
  6
Continuous
 62
     7
370
    15
100
AcDbLine
 10
2375.831604760655
 20
909.5483183135057
 30
0.0
 11
2377.952925104214
 21
908.3237061457715
 31
0.0
  0
LINE
  5
DD2
330
BCD
100
AcDbEntity
  8
0
  6
Continuous
 62
     7
370
    15
100
AcDbLine
 10
2375.831604760655
 20
909.5483183135057
 30
0.0
 11
2375.791224168426
 21
909.5716371112795
 31
0.0
  0
LINE
  5
DD3
330
BCD
100
AcDbEntity
  8
0
  6
Continuous
 62
     7
370
    15
100
AcDbLine
 10
2375.935158151247
 20
909.3194076408398
 30
0.0
 11
2378.056478494807
 21
908.0947954731058
 31
0.0
  0
ARC
  5
DD4
330
BCD
100
AcDbEntity
  8
0
  6
Continuous
 62
     7
370
    15
100
AcDbCircle
 10
2375.684828364565
 20
909.3440425874707
 30
0.0
 40
0.251539028176869
100
AcDbArc
 50
354.3796210362801
 51
54.30196147126228
  0
LINE
  5
DD5
330
BCD
100
AcDbEntity
  8
0
  6
Continuous
 62
     7
370
    15
100
AcDbLine
 10
2378.056478494807
 20
906.4499819728524
 30
0.0
 11
2375.935158151247
 21
907.6745941405865
 31
0.0
  0
LINE
  5
DD6
330
BCD
100
AcDbEntity
  8
0
  6
Continuous
 62
     7
370
    15
100
AcDbLine
 10
2375.935158151247
 20
907.6745941405865
 30
0.0
 11
2375.935158151247
 21
909.3194076408398
 31
0.0
  0
LINE
  5
DD7
330
BCD
100
AcDbEntity
  8
0
  6
Continuous
 62
     7
370
    15
100
AcDbLine
 10
2378.056478494807
 20
906.4499355278304
 30
0.0
 11
2380.814194941435
 21
908.0419313458849
 31
0.0
  0
LINE
  5
DD8
330
BCD
100
AcDbEntity
  8
0
  6
Continuous
 62
     7
370
    15
100
AcDbLine
 10
2378.056478494807
 20
906.4499819728524
 30
0.0
 11
2378.056478494807
 21
906.4499355278304
 31
0.0
  0
LINE
  5
DD9
330
BCD
100
AcDbEntity
  8
0
  6
Continuous
 62
     7
370
    15
100
AcDbLine
 10
2380.814194941435
 20
908.0419313458849
 30
0.0
 11
2381.309169688265
 21
908.3277206300449
 31
0.0
  0
LINE
  5
DDA
330
BCD
100
AcDbEntity
  8
0
  6
Continuous
 62
     7
370
    15
100
AcDbLine
 10
2378.056478494807
 20
906.4499355278304
 30
0.0
 11
2376.430132898078
 21
907.3888048564265
 31
0.0
  0
LINE
  5
DDB
330
BCD
100
AcDbEntity
  8
0
  6
Continuous
 62
     7
370
    15
100
AcDbLine
 10
2376.430132898078
 20
907.3888048564263
 30
0.0
 11
2375.935158151247
 21
907.6745941405865
 31
0.0
  0
LINE
  5
DDC
330
BCD
100
AcDbEntity
  8
0
  6
Continuous
 62
     7
370
    15
100
AcDbLine
 10
2372.96020615755
 20
895.6291230120546
 30
0.0
 11
2371.054128383004
 21
896.7294782895798
 31
0.0
  0
LINE
  5
DDD
330
BCD
100
AcDbEntity
  8
0
  6
Continuous
 62
     7
370
    15
100
AcDbLine
 10
2370.813724788879
 20
898.1650962423248
 30
0.0
 11
2371.054128383004
 21
896.7294782895798
 31
0.0
  0
LINE
  5
DDE
330
BCD
100
AcDbEntity
  8
0
  6
Continuous
 62
     7
370
    15
100
AcDbLine
 10
2378.233255190103
 20
905.490456946346
 30
0.0
 11
2378.341301473859
 21
905.4280831543975
 31
0.0
  0
ARC
  5
DDF
330
BCD
100
AcDbEntity
  8
0
  6
Continuous
 62
     7
370
    15
100
AcDbCircle
 10
2378.134274143814
 20
905.104431724383
 30
0.0
 40
0.3842012018929546
100
AcDbArc
 50
2.605478485643353
 51
57.39452165996985
  0
LINE
  5
DE0
330
BCD
100
AcDbEntity
  8
0
  6
Continuous
 62
     7
370
    15
100
AcDbLine
 10
2378.518078169156
 20
900.4120142232727
 30
0.0
 11
2378.518078169156
 21
905.1218969374481
 31
0.0
  0
LINE
  5
DE1
330
BCD
100
AcDbEntity
  8
0
  6
Continuous
 62
     7
370
    15
100
AcDbLine
 10
2378.518078169156
 20
900.4120142232727
 30
0.0
 11
2376.612000394609
 21
901.5123695007979
 31
0.0
  0
LINE
  5
DE2
330
BCD
100
AcDbEntity
  8
0
  6
Continuous
 62
     7
370
    15
100
AcDbLine
 10
2376.612000394608
 20
906.2222522149735
 30
0.0
 11
2376.612000394609
 21
901.5123695007979
 31
0.0
  0
ARC
  5
DE3
330
BCD
100
AcDbEntity
  8
0
  6
Continuous
 62
     7
370
    15
100
AcDbCircle
 10
2376.719768986465
 20
906.2397340141986
 30
0.0
 40
0.1091772993571829
100
AcDbArc
 50
50.79671476432927
 51
189.2140369904628
  0
LINE
  5
DE4
330
BCD
100
AcDbEntity
  8
0
  6
Continuous
 62
     7
370
    15
100
AcDbLine
 10
2376.788777089905
 20
906.3243364039673
 30
0.0
 11
2376.896823373662
 21
906.2619626120181
 31
0.0
  0
ARC
  5
DE5
330
BCD
100
AcDbEntity
  8
0
  6
Continuous
 62
     7
370
    15
100
AcDbCircle
 10
2376.965831477102
 20
906.3465650017866
 30
0.0
 40
0.109177299357192
100
AcDbArc
 50
230.7967147642967
 51
9.214036990488514
  0
LINE
  5
DE6
330
BCD
100
AcDbEntity
  8
0
  6
Continuous
 62
     7
370
    15
100
AcDbLine
 10
2377.073600068958
 20
906.3640468010119
 30
0.0
 11
2377.073600068958
 21
907.0173391655471
 31
0.0
  0
LINE
  5
DE7
330
BCD
100
AcDbEntity
  8
0
  6
Continuous
 62
     7
370
    15
100
AcDbLine
 10
2378.056478494807
 20
906.4499355278304
 30
0.0
 11
2378.056478494807
 21
905.7966431632953
 31
0.0
  0
ARC
  5
DE8
330
BCD
100
AcDbEntity
  8
0
  6
Continuous
 62
     7
370
    15
100
AcDbCircle
 10
2378.440282520148
 20
905.8141083763601
 30
0.0
 40
0.3842012018926137
100
AcDbArc
 50
182.6054784856173
 51
237.3945216600278
  0
LINE
  5
DE9
330
BCD
100
AcDbEntity
  8
0
  6
Continuous
 62
     7
370
    15
100
AcDbLine
 10
2378.056478494807
 20
905.7966431632953
 30
0.0
 11
2380.177798838366
 21
907.0212553310287
 31
0.0
  0
LINE
  5
DEA
330
BCD
100
AcDbEntity
  8
0
  6
Continuous
 62
     7
370
    15
100
AcDbLine
 10
2380.177798838366
 20
907.0212553310287
 30
0.0
 11
2380.177798838367
 21
907.6745476955643
 31
0.0
  0
LINE
  5
DEB
330
BCD
100
AcDbEntity
  8
0
  6
Continuous
 62
     7
370
    15
100
AcDbLine
 10
2380.462621817419
 20
906.6526953221313
 30
0.0
 11
2378.341301473859
 21
905.4280831543975
 31
0.0
  0
ARC
  5
DEC
330
BCD
100
AcDbEntity
  8
0
  6
Continuous
 62
     7
370
    15
100
AcDbCircle
 10
2380.255594487374
 20
906.3290438921169
 30
0.0
 40
0.3842012018927908
100
AcDbArc
 50
2.605478485643353
 51
57.39452165999882
  0
LINE
  5
DED
330
BCD
100
AcDbEntity
  8
0
  6
Continuous
 62
     7
370
    15
100
AcDbLine
 10
2378.518078169156
 20
905.1218969374481
 30
0.0
 11
2380.639398512716
 21
906.3465091051821
 31
0.0
  0
ARC
  5
DEE
330
BCD
100
AcDbEntity
  8
0
  6
Continuous
 62
     7
370
    15
100
AcDbCircle
 10
2371.355129636118
 20
896.7582439418054
 30
0.0
 40
0.3023726461244982
100
AcDbArc
 50
185.4589815371101
 51
237.2630757800982
  0
ARC
  5
DEF
330
BCD
100
AcDbEntity
  8
0
  6
Continuous
 62
     7
370
    15
100
AcDbCircle
 10
2380.561602863705
 20
907.0387205440923
 30
0.0
 40
0.3842012018901607
100
AcDbArc
 50
182.6054784854351
 51
237.3945216601902
  0
LINE
  5
DF0
330
BCD
100
AcDbEntity
  8
0
  6
Continuous
 62
     7
370
    15
100
AcDbLine
 10
2380.354575533663
 20
906.7150691140794
 30
0.0
 11
2378.233255190103
 21
905.490456946346
 31
0.0
  0
LINE
  5
DF1
330
BCD
100
AcDbEntity
  8
0
  6
Continuous
 62
     7
370
    15
100
AcDbLine
 10
2380.639398512716
 20
906.3465091051821
 30
0.0
 11
2380.639398512715
 21
901.636626391007
 31
0.0
  0
LINE
  5
DF2
330
BCD
100
AcDbEntity
  8
0
  6
Continuous
 62
     7
370
    15
100
AcDbLine
 10
2380.639398512715
 20
901.636626391007
 30
0.0
 11
2380.398994918591
 21
899.9234443566034
 31
0.0
  0
ARC
  5
DF3
330
BCD
100
AcDbEntity
  8
0
  6
Continuous
 62
     7
370
    15
100
AcDbCircle
 10
2379.316763936648
 20
900.0888633026143
 30
0.0
 40
1.094800130607533
100
AcDbArc
 50
302.9067666138728
 51
351.3096048990302
  0
LINE
  5
DF4
330
BCD
100
AcDbEntity
  8
0
  6
Continuous
 62
     7
370
    15
100
AcDbLine
 10
2379.245936731504
 20
898.7854730423405
 30
0.0
 11
2379.911539950367
 21
899.1697176017149
 31
0.0
  0
LWPOLYLINE
  5
DF5
330
BCD
100
AcDbEntity
  8
0
  6
Continuous
 62
     7
370
    15
100
AcDbPolyline
 90
        9
 70
   128
 43
0.0
 10
2379.245936731504
 20
898.7854730423405
 10
2379.159985268726
 20
898.7445378818257
 10
2379.07664539765
 20
898.7222136410148
 10
2378.998449358089
 20
898.7191786306677
 10
2378.927773097133
 20
898.7355250680387
 10
2378.86676407721
 20
898.7707562748996
 10
2378.817276026517
 20
898.8238017688576
 10
2378.780812614432
 20
898.8930497894216
 10
2378.75848176328
 20
898.9763962705277
  0
LINE
  5
DF6
330
BCD
100
AcDbEntity
  8
0
  6
Continuous
 62
     7
370
    15
100
AcDbLine
 10
2378.75848176328
 20
898.9763962705277
 30
0.0
 11
2378.518078169156
 21
900.4120142232727
 31
0.0
  0
LINE
  5
DF7
330
BCD
100
AcDbEntity
  8
0
  6
Continuous
 62
     7
370
    15
100
AcDbLine
 10
2380.462621817419
 20
906.6526953221313
 30
0.0
 11
2380.354575533663
 21
906.7150691140794
 31
0.0
  0
LINE
  5
DF8
330
BCD
100
AcDbEntity
  8
0
  6
Continuous
 62
     7
370
    15
100
AcDbLine
 10
2386.612470547165
 20
914.6379715315926
 30
0.0
 11
2384.844703594198
 21
913.6174613918141
 31
0.0
  0
LINE
  5
DF9
330
BCD
100
AcDbEntity
  8
0
  6
Continuous
 62
     7
370
    15
100
AcDbLine
 10
2386.364983173749
 20
913.71933989571
 30
0.0
 11
2386.612470547165
 21
914.6379715315926
 31
0.0
  0
LINE
  5
DFA
330
BCD
100
AcDbEntity
  8
0
  6
Continuous
 62
     7
370
    15
100
AcDbLine
 10
2384.597216220783
 20
912.6988297559316
 30
0.0
 11
2384.844703594198
 21
913.6174613918141
 31
0.0
  0
LINE
  5
DFB
330
BCD
100
AcDbEntity
  8
0
  6
Continuous
 62
     7
370
    15
100
AcDbLine
 10
2386.612470547165
 20
914.6379715315926
 30
0.0
 11
2386.364983173749
 21
914.7808429511615
 31
0.0
  0
LINE
  5
DFC
330
BCD
100
AcDbEntity
  8
0
  6
Continuous
 62
     7
370
    15
100
AcDbLine
 10
2384.844703594198
 20
913.6174613918141
 30
0.0
 11
2384.597216220783
 21
913.7603328113831
 31
0.0
  0
LINE
  5
DFD
330
BCD
100
AcDbEntity
  8
0
  6
Continuous
 62
     7
370
    15
100
AcDbLine
 10
2381.589499774155
 20
912.9189103697525
 30
0.0
 11
2383.710820117715
 21
911.6942982020184
 31
0.0
  0
LWPOLYLINE
  5
DFE
330
BCD
100
AcDbEntity
  8
0
  6
Continuous
 62
     7
370
    15
100
AcDbPolyline
 90
        3
 70
   128
 43
0.0
 10
2381.556657061681
 20
912.9436792044435
 10
2381.566199307405
 20
912.9351460655586
 10
2381.589499774155
 20
912.9189103697525
  0
LINE
  5
DFF
330
BCD
100
AcDbEntity
  8
0
  6
Continuous
 62
     7
370
    15
100
AcDbLine
 10
2381.629880366384
 20
912.8955915719787
 30
0.0
 11
2383.751200709943
 21
911.6709794042446
 31
0.0
  0
LINE
  5
E00
330
BCD
100
AcDbEntity
  8
0
  6
Continuous
 62
     7
370
    15
100
AcDbLine
 10
2381.629880366384
 20
912.8955915719787
 30
0.0
 11
2381.589499774155
 21
912.9189103697525
 31
0.0
  0
LINE
  5
E01
330
BCD
100
AcDbEntity
  8
0
  6
Continuous
 62
     7
370
    15
100
AcDbLine
 10
2381.733433756977
 20
912.666680899313
 30
0.0
 11
2383.854754100537
 21
911.4420687315789
 31
0.0
  0
ARC
  5
E02
330
BCD
100
AcDbEntity
  8
0
  6
Continuous
 62
     7
370
    15
100
AcDbCircle
 10
2381.483103970294
 20
912.6913158459434
 30
0.0
 40
0.2515390281771834
100
AcDbArc
 50
354.3796210363449
 51
54.30196147125847
  0
LINE
  5
E03
330
BCD
100
AcDbEntity
  8
0
  6
Continuous
 62
     7
370
    15
100
AcDbLine
 10
2383.854754100537
 20
909.7972552313256
 30
0.0
 11
2381.733433756977
 21
911.0218673990598
 31
0.0
  0
LINE
  5
E04
330
BCD
100
AcDbEntity
  8
0
  6
Continuous
 62
     7
370
    15
100
AcDbLine
 10
2381.733433756977
 20
911.0218673990598
 30
0.0
 11
2381.733433756977
 21
912.666680899313
 31
0.0
  0
LINE
  5
E05
330
BCD
100
AcDbEntity
  8
0
  6
Continuous
 62
     7
370
    15
100
AcDbLine
 10
2383.854754100537
 20
909.7972552313255
 30
0.0
 11
2383.854754100537
 21
909.7972087863034
 31
0.0
  0
LINE
  5
E06
330
BCD
100
AcDbEntity
  8
0
  6
Continuous
 62
     7
370
    15
100
AcDbLine
 10
2383.854754100537
 20
909.7972087863034
 30
0.0
 11
2382.228408503808
 21
910.7360781148996
 31
0.0
  0
LINE
  5
E07
330
BCD
100
AcDbEntity
  8
0
  6
Continuous
 62
     7
370
    15
100
AcDbLine
 10
2382.228408503808
 20
910.7360781148996
 30
0.0
 11
2381.733433756977
 21
911.0218673990598
 31
0.0
  0
LINE
  5
E08
330
BCD
100
AcDbEntity
  8
0
  6
Continuous
 62
     7
370
    15
100
AcDbLine
 10
2383.854754100537
 20
909.7972087863034
 30
0.0
 11
2386.612470547165
 21
911.3892046043579
 31
0.0
  0
LINE
  5
E09
330
BCD
100
AcDbEntity
  8
0
  6
Continuous
 62
     7
370
    15
100
AcDbLine
 10
2386.612470547165
 20
911.3892046043579
 30
0.0
 11
2387.107445293995
 21
911.6749938885178
 31
0.0
  0
LINE
  5
E0A
330
BCD
100
AcDbEntity
  8
0
  6
Continuous
 62
     7
370
    15
100
AcDbLine
 10
2378.75848176328
 20
898.9763962705277
 30
0.0
 11
2376.852403988733
 21
900.0767515480529
 31
0.0
  0
LINE
  5
E0B
330
BCD
100
AcDbEntity
  8
0
  6
Continuous
 62
     7
370
    15
100
AcDbLine
 10
2376.612000394609
 20
901.5123695007979
 30
0.0
 11
2376.852403988733
 21
900.0767515480529
 31
0.0
  0
LINE
  5
E0C
330
BCD
100
AcDbEntity
  8
0
  6
Continuous
 62
     7
370
    15
100
AcDbLine
 10
2384.031530795834
 20
908.837730204819
 30
0.0
 11
2384.139577079589
 21
908.7753564128703
 31
0.0
  0
ARC
  5
E0D
330
BCD
100
AcDbEntity
  8
0
  6
Continuous
 62
     7
370
    15
100
AcDbCircle
 10
2383.932549749544
 20
908.451704982856
 30
0.0
 40
0.3842012018929546
100
AcDbArc
 50
2.605478485643353
 51
57.39452165996985
  0
LINE
  5
E0E
330
BCD
100
AcDbEntity
  8
0
  6
Continuous
 62
     7
370
    15
100
AcDbLine
 10
2384.316353774886
 20
903.7592874817457
 30
0.0
 11
2384.316353774886
 21
908.4691701959211
 31
0.0
  0
LINE
  5
E0F
330
BCD
100
AcDbEntity
  8
0
  6
Continuous
 62
     7
370
    15
100
AcDbLine
 10
2384.316353774886
 20
903.7592874817457
 30
0.0
 11
2382.410276000339
 21
904.8596427592711
 31
0.0
  0
LINE
  5
E10
330
BCD
100
AcDbEntity
  8
0
  6
Continuous
 62
     7
370
    15
100
AcDbLine
 10
2382.410276000338
 20
909.5695254734467
 30
0.0
 11
2382.410276000339
 21
904.8596427592711
 31
0.0
  0
ARC
  5
E11
330
BCD
100
AcDbEntity
  8
0
  6
Continuous
 62
     7
370
    15
100
AcDbCircle
 10
2382.518044592195
 20
909.5870072726718
 30
0.0
 40
0.1091772993571738
100
AcDbArc
 50
50.79671476430495
 51
189.2140369904371
  0
LINE
  5
E12
330
BCD
100
AcDbEntity
  8
0
  6
Continuous
 62
     7
370
    15
100
AcDbLine
 10
2382.587052695635
 20
909.6716096624403
 30
0.0
 11
2382.695098979391
 21
909.6092358704911
 31
0.0
  0
ARC
  5
E13
330
BCD
100
AcDbEntity
  8
0
  6
Continuous
 62
     7
370
    15
100
AcDbCircle
 10
2382.764107082831
 20
909.6938382602596
 30
0.0
 40
0.1091772993570843
100
AcDbArc
 50
230.7967147642683
 51
9.214036990514232
  0
LINE
  5
E14
330
BCD
100
AcDbEntity
  8
0
  6
Continuous
 62
     7
370
    15
100
AcDbLine
 10
2382.871875674688
 20
909.7113200594847
 30
0.0
 11
2382.871875674688
 21
910.3646124240201
 31
0.0
  0
LINE
  5
E15
330
BCD
100
AcDbEntity
  8
0
  6
Continuous
 62
     7
370
    15
100
AcDbLine
 10
2383.854754100537
 20
909.7972087863034
 30
0.0
 11
2383.854754100537
 21
909.1439164217684
 31
0.0
  0
ARC
  5
E16
330
BCD
100
AcDbEntity
  8
0
  6
Continuous
 62
     7
370
    15
100
AcDbCircle
 10
2384.238558125878
 20
909.1613816348333
 30
0.0
 40
0.384201201892631
100
AcDbArc
 50
182.6054784856303
 51
237.3945216600313
  0
LINE
  5
E17
330
BCD
100
AcDbEntity
  8
0
  6
Continuous
 62
     7
370
    15
100
AcDbLine
 10
2383.854754100537
 20
909.1439164217684
 30
0.0
 11
2385.976074444096
 21
910.3685285895018
 31
0.0
  0
LINE
  5
E18
330
BCD
100
AcDbEntity
  8
0
  6
Continuous
 62
     7
370
    15
100
AcDbLine
 10
2385.976074444096
 20
910.3685285895018
 30
0.0
 11
2385.976074444096
 21
911.0218209540374
 31
0.0
  0
LINE
  5
E19
330
BCD
100
AcDbEntity
  8
0
  6
Continuous
 62
     7
370
    15
100
AcDbLine
 10
2386.260897423149
 20
909.9999685806043
 30
0.0
 11
2384.139577079589
 21
908.7753564128703
 31
0.0
  0
ARC
  5
E1A
330
BCD
100
AcDbEntity
  8
0
  6
Continuous
 62
     7
370
    15
100
AcDbCircle
 10
2386.053870093103
 20
909.67631715059
 30
0.0
 40
0.3842012018928215
100
AcDbArc
 50
2.60547848564986
 51
57.39452165997335
  0
LINE
  5
E1B
330
BCD
100
AcDbEntity
  8
0
  6
Continuous
 62
     7
370
    15
100
AcDbLine
 10
2384.316353774886
 20
908.4691701959211
 30
0.0
 11
2386.437674118445
 21
909.6937823636551
 31
0.0
  0
ARC
  5
E1C
330
BCD
100
AcDbEntity
  8
0
  6
Continuous
 62
     7
370
    15
100
AcDbCircle
 10
2377.153405241847
 20
900.1055172002784
 30
0.0
 40
0.3023726461244415
100
AcDbArc
 50
185.4589815371101
 51
237.2630757801018
  0
ARC
  5
E1D
330
BCD
100
AcDbEntity
  8
0
  6
Continuous
 62
     7
370
    15
100
AcDbCircle
 10
2386.359878469435
 20
910.3859938025653
 30
0.0
 40
0.3842012018902746
100
AcDbArc
 50
182.6054784854416
 51
237.3945216601902
  0
LINE
  5
E1E
330
BCD
100
AcDbEntity
  8
0
  6
Continuous
 62
     7
370
    15
100
AcDbLine
 10
2386.152851139392
 20
910.0623423725524
 30
0.0
 11
2384.031530795834
 21
908.837730204819
 31
0.0
  0
LINE
  5
E1F
330
BCD
100
AcDbEntity
  8
0
  6
Continuous
 62
     7
370
    15
100
AcDbLine
 10
2386.437674118445
 20
909.6937823636551
 30
0.0
 11
2386.437674118445
 21
904.98389964948
 31
0.0
  0
LINE
  5
E20
330
BCD
100
AcDbEntity
  8
0
  6
Continuous
 62
     7
370
    15
100
AcDbLine
 10
2386.437674118445
 20
904.98389964948
 30
0.0
 11
2386.197270524321
 21
903.2707176150765
 31
0.0
  0
ARC
  5
E21
330
BCD
100
AcDbEntity
  8
0
  6
Continuous
 62
     7
370
    15
100
AcDbCircle
 10
2385.115039542377
 20
903.4361365610873
 30
0.0
 40
1.094800130607565
100
AcDbArc
 50
302.9067666138728
 51
351.3096048990302
  0
LINE
  5
E22
330
BCD
100
AcDbEntity
  8
0
  6
Continuous
 62
     7
370
    15
100
AcDbLine
 10
2385.044212337234
 20
902.1327463008136
 30
0.0
 11
2385.709815556097
 21
902.5169908601879
 31
0.0
  0
LWPOLYLINE
  5
E23
330
BCD
100
AcDbEntity
  8
0
  6
Continuous
 62
     7
370
    15
100
AcDbPolyline
 90
        9
 70
   128
 43
0.0
 10
2385.044212337234
 20
902.1327463008136
 10
2384.958260874455
 20
902.0918111402989
 10
2384.87492100338
 20
902.0694868994878
 10
2384.796724963819
 20
902.0664518891408
 10
2384.726048702864
 20
902.0827983265117
 10
2384.66503968294
 20
902.1180295333726
 10
2384.615551632247
 20
902.1710750273307
 10
2384.579088220162
 20
902.2403230478948
 10
2384.55675736901
 20
902.3236695290007
  0
LINE
  5
E24
330
BCD
100
AcDbEntity
  8
0
  6
Continuous
 62
     7
370
    15
100
AcDbLine
 10
2384.55675736901
 20
902.3236695290007
 30
0.0
 11
2384.316353774886
 21
903.7592874817457
 31
0.0
  0
LINE
  5
E25
330
BCD
100
AcDbEntity
  8
0
  6
Continuous
 62
     7
370
    15
100
AcDbLine
 10
2386.260897423149
 20
909.9999685806043
 30
0.0
 11
2386.152851139392
 21
910.0623423725524
 31
0.0
  0
LINE
  5
E26
330
BCD
100
AcDbEntity
  8
0
  6
Continuous
 62
     7
370
    15
100
AcDbLine
 10
2392.410746152894
 20
917.9852447900655
 30
0.0
 11
2390.642979199928
 21
916.9647346502872
 31
0.0
  0
LINE
  5
E27
330
BCD
100
AcDbEntity
  8
0
  6
Continuous
 62
     7
370
    15
100
AcDbLine
 10
2392.163258779479
 20
917.0666131541832
 30
0.0
 11
2392.410746152894
 21
917.9852447900655
 31
0.0
  0
LINE
  5
E28
330
BCD
100
AcDbEntity
  8
0
  6
Continuous
 62
     7
370
    15
100
AcDbLine
 10
2390.395491826513
 20
916.0461030144047
 30
0.0
 11
2390.642979199928
 21
916.9647346502872
 31
0.0
  0
LINE
  5
E29
330
BCD
100
AcDbEntity
  8
0
  6
Continuous
 62
     7
370
    15
100
AcDbLine
 10
2392.410746152894
 20
917.9852447900655
 30
0.0
 11
2392.163258779479
 21
918.1281162096345
 31
0.0
  0
LINE
  5
E2A
330
BCD
100
AcDbEntity
  8
0
  6
Continuous
 62
     7
370
    15
100
AcDbLine
 10
2390.642979199928
 20
916.9647346502872
 30
0.0
 11
2390.395491826513
 21
917.1076060698561
 31
0.0
  0
LINE
  5
E2B
330
BCD
100
AcDbEntity
  8
0
  6
Continuous
 62
     7
370
    15
100
AcDbLine
 10
2387.387775379885
 20
916.2661836282254
 30
0.0
 11
2389.509095723445
 21
915.0415714604914
 31
0.0
  0
LWPOLYLINE
  5
E2C
330
BCD
100
AcDbEntity
  8
0
  6
Continuous
 62
     7
370
    15
100
AcDbPolyline
 90
        3
 70
   128
 43
0.0
 10
2387.35493266741
 20
916.2909524629165
 10
2387.364474913134
 20
916.2824193240316
 10
2387.387775379885
 20
916.2661836282254
  0
LINE
  5
E2D
330
BCD
100
AcDbEntity
  8
0
  6
Continuous
 62
     7
370
    15
100
AcDbLine
 10
2387.428155972114
 20
916.2428648304517
 30
0.0
 11
2389.549476315673
 21
915.0182526627176
 31
0.0
  0
LINE
  5
E2E
330
BCD
100
AcDbEntity
  8
0
  6
Continuous
 62
     7
370
    15
100
AcDbLine
 10
2387.428155972114
 20
916.2428648304517
 30
0.0
 11
2387.387775379885
 21
916.2661836282254
 31
0.0
  0
LINE
  5
E2F
330
BCD
100
AcDbEntity
  8
0
  6
Continuous
 62
     7
370
    15
100
AcDbLine
 10
2387.531709362707
 20
916.013954157786
 30
0.0
 11
2389.653029706267
 21
914.7893419900519
 31
0.0
  0
ARC
  5
E30
330
BCD
100
AcDbEntity
  8
0
  6
Continuous
 62
     7
370
    15
100
AcDbCircle
 10
2387.281379576024
 20
916.0385891044166
 30
0.0
 40
0.2515390281770842
100
AcDbArc
 50
354.3796210363125
 51
54.30196147122972
  0
LINE
  5
E31
330
BCD
100
AcDbEntity
  8
0
  6
Continuous
 62
     7
370
    15
100
AcDbLine
 10
2389.653029706267
 20
913.1445284897987
 30
0.0
 11
2387.531709362707
 21
914.3691406575326
 31
0.0
  0
LINE
  5
E32
330
BCD
100
AcDbEntity
  8
0
  6
Continuous
 62
     7
370
    15
100
AcDbLine
 10
2387.531709362707
 20
914.3691406575326
 30
0.0
 11
2387.531709362707
 21
916.013954157786
 31
0.0
  0
LINE
  5
E33
330
BCD
100
AcDbEntity
  8
0
  6
Continuous
 62
     7
370
    15
100
AcDbLine
 10
2389.653029706267
 20
913.1445284897987
 30
0.0
 11
2389.653029706266
 21
913.1444820447764
 31
0.0
  0
LINE
  5
E34
330
BCD
100
AcDbEntity
  8
0
  6
Continuous
 62
     7
370
    15
100
AcDbLine
 10
2389.653029706266
 20
913.1444820447766
 30
0.0
 11
2388.026684109538
 21
914.0833513733726
 31
0.0
  0
LINE
  5
E35
330
BCD
100
AcDbEntity
  8
0
  6
Continuous
 62
     7
370
    15
100
AcDbLine
 10
2388.026684109538
 20
914.0833513733726
 30
0.0
 11
2387.531709362707
 21
914.3691406575326
 31
0.0
  0
LINE
  5
E36
330
BCD
100
AcDbEntity
  8
0
  6
Continuous
 62
     7
370
    15
100
AcDbLine
 10
2389.653029706266
 20
913.1444820447766
 30
0.0
 11
2392.410746152894
 21
914.7364778628311
 31
0.0
  0
LINE
  5
E37
330
BCD
100
AcDbEntity
  8
0
  6
Continuous
 62
     7
370
    15
100
AcDbLine
 10
2392.410746152894
 20
914.7364778628311
 30
0.0
 11
2392.905720899725
 21
915.022267146991
 31
0.0
  0
LINE
  5
E38
330
BCD
100
AcDbEntity
  8
0
  6
Continuous
 62
     7
370
    15
100
AcDbLine
 10
2384.55675736901
 20
902.3236695290007
 30
0.0
 11
2382.650679594463
 21
903.4240248065259
 31
0.0
  0
LINE
  5
E39
330
BCD
100
AcDbEntity
  8
0
  6
Continuous
 62
     7
370
    15
100
AcDbLine
 10
2382.410276000339
 20
904.8596427592711
 30
0.0
 11
2382.650679594463
 21
903.4240248065259
 31
0.0
  0
LINE
  5
E3A
330
BCD
100
AcDbEntity
  8
0
  6
Continuous
 62
     7
370
    15
100
AcDbLine
 10
2389.829806401563
 20
912.185003463292
 30
0.0
 11
2389.937852685319
 21
912.1226296713434
 31
0.0
  0
ARC
  5
E3B
330
BCD
100
AcDbEntity
  8
0
  6
Continuous
 62
     7
370
    15
100
AcDbCircle
 10
2389.730825355274
 20
911.7989782413289
 30
0.0
 40
0.3842012018931901
100
AcDbArc
 50
2.605478485669381
 51
57.39452165996985
  0
LINE
  5
E3C
330
BCD
100
AcDbEntity
  8
0
  6
Continuous
 62
     7
370
    15
100
AcDbLine
 10
2390.114629380615
 20
907.1065607402188
 30
0.0
 11
2390.114629380616
 21
911.8164434543942
 31
0.0
  0
LINE
  5
E3D
330
BCD
100
AcDbEntity
  8
0
  6
Continuous
 62
     7
370
    15
100
AcDbLine
 10
2390.114629380615
 20
907.1065607402188
 30
0.0
 11
2388.208551606068
 21
908.2069160177441
 31
0.0
  0
LINE
  5
E3E
330
BCD
100
AcDbEntity
  8
0
  6
Continuous
 62
     7
370
    15
100
AcDbLine
 10
2388.208551606068
 20
912.9167987319197
 30
0.0
 11
2388.208551606068
 21
908.2069160177441
 31
0.0
  0
ARC
  5
E3F
330
BCD
100
AcDbEntity
  8
0
  6
Continuous
 62
     7
370
    15
100
AcDbCircle
 10
2388.316320197925
 20
912.9342805311448
 30
0.0
 40
0.1091772993571935
100
AcDbArc
 50
50.79671476426418
 51
189.2140369904371
  0
LINE
  5
E40
330
BCD
100
AcDbEntity
  8
0
  6
Continuous
 62
     7
370
    15
100
AcDbLine
 10
2388.385328301365
 20
913.0188829209131
 30
0.0
 11
2388.493374585121
 21
912.9565091289641
 31
0.0
  0
ARC
  5
E41
330
BCD
100
AcDbEntity
  8
0
  6
Continuous
 62
     7
370
    15
100
AcDbCircle
 10
2388.562382688561
 20
913.0411115187326
 30
0.0
 40
0.1091772993570889
100
AcDbArc
 50
230.7967147642967
 51
9.214036990527093
  0
LINE
  5
E42
330
BCD
100
AcDbEntity
  8
0
  6
Continuous
 62
     7
370
    15
100
AcDbLine
 10
2388.670151280418
 20
913.0585933179579
 30
0.0
 11
2388.670151280418
 21
913.7118856824931
 31
0.0
  0
LINE
  5
E43
330
BCD
100
AcDbEntity
  8
0
  6
Continuous
 62
     7
370
    15
100
AcDbLine
 10
2389.653029706266
 20
913.1444820447764
 30
0.0
 11
2389.653029706266
 21
912.4911896802414
 31
0.0
  0
ARC
  5
E44
330
BCD
100
AcDbEntity
  8
0
  6
Continuous
 62
     7
370
    15
100
AcDbCircle
 10
2390.036833731608
 20
912.5086548933065
 30
0.0
 40
0.3842012018929565
100
AcDbArc
 50
182.6054784856498
 51
237.3945216600058
  0
LINE
  5
E45
330
BCD
100
AcDbEntity
  8
0
  6
Continuous
 62
     7
370
    15
100
AcDbLine
 10
2389.653029706266
 20
912.4911896802414
 30
0.0
 11
2391.774350049825
 21
913.715801847975
 31
0.0
  0
LINE
  5
E46
330
BCD
100
AcDbEntity
  8
0
  6
Continuous
 62
     7
370
    15
100
AcDbLine
 10
2391.774350049825
 20
913.715801847975
 30
0.0
 11
2391.774350049826
 21
914.3690942125104
 31
0.0
  0
LINE
  5
E47
330
BCD
100
AcDbEntity
  8
0
  6
Continuous
 62
     7
370
    15
100
AcDbLine
 10
2392.059173028878
 20
913.3472418390773
 30
0.0
 11
2389.937852685319
 21
912.1226296713434
 31
0.0
  0
ARC
  5
E48
330
BCD
100
AcDbEntity
  8
0
  6
Continuous
 62
     7
370
    15
100
AcDbCircle
 10
2391.852145698833
 20
913.0235904090632
 30
0.0
 40
0.3842012018926106
100
AcDbArc
 50
2.605478485636846
 51
57.39452166000233
  0
LINE
  5
E49
330
BCD
100
AcDbEntity
  8
0
  6
Continuous
 62
     7
370
    15
100
AcDbLine
 10
2390.114629380616
 20
911.8164434543942
 30
0.0
 11
2392.235949724175
 21
913.0410556221281
 31
0.0
  0
ARC
  5
E4A
330
BCD
100
AcDbEntity
  8
0
  6
Continuous
 62
     7
370
    15
100
AcDbCircle
 10
2382.951680847577
 20
903.4527904587514
 30
0.0
 40
0.3023726461244456
100
AcDbArc
 50
185.4589815371166
 51
237.2630757801018
  0
ARC
  5
E4B
330
BCD
100
AcDbEntity
  8
0
  6
Continuous
 62
     7
370
    15
100
AcDbCircle
 10
2392.158154075164
 20
913.7332670610382
 30
0.0
 40
0.3842012018898062
100
AcDbArc
 50
182.605478485396
 51
237.3945216602157
  0
LINE
  5
E4C
330
BCD
100
AcDbEntity
  8
0
  6
Continuous
 62
     7
370
    15
100
AcDbLine
 10
2391.951126745122
 20
913.4096156310254
 30
0.0
 11
2389.829806401563
 21
912.185003463292
 31
0.0
  0
LINE
  5
E4D
330
BCD
100
AcDbEntity
  8
0
  6
Continuous
 62
     7
370
    15
100
AcDbLine
 10
2392.235949724175
 20
913.0410556221281
 30
0.0
 11
2392.235949724175
 21
908.3311729079531
 31
0.0
  0
LINE
  5
E4E
330
BCD
100
AcDbEntity
  8
0
  6
Continuous
 62
     7
370
    15
100
AcDbLine
 10
2392.235949724175
 20
908.3311729079531
 30
0.0
 11
2391.995546130051
 21
906.6179908735495
 31
0.0
  0
ARC
  5
E4F
330
BCD
100
AcDbEntity
  8
0
  6
Continuous
 62
     7
370
    15
100
AcDbCircle
 10
2390.913315148107
 20
906.7834098195605
 30
0.0
 40
1.094800130607861
100
AcDbArc
 50
302.9067666138764
 51
351.3096048990302
  0
LINE
  5
E50
330
BCD
100
AcDbEntity
  8
0
  6
Continuous
 62
     7
370
    15
100
AcDbLine
 10
2390.842487942963
 20
905.4800195592866
 30
0.0
 11
2391.508091161826
 21
905.8642641186608
 31
0.0
  0
LWPOLYLINE
  5
E51
330
BCD
100
AcDbEntity
  8
0
  6
Continuous
 62
     7
370
    15
100
AcDbPolyline
 90
        9
 70
   128
 43
0.0
 10
2390.842487942963
 20
905.4800195592866
 10
2390.756536480185
 20
905.4390843987718
 10
2390.67319660911
 20
905.4167601579607
 10
2390.595000569548
 20
905.4137251476138
 10
2390.524324308593
 20
905.4300715849848
 10
2390.46331528867
 20
905.4653027918456
 10
2390.413827237976
 20
905.5183482858037
 10
2390.377363825891
 20
905.5875963063678
 10
2390.35503297474
 20
905.6709427874737
  0
LINE
  5
E52
330
BCD
100
AcDbEntity
  8
0
  6
Continuous
 62
     7
370
    15
100
AcDbLine
 10
2390.35503297474
 20
905.6709427874737
 30
0.0
 11
2390.114629380615
 21
907.1065607402188
 31
0.0
  0
LINE
  5
E53
330
BCD
100
AcDbEntity
  8
0
  6
Continuous
 62
     7
370
    15
100
AcDbLine
 10
2392.059173028878
 20
913.3472418390773
 30
0.0
 11
2391.951126745122
 21
913.4096156310254
 31
0.0
  0
LINE
  5
E54
330
BCD
100
AcDbEntity
  8
0
  6
Continuous
 62
     7
370
    15
100
AcDbLine
 10
2390.35503297474
 20
905.6709427874737
 30
0.0
 11
2388.448955200193
 21
906.7712980649991
 31
0.0
  0
LINE
  5
E55
330
BCD
100
AcDbEntity
  8
0
  6
Continuous
 62
     7
370
    15
100
AcDbLine
 10
2388.208551606068
 20
908.2069160177441
 30
0.0
 11
2388.448955200193
 21
906.7712980649991
 31
0.0
  0
ARC
  5
E56
330
BCD
100
AcDbEntity
  8
0
  6
Continuous
 62
     7
370
    15
100
AcDbCircle
 10
2388.749956453307
 20
906.8000637172243
 30
0.0
 40
0.3023726461242033
100
AcDbArc
 50
185.4589815370842
 51
237.2630757801307
  0
LINE
  5
E57
330
BCD
100
AcDbEntity
  8
0
  6
Continuous
 62
     8
370
    15
100
AcDbLine
 10
2343.019337487014
 20
888.4922960653728
 30
0.0
 11
2340.968727821572
 21
889.6760878275157
 31
0.0
  0
LINE
  5
E58
330
BCD
100
AcDbEntity
  8
0
  6
Continuous
 62
     8
370
    15
100
AcDbLine
 10
2336.308894133554
 20
882.8310498027066
 30
0.0
 11
2336.485670826515
 21
882.9331008153367
 31
0.0
  0
LINE
  5
E59
330
BCD
100
AcDbEntity
  8
0
  6
Continuous
 62
     8
370
    15
100
AcDbLine
 10
2336.200847849797
 20
882.8934235946558
 30
0.0
 11
2336.48567082885
 21
883.0578484005828
 31
0.0
  0
LINE
  5
E5A
330
BCD
100
AcDbEntity
  8
0
  6
Continuous
 62
     8
370
    15
100
AcDbLine
 10
2348.817613092744
 20
891.8395693238458
 30
0.0
 11
2346.767003427302
 21
893.0233610859888
 31
0.0
  0
LINE
  5
E5B
330
BCD
100
AcDbEntity
  8
0
  6
Continuous
 62
     8
370
    15
100
AcDbLine
 10
2342.107169739283
 20
886.1783230611798
 30
0.0
 11
2342.283946432245
 21
886.2803740738097
 31
0.0
  0
LINE
  5
E5C
330
BCD
100
AcDbEntity
  8
0
  6
Continuous
 62
     8
370
    15
100
AcDbLine
 10
2341.999123455527
 20
886.2406968531288
 30
0.0
 11
2342.28394643458
 21
886.4051216590558
 31
0.0
  0
LINE
  5
E5D
330
BCD
100
AcDbEntity
  8
0
  6
Continuous
 62
     8
370
    15
100
AcDbLine
 10
2354.615888698473
 20
895.1868425823189
 30
0.0
 11
2352.565279033032
 21
896.3706343444618
 31
0.0
  0
LINE
  5
E5E
330
BCD
100
AcDbEntity
  8
0
  6
Continuous
 62
     8
370
    15
100
AcDbLine
 10
2347.905445345013
 20
889.5255963196529
 30
0.0
 11
2348.082222037975
 21
889.6276473322828
 31
0.0
  0
LINE
  5
E5F
330
BCD
100
AcDbEntity
  8
0
  6
Continuous
 62
     8
370
    15
100
AcDbLine
 10
2347.797399061256
 20
889.5879701116019
 30
0.0
 11
2348.08222204031
 21
889.7523949175289
 31
0.0
  0
LINE
  5
E60
330
BCD
100
AcDbEntity
  8
0
  6
Continuous
 62
     8
370
    15
100
AcDbLine
 10
2360.414164304203
 20
898.5341158407917
 30
0.0
 11
2358.363554638762
 21
899.7179076029349
 31
0.0
  0
LINE
  5
E61
330
BCD
100
AcDbEntity
  8
0
  6
Continuous
 62
     8
370
    15
100
AcDbLine
 10
2353.703720950742
 20
892.8728695781259
 30
0.0
 11
2353.880497643705
 21
892.9749205907558
 31
0.0
  0
LINE
  5
E62
330
BCD
100
AcDbEntity
  8
0
  6
Continuous
 62
     8
370
    15
100
AcDbLine
 10
2353.595674666987
 20
892.9352433700749
 30
0.0
 11
2353.88049764604
 21
893.0996681760019
 31
0.0
  0
LINE
  5
E63
330
BCD
100
AcDbEntity
  8
0
  6
Continuous
 62
     8
370
    15
100
AcDbLine
 10
2366.212439909933
 20
901.8813890992648
 30
0.0
 11
2364.161830244492
 21
903.0651808614079
 31
0.0
  0
LINE
  5
E64
330
BCD
100
AcDbEntity
  8
0
  6
Continuous
 62
     8
370
    15
100
AcDbLine
 10
2359.501996556472
 20
896.220142836599
 30
0.0
 11
2359.678773249434
 21
896.3221938492289
 31
0.0
  0
LINE
  5
E65
330
BCD
100
AcDbEntity
  8
0
  6
Continuous
 62
     8
370
    15
100
AcDbLine
 10
2359.393950272716
 20
896.2825166285481
 30
0.0
 11
2359.678773251769
 21
896.4469414344749
 31
0.0
  0
LINE
  5
E66
330
BCD
100
AcDbEntity
  8
0
  6
Continuous
 62
     8
370
    15
100
AcDbLine
 10
2372.010715515662
 20
905.2286623577378
 30
0.0
 11
2369.960105850221
 21
906.4124541198809
 31
0.0
  0
LINE
  5
E67
330
BCD
100
AcDbEntity
  8
0
  6
Continuous
 62
     8
370
    15
100
AcDbLine
 10
2365.300272162202
 20
899.567416095072
 30
0.0
 11
2365.477048855164
 21
899.6694671077019
 31
0.0
  0
LINE
  5
E68
330
BCD
100
AcDbEntity
  8
0
  6
Continuous
 62
     8
370
    15
100
AcDbLine
 10
2365.192225878446
 20
899.629789887021
 30
0.0
 11
2365.477048857499
 21
899.794214692948
 31
0.0
  0
LINE
  5
E69
330
BCD
100
AcDbEntity
  8
0
  6
Continuous
 62
     8
370
    15
100
AcDbLine
 10
2377.808991121392
 20
908.575935616211
 30
0.0
 11
2375.758381455951
 21
909.759727378354
 31
0.0
  0
LINE
  5
E6A
330
BCD
100
AcDbEntity
  8
0
  6
Continuous
 62
     8
370
    15
100
AcDbLine
 10
2371.098547767932
 20
902.914689353545
 30
0.0
 11
2371.275324460893
 21
903.0167403661751
 31
0.0
  0
LINE
  5
E6B
330
BCD
100
AcDbEntity
  8
0
  6
Continuous
 62
     8
370
    15
100
AcDbLine
 10
2370.990501484175
 20
902.9770631454942
 30
0.0
 11
2371.275324463228
 21
903.141487951421
 31
0.0
  0
LINE
  5
E6C
330
BCD
100
AcDbEntity
  8
0
  6
Continuous
 62
     8
370
    15
100
AcDbLine
 10
2383.607266727122
 20
911.9232088746841
 30
0.0
 11
2381.556657061681
 21
913.107000636827
 31
0.0
  0
LINE
  5
E6D
330
BCD
100
AcDbEntity
  8
0
  6
Continuous
 62
     8
370
    15
100
AcDbLine
 10
2376.896823373662
 20
906.2619626120181
 30
0.0
 11
2377.073600066623
 21
906.3640136246482
 31
0.0
  0
LINE
  5
E6E
330
BCD
100
AcDbEntity
  8
0
  6
Continuous
 62
     8
370
    15
100
AcDbLine
 10
2376.788777089905
 20
906.3243364039673
 30
0.0
 11
2377.073600068958
 21
906.4887612098941
 31
0.0
  0
LINE
  5
E6F
330
BCD
100
AcDbEntity
  8
0
  6
Continuous
 62
     8
370
    15
100
AcDbLine
 10
2389.405542332851
 20
915.2704821331571
 30
0.0
 11
2387.35493266741
 21
916.4542738953
 31
0.0
  0
LINE
  5
E70
330
BCD
100
AcDbEntity
  8
0
  6
Continuous
 62
     8
370
    15
100
AcDbLine
 10
2382.695098979391
 20
909.6092358704911
 30
0.0
 11
2382.871875672353
 21
909.7112868831212
 31
0.0
  0
LINE
  5
E71
330
BCD
100
AcDbEntity
  8
0
  6
Continuous
 62
     8
370
    15
100
AcDbLine
 10
2382.587052695635
 20
909.6716096624403
 30
0.0
 11
2382.871875674688
 21
909.8360344683671
 31
0.0
  0
LINE
  5
E72
330
BCD
100
AcDbEntity
  8
0
  6
Continuous
 62
     8
370
    15
100
AcDbLine
 10
2388.493374585121
 20
912.9565091289641
 30
0.0
 11
2388.670151278083
 21
913.0585601415942
 31
0.0
  0
LINE
  5
E73
330
BCD
100
AcDbEntity
  8
0
  6
Continuous
 62
     8
370
    15
100
AcDbLine
 10
2388.385328301365
 20
913.0188829209131
 30
0.0
 11
2388.670151280418
 21
913.1833077268401
 31
0.0
  0
ENDBLK
  5
BCF
330
BCD
100
AcDbEntity
  8
0
100
AcDbBlockEnd
  0
ENDSEC
  0
SECTION
  2
ENTITIES
  0
INSERT
  5
B91
330
1F
100
AcDbEntity
  8
0
100
AcDbBlockReference
  2
1
 10
0.0
 20
0.0
 30
0.0
  0
INSERT
  5
BC4
330
1F
100
AcDbEntity
  8
0
100
AcDbBlockReference
  2
2
 10
0.0
 20
0.0
 30
0.0
  0
INSERT
  5
BCC
330
1F
100
AcDbEntity
  8
0
100
AcDbBlockReference
  2
3
 10
0.0
 20
0.0
 30
0.0
  0
INSERT
  5
E74
330
1F
100
AcDbEntity
  8
0
100
AcDbBlockReference
  2
4
 10
0.0
 20
0.0
 30
0.0
  0
ENDSEC
  0
SECTION
  2
OBJECTS
  0
DICTIONARY
  5
C
330
0
100
AcDbDictionary
281
     1
  3
ACAD_COLOR
350
6B
  3
ACAD_GROUP
350
D
  3
ACAD_LAYOUT
350
1A
  3
ACAD_MATERIAL
350
6A
  3
ACAD_MLEADERSTYLE
350
12D
  3
ACAD_MLINESTYLE
350
17
  3
ACAD_PLOTSETTINGS
350
19
  3
ACAD_PLOTSTYLENAME
350
E
  3
ACAD_SCALELIST
350
10C
  3
ACAD_TABLESTYLE
350
7E
  3
ACAD_VISUALSTYLE
350
EF
  3
ACDB_RECOMPOSE_DATA
350
15D
  3
AcDbVariableDictionary
350
5E
  3
DWGPROPS
350
E82
  0
DICTIONARY
  5
13C
330
10
100
AcDbDictionary
280
     1
281
     1
  3
ADSK_XREC_LAYER_RECONCILED
360
E75
  0
DICTIONARY
  5
6B
102
{ACAD_REACTORS
330
C
102
}
330
C
100
AcDbDictionary
281
     1
  0
DICTIONARY
  5
D
102
{ACAD_REACTORS
330
C
102
}
330
C
100
AcDbDictionary
281
     1
  0
DICTIONARY
  5
1A
102
{ACAD_REACTORS
330
C
102
}
330
C
100
AcDbDictionary
281
     1
  3
Layout1
350
D3
  3
Layout2
350
D7
  3
Model
350
22
  0
DICTIONARY
  5
6A
102
{ACAD_REACTORS
330
C
102
}
330
C
100
AcDbDictionary
281
     1
  3
ByBlock
350
ED
  3
ByLayer
350
EC
  3
Global
350
EE
  0
DICTIONARY
  5
12D
102
{ACAD_REACTORS
330
C
102
}
330
C
100
AcDbDictionary
281
     1
  3
Annotative
350
13B
  3
Standard
350
12E
  0
DICTIONARY
  5
17
102
{ACAD_REACTORS
330
C
102
}
330
C
100
AcDbDictionary
281
     1
  3
Standard
350
18
  0
DICTIONARY
  5
19
102
{ACAD_REACTORS
330
C
102
}
330
C
100
AcDbDictionary
281
     1
  0
ACDBDICTIONARYWDFLT
  5
E
102
{ACAD_REACTORS
330
C
102
}
330
C
100
AcDbDictionary
281
     1
  3
Normal
350
F
100
AcDbDictionaryWithDefault
340
F
  0
DICTIONARY
  5
10C
102
{ACAD_REACTORS
330
C
102
}
330
C
100
AcDbDictionary
281
     1
  3
A0
350
10D
  3
A1
350
188
  3
A2
350
189
  3
A3
350
18A
  3
A4
350
18B
  3
A5
350
18C
  3
A6
350
18D
  3
A7
350
18E
  3
A8
350
18F
  3
A9
350
190
  3
B0
350
191
  3
B1
350
192
  3
B2
350
193
  3
B3
350
194
  3
B4
350
195
  3
B5
350
196
  3
B6
350
197
  3
B7
350
198
  3
B8
350
199
  3
B9
350
19A
  3
C0
350
19B
  3
C1
350
19C
  3
C2
350
19D
  3
C3
350
19E
  3
C4
350
19F
  3
C5
350
1A0
  3
C6
350
1A1
  3
C7
350
1A2
  3
C8
350
1A3
  3
C9
350
1A4
  3
D0
350
1A5
  3
D1
350
1A6
  3
D2
350
1A7
  0
DICTIONARY
  5
7E
102
{ACAD_REACTORS
330
C
102
}
330
C
100
AcDbDictionary
281
     1
  3
Standard
350
7F
  0
DICTIONARY
  5
EF
102
{ACAD_REACTORS
330
C
102
}
330
C
100
AcDbDictionary
281
     1
  3
2dWireframe
350
F5
  3
3D Hidden
350
F7
  3
3dWireframe
350
F6
  3
Basic
350
F4
  3
Brighten
350
FB
  3
ColorChange
350
FF
  3
Conceptual
350
F8
  3
Dim
350
FA
  3
Facepattern
350
FE
  3
Flat
350
F0
  3
FlatWithEdges
350
F1
  3
Gouraud
350
F2
  3
GouraudWithEdges
350
F3
  3
Linepattern
350
FD
  3
Realistic
350
F9
  3
Thicken
350
FC
  0
XRECORD
  5
15D
102
{ACAD_REACTORS
330
C
102
}
330
C
100
AcDbXrecord
280
     1
 90
        1
330
7F
  0
DICTIONARY
  5
5E
102
{ACAD_REACTORS
330
C
102
}
330
C
100
AcDbDictionary
281
     1
  3
CANNOSCALE
350
146
  3
CMLEADERSTYLE
350
145
  3
CTABLESTYLE
350
84
  3
DIMASSOC
350
5F
  3
HIDETEXT
350
63
  3
INDEXCTL
350
E7E
  3
LIGHTINGUNITS
350
E7C
  3
MSLTSCALE
350
E7B
  3
PSOLHEIGHT
350
E80
  3
PSOLWIDTH
350
E7F
  3
SORTENTS
350
E7D
  0
XRECORD
  5
E82
102
{ACAD_REACTORS
330
C
102
}
330
C
100
AcDbXrecord
280
     1
  1
DWGPROPS COOKIE
  2

  3

  4

  6

  7

  8
orhan kara
  9

300
=
301
=
302
=
303
=
304
=
305
=
306
=
307
=
308
=
309
=
 40
0.0003713773148148
 41
2458932.680531238
 42
2458956.446191621
  1

 90
        0
  0
XRECORD
  5
E75
102
{ACAD_REACTORS
330
13C
102
}
330
13C
100
AcDbXrecord
280
     1
290
     1
  0
LAYOUT
  5
D3
102
{ACAD_XDICTIONARY
360
E86
102
}
102
{ACAD_REACTORS
330
1A
102
}
330
1A
100
AcDbPlotSettings
  1

  2
C:\Documents and Settings\basas\Application Data\Autodesk\AutoCAD 2005\R16.1\enu\plotters\Default Windows System Printer.pc3
  4

  6

 40
0.0
 41
0.0
 42
0.0
 43
0.0
 44
0.0
 45
0.0
 46
0.0
 47
0.0
 48
0.0
 49
0.0
140
0.0
141
0.0
142
1.0
143
1.0
 70
   688
 72
     0
 73
     0
 74
     5
  7

 75
    16
147
1.0
148
0.0
149
0.0
100
AcDbLayout
  1
Layout1
 70
     1
 71
     1
 10
0.0
 20
0.0
 11
12.0
 21
9.0
 12
0.0
 22
0.0
 32
0.0
 14
0.0
 24
0.0
 34
0.0
 15
0.0
 25
0.0
 35
0.0
146
0.0
 13
0.0
 23
0.0
 33
0.0
 16
1.0
 26
0.0
 36
0.0
 17
0.0
 27
1.0
 37
0.0
 76
     0
330
D2
  0
LAYOUT
  5
D7
102
{ACAD_XDICTIONARY
360
E88
102
}
102
{ACAD_REACTORS
330
1A
102
}
330
1A
100
AcDbPlotSettings
  1

  2
C:\Documents and Settings\basas\Application Data\Autodesk\AutoCAD 2005\R16.1\enu\plotters\Default Windows System Printer.pc3
  4

  6

 40
0.0
 41
0.0
 42
0.0
 43
0.0
 44
0.0
 45
0.0
 46
0.0
 47
0.0
 48
0.0
 49
0.0
140
0.0
141
0.0
142
1.0
143
1.0
 70
   688
 72
     0
 73
     0
 74
     5
  7

 75
    16
147
1.0
148
0.0
149
0.0
100
AcDbLayout
  1
Layout2
 70
     1
 71
     2
 10
0.0
 20
0.0
 11
12.0
 21
9.0
 12
0.0
 22
0.0
 32
0.0
 14
0.0
 24
0.0
 34
0.0
 15
0.0
 25
0.0
 35
0.0
146
0.0
 13
0.0
 23
0.0
 33
0.0
 16
1.0
 26
0.0
 36
0.0
 17
0.0
 27
1.0
 37
0.0
 76
     0
330
D6
  0
LAYOUT
  5
22
102
{ACAD_XDICTIONARY
360
E83
102
}
102
{ACAD_REACTORS
330
1A
102
}
330
1A
100
AcDbPlotSettings
  1

  2
none_device
  4
ISO_A4_(210.00_x_297.00_MM)
  6

 40
7.5
 41
20.0
 42
7.5
 43
20.0
 44
210.0
 45
297.0
 46
11.54999923706054
 47
-13.65000009536743
 48
0.0
 49
0.0
140
0.0
141
0.0
142
1.0
143
8.704084754739808
 70
 11952
 72
     1
 73
     0
 74
     0
  7

 75
     0
147
0.1148885871608098
148
0.0
149
0.0
100
AcDbLayout
  1
Model
 70
     1
 71
     0
 10
0.0
 20
0.0
 11
12.0
 21
9.0
 12
0.0
 22
0.0
 32
0.0
 14
0.0
 24
0.0
 34
0.0
 15
0.0
 25
0.0
 35
0.0
146
0.0
 13
0.0
 23
0.0
 33
0.0
 16
1.0
 26
0.0
 36
0.0
 17
0.0
 27
1.0
 37
0.0
 76
     0
330
1F
331
EA
1001
ACAD_PSEXT
1000
None
1000
None
1000
Not applicable
1000
The layout will not be plotted unless a new plotter configuration name is selected.
1070
     0
  0
MATERIAL
  5
ED
102
{ACAD_XDICTIONARY
360
E8C
102
}
102
{ACAD_REACTORS
330
6A
102
}
330
6A
100
AcDbMaterial
  1
ByBlock
  0
MATERIAL
  5
EC
102
{ACAD_XDICTIONARY
360
E8A
102
}
102
{ACAD_REACTORS
330
6A
102
}
330
6A
100
AcDbMaterial
  1
ByLayer
  0
MATERIAL
  5
EE
102
{ACAD_XDICTIONARY
360
173
102
}
102
{ACAD_REACTORS
330
6A
102
}
330
6A
100
AcDbMaterial
  1
Global
 43
0.0007999999797903
 43
0.0
 43
0.0
 43
0.0
 43
0.0
 43
0.0007999999797903
 43
0.0
 43
0.0
 43
0.0
 43
0.0
 43
1.0
 43
0.0
 43
0.0
 43
0.0
 43
0.0
 43
1.0
 49
0.0007999999797903
 49
0.0
 49
0.0
 49
0.0
 49
0.0
 49
0.0007999999797903
 49
0.0
 49
0.0
 49
0.0
 49
0.0
 49
1.0
 49
0.0
 49
0.0
 49
0.0
 49
0.0
 49
1.0
142
0.0007999999797903
142
0.0
142
0.0
142
0.0
142
0.0
142
0.0007999999797903
142
0.0
142
0.0
142
0.0
142
0.0
142
1.0
142
0.0
142
0.0
142
0.0
142
0.0
142
1.0
144
0.0007999999797903
144
0.0
144
0.0
144
0.0
144
0.0
144
0.0007999999797903
144
0.0
144
0.0
144
0.0
144
0.0
144
1.0
144
0.0
144
0.0
144
0.0
144
0.0
144
1.0
1001
ACAD
1070
    -1
1070
     3
1070
     0
1000

1071
        0
1070
     0
  0
MLEADERSTYLE
  5
13B
102
{ACAD_REACTORS
330
12D
102
}
330
12D
100
AcDbMLeaderStyle
170
     2
171
     1
172
     0
 90
        2
 40
0.0
 41
0.0
173
     1
 91
-1056964608
340
14
 92
       -2
290
     1
 42
2.0
291
     1
 43
8.0
  3
Standard
 44
4.0
300

342
11
174
     1
178
     1
175
     1
176
     0
 93
-1056964608
 45
4.0
292
     0
297
     0
 46
4.0
 94
-1056964608
 47
1.0
 49
1.0
140
1.0
293
     1
141
0.0
294
     1
177
     0
142
1.0
295
     0
296
     1
143
3.75
1001
ACAD_MLEADERVER
1070
     2
  0
MLEADERSTYLE
  5
12E
102
{ACAD_REACTORS
330
12D
102
}
330
12D
100
AcDbMLeaderStyle
170
     2
171
     1
172
     0
 90
        2
 40
0.0
 41
0.0
173
     1
 91
-1056964608
340
14
 92
       -2
290
     1
 42
2.0
291
     1
 43
8.0
  3
Standard
 44
4.0
300

342
11
174
     1
178
     1
175
     1
176
     0
 93
-1056964608
 45
4.0
292
     0
297
     0
 46
4.0
 94
-1056964608
 47
1.0
 49
1.0
140
1.0
293
     1
141
0.0
294
     1
177
     0
142
1.0
295
     0
296
     0
143
3.75
1001
ACAD_MLEADERVER
1070
     2
  0
MLINESTYLE
  5
18
102
{ACAD_REACTORS
330
17
102
}
330
17
100
AcDbMlineStyle
  2
STANDARD
 70
     0
  3

 62
   256
 51
90.0
 52
90.0
 71
     2
 49
0.5
 62
   256
  6
BYLAYER
 49
-0.5
 62
   256
  6
BYLAYER
  0
ACDBPLACEHOLDER
  5
F
102
{ACAD_REACTORS
330
E
102
}
330
E
  0
SCALE
  5
10D
102
{ACAD_REACTORS
330
10C
102
}
330
10C
100
AcDbScale
 70
     0
300
1:1
140
1.0
141
1.0
290
     1
  0
SCALE
  5
188
102
{ACAD_REACTORS
330
10C
102
}
330
10C
100
AcDbScale
 70
     0
300
1:2
140
1.0
141
2.0
290
     0
  0
SCALE
  5
189
102
{ACAD_REACTORS
330
10C
102
}
330
10C
100
AcDbScale
 70
     0
300
1:4
140
1.0
141
4.0
290
     0
  0
SCALE
  5
18A
102
{ACAD_REACTORS
330
10C
102
}
330
10C
100
AcDbScale
 70
     0
300
1:5
140
1.0
141
5.0
290
     0
  0
SCALE
  5
18B
102
{ACAD_REACTORS
330
10C
102
}
330
10C
100
AcDbScale
 70
     0
300
1:8
140
1.0
141
8.0
290
     0
  0
SCALE
  5
18C
102
{ACAD_REACTORS
330
10C
102
}
330
10C
100
AcDbScale
 70
     0
300
1:10
140
1.0
141
10.0
290
     0
  0
SCALE
  5
18D
102
{ACAD_REACTORS
330
10C
102
}
330
10C
100
AcDbScale
 70
     0
300
1:16
140
1.0
141
16.0
290
     0
  0
SCALE
  5
18E
102
{ACAD_REACTORS
330
10C
102
}
330
10C
100
AcDbScale
 70
     0
300
1:20
140
1.0
141
20.0
290
     0
  0
SCALE
  5
18F
102
{ACAD_REACTORS
330
10C
102
}
330
10C
100
AcDbScale
 70
     0
300
1:30
140
1.0
141
30.0
290
     0
  0
SCALE
  5
190
102
{ACAD_REACTORS
330
10C
102
}
330
10C
100
AcDbScale
 70
     0
300
1:40
140
1.0
141
40.0
290
     0
  0
SCALE
  5
191
102
{ACAD_REACTORS
330
10C
102
}
330
10C
100
AcDbScale
 70
     0
300
1:50
140
1.0
141
50.0
290
     0
  0
SCALE
  5
192
102
{ACAD_REACTORS
330
10C
102
}
330
10C
100
AcDbScale
 70
     0
300
1:100
140
1.0
141
100.0
290
     0
  0
SCALE
  5
193
102
{ACAD_REACTORS
330
10C
102
}
330
10C
100
AcDbScale
 70
     0
300
2:1
140
2.0
141
1.0
290
     0
  0
SCALE
  5
194
102
{ACAD_REACTORS
330
10C
102
}
330
10C
100
AcDbScale
 70
     0
300
4:1
140
4.0
141
1.0
290
     0
  0
SCALE
  5
195
102
{ACAD_REACTORS
330
10C
102
}
330
10C
100
AcDbScale
 70
     0
300
8:1
140
8.0
141
1.0
290
     0
  0
SCALE
  5
196
102
{ACAD_REACTORS
330
10C
102
}
330
10C
100
AcDbScale
 70
     0
300
10:1
140
10.0
141
1.0
290
     0
  0
SCALE
  5
197
102
{ACAD_REACTORS
330
10C
102
}
330
10C
100
AcDbScale
 70
     0
300
100:1
140
100.0
141
1.0
290
     0
  0
SCALE
  5
198
102
{ACAD_REACTORS
330
10C
102
}
330
10C
100
AcDbScale
 70
     0
300
1/128" = 1'-0"
140
0.0078125
141
12.0
290
     0
  0
SCALE
  5
199
102
{ACAD_REACTORS
330
10C
102
}
330
10C
100
AcDbScale
 70
     0
300
1/64" = 1'-0"
140
0.015625
141
12.0
290
     0
  0
SCALE
  5
19A
102
{ACAD_REACTORS
330
10C
102
}
330
10C
100
AcDbScale
 70
     0
300
1/32" = 1'-0"
140
0.03125
141
12.0
290
     0
  0
SCALE
  5
19B
102
{ACAD_REACTORS
330
10C
102
}
330
10C
100
AcDbScale
 70
     0
300
1/16" = 1'-0"
140
0.0625
141
12.0
290
     0
  0
SCALE
  5
19C
102
{ACAD_REACTORS
330
10C
102
}
330
10C
100
AcDbScale
 70
     0
300
3/32" = 1'-0"
140
0.09375
141
12.0
290
     0
  0
SCALE
  5
19D
102
{ACAD_REACTORS
330
10C
102
}
330
10C
100
AcDbScale
 70
     0
300
1/8" = 1'-0"
140
0.125
141
12.0
290
     0
  0
SCALE
  5
19E
102
{ACAD_REACTORS
330
10C
102
}
330
10C
100
AcDbScale
 70
     0
300
3/16" = 1'-0"
140
0.1875
141
12.0
290
     0
  0
SCALE
  5
19F
102
{ACAD_REACTORS
330
10C
102
}
330
10C
100
AcDbScale
 70
     0
300
1/4" = 1'-0"
140
0.25
141
12.0
290
     0
  0
SCALE
  5
1A0
102
{ACAD_REACTORS
330
10C
102
}
330
10C
100
AcDbScale
 70
     0
300
3/8" = 1'-0"
140
0.375
141
12.0
290
     0
  0
SCALE
  5
1A1
102
{ACAD_REACTORS
330
10C
102
}
330
10C
100
AcDbScale
 70
     0
300
1/2" = 1'-0"
140
0.5
141
12.0
290
     0
  0
SCALE
  5
1A2
102
{ACAD_REACTORS
330
10C
102
}
330
10C
100
AcDbScale
 70
     0
300
3/4" = 1'-0"
140
0.75
141
12.0
290
     0
  0
SCALE
  5
1A3
102
{ACAD_REACTORS
330
10C
102
}
330
10C
100
AcDbScale
 70
     0
300
1" = 1'-0"
140
1.0
141
12.0
290
     0
  0
SCALE
  5
1A4
102
{ACAD_REACTORS
330
10C
102
}
330
10C
100
AcDbScale
 70
     0
300
1-1/2" = 1'-0"
140
1.5
141
12.0
290
     0
  0
SCALE
  5
1A5
102
{ACAD_REACTORS
330
10C
102
}
330
10C
100
AcDbScale
 70
     0
300
3" = 1'-0"
140
3.0
141
12.0
290
     0
  0
SCALE
  5
1A6
102
{ACAD_REACTORS
330
10C
102
}
330
10C
100
AcDbScale
 70
     0
300
6" = 1'-0"
140
6.0
141
12.0
290
     0
  0
SCALE
  5
1A7
102
{ACAD_REACTORS
330
10C
102
}
330
10C
100
AcDbScale
 70
     0
300
1'-0" = 1'-0"
140
12.0
141
12.0
290
     0
  0
TABLESTYLE
  5
7F
102
{ACAD_XDICTIONARY
360
162
102
}
102
{ACAD_REACTORS
330
7E
102
}
330
7E
100
AcDbTableStyle
  3
Standard
 70
     0
 71
     0
 40
1.5
 41
1.5
280
     0
281
     0
  7
Standard
140
4.5
170
     2
 62
     0
 63
     7
283
     0
274
    -2
284
     1
 64
     0
275
    -2
285
     1
 65
     0
276
    -2
286
     1
 66
     0
277
    -2
287
     1
 67
     0
278
    -2
288
     1
 68
     0
279
    -2
289
     1
 69
     0
  7
Standard
140
6.0
170
     5
 62
     0
 63
     7
283
     0
274
    -2
284
     1
 64
     0
275
    -2
285
     1
 65
     0
276
    -2
286
     1
 66
     0
277
    -2
287
     1
 67
     0
278
    -2
288
     1
 68
     0
279
    -2
289
     1
 69
     0
  7
Standard
140
4.5
170
     5
 62
     0
 63
     7
283
     0
274
    -2
284
     1
 64
     0
275
    -2
285
     1
 65
     0
276
    -2
286
     1
 66
     0
277
    -2
287
     1
 67
     0
278
    -2
288
     1
 68
     0
279
    -2
289
     1
 69
     0
  0
VISUALSTYLE
  5
F5
102
{ACAD_REACTORS
330
EF
102
}
330
EF
100
AcDbVisualStyle
  2
2dWireframe
 70
     4
 71
     0
 72
     2
 73
     1
 90
        0
 40
-0.6
 41
-30.0
 62
     5
 63
     7
 74
     1
 91
        4
 64
     7
 65
   257
 75
     1
175
     1
 42
1.0
 92
        0
 66
   257
 43
1.0
 76
     1
 77
     6
 78
     2
 67
     7
 79
     5
170
     0
171
     0
290
     0
174
     0
 93
        1
 44
0.0
173
     0
291
     0
 45
0.0
1001
ACAD
1000
AcDbSavedByObjectVersion
1070
     0
  0
VISUALSTYLE
  5
F7
102
{ACAD_REACTORS
330
EF
102
}
330
EF
100
AcDbVisualStyle
  2
3D Hidden
 70
     6
 71
     1
 72
     2
 73
     2
 90
        0
 40
-0.6
 41
-30.0
 62
     5
 63
     7
 74
     2
 91
        2
 64
     7
 65
   257
 75
     2
175
     1
 42
40.0
 92
        0
 66
   257
 43
1.0
 76
     1
 77
     6
 78
     2
 67
     7
 79
     3
170
     0
171
     0
290
     0
174
     0
 93
        1
 44
0.0
173
     0
291
     0
 45
0.0
1001
ACAD
1000
AcDbSavedByObjectVersion
1070
     0
  0
VISUALSTYLE
  5
F6
102
{ACAD_REACTORS
330
EF
102
}
330
EF
100
AcDbVisualStyle
  2
3dWireframe
 70
     5
 71
     0
 72
     2
 73
     1
 90
        0
 40
-0.6
 41
-30.0
 62
     5
 63
     7
 74
     1
 91
        4
 64
     7
 65
   257
 75
     1
175
     1
 42
1.0
 92
        0
 66
   257
 43
1.0
 76
     1
 77
     6
 78
     2
 67
     7
 79
     5
170
     0
171
     0
290
     0
174
     0
 93
        1
 44
0.0
173
     0
291
     0
 45
0.0
1001
ACAD
1000
AcDbSavedByObjectVersion
1070
     0
  0
VISUALSTYLE
  5
F4
102
{ACAD_REACTORS
330
EF
102
}
330
EF
100
AcDbVisualStyle
  2
Basic
 70
     7
 71
     1
 72
     0
 73
     1
 90
        0
 40
-0.6
 41
-30.0
 62
     5
 63
     7
 74
     0
 91
        4
 64
     7
 65
   257
 75
     1
175
     1
 42
1.0
 92
        8
 66
     7
 43
1.0
 76
     1
 77
     6
 78
     2
 67
     7
 79
     5
170
     0
171
     0
290
     0
174
     0
 93
        1
 44
0.0
173
     0
291
     1
 45
0.0
1001
ACAD
1000
AcDbSavedByObjectVersion
1070
     0
  0
VISUALSTYLE
  5
FB
102
{ACAD_REACTORS
330
EF
102
}
330
EF
100
AcDbVisualStyle
  2
Brighten
 70
    12
 71
     2
 72
     2
 73
     1
 90
        0
 40
-0.6
 41
-30.0
 62
     5
 63
     7
 74
     1
 91
        4
 64
     7
 65
   257
 75
     1
175
     1
 42
1.0
 92
        8
 66
     7
 43
1.0
 76
     1
 77
     6
 78
     2
 67
     7
 79
     5
170
     0
171
     0
290
     0
174
     0
 93
        1
 44
50.0
173
     0
291
     1
 45
0.0
1001
ACAD
1000
AcDbSavedByObjectVersion
1070
     0
  0
VISUALSTYLE
  5
FF
102
{ACAD_REACTORS
330
EF
102
}
330
EF
100
AcDbVisualStyle
  2
ColorChange
 70
    16
 71
     2
 72
     2
 73
     3
 90
        0
 40
-0.6
 41
-30.0
 62
     5
 63
     8
 74
     1
 91
        4
 64
     7
 65
   257
 75
     1
175
     1
 42
1.0
 92
        8
 66
     8
 43
1.0
 76
     1
 77
     6
 78
     2
 67
     7
 79
     5
170
     0
171
     0
290
     0
174
     0
 93
        1
 44
0.0
173
     0
291
     1
 45
0.0
1001
ACAD
1000
AcDbSavedByObjectVersion
1070
     0
  0
VISUALSTYLE
  5
F8
102
{ACAD_REACTORS
330
EF
102
}
330
EF
100
AcDbVisualStyle
  2
Conceptual
 70
     9
 71
     3
 72
     2
 73
     1
 90
        0
 40
-0.6
 41
-30.0
 62
     5
 63
     7
 74
     2
 91
        2
 64
     7
 65
   257
 75
     1
175
     1
 42
40.0
 92
        8
 66
     7
 43
1.0
 76
     1
 77
     6
 78
     2
 67
     7
 79
     3
170
     0
171
     0
290
     0
174
     0
 93
        1
 44
0.0
173
     0
291
     0
 45
0.0
1001
ACAD
1000
AcDbSavedByObjectVersion
1070
     0
  0
VISUALSTYLE
  5
FA
102
{ACAD_REACTORS
330
EF
102
}
330
EF
100
AcDbVisualStyle
  2
Dim
 70
    11
 71
     2
 72
     2
 73
     1
 90
        0
 40
-0.6
 41
-30.0
 62
     5
 63
     7
 74
     1
 91
        4
 64
     7
 65
   257
 75
     1
175
     1
 42
1.0
 92
        8
 66
     7
 43
1.0
 76
     1
 77
     6
 78
     2
 67
     7
 79
     5
170
     0
171
     0
290
     0
174
     0
 93
        1
 44
-50.0
173
     0
291
     1
 45
0.0
1001
ACAD
1000
AcDbSavedByObjectVersion
1070
     0
  0
VISUALSTYLE
  5
FE
102
{ACAD_REACTORS
330
EF
102
}
330
EF
100
AcDbVisualStyle
  2
Facepattern
 70
    15
 71
     2
 72
     2
 73
     1
 90
        0
 40
-0.6
 41
-30.0
 62
     5
 63
     7
 74
     1
 91
        4
 64
     7
 65
   257
 75
     1
175
     1
 42
1.0
 92
        8
 66
     7
 43
1.0
 76
     1
 77
     6
 78
     2
 67
     7
 79
     5
170
     0
171
     0
290
     0
174
     0
 93
        1
 44
0.0
173
     0
291
     1
 45
0.0
1001
ACAD
1000
AcDbSavedByObjectVersion
1070
     0
  0
VISUALSTYLE
  5
F0
102
{ACAD_REACTORS
330
EF
102
}
330
EF
100
AcDbVisualStyle
  2
Flat
 70
     0
 71
     2
 72
     1
 73
     1
 90
        2
 40
-0.6
 41
30.0
 62
     5
 63
     7
 74
     0
 91
        4
 64
     7
 65
   257
 75
     1
175
     1
 42
1.0
 92
        8
 66
     7
 43
1.0
 76
     1
 77
     6
 78
     2
 67
     7
 79
     5
170
     0
171
     0
290
     0
174
     0
 93
        1
 44
0.0
173
     0
291
     1
 45
0.0
1001
ACAD
1000
AcDbSavedByObjectVersion
1070
     0
  0
VISUALSTYLE
  5
F1
102
{ACAD_REACTORS
330
EF
102
}
330
EF
100
AcDbVisualStyle
  2
FlatWithEdges
 70
     1
 71
     2
 72
     1
 73
     1
 90
        2
 40
-0.6
 41
30.0
 62
     5
 63
     7
 74
     1
 91
        4
 64
     7
 65
   257
 75
     1
175
     1
 42
1.0
 92
        0
 66
   257
 43
1.0
 76
     1
 77
     6
 78
     2
 67
     7
 79
     5
170
     0
171
     0
290
     0
174
     0
 93
        1
 44
0.0
173
     0
291
     1
 45
0.0
1001
ACAD
1000
AcDbSavedByObjectVersion
1070
     0
  0
VISUALSTYLE
  5
F2
102
{ACAD_REACTORS
330
EF
102
}
330
EF
100
AcDbVisualStyle
  2
Gouraud
 70
     2
 71
     2
 72
     2
 73
     1
 90
        2
 40
-0.6
 41
30.0
 62
     5
 63
     7
 74
     0
 91
        4
 64
     7
 65
   257
 75
     1
175
     1
 42
1.0
 92
        0
 66
     7
 43
1.0
 76
     1
 77
     6
 78
     2
 67
     7
 79
     5
170
     0
171
     0
290
     0
174
     0
 93
        1
 44
0.0
173
     0
291
     1
 45
0.0
1001
ACAD
1000
AcDbSavedByObjectVersion
1070
     0
  0
VISUALSTYLE
  5
F3
102
{ACAD_REACTORS
330
EF
102
}
330
EF
100
AcDbVisualStyle
  2
GouraudWithEdges
 70
     3
 71
     2
 72
     2
 73
     1
 90
        2
 40
-0.6
 41
30.0
 62
     5
 63
     7
 74
     1
 91
        4
 64
     7
 65
   257
 75
     1
175
     1
 42
1.0
 92
        0
 66
   257
 43
1.0
 76
     1
 77
     6
 78
     2
 67
     7
 79
     5
170
     0
171
     0
290
     0
174
     0
 93
        1
 44
0.0
173
     0
291
     1
 45
0.0
1001
ACAD
1000
AcDbSavedByObjectVersion
1070
     0
  0
VISUALSTYLE
  5
FD
102
{ACAD_REACTORS
330
EF
102
}
330
EF
100
AcDbVisualStyle
  2
Linepattern
 70
    14
 71
     2
 72
     2
 73
     1
 90
        0
 40
-0.6
 41
-30.0
 62
     5
 63
     7
 74
     1
 91
        4
 64
     7
 65
   257
 75
     7
175
     7
 42
1.0
 92
        8
 66
     7
 43
1.0
 76
     1
 77
     6
 78
     2
 67
     7
 79
     5
170
     0
171
     0
290
     0
174
     0
 93
        1
 44
0.0
173
     0
291
     1
 45
0.0
1001
ACAD
1000
AcDbSavedByObjectVersion
1070
     0
  0
VISUALSTYLE
  5
F9
102
{ACAD_REACTORS
330
EF
102
}
330
EF
100
AcDbVisualStyle
  2
Realistic
 70
     8
 71
     2
 72
     2
 73
     1
 90
        0
 40
-0.6
 41
-30.0
 62
     5
 63
     7
 74
     1
 91
        0
 64
     7
 65
   257
 75
     1
175
     1
 42
1.0
 92
        8
 66
     8
 43
1.0
 76
     1
 77
     6
 78
     2
 67
     7
 79
     5
170
     0
171
     0
290
     0
174
     0
 93
       13
 44
0.0
173
     0
291
     0
 45
0.0
1001
ACAD
1000
AcDbSavedByObjectVersion
1070
     0
  0
VISUALSTYLE
  5
FC
102
{ACAD_REACTORS
330
EF
102
}
330
EF
100
AcDbVisualStyle
  2
Thicken
 70
    13
 71
     2
 72
     2
 73
     1
 90
        0
 40
-0.6
 41
-30.0
 62
     5
 63
     7
 74
     1
 91
        4
 64
     7
 65
   257
 75
     1
175
     1
 42
1.0
 92
       12
 66
     7
 43
1.0
 76
     1
 77
     6
 78
     2
 67
     7
 79
     5
170
     0
171
     0
290
     0
174
     0
 93
        1
 44
0.0
173
     0
291
     1
 45
0.0
1001
ACAD
1000
AcDbSavedByObjectVersion
1070
     0
  0
DICTIONARYVAR
  5
146
102
{ACAD_REACTORS
330
5E
102
}
330
5E
100
DictionaryVariables
280
     0
  1
1:1
  0
DICTIONARYVAR
  5
145
102
{ACAD_REACTORS
330
5E
102
}
330
5E
100
DictionaryVariables
280
     0
  1
STANDARD
  0
DICTIONARYVAR
  5
84
102
{ACAD_REACTORS
330
5E
102
}
330
5E
100
DictionaryVariables
280
     0
  1
STANDARD
  0
DICTIONARYVAR
  5
5F
102
{ACAD_REACTORS
330
5E
102
}
330
5E
100
DictionaryVariables
280
     0
  1
2
  0
DICTIONARYVAR
  5
63
102
{ACAD_REACTORS
330
5E
102
}
330
5E
100
DictionaryVariables
280
     0
  1
1
  0
DICTIONARYVAR
  5
E7E
102
{ACAD_REACTORS
330
5E
102
}
330
5E
100
DictionaryVariables
280
     0
  1
0
  0
DICTIONARYVAR
  5
E7C
102
{ACAD_REACTORS
330
5E
102
}
330
5E
100
DictionaryVariables
280
     0
  1
2
  0
DICTIONARYVAR
  5
E7B
102
{ACAD_REACTORS
330
5E
102
}
330
5E
100
DictionaryVariables
280
     0
  1
1
  0
DICTIONARYVAR
  5
E80
102
{ACAD_REACTORS
330
5E
102
}
330
5E
100
DictionaryVariables
280
     0
  1
80.000000
  0
DICTIONARYVAR
  5
E7F
102
{ACAD_REACTORS
330
5E
102
}
330
5E
100
DictionaryVariables
280
     0
  1
5.000000
  0
DICTIONARYVAR
  5
E7D
102
{ACAD_REACTORS
330
5E
102
}
330
5E
100
DictionaryVariables
280
     0
  1
127
  0
DICTIONARY
  5
E86
330
D3
100
AcDbDictionary
280
     1
281
     1
  3
ACAD_XREC_ROUNDTRIP
360
E87
  0
DICTIONARY
  5
E88
330
D7
100
AcDbDictionary
280
     1
281
     1
  3
ACAD_XREC_ROUNDTRIP
360
E89
  0
DICTIONARY
  5
E83
330
22
100
AcDbDictionary
280
     1
281
     1
  3
ACAD_XREC_ROUNDTRIP
360
E84
  0
DICTIONARY
  5
E8C
330
ED
100
AcDbDictionary
280
     1
281
     1
  3
ACAD_XREC_ROUNDTRIP
360
E8D
  0
DICTIONARY
  5
E8A
330
EC
100
AcDbDictionary
280
     1
281
     1
  3
ACAD_XREC_ROUNDTRIP
360
E8B
  0
DICTIONARY
  5
173
330
EE
100
AcDbDictionary
280
     1
281
     1
  3
ACAD_XREC_ROUNDTRIP
360
E8E
  3
BUMPTILE
360
175
  3
DIFFUSETILE
360
174
  3
OPACITYTILE
360
176
  3
REFLECTIONTILE
360
177
  0
DICTIONARY
  5
162
330
7F
100
AcDbDictionary
280
     1
281
     1
  3
ACAD_ROUNDTRIP_2008_TABLESTYLE_CELLSTYLEMAP
360
E81
  3
ACAD_XREC_ROUNDTRIP
360
E85
  0
XRECORD
  5
E87
102
{ACAD_REACTORS
330
E86
102
}
330
E86
100
AcDbXrecord
280
     1
102
SHADEPLOT
 70
     0
102
SHADEPLOTRESLEVEL
 70
     2
102
SHADEPLOTCUSTOMDPI
 70
   300
  0
XRECORD
  5
E89
102
{ACAD_REACTORS
330
E88
102
}
330
E88
100
AcDbXrecord
280
     1
102
SHADEPLOT
 70
     0
102
SHADEPLOTRESLEVEL
 70
     2
102
SHADEPLOTCUSTOMDPI
 70
   300
  0
XRECORD
  5
E84
102
{ACAD_REACTORS
330
E83
102
}
330
E83
100
AcDbXrecord
280
     1
102
SHADEPLOT
 70
     0
102
SHADEPLOTRESLEVEL
 70
     2
102
SHADEPLOTCUSTOMDPI
 70
   300
  0
XRECORD
  5
E8D
102
{ACAD_REACTORS
330
E8C
102
}
330
E8C
100
AcDbXrecord
280
     1
102
MATERIAL
148
0.0
149
0.0
149
0.0
 93
        0
 94
       63
282
     0
 72
     1
 77
     1
171
     1
175
     1
179
     1
273
     0
  0
XRECORD
  5
E8B
102
{ACAD_REACTORS
330
E8A
102
}
330
E8A
100
AcDbXrecord
280
     1
102
MATERIAL
148
0.0
149
0.0
149
0.0
 93
        0
 94
       63
282
     0
 72
     1
 77
     1
171
     1
175
     1
179
     1
273
     0
  0
XRECORD
  5
E8E
102
{ACAD_REACTORS
330
173
102
}
330
173
100
AcDbXrecord
280
     1
102
MATERIAL
148
0.0
149
0.0
149
0.0
 93
        0
 94
       63
282
     0
 72
     1
 77
     1
171
     1
175
     1
179
     1
273
     0
  0
XRECORD
  5
175
102
{ACAD_REACTORS
330
173
102
}
330
173
100
AcDbXrecord
280
     1
270
     1
271
     1
  0
XRECORD
  5
174
102
{ACAD_REACTORS
330
173
102
}
330
173
100
AcDbXrecord
280
     1
270
     1
271
     1
  0
XRECORD
  5
176
102
{ACAD_REACTORS
330
173
102
}
330
173
100
AcDbXrecord
280
     1
270
     1
271
     1
  0
XRECORD
  5
177
102
{ACAD_REACTORS
330
173
102
}
330
173
100
AcDbXrecord
280
     1
270
     1
271
     1
  0
CELLSTYLEMAP
  5
E81
102
{ACAD_REACTORS
330
162
102
}
330
162
100
AcDbCellStyleMap
 90
        3
300
CELLSTYLE
  1
TABLEFORMAT_BEGIN
 90
        5
170
     1
 91
        0
 92
    32768
 62
   257
 93
        1
300
CONTENTFORMAT
  1
CONTENTFORMAT_BEGIN
 90
        0
 91
        0
 92
      512
 93
        0
300

 40
0.0
140
1.0
 94
        5
 62
     0
340
11
144
6.0
309
CONTENTFORMAT_END
171
     1
301
MARGIN
  1
CELLMARGIN_BEGIN
 40
1.5
 40
1.5
 40
1.5
 40
1.5
 40
4.5
 40
4.5
309
CELLMARGIN_END
 94
        6
 95
        1
302
GRIDFORMAT
  1
GRIDFORMAT_BEGIN
 90
        0
 91
        1
 62
     0
 92
       -2
340
14
 93
        0
 40
1.125
309
GRIDFORMAT_END
 95
        2
302
GRIDFORMAT
  1
GRIDFORMAT_BEGIN
 90
        0
 91
        1
 62
     0
 92
       -2
340
14
 93
        0
 40
1.125
309
GRIDFORMAT_END
 95
        4
302
GRIDFORMAT
  1
GRIDFORMAT_BEGIN
 90
        0
 91
        1
 62
     0
 92
       -2
340
14
 93
        0
 40
1.125
309
GRIDFORMAT_END
 95
        8
302
GRIDFORMAT
  1
GRIDFORMAT_BEGIN
 90
        0
 91
        1
 62
     0
 92
       -2
340
14
 93
        0
 40
1.125
309
GRIDFORMAT_END
 95
       16
302
GRIDFORMAT
  1
GRIDFORMAT_BEGIN
 90
        0
 91
        1
 62
     0
 92
       -2
340
14
 93
        0
 40
1.125
309
GRIDFORMAT_END
 95
       32
302
GRIDFORMAT
  1
GRIDFORMAT_BEGIN
 90
        0
 91
        1
 62
     0
 92
       -2
340
14
 93
        0
 40
1.125
309
GRIDFORMAT_END
309
TABLEFORMAT_END
  1
CELLSTYLE_BEGIN
 90
        1
 91
        1
300
_TITLE
309
CELLSTYLE_END
300
CELLSTYLE
  1
TABLEFORMAT_BEGIN
 90
        5
170
     1
 91
        0
 92
        0
 62
   257
 93
        1
300
CONTENTFORMAT
  1
CONTENTFORMAT_BEGIN
 90
        0
 91
        0
 92
      512
 93
        0
300

 40
0.0
140
1.0
 94
        5
 62
     0
340
11
144
4.5
309
CONTENTFORMAT_END
171
     1
301
MARGIN
  1
CELLMARGIN_BEGIN
 40
1.5
 40
1.5
 40
1.5
 40
1.5
 40
4.5
 40
4.5
309
CELLMARGIN_END
 94
        6
 95
        1
302
GRIDFORMAT
  1
GRIDFORMAT_BEGIN
 90
        0
 91
        1
 62
     0
 92
       -2
340
14
 93
        0
 40
1.125
309
GRIDFORMAT_END
 95
        2
302
GRIDFORMAT
  1
GRIDFORMAT_BEGIN
 90
        0
 91
        1
 62
     0
 92
       -2
340
14
 93
        0
 40
1.125
309
GRIDFORMAT_END
 95
        4
302
GRIDFORMAT
  1
GRIDFORMAT_BEGIN
 90
        0
 91
        1
 62
     0
 92
       -2
340
14
 93
        0
 40
1.125
309
GRIDFORMAT_END
 95
        8
302
GRIDFORMAT
  1
GRIDFORMAT_BEGIN
 90
        0
 91
        1
 62
     0
 92
       -2
340
14
 93
        0
 40
1.125
309
GRIDFORMAT_END
 95
       16
302
GRIDFORMAT
  1
GRIDFORMAT_BEGIN
 90
        0
 91
        1
 62
     0
 92
       -2
340
14
 93
        0
 40
1.125
309
GRIDFORMAT_END
 95
       32
302
GRIDFORMAT
  1
GRIDFORMAT_BEGIN
 90
        0
 91
        1
 62
     0
 92
       -2
340
14
 93
        0
 40
1.125
309
GRIDFORMAT_END
309
TABLEFORMAT_END
  1
CELLSTYLE_BEGIN
 90
        2
 91
        1
300
_HEADER
309
CELLSTYLE_END
300
CELLSTYLE
  1
TABLEFORMAT_BEGIN
 90
        5
170
     1
 91
        0
 92
        0
 62
   257
 93
        1
300
CONTENTFORMAT
  1
CONTENTFORMAT_BEGIN
 90
        0
 91
        0
 92
      512
 93
        0
300

 40
0.0
140
1.0
 94
        2
 62
     0
340
11
144
4.5
309
CONTENTFORMAT_END
171
     1
301
MARGIN
  1
CELLMARGIN_BEGIN
 40
1.5
 40
1.5
 40
1.5
 40
1.5
 40
4.5
 40
4.5
309
CELLMARGIN_END
 94
        6
 95
        1
302
GRIDFORMAT
  1
GRIDFORMAT_BEGIN
 90
        0
 91
        1
 62
     0
 92
       -2
340
14
 93
        0
 40
1.125
309
GRIDFORMAT_END
 95
        2
302
GRIDFORMAT
  1
GRIDFORMAT_BEGIN
 90
        0
 91
        1
 62
     0
 92
       -2
340
14
 93
        0
 40
1.125
309
GRIDFORMAT_END
 95
        4
302
GRIDFORMAT
  1
GRIDFORMAT_BEGIN
 90
        0
 91
        1
 62
     0
 92
       -2
340
14
 93
        0
 40
1.125
309
GRIDFORMAT_END
 95
        8
302
GRIDFORMAT
  1
GRIDFORMAT_BEGIN
 90
        0
 91
        1
 62
     0
 92
       -2
340
14
 93
        0
 40
1.125
309
GRIDFORMAT_END
 95
       16
302
GRIDFORMAT
  1
GRIDFORMAT_BEGIN
 90
        0
 91
        1
 62
     0
 92
       -2
340
14
 93
        0
 40
1.125
309
GRIDFORMAT_END
 95
       32
302
GRIDFORMAT
  1
GRIDFORMAT_BEGIN
 90
        0
 91
        1
 62
     0
 92
       -2
340
14
 93
        0
 40
1.125
309
GRIDFORMAT_END
309
TABLEFORMAT_END
  1
CELLSTYLE_BEGIN
 90
        3
 91
        2
300
_DATA
309
CELLSTYLE_END
  0
XRECORD
  5
E85
102
{ACAD_REACTORS
330
162
102
}
330
162
100
AcDbXrecord
280
     1
102
ACAD_ROUNDTRIP_PRE2007_TABLESTYLE
 90
      512
 91
        0
  1

 92
      512
 93
        0
  2

 94
      512
 95
        0
  3

  0
ENDSEC
  0
EOF
