  0
SECTION
  2
HEADER
  9
$ACADVER
  1
AC1015
  9
$ACADMAINTVER
 70
    20
  9
$DWGCODEPAGE
  3
ANSI_1254
  9
$INSBASE
 10
0.0
 20
0.0
 30
0.0
  9
$EXTMIN
 10
2277.765658327819
 20
1003.62916685412
 30
0.0
  9
$EXTMAX
 10
2375.66792646536
 20
1060.9712011753
 30
0.0
  9
$LIMMIN
 10
0.0
 20
0.0
  9
$LIMMAX
 10
420.0
 20
297.0
  9
$ORTHOMODE
 70
     0
  9
$REGENMODE
 70
     1
  9
$FILLMODE
 70
     1
  9
$QTEXTMODE
 70
     0
  9
$MIRRTEXT
 70
     0
  9
$LTSCALE
 40
1.0
  9
$ATTMODE
 70
     1
  9
$TEXTSIZE
 40
2.5
  9
$TRACEWID
 40
1.0
  9
$TEXTSTYLE
  7
Standard
  9
$CLAYER
  8
0
  9
$CELTYPE
  6
ByLayer
  9
$CECOLOR
 62
   256
  9
$CELTSCALE
 40
1.0
  9
$DISPSILH
 70
     0
  9
$DIMSCALE
 40
1.0
  9
$DIMASZ
 40
2.5
  9
$DIMEXO
 40
0.625
  9
$DIMDLI
 40
3.75
  9
$DIMRND
 40
0.0
  9
$DIMDLE
 40
0.0
  9
$DIMEXE
 40
1.25
  9
$DIMTP
 40
0.0
  9
$DIMTM
 40
0.0
  9
$DIMTXT
 40
2.5
  9
$DIMCEN
 40
2.5
  9
$DIMTSZ
 40
0.0
  9
$DIMTOL
 70
     0
  9
$DIMLIM
 70
     0
  9
$DIMTIH
 70
     0
  9
$DIMTOH
 70
     0
  9
$DIMSE1
 70
     0
  9
$DIMSE2
 70
     0
  9
$DIMTAD
 70
     1
  9
$DIMZIN
 70
     8
  9
$DIMBLK
  1

  9
$DIMASO
 70
     1
  9
$DIMSHO
 70
     1
  9
$DIMPOST
  1

  9
$DIMAPOST
  1

  9
$DIMALT
 70
     0
  9
$DIMALTD
 70
     3
  9
$DIMALTF
 40
0.03937007874016
  9
$DIMLFAC
 40
1.0
  9
$DIMTOFL
 70
     1
  9
$DIMTVP
 40
0.0
  9
$DIMTIX
 70
     0
  9
$DIMSOXD
 70
     0
  9
$DIMSAH
 70
     0
  9
$DIMBLK1
  1

  9
$DIMBLK2
  1

  9
$DIMSTYLE
  2
ISO-25
  9
$DIMCLRD
 70
     0
  9
$DIMCLRE
 70
     0
  9
$DIMCLRT
 70
     0
  9
$DIMTFAC
 40
1.0
  9
$DIMGAP
 40
0.625
  9
$DIMJUST
 70
     0
  9
$DIMSD1
 70
     0
  9
$DIMSD2
 70
     0
  9
$DIMTOLJ
 70
     0
  9
$DIMTZIN
 70
     8
  9
$DIMALTZ
 70
     0
  9
$DIMALTTZ
 70
     0
  9
$DIMUPT
 70
     0
  9
$DIMDEC
 70
     2
  9
$DIMTDEC
 70
     2
  9
$DIMALTU
 70
     2
  9
$DIMALTTD
 70
     3
  9
$DIMTXSTY
  7
Standard
  9
$DIMAUNIT
 70
     0
  9
$DIMADEC
 70
     0
  9
$DIMALTRND
 40
0.0
  9
$DIMAZIN
 70
     0
  9
$DIMDSEP
 70
    44
  9
$DIMATFIT
 70
     3
  9
$DIMFRAC
 70
     0
  9
$DIMLDRBLK
  1

  9
$DIMLUNIT
 70
     2
  9
$DIMLWD
 70
    -2
  9
$DIMLWE
 70
    -2
  9
$DIMTMOVE
 70
     0
  9
$LUNITS
 70
     2
  9
$LUPREC
 70
     4
  9
$SKETCHINC
 40
1.0
  9
$FILLETRAD
 40
0.0
  9
$AUNITS
 70
     0
  9
$AUPREC
 70
     0
  9
$MENU
  1
.
  9
$ELEVATION
 40
0.0
  9
$PELEVATION
 40
0.0
  9
$THICKNESS
 40
0.0
  9
$LIMCHECK
 70
     0
  9
$CHAMFERA
 40
0.0
  9
$CHAMFERB
 40
0.0
  9
$CHAMFERC
 40
0.0
  9
$CHAMFERD
 40
0.0
  9
$SKPOLY
 70
     0
  9
$TDCREATE
 40
2458932.678605660
  9
$TDUCREATE
 40
2458932.553605660
  9
$TDUPDATE
 40
2458956.445987789
  9
$TDUUPDATE
 40
2458956.320987789
  9
$TDINDWG
 40
0.0004052199
  9
$TDUSRTIMER
 40
0.0004052199
  9
$USRTIMER
 70
     1
  9
$ANGBASE
 50
0.0
  9
$ANGDIR
 70
     0
  9
$PDMODE
 70
     0
  9
$PDSIZE
 40
0.0
  9
$PLINEWID
 40
0.0
  9
$SPLFRAME
 70
     0
  9
$SPLINETYPE
 70
     6
  9
$SPLINESEGS
 70
     8
  9
$HANDSEED
  5
775
  9
$SURFTAB1
 70
     6
  9
$SURFTAB2
 70
     6
  9
$SURFTYPE
 70
     6
  9
$SURFU
 70
     6
  9
$SURFV
 70
     6
  9
$UCSBASE
  2

  9
$UCSNAME
  2

  9
$UCSORG
 10
0.0
 20
0.0
 30
0.0
  9
$UCSXDIR
 10
1.0
 20
0.0
 30
0.0
  9
$UCSYDIR
 10
0.0
 20
1.0
 30
0.0
  9
$UCSORTHOREF
  2

  9
$UCSORTHOVIEW
 70
     0
  9
$UCSORGTOP
 10
0.0
 20
0.0
 30
0.0
  9
$UCSORGBOTTOM
 10
0.0
 20
0.0
 30
0.0
  9
$UCSORGLEFT
 10
0.0
 20
0.0
 30
0.0
  9
$UCSORGRIGHT
 10
0.0
 20
0.0
 30
0.0
  9
$UCSORGFRONT
 10
0.0
 20
0.0
 30
0.0
  9
$UCSORGBACK
 10
0.0
 20
0.0
 30
0.0
  9
$PUCSBASE
  2

  9
$PUCSNAME
  2

  9
$PUCSORG
 10
0.0
 20
0.0
 30
0.0
  9
$PUCSXDIR
 10
1.0
 20
0.0
 30
0.0
  9
$PUCSYDIR
 10
0.0
 20
1.0
 30
0.0
  9
$PUCSORTHOREF
  2

  9
$PUCSORTHOVIEW
 70
     0
  9
$PUCSORGTOP
 10
0.0
 20
0.0
 30
0.0
  9
$PUCSORGBOTTOM
 10
0.0
 20
0.0
 30
0.0
  9
$PUCSORGLEFT
 10
0.0
 20
0.0
 30
0.0
  9
$PUCSORGRIGHT
 10
0.0
 20
0.0
 30
0.0
  9
$PUCSORGFRONT
 10
0.0
 20
0.0
 30
0.0
  9
$PUCSORGBACK
 10
0.0
 20
0.0
 30
0.0
  9
$USERI1
 70
     0
  9
$USERI2
 70
     0
  9
$USERI3
 70
     0
  9
$USERI4
 70
     0
  9
$USERI5
 70
     0
  9
$USERR1
 40
0.0
  9
$USERR2
 40
0.0
  9
$USERR3
 40
0.0
  9
$USERR4
 40
0.0
  9
$USERR5
 40
0.0
  9
$WORLDVIEW
 70
     1
  9
$SHADEDGE
 70
     3
  9
$SHADEDIF
 70
    70
  9
$TILEMODE
 70
     1
  9
$MAXACTVP
 70
    64
  9
$PINSBASE
 10
0.0
 20
0.0
 30
0.0
  9
$PLIMCHECK
 70
     0
  9
$PEXTMIN
 10
0.0
 20
0.0
 30
0.0
  9
$PEXTMAX
 10
0.0
 20
0.0
 30
0.0
  9
$PLIMMIN
 10
0.0
 20
0.0
  9
$PLIMMAX
 10
12.0
 20
9.0
  9
$UNITMODE
 70
     0
  9
$VISRETAIN
 70
     1
  9
$PLINEGEN
 70
     0
  9
$PSLTSCALE
 70
     1
  9
$TREEDEPTH
 70
  3020
  9
$CMLSTYLE
  2
Standard
  9
$CMLJUST
 70
     0
  9
$CMLSCALE
 40
20.0
  9
$PROXYGRAPHICS
 70
     1
  9
$MEASUREMENT
 70
     1
  9
$CELWEIGHT
370
    -1
  9
$ENDCAPS
280
     0
  9
$JOINSTYLE
280
     0
  9
$LWDISPLAY
290
     0
  9
$INSUNITS
 70
     4
  9
$HYPERLINKBASE
  1

  9
$STYLESHEET
  1

  9
$XEDIT
290
     1
  9
$CEPSNTYPE
380
     0
  9
$PSTYLEMODE
290
     1
  9
$FINGERPRINTGUID
  2
{9FCC0A52-60C8-4FBF-B170-C64EB47BF343}
  9
$VERSIONGUID
  2
{1A870225-A5F6-4791-BEBD-C6634173B346}
  9
$EXTNAMES
290
     1
  9
$PSVPSCALE
 40
0.0
  9
$OLESTARTUP
290
     0
  0
ENDSEC
  0
SECTION
  2
CLASSES
  0
CLASS
  1
ACDBDICTIONARYWDFLT
  2
AcDbDictionaryWithDefault
  3
ObjectDBX Classes
 90
        0
280
     0
281
     0
  0
CLASS
  1
ACDBPLACEHOLDER
  2
AcDbPlaceHolder
  3
ObjectDBX Classes
 90
        0
280
     0
281
     0
  0
CLASS
  1
LAYOUT
  2
AcDbLayout
  3
ObjectDBX Classes
 90
        0
280
     0
281
     0
  0
CLASS
  1
DICTIONARYVAR
  2
AcDbDictionaryVar
  3
ObjectDBX Classes
 90
        0
280
     0
281
     0
  0
CLASS
  1
TABLESTYLE
  2
AcDbTableStyle
  3
ObjectDBX Classes
 90
     4095
280
     0
281
     0
  0
CLASS
  1
MATERIAL
  2
AcDbMaterial
  3
ObjectDBX Classes
 90
     1153
280
     0
281
     0
  0
CLASS
  1
VISUALSTYLE
  2
AcDbVisualStyle
  3
ObjectDBX Classes
 90
     4095
280
     0
281
     0
  0
CLASS
  1
SCALE
  2
AcDbScale
  3
ObjectDBX Classes
 90
     1153
280
     0
281
     0
  0
CLASS
  1
MLEADERSTYLE
  2
AcDbMLeaderStyle
  3
ACDB_MLEADERSTYLE_CLASS
 90
     4095
280
     0
281
     0
  0
CLASS
  1
CELLSTYLEMAP
  2
AcDbCellStyleMap
  3
ObjectDBX Classes
 90
     1152
280
     0
281
     0
  0
ENDSEC
  0
SECTION
  2
TABLES
  0
TABLE
  2
VPORT
  5
8
330
0
100
AcDbSymbolTable
 70
     1
  0
VPORT
  5
EA
330
8
100
AcDbSymbolTableRecord
100
AcDbViewportTableRecord
  2
*Active
 70
     0
 10
0.0
 20
0.0
 11
1.0
 21
1.0
 12
2340.426644786982
 22
1036.101745229834
 13
0.0
 23
0.0
 14
10.0
 24
10.0
 15
10.0
 25
10.0
 16
0.0
 26
0.0
 36
1.0
 17
0.0
 27
0.0
 37
0.0
 40
103.0316864121786
 41
1.903110047846889
 42
50.0
 43
0.0
 44
0.0
 50
0.0
 51
0.0
 71
     0
 72
  1000
 73
     1
 74
     3
 75
     0
 76
     0
 77
     0
 78
     0
281
     0
 65
     1
110
0.0
120
0.0
130
0.0
111
1.0
121
0.0
131
0.0
112
0.0
122
1.0
132
0.0
 79
     0
146
0.0
  0
ENDTAB
  0
TABLE
  2
LTYPE
  5
5
330
0
100
AcDbSymbolTable
 70
     1
  0
LTYPE
  5
14
330
5
100
AcDbSymbolTableRecord
100
AcDbLinetypeTableRecord
  2
ByBlock
 70
     0
  3

 72
    65
 73
     0
 40
0.0
  0
LTYPE
  5
15
330
5
100
AcDbSymbolTableRecord
100
AcDbLinetypeTableRecord
  2
ByLayer
 70
     0
  3

 72
    65
 73
     0
 40
0.0
  0
LTYPE
  5
16
330
5
100
AcDbSymbolTableRecord
100
AcDbLinetypeTableRecord
  2
Continuous
 70
     0
  3
Solid line
 72
    65
 73
     0
 40
0.0
  0
ENDTAB
  0
TABLE
  2
LAYER
  5
2
330
0
100
AcDbSymbolTable
 70
     1
  0
LAYER
  5
10
102
{ACAD_XDICTIONARY
360
13C
102
}
330
2
100
AcDbSymbolTableRecord
100
AcDbLayerTableRecord
  2
0
 70
     0
 62
     7
  6
Continuous
370
    -3
390
F
  0
ENDTAB
  0
TABLE
  2
STYLE
  5
3
330
0
100
AcDbSymbolTable
 70
     2
  0
STYLE
  5
11
330
3
100
AcDbSymbolTableRecord
100
AcDbTextStyleTableRecord
  2
Standard
 70
     0
 40
0.0
 41
1.0
 50
0.0
 71
     0
 42
2.5
  3
txt
  4

  0
STYLE
  5
132
330
3
100
AcDbSymbolTableRecord
100
AcDbTextStyleTableRecord
  2
Annotative
 70
     0
 40
0.0
 41
1.0
 50
0.0
 71
     0
 42
2.5
  3
txt.shx
  4

1001
AcadAnnotative
1000
AnnotativeData
1002
{
1070
     1
1070
     1
1002
}
  0
ENDTAB
  0
TABLE
  2
VIEW
  5
6
330
0
100
AcDbSymbolTable
 70
     0
  0
ENDTAB
  0
TABLE
  2
UCS
  5
7
330
0
100
AcDbSymbolTable
 70
     0
  0
ENDTAB
  0
TABLE
  2
APPID
  5
9
330
0
100
AcDbSymbolTable
 70
     7
  0
APPID
  5
12
330
9
100
AcDbSymbolTableRecord
100
AcDbRegAppTableRecord
  2
ACAD
 70
     0
  0
APPID
  5
9E
330
9
100
AcDbSymbolTableRecord
100
AcDbRegAppTableRecord
  2
ACAD_PSEXT
 70
     0
  0
APPID
  5
133
330
9
100
AcDbSymbolTableRecord
100
AcDbRegAppTableRecord
  2
AcadAnnoPO
 70
     0
  0
APPID
  5
134
330
9
100
AcDbSymbolTableRecord
100
AcDbRegAppTableRecord
  2
AcadAnnotative
 70
     0
  0
APPID
  5
135
330
9
100
AcDbSymbolTableRecord
100
AcDbRegAppTableRecord
  2
ACAD_DSTYLE_DIMJAG
 70
     0
  0
APPID
  5
136
330
9
100
AcDbSymbolTableRecord
100
AcDbRegAppTableRecord
  2
ACAD_DSTYLE_DIMTALN
 70
     0
  0
APPID
  5
165
330
9
100
AcDbSymbolTableRecord
100
AcDbRegAppTableRecord
  2
ACAD_MLEADERVER
 70
     0
  0
ENDTAB
  0
TABLE
  2
DIMSTYLE
  5
A
330
0
100
AcDbSymbolTable
 70
     2
100
AcDbDimStyleTable
 71
     2
340
27
340
137
  0
DIMSTYLE
105
27
330
A
100
AcDbSymbolTableRecord
100
AcDbDimStyleTableRecord
  2
ISO-25
 70
     0
 41
2.5
 42
0.625
 43
3.75
 44
1.25
 73
     0
 74
     0
 77
     1
 78
     8
140
2.5
141
2.5
143
0.03937007874016
147
0.625
171
     3
172
     1
271
     2
272
     2
274
     3
278
    44
283
     0
284
     8
340
11
  0
DIMSTYLE
105
137
330
A
100
AcDbSymbolTableRecord
100
AcDbDimStyleTableRecord
  2
Annotative
 70
     0
 40
0.0
 41
2.5
 42
0.625
 43
3.75
 44
1.25
 73
     0
 74
     0
 77
     1
 78
     8
140
2.5
141
2.5
143
0.03937007874016
147
0.625
171
     3
172
     1
271
     2
272
     2
274
     3
278
    44
283
     0
284
     8
340
11
1001
AcadAnnotative
1000
AnnotativeData
1002
{
1070
     1
1070
     1
1002
}
1001
ACAD_DSTYLE_DIMJAG
1070
   388
1040
1.5
1001
ACAD_DSTYLE_DIMTALN
1070
   392
1070
     0
  0
ENDTAB
  0
TABLE
  2
BLOCK_RECORD
  5
1
330
0
100
AcDbSymbolTable
 70
     5
  0
BLOCK_RECORD
  5
1F
330
1
100
AcDbSymbolTableRecord
100
AcDbBlockTableRecord
  2
*Model_Space
340
22
  0
BLOCK_RECORD
  5
D2
330
1
100
AcDbSymbolTableRecord
100
AcDbBlockTableRecord
  2
*Paper_Space
340
D3
  0
BLOCK_RECORD
  5
D6
330
1
100
AcDbSymbolTableRecord
100
AcDbBlockTableRecord
  2
*Paper_Space0
340
D7
  0
BLOCK_RECORD
  5
56D
330
1
100
AcDbSymbolTableRecord
100
AcDbBlockTableRecord
  2
1
340
0
310
2800000020000000200000000100080000000000000400000000000000000000000000000000000000000000000080000080000000808000800000008000800080800000C0C0C000C0DCC000F0CAA6000020400000206000002080000020A0000020C0000020E00000400000004020000040400000406000004080000040A0
310
000040C0000040E00000600000006020000060400000606000006080000060A0000060C0000060E00000800000008020000080400000806000008080000080A0000080C0000080E00000A0000000A0200000A0400000A0600000A0800000A0A00000A0C00000A0E00000C0000000C0200000C0400000C0600000C0800000C0
310
A00000C0C00000C0E00000E0000000E0200000E0400000E0600000E0800000E0A00000E0C00000E0E00040000000400020004000400040006000400080004000A0004000C0004000E00040200000402020004020400040206000402080004020A0004020C0004020E000404000004040200040404000404060004040800040
310
40A0004040C0004040E00040600000406020004060400040606000406080004060A0004060C0004060E00040800000408020004080400040806000408080004080A0004080C0004080E00040A0000040A0200040A0400040A0600040A0800040A0A00040A0C00040A0E00040C0000040C0200040C0400040C0600040C08000
310
40C0A00040C0C00040C0E00040E0000040E0200040E0400040E0600040E0800040E0A00040E0C00040E0E00080000000800020008000400080006000800080008000A0008000C0008000E00080200000802020008020400080206000802080008020A0008020C0008020E00080400000804020008040400080406000804080
310
008040A0008040C0008040E00080600000806020008060400080606000806080008060A0008060C0008060E00080800000808020008080400080806000808080008080A0008080C0008080E00080A0000080A0200080A0400080A0600080A0800080A0A00080A0C00080A0E00080C0000080C0200080C0400080C0600080C0
310
800080C0A00080C0C00080C0E00080E0000080E0200080E0400080E0600080E0800080E0A00080E0C00080E0E000C0000000C0002000C0004000C0006000C0008000C000A000C000C000C000E000C0200000C0202000C0204000C0206000C0208000C020A000C020C000C020E000C0400000C0402000C0404000C0406000C0
310
408000C040A000C040C000C040E000C0600000C0602000C0604000C0606000C0608000C060A000C060C000C060E000C0800000C0802000C0804000C0806000C0808000C080A000C080C000C080E000C0A00000C0A02000C0A04000C0A06000C0A08000C0A0A000C0A0C000C0A0E000C0C00000C0C02000C0C04000C0C06000
310
C0C08000C0C0A000F0FBFF00A4A0A000808080000000FF0000FF000000FFFF00FF000000FF00FF00FFFF0000FFFFFF0000000000000000000000000000000000000000000000000000000000000000000000000000000000000000000000000000000000000000000000000000000000000000000000000000000000000000
310
00000000000000000000000000000000000000000000000000000000000000000000000000000000000000000000000000000000000000000000000000000000000000000000000000000000000000000000000000FFFFFF00000000FFFFFF00000000FFFFFF00000000FFFFFF0000000000000000FF00FF00000000FF00FF
310
00000000FF00FF00000000FF0000FF000000000000FF0000FF00000000FF00FF00000000FF00FF00000000FF0000FF000000000000FF0000FF00000000FF00FF00000000FF00FF00000000FF0000FF000000000000FF0000FF00000000FF00FF00000000FF00FF00000000FF0000FF000000000000FF0000FF00000000FF00
310
FF00000000FF00FF00000000FF0000FF000000000000FF0000FF00000000FF00FF00000000FF00FF00000000FF0000FF000000000000FFFFFFFF00000000FFFFFF00000000FFFFFF00000000FFFFFFFF000000000000FF0000FF00000000FF00FF00000000FF00FF00000000FF0000FF000000000000FFFFFFFFFF0000FFFF
310
FFFFFF0000FFFFFFFFFF0000FFFFFFFFFF000000000000FF000000FF0000FF000000FF0000FF000000FF0000FF000000FF0000000000FFFF000000FF0000FF000000FF0000FF000000FF0000FF000000FFFF00000000FF00FFFFFFFF0000FFFFFFFFFF0000FFFFFFFFFF0000FFFFFFFF00FF00000000FF00FFFFFFFF0000FF
310
FFFFFFFF0000FFFFFFFFFF0000FFFFFFFF00FF00000000FF00000000FF0000FF000000FF0000FF000000FF0000FF00000000FF000000FFFF00000000FFFFFFFF000000FFFFFFFF000000FFFFFFFF00000000FFFF0000FF00000000000000000000000000000000000000000000000000000000FF0000FF0000000000000000
310
0000000000000000000000000000000000000000FF0000FF00000000000000000000000000000000000000000000000000000000FF0000FF00000000000000000000000000000000000000000000000000000000FF0000FFFFFFFFFFFFFFFFFFFFFFFFFFFFFFFFFFFFFFFFFFFFFFFFFFFFFFFFFFFF0000FFFFFFFFFFFFFFFF
310
FFFFFFFFFFFFFFFFFFFFFFFFFFFFFFFFFFFFFFFFFFFF000000000000000000000000000000000000000000000000000000000000000000000000000000000000000000000000000000000000000000000000000000000000000000000000000000000000000000000000000000000000000000000000000000000000000000
310
0000000000000000000000000000000000000000000000000000000000000000000000000000000000000000000000000000000000000000
102
{BLKREFS
331
603
102
}
1001
ACAD
1000
DesignCenter Data
1002
{
1070
     1
1070
     4
1002
}
  0
BLOCK_RECORD
  5
604
330
1
100
AcDbSymbolTableRecord
100
AcDbBlockTableRecord
  2
2
340
0
310
2800000020000000200000000100080000000000000400000000000000000000000000000000000000000000000080000080000000808000800000008000800080800000C0C0C000C0DCC000F0CAA6000020400000206000002080000020A0000020C0000020E00000400000004020000040400000406000004080000040A0
310
000040C0000040E00000600000006020000060400000606000006080000060A0000060C0000060E00000800000008020000080400000806000008080000080A0000080C0000080E00000A0000000A0200000A0400000A0600000A0800000A0A00000A0C00000A0E00000C0000000C0200000C0400000C0600000C0800000C0
310
A00000C0C00000C0E00000E0000000E0200000E0400000E0600000E0800000E0A00000E0C00000E0E00040000000400020004000400040006000400080004000A0004000C0004000E00040200000402020004020400040206000402080004020A0004020C0004020E000404000004040200040404000404060004040800040
310
40A0004040C0004040E00040600000406020004060400040606000406080004060A0004060C0004060E00040800000408020004080400040806000408080004080A0004080C0004080E00040A0000040A0200040A0400040A0600040A0800040A0A00040A0C00040A0E00040C0000040C0200040C0400040C0600040C08000
310
40C0A00040C0C00040C0E00040E0000040E0200040E0400040E0600040E0800040E0A00040E0C00040E0E00080000000800020008000400080006000800080008000A0008000C0008000E00080200000802020008020400080206000802080008020A0008020C0008020E00080400000804020008040400080406000804080
310
008040A0008040C0008040E00080600000806020008060400080606000806080008060A0008060C0008060E00080800000808020008080400080806000808080008080A0008080C0008080E00080A0000080A0200080A0400080A0600080A0800080A0A00080A0C00080A0E00080C0000080C0200080C0400080C0600080C0
310
800080C0A00080C0C00080C0E00080E0000080E0200080E0400080E0600080E0800080E0A00080E0C00080E0E000C0000000C0002000C0004000C0006000C0008000C000A000C000C000C000E000C0200000C0202000C0204000C0206000C0208000C020A000C020C000C020E000C0400000C0402000C0404000C0406000C0
310
408000C040A000C040C000C040E000C0600000C0602000C0604000C0606000C0608000C060A000C060C000C060E000C0800000C0802000C0804000C0806000C0808000C080A000C080C000C080E000C0A00000C0A02000C0A04000C0A06000C0A08000C0A0A000C0A0C000C0A0E000C0C00000C0C02000C0C04000C0C06000
310
C0C08000C0C0A000F0FBFF00A4A0A000808080000000FF0000FF000000FFFF00FF000000FF00FF00FFFF0000FFFFFF0000000000000000000000000000000000000000000000000000000000000000000000000000000000000000000000FFFFFFFF00000000000000000000000000000000000000000000000000000000FF
310
FFFFFF00000000000000000000000000000000000000000000000000000000FF0000FF00000000000000000000000000000000000000000000000000000000FFFFFFFF00000000000000000000000000000000000000000000000000000000FF0000FF00000000000000000000000000000000000000000000000000000000
310
FF0000FF00000000000000000000000000000000000000000000000000000000FF0000FF00000000000000000000000000000000000000000000000000000000FF0000FF00000000000000000000000000000000000000000000000000000000FF0000FF000000000000000000000000000000000000000000000000000000
310
00FF0000FF00000000000000000000000000000000000000000000000000000000FF0000FF0000000000000000000000000000000000000000000000000000000000FFFF0000000000000000000000000000000000000000000000000000000000FFFFFFFF0000000000000000000000000000000000000000000000000000
310
0000FF0000FF00000000000000000000000000000000000000000000000000000000FF0000FF00000000000000000000000000000000000000000000000000000000FFFFFFFF00000000000000000000000000000000000000000000000000000000FFFFFFFF00000000000000000000000000000000000000000000000000
310
0000FFFF0000FFFF000000000000000000000000000000000000000000000000000000FF0000FF00000000000000000000000000000000000000000000000000000000FF0000FF00000000000000000000000000000000000000000000000000000000FFFFFFFF000000000000000000000000000000000000000000000000
310
00000000FF0000FF00000000000000000000000000000000000000000000000000000000FF0000FF00000000000000000000000000000000000000000000000000000000FF0000FF00000000000000000000000000000000000000000000000000000000FF0000FF0000000000000000000000000000000000000000000000
310
0000000000FF0000FF00000000000000000000000000000000000000000000000000000000FF0000FF000000000000000000000000000000000000000000000000000000FFFF0000FFFF0000000000000000000000000000000000000000000000000000FF00000000FF000000000000000000000000000000000000000000
310
0000000000FFFFFFFFFFFF000000000000000000000000000000000000000000000000000000000000000000000000000000000000000000
102
{BLKREFS
331
636
102
}
1001
ACAD
1000
DesignCenter Data
1002
{
1070
     1
1070
     4
1002
}
  0
BLOCK_RECORD
  5
637
330
1
100
AcDbSymbolTableRecord
100
AcDbBlockTableRecord
  2
3
340
0
310
2800000020000000200000000100080000000000000400000000000000000000000000000000000000000000000080000080000000808000800000008000800080800000C0C0C000C0DCC000F0CAA6000020400000206000002080000020A0000020C0000020E00000400000004020000040400000406000004080000040A0
310
000040C0000040E00000600000006020000060400000606000006080000060A0000060C0000060E00000800000008020000080400000806000008080000080A0000080C0000080E00000A0000000A0200000A0400000A0600000A0800000A0A00000A0C00000A0E00000C0000000C0200000C0400000C0600000C0800000C0
310
A00000C0C00000C0E00000E0000000E0200000E0400000E0600000E0800000E0A00000E0C00000E0E00040000000400020004000400040006000400080004000A0004000C0004000E00040200000402020004020400040206000402080004020A0004020C0004020E000404000004040200040404000404060004040800040
310
40A0004040C0004040E00040600000406020004060400040606000406080004060A0004060C0004060E00040800000408020004080400040806000408080004080A0004080C0004080E00040A0000040A0200040A0400040A0600040A0800040A0A00040A0C00040A0E00040C0000040C0200040C0400040C0600040C08000
310
40C0A00040C0C00040C0E00040E0000040E0200040E0400040E0600040E0800040E0A00040E0C00040E0E00080000000800020008000400080006000800080008000A0008000C0008000E00080200000802020008020400080206000802080008020A0008020C0008020E00080400000804020008040400080406000804080
310
008040A0008040C0008040E00080600000806020008060400080606000806080008060A0008060C0008060E00080800000808020008080400080806000808080008080A0008080C0008080E00080A0000080A0200080A0400080A0600080A0800080A0A00080A0C00080A0E00080C0000080C0200080C0400080C0600080C0
310
800080C0A00080C0C00080C0E00080E0000080E0200080E0400080E0600080E0800080E0A00080E0C00080E0E000C0000000C0002000C0004000C0006000C0008000C000A000C000C000C000E000C0200000C0202000C0204000C0206000C0208000C020A000C020C000C020E000C0400000C0402000C0404000C0406000C0
310
408000C040A000C040C000C040E000C0600000C0602000C0604000C0606000C0608000C060A000C060C000C060E000C0800000C0802000C0804000C0806000C0808000C080A000C080C000C080E000C0A00000C0A02000C0A04000C0A06000C0A08000C0A0A000C0A0C000C0A0E000C0C00000C0C02000C0C04000C0C06000
310
C0C08000C0C0A000F0FBFF00A4A0A000808080000000FF0000FF000000FFFF00FF000000FF00FF00FFFF0000FFFFFF0000000000000000000000000000000000000000000000000000000000000000000000000000000000000000000000000000000000000000000000000000000000000000000000000000000000000000
310
00000000000000000000000000000000000000000000000000000000000000000000000000000000000000000000000000000000000000000000000000000000000000000000000000000000000000000000000000000000000000000000000000000000000000000000000000000000000000000000000000000000000000
310
00000000000000000000000000000000000000000000000000000000000000000000000000000000000000000000000000000000000000000000000000000000000000000000000000000000000000000000000000000000000000000000000000000000000000000000000000000000000000000000000000000000000000
310
0000000000000000000000000000000000000000000000000000000000000000000000000000000000000000000000000000000000000000000000000000000000000000000000000000000000000000000000000000000000000000000000000000000000000000000000000000000000000000FFFFFFFFFFFFFFFFFFFFFF
310
FFFFFFFFFFFFFFFFFFFFFFFFFFFFFFFFFFFFFF0000FF00000000000000000000000000000000000000000000000000000000FF0000FF00000000000000000000000000000000000000000000000000000000FF0000FFFFFFFFFFFFFFFFFFFFFFFFFFFFFFFFFFFFFFFFFFFFFFFFFFFFFFFFFFFF000000000000000000000000
310
00000000000000000000000000000000000000000000000000000000000000000000000000000000000000000000000000000000000000000000000000000000000000000000000000000000000000000000000000000000000000000000000000000000000000000000000000000000000000000000000000000000000000
310
00000000000000000000000000000000000000000000000000000000000000000000000000000000000000000000000000000000000000000000000000000000000000000000000000000000000000000000000000000000000000000000000000000000000000000000000000000000000000000000000000000000000000
310
00000000000000000000000000000000000000000000000000000000000000000000000000000000000000000000000000000000000000000000000000000000000000000000000000000000000000000000000000000000000000000000000000000000000000000000000000000000000000000000000000000000000000
310
0000000000000000000000000000000000000000000000000000000000000000000000000000000000000000000000000000000000000000
102
{BLKREFS
331
63E
102
}
1001
ACAD
1000
DesignCenter Data
1002
{
1070
     1
1070
     4
1002
}
  0
BLOCK_RECORD
  5
63F
330
1
100
AcDbSymbolTableRecord
100
AcDbBlockTableRecord
  2
4
340
0
310
2800000020000000200000000100080000000000000400000000000000000000000000000000000000000000000080000080000000808000800000008000800080800000C0C0C000C0DCC000F0CAA6000020400000206000002080000020A0000020C0000020E00000400000004020000040400000406000004080000040A0
310
000040C0000040E00000600000006020000060400000606000006080000060A0000060C0000060E00000800000008020000080400000806000008080000080A0000080C0000080E00000A0000000A0200000A0400000A0600000A0800000A0A00000A0C00000A0E00000C0000000C0200000C0400000C0600000C0800000C0
310
A00000C0C00000C0E00000E0000000E0200000E0400000E0600000E0800000E0A00000E0C00000E0E00040000000400020004000400040006000400080004000A0004000C0004000E00040200000402020004020400040206000402080004020A0004020C0004020E000404000004040200040404000404060004040800040
310
40A0004040C0004040E00040600000406020004060400040606000406080004060A0004060C0004060E00040800000408020004080400040806000408080004080A0004080C0004080E00040A0000040A0200040A0400040A0600040A0800040A0A00040A0C00040A0E00040C0000040C0200040C0400040C0600040C08000
310
40C0A00040C0C00040C0E00040E0000040E0200040E0400040E0600040E0800040E0A00040E0C00040E0E00080000000800020008000400080006000800080008000A0008000C0008000E00080200000802020008020400080206000802080008020A0008020C0008020E00080400000804020008040400080406000804080
310
008040A0008040C0008040E00080600000806020008060400080606000806080008060A0008060C0008060E00080800000808020008080400080806000808080008080A0008080C0008080E00080A0000080A0200080A0400080A0600080A0800080A0A00080A0C00080A0E00080C0000080C0200080C0400080C0600080C0
310
800080C0A00080C0C00080C0E00080E0000080E0200080E0400080E0600080E0800080E0A00080E0C00080E0E000C0000000C0002000C0004000C0006000C0008000C000A000C000C000C000E000C0200000C0202000C0204000C0206000C0208000C020A000C020C000C020E000C0400000C0402000C0404000C0406000C0
310
408000C040A000C040C000C040E000C0600000C0602000C0604000C0606000C0608000C060A000C060C000C060E000C0800000C0802000C0804000C0806000C0808000C080A000C080C000C080E000C0A00000C0A02000C0A04000C0A06000C0A08000C0A0A000C0A0C000C0A0E000C0C00000C0C02000C0C04000C0C06000
310
C0C08000C0C0A000F0FBFF00A4A0A000808080000000FF0000FF000000FFFF00FF000000FF00FF00FFFF0000FFFFFF0000000000000000000000000000000000000000000000000000000000000000000000000000000000FFFF0000000000000000000000000000000000000000000000000000000000FFFFFFFF00000000
310
000000000000000000000000000000000000000000000000FFFF00FF000000000000000000000000000000000000000000000000000000FFFFFF00FF0000FFFF0000000000000000000000000000000000000000000000FF00FF00FF00FFFFFFFF00000000000000000000000000000000000000000000FF00FF00FF00FFFF
310
00FF00000000000000000000000000000000000000000000FF00FF00FFFFFFFF00FF0000FFFF000000000000000000000000000000000000FFFFFFFFFFFF00FF00FFFFFFFFFF000000000000000000000000000000000000FFFFFFFFFFFF00FF00FFFFFFFF00FF0000000000000000000000000000000000FFFFFF00FFFF00
310
FF00FFFF00FF00FF0000FFFF00000000000000000000000000FFFFFFFFFFFFFFFFFFFFFF00FF00FFFFFFFFFF00000000000000000000000000FFFF00FFFFFFFFFFFFFFFF00FF00FFFFFFFF00FF0000000000000000000000FFFFFF000000FFFFFF00FFFFFFFFFFFFFF00FF00FF0000000000000000000000FF00FF000000FF
310
FFFFFFFFFFFFFFFFFFFF00FF00FF0000000000000000000000FF00FF00000000FF00FFFFFFFF00FFFFFF00FF00FF0000000000000000000000FF00FF0000000000000000FFFFFF00FFFFFFFFFFFF0000000000000000000000FF00FFFFFF000000000000FFFFFFFFFFFFFFFFFF000000000000000000000000FFFF00FFFFFF
310
FF0000000000FF00FFFFFFFF0000FF000000000000000000000000FFFF0000FFFFFFFF000000000000FFFFFFFF00FF0000000000000000000000000000FF000000FFFFFF0000000000FF00FFFFFFFF000000000000000000000000000000FFFF000000FFFFFF00000000FFFF00FFFF00000000000000000000000000000000
310
00FFFF0000FFFFFFFF000000000000FF00000000000000000000000000000000000000FF000000FFFFFF0000000000FFFF00000000000000000000000000000000000000FFFF000000FFFFFF00000000FF000000000000000000000000000000000000000000FF000000FFFFFFFF0000FF0000000000000000000000000000
310
0000000000000000FFFF000000FFFFFFFFFF000000000000000000000000000000000000000000000000FFFF000000FFFFFF0000000000000000000000000000000000000000000000000000FF00000000FF000000000000000000000000000000000000000000000000000000FFFF00FF0000000000000000000000000000
310
00000000000000000000000000000000FF000000000000000000000000000000000000000000000000000000000000000000000000000000
102
{BLKREFS
331
75A
102
}
1001
ACAD
1000
DesignCenter Data
1002
{
1070
     1
1070
     4
1002
}
  0
ENDTAB
  0
ENDSEC
  0
SECTION
  2
BLOCKS
  0
BLOCK
  5
20
330
1F
100
AcDbEntity
  8
0
100
AcDbBlockBegin
  2
*Model_Space
 70
     0
 10
0.0
 20
0.0
 30
0.0
  3
*Model_Space
  1

  0
ENDBLK
  5
21
330
1F
100
AcDbEntity
  8
0
100
AcDbBlockEnd
  0
BLOCK
  5
D4
330
D2
100
AcDbEntity
 67
     1
  8
0
100
AcDbBlockBegin
  2
*Paper_Space
 70
     0
 10
0.0
 20
0.0
 30
0.0
  3
*Paper_Space
  1

  0
ENDBLK
  5
D5
330
D2
100
AcDbEntity
 67
     1
  8
0
100
AcDbBlockEnd
  0
BLOCK
  5
D8
330
D6
100
AcDbEntity
 67
     1
  8
0
100
AcDbBlockBegin
  2
*Paper_Space0
 70
     0
 10
0.0
 20
0.0
 30
0.0
  3
*Paper_Space0
  1

  0
ENDBLK
  5
D9
330
D6
100
AcDbEntity
 67
     1
  8
0
100
AcDbBlockEnd
  0
BLOCK
  5
56E
330
56D
100
AcDbEntity
  8
0
100
AcDbBlockBegin
  2
1
 70
     0
 10
0.0
 20
0.0
 30
0.0
  3
1
  1

  0
LINE
  5
570
330
56D
100
AcDbEntity
  8
0
  6
Continuous
 62
     7
370
    15
100
AcDbLine
 10
2328.473781278649
 20
1052.2781425487
 30
0.0
 11
2328.473781278649
 21
1053.478142548699
 31
0.0
  0
LINE
  5
571
330
56D
100
AcDbEntity
  8
0
  6
Continuous
 62
     7
370
    15
100
AcDbLine
 10
2296.273781278649
 20
1053.478142548699
 30
0.0
 11
2296.273781278649
 21
1052.2781425487
 31
0.0
  0
LINE
  5
572
330
56D
100
AcDbEntity
  8
0
  6
Continuous
 62
     7
370
    15
100
AcDbLine
 10
2328.473781278649
 20
1053.478142548699
 30
0.0
 11
2296.273781278649
 21
1053.478142548699
 31
0.0
  0
LINE
  5
573
330
56D
100
AcDbEntity
  8
0
  6
Continuous
 62
     7
370
    15
100
AcDbLine
 10
2328.473781278649
 20
1052.2781425487
 30
0.0
 11
2296.273781278649
 21
1052.2781425487
 31
0.0
  0
LINE
  5
574
330
56D
100
AcDbEntity
  8
0
  6
Continuous
 62
     7
370
    15
100
AcDbLine
 10
2317.723781278649
 20
1043.678142548699
 30
0.0
 11
2315.223781278649
 21
1043.678142548699
 31
0.0
  0
LINE
  5
575
330
56D
100
AcDbEntity
  8
0
  6
Continuous
 62
     7
370
    15
100
AcDbLine
 10
2317.723781278649
 20
1042.378142548699
 30
0.0
 11
2315.223781278649
 21
1042.378142548699
 31
0.0
  0
LINE
  5
576
330
56D
100
AcDbEntity
  8
0
  6
Continuous
 62
     7
370
    15
100
AcDbLine
 10
2315.223781278649
 20
1042.378142548699
 30
0.0
 11
2315.223781278649
 21
1043.678142548699
 31
0.0
  0
LINE
  5
577
330
56D
100
AcDbEntity
  8
0
  6
Continuous
 62
     7
370
    15
100
AcDbLine
 10
2317.723781278649
 20
1042.378142548699
 30
0.0
 11
2317.723781278649
 21
1043.678142548699
 31
0.0
  0
LINE
  5
578
330
56D
100
AcDbEntity
  8
0
  6
Continuous
 62
     7
370
    15
100
AcDbLine
 10
2309.523781278649
 20
1043.678142548699
 30
0.0
 11
2307.023781278649
 21
1043.678142548699
 31
0.0
  0
LINE
  5
579
330
56D
100
AcDbEntity
  8
0
  6
Continuous
 62
     7
370
    15
100
AcDbLine
 10
2309.523781278649
 20
1042.378142548699
 30
0.0
 11
2307.023781278649
 21
1042.378142548699
 31
0.0
  0
LINE
  5
57A
330
56D
100
AcDbEntity
  8
0
  6
Continuous
 62
     7
370
    15
100
AcDbLine
 10
2307.023781278649
 20
1042.378142548699
 30
0.0
 11
2307.023781278649
 21
1043.678142548699
 31
0.0
  0
LINE
  5
57B
330
56D
100
AcDbEntity
  8
0
  6
Continuous
 62
     7
370
    15
100
AcDbLine
 10
2309.523781278649
 20
1042.378142548699
 30
0.0
 11
2309.523781278649
 21
1043.678142548699
 31
0.0
  0
LINE
  5
57C
330
56D
100
AcDbEntity
  8
0
  6
Continuous
 62
     7
370
    15
100
AcDbLine
 10
2325.923781278649
 20
1042.378142548699
 30
0.0
 11
2325.923781278649
 21
1043.678142548699
 31
0.0
  0
LINE
  5
57D
330
56D
100
AcDbEntity
  8
0
  6
Continuous
 62
     7
370
    15
100
AcDbLine
 10
2325.923781278649
 20
1042.378142548699
 30
0.0
 11
2323.423781278649
 21
1042.378142548699
 31
0.0
  0
LINE
  5
57E
330
56D
100
AcDbEntity
  8
0
  6
Continuous
 62
     7
370
    15
100
AcDbLine
 10
2323.423781278649
 20
1042.378142548699
 30
0.0
 11
2323.423781278649
 21
1043.678142548699
 31
0.0
  0
LINE
  5
57F
330
56D
100
AcDbEntity
  8
0
  6
Continuous
 62
     7
370
    15
100
AcDbLine
 10
2325.923781278649
 20
1043.678142548699
 30
0.0
 11
2323.423781278649
 21
1043.678142548699
 31
0.0
  0
LINE
  5
580
330
56D
100
AcDbEntity
  8
0
  6
Continuous
 62
     7
370
    15
100
AcDbLine
 10
2301.323781278649
 20
1043.678142548699
 30
0.0
 11
2298.823781278649
 21
1043.678142548699
 31
0.0
  0
LINE
  5
581
330
56D
100
AcDbEntity
  8
0
  6
Continuous
 62
     7
370
    15
100
AcDbLine
 10
2301.323781278649
 20
1042.378142548699
 30
0.0
 11
2301.323781278649
 21
1043.678142548699
 31
0.0
  0
LINE
  5
582
330
56D
100
AcDbEntity
  8
0
  6
Continuous
 62
     7
370
    15
100
AcDbLine
 10
2301.323781278649
 20
1042.378142548699
 30
0.0
 11
2298.823781278649
 21
1042.378142548699
 31
0.0
  0
LINE
  5
583
330
56D
100
AcDbEntity
  8
0
  6
Continuous
 62
     7
370
    15
100
AcDbLine
 10
2298.823781278649
 20
1042.378142548699
 30
0.0
 11
2298.823781278649
 21
1043.678142548699
 31
0.0
  0
LINE
  5
584
330
56D
100
AcDbEntity
  8
0
  6
Continuous
 62
     7
370
    15
100
AcDbLine
 10
2328.473781278649
 20
1045.811549505734
 30
0.0
 11
2327.323781278649
 21
1045.811549505734
 31
0.0
  0
LINE
  5
585
330
56D
100
AcDbEntity
  8
0
  6
Continuous
 62
     7
370
    15
100
AcDbLine
 10
2327.323781278649
 20
1042.128142548699
 30
0.0
 11
2327.323781278649
 21
1045.811549505734
 31
0.0
  0
ARC
  5
586
330
56D
100
AcDbEntity
  8
0
  6
Continuous
 62
     7
370
    15
100
AcDbCircle
 10
2326.823781278649
 20
1042.128142548699
 30
0.0
 40
0.5000000000000342
100
AcDbArc
 50
315.0000000000092
 51
0.0
  0
LINE
  5
587
330
56D
100
AcDbEntity
  8
0
  6
Continuous
 62
     7
370
    15
100
AcDbLine
 10
2327.120227888055
 20
1041.717482376919
 30
0.0
 11
2327.177334669242
 21
1041.774589158106
 31
0.0
  0
ARC
  5
588
330
56D
100
AcDbEntity
  8
0
  6
Continuous
 62
     7
370
    15
100
AcDbCircle
 10
2327.473781278649
 20
1041.363928986326
 30
0.0
 40
0.5000000000000569
100
AcDbArc
 50
135.0
 51
180.0
  0
LINE
  5
589
330
56D
100
AcDbEntity
  8
0
  6
Continuous
 62
     7
370
    15
100
AcDbLine
 10
2326.973781278649
 20
1039.349561209099
 30
0.0
 11
2326.973781278649
 21
1041.363928986326
 31
0.0
  0
LINE
  5
58A
330
56D
100
AcDbEntity
  8
0
  6
Continuous
 62
     7
370
    15
100
AcDbLine
 10
2322.373781278649
 20
1039.349561209099
 30
0.0
 11
2326.973781278649
 21
1039.349561209099
 31
0.0
  0
LINE
  5
58B
330
56D
100
AcDbEntity
  8
0
  6
Continuous
 62
     7
370
    15
100
AcDbLine
 10
2322.373781278649
 20
1041.363928986326
 30
0.0
 11
2322.373781278649
 21
1039.349561209099
 31
0.0
  0
ARC
  5
58C
330
56D
100
AcDbEntity
  8
0
  6
Continuous
 62
     7
370
    15
100
AcDbCircle
 10
2321.873781278649
 20
1041.363928986326
 30
0.0
 40
0.5
100
AcDbArc
 50
0.0
 51
45.00000000002303
  0
LINE
  5
58D
330
56D
100
AcDbEntity
  8
0
  6
Continuous
 62
     7
370
    15
100
AcDbLine
 10
2322.170227888056
 20
1041.774589158106
 30
0.0
 11
2322.227334669242
 21
1041.717482376919
 31
0.0
  0
ARC
  5
58E
330
56D
100
AcDbEntity
  8
0
  6
Continuous
 62
     7
370
    15
100
AcDbCircle
 10
2322.523781278649
 20
1042.128142548699
 30
0.0
 40
0.5
100
AcDbArc
 50
180.0
 51
224.9999999999954
  0
LINE
  5
58F
330
56D
100
AcDbEntity
  8
0
  6
Continuous
 62
     7
370
    15
100
AcDbLine
 10
2322.023781278649
 20
1045.811549505734
 30
0.0
 11
2322.023781278649
 21
1042.128142548699
 31
0.0
  0
LINE
  5
590
330
56D
100
AcDbEntity
  8
0
  6
Continuous
 62
     7
370
    15
100
AcDbLine
 10
2322.023781278649
 20
1045.811549505734
 30
0.0
 11
2319.123781278649
 21
1045.811549505734
 31
0.0
  0
LINE
  5
591
330
56D
100
AcDbEntity
  8
0
  6
Continuous
 62
     7
370
    15
100
AcDbLine
 10
2319.123781278649
 20
1042.128142548699
 30
0.0
 11
2319.123781278649
 21
1045.811549505734
 31
0.0
  0
ARC
  5
592
330
56D
100
AcDbEntity
  8
0
  6
Continuous
 62
     7
370
    15
100
AcDbCircle
 10
2318.623781278649
 20
1042.128142548699
 30
0.0
 40
0.5000000000000543
100
AcDbArc
 50
315.0000000000092
 51
0.0
  0
LINE
  5
593
330
56D
100
AcDbEntity
  8
0
  6
Continuous
 62
     7
370
    15
100
AcDbLine
 10
2318.920227888056
 20
1041.717482376919
 30
0.0
 11
2318.977334669242
 21
1041.774589158106
 31
0.0
  0
ARC
  5
594
330
56D
100
AcDbEntity
  8
0
  6
Continuous
 62
     7
370
    15
100
AcDbCircle
 10
2319.273781278649
 20
1041.363928986326
 30
0.0
 40
0.5000000000000569
100
AcDbArc
 50
135.0000000000046
 51
180.0
  0
LINE
  5
595
330
56D
100
AcDbEntity
  8
0
  6
Continuous
 62
     7
370
    15
100
AcDbLine
 10
2318.773781278649
 20
1039.349561209099
 30
0.0
 11
2318.773781278649
 21
1041.363928986326
 31
0.0
  0
LINE
  5
596
330
56D
100
AcDbEntity
  8
0
  6
Continuous
 62
     7
370
    15
100
AcDbLine
 10
2314.173781278649
 20
1039.349561209099
 30
0.0
 11
2318.773781278649
 21
1039.349561209099
 31
0.0
  0
LINE
  5
597
330
56D
100
AcDbEntity
  8
0
  6
Continuous
 62
     7
370
    15
100
AcDbLine
 10
2314.173781278649
 20
1041.363928986326
 30
0.0
 11
2314.173781278649
 21
1039.349561209099
 31
0.0
  0
ARC
  5
598
330
56D
100
AcDbEntity
  8
0
  6
Continuous
 62
     7
370
    15
100
AcDbCircle
 10
2313.673781278649
 20
1041.363928986326
 30
0.0
 40
0.5
100
AcDbArc
 50
0.0
 51
45.00000000002303
  0
LINE
  5
599
330
56D
100
AcDbEntity
  8
0
  6
Continuous
 62
     7
370
    15
100
AcDbLine
 10
2313.970227888056
 20
1041.774589158106
 30
0.0
 11
2314.027334669242
 21
1041.717482376919
 31
0.0
  0
ARC
  5
59A
330
56D
100
AcDbEntity
  8
0
  6
Continuous
 62
     7
370
    15
100
AcDbCircle
 10
2314.323781278649
 20
1042.128142548699
 30
0.0
 40
0.5000000000000142
100
AcDbArc
 50
180.0
 51
224.9999999999954
  0
LINE
  5
59B
330
56D
100
AcDbEntity
  8
0
  6
Continuous
 62
     7
370
    15
100
AcDbLine
 10
2313.823781278649
 20
1045.811549505734
 30
0.0
 11
2313.823781278649
 21
1042.128142548699
 31
0.0
  0
LINE
  5
59C
330
56D
100
AcDbEntity
  8
0
  6
Continuous
 62
     7
370
    15
100
AcDbLine
 10
2310.923781278649
 20
1045.811549505734
 30
0.0
 11
2313.823781278649
 21
1045.811549505734
 31
0.0
  0
LINE
  5
59D
330
56D
100
AcDbEntity
  8
0
  6
Continuous
 62
     7
370
    15
100
AcDbLine
 10
2310.923781278649
 20
1042.128142548699
 30
0.0
 11
2310.923781278649
 21
1045.811549505734
 31
0.0
  0
ARC
  5
59E
330
56D
100
AcDbEntity
  8
0
  6
Continuous
 62
     7
370
    15
100
AcDbCircle
 10
2310.423781278649
 20
1042.128142548699
 30
0.0
 40
0.5000000000000543
100
AcDbArc
 50
315.0000000000092
 51
0.0
  0
LINE
  5
59F
330
56D
100
AcDbEntity
  8
0
  6
Continuous
 62
     7
370
    15
100
AcDbLine
 10
2310.720227888056
 20
1041.717482376919
 30
0.0
 11
2310.777334669243
 21
1041.774589158106
 31
0.0
  0
ARC
  5
5A0
330
56D
100
AcDbEntity
  8
0
  6
Continuous
 62
     7
370
    15
100
AcDbCircle
 10
2311.073781278649
 20
1041.363928986326
 30
0.0
 40
0.5000000000000569
100
AcDbArc
 50
135.0000000000046
 51
180.0
  0
LINE
  5
5A1
330
56D
100
AcDbEntity
  8
0
  6
Continuous
 62
     7
370
    15
100
AcDbLine
 10
2310.573781278649
 20
1039.349561209099
 30
0.0
 11
2310.573781278649
 21
1041.363928986326
 31
0.0
  0
LINE
  5
5A2
330
56D
100
AcDbEntity
  8
0
  6
Continuous
 62
     7
370
    15
100
AcDbLine
 10
2305.973781278649
 20
1039.349561209099
 30
0.0
 11
2310.573781278649
 21
1039.349561209099
 31
0.0
  0
LINE
  5
5A3
330
56D
100
AcDbEntity
  8
0
  6
Continuous
 62
     7
370
    15
100
AcDbLine
 10
2305.973781278649
 20
1041.363928986326
 30
0.0
 11
2305.973781278649
 21
1039.349561209099
 31
0.0
  0
ARC
  5
5A4
330
56D
100
AcDbEntity
  8
0
  6
Continuous
 62
     7
370
    15
100
AcDbCircle
 10
2305.473781278649
 20
1041.363928986326
 30
0.0
 40
0.5
100
AcDbArc
 50
0.0
 51
45.00000000002303
  0
LINE
  5
5A5
330
56D
100
AcDbEntity
  8
0
  6
Continuous
 62
     7
370
    15
100
AcDbLine
 10
2305.770227888055
 20
1041.774589158106
 30
0.0
 11
2305.827334669242
 21
1041.717482376919
 31
0.0
  0
ARC
  5
5A6
330
56D
100
AcDbEntity
  8
0
  6
Continuous
 62
     7
370
    15
100
AcDbCircle
 10
2306.123781278649
 20
1042.128142548699
 30
0.0
 40
0.5
100
AcDbArc
 50
180.0
 51
224.9999999999954
  0
LINE
  5
5A7
330
56D
100
AcDbEntity
  8
0
  6
Continuous
 62
     7
370
    15
100
AcDbLine
 10
2305.623781278649
 20
1045.811549505734
 30
0.0
 11
2305.623781278649
 21
1042.128142548699
 31
0.0
  0
LINE
  5
5A8
330
56D
100
AcDbEntity
  8
0
  6
Continuous
 62
     7
370
    15
100
AcDbLine
 10
2302.723781278649
 20
1045.811549505734
 30
0.0
 11
2305.623781278649
 21
1045.811549505734
 31
0.0
  0
LINE
  5
5A9
330
56D
100
AcDbEntity
  8
0
  6
Continuous
 62
     7
370
    15
100
AcDbLine
 10
2302.723781278649
 20
1042.128142548699
 30
0.0
 11
2302.723781278649
 21
1045.811549505734
 31
0.0
  0
ARC
  5
5AA
330
56D
100
AcDbEntity
  8
0
  6
Continuous
 62
     7
370
    15
100
AcDbCircle
 10
2302.223781278649
 20
1042.128142548699
 30
0.0
 40
0.5
100
AcDbArc
 50
315.0000000000092
 51
0.0
  0
LINE
  5
5AB
330
56D
100
AcDbEntity
  8
0
  6
Continuous
 62
     7
370
    15
100
AcDbLine
 10
2302.520227888055
 20
1041.717482376919
 30
0.0
 11
2302.577334669242
 21
1041.774589158106
 31
0.0
  0
ARC
  5
5AC
330
56D
100
AcDbEntity
  8
0
  6
Continuous
 62
     7
370
    15
100
AcDbCircle
 10
2302.873781278648
 20
1041.363928986326
 30
0.0
 40
0.5000000000000342
100
AcDbArc
 50
134.9999999999816
 51
180.0
  0
LINE
  5
5AD
330
56D
100
AcDbEntity
  8
0
  6
Continuous
 62
     7
370
    15
100
AcDbLine
 10
2302.373781278649
 20
1039.349561209099
 30
0.0
 11
2302.373781278649
 21
1041.363928986326
 31
0.0
  0
LINE
  5
5AE
330
56D
100
AcDbEntity
  8
0
  6
Continuous
 62
     7
370
    15
100
AcDbLine
 10
2297.773781278649
 20
1039.349561209099
 30
0.0
 11
2302.373781278649
 21
1039.349561209099
 31
0.0
  0
LINE
  5
5AF
330
56D
100
AcDbEntity
  8
0
  6
Continuous
 62
     7
370
    15
100
AcDbLine
 10
2297.773781278649
 20
1041.363928986326
 30
0.0
 11
2297.773781278649
 21
1039.349561209099
 31
0.0
  0
ARC
  5
5B0
330
56D
100
AcDbEntity
  8
0
  6
Continuous
 62
     7
370
    15
100
AcDbCircle
 10
2297.273781278649
 20
1041.363928986326
 30
0.0
 40
0.5000000000000342
100
AcDbArc
 50
0.0
 51
44.99999999999539
  0
LINE
  5
5B1
330
56D
100
AcDbEntity
  8
0
  6
Continuous
 62
     7
370
    15
100
AcDbLine
 10
2297.570227888055
 20
1041.774589158106
 30
0.0
 11
2297.627334669241
 21
1041.717482376919
 31
0.0
  0
ARC
  5
5B2
330
56D
100
AcDbEntity
  8
0
  6
Continuous
 62
     7
370
    15
100
AcDbCircle
 10
2297.923781278648
 20
1042.128142548699
 30
0.0
 40
0.5000000000000142
100
AcDbArc
 50
180.0
 51
225.0
  0
LINE
  5
5B3
330
56D
100
AcDbEntity
  8
0
  6
Continuous
 62
     7
370
    15
100
AcDbLine
 10
2297.423781278649
 20
1045.811549505734
 30
0.0
 11
2297.423781278649
 21
1042.128142548699
 31
0.0
  0
LINE
  5
5B4
330
56D
100
AcDbEntity
  8
0
  6
Continuous
 62
     7
370
    15
100
AcDbLine
 10
2297.423781278649
 20
1045.811549505734
 30
0.0
 11
2296.273781278649
 21
1045.811549505734
 31
0.0
  0
LINE
  5
5B5
330
56D
100
AcDbEntity
  8
0
  6
Continuous
 62
     7
370
    15
100
AcDbLine
 10
2296.273781278649
 20
1052.2781425487
 30
0.0
 11
2296.273781278649
 21
1045.811549505734
 31
0.0
  0
LINE
  5
5B6
330
56D
100
AcDbEntity
  8
0
  6
Continuous
 62
     7
370
    15
100
AcDbLine
 10
2328.473781278649
 20
1045.811549505734
 30
0.0
 11
2328.473781278649
 21
1052.2781425487
 31
0.0
  0
LINE
  5
5B7
330
56D
100
AcDbEntity
  8
0
  6
Continuous
 62
     7
370
    15
100
AcDbLine
 10
2314.523781278649
 20
1038.9995612091
 30
0.0
 11
2318.423781278649
 21
1038.9995612091
 31
0.0
  0
LINE
  5
5B8
330
56D
100
AcDbEntity
  8
0
  6
Continuous
 62
     7
370
    15
100
AcDbLine
 10
2314.173781278649
 20
1039.349561209099
 30
0.0
 11
2314.523781278649
 21
1038.9995612091
 31
0.0
  0
LINE
  5
5B9
330
56D
100
AcDbEntity
  8
0
  6
Continuous
 62
     7
370
    15
100
AcDbLine
 10
2318.423781278649
 20
1038.9995612091
 30
0.0
 11
2318.773781278649
 21
1039.349561209099
 31
0.0
  0
LINE
  5
5BA
330
56D
100
AcDbEntity
  8
0
  6
Continuous
 62
     7
370
    15
100
AcDbLine
 10
2306.323781278648
 20
1038.9995612091
 30
0.0
 11
2310.223781278649
 21
1038.9995612091
 31
0.0
  0
LINE
  5
5BB
330
56D
100
AcDbEntity
  8
0
  6
Continuous
 62
     7
370
    15
100
AcDbLine
 10
2305.973781278649
 20
1039.349561209099
 30
0.0
 11
2306.323781278648
 21
1038.9995612091
 31
0.0
  0
LINE
  5
5BC
330
56D
100
AcDbEntity
  8
0
  6
Continuous
 62
     7
370
    15
100
AcDbLine
 10
2310.223781278649
 20
1038.9995612091
 30
0.0
 11
2310.573781278649
 21
1039.349561209099
 31
0.0
  0
LINE
  5
5BD
330
56D
100
AcDbEntity
  8
0
  6
Continuous
 62
     7
370
    15
100
AcDbLine
 10
2322.723781278648
 20
1038.9995612091
 30
0.0
 11
2326.623781278649
 21
1038.9995612091
 31
0.0
  0
LINE
  5
5BE
330
56D
100
AcDbEntity
  8
0
  6
Continuous
 62
     7
370
    15
100
AcDbLine
 10
2326.623781278649
 20
1038.9995612091
 30
0.0
 11
2326.973781278649
 21
1039.349561209099
 31
0.0
  0
LINE
  5
5BF
330
56D
100
AcDbEntity
  8
0
  6
Continuous
 62
     7
370
    15
100
AcDbLine
 10
2322.373781278649
 20
1039.349561209099
 30
0.0
 11
2322.723781278648
 21
1038.9995612091
 31
0.0
  0
LINE
  5
5C0
330
56D
100
AcDbEntity
  8
0
  6
Continuous
 62
     7
370
    15
100
AcDbLine
 10
2302.023781278649
 20
1038.9995612091
 30
0.0
 11
2302.373781278649
 21
1039.349561209099
 31
0.0
  0
LINE
  5
5C1
330
56D
100
AcDbEntity
  8
0
  6
Continuous
 62
     7
370
    15
100
AcDbLine
 10
2298.123781278649
 20
1038.9995612091
 30
0.0
 11
2302.023781278649
 21
1038.9995612091
 31
0.0
  0
LINE
  5
5C2
330
56D
100
AcDbEntity
  8
0
  6
Continuous
 62
     7
370
    15
100
AcDbLine
 10
2297.773781278649
 20
1039.349561209099
 30
0.0
 11
2298.123781278649
 21
1038.9995612091
 31
0.0
  0
LINE
  5
5C3
330
56D
100
AcDbEntity
  8
0
  6
Continuous
 62
     7
370
    15
100
AcDbLine
 10
2326.173781278649
 20
1037.499561209101
 30
0.0
 11
2323.173781278649
 21
1037.499561209101
 31
0.0
  0
LINE
  5
5C4
330
56D
100
AcDbEntity
  8
0
  6
Continuous
 62
     7
370
    15
100
AcDbLine
 10
2326.173781278649
 20
1037.249561209101
 30
0.0
 11
2326.173781278649
 21
1037.499561209101
 31
0.0
  0
LINE
  5
5C5
330
56D
100
AcDbEntity
  8
0
  6
Continuous
 62
     7
370
    15
100
AcDbLine
 10
2323.173781278649
 20
1037.249561209101
 30
0.0
 11
2326.173781278649
 21
1037.249561209101
 31
0.0
  0
LINE
  5
5C6
330
56D
100
AcDbEntity
  8
0
  6
Continuous
 62
     7
370
    15
100
AcDbLine
 10
2323.173781278649
 20
1037.499561209101
 30
0.0
 11
2323.173781278649
 21
1037.249561209101
 31
0.0
  0
LINE
  5
5C7
330
56D
100
AcDbEntity
  8
0
  6
Continuous
 62
     7
370
    15
100
AcDbLine
 10
2317.973781278649
 20
1037.499561209101
 30
0.0
 11
2314.973781278649
 21
1037.499561209101
 31
0.0
  0
LINE
  5
5C8
330
56D
100
AcDbEntity
  8
0
  6
Continuous
 62
     7
370
    15
100
AcDbLine
 10
2317.973781278649
 20
1037.249561209101
 30
0.0
 11
2317.973781278649
 21
1037.499561209101
 31
0.0
  0
LINE
  5
5C9
330
56D
100
AcDbEntity
  8
0
  6
Continuous
 62
     7
370
    15
100
AcDbLine
 10
2314.973781278649
 20
1037.249561209101
 30
0.0
 11
2317.973781278649
 21
1037.249561209101
 31
0.0
  0
LINE
  5
5CA
330
56D
100
AcDbEntity
  8
0
  6
Continuous
 62
     7
370
    15
100
AcDbLine
 10
2314.973781278649
 20
1037.499561209101
 30
0.0
 11
2314.973781278649
 21
1037.249561209101
 31
0.0
  0
LINE
  5
5CB
330
56D
100
AcDbEntity
  8
0
  6
Continuous
 62
     7
370
    15
100
AcDbLine
 10
2314.973781278649
 20
1031.481468977069
 30
0.0
 11
2314.973781278649
 21
1037.249561209101
 31
0.0
  0
LINE
  5
5CC
330
56D
100
AcDbEntity
  8
0
  6
Continuous
 62
     7
370
    15
100
AcDbLine
 10
2317.973781278649
 20
1031.481468977069
 30
0.0
 11
2317.633799255395
 21
1029.553335109592
 31
0.0
  0
ARC
  5
5CD
330
56D
100
AcDbEntity
  8
0
  6
Continuous
 62
     7
370
    15
100
AcDbCircle
 10
2316.944433828286
 20
1029.674888833959
 30
0.0
 40
0.7000000000000029
100
AcDbArc
 50
270.0
 51
350.0000000000089
  0
LINE
  5
5CE
330
56D
100
AcDbEntity
  8
0
  6
Continuous
 62
     7
370
    15
100
AcDbLine
 10
2316.003128729011
 20
1028.974888833959
 30
0.0
 11
2316.944433828286
 21
1028.974888833959
 31
0.0
  0
ARC
  5
5CF
330
56D
100
AcDbEntity
  8
0
  6
Continuous
 62
     7
370
    15
100
AcDbCircle
 10
2316.003128729011
 20
1029.674888833959
 30
0.0
 40
0.7000000000000029
100
AcDbArc
 50
189.999999999991
 51
270.0
  0
LINE
  5
5D0
330
56D
100
AcDbEntity
  8
0
  6
Continuous
 62
     7
370
    15
100
AcDbLine
 10
2315.313763301903
 20
1029.553335109592
 30
0.0
 11
2314.973781278649
 21
1031.481468977069
 31
0.0
  0
LINE
  5
5D1
330
56D
100
AcDbEntity
  8
0
  6
Continuous
 62
     7
370
    15
100
AcDbLine
 10
2317.973781278649
 20
1037.249561209101
 30
0.0
 11
2317.973781278649
 21
1031.481468977069
 31
0.0
  0
LINE
  5
5D2
330
56D
100
AcDbEntity
  8
0
  6
Continuous
 62
     7
370
    15
100
AcDbLine
 10
2323.173781278649
 20
1031.481468977069
 30
0.0
 11
2323.173781278649
 21
1037.249561209101
 31
0.0
  0
LINE
  5
5D3
330
56D
100
AcDbEntity
  8
0
  6
Continuous
 62
     7
370
    15
100
AcDbLine
 10
2326.173781278649
 20
1037.249561209101
 30
0.0
 11
2326.173781278649
 21
1031.481468977069
 31
0.0
  0
LINE
  5
5D4
330
56D
100
AcDbEntity
  8
0
  6
Continuous
 62
     7
370
    15
100
AcDbLine
 10
2326.173781278649
 20
1031.481468977069
 30
0.0
 11
2325.833799255395
 21
1029.553335109592
 31
0.0
  0
ARC
  5
5D5
330
56D
100
AcDbEntity
  8
0
  6
Continuous
 62
     7
370
    15
100
AcDbCircle
 10
2325.144433828286
 20
1029.674888833959
 30
0.0
 40
0.7000000000000029
100
AcDbArc
 50
270.0
 51
350.0000000000089
  0
LINE
  5
5D6
330
56D
100
AcDbEntity
  8
0
  6
Continuous
 62
     7
370
    15
100
AcDbLine
 10
2324.203128729011
 20
1028.974888833958
 30
0.0
 11
2325.144433828286
 21
1028.974888833958
 31
0.0
  0
ARC
  5
5D7
330
56D
100
AcDbEntity
  8
0
  6
Continuous
 62
     7
370
    15
100
AcDbCircle
 10
2324.203128729011
 20
1029.674888833959
 30
0.0
 40
0.7000000000000029
100
AcDbArc
 50
189.999999999991
 51
270.0
  0
LINE
  5
5D8
330
56D
100
AcDbEntity
  8
0
  6
Continuous
 62
     7
370
    15
100
AcDbLine
 10
2323.513763301903
 20
1029.553335109592
 30
0.0
 11
2323.173781278649
 21
1031.481468977069
 31
0.0
  0
LINE
  5
5D9
330
56D
100
AcDbEntity
  8
0
  6
Continuous
 62
     7
370
    15
100
AcDbLine
 10
2309.773781278649
 20
1037.499561209101
 30
0.0
 11
2306.773781278649
 21
1037.499561209101
 31
0.0
  0
LINE
  5
5DA
330
56D
100
AcDbEntity
  8
0
  6
Continuous
 62
     7
370
    15
100
AcDbLine
 10
2309.773781278649
 20
1037.249561209101
 30
0.0
 11
2309.773781278649
 21
1037.499561209101
 31
0.0
  0
LINE
  5
5DB
330
56D
100
AcDbEntity
  8
0
  6
Continuous
 62
     7
370
    15
100
AcDbLine
 10
2306.773781278649
 20
1037.249561209101
 30
0.0
 11
2309.773781278649
 21
1037.249561209101
 31
0.0
  0
LINE
  5
5DC
330
56D
100
AcDbEntity
  8
0
  6
Continuous
 62
     7
370
    15
100
AcDbLine
 10
2306.773781278649
 20
1037.499561209101
 30
0.0
 11
2306.773781278649
 21
1037.249561209101
 31
0.0
  0
LINE
  5
5DD
330
56D
100
AcDbEntity
  8
0
  6
Continuous
 62
     7
370
    15
100
AcDbLine
 10
2306.773781278649
 20
1031.481468977069
 30
0.0
 11
2306.773781278649
 21
1037.249561209101
 31
0.0
  0
LINE
  5
5DE
330
56D
100
AcDbEntity
  8
0
  6
Continuous
 62
     7
370
    15
100
AcDbLine
 10
2309.773781278649
 20
1037.249561209101
 30
0.0
 11
2309.773781278649
 21
1031.481468977069
 31
0.0
  0
LINE
  5
5DF
330
56D
100
AcDbEntity
  8
0
  6
Continuous
 62
     7
370
    15
100
AcDbLine
 10
2309.773781278649
 20
1031.481468977069
 30
0.0
 11
2309.433799255395
 21
1029.553335109592
 31
0.0
  0
ARC
  5
5E0
330
56D
100
AcDbEntity
  8
0
  6
Continuous
 62
     7
370
    15
100
AcDbCircle
 10
2308.744433828287
 20
1029.674888833959
 30
0.0
 40
0.7000000000000029
100
AcDbArc
 50
270.0
 51
350.0000000000089
  0
LINE
  5
5E1
330
56D
100
AcDbEntity
  8
0
  6
Continuous
 62
     7
370
    15
100
AcDbLine
 10
2307.803128729011
 20
1028.974888833959
 30
0.0
 11
2308.744433828287
 21
1028.974888833959
 31
0.0
  0
ARC
  5
5E2
330
56D
100
AcDbEntity
  8
0
  6
Continuous
 62
     7
370
    15
100
AcDbCircle
 10
2307.803128729011
 20
1029.674888833959
 30
0.0
 40
0.7000000000000029
100
AcDbArc
 50
189.999999999991
 51
270.0
  0
LINE
  5
5E3
330
56D
100
AcDbEntity
  8
0
  6
Continuous
 62
     7
370
    15
100
AcDbLine
 10
2307.113763301902
 20
1029.553335109592
 30
0.0
 11
2306.773781278649
 21
1031.481468977069
 31
0.0
  0
LINE
  5
5E4
330
56D
100
AcDbEntity
  8
0
  6
Continuous
 62
     7
370
    15
100
AcDbLine
 10
2298.573781278649
 20
1031.481468977069
 30
0.0
 11
2298.573781278649
 21
1037.249561209101
 31
0.0
  0
LINE
  5
5E5
330
56D
100
AcDbEntity
  8
0
  6
Continuous
 62
     7
370
    15
100
AcDbLine
 10
2298.573781278649
 20
1037.249561209101
 30
0.0
 11
2301.573781278649
 21
1037.249561209101
 31
0.0
  0
LINE
  5
5E6
330
56D
100
AcDbEntity
  8
0
  6
Continuous
 62
     7
370
    15
100
AcDbLine
 10
2301.573781278649
 20
1031.481468977069
 30
0.0
 11
2301.233799255395
 21
1029.553335109592
 31
0.0
  0
ARC
  5
5E7
330
56D
100
AcDbEntity
  8
0
  6
Continuous
 62
     7
370
    15
100
AcDbCircle
 10
2300.544433828286
 20
1029.674888833959
 30
0.0
 40
0.7000000000000029
100
AcDbArc
 50
270.0
 51
350.0000000000025
  0
LINE
  5
5E8
330
56D
100
AcDbEntity
  8
0
  6
Continuous
 62
     7
370
    15
100
AcDbLine
 10
2299.603128729011
 20
1028.974888833959
 30
0.0
 11
2300.544433828286
 21
1028.974888833959
 31
0.0
  0
ARC
  5
5E9
330
56D
100
AcDbEntity
  8
0
  6
Continuous
 62
     7
370
    15
100
AcDbCircle
 10
2299.603128729011
 20
1029.674888833959
 30
0.0
 40
0.7000000000000029
100
AcDbArc
 50
189.999999999991
 51
270.0
  0
LINE
  5
5EA
330
56D
100
AcDbEntity
  8
0
  6
Continuous
 62
     7
370
    15
100
AcDbLine
 10
2298.913763301903
 20
1029.553335109592
 30
0.0
 11
2298.573781278649
 21
1031.481468977069
 31
0.0
  0
LINE
  5
5EB
330
56D
100
AcDbEntity
  8
0
  6
Continuous
 62
     7
370
    15
100
AcDbLine
 10
2301.573781278649
 20
1037.249561209101
 30
0.0
 11
2301.573781278649
 21
1031.481468977069
 31
0.0
  0
LINE
  5
5EC
330
56D
100
AcDbEntity
  8
0
  6
Continuous
 62
     7
370
    15
100
AcDbLine
 10
2301.573781278649
 20
1037.499561209101
 30
0.0
 11
2298.573781278649
 21
1037.499561209101
 31
0.0
  0
LINE
  5
5ED
330
56D
100
AcDbEntity
  8
0
  6
Continuous
 62
     7
370
    15
100
AcDbLine
 10
2298.573781278649
 20
1037.499561209101
 30
0.0
 11
2298.573781278649
 21
1037.249561209101
 31
0.0
  0
LINE
  5
5EE
330
56D
100
AcDbEntity
  8
0
  6
Continuous
 62
     7
370
    15
100
AcDbLine
 10
2301.573781278649
 20
1037.249561209101
 30
0.0
 11
2301.573781278649
 21
1037.499561209101
 31
0.0
  0
LINE
  5
5EF
330
56D
100
AcDbEntity
  8
0
  6
Continuous
 62
     7
370
    15
100
AcDbLine
 10
2306.773781278649
 20
1037.749561209101
 30
0.0
 11
2309.773781278648
 21
1037.749561209101
 31
0.0
  0
LINE
  5
5F0
330
56D
100
AcDbEntity
  8
0
  6
Continuous
 62
     7
370
    15
100
AcDbLine
 10
2306.773781278649
 20
1037.749561209101
 30
0.0
 11
2306.773781278649
 21
1037.499561209101
 31
0.0
  0
LINE
  5
5F1
330
56D
100
AcDbEntity
  8
0
  6
Continuous
 62
     7
370
    15
100
AcDbLine
 10
2309.773781278648
 20
1037.499561209101
 30
0.0
 11
2309.773781278648
 21
1037.749561209101
 31
0.0
  0
LINE
  5
5F2
330
56D
100
AcDbEntity
  8
0
  6
Continuous
 62
     7
370
    15
100
AcDbLine
 10
2314.973781278649
 20
1037.749561209101
 30
0.0
 11
2317.973781278648
 21
1037.749561209101
 31
0.0
  0
LINE
  5
5F3
330
56D
100
AcDbEntity
  8
0
  6
Continuous
 62
     7
370
    15
100
AcDbLine
 10
2314.973781278649
 20
1037.749561209101
 30
0.0
 11
2314.973781278649
 21
1037.499561209101
 31
0.0
  0
LINE
  5
5F4
330
56D
100
AcDbEntity
  8
0
  6
Continuous
 62
     7
370
    15
100
AcDbLine
 10
2317.973781278648
 20
1037.499561209101
 30
0.0
 11
2317.973781278648
 21
1037.749561209101
 31
0.0
  0
LINE
  5
5F5
330
56D
100
AcDbEntity
  8
0
  6
Continuous
 62
     7
370
    15
100
AcDbLine
 10
2323.173781278649
 20
1037.749561209101
 30
0.0
 11
2326.173781278648
 21
1037.749561209101
 31
0.0
  0
LINE
  5
5F6
330
56D
100
AcDbEntity
  8
0
  6
Continuous
 62
     7
370
    15
100
AcDbLine
 10
2323.173781278649
 20
1037.749561209101
 30
0.0
 11
2323.173781278649
 21
1037.499561209101
 31
0.0
  0
LINE
  5
5F7
330
56D
100
AcDbEntity
  8
0
  6
Continuous
 62
     7
370
    15
100
AcDbLine
 10
2326.173781278648
 20
1037.499561209101
 30
0.0
 11
2326.173781278648
 21
1037.749561209101
 31
0.0
  0
LINE
  5
5F8
330
56D
100
AcDbEntity
  8
0
  6
Continuous
 62
     7
370
    15
100
AcDbLine
 10
2298.573781278649
 20
1037.749561209101
 30
0.0
 11
2301.573781278648
 21
1037.749561209101
 31
0.0
  0
LINE
  5
5F9
330
56D
100
AcDbEntity
  8
0
  6
Continuous
 62
     7
370
    15
100
AcDbLine
 10
2298.573781278649
 20
1037.749561209101
 30
0.0
 11
2298.573781278649
 21
1037.499561209101
 31
0.0
  0
LINE
  5
5FA
330
56D
100
AcDbEntity
  8
0
  6
Continuous
 62
     7
370
    15
100
AcDbLine
 10
2301.573781278648
 20
1037.499561209101
 30
0.0
 11
2301.573781278648
 21
1037.749561209101
 31
0.0
  0
LINE
  5
5FB
330
56D
100
AcDbEntity
  8
0
  6
Continuous
 62
     7
370
    15
100
AcDbLine
 10
2314.973781278649
 20
1038.999561209099
 30
0.0
 11
2314.973781278649
 21
1037.749561209101
 31
0.0
  0
LINE
  5
5FC
330
56D
100
AcDbEntity
  8
0
  6
Continuous
 62
     7
370
    15
100
AcDbLine
 10
2317.973781278648
 20
1037.749561209101
 30
0.0
 11
2317.973781278649
 21
1038.9995612091
 31
0.0
  0
LINE
  5
5FD
330
56D
100
AcDbEntity
  8
0
  6
Continuous
 62
     7
370
    15
100
AcDbLine
 10
2323.173781278649
 20
1038.999561209099
 30
0.0
 11
2323.173781278649
 21
1037.749561209101
 31
0.0
  0
LINE
  5
5FE
330
56D
100
AcDbEntity
  8
0
  6
Continuous
 62
     7
370
    15
100
AcDbLine
 10
2326.173781278648
 20
1037.749561209101
 30
0.0
 11
2326.173781278649
 21
1038.9995612091
 31
0.0
  0
LINE
  5
5FF
330
56D
100
AcDbEntity
  8
0
  6
Continuous
 62
     7
370
    15
100
AcDbLine
 10
2306.773781278649
 20
1038.9995612091
 30
0.0
 11
2306.773781278649
 21
1037.749561209101
 31
0.0
  0
LINE
  5
600
330
56D
100
AcDbEntity
  8
0
  6
Continuous
 62
     7
370
    15
100
AcDbLine
 10
2309.773781278648
 20
1037.749561209101
 30
0.0
 11
2309.773781278649
 21
1038.9995612091
 31
0.0
  0
LINE
  5
601
330
56D
100
AcDbEntity
  8
0
  6
Continuous
 62
     7
370
    15
100
AcDbLine
 10
2298.573781278649
 20
1038.9995612091
 30
0.0
 11
2298.573781278649
 21
1037.749561209101
 31
0.0
  0
LINE
  5
602
330
56D
100
AcDbEntity
  8
0
  6
Continuous
 62
     7
370
    15
100
AcDbLine
 10
2301.573781278648
 20
1037.749561209101
 30
0.0
 11
2301.573781278649
 21
1038.9995612091
 31
0.0
  0
ENDBLK
  5
56F
330
56D
100
AcDbEntity
  8
0
100
AcDbBlockEnd
  0
BLOCK
  5
605
330
604
100
AcDbEntity
  8
0
100
AcDbBlockBegin
  2
2
 70
     0
 10
0.0
 20
0.0
 30
0.0
  3
2
  1

  0
LINE
  5
607
330
604
100
AcDbEntity
  8
0
  6
Continuous
 62
     7
370
    15
100
AcDbLine
 10
2278.515658327818
 20
1045.811549505734
 30
0.0
 11
2278.515658327819
 21
1052.2781425487
 31
0.0
  0
LINE
  5
608
330
604
100
AcDbEntity
  8
0
  6
Continuous
 62
     7
370
    15
100
AcDbLine
 10
2278.515658327819
 20
1052.2781425487
 30
0.0
 11
2277.765658327819
 21
1052.2781425487
 31
0.0
  0
LINE
  5
609
330
604
100
AcDbEntity
  8
0
  6
Continuous
 62
     7
370
    15
100
AcDbLine
 10
2277.765658327819
 20
1052.2781425487
 30
0.0
 11
2277.765658327819
 21
1053.478142548699
 31
0.0
  0
LINE
  5
60A
330
604
100
AcDbEntity
  8
0
  6
Continuous
 62
     7
370
    15
100
AcDbLine
 10
2277.765658327819
 20
1053.478142548699
 30
0.0
 11
2282.265658327819
 21
1053.478142548699
 31
0.0
  0
LINE
  5
60B
330
604
100
AcDbEntity
  8
0
  6
Continuous
 62
     7
370
    15
100
AcDbLine
 10
2282.265658327819
 20
1053.478142548699
 30
0.0
 11
2282.265658327819
 21
1052.2781425487
 31
0.0
  0
LINE
  5
60C
330
604
100
AcDbEntity
  8
0
  6
Continuous
 62
     7
370
    15
100
AcDbLine
 10
2282.265658327819
 20
1052.2781425487
 30
0.0
 11
2281.515658327819
 21
1052.2781425487
 31
0.0
  0
LINE
  5
60D
330
604
100
AcDbEntity
  8
0
  6
Continuous
 62
     7
370
    15
100
AcDbLine
 10
2281.515658327819
 20
1045.811549505734
 30
0.0
 11
2278.515658327818
 21
1045.811549505734
 31
0.0
  0
LINE
  5
60E
330
604
100
AcDbEntity
  8
0
  6
Continuous
 62
     7
370
    15
100
AcDbLine
 10
2281.515658327819
 20
1052.2781425487
 30
0.0
 11
2281.515658327819
 21
1045.811549505734
 31
0.0
  0
LINE
  5
60F
330
604
100
AcDbEntity
  8
0
  6
Continuous
 62
     7
370
    15
100
AcDbLine
 10
2281.515658327818
 20
1042.128142548699
 30
0.0
 11
2278.515658327818
 21
1042.128142548699
 31
0.0
  0
LINE
  5
610
330
604
100
AcDbEntity
  8
0
  6
Continuous
 62
     7
370
    15
100
AcDbLine
 10
2278.515658327818
 20
1042.128142548699
 30
0.0
 11
2278.515658327818
 21
1045.811549505734
 31
0.0
  0
LINE
  5
611
330
604
100
AcDbEntity
  8
0
  6
Continuous
 62
     7
370
    15
100
AcDbLine
 10
2281.515658327819
 20
1045.811549505734
 30
0.0
 11
2281.515658327818
 21
1042.128142548699
 31
0.0
  0
LINE
  5
612
330
604
100
AcDbEntity
  8
0
  6
Continuous
 62
     7
370
    15
100
AcDbLine
 10
2278.515658327818
 20
1041.774589158106
 30
0.0
 11
2281.515658327818
 21
1041.774589158106
 31
0.0
  0
LINE
  5
613
330
604
100
AcDbEntity
  8
0
  6
Continuous
 62
     7
370
    15
100
AcDbLine
 10
2278.515658327818
 20
1042.128142548699
 30
0.0
 11
2278.515658327818
 21
1041.774589158106
 31
0.0
  0
LINE
  5
614
330
604
100
AcDbEntity
  8
0
  6
Continuous
 62
     7
370
    15
100
AcDbLine
 10
2281.515658327818
 20
1041.774589158106
 30
0.0
 11
2281.515658327818
 21
1042.128142548699
 31
0.0
  0
LINE
  5
615
330
604
100
AcDbEntity
  8
0
  6
Continuous
 62
     7
370
    15
100
AcDbLine
 10
2278.515658327818
 20
1041.717482376919
 30
0.0
 11
2281.515658327818
 21
1041.717482376919
 31
0.0
  0
LINE
  5
616
330
604
100
AcDbEntity
  8
0
  6
Continuous
 62
     7
370
    15
100
AcDbLine
 10
2278.515658327818
 20
1041.717482376919
 30
0.0
 11
2278.515658327818
 21
1041.774589158106
 31
0.0
  0
LINE
  5
617
330
604
100
AcDbEntity
  8
0
  6
Continuous
 62
     7
370
    15
100
AcDbLine
 10
2281.515658327818
 20
1041.717482376919
 30
0.0
 11
2281.515658327818
 21
1041.774589158106
 31
0.0
  0
LINE
  5
618
330
604
100
AcDbEntity
  8
0
  6
Continuous
 62
     7
370
    15
100
AcDbLine
 10
2278.515658327818
 20
1041.363928986326
 30
0.0
 11
2281.515658327818
 21
1041.363928986326
 31
0.0
  0
LINE
  5
619
330
604
100
AcDbEntity
  8
0
  6
Continuous
 62
     7
370
    15
100
AcDbLine
 10
2278.515658327818
 20
1041.363928986326
 30
0.0
 11
2278.515658327818
 21
1041.717482376919
 31
0.0
  0
LINE
  5
61A
330
604
100
AcDbEntity
  8
0
  6
Continuous
 62
     7
370
    15
100
AcDbLine
 10
2281.515658327818
 20
1041.363928986326
 30
0.0
 11
2281.515658327818
 21
1041.717482376919
 31
0.0
  0
LINE
  5
61B
330
604
100
AcDbEntity
  8
0
  6
Continuous
 62
     7
370
    15
100
AcDbLine
 10
2281.515658327818
 20
1039.349561209099
 30
0.0
 11
2278.515658327818
 21
1039.349561209099
 31
0.0
  0
LINE
  5
61C
330
604
100
AcDbEntity
  8
0
  6
Continuous
 62
     7
370
    15
100
AcDbLine
 10
2278.515658327818
 20
1039.349561209099
 30
0.0
 11
2278.515658327818
 21
1041.363928986326
 31
0.0
  0
LINE
  5
61D
330
604
100
AcDbEntity
  8
0
  6
Continuous
 62
     7
370
    15
100
AcDbLine
 10
2281.515658327818
 20
1041.363928986326
 30
0.0
 11
2281.515658327818
 21
1039.349561209099
 31
0.0
  0
LINE
  5
61E
330
604
100
AcDbEntity
  8
0
  6
Continuous
 62
     7
370
    15
100
AcDbLine
 10
2281.165658327818
 20
1038.999561209099
 30
0.0
 11
2278.865658327818
 21
1038.9995612091
 31
0.0
  0
LINE
  5
61F
330
604
100
AcDbEntity
  8
0
  6
Continuous
 62
     7
370
    15
100
AcDbLine
 10
2278.865658327818
 20
1038.9995612091
 30
0.0
 11
2278.515658327818
 21
1039.349561209099
 31
0.0
  0
LINE
  5
620
330
604
100
AcDbEntity
  8
0
  6
Continuous
 62
     7
370
    15
100
AcDbLine
 10
2281.515658327818
 20
1039.349561209099
 30
0.0
 11
2281.165658327818
 21
1038.999561209099
 31
0.0
  0
LINE
  5
621
330
604
100
AcDbEntity
  8
0
  6
Continuous
 62
     7
370
    15
100
AcDbLine
 10
2278.662857807967
 20
1037.249561209101
 30
0.0
 11
2278.662857807967
 21
1031.481468977069
 31
0.0
  0
ARC
  5
622
330
604
100
AcDbEntity
  8
0
  6
Continuous
 62
     7
370
    15
100
AcDbCircle
 10
2278.912857807967
 20
1037.249561209101
 30
0.0
 40
0.2500000000000284
100
AcDbArc
 50
90.0
 51
180.0
  0
LINE
  5
623
330
604
100
AcDbEntity
  8
0
  6
Continuous
 62
     7
370
    15
100
AcDbLine
 10
2278.912857807967
 20
1037.499561209101
 30
0.0
 11
2279.065658327818
 21
1037.499561209101
 31
0.0
  0
ARC
  5
624
330
604
100
AcDbEntity
  8
0
  6
Continuous
 62
     7
370
    15
100
AcDbCircle
 10
2279.065658327818
 20
1037.749561209101
 30
0.0
 40
0.2500000000000284
100
AcDbArc
 50
270.0
 51
0.0000000002475235
  0
LINE
  5
625
330
604
100
AcDbEntity
  8
0
  6
Continuous
 62
     7
370
    15
100
AcDbLine
 10
2280.705658327818
 20
1038.9995612091
 30
0.0
 11
2280.705658327818
 21
1037.749561209101
 31
0.0
  0
ARC
  5
626
330
604
100
AcDbEntity
  8
0
  6
Continuous
 62
     7
370
    15
100
AcDbCircle
 10
2280.955658327818
 20
1037.749561209101
 30
0.0
 40
0.2500000000000284
100
AcDbArc
 50
180.0
 51
270.0
  0
LINE
  5
627
330
604
100
AcDbEntity
  8
0
  6
Continuous
 62
     7
370
    15
100
AcDbLine
 10
2280.955658327818
 20
1037.499561209101
 30
0.0
 11
2281.10845884767
 21
1037.499561209101
 31
0.0
  0
ARC
  5
628
330
604
100
AcDbEntity
  8
0
  6
Continuous
 62
     7
370
    15
100
AcDbCircle
 10
2281.10845884767
 20
1037.249561209101
 30
0.0
 40
0.2500000000000426
100
AcDbArc
 50
359.999999999987
 51
90.0
  0
LINE
  5
629
330
604
100
AcDbEntity
  8
0
  6
Continuous
 62
     7
370
    15
100
AcDbLine
 10
2281.35845884767
 20
1031.481468977069
 30
0.0
 11
2281.35845884767
 21
1037.249561209101
 31
0.0
  0
LINE
  5
62A
330
604
100
AcDbEntity
  8
0
  6
Continuous
 62
     7
370
    15
100
AcDbLine
 10
2278.662857807967
 20
1031.481468977069
 30
0.0
 11
2281.35845884767
 21
1031.481468977069
 31
0.0
  0
LINE
  5
62B
330
604
100
AcDbEntity
  8
0
  6
Continuous
 62
     7
370
    15
100
AcDbLine
 10
2279.315658327818
 20
1037.749561209101
 30
0.0
 11
2279.315658327818
 21
1038.9995612091
 31
0.0
  0
LINE
  5
62C
330
604
100
AcDbEntity
  8
0
  6
Continuous
 62
     7
370
    15
100
AcDbLine
 10
2281.35845884767
 20
1029.553335109592
 30
0.0
 11
2281.35845884767
 21
1031.481468977069
 31
0.0
  0
LINE
  5
62D
330
604
100
AcDbEntity
  8
0
  6
Continuous
 62
     7
370
    15
100
AcDbLine
 10
2281.35845884767
 20
1029.553335109592
 30
0.0
 11
2278.662857807967
 21
1029.553335109592
 31
0.0
  0
LINE
  5
62E
330
604
100
AcDbEntity
  8
0
  6
Continuous
 62
     7
370
    15
100
AcDbLine
 10
2278.662857807967
 20
1031.481468977069
 30
0.0
 11
2278.662857807967
 21
1029.553335109592
 31
0.0
  0
LINE
  5
62F
330
604
100
AcDbEntity
  8
0
  6
Continuous
 62
     7
370
    15
100
AcDbLine
 10
2281.865658327818
 20
1043.678142548699
 30
0.0
 11
2281.515658327818
 21
1042.378142548698
 31
0.0
  0
LINE
  5
630
330
604
100
AcDbEntity
  8
0
  6
Continuous
 62
     7
370
    15
100
AcDbLine
 10
2281.515658327818
 20
1043.678142548699
 30
0.0
 11
2281.865658327818
 21
1043.678142548699
 31
0.0
  0
LINE
  5
631
330
604
100
AcDbEntity
  8
0
  6
Continuous
 62
     7
370
    15
100
AcDbLine
 10
2278.165658327818
 20
1043.678142548699
 30
0.0
 11
2278.515658327819
 21
1043.678142548699
 31
0.0
  0
LINE
  5
632
330
604
100
AcDbEntity
  8
0
  6
Continuous
 62
     7
370
    15
100
AcDbLine
 10
2278.515658327819
 20
1042.378142548699
 30
0.0
 11
2278.165658327818
 21
1043.678142548699
 31
0.0
  0
LINE
  5
633
330
604
100
AcDbEntity
  8
0
  6
Continuous
 62
     7
370
    15
100
AcDbLine
 10
2278.662857807967
 20
1028.974888833958
 30
0.0
 11
2281.35845884767
 21
1028.974888833958
 31
0.0
  0
LINE
  5
634
330
604
100
AcDbEntity
  8
0
  6
Continuous
 62
     7
370
    15
100
AcDbLine
 10
2278.662857807967
 20
1029.553335109592
 30
0.0
 11
2278.662857807967
 21
1028.974888833958
 31
0.0
  0
LINE
  5
635
330
604
100
AcDbEntity
  8
0
  6
Continuous
 62
     7
370
    15
100
AcDbLine
 10
2281.35845884767
 20
1028.974888833958
 30
0.0
 11
2281.35845884767
 21
1029.553335109592
 31
0.0
  0
ENDBLK
  5
606
330
604
100
AcDbEntity
  8
0
100
AcDbBlockEnd
  0
BLOCK
  5
638
330
637
100
AcDbEntity
  8
0
100
AcDbBlockBegin
  2
3
 70
     0
 10
0.0
 20
0.0
 30
0.0
  3
3
  1

  0
LINE
  5
63A
330
637
100
AcDbEntity
  8
0
  6
Continuous
 62
     7
370
    15
100
AcDbLine
 10
2328.473781278649
 20
1003.62916685412
 30
0.0
 11
2328.473781278649
 21
1008.129166854121
 31
0.0
  0
LINE
  5
63B
330
637
100
AcDbEntity
  8
0
  6
Continuous
 62
     7
370
    15
100
AcDbLine
 10
2328.473781278649
 20
1003.62916685412
 30
0.0
 11
2296.273781278649
 21
1003.629166854121
 31
0.0
  0
LINE
  5
63C
330
637
100
AcDbEntity
  8
0
  6
Continuous
 62
     7
370
    15
100
AcDbLine
 10
2296.273781278649
 20
1008.129166854121
 30
0.0
 11
2296.273781278649
 21
1003.629166854121
 31
0.0
  0
LINE
  5
63D
330
637
100
AcDbEntity
  8
0
  6
Continuous
 62
     7
370
    15
100
AcDbLine
 10
2296.273781278649
 20
1008.129166854121
 30
0.0
 11
2328.473781278649
 21
1008.129166854121
 31
0.0
  0
ENDBLK
  5
639
330
637
100
AcDbEntity
  8
0
100
AcDbBlockEnd
  0
BLOCK
  5
640
330
63F
100
AcDbEntity
  8
0
100
AcDbBlockBegin
  2
4
 70
     0
 10
0.0
 20
0.0
 30
0.0
  3
4
  1

  0
LINE
  5
642
330
63F
100
AcDbEntity
  8
0
  6
Continuous
 62
     7
370
    15
100
AcDbLine
 10
2352.446539771194
 20
1035.495319520668
 30
0.0
 11
2352.036726950562
 21
1035.258739615061
 31
0.0
  0
LINE
  5
643
330
63F
100
AcDbEntity
  8
0
  6
Continuous
 62
     7
370
    15
100
AcDbLine
 10
2352.362827102771
 20
1028.77319888299
 30
0.0
 11
2354.268904877318
 21
1027.672843605465
 31
0.0
  0
LINE
  5
644
330
63F
100
AcDbEntity
  8
0
  6
Continuous
 62
     7
370
    15
100
AcDbLine
 10
2358.244815376924
 20
1038.842592779141
 30
0.0
 11
2357.835002556292
 21
1038.606012873534
 31
0.0
  0
LINE
  5
645
330
63F
100
AcDbEntity
  8
0
  6
Continuous
 62
     7
370
    15
100
AcDbLine
 10
2358.161102708501
 20
1032.120472141463
 30
0.0
 11
2360.067180483047
 21
1031.020116863938
 31
0.0
  0
LINE
  5
646
330
63F
100
AcDbEntity
  8
0
  6
Continuous
 62
     7
370
    15
100
AcDbLine
 10
2364.043090982654
 20
1042.189866037614
 30
0.0
 11
2363.633278162021
 21
1041.953286132007
 31
0.0
  0
LINE
  5
647
330
63F
100
AcDbEntity
  8
0
  6
Continuous
 62
     7
370
    15
100
AcDbLine
 10
2363.95937831423
 20
1035.467745399936
 30
0.0
 11
2365.865456088777
 21
1034.367390122411
 31
0.0
  0
LINE
  5
648
330
63F
100
AcDbEntity
  8
0
  6
Continuous
 62
     7
370
    15
100
AcDbLine
 10
2369.841366588384
 20
1045.537139296087
 30
0.0
 11
2369.431553767751
 21
1045.30055939048
 31
0.0
  0
LINE
  5
649
330
63F
100
AcDbEntity
  8
0
  6
Continuous
 62
     7
370
    15
100
AcDbLine
 10
2369.75765391996
 20
1038.815018658409
 30
0.0
 11
2371.663731694507
 21
1037.714663380884
 31
0.0
  0
LINE
  5
64A
330
63F
100
AcDbEntity
  8
0
  6
Continuous
 62
     7
370
    15
100
AcDbLine
 10
2349.717107595814
 20
1046.847181600692
 30
0.0
 11
2349.717107595814
 21
1047.827030574954
 31
0.0
  0
LINE
  5
64B
330
63F
100
AcDbEntity
  8
0
  6
Continuous
 62
     7
370
    15
100
AcDbLine
 10
2349.717107595814
 20
1047.827030574954
 30
0.0
 11
2352.899088111154
 21
1045.990112323353
 31
0.0
  0
LINE
  5
64C
330
63F
100
AcDbEntity
  8
0
  6
Continuous
 62
     7
370
    15
100
AcDbLine
 10
2352.899088111154
 20
1045.990112323353
 30
0.0
 11
2352.899088111154
 21
1045.010263349091
 31
0.0
  0
LINE
  5
64D
330
63F
100
AcDbEntity
  8
0
  6
Continuous
 62
     7
370
    15
100
AcDbLine
 10
2352.899088111154
 20
1045.010263349091
 30
0.0
 11
2352.368758025264
 21
1045.316416391024
 31
0.0
  0
LINE
  5
64E
330
63F
100
AcDbEntity
  8
0
  6
Continuous
 62
     7
370
    15
100
AcDbLine
 10
2352.368758025264
 20
1045.316416391024
 30
0.0
 11
2352.368758025264
 21
1040.036179257587
 31
0.0
  0
LINE
  5
64F
330
63F
100
AcDbEntity
  8
0
  6
Continuous
 62
     7
370
    15
100
AcDbLine
 10
2352.368758025264
 20
1040.036179257587
 30
0.0
 11
2350.247437681704
 21
1041.260791425321
 31
0.0
  0
LINE
  5
650
330
63F
100
AcDbEntity
  8
0
  6
Continuous
 62
     7
370
    15
100
AcDbLine
 10
2350.247437681704
 20
1041.260791425321
 30
0.0
 11
2350.247437681704
 21
1046.541028558758
 31
0.0
  0
LINE
  5
651
330
63F
100
AcDbEntity
  8
0
  6
Continuous
 62
     7
370
    15
100
AcDbLine
 10
2350.247437681704
 20
1046.541028558758
 30
0.0
 11
2349.717107595814
 21
1046.847181600692
 31
0.0
  0
LINE
  5
652
330
63F
100
AcDbEntity
  8
0
  6
Continuous
 62
     7
370
    15
100
AcDbLine
 10
2375.66792646536
 20
1058.154433949436
 30
0.0
 11
2375.66792646536
 21
1059.134282923699
 31
0.0
  0
LINE
  5
653
330
63F
100
AcDbEntity
  8
0
  6
Continuous
 62
     7
370
    15
100
AcDbLine
 10
2375.66792646536
 20
1058.154433949436
 30
0.0
 11
2352.899088111154
 21
1045.010263349091
 31
0.0
  0
LINE
  5
654
330
63F
100
AcDbEntity
  8
0
  6
Continuous
 62
     7
370
    15
100
AcDbLine
 10
2375.66792646536
 20
1059.134282923699
 30
0.0
 11
2352.899088111154
 21
1045.990112323353
 31
0.0
  0
LINE
  5
655
330
63F
100
AcDbEntity
  8
0
  6
Continuous
 62
     7
370
    15
100
AcDbLine
 10
2375.66792646536
 20
1059.134282923699
 30
0.0
 11
2372.485945950021
 21
1060.9712011753
 31
0.0
  0
LINE
  5
656
330
63F
100
AcDbEntity
  8
0
  6
Continuous
 62
     7
370
    15
100
AcDbLine
 10
2349.717107595814
 20
1047.827030574954
 30
0.0
 11
2372.485945950021
 21
1060.9712011753
 31
0.0
  0
LINE
  5
657
330
63F
100
AcDbEntity
  8
0
  6
Continuous
 62
     7
370
    15
100
AcDbLine
 10
2373.334474087445
 20
1050.397415666578
 30
0.0
 11
2371.566707134479
 21
1049.3769055268
 31
0.0
  0
LINE
  5
658
330
63F
100
AcDbEntity
  8
0
  6
Continuous
 62
     7
370
    15
100
AcDbLine
 10
2371.566707134479
 20
1049.3769055268
 30
0.0
 11
2371.566707134479
 21
1048.315402471348
 31
0.0
  0
LINE
  5
659
330
63F
100
AcDbEntity
  8
0
  6
Continuous
 62
     7
370
    15
100
AcDbLine
 10
2373.334474087445
 20
1049.335912611127
 30
0.0
 11
2371.566707134479
 21
1048.315402471348
 31
0.0
  0
LINE
  5
65A
330
63F
100
AcDbEntity
  8
0
  6
Continuous
 62
     7
370
    15
100
AcDbLine
 10
2355.939647270256
 20
1040.355595891159
 30
0.0
 11
2354.17188031729
 21
1039.33508575138
 31
0.0
  0
LINE
  5
65B
330
63F
100
AcDbEntity
  8
0
  6
Continuous
 62
     7
370
    15
100
AcDbLine
 10
2354.17188031729
 20
1039.33508575138
 30
0.0
 11
2354.17188031729
 21
1038.273582695929
 31
0.0
  0
LINE
  5
65C
330
63F
100
AcDbEntity
  8
0
  6
Continuous
 62
     7
370
    15
100
AcDbLine
 10
2355.939647270256
 20
1039.294092835707
 30
0.0
 11
2354.17188031729
 21
1038.273582695929
 31
0.0
  0
LINE
  5
65D
330
63F
100
AcDbEntity
  8
0
  6
Continuous
 62
     7
370
    15
100
AcDbLine
 10
2361.737922875986
 20
1043.702869149632
 30
0.0
 11
2359.970155923019
 21
1042.682359009853
 31
0.0
  0
LINE
  5
65E
330
63F
100
AcDbEntity
  8
0
  6
Continuous
 62
     7
370
    15
100
AcDbLine
 10
2359.970155923019
 20
1042.682359009853
 30
0.0
 11
2359.970155923019
 21
1041.620855954402
 31
0.0
  0
LINE
  5
65F
330
63F
100
AcDbEntity
  8
0
  6
Continuous
 62
     7
370
    15
100
AcDbLine
 10
2361.737922875986
 20
1042.641366094181
 30
0.0
 11
2359.970155923019
 21
1041.620855954402
 31
0.0
  0
LINE
  5
660
330
63F
100
AcDbEntity
  8
0
  6
Continuous
 62
     7
370
    15
100
AcDbLine
 10
2375.137596379471
 20
1053.180349857932
 30
0.0
 11
2375.13759637947
 21
1057.848280907503
 31
0.0
  0
LINE
  5
661
330
63F
100
AcDbEntity
  8
0
  6
Continuous
 62
     7
370
    15
100
AcDbLine
 10
2375.137596379471
 20
1053.180349857932
 30
0.0
 11
2374.324423581106
 21
1052.710915193634
 31
0.0
  0
LINE
  5
662
330
63F
100
AcDbEntity
  8
0
  6
Continuous
 62
     7
370
    15
100
AcDbLine
 10
2374.324423581106
 20
1049.703263086431
 30
0.0
 11
2374.324423581106
 21
1052.710915193634
 31
0.0
  0
ARC
  5
663
330
63F
100
AcDbEntity
  8
0
  6
Continuous
 62
     7
370
    15
100
AcDbCircle
 10
2373.603441006066
 20
1049.727892299449
 30
0.0
 40
0.7214031270001354
100
AcDbArc
 50
328.8562722006539
 51
358.0435013569621
  0
LINE
  5
664
330
63F
100
AcDbEntity
  8
0
  6
Continuous
 62
     7
370
    15
100
AcDbLine
 10
2374.180489598284
 20
1049.284850976722
 30
0.0
 11
2374.220870190513
 21
1049.354792213897
 31
0.0
  0
ARC
  5
665
330
63F
100
AcDbEntity
  8
0
  6
Continuous
 62
     7
370
    15
100
AcDbCircle
 10
2374.797918782729
 20
1048.911750891171
 30
0.0
 40
0.7214031269987132
100
AcDbArc
 50
148.8562722006069
 51
178.0435013569815
  0
LINE
  5
666
330
63F
100
AcDbEntity
  8
0
  6
Continuous
 62
     7
370
    15
100
AcDbLine
 10
2374.076936207691
 20
1047.291566603934
 30
0.0
 11
2374.076936207691
 21
1048.936380104187
 31
0.0
  0
LINE
  5
667
330
63F
100
AcDbEntity
  8
0
  6
Continuous
 62
     7
370
    15
100
AcDbLine
 10
2370.824245014233
 20
1045.413827946742
 30
0.0
 11
2374.076936207691
 21
1047.291566603934
 31
0.0
  0
LINE
  5
668
330
63F
100
AcDbEntity
  8
0
  6
Continuous
 62
     7
370
    15
100
AcDbLine
 10
2370.824245014233
 20
1047.058641446995
 30
0.0
 11
2370.824245014233
 21
1045.413827946742
 31
0.0
  0
ARC
  5
669
330
63F
100
AcDbEntity
  8
0
  6
Continuous
 62
     7
370
    15
100
AcDbCircle
 10
2370.57391522755
 20
1047.083276393626
 30
0.0
 40
0.2515390281772372
100
AcDbArc
 50
354.3796210363514
 51
54.30196147125847
  0
LINE
  5
66A
330
63F
100
AcDbEntity
  8
0
  6
Continuous
 62
     7
370
    15
100
AcDbLine
 10
2370.680311031411
 20
1047.310870917435
 30
0.0
 11
2370.720691623639
 21
1047.287552119661
 31
0.0
  0
ARC
  5
66B
330
63F
100
AcDbEntity
  8
0
  6
Continuous
 62
     7
370
    15
100
AcDbCircle
 10
2370.827087427501
 20
1047.51514664347
 30
0.0
 40
0.2515390281772418
100
AcDbArc
 50
174.3796210363579
 51
234.3019614712259
  0
LINE
  5
66C
330
63F
100
AcDbEntity
  8
0
  6
Continuous
 62
     7
370
    15
100
AcDbLine
 10
2370.576757640817
 20
1050.547433697304
 30
0.0
 11
2370.576757640817
 21
1047.539781590101
 31
0.0
  0
LINE
  5
66D
330
63F
100
AcDbEntity
  8
0
  6
Continuous
 62
     7
370
    15
100
AcDbLine
 10
2370.576757640817
 20
1050.547433697304
 30
0.0
 11
2368.526147975376
 21
1049.363641935161
 31
0.0
  0
LINE
  5
66E
330
63F
100
AcDbEntity
  8
0
  6
Continuous
 62
     7
370
    15
100
AcDbLine
 10
2368.526147975376
 20
1046.355989827958
 30
0.0
 11
2368.526147975376
 21
1049.363641935161
 31
0.0
  0
ARC
  5
66F
330
63F
100
AcDbEntity
  8
0
  6
Continuous
 62
     7
370
    15
100
AcDbCircle
 10
2367.805165400337
 20
1046.380619040975
 30
0.0
 40
0.7214031269997152
100
AcDbArc
 50
328.8562722006482
 51
358.0435013569685
  0
LINE
  5
670
330
63F
100
AcDbEntity
  8
0
  6
Continuous
 62
     7
370
    15
100
AcDbLine
 10
2368.382213992554
 20
1045.937577718249
 30
0.0
 11
2368.422594584783
 21
1046.007518955424
 31
0.0
  0
ARC
  5
671
330
63F
100
AcDbEntity
  8
0
  6
Continuous
 62
     7
370
    15
100
AcDbCircle
 10
2368.999643177001
 20
1045.564477632697
 30
0.0
 40
0.721403127000068
100
AcDbArc
 50
148.8562722006371
 51
178.043501356949
  0
LINE
  5
672
330
63F
100
AcDbEntity
  8
0
  6
Continuous
 62
     7
370
    15
100
AcDbLine
 10
2368.278660601962
 20
1043.944293345461
 30
0.0
 11
2368.278660601962
 21
1045.589106845715
 31
0.0
  0
LINE
  5
673
330
63F
100
AcDbEntity
  8
0
  6
Continuous
 62
     7
370
    15
100
AcDbLine
 10
2365.025969408503
 20
1042.066554688269
 30
0.0
 11
2368.278660601962
 21
1043.944293345461
 31
0.0
  0
LINE
  5
674
330
63F
100
AcDbEntity
  8
0
  6
Continuous
 62
     7
370
    15
100
AcDbLine
 10
2365.025969408503
 20
1043.711368188522
 30
0.0
 11
2365.025969408503
 21
1042.066554688269
 31
0.0
  0
ARC
  5
675
330
63F
100
AcDbEntity
  8
0
  6
Continuous
 62
     7
370
    15
100
AcDbCircle
 10
2364.77563962182
 20
1043.736003135153
 30
0.0
 40
0.2515390281774524
100
AcDbArc
 50
354.3796210363838
 51
54.30196147122591
  0
LINE
  5
676
330
63F
100
AcDbEntity
  8
0
  6
Continuous
 62
     7
370
    15
100
AcDbLine
 10
2364.882035425681
 20
1043.963597658962
 30
0.0
 11
2364.92241601791
 21
1043.940278861188
 31
0.0
  0
ARC
  5
677
330
63F
100
AcDbEntity
  8
0
  6
Continuous
 62
     7
370
    15
100
AcDbCircle
 10
2365.028811821771
 20
1044.167873384997
 30
0.0
 40
0.2515390281768978
100
AcDbArc
 50
174.379621036306
 51
234.3019614712585
  0
LINE
  5
678
330
63F
100
AcDbEntity
  8
0
  6
Continuous
 62
     7
370
    15
100
AcDbLine
 10
2364.778482035088
 20
1047.200160438831
 30
0.0
 11
2364.778482035088
 21
1044.192508331628
 31
0.0
  0
LINE
  5
679
330
63F
100
AcDbEntity
  8
0
  6
Continuous
 62
     7
370
    15
100
AcDbLine
 10
2362.727872369647
 20
1046.016368676688
 30
0.0
 11
2364.778482035088
 21
1047.200160438831
 31
0.0
  0
LINE
  5
67A
330
63F
100
AcDbEntity
  8
0
  6
Continuous
 62
     7
370
    15
100
AcDbLine
 10
2362.727872369647
 20
1043.008716569485
 30
0.0
 11
2362.727872369647
 21
1046.016368676688
 31
0.0
  0
ARC
  5
67B
330
63F
100
AcDbEntity
  8
0
  6
Continuous
 62
     7
370
    15
100
AcDbCircle
 10
2362.006889794607
 20
1043.033345782502
 30
0.0
 40
0.7214031269992932
100
AcDbArc
 50
328.8562722006371
 51
358.0435013569685
  0
LINE
  5
67C
330
63F
100
AcDbEntity
  8
0
  6
Continuous
 62
     7
370
    15
100
AcDbLine
 10
2362.583938386825
 20
1042.590304459776
 30
0.0
 11
2362.624318979054
 21
1042.660245696951
 31
0.0
  0
ARC
  5
67D
330
63F
100
AcDbEntity
  8
0
  6
Continuous
 62
     7
370
    15
100
AcDbCircle
 10
2363.201367571271
 20
1042.217204374224
 30
0.0
 40
0.7214031269996332
100
AcDbArc
 50
148.8562722006259
 51
178.043501356962
  0
LINE
  5
67E
330
63F
100
AcDbEntity
  8
0
  6
Continuous
 62
     7
370
    15
100
AcDbLine
 10
2362.480384996231
 20
1040.597020086988
 30
0.0
 11
2362.480384996231
 21
1042.241833587241
 31
0.0
  0
LINE
  5
67F
330
63F
100
AcDbEntity
  8
0
  6
Continuous
 62
     7
370
    15
100
AcDbLine
 10
2359.227693802774
 20
1038.719281429796
 30
0.0
 11
2362.480384996231
 21
1040.597020086988
 31
0.0
  0
LINE
  5
680
330
63F
100
AcDbEntity
  8
0
  6
Continuous
 62
     7
370
    15
100
AcDbLine
 10
2359.227693802774
 20
1040.364094930049
 30
0.0
 11
2359.227693802774
 21
1038.719281429796
 31
0.0
  0
ARC
  5
681
330
63F
100
AcDbEntity
  8
0
  6
Continuous
 62
     7
370
    15
100
AcDbCircle
 10
2358.97736401609
 20
1040.38872987668
 30
0.0
 40
0.2515390281772358
100
AcDbArc
 50
354.3796210363579
 51
54.30196147125468
  0
LINE
  5
682
330
63F
100
AcDbEntity
  8
0
  6
Continuous
 62
     7
370
    15
100
AcDbLine
 10
2359.083759819951
 20
1040.616324400489
 30
0.0
 11
2359.12414041218
 21
1040.593005602715
 31
0.0
  0
ARC
  5
683
330
63F
100
AcDbEntity
  8
0
  6
Continuous
 62
     7
370
    15
100
AcDbCircle
 10
2359.230536216041
 20
1040.820600126524
 30
0.0
 40
0.2515390281771296
100
AcDbArc
 50
174.3796210363384
 51
234.3019614712259
  0
LINE
  5
684
330
63F
100
AcDbEntity
  8
0
  6
Continuous
 62
     7
370
    15
100
AcDbLine
 10
2358.980206429358
 20
1043.852887180358
 30
0.0
 11
2358.980206429358
 21
1040.845235073154
 31
0.0
  0
LINE
  5
685
330
63F
100
AcDbEntity
  8
0
  6
Continuous
 62
     7
370
    15
100
AcDbLine
 10
2356.929596763917
 20
1042.669095418215
 30
0.0
 11
2358.980206429358
 21
1043.852887180358
 31
0.0
  0
LINE
  5
686
330
63F
100
AcDbEntity
  8
0
  6
Continuous
 62
     7
370
    15
100
AcDbLine
 10
2356.929596763917
 20
1039.661443311011
 30
0.0
 11
2356.929596763917
 21
1042.669095418215
 31
0.0
  0
ARC
  5
687
330
63F
100
AcDbEntity
  8
0
  6
Continuous
 62
     7
370
    15
100
AcDbCircle
 10
2356.208614188876
 20
1039.686072524029
 30
0.0
 40
0.7214031270001627
100
AcDbArc
 50
328.8562722006482
 51
358.0435013569555
  0
LINE
  5
688
330
63F
100
AcDbEntity
  8
0
  6
Continuous
 62
     7
370
    15
100
AcDbLine
 10
2356.785662781095
 20
1039.243031201303
 30
0.0
 11
2356.826043373324
 21
1039.312972438477
 31
0.0
  0
ARC
  5
689
330
63F
100
AcDbEntity
  8
0
  6
Continuous
 62
     7
370
    15
100
AcDbCircle
 10
2357.403091965541
 20
1038.869931115751
 30
0.0
 40
0.7214031269996847
100
AcDbArc
 50
148.8562722006371
 51
178.0435013569685
  0
LINE
  5
68A
330
63F
100
AcDbEntity
  8
0
  6
Continuous
 62
     7
370
    15
100
AcDbLine
 10
2356.682109390502
 20
1037.249746828515
 30
0.0
 11
2356.682109390502
 21
1038.894560328768
 31
0.0
  0
LINE
  5
68B
330
63F
100
AcDbEntity
  8
0
  6
Continuous
 62
     7
370
    15
100
AcDbLine
 10
2353.429418197043
 20
1035.372008171323
 30
0.0
 11
2356.682109390502
 21
1037.249746828515
 31
0.0
  0
LINE
  5
68C
330
63F
100
AcDbEntity
  8
0
  6
Continuous
 62
     7
370
    15
100
AcDbLine
 10
2353.429418197043
 20
1037.016821671576
 30
0.0
 11
2353.429418197043
 21
1035.372008171323
 31
0.0
  0
ARC
  5
68D
330
63F
100
AcDbEntity
  8
0
  6
Continuous
 62
     7
370
    15
100
AcDbCircle
 10
2353.17908841036
 20
1037.041456618207
 30
0.0
 40
0.2515390281771069
100
AcDbArc
 50
354.3796210363255
 51
54.30196147125468
  0
LINE
  5
68E
330
63F
100
AcDbEntity
  8
0
  6
Continuous
 62
     7
370
    15
100
AcDbLine
 10
2353.285484214221
 20
1037.269051142016
 30
0.0
 11
2353.32586480645
 21
1037.245732344242
 31
0.0
  0
ARC
  5
68F
330
63F
100
AcDbEntity
  8
0
  6
Continuous
 62
     7
370
    15
100
AcDbCircle
 10
2353.432260610311
 20
1037.473326868051
 30
0.0
 40
0.2515390281772697
100
AcDbArc
 50
174.3796210363449
 51
234.3019614712259
  0
LINE
  5
690
330
63F
100
AcDbEntity
  8
0
  6
Continuous
 62
     7
370
    15
100
AcDbLine
 10
2353.181930823628
 20
1040.505613921885
 30
0.0
 11
2353.181930823628
 21
1037.497961814682
 31
0.0
  0
LINE
  5
691
330
63F
100
AcDbEntity
  8
0
  6
Continuous
 62
     7
370
    15
100
AcDbLine
 10
2353.181930823628
 20
1040.505613921885
 30
0.0
 11
2352.368758025264
 21
1040.036179257587
 31
0.0
  0
LINE
  5
692
330
63F
100
AcDbEntity
  8
0
  6
Continuous
 62
     7
370
    15
100
AcDbLine
 10
2367.536198481715
 20
1047.050142408105
 30
0.0
 11
2365.768431528749
 21
1046.029632268327
 31
0.0
  0
LINE
  5
693
330
63F
100
AcDbEntity
  8
0
  6
Continuous
 62
     7
370
    15
100
AcDbLine
 10
2365.768431528749
 20
1046.029632268327
 30
0.0
 11
2365.768431528749
 21
1044.968129212875
 31
0.0
  0
LINE
  5
694
330
63F
100
AcDbEntity
  8
0
  6
Continuous
 62
     7
370
    15
100
AcDbLine
 10
2367.536198481715
 20
1045.988639352654
 30
0.0
 11
2365.768431528749
 21
1044.968129212875
 31
0.0
  0
LINE
  5
695
330
63F
100
AcDbEntity
  8
0
  6
Continuous
 62
     7
370
    15
100
AcDbLine
 10
2353.181930823628
 20
1037.497961814682
 30
0.0
 11
2351.060610480068
 21
1038.722573982416
 31
0.0
  0
LINE
  5
696
330
63F
100
AcDbEntity
  8
0
  6
Continuous
 62
     7
370
    15
100
AcDbLine
 10
2351.060610480068
 20
1038.722573982416
 30
0.0
 11
2351.060610480068
 21
1040.791356761023
 31
0.0
  0
LINE
  5
697
330
63F
100
AcDbEntity
  8
0
  6
Continuous
 62
     7
370
    15
100
AcDbLine
 10
2356.187134643671
 20
1040.21272447159
 30
0.0
 11
2354.419367690705
 21
1039.192214331811
 31
0.0
  0
LINE
  5
698
330
63F
100
AcDbEntity
  8
0
  6
Continuous
 62
     7
370
    15
100
AcDbLine
 10
2355.939647270256
 20
1039.294092835707
 30
0.0
 11
2356.187134643671
 21
1040.21272447159
 31
0.0
  0
LINE
  5
699
330
63F
100
AcDbEntity
  8
0
  6
Continuous
 62
     7
370
    15
100
AcDbLine
 10
2354.17188031729
 20
1038.273582695929
 30
0.0
 11
2354.419367690705
 21
1039.192214331811
 31
0.0
  0
LINE
  5
69A
330
63F
100
AcDbEntity
  8
0
  6
Continuous
 62
     7
370
    15
100
AcDbLine
 10
2354.419367690705
 20
1039.192214331811
 30
0.0
 11
2354.17188031729
 21
1039.33508575138
 31
0.0
  0
LINE
  5
69B
330
63F
100
AcDbEntity
  8
0
  6
Continuous
 62
     7
370
    15
100
AcDbLine
 10
2356.187134643671
 20
1040.21272447159
 30
0.0
 11
2355.939647270256
 21
1040.355595891159
 31
0.0
  0
LINE
  5
69C
330
63F
100
AcDbEntity
  8
0
  6
Continuous
 62
     7
370
    15
100
AcDbLine
 10
2351.164163870661
 20
1038.49366330975
 30
0.0
 11
2353.285484214221
 21
1037.269051142016
 31
0.0
  0
ARC
  5
69D
330
63F
100
AcDbEntity
  8
0
  6
Continuous
 62
     7
370
    15
100
AcDbCircle
 10
2351.310940266752
 20
1038.697939035785
 30
0.0
 40
0.2515390281775498
100
AcDbArc
 50
174.3796210363579
 51
234.3019614711684
  0
LINE
  5
69E
330
63F
100
AcDbEntity
  8
0
  6
Continuous
 62
     7
370
    15
100
AcDbLine
 10
2351.20454446289
 20
1038.470344511976
 30
0.0
 11
2353.32586480645
 21
1037.245732344242
 31
0.0
  0
LINE
  5
69F
330
63F
100
AcDbEntity
  8
0
  6
Continuous
 62
     7
370
    15
100
AcDbLine
 10
2351.20454446289
 20
1038.470344511976
 30
0.0
 11
2351.164163870661
 21
1038.49366330975
 31
0.0
  0
LINE
  5
6A0
330
63F
100
AcDbEntity
  8
0
  6
Continuous
 62
     7
370
    15
100
AcDbLine
 10
2351.308097853484
 20
1038.24143383931
 30
0.0
 11
2353.429418197043
 21
1037.016821671576
 31
0.0
  0
ARC
  5
6A1
330
63F
100
AcDbEntity
  8
0
  6
Continuous
 62
     7
370
    15
100
AcDbCircle
 10
2351.0577680668
 20
1038.266068785941
 30
0.0
 40
0.2515390281772655
100
AcDbArc
 50
354.3796210363514
 51
54.30196147122591
  0
LINE
  5
6A2
330
63F
100
AcDbEntity
  8
0
  6
Continuous
 62
     7
370
    15
100
AcDbLine
 10
2353.429418197043
 20
1035.372008171323
 30
0.0
 11
2351.308097853484
 21
1036.596620339057
 31
0.0
  0
LINE
  5
6A3
330
63F
100
AcDbEntity
  8
0
  6
Continuous
 62
     7
370
    15
100
AcDbLine
 10
2351.308097853484
 20
1036.596620339057
 30
0.0
 11
2351.308097853484
 21
1038.24143383931
 31
0.0
  0
LINE
  5
6A4
330
63F
100
AcDbEntity
  8
0
  6
Continuous
 62
     7
370
    15
100
AcDbLine
 10
2353.429418197043
 20
1035.372008171323
 30
0.0
 11
2353.429418197043
 21
1035.371961726301
 31
0.0
  0
LINE
  5
6A5
330
63F
100
AcDbEntity
  8
0
  6
Continuous
 62
     7
370
    15
100
AcDbLine
 10
2353.429418197043
 20
1035.371961726301
 30
0.0
 11
2351.803072600314
 21
1036.310831054897
 31
0.0
  0
LINE
  5
6A6
330
63F
100
AcDbEntity
  8
0
  6
Continuous
 62
     7
370
    15
100
AcDbLine
 10
2351.803072600314
 20
1036.310831054897
 30
0.0
 11
2351.308097853484
 21
1036.596620339057
 31
0.0
  0
LINE
  5
6A7
330
63F
100
AcDbEntity
  8
0
  6
Continuous
 62
     7
370
    15
100
AcDbLine
 10
2356.187134643672
 20
1036.963957544355
 30
0.0
 11
2356.682109390502
 21
1037.249746828515
 31
0.0
  0
LINE
  5
6A8
330
63F
100
AcDbEntity
  8
0
  6
Continuous
 62
     7
370
    15
100
AcDbLine
 10
2353.429418197043
 20
1035.371961726301
 30
0.0
 11
2356.187134643672
 21
1036.963957544355
 31
0.0
  0
LINE
  5
6A9
330
63F
100
AcDbEntity
  8
0
  6
Continuous
 62
     7
370
    15
100
AcDbLine
 10
2353.606194892341
 20
1034.412483144816
 30
0.0
 11
2353.714241176096
 21
1034.350109352868
 31
0.0
  0
ARC
  5
6AA
330
63F
100
AcDbEntity
  8
0
  6
Continuous
 62
     7
370
    15
100
AcDbCircle
 10
2353.50721384605
 20
1034.026457922853
 30
0.0
 40
0.3842012018931578
100
AcDbArc
 50
2.605478485656367
 51
57.39452165996635
  0
LINE
  5
6AB
330
63F
100
AcDbEntity
  8
0
  6
Continuous
 62
     7
370
    15
100
AcDbLine
 10
2353.891017871392
 20
1029.334040421743
 30
0.0
 11
2353.891017871392
 21
1034.043923135919
 31
0.0
  0
LINE
  5
6AC
330
63F
100
AcDbEntity
  8
0
  6
Continuous
 62
     7
370
    15
100
AcDbLine
 10
2351.984940096845
 20
1030.434395699269
 30
0.0
 11
2353.891017871392
 21
1029.334040421743
 31
0.0
  0
LINE
  5
6AD
330
63F
100
AcDbEntity
  8
0
  6
Continuous
 62
     7
370
    15
100
AcDbLine
 10
2351.984940096845
 20
1035.144278413444
 30
0.0
 11
2351.984940096845
 21
1030.434395699269
 31
0.0
  0
ARC
  5
6AE
330
63F
100
AcDbEntity
  8
0
  6
Continuous
 62
     7
370
    15
100
AcDbCircle
 10
2352.092708688701
 20
1035.161760212669
 30
0.0
 40
0.1091772993571396
100
AcDbArc
 50
50.79671476430084
 51
189.2140369904692
  0
LINE
  5
6AF
330
63F
100
AcDbEntity
  8
0
  6
Continuous
 62
     7
370
    15
100
AcDbLine
 10
2352.161716792141
 20
1035.246362602437
 30
0.0
 11
2352.269763075898
 21
1035.183988810489
 31
0.0
  0
ARC
  5
6B0
330
63F
100
AcDbEntity
  8
0
  6
Continuous
 62
     7
370
    15
100
AcDbCircle
 10
2352.338771179338
 20
1035.268591200257
 30
0.0
 40
0.1091772993570915
100
AcDbArc
 50
230.7967147642642
 51
9.214036990507805
  0
LINE
  5
6B1
330
63F
100
AcDbEntity
  8
0
  6
Continuous
 62
     7
370
    15
100
AcDbLine
 10
2352.446539771194
 20
1035.286072999482
 30
0.0
 11
2352.446539771194
 21
1035.939365364018
 31
0.0
  0
LINE
  5
6B2
330
63F
100
AcDbEntity
  8
0
  6
Continuous
 62
     7
370
    15
100
AcDbLine
 10
2353.429418197043
 20
1035.371961726301
 30
0.0
 11
2353.429418197043
 21
1034.718669361766
 31
0.0
  0
ARC
  5
6B3
330
63F
100
AcDbEntity
  8
0
  6
Continuous
 62
     7
370
    15
100
AcDbCircle
 10
2353.813222222385
 20
1034.736134574831
 30
0.0
 40
0.3842012018926945
100
AcDbArc
 50
182.6054784856303
 51
237.3945216600278
  0
LINE
  5
6B4
330
63F
100
AcDbEntity
  8
0
  6
Continuous
 62
     7
370
    15
100
AcDbLine
 10
2353.429418197043
 20
1034.718669361766
 30
0.0
 11
2355.550738540602
 21
1035.943281529499
 31
0.0
  0
LINE
  5
6B5
330
63F
100
AcDbEntity
  8
0
  6
Continuous
 62
     7
370
    15
100
AcDbLine
 10
2355.550738540602
 20
1035.943281529499
 30
0.0
 11
2355.550738540603
 21
1036.596573894035
 31
0.0
  0
LINE
  5
6B6
330
63F
100
AcDbEntity
  8
0
  6
Continuous
 62
     7
370
    15
100
AcDbLine
 10
2355.835561519655
 20
1035.574721520602
 30
0.0
 11
2353.714241176096
 21
1034.350109352868
 31
0.0
  0
ARC
  5
6B7
330
63F
100
AcDbEntity
  8
0
  6
Continuous
 62
     7
370
    15
100
AcDbCircle
 10
2355.62853418961
 20
1035.251070090587
 30
0.0
 40
0.38420120189287
100
AcDbArc
 50
2.60547848564986
 51
57.39452165999882
  0
LINE
  5
6B8
330
63F
100
AcDbEntity
  8
0
  6
Continuous
 62
     7
370
    15
100
AcDbLine
 10
2353.891017871392
 20
1034.043923135919
 30
0.0
 11
2356.012338214952
 21
1035.268535303653
 31
0.0
  0
ARC
  5
6B9
330
63F
100
AcDbEntity
  8
0
  6
Continuous
 62
     7
370
    15
100
AcDbCircle
 10
2355.934542565941
 20
1035.960746742563
 30
0.0
 40
0.3842012018899236
100
AcDbArc
 50
182.6054784854091
 51
237.3945216602157
  0
LINE
  5
6BA
330
63F
100
AcDbEntity
  8
0
  6
Continuous
 62
     7
370
    15
100
AcDbLine
 10
2355.727515235899
 20
1035.63709531255
 30
0.0
 11
2353.606194892341
 21
1034.412483144816
 31
0.0
  0
LINE
  5
6BB
330
63F
100
AcDbEntity
  8
0
  6
Continuous
 62
     7
370
    15
100
AcDbLine
 10
2356.012338214952
 20
1035.268535303653
 30
0.0
 11
2356.012338214951
 21
1030.558652589477
 31
0.0
  0
LINE
  5
6BC
330
63F
100
AcDbEntity
  8
0
  6
Continuous
 62
     7
370
    15
100
AcDbLine
 10
2356.012338214951
 20
1030.558652589477
 30
0.0
 11
2355.771934620827
 21
1028.845470555074
 31
0.0
  0
ARC
  5
6BD
330
63F
100
AcDbEntity
  8
0
  6
Continuous
 62
     7
370
    15
100
AcDbCircle
 10
2354.689703638884
 20
1029.010889501085
 30
0.0
 40
1.094800130607611
100
AcDbArc
 50
302.9067666138728
 51
351.3096048990302
  0
LINE
  5
6BE
330
63F
100
AcDbEntity
  8
0
  6
Continuous
 62
     7
370
    15
100
AcDbLine
 10
2354.618876433741
 20
1027.707499240811
 30
0.0
 11
2355.284479652604
 21
1028.091743800185
 31
0.0
  0
LWPOLYLINE
  5
6BF
330
63F
100
AcDbEntity
  8
0
  6
Continuous
 62
     7
370
    15
100
AcDbPolyline
 90
        9
 70
   128
 43
0.0
 10
2354.618876433741
 20
1027.707499240811
 10
2354.532924970962
 20
1027.666564080296
 10
2354.449585099886
 20
1027.644239839485
 10
2354.371389060325
 20
1027.641204829138
 10
2354.30071279937
 20
1027.657551266509
 10
2354.239703779446
 20
1027.69278247337
 10
2354.190215728753
 20
1027.745827967328
 10
2354.153752316668
 20
1027.815075987892
 10
2354.131421465516
 20
1027.898422468998
  0
LINE
  5
6C0
330
63F
100
AcDbEntity
  8
0
  6
Continuous
 62
     7
370
    15
100
AcDbLine
 10
2354.131421465516
 20
1027.898422468998
 30
0.0
 11
2353.891017871392
 21
1029.334040421743
 31
0.0
  0
LINE
  5
6C1
330
63F
100
AcDbEntity
  8
0
  6
Continuous
 62
     7
370
    15
100
AcDbLine
 10
2355.835561519655
 20
1035.574721520602
 30
0.0
 11
2355.727515235899
 21
1035.63709531255
 31
0.0
  0
LINE
  5
6C2
330
63F
100
AcDbEntity
  8
0
  6
Continuous
 62
     7
370
    15
100
AcDbLine
 10
2361.985410249401
 20
1043.559997730063
 30
0.0
 11
2360.217643296435
 21
1042.539487590285
 31
0.0
  0
LINE
  5
6C3
330
63F
100
AcDbEntity
  8
0
  6
Continuous
 62
     7
370
    15
100
AcDbLine
 10
2361.737922875986
 20
1042.641366094181
 30
0.0
 11
2361.985410249401
 21
1043.559997730063
 31
0.0
  0
LINE
  5
6C4
330
63F
100
AcDbEntity
  8
0
  6
Continuous
 62
     7
370
    15
100
AcDbLine
 10
2359.970155923019
 20
1041.620855954402
 30
0.0
 11
2360.217643296435
 21
1042.539487590285
 31
0.0
  0
LINE
  5
6C5
330
63F
100
AcDbEntity
  8
0
  6
Continuous
 62
     7
370
    15
100
AcDbLine
 10
2360.217643296435
 20
1042.539487590285
 30
0.0
 11
2359.970155923019
 21
1042.682359009853
 31
0.0
  0
LINE
  5
6C6
330
63F
100
AcDbEntity
  8
0
  6
Continuous
 62
     7
370
    15
100
AcDbLine
 10
2361.985410249401
 20
1043.559997730063
 30
0.0
 11
2361.737922875986
 21
1043.702869149632
 31
0.0
  0
LINE
  5
6C7
330
63F
100
AcDbEntity
  8
0
  6
Continuous
 62
     7
370
    15
100
AcDbLine
 10
2356.962439476391
 20
1041.840936568223
 30
0.0
 11
2359.083759819951
 21
1040.616324400489
 31
0.0
  0
LWPOLYLINE
  5
6C8
330
63F
100
AcDbEntity
  8
0
  6
Continuous
 62
     7
370
    15
100
AcDbPolyline
 90
        3
 70
   128
 43
0.0
 10
2356.929596763917
 20
1041.865705402914
 10
2356.939139009641
 20
1041.857172264029
 10
2356.962439476391
 20
1041.840936568223
  0
LINE
  5
6C9
330
63F
100
AcDbEntity
  8
0
  6
Continuous
 62
     7
370
    15
100
AcDbLine
 10
2357.00282006862
 20
1041.817617770449
 30
0.0
 11
2359.12414041218
 21
1040.593005602715
 31
0.0
  0
LINE
  5
6CA
330
63F
100
AcDbEntity
  8
0
  6
Continuous
 62
     7
370
    15
100
AcDbLine
 10
2357.00282006862
 20
1041.817617770449
 30
0.0
 11
2356.962439476391
 21
1041.840936568223
 31
0.0
  0
LINE
  5
6CB
330
63F
100
AcDbEntity
  8
0
  6
Continuous
 62
     7
370
    15
100
AcDbLine
 10
2357.106373459214
 20
1041.588707097783
 30
0.0
 11
2359.227693802774
 21
1040.364094930049
 31
0.0
  0
ARC
  5
6CC
330
63F
100
AcDbEntity
  8
0
  6
Continuous
 62
     7
370
    15
100
AcDbCircle
 10
2356.85604367253
 20
1041.613342044414
 30
0.0
 40
0.2515390281772924
100
AcDbArc
 50
354.3796210363579
 51
54.30196147122972
  0
LINE
  5
6CD
330
63F
100
AcDbEntity
  8
0
  6
Continuous
 62
     7
370
    15
100
AcDbLine
 10
2359.227693802774
 20
1038.719281429796
 30
0.0
 11
2357.106373459214
 21
1039.94389359753
 31
0.0
  0
LINE
  5
6CE
330
63F
100
AcDbEntity
  8
0
  6
Continuous
 62
     7
370
    15
100
AcDbLine
 10
2357.106373459214
 20
1039.94389359753
 30
0.0
 11
2357.106373459214
 21
1041.588707097783
 31
0.0
  0
LINE
  5
6CF
330
63F
100
AcDbEntity
  8
0
  6
Continuous
 62
     7
370
    15
100
AcDbLine
 10
2359.227693802773
 20
1038.719234984774
 30
0.0
 11
2361.985410249401
 21
1040.311230802829
 31
0.0
  0
LINE
  5
6D0
330
63F
100
AcDbEntity
  8
0
  6
Continuous
 62
     7
370
    15
100
AcDbLine
 10
2359.227693802774
 20
1038.719281429796
 30
0.0
 11
2359.227693802773
 21
1038.719234984774
 31
0.0
  0
LINE
  5
6D1
330
63F
100
AcDbEntity
  8
0
  6
Continuous
 62
     7
370
    15
100
AcDbLine
 10
2361.985410249401
 20
1040.311230802829
 30
0.0
 11
2362.480384996231
 21
1040.597020086988
 31
0.0
  0
LINE
  5
6D2
330
63F
100
AcDbEntity
  8
0
  6
Continuous
 62
     7
370
    15
100
AcDbLine
 10
2359.227693802773
 20
1038.719234984774
 30
0.0
 11
2357.601348206044
 21
1039.65810431337
 31
0.0
  0
LINE
  5
6D3
330
63F
100
AcDbEntity
  8
0
  6
Continuous
 62
     7
370
    15
100
AcDbLine
 10
2357.601348206044
 20
1039.65810431337
 30
0.0
 11
2357.106373459214
 21
1039.94389359753
 31
0.0
  0
LINE
  5
6D4
330
63F
100
AcDbEntity
  8
0
  6
Continuous
 62
     7
370
    15
100
AcDbLine
 10
2354.131421465516
 20
1027.898422468998
 30
0.0
 11
2352.22534369097
 21
1028.998777746523
 31
0.0
  0
LINE
  5
6D5
330
63F
100
AcDbEntity
  8
0
  6
Continuous
 62
     7
370
    15
100
AcDbLine
 10
2351.984940096845
 20
1030.434395699269
 30
0.0
 11
2352.22534369097
 21
1028.998777746523
 31
0.0
  0
LINE
  5
6D6
330
63F
100
AcDbEntity
  8
0
  6
Continuous
 62
     7
370
    15
100
AcDbLine
 10
2359.40447049807
 20
1037.759756403289
 30
0.0
 11
2359.512516781825
 21
1037.697382611341
 31
0.0
  0
ARC
  5
6D7
330
63F
100
AcDbEntity
  8
0
  6
Continuous
 62
     7
370
    15
100
AcDbCircle
 10
2359.30548945178
 20
1037.373731181326
 30
0.0
 40
0.3842012018931017
100
AcDbArc
 50
2.605478485662874
 51
57.39452165996985
  0
LINE
  5
6D8
330
63F
100
AcDbEntity
  8
0
  6
Continuous
 62
     7
370
    15
100
AcDbLine
 10
2359.689293477122
 20
1032.681313680216
 30
0.0
 11
2359.689293477122
 21
1037.391196394392
 31
0.0
  0
LINE
  5
6D9
330
63F
100
AcDbEntity
  8
0
  6
Continuous
 62
     7
370
    15
100
AcDbLine
 10
2359.689293477122
 20
1032.681313680216
 30
0.0
 11
2357.783215702575
 21
1033.781668957741
 31
0.0
  0
LINE
  5
6DA
330
63F
100
AcDbEntity
  8
0
  6
Continuous
 62
     7
370
    15
100
AcDbLine
 10
2357.783215702575
 20
1038.491551671917
 30
0.0
 11
2357.783215702575
 21
1033.781668957741
 31
0.0
  0
ARC
  5
6DB
330
63F
100
AcDbEntity
  8
0
  6
Continuous
 62
     7
370
    15
100
AcDbCircle
 10
2357.890984294432
 20
1038.509033471142
 30
0.0
 40
0.1091772993571268
100
AcDbArc
 50
50.79671476429672
 51
189.2140369904692
  0
LINE
  5
6DC
330
63F
100
AcDbEntity
  8
0
  6
Continuous
 62
     7
370
    15
100
AcDbLine
 10
2357.959992397871
 20
1038.593635860911
 30
0.0
 11
2358.068038681627
 21
1038.531262068962
 31
0.0
  0
ARC
  5
6DD
330
63F
100
AcDbEntity
  8
0
  6
Continuous
 62
     7
370
    15
100
AcDbCircle
 10
2358.137046785067
 20
1038.61586445873
 30
0.0
 40
0.1091772993570843
100
AcDbArc
 50
230.7967147642642
 51
9.214036990514232
  0
LINE
  5
6DE
330
63F
100
AcDbEntity
  8
0
  6
Continuous
 62
     7
370
    15
100
AcDbLine
 10
2358.244815376924
 20
1038.633346257955
 30
0.0
 11
2358.244815376924
 21
1039.286638622491
 31
0.0
  0
LINE
  5
6DF
330
63F
100
AcDbEntity
  8
0
  6
Continuous
 62
     7
370
    15
100
AcDbLine
 10
2359.227693802773
 20
1038.719234984774
 30
0.0
 11
2359.227693802773
 21
1038.065942620239
 31
0.0
  0
ARC
  5
6E0
330
63F
100
AcDbEntity
  8
0
  6
Continuous
 62
     7
370
    15
100
AcDbCircle
 10
2359.611497828114
 20
1038.083407833304
 30
0.0
 40
0.384201201892631
100
AcDbArc
 50
182.6054784856303
 51
237.3945216600313
  0
LINE
  5
6E1
330
63F
100
AcDbEntity
  8
0
  6
Continuous
 62
     7
370
    15
100
AcDbLine
 10
2359.227693802773
 20
1038.065942620239
 30
0.0
 11
2361.349014146332
 21
1039.290554787972
 31
0.0
  0
LINE
  5
6E2
330
63F
100
AcDbEntity
  8
0
  6
Continuous
 62
     7
370
    15
100
AcDbLine
 10
2361.349014146332
 20
1039.290554787972
 30
0.0
 11
2361.349014146333
 21
1039.943847152508
 31
0.0
  0
LINE
  5
6E3
330
63F
100
AcDbEntity
  8
0
  6
Continuous
 62
     7
370
    15
100
AcDbLine
 10
2361.633837125385
 20
1038.921994779075
 30
0.0
 11
2359.512516781825
 21
1037.697382611341
 31
0.0
  0
ARC
  5
6E4
330
63F
100
AcDbEntity
  8
0
  6
Continuous
 62
     7
370
    15
100
AcDbCircle
 10
2361.42680979534
 20
1038.598343349061
 30
0.0
 40
0.3842012018925506
100
AcDbArc
 50
2.605478485623831
 51
57.39452166000233
  0
LINE
  5
6E5
330
63F
100
AcDbEntity
  8
0
  6
Continuous
 62
     7
370
    15
100
AcDbLine
 10
2359.689293477122
 20
1037.391196394392
 30
0.0
 11
2361.810613820681
 21
1038.615808562125
 31
0.0
  0
ARC
  5
6E6
330
63F
100
AcDbEntity
  8
0
  6
Continuous
 62
     7
370
    15
100
AcDbCircle
 10
2352.526344944084
 20
1029.027543398749
 30
0.0
 40
0.3023726461242887
100
AcDbArc
 50
185.4589815370907
 51
237.2630757801053
  0
ARC
  5
6E7
330
63F
100
AcDbEntity
  8
0
  6
Continuous
 62
     7
370
    15
100
AcDbCircle
 10
2361.732818171671
 20
1039.308020001036
 30
0.0
 40
0.3842012018903875
100
AcDbArc
 50
182.6054784854416
 51
237.3945216601832
  0
LINE
  5
6E8
330
63F
100
AcDbEntity
  8
0
  6
Continuous
 62
     7
370
    15
100
AcDbLine
 10
2361.525790841629
 20
1038.984368571023
 30
0.0
 11
2359.40447049807
 21
1037.759756403289
 31
0.0
  0
LINE
  5
6E9
330
63F
100
AcDbEntity
  8
0
  6
Continuous
 62
     7
370
    15
100
AcDbLine
 10
2361.810613820681
 20
1038.615808562125
 30
0.0
 11
2361.810613820681
 21
1033.905925847951
 31
0.0
  0
LINE
  5
6EA
330
63F
100
AcDbEntity
  8
0
  6
Continuous
 62
     7
370
    15
100
AcDbLine
 10
2361.810613820681
 20
1033.905925847951
 30
0.0
 11
2361.570210226557
 21
1032.192743813547
 31
0.0
  0
ARC
  5
6EB
330
63F
100
AcDbEntity
  8
0
  6
Continuous
 62
     7
370
    15
100
AcDbCircle
 10
2360.487979244614
 20
1032.358162759558
 30
0.0
 40
1.094800130607315
100
AcDbArc
 50
302.9067666138728
 51
351.3096048990367
  0
LINE
  5
6EC
330
63F
100
AcDbEntity
  8
0
  6
Continuous
 62
     7
370
    15
100
AcDbLine
 10
2360.41715203947
 20
1031.054772499284
 30
0.0
 11
2361.082755258333
 21
1031.439017058658
 31
0.0
  0
LWPOLYLINE
  5
6ED
330
63F
100
AcDbEntity
  8
0
  6
Continuous
 62
     7
370
    15
100
AcDbPolyline
 90
        9
 70
   128
 43
0.0
 10
2360.41715203947
 20
1031.054772499284
 10
2360.331200576692
 20
1031.013837338769
 10
2360.247860705616
 20
1030.991513097958
 10
2360.169664666055
 20
1030.988478087611
 10
2360.0989884051
 20
1031.004824524982
 10
2360.037979385176
 20
1031.040055731843
 10
2359.988491334483
 20
1031.093101225801
 10
2359.952027922398
 20
1031.162349246365
 10
2359.929697071246
 20
1031.245695727471
  0
LINE
  5
6EE
330
63F
100
AcDbEntity
  8
0
  6
Continuous
 62
     7
370
    15
100
AcDbLine
 10
2359.929697071246
 20
1031.245695727471
 30
0.0
 11
2359.689293477122
 21
1032.681313680216
 31
0.0
  0
LINE
  5
6EF
330
63F
100
AcDbEntity
  8
0
  6
Continuous
 62
     7
370
    15
100
AcDbLine
 10
2361.633837125385
 20
1038.921994779075
 30
0.0
 11
2361.525790841629
 21
1038.984368571023
 31
0.0
  0
LINE
  5
6F0
330
63F
100
AcDbEntity
  8
0
  6
Continuous
 62
     7
370
    15
100
AcDbLine
 10
2366.015918902164
 20
1045.886760848758
 30
0.0
 11
2365.768431528749
 21
1046.029632268327
 31
0.0
  0
LINE
  5
6F1
330
63F
100
AcDbEntity
  8
0
  6
Continuous
 62
     7
370
    15
100
AcDbLine
 10
2365.768431528749
 20
1044.968129212875
 30
0.0
 11
2366.015918902164
 21
1045.886760848758
 31
0.0
  0
LINE
  5
6F2
330
63F
100
AcDbEntity
  8
0
  6
Continuous
 62
     7
370
    15
100
AcDbLine
 10
2367.783685855131
 20
1046.907270988536
 30
0.0
 11
2366.015918902164
 21
1045.886760848758
 31
0.0
  0
LINE
  5
6F3
330
63F
100
AcDbEntity
  8
0
  6
Continuous
 62
     7
370
    15
100
AcDbLine
 10
2367.536198481715
 20
1045.988639352654
 30
0.0
 11
2367.783685855131
 21
1046.907270988536
 31
0.0
  0
LINE
  5
6F4
330
63F
100
AcDbEntity
  8
0
  6
Continuous
 62
     7
370
    15
100
AcDbLine
 10
2367.783685855131
 20
1046.907270988536
 30
0.0
 11
2367.536198481715
 21
1047.050142408105
 31
0.0
  0
LINE
  5
6F5
330
63F
100
AcDbEntity
  8
0
  6
Continuous
 62
     7
370
    15
100
AcDbLine
 10
2362.760715082121
 20
1045.188209826696
 30
0.0
 11
2364.882035425681
 21
1043.963597658962
 31
0.0
  0
LWPOLYLINE
  5
6F6
330
63F
100
AcDbEntity
  8
0
  6
Continuous
 62
     7
370
    15
100
AcDbPolyline
 90
        3
 70
   128
 43
0.0
 10
2362.727872369647
 20
1045.212978661387
 10
2362.737414615371
 20
1045.204445522502
 10
2362.760715082121
 20
1045.188209826696
  0
LINE
  5
6F7
330
63F
100
AcDbEntity
  8
0
  6
Continuous
 62
     7
370
    15
100
AcDbLine
 10
2362.80109567435
 20
1045.164891028922
 30
0.0
 11
2364.92241601791
 21
1043.940278861188
 31
0.0
  0
LINE
  5
6F8
330
63F
100
AcDbEntity
  8
0
  6
Continuous
 62
     7
370
    15
100
AcDbLine
 10
2362.80109567435
 20
1045.164891028922
 30
0.0
 11
2362.760715082121
 21
1045.188209826696
 31
0.0
  0
LINE
  5
6F9
330
63F
100
AcDbEntity
  8
0
  6
Continuous
 62
     7
370
    15
100
AcDbLine
 10
2362.904649064944
 20
1044.935980356256
 30
0.0
 11
2365.025969408503
 21
1043.711368188522
 31
0.0
  0
ARC
  5
6FA
330
63F
100
AcDbEntity
  8
0
  6
Continuous
 62
     7
370
    15
100
AcDbCircle
 10
2362.654319278261
 20
1044.960615302887
 30
0.0
 40
0.251539028177022
100
AcDbArc
 50
354.379621036319
 51
54.30196147128724
  0
LINE
  5
6FB
330
63F
100
AcDbEntity
  8
0
  6
Continuous
 62
     7
370
    15
100
AcDbLine
 10
2365.025969408503
 20
1042.066554688269
 30
0.0
 11
2362.904649064944
 21
1043.291166856003
 31
0.0
  0
LINE
  5
6FC
330
63F
100
AcDbEntity
  8
0
  6
Continuous
 62
     7
370
    15
100
AcDbLine
 10
2362.904649064944
 20
1043.291166856003
 30
0.0
 11
2362.904649064944
 21
1044.935980356256
 31
0.0
  0
LINE
  5
6FD
330
63F
100
AcDbEntity
  8
0
  6
Continuous
 62
     7
370
    15
100
AcDbLine
 10
2365.025969408503
 20
1042.066554688269
 30
0.0
 11
2365.025969408503
 21
1042.066508243247
 31
0.0
  0
LINE
  5
6FE
330
63F
100
AcDbEntity
  8
0
  6
Continuous
 62
     7
370
    15
100
AcDbLine
 10
2365.025969408503
 20
1042.066508243247
 30
0.0
 11
2363.399623811774
 21
1043.005377571843
 31
0.0
  0
LINE
  5
6FF
330
63F
100
AcDbEntity
  8
0
  6
Continuous
 62
     7
370
    15
100
AcDbLine
 10
2363.399623811774
 20
1043.005377571843
 30
0.0
 11
2362.904649064943
 21
1043.291166856003
 31
0.0
  0
LINE
  5
700
330
63F
100
AcDbEntity
  8
0
  6
Continuous
 62
     7
370
    15
100
AcDbLine
 10
2365.025969408503
 20
1042.066508243247
 30
0.0
 11
2367.783685855131
 21
1043.658504061302
 31
0.0
  0
LINE
  5
701
330
63F
100
AcDbEntity
  8
0
  6
Continuous
 62
     7
370
    15
100
AcDbLine
 10
2367.783685855131
 20
1043.658504061302
 30
0.0
 11
2368.278660601961
 21
1043.944293345461
 31
0.0
  0
LINE
  5
702
330
63F
100
AcDbEntity
  8
0
  6
Continuous
 62
     7
370
    15
100
AcDbLine
 10
2359.929697071246
 20
1031.245695727471
 30
0.0
 11
2358.023619296699
 21
1032.346051004997
 31
0.0
  0
LINE
  5
703
330
63F
100
AcDbEntity
  8
0
  6
Continuous
 62
     7
370
    15
100
AcDbLine
 10
2357.783215702575
 20
1033.781668957741
 30
0.0
 11
2358.023619296699
 21
1032.346051004997
 31
0.0
  0
LINE
  5
704
330
63F
100
AcDbEntity
  8
0
  6
Continuous
 62
     7
370
    15
100
AcDbLine
 10
2365.2027461038
 20
1041.107029661763
 30
0.0
 11
2365.310792387555
 21
1041.044655869814
 31
0.0
  0
ARC
  5
705
330
63F
100
AcDbEntity
  8
0
  6
Continuous
 62
     7
370
    15
100
AcDbCircle
 10
2365.10376505751
 20
1040.721004439799
 30
0.0
 40
0.3842012018931882
100
AcDbArc
 50
2.605478485662874
 51
57.39452165996635
  0
LINE
  5
706
330
63F
100
AcDbEntity
  8
0
  6
Continuous
 62
     7
370
    15
100
AcDbLine
 10
2365.487569082852
 20
1036.028586938689
 30
0.0
 11
2365.487569082852
 21
1040.738469652865
 31
0.0
  0
LINE
  5
707
330
63F
100
AcDbEntity
  8
0
  6
Continuous
 62
     7
370
    15
100
AcDbLine
 10
2365.487569082852
 20
1036.028586938689
 30
0.0
 11
2363.581491308305
 21
1037.128942216215
 31
0.0
  0
LINE
  5
708
330
63F
100
AcDbEntity
  8
0
  6
Continuous
 62
     7
370
    15
100
AcDbLine
 10
2363.581491308304
 20
1041.83882493039
 30
0.0
 11
2363.581491308305
 21
1037.128942216215
 31
0.0
  0
ARC
  5
709
330
63F
100
AcDbEntity
  8
0
  6
Continuous
 62
     7
370
    15
100
AcDbCircle
 10
2363.689259900161
 20
1041.856306729615
 30
0.0
 40
0.1091772993571268
100
AcDbArc
 50
50.79671476429672
 51
189.2140369904692
  0
LINE
  5
70A
330
63F
100
AcDbEntity
  8
0
  6
Continuous
 62
     7
370
    15
100
AcDbLine
 10
2363.758268003601
 20
1041.940909119384
 30
0.0
 11
2363.866314287357
 21
1041.878535327435
 31
0.0
  0
ARC
  5
70B
330
63F
100
AcDbEntity
  8
0
  6
Continuous
 62
     7
370
    15
100
AcDbCircle
 10
2363.935322390798
 20
1041.963137717203
 30
0.0
 40
0.1091772993571204
100
AcDbArc
 50
230.7967147642601
 51
9.214036990501373
  0
LINE
  5
70C
330
63F
100
AcDbEntity
  8
0
  6
Continuous
 62
     7
370
    15
100
AcDbLine
 10
2364.043090982654
 20
1041.980619516428
 30
0.0
 11
2364.043090982654
 21
1042.633911880963
 31
0.0
  0
LINE
  5
70D
330
63F
100
AcDbEntity
  8
0
  6
Continuous
 62
     7
370
    15
100
AcDbLine
 10
2365.025969408502
 20
1042.066508243247
 30
0.0
 11
2365.025969408502
 21
1041.413215878712
 31
0.0
  0
ARC
  5
70E
330
63F
100
AcDbEntity
  8
0
  6
Continuous
 62
     7
370
    15
100
AcDbCircle
 10
2365.409773433844
 20
1041.430681091777
 30
0.0
 40
0.3842012018927823
100
AcDbArc
 50
182.6054784856433
 51
237.3945216600278
  0
LINE
  5
70F
330
63F
100
AcDbEntity
  8
0
  6
Continuous
 62
     7
370
    15
100
AcDbLine
 10
2365.025969408502
 20
1041.413215878712
 30
0.0
 11
2367.147289752062
 21
1042.637828046445
 31
0.0
  0
LINE
  5
710
330
63F
100
AcDbEntity
  8
0
  6
Continuous
 62
     7
370
    15
100
AcDbLine
 10
2367.147289752062
 20
1042.637828046445
 30
0.0
 11
2367.147289752062
 21
1043.291120410981
 31
0.0
  0
LINE
  5
711
330
63F
100
AcDbEntity
  8
0
  6
Continuous
 62
     7
370
    15
100
AcDbLine
 10
2367.432112731115
 20
1042.269268037548
 30
0.0
 11
2365.310792387555
 21
1041.044655869814
 31
0.0
  0
ARC
  5
712
330
63F
100
AcDbEntity
  8
0
  6
Continuous
 62
     7
370
    15
100
AcDbCircle
 10
2367.22508540107
 20
1041.945616607534
 30
0.0
 40
0.3842012018928181
100
AcDbArc
 50
2.605478485643353
 51
57.39452165999532
  0
LINE
  5
713
330
63F
100
AcDbEntity
  8
0
  6
Continuous
 62
     7
370
    15
100
AcDbLine
 10
2365.487569082852
 20
1040.738469652865
 30
0.0
 11
2367.608889426411
 21
1041.963081820599
 31
0.0
  0
ARC
  5
714
330
63F
100
AcDbEntity
  8
0
  6
Continuous
 62
     7
370
    15
100
AcDbCircle
 10
2358.324620549813
 20
1032.374816657222
 30
0.0
 40
0.3023726461243176
100
AcDbArc
 50
185.4589815370907
 51
237.2630757801053
  0
ARC
  5
715
330
63F
100
AcDbEntity
  8
0
  6
Continuous
 62
     7
370
    15
100
AcDbCircle
 10
2367.531093777401
 20
1042.655293259509
 30
0.0
 40
0.3842012018901641
100
AcDbArc
 50
182.6054784854286
 51
237.3945216601902
  0
LINE
  5
716
330
63F
100
AcDbEntity
  8
0
  6
Continuous
 62
     7
370
    15
100
AcDbLine
 10
2367.324066447358
 20
1042.331641829496
 30
0.0
 11
2365.2027461038
 21
1041.107029661763
 31
0.0
  0
LINE
  5
717
330
63F
100
AcDbEntity
  8
0
  6
Continuous
 62
     7
370
    15
100
AcDbLine
 10
2367.608889426411
 20
1041.963081820599
 30
0.0
 11
2367.608889426411
 21
1037.253199106424
 31
0.0
  0
LINE
  5
718
330
63F
100
AcDbEntity
  8
0
  6
Continuous
 62
     7
370
    15
100
AcDbLine
 10
2367.608889426411
 20
1037.253199106424
 30
0.0
 11
2367.368485832287
 21
1035.54001707202
 31
0.0
  0
ARC
  5
719
330
63F
100
AcDbEntity
  8
0
  6
Continuous
 62
     7
370
    15
100
AcDbCircle
 10
2366.286254850343
 20
1035.705436018031
 30
0.0
 40
1.094800130607652
100
AcDbArc
 50
302.9067666138764
 51
351.3096048990302
  0
LINE
  5
71A
330
63F
100
AcDbEntity
  8
0
  6
Continuous
 62
     7
370
    15
100
AcDbLine
 10
2366.2154276452
 20
1034.402045757757
 30
0.0
 11
2366.881030864063
 21
1034.786290317131
 31
0.0
  0
LWPOLYLINE
  5
71B
330
63F
100
AcDbEntity
  8
0
  6
Continuous
 62
     7
370
    15
100
AcDbPolyline
 90
        9
 70
   128
 43
0.0
 10
2366.2154276452
 20
1034.402045757757
 10
2366.129476182422
 20
1034.361110597242
 10
2366.046136311346
 20
1034.338786356431
 10
2365.967940271784
 20
1034.335751346084
 10
2365.897264010829
 20
1034.352097783455
 10
2365.836254990906
 20
1034.387328990316
 10
2365.786766940213
 20
1034.440374484274
 10
2365.750303528128
 20
1034.509622504838
 10
2365.727972676976
 20
1034.592968985944
  0
LINE
  5
71C
330
63F
100
AcDbEntity
  8
0
  6
Continuous
 62
     7
370
    15
100
AcDbLine
 10
2365.727972676976
 20
1034.592968985944
 30
0.0
 11
2365.487569082852
 21
1036.028586938689
 31
0.0
  0
LINE
  5
71D
330
63F
100
AcDbEntity
  8
0
  6
Continuous
 62
     7
370
    15
100
AcDbLine
 10
2367.432112731115
 20
1042.269268037548
 30
0.0
 11
2367.324066447358
 21
1042.331641829496
 31
0.0
  0
LINE
  5
71E
330
63F
100
AcDbEntity
  8
0
  6
Continuous
 62
     7
370
    15
100
AcDbLine
 10
2373.58196146086
 20
1050.254544247009
 30
0.0
 11
2371.814194507894
 21
1049.234034107231
 31
0.0
  0
LINE
  5
71F
330
63F
100
AcDbEntity
  8
0
  6
Continuous
 62
     7
370
    15
100
AcDbLine
 10
2373.334474087445
 20
1049.335912611127
 30
0.0
 11
2373.58196146086
 21
1050.254544247009
 31
0.0
  0
LINE
  5
720
330
63F
100
AcDbEntity
  8
0
  6
Continuous
 62
     7
370
    15
100
AcDbLine
 10
2371.566707134479
 20
1048.315402471348
 30
0.0
 11
2371.814194507894
 21
1049.234034107231
 31
0.0
  0
LINE
  5
721
330
63F
100
AcDbEntity
  8
0
  6
Continuous
 62
     7
370
    15
100
AcDbLine
 10
2373.58196146086
 20
1050.254544247009
 30
0.0
 11
2373.334474087445
 21
1050.397415666578
 31
0.0
  0
LINE
  5
722
330
63F
100
AcDbEntity
  8
0
  6
Continuous
 62
     7
370
    15
100
AcDbLine
 10
2371.814194507894
 20
1049.234034107231
 30
0.0
 11
2371.566707134479
 21
1049.3769055268
 31
0.0
  0
LINE
  5
723
330
63F
100
AcDbEntity
  8
0
  6
Continuous
 62
     7
370
    15
100
AcDbLine
 10
2368.558990687851
 20
1048.535483085169
 30
0.0
 11
2370.680311031411
 21
1047.310870917435
 31
0.0
  0
LWPOLYLINE
  5
724
330
63F
100
AcDbEntity
  8
0
  6
Continuous
 62
     7
370
    15
100
AcDbPolyline
 90
        3
 70
   128
 43
0.0
 10
2368.526147975376
 20
1048.56025191986
 10
2368.535690221101
 20
1048.551718780975
 10
2368.558990687851
 20
1048.535483085169
  0
LINE
  5
725
330
63F
100
AcDbEntity
  8
0
  6
Continuous
 62
     7
370
    15
100
AcDbLine
 10
2368.59937128008
 20
1048.512164287395
 30
0.0
 11
2370.720691623639
 21
1047.287552119661
 31
0.0
  0
LINE
  5
726
330
63F
100
AcDbEntity
  8
0
  6
Continuous
 62
     7
370
    15
100
AcDbLine
 10
2368.59937128008
 20
1048.512164287395
 30
0.0
 11
2368.558990687851
 21
1048.535483085169
 31
0.0
  0
LINE
  5
727
330
63F
100
AcDbEntity
  8
0
  6
Continuous
 62
     7
370
    15
100
AcDbLine
 10
2368.702924670673
 20
1048.283253614729
 30
0.0
 11
2370.824245014233
 21
1047.058641446995
 31
0.0
  0
ARC
  5
728
330
63F
100
AcDbEntity
  8
0
  6
Continuous
 62
     7
370
    15
100
AcDbCircle
 10
2368.45259488399
 20
1048.30788856136
 30
0.0
 40
0.25153902817694
100
AcDbArc
 50
354.3796210363125
 51
54.30196147128344
  0
LINE
  5
729
330
63F
100
AcDbEntity
  8
0
  6
Continuous
 62
     7
370
    15
100
AcDbLine
 10
2370.824245014233
 20
1045.413827946742
 30
0.0
 11
2368.702924670673
 21
1046.638440114476
 31
0.0
  0
LINE
  5
72A
330
63F
100
AcDbEntity
  8
0
  6
Continuous
 62
     7
370
    15
100
AcDbLine
 10
2368.702924670673
 20
1046.638440114476
 30
0.0
 11
2368.702924670673
 21
1048.283253614729
 31
0.0
  0
LINE
  5
72B
330
63F
100
AcDbEntity
  8
0
  6
Continuous
 62
     7
370
    15
100
AcDbLine
 10
2370.824245014233
 20
1045.413827946742
 30
0.0
 11
2370.824245014233
 21
1045.41378150172
 31
0.0
  0
LINE
  5
72C
330
63F
100
AcDbEntity
  8
0
  6
Continuous
 62
     7
370
    15
100
AcDbLine
 10
2370.824245014233
 20
1045.41378150172
 30
0.0
 11
2369.197899417504
 21
1046.352650830316
 31
0.0
  0
LINE
  5
72D
330
63F
100
AcDbEntity
  8
0
  6
Continuous
 62
     7
370
    15
100
AcDbLine
 10
2369.197899417503
 20
1046.352650830316
 30
0.0
 11
2368.702924670673
 21
1046.638440114476
 31
0.0
  0
LINE
  5
72E
330
63F
100
AcDbEntity
  8
0
  6
Continuous
 62
     7
370
    15
100
AcDbLine
 10
2370.824245014233
 20
1045.41378150172
 30
0.0
 11
2373.58196146086
 21
1047.005777319775
 31
0.0
  0
LINE
  5
72F
330
63F
100
AcDbEntity
  8
0
  6
Continuous
 62
     7
370
    15
100
AcDbLine
 10
2373.58196146086
 20
1047.005777319775
 30
0.0
 11
2374.076936207691
 21
1047.291566603934
 31
0.0
  0
LINE
  5
730
330
63F
100
AcDbEntity
  8
0
  6
Continuous
 62
     7
370
    15
100
AcDbLine
 10
2365.727972676976
 20
1034.592968985944
 30
0.0
 11
2363.821894902429
 21
1035.69332426347
 31
0.0
  0
LINE
  5
731
330
63F
100
AcDbEntity
  8
0
  6
Continuous
 62
     7
370
    15
100
AcDbLine
 10
2363.581491308305
 20
1037.128942216215
 30
0.0
 11
2363.821894902429
 21
1035.69332426347
 31
0.0
  0
LINE
  5
732
330
63F
100
AcDbEntity
  8
0
  6
Continuous
 62
     7
370
    15
100
AcDbLine
 10
2371.001021709529
 20
1044.454302920235
 30
0.0
 11
2371.109067993285
 21
1044.391929128287
 31
0.0
  0
ARC
  5
733
330
63F
100
AcDbEntity
  8
0
  6
Continuous
 62
     7
370
    15
100
AcDbCircle
 10
2370.902040663239
 20
1044.068277698273
 30
0.0
 40
0.3842012018929852
100
AcDbArc
 50
2.605478485636846
 51
57.39452165996985
  0
LINE
  5
734
330
63F
100
AcDbEntity
  8
0
  6
Continuous
 62
     7
370
    15
100
AcDbLine
 10
2371.285844688581
 20
1039.375860197162
 30
0.0
 11
2371.285844688581
 21
1044.085742911338
 31
0.0
  0
LINE
  5
735
330
63F
100
AcDbEntity
  8
0
  6
Continuous
 62
     7
370
    15
100
AcDbLine
 10
2371.285844688581
 20
1039.375860197162
 30
0.0
 11
2369.379766914034
 21
1040.476215474687
 31
0.0
  0
LINE
  5
736
330
63F
100
AcDbEntity
  8
0
  6
Continuous
 62
     7
370
    15
100
AcDbLine
 10
2369.379766914034
 20
1045.186098188863
 30
0.0
 11
2369.379766914034
 21
1040.476215474687
 31
0.0
  0
ARC
  5
737
330
63F
100
AcDbEntity
  8
0
  6
Continuous
 62
     7
370
    15
100
AcDbCircle
 10
2369.487535505891
 20
1045.203579988088
 30
0.0
 40
0.1091772993571575
100
AcDbArc
 50
50.79671476429261
 51
189.2140369904242
  0
LINE
  5
738
330
63F
100
AcDbEntity
  8
0
  6
Continuous
 62
     7
370
    15
100
AcDbLine
 10
2369.556543609331
 20
1045.288182377857
 30
0.0
 11
2369.664589893087
 21
1045.225808585908
 31
0.0
  0
ARC
  5
739
330
63F
100
AcDbEntity
  8
0
  6
Continuous
 62
     7
370
    15
100
AcDbCircle
 10
2369.733597996527
 20
1045.310410975676
 30
0.0
 40
0.1091772993571175
100
AcDbArc
 50
230.7967147642967
 51
9.214036990469226
  0
LINE
  5
73A
330
63F
100
AcDbEntity
  8
0
  6
Continuous
 62
     7
370
    15
100
AcDbLine
 10
2369.841366588384
 20
1045.327892774901
 30
0.0
 11
2369.841366588384
 21
1045.981185139437
 31
0.0
  0
LINE
  5
73B
330
63F
100
AcDbEntity
  8
0
  6
Continuous
 62
     7
370
    15
100
AcDbLine
 10
2370.824245014233
 20
1045.41378150172
 30
0.0
 11
2370.824245014233
 21
1044.760489137185
 31
0.0
  0
ARC
  5
73C
330
63F
100
AcDbEntity
  8
0
  6
Continuous
 62
     7
370
    15
100
AcDbCircle
 10
2371.208049039574
 20
1044.77795435025
 30
0.0
 40
0.3842012018927248
100
AcDbArc
 50
182.6054784856303
 51
237.3945216600313
  0
LINE
  5
73D
330
63F
100
AcDbEntity
  8
0
  6
Continuous
 62
     7
370
    15
100
AcDbLine
 10
2370.824245014233
 20
1044.760489137185
 30
0.0
 11
2372.945565357792
 21
1045.985101304918
 31
0.0
  0
LINE
  5
73E
330
63F
100
AcDbEntity
  8
0
  6
Continuous
 62
     7
370
    15
100
AcDbLine
 10
2372.945565357792
 20
1045.985101304918
 30
0.0
 11
2372.945565357792
 21
1046.638393669454
 31
0.0
  0
LINE
  5
73F
330
63F
100
AcDbEntity
  8
0
  6
Continuous
 62
     7
370
    15
100
AcDbLine
 10
2373.230388336844
 20
1045.616541296021
 30
0.0
 11
2371.109067993285
 21
1044.391929128287
 31
0.0
  0
ARC
  5
740
330
63F
100
AcDbEntity
  8
0
  6
Continuous
 62
     7
370
    15
100
AcDbCircle
 10
2373.023361006799
 20
1045.292889866007
 30
0.0
 40
0.3842012018929
100
AcDbArc
 50
2.60547848564986
 51
57.39452165997335
  0
LINE
  5
741
330
63F
100
AcDbEntity
  8
0
  6
Continuous
 62
     7
370
    15
100
AcDbLine
 10
2371.285844688581
 20
1044.085742911338
 30
0.0
 11
2373.407165032141
 21
1045.310355079072
 31
0.0
  0
ARC
  5
742
330
63F
100
AcDbEntity
  8
0
  6
Continuous
 62
     7
370
    15
100
AcDbCircle
 10
2364.122896155543
 20
1035.722089915695
 30
0.0
 40
0.302372646124079
100
AcDbArc
 50
185.4589815370712
 51
237.2630757801307
  0
ARC
  5
743
330
63F
100
AcDbEntity
  8
0
  6
Continuous
 62
     7
370
    15
100
AcDbCircle
 10
2373.32936938313
 20
1046.002566517982
 30
0.0
 40
0.384201201889779
100
AcDbArc
 50
182.6054784854026
 51
237.3945216602192
  0
LINE
  5
744
330
63F
100
AcDbEntity
  8
0
  6
Continuous
 62
     7
370
    15
100
AcDbLine
 10
2373.122342053088
 20
1045.678915087969
 30
0.0
 11
2371.001021709529
 21
1044.454302920235
 31
0.0
  0
LINE
  5
745
330
63F
100
AcDbEntity
  8
0
  6
Continuous
 62
     7
370
    15
100
AcDbLine
 10
2373.407165032141
 20
1045.310355079072
 30
0.0
 11
2373.407165032141
 21
1040.600472364897
 31
0.0
  0
LINE
  5
746
330
63F
100
AcDbEntity
  8
0
  6
Continuous
 62
     7
370
    15
100
AcDbLine
 10
2373.407165032141
 20
1040.600472364897
 30
0.0
 11
2373.166761438017
 21
1038.887290330493
 31
0.0
  0
ARC
  5
747
330
63F
100
AcDbEntity
  8
0
  6
Continuous
 62
     7
370
    15
100
AcDbCircle
 10
2372.084530456073
 20
1039.052709276504
 30
0.0
 40
1.094800130607168
100
AcDbArc
 50
302.9067666138693
 51
351.3096048990367
  0
LINE
  5
748
330
63F
100
AcDbEntity
  8
0
  6
Continuous
 62
     7
370
    15
100
AcDbLine
 10
2372.013703250929
 20
1037.74931901623
 30
0.0
 11
2372.679306469793
 21
1038.133563575605
 31
0.0
  0
LWPOLYLINE
  5
749
330
63F
100
AcDbEntity
  8
0
  6
Continuous
 62
     7
370
    15
100
AcDbPolyline
 90
        9
 70
   128
 43
0.0
 10
2372.013703250929
 20
1037.74931901623
 10
2371.927751788151
 20
1037.708383855715
 10
2371.844411917076
 20
1037.686059614904
 10
2371.766215877514
 20
1037.683024604557
 10
2371.695539616559
 20
1037.699371041928
 10
2371.634530596636
 20
1037.734602248789
 10
2371.585042545942
 20
1037.787647742747
 10
2371.548579133857
 20
1037.856895763311
 10
2371.526248282705
 20
1037.940242244417
  0
LINE
  5
74A
330
63F
100
AcDbEntity
  8
0
  6
Continuous
 62
     7
370
    15
100
AcDbLine
 10
2371.526248282705
 20
1037.940242244417
 30
0.0
 11
2371.285844688581
 21
1039.375860197162
 31
0.0
  0
LINE
  5
74B
330
63F
100
AcDbEntity
  8
0
  6
Continuous
 62
     7
370
    15
100
AcDbLine
 10
2373.230388336844
 20
1045.616541296021
 30
0.0
 11
2373.122342053088
 21
1045.678915087969
 31
0.0
  0
LINE
  5
74C
330
63F
100
AcDbEntity
  8
0
  6
Continuous
 62
     7
370
    15
100
AcDbLine
 10
2371.526248282705
 20
1037.940242244417
 30
0.0
 11
2369.620170508158
 21
1039.040597521942
 31
0.0
  0
LINE
  5
74D
330
63F
100
AcDbEntity
  8
0
  6
Continuous
 62
     7
370
    15
100
AcDbLine
 10
2369.379766914034
 20
1040.476215474687
 30
0.0
 11
2369.620170508158
 21
1039.040597521942
 31
0.0
  0
ARC
  5
74E
330
63F
100
AcDbEntity
  8
0
  6
Continuous
 62
     7
370
    15
100
AcDbCircle
 10
2369.921171761273
 20
1039.069363174168
 30
0.0
 40
0.302372646124199
100
AcDbArc
 50
185.4589815370842
 51
237.2630757801053
  0
LINE
  5
74F
330
63F
100
AcDbEntity
  8
0
  6
Continuous
 62
     8
370
    15
100
AcDbLine
 10
2358.980206429358
 20
1040.845235073154
 30
0.0
 11
2356.929596763917
 21
1042.029026835298
 31
0.0
  0
LINE
  5
750
330
63F
100
AcDbEntity
  8
0
  6
Continuous
 62
     8
370
    15
100
AcDbLine
 10
2352.269763075898
 20
1035.183988810489
 30
0.0
 11
2352.44653976886
 21
1035.286039823118
 31
0.0
  0
LINE
  5
751
330
63F
100
AcDbEntity
  8
0
  6
Continuous
 62
     8
370
    15
100
AcDbLine
 10
2352.161716792141
 20
1035.246362602437
 30
0.0
 11
2352.446539771194
 21
1035.410787408364
 31
0.0
  0
LINE
  5
752
330
63F
100
AcDbEntity
  8
0
  6
Continuous
 62
     8
370
    15
100
AcDbLine
 10
2364.778482035088
 20
1044.192508331628
 30
0.0
 11
2362.727872369647
 21
1045.376300093771
 31
0.0
  0
LINE
  5
753
330
63F
100
AcDbEntity
  8
0
  6
Continuous
 62
     8
370
    15
100
AcDbLine
 10
2358.068038681627
 20
1038.531262068962
 30
0.0
 11
2358.24481537459
 21
1038.633313081591
 31
0.0
  0
LINE
  5
754
330
63F
100
AcDbEntity
  8
0
  6
Continuous
 62
     8
370
    15
100
AcDbLine
 10
2357.959992397871
 20
1038.593635860911
 30
0.0
 11
2358.244815376924
 21
1038.758060666838
 31
0.0
  0
LINE
  5
755
330
63F
100
AcDbEntity
  8
0
  6
Continuous
 62
     8
370
    15
100
AcDbLine
 10
2370.576757640817
 20
1047.539781590101
 30
0.0
 11
2368.526147975376
 21
1048.723573352244
 31
0.0
  0
LINE
  5
756
330
63F
100
AcDbEntity
  8
0
  6
Continuous
 62
     8
370
    15
100
AcDbLine
 10
2363.866314287357
 20
1041.878535327435
 30
0.0
 11
2364.043090980319
 21
1041.980586340065
 31
0.0
  0
LINE
  5
757
330
63F
100
AcDbEntity
  8
0
  6
Continuous
 62
     8
370
    15
100
AcDbLine
 10
2363.758268003601
 20
1041.940909119384
 30
0.0
 11
2364.043090982654
 21
1042.105333925311
 31
0.0
  0
LINE
  5
758
330
63F
100
AcDbEntity
  8
0
  6
Continuous
 62
     8
370
    15
100
AcDbLine
 10
2369.664589893087
 20
1045.225808585908
 30
0.0
 11
2369.841366586049
 21
1045.327859598538
 31
0.0
  0
LINE
  5
759
330
63F
100
AcDbEntity
  8
0
  6
Continuous
 62
     8
370
    15
100
AcDbLine
 10
2369.556543609331
 20
1045.288182377857
 30
0.0
 11
2369.841366588384
 21
1045.452607183784
 31
0.0
  0
ENDBLK
  5
641
330
63F
100
AcDbEntity
  8
0
100
AcDbBlockEnd
  0
ENDSEC
  0
SECTION
  2
ENTITIES
  0
INSERT
  5
603
330
1F
100
AcDbEntity
  8
0
100
AcDbBlockReference
  2
1
 10
0.0
 20
0.0
 30
0.0
  0
INSERT
  5
636
330
1F
100
AcDbEntity
  8
0
100
AcDbBlockReference
  2
2
 10
0.0
 20
0.0
 30
0.0
  0
INSERT
  5
63E
330
1F
100
AcDbEntity
  8
0
100
AcDbBlockReference
  2
3
 10
0.0
 20
0.0
 30
0.0
  0
INSERT
  5
75A
330
1F
100
AcDbEntity
  8
0
100
AcDbBlockReference
  2
4
 10
0.0
 20
0.0
 30
0.0
  0
ENDSEC
  0
SECTION
  2
OBJECTS
  0
DICTIONARY
  5
C
330
0
100
AcDbDictionary
281
     1
  3
ACAD_COLOR
350
6B
  3
ACAD_GROUP
350
D
  3
ACAD_LAYOUT
350
1A
  3
ACAD_MATERIAL
350
6A
  3
ACAD_MLEADERSTYLE
350
12D
  3
ACAD_MLINESTYLE
350
17
  3
ACAD_PLOTSETTINGS
350
19
  3
ACAD_PLOTSTYLENAME
350
E
  3
ACAD_SCALELIST
350
10C
  3
ACAD_TABLESTYLE
350
7E
  3
ACAD_VISUALSTYLE
350
EF
  3
ACDB_RECOMPOSE_DATA
350
15D
  3
AcDbVariableDictionary
350
5E
  3
DWGPROPS
350
768
  0
DICTIONARY
  5
13C
330
10
100
AcDbDictionary
280
     1
281
     1
  3
ADSK_XREC_LAYER_RECONCILED
360
75B
  0
DICTIONARY
  5
6B
102
{ACAD_REACTORS
330
C
102
}
330
C
100
AcDbDictionary
281
     1
  0
DICTIONARY
  5
D
102
{ACAD_REACTORS
330
C
102
}
330
C
100
AcDbDictionary
281
     1
  0
DICTIONARY
  5
1A
102
{ACAD_REACTORS
330
C
102
}
330
C
100
AcDbDictionary
281
     1
  3
Layout1
350
D3
  3
Layout2
350
D7
  3
Model
350
22
  0
DICTIONARY
  5
6A
102
{ACAD_REACTORS
330
C
102
}
330
C
100
AcDbDictionary
281
     1
  3
ByBlock
350
ED
  3
ByLayer
350
EC
  3
Global
350
EE
  0
DICTIONARY
  5
12D
102
{ACAD_REACTORS
330
C
102
}
330
C
100
AcDbDictionary
281
     1
  3
Annotative
350
13B
  3
Standard
350
12E
  0
DICTIONARY
  5
17
102
{ACAD_REACTORS
330
C
102
}
330
C
100
AcDbDictionary
281
     1
  3
Standard
350
18
  0
DICTIONARY
  5
19
102
{ACAD_REACTORS
330
C
102
}
330
C
100
AcDbDictionary
281
     1
  0
ACDBDICTIONARYWDFLT
  5
E
102
{ACAD_REACTORS
330
C
102
}
330
C
100
AcDbDictionary
281
     1
  3
Normal
350
F
100
AcDbDictionaryWithDefault
340
F
  0
DICTIONARY
  5
10C
102
{ACAD_REACTORS
330
C
102
}
330
C
100
AcDbDictionary
281
     1
  3
A0
350
10D
  3
A1
350
188
  3
A2
350
189
  3
A3
350
18A
  3
A4
350
18B
  3
A5
350
18C
  3
A6
350
18D
  3
A7
350
18E
  3
A8
350
18F
  3
A9
350
190
  3
B0
350
191
  3
B1
350
192
  3
B2
350
193
  3
B3
350
194
  3
B4
350
195
  3
B5
350
196
  3
B6
350
197
  3
B7
350
198
  3
B8
350
199
  3
B9
350
19A
  3
C0
350
19B
  3
C1
350
19C
  3
C2
350
19D
  3
C3
350
19E
  3
C4
350
19F
  3
C5
350
1A0
  3
C6
350
1A1
  3
C7
350
1A2
  3
C8
350
1A3
  3
C9
350
1A4
  3
D0
350
1A5
  3
D1
350
1A6
  3
D2
350
1A7
  0
DICTIONARY
  5
7E
102
{ACAD_REACTORS
330
C
102
}
330
C
100
AcDbDictionary
281
     1
  3
Standard
350
7F
  0
DICTIONARY
  5
EF
102
{ACAD_REACTORS
330
C
102
}
330
C
100
AcDbDictionary
281
     1
  3
2dWireframe
350
F5
  3
3D Hidden
350
F7
  3
3dWireframe
350
F6
  3
Basic
350
F4
  3
Brighten
350
FB
  3
ColorChange
350
FF
  3
Conceptual
350
F8
  3
Dim
350
FA
  3
Facepattern
350
FE
  3
Flat
350
F0
  3
FlatWithEdges
350
F1
  3
Gouraud
350
F2
  3
GouraudWithEdges
350
F3
  3
Linepattern
350
FD
  3
Realistic
350
F9
  3
Thicken
350
FC
  0
XRECORD
  5
15D
102
{ACAD_REACTORS
330
C
102
}
330
C
100
AcDbXrecord
280
     1
 90
        1
330
7F
  0
DICTIONARY
  5
5E
102
{ACAD_REACTORS
330
C
102
}
330
C
100
AcDbDictionary
281
     1
  3
CANNOSCALE
350
146
  3
CMLEADERSTYLE
350
145
  3
CTABLESTYLE
350
84
  3
DIMASSOC
350
5F
  3
HIDETEXT
350
63
  3
INDEXCTL
350
764
  3
LIGHTINGUNITS
350
762
  3
MSLTSCALE
350
761
  3
PSOLHEIGHT
350
766
  3
PSOLWIDTH
350
765
  3
SORTENTS
350
763
  0
XRECORD
  5
768
102
{ACAD_REACTORS
330
C
102
}
330
C
100
AcDbXrecord
280
     1
  1
DWGPROPS COOKIE
  2

  3

  4

  6

  7

  8
orhan kara
  9

300
=
301
=
302
=
303
=
304
=
305
=
306
=
307
=
308
=
309
=
 40
0.0004052199074074
 41
2458932.67860566
 42
2458956.445987789
  1

 90
        0
  0
XRECORD
  5
75B
102
{ACAD_REACTORS
330
13C
102
}
330
13C
100
AcDbXrecord
280
     1
290
     1
  0
LAYOUT
  5
D3
102
{ACAD_XDICTIONARY
360
76C
102
}
102
{ACAD_REACTORS
330
1A
102
}
330
1A
100
AcDbPlotSettings
  1

  2
C:\Documents and Settings\basas\Application Data\Autodesk\AutoCAD 2005\R16.1\enu\plotters\Default Windows System Printer.pc3
  4

  6

 40
0.0
 41
0.0
 42
0.0
 43
0.0
 44
0.0
 45
0.0
 46
0.0
 47
0.0
 48
0.0
 49
0.0
140
0.0
141
0.0
142
1.0
143
1.0
 70
   688
 72
     0
 73
     0
 74
     5
  7

 75
    16
147
1.0
148
0.0
149
0.0
100
AcDbLayout
  1
Layout1
 70
     1
 71
     1
 10
0.0
 20
0.0
 11
12.0
 21
9.0
 12
0.0
 22
0.0
 32
0.0
 14
0.0
 24
0.0
 34
0.0
 15
0.0
 25
0.0
 35
0.0
146
0.0
 13
0.0
 23
0.0
 33
0.0
 16
1.0
 26
0.0
 36
0.0
 17
0.0
 27
1.0
 37
0.0
 76
     0
330
D2
  0
LAYOUT
  5
D7
102
{ACAD_XDICTIONARY
360
76E
102
}
102
{ACAD_REACTORS
330
1A
102
}
330
1A
100
AcDbPlotSettings
  1

  2
C:\Documents and Settings\basas\Application Data\Autodesk\AutoCAD 2005\R16.1\enu\plotters\Default Windows System Printer.pc3
  4

  6

 40
0.0
 41
0.0
 42
0.0
 43
0.0
 44
0.0
 45
0.0
 46
0.0
 47
0.0
 48
0.0
 49
0.0
140
0.0
141
0.0
142
1.0
143
1.0
 70
   688
 72
     0
 73
     0
 74
     5
  7

 75
    16
147
1.0
148
0.0
149
0.0
100
AcDbLayout
  1
Layout2
 70
     1
 71
     2
 10
0.0
 20
0.0
 11
12.0
 21
9.0
 12
0.0
 22
0.0
 32
0.0
 14
0.0
 24
0.0
 34
0.0
 15
0.0
 25
0.0
 35
0.0
146
0.0
 13
0.0
 23
0.0
 33
0.0
 16
1.0
 26
0.0
 36
0.0
 17
0.0
 27
1.0
 37
0.0
 76
     0
330
D6
  0
LAYOUT
  5
22
102
{ACAD_XDICTIONARY
360
769
102
}
102
{ACAD_REACTORS
330
1A
102
}
330
1A
100
AcDbPlotSettings
  1

  2
none_device
  4
ISO_A4_(210.00_x_297.00_MM)
  6

 40
7.5
 41
20.0
 42
7.5
 43
20.0
 44
210.0
 45
297.0
 46
11.54999923706054
 47
-13.65000009536743
 48
0.0
 49
0.0
140
0.0
141
0.0
142
1.0
143
8.704084754739808
 70
 11952
 72
     1
 73
     0
 74
     0
  7

 75
     0
147
0.1148885871608098
148
0.0
149
0.0
100
AcDbLayout
  1
Model
 70
     1
 71
     0
 10
0.0
 20
0.0
 11
12.0
 21
9.0
 12
0.0
 22
0.0
 32
0.0
 14
0.0
 24
0.0
 34
0.0
 15
0.0
 25
0.0
 35
0.0
146
0.0
 13
0.0
 23
0.0
 33
0.0
 16
1.0
 26
0.0
 36
0.0
 17
0.0
 27
1.0
 37
0.0
 76
     0
330
1F
331
EA
1001
ACAD_PSEXT
1000
None
1000
None
1000
Not applicable
1000
The layout will not be plotted unless a new plotter configuration name is selected.
1070
     0
  0
MATERIAL
  5
ED
102
{ACAD_XDICTIONARY
360
772
102
}
102
{ACAD_REACTORS
330
6A
102
}
330
6A
100
AcDbMaterial
  1
ByBlock
  0
MATERIAL
  5
EC
102
{ACAD_XDICTIONARY
360
770
102
}
102
{ACAD_REACTORS
330
6A
102
}
330
6A
100
AcDbMaterial
  1
ByLayer
  0
MATERIAL
  5
EE
102
{ACAD_XDICTIONARY
360
173
102
}
102
{ACAD_REACTORS
330
6A
102
}
330
6A
100
AcDbMaterial
  1
Global
 43
0.0007999999797903
 43
0.0
 43
0.0
 43
0.0
 43
0.0
 43
0.0007999999797903
 43
0.0
 43
0.0
 43
0.0
 43
0.0
 43
1.0
 43
0.0
 43
0.0
 43
0.0
 43
0.0
 43
1.0
 49
0.0007999999797903
 49
0.0
 49
0.0
 49
0.0
 49
0.0
 49
0.0007999999797903
 49
0.0
 49
0.0
 49
0.0
 49
0.0
 49
1.0
 49
0.0
 49
0.0
 49
0.0
 49
0.0
 49
1.0
142
0.0007999999797903
142
0.0
142
0.0
142
0.0
142
0.0
142
0.0007999999797903
142
0.0
142
0.0
142
0.0
142
0.0
142
1.0
142
0.0
142
0.0
142
0.0
142
0.0
142
1.0
144
0.0007999999797903
144
0.0
144
0.0
144
0.0
144
0.0
144
0.0007999999797903
144
0.0
144
0.0
144
0.0
144
0.0
144
1.0
144
0.0
144
0.0
144
0.0
144
0.0
144
1.0
1001
ACAD
1070
    -1
1070
     3
1070
     0
1000

1071
        0
1070
     0
  0
MLEADERSTYLE
  5
13B
102
{ACAD_REACTORS
330
12D
102
}
330
12D
100
AcDbMLeaderStyle
170
     2
171
     1
172
     0
 90
        2
 40
0.0
 41
0.0
173
     1
 91
-1056964608
340
14
 92
       -2
290
     1
 42
2.0
291
     1
 43
8.0
  3
Standard
 44
4.0
300

342
11
174
     1
178
     1
175
     1
176
     0
 93
-1056964608
 45
4.0
292
     0
297
     0
 46
4.0
 94
-1056964608
 47
1.0
 49
1.0
140
1.0
293
     1
141
0.0
294
     1
177
     0
142
1.0
295
     0
296
     1
143
3.75
1001
ACAD_MLEADERVER
1070
     2
  0
MLEADERSTYLE
  5
12E
102
{ACAD_REACTORS
330
12D
102
}
330
12D
100
AcDbMLeaderStyle
170
     2
171
     1
172
     0
 90
        2
 40
0.0
 41
0.0
173
     1
 91
-1056964608
340
14
 92
       -2
290
     1
 42
2.0
291
     1
 43
8.0
  3
Standard
 44
4.0
300

342
11
174
     1
178
     1
175
     1
176
     0
 93
-1056964608
 45
4.0
292
     0
297
     0
 46
4.0
 94
-1056964608
 47
1.0
 49
1.0
140
1.0
293
     1
141
0.0
294
     1
177
     0
142
1.0
295
     0
296
     0
143
3.75
1001
ACAD_MLEADERVER
1070
     2
  0
MLINESTYLE
  5
18
102
{ACAD_REACTORS
330
17
102
}
330
17
100
AcDbMlineStyle
  2
STANDARD
 70
     0
  3

 62
   256
 51
90.0
 52
90.0
 71
     2
 49
0.5
 62
   256
  6
BYLAYER
 49
-0.5
 62
   256
  6
BYLAYER
  0
ACDBPLACEHOLDER
  5
F
102
{ACAD_REACTORS
330
E
102
}
330
E
  0
SCALE
  5
10D
102
{ACAD_REACTORS
330
10C
102
}
330
10C
100
AcDbScale
 70
     0
300
1:1
140
1.0
141
1.0
290
     1
  0
SCALE
  5
188
102
{ACAD_REACTORS
330
10C
102
}
330
10C
100
AcDbScale
 70
     0
300
1:2
140
1.0
141
2.0
290
     0
  0
SCALE
  5
189
102
{ACAD_REACTORS
330
10C
102
}
330
10C
100
AcDbScale
 70
     0
300
1:4
140
1.0
141
4.0
290
     0
  0
SCALE
  5
18A
102
{ACAD_REACTORS
330
10C
102
}
330
10C
100
AcDbScale
 70
     0
300
1:5
140
1.0
141
5.0
290
     0
  0
SCALE
  5
18B
102
{ACAD_REACTORS
330
10C
102
}
330
10C
100
AcDbScale
 70
     0
300
1:8
140
1.0
141
8.0
290
     0
  0
SCALE
  5
18C
102
{ACAD_REACTORS
330
10C
102
}
330
10C
100
AcDbScale
 70
     0
300
1:10
140
1.0
141
10.0
290
     0
  0
SCALE
  5
18D
102
{ACAD_REACTORS
330
10C
102
}
330
10C
100
AcDbScale
 70
     0
300
1:16
140
1.0
141
16.0
290
     0
  0
SCALE
  5
18E
102
{ACAD_REACTORS
330
10C
102
}
330
10C
100
AcDbScale
 70
     0
300
1:20
140
1.0
141
20.0
290
     0
  0
SCALE
  5
18F
102
{ACAD_REACTORS
330
10C
102
}
330
10C
100
AcDbScale
 70
     0
300
1:30
140
1.0
141
30.0
290
     0
  0
SCALE
  5
190
102
{ACAD_REACTORS
330
10C
102
}
330
10C
100
AcDbScale
 70
     0
300
1:40
140
1.0
141
40.0
290
     0
  0
SCALE
  5
191
102
{ACAD_REACTORS
330
10C
102
}
330
10C
100
AcDbScale
 70
     0
300
1:50
140
1.0
141
50.0
290
     0
  0
SCALE
  5
192
102
{ACAD_REACTORS
330
10C
102
}
330
10C
100
AcDbScale
 70
     0
300
1:100
140
1.0
141
100.0
290
     0
  0
SCALE
  5
193
102
{ACAD_REACTORS
330
10C
102
}
330
10C
100
AcDbScale
 70
     0
300
2:1
140
2.0
141
1.0
290
     0
  0
SCALE
  5
194
102
{ACAD_REACTORS
330
10C
102
}
330
10C
100
AcDbScale
 70
     0
300
4:1
140
4.0
141
1.0
290
     0
  0
SCALE
  5
195
102
{ACAD_REACTORS
330
10C
102
}
330
10C
100
AcDbScale
 70
     0
300
8:1
140
8.0
141
1.0
290
     0
  0
SCALE
  5
196
102
{ACAD_REACTORS
330
10C
102
}
330
10C
100
AcDbScale
 70
     0
300
10:1
140
10.0
141
1.0
290
     0
  0
SCALE
  5
197
102
{ACAD_REACTORS
330
10C
102
}
330
10C
100
AcDbScale
 70
     0
300
100:1
140
100.0
141
1.0
290
     0
  0
SCALE
  5
198
102
{ACAD_REACTORS
330
10C
102
}
330
10C
100
AcDbScale
 70
     0
300
1/128" = 1'-0"
140
0.0078125
141
12.0
290
     0
  0
SCALE
  5
199
102
{ACAD_REACTORS
330
10C
102
}
330
10C
100
AcDbScale
 70
     0
300
1/64" = 1'-0"
140
0.015625
141
12.0
290
     0
  0
SCALE
  5
19A
102
{ACAD_REACTORS
330
10C
102
}
330
10C
100
AcDbScale
 70
     0
300
1/32" = 1'-0"
140
0.03125
141
12.0
290
     0
  0
SCALE
  5
19B
102
{ACAD_REACTORS
330
10C
102
}
330
10C
100
AcDbScale
 70
     0
300
1/16" = 1'-0"
140
0.0625
141
12.0
290
     0
  0
SCALE
  5
19C
102
{ACAD_REACTORS
330
10C
102
}
330
10C
100
AcDbScale
 70
     0
300
3/32" = 1'-0"
140
0.09375
141
12.0
290
     0
  0
SCALE
  5
19D
102
{ACAD_REACTORS
330
10C
102
}
330
10C
100
AcDbScale
 70
     0
300
1/8" = 1'-0"
140
0.125
141
12.0
290
     0
  0
SCALE
  5
19E
102
{ACAD_REACTORS
330
10C
102
}
330
10C
100
AcDbScale
 70
     0
300
3/16" = 1'-0"
140
0.1875
141
12.0
290
     0
  0
SCALE
  5
19F
102
{ACAD_REACTORS
330
10C
102
}
330
10C
100
AcDbScale
 70
     0
300
1/4" = 1'-0"
140
0.25
141
12.0
290
     0
  0
SCALE
  5
1A0
102
{ACAD_REACTORS
330
10C
102
}
330
10C
100
AcDbScale
 70
     0
300
3/8" = 1'-0"
140
0.375
141
12.0
290
     0
  0
SCALE
  5
1A1
102
{ACAD_REACTORS
330
10C
102
}
330
10C
100
AcDbScale
 70
     0
300
1/2" = 1'-0"
140
0.5
141
12.0
290
     0
  0
SCALE
  5
1A2
102
{ACAD_REACTORS
330
10C
102
}
330
10C
100
AcDbScale
 70
     0
300
3/4" = 1'-0"
140
0.75
141
12.0
290
     0
  0
SCALE
  5
1A3
102
{ACAD_REACTORS
330
10C
102
}
330
10C
100
AcDbScale
 70
     0
300
1" = 1'-0"
140
1.0
141
12.0
290
     0
  0
SCALE
  5
1A4
102
{ACAD_REACTORS
330
10C
102
}
330
10C
100
AcDbScale
 70
     0
300
1-1/2" = 1'-0"
140
1.5
141
12.0
290
     0
  0
SCALE
  5
1A5
102
{ACAD_REACTORS
330
10C
102
}
330
10C
100
AcDbScale
 70
     0
300
3" = 1'-0"
140
3.0
141
12.0
290
     0
  0
SCALE
  5
1A6
102
{ACAD_REACTORS
330
10C
102
}
330
10C
100
AcDbScale
 70
     0
300
6" = 1'-0"
140
6.0
141
12.0
290
     0
  0
SCALE
  5
1A7
102
{ACAD_REACTORS
330
10C
102
}
330
10C
100
AcDbScale
 70
     0
300
1'-0" = 1'-0"
140
12.0
141
12.0
290
     0
  0
TABLESTYLE
  5
7F
102
{ACAD_XDICTIONARY
360
162
102
}
102
{ACAD_REACTORS
330
7E
102
}
330
7E
100
AcDbTableStyle
  3
Standard
 70
     0
 71
     0
 40
1.5
 41
1.5
280
     0
281
     0
  7
Standard
140
4.5
170
     2
 62
     0
 63
     7
283
     0
274
    -2
284
     1
 64
     0
275
    -2
285
     1
 65
     0
276
    -2
286
     1
 66
     0
277
    -2
287
     1
 67
     0
278
    -2
288
     1
 68
     0
279
    -2
289
     1
 69
     0
  7
Standard
140
6.0
170
     5
 62
     0
 63
     7
283
     0
274
    -2
284
     1
 64
     0
275
    -2
285
     1
 65
     0
276
    -2
286
     1
 66
     0
277
    -2
287
     1
 67
     0
278
    -2
288
     1
 68
     0
279
    -2
289
     1
 69
     0
  7
Standard
140
4.5
170
     5
 62
     0
 63
     7
283
     0
274
    -2
284
     1
 64
     0
275
    -2
285
     1
 65
     0
276
    -2
286
     1
 66
     0
277
    -2
287
     1
 67
     0
278
    -2
288
     1
 68
     0
279
    -2
289
     1
 69
     0
  0
VISUALSTYLE
  5
F5
102
{ACAD_REACTORS
330
EF
102
}
330
EF
100
AcDbVisualStyle
  2
2dWireframe
 70
     4
 71
     0
 72
     2
 73
     1
 90
        0
 40
-0.6
 41
-30.0
 62
     5
 63
     7
 74
     1
 91
        4
 64
     7
 65
   257
 75
     1
175
     1
 42
1.0
 92
        0
 66
   257
 43
1.0
 76
     1
 77
     6
 78
     2
 67
     7
 79
     5
170
     0
171
     0
290
     0
174
     0
 93
        1
 44
0.0
173
     0
291
     0
 45
0.0
1001
ACAD
1000
AcDbSavedByObjectVersion
1070
     0
  0
VISUALSTYLE
  5
F7
102
{ACAD_REACTORS
330
EF
102
}
330
EF
100
AcDbVisualStyle
  2
3D Hidden
 70
     6
 71
     1
 72
     2
 73
     2
 90
        0
 40
-0.6
 41
-30.0
 62
     5
 63
     7
 74
     2
 91
        2
 64
     7
 65
   257
 75
     2
175
     1
 42
40.0
 92
        0
 66
   257
 43
1.0
 76
     1
 77
     6
 78
     2
 67
     7
 79
     3
170
     0
171
     0
290
     0
174
     0
 93
        1
 44
0.0
173
     0
291
     0
 45
0.0
1001
ACAD
1000
AcDbSavedByObjectVersion
1070
     0
  0
VISUALSTYLE
  5
F6
102
{ACAD_REACTORS
330
EF
102
}
330
EF
100
AcDbVisualStyle
  2
3dWireframe
 70
     5
 71
     0
 72
     2
 73
     1
 90
        0
 40
-0.6
 41
-30.0
 62
     5
 63
     7
 74
     1
 91
        4
 64
     7
 65
   257
 75
     1
175
     1
 42
1.0
 92
        0
 66
   257
 43
1.0
 76
     1
 77
     6
 78
     2
 67
     7
 79
     5
170
     0
171
     0
290
     0
174
     0
 93
        1
 44
0.0
173
     0
291
     0
 45
0.0
1001
ACAD
1000
AcDbSavedByObjectVersion
1070
     0
  0
VISUALSTYLE
  5
F4
102
{ACAD_REACTORS
330
EF
102
}
330
EF
100
AcDbVisualStyle
  2
Basic
 70
     7
 71
     1
 72
     0
 73
     1
 90
        0
 40
-0.6
 41
-30.0
 62
     5
 63
     7
 74
     0
 91
        4
 64
     7
 65
   257
 75
     1
175
     1
 42
1.0
 92
        8
 66
     7
 43
1.0
 76
     1
 77
     6
 78
     2
 67
     7
 79
     5
170
     0
171
     0
290
     0
174
     0
 93
        1
 44
0.0
173
     0
291
     1
 45
0.0
1001
ACAD
1000
AcDbSavedByObjectVersion
1070
     0
  0
VISUALSTYLE
  5
FB
102
{ACAD_REACTORS
330
EF
102
}
330
EF
100
AcDbVisualStyle
  2
Brighten
 70
    12
 71
     2
 72
     2
 73
     1
 90
        0
 40
-0.6
 41
-30.0
 62
     5
 63
     7
 74
     1
 91
        4
 64
     7
 65
   257
 75
     1
175
     1
 42
1.0
 92
        8
 66
     7
 43
1.0
 76
     1
 77
     6
 78
     2
 67
     7
 79
     5
170
     0
171
     0
290
     0
174
     0
 93
        1
 44
50.0
173
     0
291
     1
 45
0.0
1001
ACAD
1000
AcDbSavedByObjectVersion
1070
     0
  0
VISUALSTYLE
  5
FF
102
{ACAD_REACTORS
330
EF
102
}
330
EF
100
AcDbVisualStyle
  2
ColorChange
 70
    16
 71
     2
 72
     2
 73
     3
 90
        0
 40
-0.6
 41
-30.0
 62
     5
 63
     8
 74
     1
 91
        4
 64
     7
 65
   257
 75
     1
175
     1
 42
1.0
 92
        8
 66
     8
 43
1.0
 76
     1
 77
     6
 78
     2
 67
     7
 79
     5
170
     0
171
     0
290
     0
174
     0
 93
        1
 44
0.0
173
     0
291
     1
 45
0.0
1001
ACAD
1000
AcDbSavedByObjectVersion
1070
     0
  0
VISUALSTYLE
  5
F8
102
{ACAD_REACTORS
330
EF
102
}
330
EF
100
AcDbVisualStyle
  2
Conceptual
 70
     9
 71
     3
 72
     2
 73
     1
 90
        0
 40
-0.6
 41
-30.0
 62
     5
 63
     7
 74
     2
 91
        2
 64
     7
 65
   257
 75
     1
175
     1
 42
40.0
 92
        8
 66
     7
 43
1.0
 76
     1
 77
     6
 78
     2
 67
     7
 79
     3
170
     0
171
     0
290
     0
174
     0
 93
        1
 44
0.0
173
     0
291
     0
 45
0.0
1001
ACAD
1000
AcDbSavedByObjectVersion
1070
     0
  0
VISUALSTYLE
  5
FA
102
{ACAD_REACTORS
330
EF
102
}
330
EF
100
AcDbVisualStyle
  2
Dim
 70
    11
 71
     2
 72
     2
 73
     1
 90
        0
 40
-0.6
 41
-30.0
 62
     5
 63
     7
 74
     1
 91
        4
 64
     7
 65
   257
 75
     1
175
     1
 42
1.0
 92
        8
 66
     7
 43
1.0
 76
     1
 77
     6
 78
     2
 67
     7
 79
     5
170
     0
171
     0
290
     0
174
     0
 93
        1
 44
-50.0
173
     0
291
     1
 45
0.0
1001
ACAD
1000
AcDbSavedByObjectVersion
1070
     0
  0
VISUALSTYLE
  5
FE
102
{ACAD_REACTORS
330
EF
102
}
330
EF
100
AcDbVisualStyle
  2
Facepattern
 70
    15
 71
     2
 72
     2
 73
     1
 90
        0
 40
-0.6
 41
-30.0
 62
     5
 63
     7
 74
     1
 91
        4
 64
     7
 65
   257
 75
     1
175
     1
 42
1.0
 92
        8
 66
     7
 43
1.0
 76
     1
 77
     6
 78
     2
 67
     7
 79
     5
170
     0
171
     0
290
     0
174
     0
 93
        1
 44
0.0
173
     0
291
     1
 45
0.0
1001
ACAD
1000
AcDbSavedByObjectVersion
1070
     0
  0
VISUALSTYLE
  5
F0
102
{ACAD_REACTORS
330
EF
102
}
330
EF
100
AcDbVisualStyle
  2
Flat
 70
     0
 71
     2
 72
     1
 73
     1
 90
        2
 40
-0.6
 41
30.0
 62
     5
 63
     7
 74
     0
 91
        4
 64
     7
 65
   257
 75
     1
175
     1
 42
1.0
 92
        8
 66
     7
 43
1.0
 76
     1
 77
     6
 78
     2
 67
     7
 79
     5
170
     0
171
     0
290
     0
174
     0
 93
        1
 44
0.0
173
     0
291
     1
 45
0.0
1001
ACAD
1000
AcDbSavedByObjectVersion
1070
     0
  0
VISUALSTYLE
  5
F1
102
{ACAD_REACTORS
330
EF
102
}
330
EF
100
AcDbVisualStyle
  2
FlatWithEdges
 70
     1
 71
     2
 72
     1
 73
     1
 90
        2
 40
-0.6
 41
30.0
 62
     5
 63
     7
 74
     1
 91
        4
 64
     7
 65
   257
 75
     1
175
     1
 42
1.0
 92
        0
 66
   257
 43
1.0
 76
     1
 77
     6
 78
     2
 67
     7
 79
     5
170
     0
171
     0
290
     0
174
     0
 93
        1
 44
0.0
173
     0
291
     1
 45
0.0
1001
ACAD
1000
AcDbSavedByObjectVersion
1070
     0
  0
VISUALSTYLE
  5
F2
102
{ACAD_REACTORS
330
EF
102
}
330
EF
100
AcDbVisualStyle
  2
Gouraud
 70
     2
 71
     2
 72
     2
 73
     1
 90
        2
 40
-0.6
 41
30.0
 62
     5
 63
     7
 74
     0
 91
        4
 64
     7
 65
   257
 75
     1
175
     1
 42
1.0
 92
        0
 66
     7
 43
1.0
 76
     1
 77
     6
 78
     2
 67
     7
 79
     5
170
     0
171
     0
290
     0
174
     0
 93
        1
 44
0.0
173
     0
291
     1
 45
0.0
1001
ACAD
1000
AcDbSavedByObjectVersion
1070
     0
  0
VISUALSTYLE
  5
F3
102
{ACAD_REACTORS
330
EF
102
}
330
EF
100
AcDbVisualStyle
  2
GouraudWithEdges
 70
     3
 71
     2
 72
     2
 73
     1
 90
        2
 40
-0.6
 41
30.0
 62
     5
 63
     7
 74
     1
 91
        4
 64
     7
 65
   257
 75
     1
175
     1
 42
1.0
 92
        0
 66
   257
 43
1.0
 76
     1
 77
     6
 78
     2
 67
     7
 79
     5
170
     0
171
     0
290
     0
174
     0
 93
        1
 44
0.0
173
     0
291
     1
 45
0.0
1001
ACAD
1000
AcDbSavedByObjectVersion
1070
     0
  0
VISUALSTYLE
  5
FD
102
{ACAD_REACTORS
330
EF
102
}
330
EF
100
AcDbVisualStyle
  2
Linepattern
 70
    14
 71
     2
 72
     2
 73
     1
 90
        0
 40
-0.6
 41
-30.0
 62
     5
 63
     7
 74
     1
 91
        4
 64
     7
 65
   257
 75
     7
175
     7
 42
1.0
 92
        8
 66
     7
 43
1.0
 76
     1
 77
     6
 78
     2
 67
     7
 79
     5
170
     0
171
     0
290
     0
174
     0
 93
        1
 44
0.0
173
     0
291
     1
 45
0.0
1001
ACAD
1000
AcDbSavedByObjectVersion
1070
     0
  0
VISUALSTYLE
  5
F9
102
{ACAD_REACTORS
330
EF
102
}
330
EF
100
AcDbVisualStyle
  2
Realistic
 70
     8
 71
     2
 72
     2
 73
     1
 90
        0
 40
-0.6
 41
-30.0
 62
     5
 63
     7
 74
     1
 91
        0
 64
     7
 65
   257
 75
     1
175
     1
 42
1.0
 92
        8
 66
     8
 43
1.0
 76
     1
 77
     6
 78
     2
 67
     7
 79
     5
170
     0
171
     0
290
     0
174
     0
 93
       13
 44
0.0
173
     0
291
     0
 45
0.0
1001
ACAD
1000
AcDbSavedByObjectVersion
1070
     0
  0
VISUALSTYLE
  5
FC
102
{ACAD_REACTORS
330
EF
102
}
330
EF
100
AcDbVisualStyle
  2
Thicken
 70
    13
 71
     2
 72
     2
 73
     1
 90
        0
 40
-0.6
 41
-30.0
 62
     5
 63
     7
 74
     1
 91
        4
 64
     7
 65
   257
 75
     1
175
     1
 42
1.0
 92
       12
 66
     7
 43
1.0
 76
     1
 77
     6
 78
     2
 67
     7
 79
     5
170
     0
171
     0
290
     0
174
     0
 93
        1
 44
0.0
173
     0
291
     1
 45
0.0
1001
ACAD
1000
AcDbSavedByObjectVersion
1070
     0
  0
DICTIONARYVAR
  5
146
102
{ACAD_REACTORS
330
5E
102
}
330
5E
100
DictionaryVariables
280
     0
  1
1:1
  0
DICTIONARYVAR
  5
145
102
{ACAD_REACTORS
330
5E
102
}
330
5E
100
DictionaryVariables
280
     0
  1
STANDARD
  0
DICTIONARYVAR
  5
84
102
{ACAD_REACTORS
330
5E
102
}
330
5E
100
DictionaryVariables
280
     0
  1
STANDARD
  0
DICTIONARYVAR
  5
5F
102
{ACAD_REACTORS
330
5E
102
}
330
5E
100
DictionaryVariables
280
     0
  1
2
  0
DICTIONARYVAR
  5
63
102
{ACAD_REACTORS
330
5E
102
}
330
5E
100
DictionaryVariables
280
     0
  1
1
  0
DICTIONARYVAR
  5
764
102
{ACAD_REACTORS
330
5E
102
}
330
5E
100
DictionaryVariables
280
     0
  1
0
  0
DICTIONARYVAR
  5
762
102
{ACAD_REACTORS
330
5E
102
}
330
5E
100
DictionaryVariables
280
     0
  1
2
  0
DICTIONARYVAR
  5
761
102
{ACAD_REACTORS
330
5E
102
}
330
5E
100
DictionaryVariables
280
     0
  1
1
  0
DICTIONARYVAR
  5
766
102
{ACAD_REACTORS
330
5E
102
}
330
5E
100
DictionaryVariables
280
     0
  1
80.000000
  0
DICTIONARYVAR
  5
765
102
{ACAD_REACTORS
330
5E
102
}
330
5E
100
DictionaryVariables
280
     0
  1
5.000000
  0
DICTIONARYVAR
  5
763
102
{ACAD_REACTORS
330
5E
102
}
330
5E
100
DictionaryVariables
280
     0
  1
127
  0
DICTIONARY
  5
76C
330
D3
100
AcDbDictionary
280
     1
281
     1
  3
ACAD_XREC_ROUNDTRIP
360
76D
  0
DICTIONARY
  5
76E
330
D7
100
AcDbDictionary
280
     1
281
     1
  3
ACAD_XREC_ROUNDTRIP
360
76F
  0
DICTIONARY
  5
769
330
22
100
AcDbDictionary
280
     1
281
     1
  3
ACAD_XREC_ROUNDTRIP
360
76A
  0
DICTIONARY
  5
772
330
ED
100
AcDbDictionary
280
     1
281
     1
  3
ACAD_XREC_ROUNDTRIP
360
773
  0
DICTIONARY
  5
770
330
EC
100
AcDbDictionary
280
     1
281
     1
  3
ACAD_XREC_ROUNDTRIP
360
771
  0
DICTIONARY
  5
173
330
EE
100
AcDbDictionary
280
     1
281
     1
  3
ACAD_XREC_ROUNDTRIP
360
774
  3
BUMPTILE
360
175
  3
DIFFUSETILE
360
174
  3
OPACITYTILE
360
176
  3
REFLECTIONTILE
360
177
  0
DICTIONARY
  5
162
330
7F
100
AcDbDictionary
280
     1
281
     1
  3
ACAD_ROUNDTRIP_2008_TABLESTYLE_CELLSTYLEMAP
360
767
  3
ACAD_XREC_ROUNDTRIP
360
76B
  0
XRECORD
  5
76D
102
{ACAD_REACTORS
330
76C
102
}
330
76C
100
AcDbXrecord
280
     1
102
SHADEPLOT
 70
     0
102
SHADEPLOTRESLEVEL
 70
     2
102
SHADEPLOTCUSTOMDPI
 70
   300
  0
XRECORD
  5
76F
102
{ACAD_REACTORS
330
76E
102
}
330
76E
100
AcDbXrecord
280
     1
102
SHADEPLOT
 70
     0
102
SHADEPLOTRESLEVEL
 70
     2
102
SHADEPLOTCUSTOMDPI
 70
   300
  0
XRECORD
  5
76A
102
{ACAD_REACTORS
330
769
102
}
330
769
100
AcDbXrecord
280
     1
102
SHADEPLOT
 70
     0
102
SHADEPLOTRESLEVEL
 70
     2
102
SHADEPLOTCUSTOMDPI
 70
   300
  0
XRECORD
  5
773
102
{ACAD_REACTORS
330
772
102
}
330
772
100
AcDbXrecord
280
     1
102
MATERIAL
148
0.0
149
0.0
149
0.0
 93
        0
 94
       63
282
     0
 72
     1
 77
     1
171
     1
175
     1
179
     1
273
     0
  0
XRECORD
  5
771
102
{ACAD_REACTORS
330
770
102
}
330
770
100
AcDbXrecord
280
     1
102
MATERIAL
148
0.0
149
0.0
149
0.0
 93
        0
 94
       63
282
     0
 72
     1
 77
     1
171
     1
175
     1
179
     1
273
     0
  0
XRECORD
  5
774
102
{ACAD_REACTORS
330
173
102
}
330
173
100
AcDbXrecord
280
     1
102
MATERIAL
148
0.0
149
0.0
149
0.0
 93
        0
 94
       63
282
     0
 72
     1
 77
     1
171
     1
175
     1
179
     1
273
     0
  0
XRECORD
  5
175
102
{ACAD_REACTORS
330
173
102
}
330
173
100
AcDbXrecord
280
     1
270
     1
271
     1
  0
XRECORD
  5
174
102
{ACAD_REACTORS
330
173
102
}
330
173
100
AcDbXrecord
280
     1
270
     1
271
     1
  0
XRECORD
  5
176
102
{ACAD_REACTORS
330
173
102
}
330
173
100
AcDbXrecord
280
     1
270
     1
271
     1
  0
XRECORD
  5
177
102
{ACAD_REACTORS
330
173
102
}
330
173
100
AcDbXrecord
280
     1
270
     1
271
     1
  0
CELLSTYLEMAP
  5
767
102
{ACAD_REACTORS
330
162
102
}
330
162
100
AcDbCellStyleMap
 90
        3
300
CELLSTYLE
  1
TABLEFORMAT_BEGIN
 90
        5
170
     1
 91
        0
 92
    32768
 62
   257
 93
        1
300
CONTENTFORMAT
  1
CONTENTFORMAT_BEGIN
 90
        0
 91
        0
 92
      512
 93
        0
300

 40
0.0
140
1.0
 94
        5
 62
     0
340
11
144
6.0
309
CONTENTFORMAT_END
171
     1
301
MARGIN
  1
CELLMARGIN_BEGIN
 40
1.5
 40
1.5
 40
1.5
 40
1.5
 40
4.5
 40
4.5
309
CELLMARGIN_END
 94
        6
 95
        1
302
GRIDFORMAT
  1
GRIDFORMAT_BEGIN
 90
        0
 91
        1
 62
     0
 92
       -2
340
14
 93
        0
 40
1.125
309
GRIDFORMAT_END
 95
        2
302
GRIDFORMAT
  1
GRIDFORMAT_BEGIN
 90
        0
 91
        1
 62
     0
 92
       -2
340
14
 93
        0
 40
1.125
309
GRIDFORMAT_END
 95
        4
302
GRIDFORMAT
  1
GRIDFORMAT_BEGIN
 90
        0
 91
        1
 62
     0
 92
       -2
340
14
 93
        0
 40
1.125
309
GRIDFORMAT_END
 95
        8
302
GRIDFORMAT
  1
GRIDFORMAT_BEGIN
 90
        0
 91
        1
 62
     0
 92
       -2
340
14
 93
        0
 40
1.125
309
GRIDFORMAT_END
 95
       16
302
GRIDFORMAT
  1
GRIDFORMAT_BEGIN
 90
        0
 91
        1
 62
     0
 92
       -2
340
14
 93
        0
 40
1.125
309
GRIDFORMAT_END
 95
       32
302
GRIDFORMAT
  1
GRIDFORMAT_BEGIN
 90
        0
 91
        1
 62
     0
 92
       -2
340
14
 93
        0
 40
1.125
309
GRIDFORMAT_END
309
TABLEFORMAT_END
  1
CELLSTYLE_BEGIN
 90
        1
 91
        1
300
_TITLE
309
CELLSTYLE_END
300
CELLSTYLE
  1
TABLEFORMAT_BEGIN
 90
        5
170
     1
 91
        0
 92
        0
 62
   257
 93
        1
300
CONTENTFORMAT
  1
CONTENTFORMAT_BEGIN
 90
        0
 91
        0
 92
      512
 93
        0
300

 40
0.0
140
1.0
 94
        5
 62
     0
340
11
144
4.5
309
CONTENTFORMAT_END
171
     1
301
MARGIN
  1
CELLMARGIN_BEGIN
 40
1.5
 40
1.5
 40
1.5
 40
1.5
 40
4.5
 40
4.5
309
CELLMARGIN_END
 94
        6
 95
        1
302
GRIDFORMAT
  1
GRIDFORMAT_BEGIN
 90
        0
 91
        1
 62
     0
 92
       -2
340
14
 93
        0
 40
1.125
309
GRIDFORMAT_END
 95
        2
302
GRIDFORMAT
  1
GRIDFORMAT_BEGIN
 90
        0
 91
        1
 62
     0
 92
       -2
340
14
 93
        0
 40
1.125
309
GRIDFORMAT_END
 95
        4
302
GRIDFORMAT
  1
GRIDFORMAT_BEGIN
 90
        0
 91
        1
 62
     0
 92
       -2
340
14
 93
        0
 40
1.125
309
GRIDFORMAT_END
 95
        8
302
GRIDFORMAT
  1
GRIDFORMAT_BEGIN
 90
        0
 91
        1
 62
     0
 92
       -2
340
14
 93
        0
 40
1.125
309
GRIDFORMAT_END
 95
       16
302
GRIDFORMAT
  1
GRIDFORMAT_BEGIN
 90
        0
 91
        1
 62
     0
 92
       -2
340
14
 93
        0
 40
1.125
309
GRIDFORMAT_END
 95
       32
302
GRIDFORMAT
  1
GRIDFORMAT_BEGIN
 90
        0
 91
        1
 62
     0
 92
       -2
340
14
 93
        0
 40
1.125
309
GRIDFORMAT_END
309
TABLEFORMAT_END
  1
CELLSTYLE_BEGIN
 90
        2
 91
        1
300
_HEADER
309
CELLSTYLE_END
300
CELLSTYLE
  1
TABLEFORMAT_BEGIN
 90
        5
170
     1
 91
        0
 92
        0
 62
   257
 93
        1
300
CONTENTFORMAT
  1
CONTENTFORMAT_BEGIN
 90
        0
 91
        0
 92
      512
 93
        0
300

 40
0.0
140
1.0
 94
        2
 62
     0
340
11
144
4.5
309
CONTENTFORMAT_END
171
     1
301
MARGIN
  1
CELLMARGIN_BEGIN
 40
1.5
 40
1.5
 40
1.5
 40
1.5
 40
4.5
 40
4.5
309
CELLMARGIN_END
 94
        6
 95
        1
302
GRIDFORMAT
  1
GRIDFORMAT_BEGIN
 90
        0
 91
        1
 62
     0
 92
       -2
340
14
 93
        0
 40
1.125
309
GRIDFORMAT_END
 95
        2
302
GRIDFORMAT
  1
GRIDFORMAT_BEGIN
 90
        0
 91
        1
 62
     0
 92
       -2
340
14
 93
        0
 40
1.125
309
GRIDFORMAT_END
 95
        4
302
GRIDFORMAT
  1
GRIDFORMAT_BEGIN
 90
        0
 91
        1
 62
     0
 92
       -2
340
14
 93
        0
 40
1.125
309
GRIDFORMAT_END
 95
        8
302
GRIDFORMAT
  1
GRIDFORMAT_BEGIN
 90
        0
 91
        1
 62
     0
 92
       -2
340
14
 93
        0
 40
1.125
309
GRIDFORMAT_END
 95
       16
302
GRIDFORMAT
  1
GRIDFORMAT_BEGIN
 90
        0
 91
        1
 62
     0
 92
       -2
340
14
 93
        0
 40
1.125
309
GRIDFORMAT_END
 95
       32
302
GRIDFORMAT
  1
GRIDFORMAT_BEGIN
 90
        0
 91
        1
 62
     0
 92
       -2
340
14
 93
        0
 40
1.125
309
GRIDFORMAT_END
309
TABLEFORMAT_END
  1
CELLSTYLE_BEGIN
 90
        3
 91
        2
300
_DATA
309
CELLSTYLE_END
  0
XRECORD
  5
76B
102
{ACAD_REACTORS
330
162
102
}
330
162
100
AcDbXrecord
280
     1
102
ACAD_ROUNDTRIP_PRE2007_TABLESTYLE
 90
      512
 91
        0
  1

 92
      512
 93
        0
  2

 94
      512
 95
        0
  3

  0
ENDSEC
  0
EOF
