  0
SECTION
  2
HEADER
  9
$ACADVER
  1
AC1015
  9
$ACADMAINTVER
 70
    20
  9
$DWGCODEPAGE
  3
ANSI_1254
  9
$INSBASE
 10
0.0
 20
0.0
 30
0.0
  9
$EXTMIN
 10
2308.950119650679
 20
845.2297388514278
 30
0.0
  9
$EXTMAX
 10
2381.735176062125
 20
898.7752223299397
 30
0.0
  9
$LIMMIN
 10
0.0
 20
0.0
  9
$LIMMAX
 10
420.0
 20
297.0
  9
$ORTHOMODE
 70
     0
  9
$REGENMODE
 70
     1
  9
$FILLMODE
 70
     1
  9
$QTEXTMODE
 70
     0
  9
$MIRRTEXT
 70
     0
  9
$LTSCALE
 40
1.0
  9
$ATTMODE
 70
     1
  9
$TEXTSIZE
 40
2.5
  9
$TRACEWID
 40
1.0
  9
$TEXTSTYLE
  7
Standard
  9
$CLAYER
  8
0
  9
$CELTYPE
  6
ByLayer
  9
$CECOLOR
 62
   256
  9
$CELTSCALE
 40
1.0
  9
$DISPSILH
 70
     0
  9
$DIMSCALE
 40
1.0
  9
$DIMASZ
 40
2.5
  9
$DIMEXO
 40
0.625
  9
$DIMDLI
 40
3.75
  9
$DIMRND
 40
0.0
  9
$DIMDLE
 40
0.0
  9
$DIMEXE
 40
1.25
  9
$DIMTP
 40
0.0
  9
$DIMTM
 40
0.0
  9
$DIMTXT
 40
2.5
  9
$DIMCEN
 40
2.5
  9
$DIMTSZ
 40
0.0
  9
$DIMTOL
 70
     0
  9
$DIMLIM
 70
     0
  9
$DIMTIH
 70
     0
  9
$DIMTOH
 70
     0
  9
$DIMSE1
 70
     0
  9
$DIMSE2
 70
     0
  9
$DIMTAD
 70
     1
  9
$DIMZIN
 70
     8
  9
$DIMBLK
  1

  9
$DIMASO
 70
     1
  9
$DIMSHO
 70
     1
  9
$DIMPOST
  1

  9
$DIMAPOST
  1

  9
$DIMALT
 70
     0
  9
$DIMALTD
 70
     3
  9
$DIMALTF
 40
0.03937007874016
  9
$DIMLFAC
 40
1.0
  9
$DIMTOFL
 70
     1
  9
$DIMTVP
 40
0.0
  9
$DIMTIX
 70
     0
  9
$DIMSOXD
 70
     0
  9
$DIMSAH
 70
     0
  9
$DIMBLK1
  1

  9
$DIMBLK2
  1

  9
$DIMSTYLE
  2
ISO-25
  9
$DIMCLRD
 70
     0
  9
$DIMCLRE
 70
     0
  9
$DIMCLRT
 70
     0
  9
$DIMTFAC
 40
1.0
  9
$DIMGAP
 40
0.625
  9
$DIMJUST
 70
     0
  9
$DIMSD1
 70
     0
  9
$DIMSD2
 70
     0
  9
$DIMTOLJ
 70
     0
  9
$DIMTZIN
 70
     8
  9
$DIMALTZ
 70
     0
  9
$DIMALTTZ
 70
     0
  9
$DIMUPT
 70
     0
  9
$DIMDEC
 70
     2
  9
$DIMTDEC
 70
     2
  9
$DIMALTU
 70
     2
  9
$DIMALTTD
 70
     3
  9
$DIMTXSTY
  7
Standard
  9
$DIMAUNIT
 70
     0
  9
$DIMADEC
 70
     0
  9
$DIMALTRND
 40
0.0
  9
$DIMAZIN
 70
     0
  9
$DIMDSEP
 70
    44
  9
$DIMATFIT
 70
     3
  9
$DIMFRAC
 70
     0
  9
$DIMLDRBLK
  1

  9
$DIMLUNIT
 70
     2
  9
$DIMLWD
 70
    -2
  9
$DIMLWE
 70
    -2
  9
$DIMTMOVE
 70
     0
  9
$LUNITS
 70
     2
  9
$LUPREC
 70
     4
  9
$SKETCHINC
 40
1.0
  9
$FILLETRAD
 40
0.0
  9
$AUNITS
 70
     0
  9
$AUPREC
 70
     0
  9
$MENU
  1
.
  9
$ELEVATION
 40
0.0
  9
$PELEVATION
 40
0.0
  9
$THICKNESS
 40
0.0
  9
$LIMCHECK
 70
     0
  9
$CHAMFERA
 40
0.0
  9
$CHAMFERB
 40
0.0
  9
$CHAMFERC
 40
0.0
  9
$CHAMFERD
 40
0.0
  9
$SKPOLY
 70
     0
  9
$TDCREATE
 40
2458932.677297199
  9
$TDUCREATE
 40
2458932.552297199
  9
$TDUPDATE
 40
2458956.445789769
  9
$TDUUPDATE
 40
2458956.320789769
  9
$TDINDWG
 40
0.0003860417
  9
$TDUSRTIMER
 40
0.0003860417
  9
$USRTIMER
 70
     1
  9
$ANGBASE
 50
0.0
  9
$ANGDIR
 70
     0
  9
$PDMODE
 70
     0
  9
$PDSIZE
 40
0.0
  9
$PLINEWID
 40
0.0
  9
$SPLFRAME
 70
     0
  9
$SPLINETYPE
 70
     6
  9
$SPLINESEGS
 70
     8
  9
$HANDSEED
  5
646
  9
$SURFTAB1
 70
     6
  9
$SURFTAB2
 70
     6
  9
$SURFTYPE
 70
     6
  9
$SURFU
 70
     6
  9
$SURFV
 70
     6
  9
$UCSBASE
  2

  9
$UCSNAME
  2

  9
$UCSORG
 10
0.0
 20
0.0
 30
0.0
  9
$UCSXDIR
 10
1.0
 20
0.0
 30
0.0
  9
$UCSYDIR
 10
0.0
 20
1.0
 30
0.0
  9
$UCSORTHOREF
  2

  9
$UCSORTHOVIEW
 70
     0
  9
$UCSORGTOP
 10
0.0
 20
0.0
 30
0.0
  9
$UCSORGBOTTOM
 10
0.0
 20
0.0
 30
0.0
  9
$UCSORGLEFT
 10
0.0
 20
0.0
 30
0.0
  9
$UCSORGRIGHT
 10
0.0
 20
0.0
 30
0.0
  9
$UCSORGFRONT
 10
0.0
 20
0.0
 30
0.0
  9
$UCSORGBACK
 10
0.0
 20
0.0
 30
0.0
  9
$PUCSBASE
  2

  9
$PUCSNAME
  2

  9
$PUCSORG
 10
0.0
 20
0.0
 30
0.0
  9
$PUCSXDIR
 10
1.0
 20
0.0
 30
0.0
  9
$PUCSYDIR
 10
0.0
 20
1.0
 30
0.0
  9
$PUCSORTHOREF
  2

  9
$PUCSORTHOVIEW
 70
     0
  9
$PUCSORGTOP
 10
0.0
 20
0.0
 30
0.0
  9
$PUCSORGBOTTOM
 10
0.0
 20
0.0
 30
0.0
  9
$PUCSORGLEFT
 10
0.0
 20
0.0
 30
0.0
  9
$PUCSORGRIGHT
 10
0.0
 20
0.0
 30
0.0
  9
$PUCSORGFRONT
 10
0.0
 20
0.0
 30
0.0
  9
$PUCSORGBACK
 10
0.0
 20
0.0
 30
0.0
  9
$USERI1
 70
     0
  9
$USERI2
 70
     0
  9
$USERI3
 70
     0
  9
$USERI4
 70
     0
  9
$USERI5
 70
     0
  9
$USERR1
 40
0.0
  9
$USERR2
 40
0.0
  9
$USERR3
 40
0.0
  9
$USERR4
 40
0.0
  9
$USERR5
 40
0.0
  9
$WORLDVIEW
 70
     1
  9
$SHADEDGE
 70
     3
  9
$SHADEDIF
 70
    70
  9
$TILEMODE
 70
     1
  9
$MAXACTVP
 70
    64
  9
$PINSBASE
 10
0.0
 20
0.0
 30
0.0
  9
$PLIMCHECK
 70
     0
  9
$PEXTMIN
 10
0.0
 20
0.0
 30
0.0
  9
$PEXTMAX
 10
0.0
 20
0.0
 30
0.0
  9
$PLIMMIN
 10
0.0
 20
0.0
  9
$PLIMMAX
 10
12.0
 20
9.0
  9
$UNITMODE
 70
     0
  9
$VISRETAIN
 70
     1
  9
$PLINEGEN
 70
     0
  9
$PSLTSCALE
 70
     1
  9
$TREEDEPTH
 70
  3020
  9
$CMLSTYLE
  2
Standard
  9
$CMLJUST
 70
     0
  9
$CMLSCALE
 40
20.0
  9
$PROXYGRAPHICS
 70
     1
  9
$MEASUREMENT
 70
     1
  9
$CELWEIGHT
370
    -1
  9
$ENDCAPS
280
     0
  9
$JOINSTYLE
280
     0
  9
$LWDISPLAY
290
     0
  9
$INSUNITS
 70
     4
  9
$HYPERLINKBASE
  1

  9
$STYLESHEET
  1

  9
$XEDIT
290
     1
  9
$CEPSNTYPE
380
     0
  9
$PSTYLEMODE
290
     1
  9
$FINGERPRINTGUID
  2
{3A5F6740-BBF6-4C27-B592-F118CD9EEFF6}
  9
$VERSIONGUID
  2
{19EC8C95-774E-4D3F-8EC0-E1977D32BCCE}
  9
$EXTNAMES
290
     1
  9
$PSVPSCALE
 40
0.0
  9
$OLESTARTUP
290
     0
  0
ENDSEC
  0
SECTION
  2
CLASSES
  0
CLASS
  1
ACDBDICTIONARYWDFLT
  2
AcDbDictionaryWithDefault
  3
ObjectDBX Classes
 90
        0
280
     0
281
     0
  0
CLASS
  1
ACDBPLACEHOLDER
  2
AcDbPlaceHolder
  3
ObjectDBX Classes
 90
        0
280
     0
281
     0
  0
CLASS
  1
LAYOUT
  2
AcDbLayout
  3
ObjectDBX Classes
 90
        0
280
     0
281
     0
  0
CLASS
  1
DICTIONARYVAR
  2
AcDbDictionaryVar
  3
ObjectDBX Classes
 90
        0
280
     0
281
     0
  0
CLASS
  1
TABLESTYLE
  2
AcDbTableStyle
  3
ObjectDBX Classes
 90
     4095
280
     0
281
     0
  0
CLASS
  1
MATERIAL
  2
AcDbMaterial
  3
ObjectDBX Classes
 90
     1153
280
     0
281
     0
  0
CLASS
  1
VISUALSTYLE
  2
AcDbVisualStyle
  3
ObjectDBX Classes
 90
     4095
280
     0
281
     0
  0
CLASS
  1
SCALE
  2
AcDbScale
  3
ObjectDBX Classes
 90
     1153
280
     0
281
     0
  0
CLASS
  1
MLEADERSTYLE
  2
AcDbMLeaderStyle
  3
ACDB_MLEADERSTYLE_CLASS
 90
     4095
280
     0
281
     0
  0
CLASS
  1
CELLSTYLEMAP
  2
AcDbCellStyleMap
  3
ObjectDBX Classes
 90
     1152
280
     0
281
     0
  0
ENDSEC
  0
SECTION
  2
TABLES
  0
TABLE
  2
VPORT
  5
8
330
0
100
AcDbSymbolTable
 70
     1
  0
VPORT
  5
EA
330
8
100
AcDbSymbolTableRecord
100
AcDbViewportTableRecord
  2
*Active
 70
     0
 10
0.0
 20
0.0
 11
1.0
 21
1.0
 12
2357.468456781617
 22
879.2070505298351
 13
0.0
 23
0.0
 14
10.0
 24
10.0
 15
10.0
 25
10.0
 16
0.0
 26
0.0
 36
1.0
 17
0.0
 27
0.0
 37
0.0
 40
96.26730677326102
 41
1.903110047846889
 42
50.0
 43
0.0
 44
0.0
 50
0.0
 51
0.0
 71
     0
 72
  1000
 73
     1
 74
     3
 75
     0
 76
     0
 77
     0
 78
     0
281
     0
 65
     1
110
0.0
120
0.0
130
0.0
111
1.0
121
0.0
131
0.0
112
0.0
122
1.0
132
0.0
 79
     0
146
0.0
  0
ENDTAB
  0
TABLE
  2
LTYPE
  5
5
330
0
100
AcDbSymbolTable
 70
     1
  0
LTYPE
  5
14
330
5
100
AcDbSymbolTableRecord
100
AcDbLinetypeTableRecord
  2
ByBlock
 70
     0
  3

 72
    65
 73
     0
 40
0.0
  0
LTYPE
  5
15
330
5
100
AcDbSymbolTableRecord
100
AcDbLinetypeTableRecord
  2
ByLayer
 70
     0
  3

 72
    65
 73
     0
 40
0.0
  0
LTYPE
  5
16
330
5
100
AcDbSymbolTableRecord
100
AcDbLinetypeTableRecord
  2
Continuous
 70
     0
  3
Solid line
 72
    65
 73
     0
 40
0.0
  0
ENDTAB
  0
TABLE
  2
LAYER
  5
2
330
0
100
AcDbSymbolTable
 70
     1
  0
LAYER
  5
10
102
{ACAD_XDICTIONARY
360
13C
102
}
330
2
100
AcDbSymbolTableRecord
100
AcDbLayerTableRecord
  2
0
 70
     0
 62
     7
  6
Continuous
370
    -3
390
F
  0
ENDTAB
  0
TABLE
  2
STYLE
  5
3
330
0
100
AcDbSymbolTable
 70
     2
  0
STYLE
  5
11
330
3
100
AcDbSymbolTableRecord
100
AcDbTextStyleTableRecord
  2
Standard
 70
     0
 40
0.0
 41
1.0
 50
0.0
 71
     0
 42
2.5
  3
txt
  4

  0
STYLE
  5
132
330
3
100
AcDbSymbolTableRecord
100
AcDbTextStyleTableRecord
  2
Annotative
 70
     0
 40
0.0
 41
1.0
 50
0.0
 71
     0
 42
2.5
  3
txt.shx
  4

1001
AcadAnnotative
1000
AnnotativeData
1002
{
1070
     1
1070
     1
1002
}
  0
ENDTAB
  0
TABLE
  2
VIEW
  5
6
330
0
100
AcDbSymbolTable
 70
     0
  0
ENDTAB
  0
TABLE
  2
UCS
  5
7
330
0
100
AcDbSymbolTable
 70
     0
  0
ENDTAB
  0
TABLE
  2
APPID
  5
9
330
0
100
AcDbSymbolTable
 70
     7
  0
APPID
  5
12
330
9
100
AcDbSymbolTableRecord
100
AcDbRegAppTableRecord
  2
ACAD
 70
     0
  0
APPID
  5
9E
330
9
100
AcDbSymbolTableRecord
100
AcDbRegAppTableRecord
  2
ACAD_PSEXT
 70
     0
  0
APPID
  5
133
330
9
100
AcDbSymbolTableRecord
100
AcDbRegAppTableRecord
  2
AcadAnnoPO
 70
     0
  0
APPID
  5
134
330
9
100
AcDbSymbolTableRecord
100
AcDbRegAppTableRecord
  2
AcadAnnotative
 70
     0
  0
APPID
  5
135
330
9
100
AcDbSymbolTableRecord
100
AcDbRegAppTableRecord
  2
ACAD_DSTYLE_DIMJAG
 70
     0
  0
APPID
  5
136
330
9
100
AcDbSymbolTableRecord
100
AcDbRegAppTableRecord
  2
ACAD_DSTYLE_DIMTALN
 70
     0
  0
APPID
  5
165
330
9
100
AcDbSymbolTableRecord
100
AcDbRegAppTableRecord
  2
ACAD_MLEADERVER
 70
     0
  0
ENDTAB
  0
TABLE
  2
DIMSTYLE
  5
A
330
0
100
AcDbSymbolTable
 70
     2
100
AcDbDimStyleTable
 71
     2
340
27
340
137
  0
DIMSTYLE
105
27
330
A
100
AcDbSymbolTableRecord
100
AcDbDimStyleTableRecord
  2
ISO-25
 70
     0
 41
2.5
 42
0.625
 43
3.75
 44
1.25
 73
     0
 74
     0
 77
     1
 78
     8
140
2.5
141
2.5
143
0.03937007874016
147
0.625
171
     3
172
     1
271
     2
272
     2
274
     3
278
    44
283
     0
284
     8
340
11
  0
DIMSTYLE
105
137
330
A
100
AcDbSymbolTableRecord
100
AcDbDimStyleTableRecord
  2
Annotative
 70
     0
 40
0.0
 41
2.5
 42
0.625
 43
3.75
 44
1.25
 73
     0
 74
     0
 77
     1
 78
     8
140
2.5
141
2.5
143
0.03937007874016
147
0.625
171
     3
172
     1
271
     2
272
     2
274
     3
278
    44
283
     0
284
     8
340
11
1001
AcadAnnotative
1000
AnnotativeData
1002
{
1070
     1
1070
     1
1002
}
1001
ACAD_DSTYLE_DIMJAG
1070
   388
1040
1.5
1001
ACAD_DSTYLE_DIMTALN
1070
   392
1070
     0
  0
ENDTAB
  0
TABLE
  2
BLOCK_RECORD
  5
1
330
0
100
AcDbSymbolTable
 70
     5
  0
BLOCK_RECORD
  5
1F
330
1
100
AcDbSymbolTableRecord
100
AcDbBlockTableRecord
  2
*Model_Space
340
22
  0
BLOCK_RECORD
  5
D2
330
1
100
AcDbSymbolTableRecord
100
AcDbBlockTableRecord
  2
*Paper_Space
340
D3
  0
BLOCK_RECORD
  5
D6
330
1
100
AcDbSymbolTableRecord
100
AcDbBlockTableRecord
  2
*Paper_Space0
340
D7
  0
BLOCK_RECORD
  5
4A3
330
1
100
AcDbSymbolTableRecord
100
AcDbBlockTableRecord
  2
1
340
0
310
2800000020000000200000000100080000000000000400000000000000000000000000000000000000000000000080000080000000808000800000008000800080800000C0C0C000C0DCC000F0CAA6000020400000206000002080000020A0000020C0000020E00000400000004020000040400000406000004080000040A0
310
000040C0000040E00000600000006020000060400000606000006080000060A0000060C0000060E00000800000008020000080400000806000008080000080A0000080C0000080E00000A0000000A0200000A0400000A0600000A0800000A0A00000A0C00000A0E00000C0000000C0200000C0400000C0600000C0800000C0
310
A00000C0C00000C0E00000E0000000E0200000E0400000E0600000E0800000E0A00000E0C00000E0E00040000000400020004000400040006000400080004000A0004000C0004000E00040200000402020004020400040206000402080004020A0004020C0004020E000404000004040200040404000404060004040800040
310
40A0004040C0004040E00040600000406020004060400040606000406080004060A0004060C0004060E00040800000408020004080400040806000408080004080A0004080C0004080E00040A0000040A0200040A0400040A0600040A0800040A0A00040A0C00040A0E00040C0000040C0200040C0400040C0600040C08000
310
40C0A00040C0C00040C0E00040E0000040E0200040E0400040E0600040E0800040E0A00040E0C00040E0E00080000000800020008000400080006000800080008000A0008000C0008000E00080200000802020008020400080206000802080008020A0008020C0008020E00080400000804020008040400080406000804080
310
008040A0008040C0008040E00080600000806020008060400080606000806080008060A0008060C0008060E00080800000808020008080400080806000808080008080A0008080C0008080E00080A0000080A0200080A0400080A0600080A0800080A0A00080A0C00080A0E00080C0000080C0200080C0400080C0600080C0
310
800080C0A00080C0C00080C0E00080E0000080E0200080E0400080E0600080E0800080E0A00080E0C00080E0E000C0000000C0002000C0004000C0006000C0008000C000A000C000C000C000E000C0200000C0202000C0204000C0206000C0208000C020A000C020C000C020E000C0400000C0402000C0404000C0406000C0
310
408000C040A000C040C000C040E000C0600000C0602000C0604000C0606000C0608000C060A000C060C000C060E000C0800000C0802000C0804000C0806000C0808000C080A000C080C000C080E000C0A00000C0A02000C0A04000C0A06000C0A08000C0A0A000C0A0C000C0A0E000C0C00000C0C02000C0C04000C0C06000
310
C0C08000C0C0A000F0FBFF00A4A0A000808080000000FF0000FF000000FFFF00FF000000FF00FF00FFFF0000FFFFFF000000000000000000000000000000000000000000000000000000000000000000000000000000FFFF00000000000000FFFF00000000000000FFFF0000000000000000000000FF00FF000000000000FF
310
0000FF000000000000FF00FF00000000000000000000FF0000FF0000000000FF0000FF000000000000FF0000FF0000000000000000FF000000FF0000000000FF0000FF0000000000FF000000FF0000000000000000FF000000FF0000000000FF0000FF0000000000FF000000FF0000000000000000FF000000FF0000000000
310
FF0000FF0000000000FF000000FF0000000000000000FF000000FF0000000000FF0000FF0000000000FF000000FF0000000000000000FF000000FF0000000000FF0000FF0000000000FF000000FF0000000000000000FF000000FF0000000000FF0000FF0000000000FF000000FF0000000000000000FF000000FF00000000
310
00FF0000FF0000000000FF000000FF0000000000000000FFFFFFFFFF0000000000FFFFFFFF0000000000FFFFFFFFFF0000000000000000FFFFFFFFFF0000000000FFFFFFFF0000000000FFFFFFFFFF00000000000000FFFFFFFFFFFFFF000000FFFFFFFFFFFF000000FFFFFFFFFFFFFF000000000000FF0000000000FF0000
310
00FF00000000FF000000FF0000000000FF000000000000FF0000000000FF000000FF00000000FF000000FF0000000000FF000000000000FF0000000000FF000000FF00000000FF000000FF0000000000FF000000000000FF00FFFFFFFFFF0000FF00FFFFFFFF00FF0000FFFFFFFFFF00FF000000000000FF00FFFFFFFFFF00
310
00FF00FFFFFFFF00FF0000FFFFFFFFFF00FF000000000000FF0000000000FF0000FF000000000000FF0000FF0000000000FF000000000000FF0000000000FF0000FF000000000000FF0000FF0000000000FF0000000000FFFF0000000000FFFFFFFF000000000000FFFFFFFF0000000000FFFF00000000FF00000000000000
310
00000000000000000000000000000000000000FF00000000FF0000000000000000000000000000000000000000000000000000FF00000000FF0000000000000000000000000000000000000000000000000000FF00000000FF0000000000000000000000000000000000000000000000000000FF00000000FF000000000000
310
0000000000000000000000000000000000000000FF00000000FF0000000000000000000000000000000000000000000000000000FF00000000FFFFFFFFFFFFFFFFFFFFFFFFFFFFFFFFFFFFFFFFFFFFFFFFFFFFFFFF00000000FF0000000000000000000000000000000000000000000000000000FF00000000FFFFFFFFFFFF
310
FFFFFFFFFFFFFFFFFFFFFFFFFFFFFFFFFFFFFFFFFFFF00000000000000000000000000000000000000000000000000000000000000000000
102
{BLKREFS
331
516
102
}
1001
ACAD
1000
DesignCenter Data
1002
{
1070
     1
1070
     4
1002
}
  0
BLOCK_RECORD
  5
517
330
1
100
AcDbSymbolTableRecord
100
AcDbBlockTableRecord
  2
2
340
0
310
2800000020000000200000000100080000000000000400000000000000000000000000000000000000000000000080000080000000808000800000008000800080800000C0C0C000C0DCC000F0CAA6000020400000206000002080000020A0000020C0000020E00000400000004020000040400000406000004080000040A0
310
000040C0000040E00000600000006020000060400000606000006080000060A0000060C0000060E00000800000008020000080400000806000008080000080A0000080C0000080E00000A0000000A0200000A0400000A0600000A0800000A0A00000A0C00000A0E00000C0000000C0200000C0400000C0600000C0800000C0
310
A00000C0C00000C0E00000E0000000E0200000E0400000E0600000E0800000E0A00000E0C00000E0E00040000000400020004000400040006000400080004000A0004000C0004000E00040200000402020004020400040206000402080004020A0004020C0004020E000404000004040200040404000404060004040800040
310
40A0004040C0004040E00040600000406020004060400040606000406080004060A0004060C0004060E00040800000408020004080400040806000408080004080A0004080C0004080E00040A0000040A0200040A0400040A0600040A0800040A0A00040A0C00040A0E00040C0000040C0200040C0400040C0600040C08000
310
40C0A00040C0C00040C0E00040E0000040E0200040E0400040E0600040E0800040E0A00040E0C00040E0E00080000000800020008000400080006000800080008000A0008000C0008000E00080200000802020008020400080206000802080008020A0008020C0008020E00080400000804020008040400080406000804080
310
008040A0008040C0008040E00080600000806020008060400080606000806080008060A0008060C0008060E00080800000808020008080400080806000808080008080A0008080C0008080E00080A0000080A0200080A0400080A0600080A0800080A0A00080A0C00080A0E00080C0000080C0200080C0400080C0600080C0
310
800080C0A00080C0C00080C0E00080E0000080E0200080E0400080E0600080E0800080E0A00080E0C00080E0E000C0000000C0002000C0004000C0006000C0008000C000A000C000C000C000E000C0200000C0202000C0204000C0206000C0208000C020A000C020C000C020E000C0400000C0402000C0404000C0406000C0
310
408000C040A000C040C000C040E000C0600000C0602000C0604000C0606000C0608000C060A000C060C000C060E000C0800000C0802000C0804000C0806000C0808000C080A000C080C000C080E000C0A00000C0A02000C0A04000C0A06000C0A08000C0A0A000C0A0C000C0A0E000C0C00000C0C02000C0C04000C0C06000
310
C0C08000C0C0A000F0FBFF00A4A0A000808080000000FF0000FF000000FFFF00FF000000FF00FF00FFFF0000FFFFFF0000000000000000000000000000000000000000000000000000000000000000000000000000000000000000000000FFFFFFFF00000000000000000000000000000000000000000000000000000000FF
310
FFFFFF00000000000000000000000000000000000000000000000000000000FF0000FF00000000000000000000000000000000000000000000000000000000FFFFFFFF00000000000000000000000000000000000000000000000000000000FF0000FF00000000000000000000000000000000000000000000000000000000
310
FF0000FF00000000000000000000000000000000000000000000000000000000FF0000FF00000000000000000000000000000000000000000000000000000000FF0000FF00000000000000000000000000000000000000000000000000000000FF0000FF000000000000000000000000000000000000000000000000000000
310
00FF0000FF00000000000000000000000000000000000000000000000000000000FF0000FF0000000000000000000000000000000000000000000000000000000000FFFF0000000000000000000000000000000000000000000000000000000000FFFFFFFF0000000000000000000000000000000000000000000000000000
310
0000FF0000FF00000000000000000000000000000000000000000000000000000000FF0000FF00000000000000000000000000000000000000000000000000000000FFFFFFFF00000000000000000000000000000000000000000000000000000000FFFFFFFF00000000000000000000000000000000000000000000000000
310
0000FFFF0000FFFF000000000000000000000000000000000000000000000000000000FF0000FF00000000000000000000000000000000000000000000000000000000FF0000FF00000000000000000000000000000000000000000000000000000000FFFFFFFF000000000000000000000000000000000000000000000000
310
00000000FF0000FF00000000000000000000000000000000000000000000000000000000FF0000FF00000000000000000000000000000000000000000000000000000000FF0000FF00000000000000000000000000000000000000000000000000000000FF0000FF0000000000000000000000000000000000000000000000
310
0000000000FF0000FF00000000000000000000000000000000000000000000000000000000FF0000FF000000000000000000000000000000000000000000000000000000FFFF0000FFFF0000000000000000000000000000000000000000000000000000FF00000000FF000000000000000000000000000000000000000000
310
0000000000FFFFFFFFFFFF000000000000000000000000000000000000000000000000000000000000000000000000000000000000000000
102
{BLKREFS
331
549
102
}
1001
ACAD
1000
DesignCenter Data
1002
{
1070
     1
1070
     4
1002
}
  0
BLOCK_RECORD
  5
54A
330
1
100
AcDbSymbolTableRecord
100
AcDbBlockTableRecord
  2
3
340
0
310
2800000020000000200000000100080000000000000400000000000000000000000000000000000000000000000080000080000000808000800000008000800080800000C0C0C000C0DCC000F0CAA6000020400000206000002080000020A0000020C0000020E00000400000004020000040400000406000004080000040A0
310
000040C0000040E00000600000006020000060400000606000006080000060A0000060C0000060E00000800000008020000080400000806000008080000080A0000080C0000080E00000A0000000A0200000A0400000A0600000A0800000A0A00000A0C00000A0E00000C0000000C0200000C0400000C0600000C0800000C0
310
A00000C0C00000C0E00000E0000000E0200000E0400000E0600000E0800000E0A00000E0C00000E0E00040000000400020004000400040006000400080004000A0004000C0004000E00040200000402020004020400040206000402080004020A0004020C0004020E000404000004040200040404000404060004040800040
310
40A0004040C0004040E00040600000406020004060400040606000406080004060A0004060C0004060E00040800000408020004080400040806000408080004080A0004080C0004080E00040A0000040A0200040A0400040A0600040A0800040A0A00040A0C00040A0E00040C0000040C0200040C0400040C0600040C08000
310
40C0A00040C0C00040C0E00040E0000040E0200040E0400040E0600040E0800040E0A00040E0C00040E0E00080000000800020008000400080006000800080008000A0008000C0008000E00080200000802020008020400080206000802080008020A0008020C0008020E00080400000804020008040400080406000804080
310
008040A0008040C0008040E00080600000806020008060400080606000806080008060A0008060C0008060E00080800000808020008080400080806000808080008080A0008080C0008080E00080A0000080A0200080A0400080A0600080A0800080A0A00080A0C00080A0E00080C0000080C0200080C0400080C0600080C0
310
800080C0A00080C0C00080C0E00080E0000080E0200080E0400080E0600080E0800080E0A00080E0C00080E0E000C0000000C0002000C0004000C0006000C0008000C000A000C000C000C000E000C0200000C0202000C0204000C0206000C0208000C020A000C020C000C020E000C0400000C0402000C0404000C0406000C0
310
408000C040A000C040C000C040E000C0600000C0602000C0604000C0606000C0608000C060A000C060C000C060E000C0800000C0802000C0804000C0806000C0808000C080A000C080C000C080E000C0A00000C0A02000C0A04000C0A06000C0A08000C0A0A000C0A0C000C0A0E000C0C00000C0C02000C0C04000C0C06000
310
C0C08000C0C0A000F0FBFF00A4A0A000808080000000FF0000FF000000FFFF00FF000000FF00FF00FFFF0000FFFFFF0000000000000000000000000000000000000000000000000000000000000000000000000000000000000000000000000000000000000000000000000000000000000000000000000000000000000000
310
00000000000000000000000000000000000000000000000000000000000000000000000000000000000000000000000000000000000000000000000000000000000000000000000000000000000000000000000000000000000000000000000000000000000000000000000000000000000000000000000000000000000000
310
00000000000000000000000000000000000000000000000000000000000000000000000000000000000000000000000000000000000000000000000000000000000000000000000000000000000000000000000000000000000000000000000000000000000000000000000000000000000000000000000000000000000000
310
000000000000000000000000000000000000000000000000000000000000000000000000000000000000000000000000000000000000000000000000000000000000000000000000000000000000000000000000FFFFFFFFFFFFFFFFFFFFFFFFFFFFFFFFFFFFFFFFFFFFFFFFFFFFFFFFFFFF0000FF00000000000000000000
310
000000000000000000000000000000000000FF0000FF00000000000000000000000000000000000000000000000000000000FF0000FF00000000000000000000000000000000000000000000000000000000FF0000FF00000000000000000000000000000000000000000000000000000000FF0000FFFFFFFFFFFFFFFFFFFF
310
FFFFFFFFFFFFFFFFFFFFFFFFFFFFFFFFFFFFFFFF0000000000000000000000000000000000000000000000000000000000000000000000000000000000000000000000000000000000000000000000000000000000000000000000000000000000000000000000000000000000000000000000000000000000000000000000
310
00000000000000000000000000000000000000000000000000000000000000000000000000000000000000000000000000000000000000000000000000000000000000000000000000000000000000000000000000000000000000000000000000000000000000000000000000000000000000000000000000000000000000
310
00000000000000000000000000000000000000000000000000000000000000000000000000000000000000000000000000000000000000000000000000000000000000000000000000000000000000000000000000000000000000000000000000000000000000000000000000000000000000000000000000000000000000
310
0000000000000000000000000000000000000000000000000000000000000000000000000000000000000000000000000000000000000000
102
{BLKREFS
331
551
102
}
1001
ACAD
1000
DesignCenter Data
1002
{
1070
     1
1070
     4
1002
}
  0
BLOCK_RECORD
  5
552
330
1
100
AcDbSymbolTableRecord
100
AcDbBlockTableRecord
  2
4
340
0
310
2800000020000000200000000100080000000000000400000000000000000000000000000000000000000000000080000080000000808000800000008000800080800000C0C0C000C0DCC000F0CAA6000020400000206000002080000020A0000020C0000020E00000400000004020000040400000406000004080000040A0
310
000040C0000040E00000600000006020000060400000606000006080000060A0000060C0000060E00000800000008020000080400000806000008080000080A0000080C0000080E00000A0000000A0200000A0400000A0600000A0800000A0A00000A0C00000A0E00000C0000000C0200000C0400000C0600000C0800000C0
310
A00000C0C00000C0E00000E0000000E0200000E0400000E0600000E0800000E0A00000E0C00000E0E00040000000400020004000400040006000400080004000A0004000C0004000E00040200000402020004020400040206000402080004020A0004020C0004020E000404000004040200040404000404060004040800040
310
40A0004040C0004040E00040600000406020004060400040606000406080004060A0004060C0004060E00040800000408020004080400040806000408080004080A0004080C0004080E00040A0000040A0200040A0400040A0600040A0800040A0A00040A0C00040A0E00040C0000040C0200040C0400040C0600040C08000
310
40C0A00040C0C00040C0E00040E0000040E0200040E0400040E0600040E0800040E0A00040E0C00040E0E00080000000800020008000400080006000800080008000A0008000C0008000E00080200000802020008020400080206000802080008020A0008020C0008020E00080400000804020008040400080406000804080
310
008040A0008040C0008040E00080600000806020008060400080606000806080008060A0008060C0008060E00080800000808020008080400080806000808080008080A0008080C0008080E00080A0000080A0200080A0400080A0600080A0800080A0A00080A0C00080A0E00080C0000080C0200080C0400080C0600080C0
310
800080C0A00080C0C00080C0E00080E0000080E0200080E0400080E0600080E0800080E0A00080E0C00080E0E000C0000000C0002000C0004000C0006000C0008000C000A000C000C000C000E000C0200000C0202000C0204000C0206000C0208000C020A000C020C000C020E000C0400000C0402000C0404000C0406000C0
310
408000C040A000C040C000C040E000C0600000C0602000C0604000C0606000C0608000C060A000C060C000C060E000C0800000C0802000C0804000C0806000C0808000C080A000C080C000C080E000C0A00000C0A02000C0A04000C0A06000C0A08000C0A0A000C0A0C000C0A0E000C0C00000C0C02000C0C04000C0C06000
310
C0C08000C0C0A000F0FBFF00A4A0A000808080000000FF0000FF000000FFFF00FF000000FF00FF00FFFF0000FFFFFF00000000000000000000000000000000000000000000000000000000000000000000000000000000000000FFFF0000000000000000000000000000000000000000000000000000000000FFFFFF000000
310
00000000000000000000000000000000000000000000000000FFFFFF00FF000000000000000000000000000000000000000000000000000000FFFFFF00FF000000000000000000000000000000000000000000000000000000FF00FF00FF000000FFFF00000000000000000000000000000000000000000000FF00FF00FF00
310
FFFF00FF00000000000000000000000000000000000000000000FF00FF00FF00FFFF00FF00000000000000000000000000000000000000000000FF00FFFFFF00FFFF00FF000000FFFF0000000000000000000000000000000000FFFFFFFFFF00FFFF00FF00FFFFFF00FF00000000000000000000000000000000FFFFFFFFFF
310
FFFFFF00FF00FFFFFF00FF00000000000000000000000000000000FFFFFF0000FFFFFF00FF00FF00FF00FF000000000000000000000000000000FFFFFFFFFFFFFFFFFFFFFF00FF00FF00FF000000000000000000000000000000FF00FF00FFFFFFFFFFFFFFFFFF00FF00FF000000000000000000000000000000FFFFFF0000
310
00FFFFFF0000FFFFFFFF00FF000000000000000000000000000000FF00FF000000FFFFFFFF00FFFFFFFFFFFF000000000000000000000000000000FF00FF000000FF00FFFFFFFFFFFFFFFFFF000000000000000000000000000000FF00FF00000000FFFF00FFFF00FF0000FF000000000000000000000000000000FF00FF00
310
00000000000000FFFFFFFF00FF0000000000000000000000000000FFFFFFFFFFFF000000000000FF00FFFFFFFFFF00000000000000000000000000FFFF0000FFFFFFFF0000000000FFFF00FFFFFF0000000000000000000000000000FFFF000000FFFFFFFF0000000000000000FF00000000000000000000000000000000FF
310
00000000FFFFFFFF000000000000FF0000000000000000000000000000000000FFFF00000000FFFFFF0000000000FF00000000000000000000000000000000000000FFFF00000000FFFFFF000000FF000000000000000000000000000000000000000000FF00000000FFFFFFFF00FF00000000000000000000000000000000
310
000000000000FFFF00000000FFFFFFFF000000000000000000000000000000000000000000000000FF0000000000FFFFFF000000000000000000000000000000000000000000000000FFFF0000000000FF0000000000000000000000000000000000000000000000000000FFFF00FFFF000000000000000000000000000000
310
0000000000000000000000000000FF0000000000000000000000000000000000000000000000000000000000000000000000000000000000
102
{BLKREFS
331
62B
102
}
1001
ACAD
1000
DesignCenter Data
1002
{
1070
     1
1070
     4
1002
}
  0
ENDTAB
  0
ENDSEC
  0
SECTION
  2
BLOCKS
  0
BLOCK
  5
20
330
1F
100
AcDbEntity
  8
0
100
AcDbBlockBegin
  2
*Model_Space
 70
     0
 10
0.0
 20
0.0
 30
0.0
  3
*Model_Space
  1

  0
ENDBLK
  5
21
330
1F
100
AcDbEntity
  8
0
100
AcDbBlockEnd
  0
BLOCK
  5
D4
330
D2
100
AcDbEntity
 67
     1
  8
0
100
AcDbBlockBegin
  2
*Paper_Space
 70
     0
 10
0.0
 20
0.0
 30
0.0
  3
*Paper_Space
  1

  0
ENDBLK
  5
D5
330
D2
100
AcDbEntity
 67
     1
  8
0
100
AcDbBlockEnd
  0
BLOCK
  5
D8
330
D6
100
AcDbEntity
 67
     1
  8
0
100
AcDbBlockBegin
  2
*Paper_Space0
 70
     0
 10
0.0
 20
0.0
 30
0.0
  3
*Paper_Space0
  1

  0
ENDBLK
  5
D9
330
D6
100
AcDbEntity
 67
     1
  8
0
100
AcDbBlockEnd
  0
BLOCK
  5
4A4
330
4A3
100
AcDbEntity
  8
0
100
AcDbBlockBegin
  2
1
 70
     0
 10
0.0
 20
0.0
 30
0.0
  3
1
  1

  0
LINE
  5
4A6
330
4A3
100
AcDbEntity
  8
0
  6
Continuous
 62
     7
370
    15
100
AcDbLine
 10
2327.45824260151
 20
895.0787145460065
 30
0.0
 11
2327.45824260151
 21
893.8787145460068
 31
0.0
  0
LINE
  5
4A7
330
4A3
100
AcDbEntity
  8
0
  6
Continuous
 62
     7
370
    15
100
AcDbLine
 10
2351.45824260151
 20
893.8787145460068
 30
0.0
 11
2327.45824260151
 21
893.8787145460068
 31
0.0
  0
LINE
  5
4A8
330
4A3
100
AcDbEntity
  8
0
  6
Continuous
 62
     7
370
    15
100
AcDbLine
 10
2351.45824260151
 20
893.8787145460068
 30
0.0
 11
2351.45824260151
 21
895.0787145460067
 31
0.0
  0
LINE
  5
4A9
330
4A3
100
AcDbEntity
  8
0
  6
Continuous
 62
     7
370
    15
100
AcDbLine
 10
2351.45824260151
 20
895.0787145460067
 30
0.0
 11
2327.45824260151
 21
895.0787145460065
 31
0.0
  0
LINE
  5
4AA
330
4A3
100
AcDbEntity
  8
0
  6
Continuous
 62
     7
370
    15
100
AcDbLine
 10
2340.708242601509
 20
883.9787145460066
 30
0.0
 11
2340.708242601509
 21
885.2787145460066
 31
0.0
  0
LINE
  5
4AB
330
4A3
100
AcDbEntity
  8
0
  6
Continuous
 62
     7
370
    15
100
AcDbLine
 10
2340.708242601509
 20
883.9787145460066
 30
0.0
 11
2338.20824260151
 21
883.9787145460066
 31
0.0
  0
LINE
  5
4AC
330
4A3
100
AcDbEntity
  8
0
  6
Continuous
 62
     7
370
    15
100
AcDbLine
 10
2338.20824260151
 20
883.9787145460066
 30
0.0
 11
2338.20824260151
 21
885.2787145460066
 31
0.0
  0
LINE
  5
4AD
330
4A3
100
AcDbEntity
  8
0
  6
Continuous
 62
     7
370
    15
100
AcDbLine
 10
2340.708242601509
 20
885.2787145460066
 30
0.0
 11
2338.20824260151
 21
885.2787145460066
 31
0.0
  0
LINE
  5
4AE
330
4A3
100
AcDbEntity
  8
0
  6
Continuous
 62
     7
370
    15
100
AcDbLine
 10
2348.90824260151
 20
885.2787145460066
 30
0.0
 11
2346.40824260151
 21
885.2787145460066
 31
0.0
  0
LINE
  5
4AF
330
4A3
100
AcDbEntity
  8
0
  6
Continuous
 62
     7
370
    15
100
AcDbLine
 10
2348.90824260151
 20
883.9787145460066
 30
0.0
 11
2348.90824260151
 21
885.2787145460066
 31
0.0
  0
LINE
  5
4B0
330
4A3
100
AcDbEntity
  8
0
  6
Continuous
 62
     7
370
    15
100
AcDbLine
 10
2348.90824260151
 20
883.9787145460066
 30
0.0
 11
2346.40824260151
 21
883.9787145460066
 31
0.0
  0
LINE
  5
4B1
330
4A3
100
AcDbEntity
  8
0
  6
Continuous
 62
     7
370
    15
100
AcDbLine
 10
2346.40824260151
 20
883.9787145460066
 30
0.0
 11
2346.40824260151
 21
885.2787145460066
 31
0.0
  0
LINE
  5
4B2
330
4A3
100
AcDbEntity
  8
0
  6
Continuous
 62
     7
370
    15
100
AcDbLine
 10
2332.50824260151
 20
883.9787145460066
 30
0.0
 11
2330.00824260151
 21
883.9787145460066
 31
0.0
  0
LINE
  5
4B3
330
4A3
100
AcDbEntity
  8
0
  6
Continuous
 62
     7
370
    15
100
AcDbLine
 10
2330.00824260151
 20
883.9787145460066
 30
0.0
 11
2330.00824260151
 21
885.2787145460066
 31
0.0
  0
LINE
  5
4B4
330
4A3
100
AcDbEntity
  8
0
  6
Continuous
 62
     7
370
    15
100
AcDbLine
 10
2332.50824260151
 20
883.9787145460066
 30
0.0
 11
2332.50824260151
 21
885.2787145460066
 31
0.0
  0
LINE
  5
4B5
330
4A3
100
AcDbEntity
  8
0
  6
Continuous
 62
     7
370
    15
100
AcDbLine
 10
2332.50824260151
 20
885.2787145460066
 30
0.0
 11
2330.00824260151
 21
885.2787145460066
 31
0.0
  0
LINE
  5
4B6
330
4A3
100
AcDbEntity
  8
0
  6
Continuous
 62
     7
370
    15
100
AcDbLine
 10
2337.508242601509
 20
880.600133206407
 30
0.0
 11
2341.408242601509
 21
880.600133206407
 31
0.0
  0
LINE
  5
4B7
330
4A3
100
AcDbEntity
  8
0
  6
Continuous
 62
     7
370
    15
100
AcDbLine
 10
2337.158242601509
 20
880.9501332064067
 30
0.0
 11
2341.758242601509
 21
880.9501332064067
 31
0.0
  0
LINE
  5
4B8
330
4A3
100
AcDbEntity
  8
0
  6
Continuous
 62
     7
370
    15
100
AcDbLine
 10
2341.408242601509
 20
880.600133206407
 30
0.0
 11
2341.758242601509
 21
880.9501332064067
 31
0.0
  0
LINE
  5
4B9
330
4A3
100
AcDbEntity
  8
0
  6
Continuous
 62
     7
370
    15
100
AcDbLine
 10
2337.158242601509
 20
880.9501332064069
 30
0.0
 11
2337.508242601509
 21
880.600133206407
 31
0.0
  0
LINE
  5
4BA
330
4A3
100
AcDbEntity
  8
0
  6
Continuous
 62
     7
370
    15
100
AcDbLine
 10
2351.45824260151
 20
887.4121215030418
 30
0.0
 11
2350.30824260151
 21
887.4121215030418
 31
0.0
  0
LINE
  5
4BB
330
4A3
100
AcDbEntity
  8
0
  6
Continuous
 62
     7
370
    15
100
AcDbLine
 10
2350.30824260151
 20
883.7287145460068
 30
0.0
 11
2350.30824260151
 21
887.4121215030418
 31
0.0
  0
ARC
  5
4BC
330
4A3
100
AcDbEntity
  8
0
  6
Continuous
 62
     7
370
    15
100
AcDbCircle
 10
2349.808242601509
 20
883.7287145460068
 30
0.0
 40
0.5000000000000543
100
AcDbArc
 50
315.0000000000092
 51
0.0
  0
LINE
  5
4BD
330
4A3
100
AcDbEntity
  8
0
  6
Continuous
 62
     7
370
    15
100
AcDbLine
 10
2350.104689210916
 20
883.3180543742267
 30
0.0
 11
2350.161795992103
 21
883.3751611554136
 31
0.0
  0
ARC
  5
4BE
330
4A3
100
AcDbEntity
  8
0
  6
Continuous
 62
     7
370
    15
100
AcDbCircle
 10
2350.45824260151
 20
882.9645009836335
 30
0.0
 40
0.5000000000000569
100
AcDbArc
 50
135.0000000000046
 51
180.0
  0
LINE
  5
4BF
330
4A3
100
AcDbEntity
  8
0
  6
Continuous
 62
     7
370
    15
100
AcDbLine
 10
2349.958242601509
 20
880.9501332064066
 30
0.0
 11
2349.958242601509
 21
882.9645009836335
 31
0.0
  0
LINE
  5
4C0
330
4A3
100
AcDbEntity
  8
0
  6
Continuous
 62
     7
370
    15
100
AcDbLine
 10
2345.35824260151
 20
880.9501332064066
 30
0.0
 11
2349.958242601509
 21
880.9501332064066
 31
0.0
  0
LINE
  5
4C1
330
4A3
100
AcDbEntity
  8
0
  6
Continuous
 62
     7
370
    15
100
AcDbLine
 10
2345.35824260151
 20
882.9645009836335
 30
0.0
 11
2345.35824260151
 21
880.9501332064066
 31
0.0
  0
ARC
  5
4C2
330
4A3
100
AcDbEntity
  8
0
  6
Continuous
 62
     7
370
    15
100
AcDbCircle
 10
2344.85824260151
 20
882.9645009836335
 30
0.0
 40
0.5
100
AcDbArc
 50
0.0
 51
45.00000000002303
  0
LINE
  5
4C3
330
4A3
100
AcDbEntity
  8
0
  6
Continuous
 62
     7
370
    15
100
AcDbLine
 10
2345.154689210916
 20
883.3751611554133
 30
0.0
 11
2345.211795992103
 21
883.3180543742267
 31
0.0
  0
ARC
  5
4C4
330
4A3
100
AcDbEntity
  8
0
  6
Continuous
 62
     7
370
    15
100
AcDbCircle
 10
2345.508242601509
 20
883.7287145460065
 30
0.0
 40
0.5000000000000142
100
AcDbArc
 50
180.0
 51
224.9999999999954
  0
LINE
  5
4C5
330
4A3
100
AcDbEntity
  8
0
  6
Continuous
 62
     7
370
    15
100
AcDbLine
 10
2345.008242601509
 20
887.4121215030418
 30
0.0
 11
2345.008242601509
 21
883.7287145460065
 31
0.0
  0
LINE
  5
4C6
330
4A3
100
AcDbEntity
  8
0
  6
Continuous
 62
     7
370
    15
100
AcDbLine
 10
2342.108242601509
 20
887.412121503042
 30
0.0
 11
2345.008242601509
 21
887.4121215030418
 31
0.0
  0
LINE
  5
4C7
330
4A3
100
AcDbEntity
  8
0
  6
Continuous
 62
     7
370
    15
100
AcDbLine
 10
2342.108242601509
 20
883.7287145460068
 30
0.0
 11
2342.108242601509
 21
887.412121503042
 31
0.0
  0
ARC
  5
4C8
330
4A3
100
AcDbEntity
  8
0
  6
Continuous
 62
     7
370
    15
100
AcDbCircle
 10
2341.608242601509
 20
883.728714546007
 30
0.0
 40
0.5000000000000543
100
AcDbArc
 50
315.0000000000092
 51
0.0
  0
LINE
  5
4C9
330
4A3
100
AcDbEntity
  8
0
  6
Continuous
 62
     7
370
    15
100
AcDbLine
 10
2341.904689210917
 20
883.3180543742267
 30
0.0
 11
2341.961795992103
 21
883.3751611554136
 31
0.0
  0
ARC
  5
4CA
330
4A3
100
AcDbEntity
  8
0
  6
Continuous
 62
     7
370
    15
100
AcDbCircle
 10
2342.258242601509
 20
882.9645009836335
 30
0.0
 40
0.5000000000000569
100
AcDbArc
 50
135.0000000000046
 51
180.0
  0
LINE
  5
4CB
330
4A3
100
AcDbEntity
  8
0
  6
Continuous
 62
     7
370
    15
100
AcDbLine
 10
2341.758242601509
 20
880.9501332064067
 30
0.0
 11
2341.758242601509
 21
882.9645009836335
 31
0.0
  0
ARC
  5
4CC
330
4A3
100
AcDbEntity
  8
0
  6
Continuous
 62
     7
370
    15
100
AcDbCircle
 10
2336.658242601509
 20
882.9645009836335
 30
0.0
 40
0.5
100
AcDbArc
 50
0.0
 51
45.00000000002303
  0
LINE
  5
4CD
330
4A3
100
AcDbEntity
  8
0
  6
Continuous
 62
     7
370
    15
100
AcDbLine
 10
2336.954689210916
 20
883.3751611554133
 30
0.0
 11
2337.011795992103
 21
883.3180543742269
 31
0.0
  0
ARC
  5
4CE
330
4A3
100
AcDbEntity
  8
0
  6
Continuous
 62
     7
370
    15
100
AcDbCircle
 10
2337.30824260151
 20
883.7287145460065
 30
0.0
 40
0.5
100
AcDbArc
 50
180.0
 51
224.9999999999954
  0
LINE
  5
4CF
330
4A3
100
AcDbEntity
  8
0
  6
Continuous
 62
     7
370
    15
100
AcDbLine
 10
2336.808242601509
 20
887.412121503042
 30
0.0
 11
2336.808242601509
 21
883.7287145460065
 31
0.0
  0
LINE
  5
4D0
330
4A3
100
AcDbEntity
  8
0
  6
Continuous
 62
     7
370
    15
100
AcDbLine
 10
2333.908242601509
 20
887.412121503042
 30
0.0
 11
2336.808242601509
 21
887.412121503042
 31
0.0
  0
LINE
  5
4D1
330
4A3
100
AcDbEntity
  8
0
  6
Continuous
 62
     7
370
    15
100
AcDbLine
 10
2333.908242601509
 20
883.7287145460065
 30
0.0
 11
2333.908242601509
 21
887.412121503042
 31
0.0
  0
ARC
  5
4D2
330
4A3
100
AcDbEntity
  8
0
  6
Continuous
 62
     7
370
    15
100
AcDbCircle
 10
2333.408242601509
 20
883.7287145460065
 30
0.0
 40
0.5
100
AcDbArc
 50
315.0000000000092
 51
0.0
  0
LINE
  5
4D3
330
4A3
100
AcDbEntity
  8
0
  6
Continuous
 62
     7
370
    15
100
AcDbLine
 10
2333.704689210916
 20
883.3180543742269
 30
0.0
 11
2333.761795992102
 21
883.3751611554133
 31
0.0
  0
ARC
  5
4D4
330
4A3
100
AcDbEntity
  8
0
  6
Continuous
 62
     7
370
    15
100
AcDbCircle
 10
2334.058242601509
 20
882.9645009836335
 30
0.0
 40
0.5000000000000342
100
AcDbArc
 50
134.9999999999816
 51
180.0
  0
LINE
  5
4D5
330
4A3
100
AcDbEntity
  8
0
  6
Continuous
 62
     7
370
    15
100
AcDbLine
 10
2333.558242601509
 20
880.9501332064069
 30
0.0
 11
2333.558242601509
 21
882.9645009836335
 31
0.0
  0
LINE
  5
4D6
330
4A3
100
AcDbEntity
  8
0
  6
Continuous
 62
     7
370
    15
100
AcDbLine
 10
2328.958242601509
 20
880.9501332064069
 30
0.0
 11
2333.558242601509
 21
880.9501332064069
 31
0.0
  0
LINE
  5
4D7
330
4A3
100
AcDbEntity
  8
0
  6
Continuous
 62
     7
370
    15
100
AcDbLine
 10
2328.958242601509
 20
882.9645009836335
 30
0.0
 11
2328.958242601509
 21
880.9501332064069
 31
0.0
  0
ARC
  5
4D8
330
4A3
100
AcDbEntity
  8
0
  6
Continuous
 62
     7
370
    15
100
AcDbCircle
 10
2328.458242601509
 20
882.9645009836335
 30
0.0
 40
0.5000000000000342
100
AcDbArc
 50
0.0
 51
44.99999999999539
  0
LINE
  5
4D9
330
4A3
100
AcDbEntity
  8
0
  6
Continuous
 62
     7
370
    15
100
AcDbLine
 10
2328.754689210916
 20
883.3751611554136
 30
0.0
 11
2328.811795992102
 21
883.3180543742267
 31
0.0
  0
ARC
  5
4DA
330
4A3
100
AcDbEntity
  8
0
  6
Continuous
 62
     7
370
    15
100
AcDbCircle
 10
2329.108242601509
 20
883.728714546007
 30
0.0
 40
0.5000000000000142
100
AcDbArc
 50
180.0
 51
225.0
  0
LINE
  5
4DB
330
4A3
100
AcDbEntity
  8
0
  6
Continuous
 62
     7
370
    15
100
AcDbLine
 10
2328.608242601509
 20
887.412121503042
 30
0.0
 11
2328.608242601509
 21
883.728714546007
 31
0.0
  0
LINE
  5
4DC
330
4A3
100
AcDbEntity
  8
0
  6
Continuous
 62
     7
370
    15
100
AcDbLine
 10
2328.608242601509
 20
887.412121503042
 30
0.0
 11
2327.45824260151
 21
887.412121503042
 31
0.0
  0
LINE
  5
4DD
330
4A3
100
AcDbEntity
  8
0
  6
Continuous
 62
     7
370
    15
100
AcDbLine
 10
2337.158242601509
 20
882.9645009836335
 30
0.0
 11
2337.158242601509
 21
880.9501332064067
 31
0.0
  0
LINE
  5
4DE
330
4A3
100
AcDbEntity
  8
0
  6
Continuous
 62
     7
370
    15
100
AcDbLine
 10
2327.45824260151
 20
893.8787145460068
 30
0.0
 11
2327.45824260151
 21
887.412121503042
 31
0.0
  0
LINE
  5
4DF
330
4A3
100
AcDbEntity
  8
0
  6
Continuous
 62
     7
370
    15
100
AcDbLine
 10
2351.45824260151
 20
887.4121215030418
 30
0.0
 11
2351.45824260151
 21
893.8787145460068
 31
0.0
  0
LINE
  5
4E0
330
4A3
100
AcDbEntity
  8
0
  6
Continuous
 62
     7
370
    15
100
AcDbLine
 10
2345.708242601509
 20
880.600133206407
 30
0.0
 11
2349.608242601509
 21
880.600133206407
 31
0.0
  0
LINE
  5
4E1
330
4A3
100
AcDbEntity
  8
0
  6
Continuous
 62
     7
370
    15
100
AcDbLine
 10
2349.608242601509
 20
880.600133206407
 30
0.0
 11
2349.958242601509
 21
880.9501332064067
 31
0.0
  0
LINE
  5
4E2
330
4A3
100
AcDbEntity
  8
0
  6
Continuous
 62
     7
370
    15
100
AcDbLine
 10
2345.358242601509
 20
880.9501332064067
 30
0.0
 11
2345.708242601509
 21
880.600133206407
 31
0.0
  0
LINE
  5
4E3
330
4A3
100
AcDbEntity
  8
0
  6
Continuous
 62
     7
370
    15
100
AcDbLine
 10
2333.208242601509
 20
880.600133206407
 30
0.0
 11
2333.558242601509
 21
880.9501332064067
 31
0.0
  0
LINE
  5
4E4
330
4A3
100
AcDbEntity
  8
0
  6
Continuous
 62
     7
370
    15
100
AcDbLine
 10
2329.308242601509
 20
880.6001332064072
 30
0.0
 11
2333.208242601509
 21
880.600133206407
 31
0.0
  0
LINE
  5
4E5
330
4A3
100
AcDbEntity
  8
0
  6
Continuous
 62
     7
370
    15
100
AcDbLine
 10
2328.958242601509
 20
880.9501332064069
 30
0.0
 11
2329.308242601509
 21
880.600133206407
 31
0.0
  0
LINE
  5
4E6
330
4A3
100
AcDbEntity
  8
0
  6
Continuous
 62
     7
370
    15
100
AcDbLine
 10
2337.958242601509
 20
873.0820409743762
 30
0.0
 11
2337.958242601509
 21
878.8501332064086
 31
0.0
  0
LINE
  5
4E7
330
4A3
100
AcDbEntity
  8
0
  6
Continuous
 62
     7
370
    15
100
AcDbLine
 10
2337.958242601509
 20
878.8501332064086
 30
0.0
 11
2340.95824260151
 21
878.8501332064086
 31
0.0
  0
LINE
  5
4E8
330
4A3
100
AcDbEntity
  8
0
  6
Continuous
 62
     7
370
    15
100
AcDbLine
 10
2340.95824260151
 20
878.8501332064086
 30
0.0
 11
2340.95824260151
 21
873.0820409743769
 31
0.0
  0
LINE
  5
4E9
330
4A3
100
AcDbEntity
  8
0
  6
Continuous
 62
     7
370
    15
100
AcDbLine
 10
2340.95824260151
 20
873.0820409743769
 30
0.0
 11
2340.618260578256
 21
871.1539071068994
 31
0.0
  0
ARC
  5
4EA
330
4A3
100
AcDbEntity
  8
0
  6
Continuous
 62
     7
370
    15
100
AcDbCircle
 10
2339.928895151147
 20
871.2754608312662
 30
0.0
 40
0.7000000000000029
100
AcDbArc
 50
270.0
 51
350.0000000000089
  0
LINE
  5
4EB
330
4A3
100
AcDbEntity
  8
0
  6
Continuous
 62
     7
370
    15
100
AcDbLine
 10
2338.987590051872
 20
870.5754608312661
 30
0.0
 11
2339.928895151147
 21
870.5754608312661
 31
0.0
  0
ARC
  5
4EC
330
4A3
100
AcDbEntity
  8
0
  6
Continuous
 62
     7
370
    15
100
AcDbCircle
 10
2338.987590051872
 20
871.2754608312662
 30
0.0
 40
0.7000000000000029
100
AcDbArc
 50
189.999999999991
 51
270.0
  0
LINE
  5
4ED
330
4A3
100
AcDbEntity
  8
0
  6
Continuous
 62
     7
370
    15
100
AcDbLine
 10
2338.298224624763
 20
871.1539071068994
 30
0.0
 11
2337.958242601509
 21
873.0820409743762
 31
0.0
  0
LINE
  5
4EE
330
4A3
100
AcDbEntity
  8
0
  6
Continuous
 62
     7
370
    15
100
AcDbLine
 10
2346.158242601509
 20
873.0820409743762
 30
0.0
 11
2346.158242601509
 21
878.8501332064086
 31
0.0
  0
LINE
  5
4EF
330
4A3
100
AcDbEntity
  8
0
  6
Continuous
 62
     7
370
    15
100
AcDbLine
 10
2346.158242601509
 20
878.8501332064086
 30
0.0
 11
2349.158242601509
 21
878.8501332064086
 31
0.0
  0
LINE
  5
4F0
330
4A3
100
AcDbEntity
  8
0
  6
Continuous
 62
     7
370
    15
100
AcDbLine
 10
2349.158242601509
 20
878.8501332064086
 30
0.0
 11
2349.158242601509
 21
873.0820409743767
 31
0.0
  0
LINE
  5
4F1
330
4A3
100
AcDbEntity
  8
0
  6
Continuous
 62
     7
370
    15
100
AcDbLine
 10
2349.158242601509
 20
873.0820409743767
 30
0.0
 11
2348.818260578255
 21
871.1539071068992
 31
0.0
  0
ARC
  5
4F2
330
4A3
100
AcDbEntity
  8
0
  6
Continuous
 62
     7
370
    15
100
AcDbCircle
 10
2348.128895151147
 20
871.2754608312661
 30
0.0
 40
0.7000000000000029
100
AcDbArc
 50
270.0
 51
350.0000000000089
  0
LINE
  5
4F3
330
4A3
100
AcDbEntity
  8
0
  6
Continuous
 62
     7
370
    15
100
AcDbLine
 10
2347.187590051872
 20
870.5754608312659
 30
0.0
 11
2348.128895151147
 21
870.5754608312659
 31
0.0
  0
ARC
  5
4F4
330
4A3
100
AcDbEntity
  8
0
  6
Continuous
 62
     7
370
    15
100
AcDbCircle
 10
2347.187590051872
 20
871.2754608312661
 30
0.0
 40
0.7000000000000029
100
AcDbArc
 50
189.999999999991
 51
270.0
  0
LINE
  5
4F5
330
4A3
100
AcDbEntity
  8
0
  6
Continuous
 62
     7
370
    15
100
AcDbLine
 10
2346.498224624763
 20
871.1539071068992
 30
0.0
 11
2346.158242601509
 21
873.0820409743762
 31
0.0
  0
LINE
  5
4F6
330
4A3
100
AcDbEntity
  8
0
  6
Continuous
 62
     7
370
    15
100
AcDbLine
 10
2349.158242601509
 20
879.1001332064084
 30
0.0
 11
2346.158242601509
 21
879.1001332064086
 31
0.0
  0
LINE
  5
4F7
330
4A3
100
AcDbEntity
  8
0
  6
Continuous
 62
     7
370
    15
100
AcDbLine
 10
2346.158242601509
 20
879.1001332064086
 30
0.0
 11
2346.158242601509
 21
878.8501332064086
 31
0.0
  0
LINE
  5
4F8
330
4A3
100
AcDbEntity
  8
0
  6
Continuous
 62
     7
370
    15
100
AcDbLine
 10
2349.158242601509
 20
878.8501332064086
 30
0.0
 11
2349.158242601509
 21
879.1001332064084
 31
0.0
  0
LINE
  5
4F9
330
4A3
100
AcDbEntity
  8
0
  6
Continuous
 62
     7
370
    15
100
AcDbLine
 10
2340.95824260151
 20
879.1001332064086
 30
0.0
 11
2337.958242601509
 21
879.1001332064086
 31
0.0
  0
LINE
  5
4FA
330
4A3
100
AcDbEntity
  8
0
  6
Continuous
 62
     7
370
    15
100
AcDbLine
 10
2340.95824260151
 20
878.8501332064086
 30
0.0
 11
2340.95824260151
 21
879.1001332064086
 31
0.0
  0
LINE
  5
4FB
330
4A3
100
AcDbEntity
  8
0
  6
Continuous
 62
     7
370
    15
100
AcDbLine
 10
2337.958242601509
 20
879.1001332064086
 30
0.0
 11
2337.958242601509
 21
878.8501332064086
 31
0.0
  0
LINE
  5
4FC
330
4A3
100
AcDbEntity
  8
0
  6
Continuous
 62
     7
370
    15
100
AcDbLine
 10
2329.758242601509
 20
873.0820409743763
 30
0.0
 11
2329.75824260151
 21
878.8501332064086
 31
0.0
  0
LINE
  5
4FD
330
4A3
100
AcDbEntity
  8
0
  6
Continuous
 62
     7
370
    15
100
AcDbLine
 10
2329.75824260151
 20
878.8501332064086
 30
0.0
 11
2332.758242601509
 21
878.8501332064086
 31
0.0
  0
LINE
  5
4FE
330
4A3
100
AcDbEntity
  8
0
  6
Continuous
 62
     7
370
    15
100
AcDbLine
 10
2332.758242601509
 20
878.8501332064086
 30
0.0
 11
2332.758242601509
 21
873.0820409743762
 31
0.0
  0
LINE
  5
4FF
330
4A3
100
AcDbEntity
  8
0
  6
Continuous
 62
     7
370
    15
100
AcDbLine
 10
2332.758242601509
 20
873.0820409743762
 30
0.0
 11
2332.418260578255
 21
871.1539071068992
 31
0.0
  0
ARC
  5
500
330
4A3
100
AcDbEntity
  8
0
  6
Continuous
 62
     7
370
    15
100
AcDbCircle
 10
2331.728895151147
 20
871.2754608312662
 30
0.0
 40
0.7000000000000029
100
AcDbArc
 50
270.0
 51
350.0000000000025
  0
LINE
  5
501
330
4A3
100
AcDbEntity
  8
0
  6
Continuous
 62
     7
370
    15
100
AcDbLine
 10
2330.787590051872
 20
870.5754608312661
 30
0.0
 11
2331.728895151147
 21
870.5754608312661
 31
0.0
  0
ARC
  5
502
330
4A3
100
AcDbEntity
  8
0
  6
Continuous
 62
     7
370
    15
100
AcDbCircle
 10
2330.787590051872
 20
871.2754608312662
 30
0.0
 40
0.7000000000000029
100
AcDbArc
 50
189.999999999991
 51
270.0
  0
LINE
  5
503
330
4A3
100
AcDbEntity
  8
0
  6
Continuous
 62
     7
370
    15
100
AcDbLine
 10
2330.098224624763
 20
871.1539071068994
 30
0.0
 11
2329.758242601509
 21
873.0820409743763
 31
0.0
  0
LINE
  5
504
330
4A3
100
AcDbEntity
  8
0
  6
Continuous
 62
     7
370
    15
100
AcDbLine
 10
2332.758242601509
 20
879.1001332064086
 30
0.0
 11
2329.75824260151
 21
879.1001332064086
 31
0.0
  0
LINE
  5
505
330
4A3
100
AcDbEntity
  8
0
  6
Continuous
 62
     7
370
    15
100
AcDbLine
 10
2329.75824260151
 20
879.1001332064086
 30
0.0
 11
2329.75824260151
 21
878.8501332064086
 31
0.0
  0
LINE
  5
506
330
4A3
100
AcDbEntity
  8
0
  6
Continuous
 62
     7
370
    15
100
AcDbLine
 10
2332.758242601509
 20
878.8501332064086
 30
0.0
 11
2332.758242601509
 21
879.1001332064086
 31
0.0
  0
LINE
  5
507
330
4A3
100
AcDbEntity
  8
0
  6
Continuous
 62
     7
370
    15
100
AcDbLine
 10
2337.958242601509
 20
879.3501332064085
 30
0.0
 11
2340.958242601508
 21
879.3501332064085
 31
0.0
  0
LINE
  5
508
330
4A3
100
AcDbEntity
  8
0
  6
Continuous
 62
     7
370
    15
100
AcDbLine
 10
2337.958242601509
 20
879.3501332064085
 30
0.0
 11
2337.958242601509
 21
879.1001332064086
 31
0.0
  0
LINE
  5
509
330
4A3
100
AcDbEntity
  8
0
  6
Continuous
 62
     7
370
    15
100
AcDbLine
 10
2340.958242601508
 20
879.1001332064086
 30
0.0
 11
2340.958242601508
 21
879.3501332064085
 31
0.0
  0
LINE
  5
50A
330
4A3
100
AcDbEntity
  8
0
  6
Continuous
 62
     7
370
    15
100
AcDbLine
 10
2346.158242601509
 20
879.3501332064085
 30
0.0
 11
2349.158242601509
 21
879.3501332064085
 31
0.0
  0
LINE
  5
50B
330
4A3
100
AcDbEntity
  8
0
  6
Continuous
 62
     7
370
    15
100
AcDbLine
 10
2346.158242601509
 20
879.3501332064085
 30
0.0
 11
2346.158242601509
 21
879.1001332064086
 31
0.0
  0
LINE
  5
50C
330
4A3
100
AcDbEntity
  8
0
  6
Continuous
 62
     7
370
    15
100
AcDbLine
 10
2349.158242601509
 20
879.1001332064086
 30
0.0
 11
2349.158242601509
 21
879.3501332064085
 31
0.0
  0
LINE
  5
50D
330
4A3
100
AcDbEntity
  8
0
  6
Continuous
 62
     7
370
    15
100
AcDbLine
 10
2329.75824260151
 20
879.3501332064085
 30
0.0
 11
2332.758242601508
 21
879.3501332064085
 31
0.0
  0
LINE
  5
50E
330
4A3
100
AcDbEntity
  8
0
  6
Continuous
 62
     7
370
    15
100
AcDbLine
 10
2329.75824260151
 20
879.3501332064085
 30
0.0
 11
2329.75824260151
 21
879.1001332064086
 31
0.0
  0
LINE
  5
50F
330
4A3
100
AcDbEntity
  8
0
  6
Continuous
 62
     7
370
    15
100
AcDbLine
 10
2332.758242601508
 20
879.1001332064086
 30
0.0
 11
2332.758242601508
 21
879.3501332064085
 31
0.0
  0
LINE
  5
510
330
4A3
100
AcDbEntity
  8
0
  6
Continuous
 62
     7
370
    15
100
AcDbLine
 10
2337.958242601509
 20
880.6001332064068
 30
0.0
 11
2337.958242601509
 21
879.3501332064085
 31
0.0
  0
LINE
  5
511
330
4A3
100
AcDbEntity
  8
0
  6
Continuous
 62
     7
370
    15
100
AcDbLine
 10
2340.958242601508
 20
879.3501332064085
 30
0.0
 11
2340.95824260151
 21
880.600133206407
 31
0.0
  0
LINE
  5
512
330
4A3
100
AcDbEntity
  8
0
  6
Continuous
 62
     7
370
    15
100
AcDbLine
 10
2346.158242601509
 20
880.6001332064068
 30
0.0
 11
2346.158242601509
 21
879.3501332064085
 31
0.0
  0
LINE
  5
513
330
4A3
100
AcDbEntity
  8
0
  6
Continuous
 62
     7
370
    15
100
AcDbLine
 10
2349.158242601509
 20
879.3501332064085
 30
0.0
 11
2349.158242601509
 21
880.600133206407
 31
0.0
  0
LINE
  5
514
330
4A3
100
AcDbEntity
  8
0
  6
Continuous
 62
     7
370
    15
100
AcDbLine
 10
2329.75824260151
 20
880.6001332064068
 30
0.0
 11
2329.75824260151
 21
879.3501332064085
 31
0.0
  0
LINE
  5
515
330
4A3
100
AcDbEntity
  8
0
  6
Continuous
 62
     7
370
    15
100
AcDbLine
 10
2332.758242601508
 20
879.3501332064085
 30
0.0
 11
2332.758242601509
 21
880.600133206407
 31
0.0
  0
ENDBLK
  5
4A5
330
4A3
100
AcDbEntity
  8
0
100
AcDbBlockEnd
  0
BLOCK
  5
518
330
517
100
AcDbEntity
  8
0
100
AcDbBlockBegin
  2
2
 70
     0
 10
0.0
 20
0.0
 30
0.0
  3
2
  1

  0
LINE
  5
51A
330
517
100
AcDbEntity
  8
0
  6
Continuous
 62
     7
370
    15
100
AcDbLine
 10
2309.700119650679
 20
887.4121215030418
 30
0.0
 11
2309.700119650679
 21
893.8787145460068
 31
0.0
  0
LINE
  5
51B
330
517
100
AcDbEntity
  8
0
  6
Continuous
 62
     7
370
    15
100
AcDbLine
 10
2309.700119650679
 20
893.8787145460068
 30
0.0
 11
2308.950119650679
 21
893.8787145460068
 31
0.0
  0
LINE
  5
51C
330
517
100
AcDbEntity
  8
0
  6
Continuous
 62
     7
370
    15
100
AcDbLine
 10
2308.950119650679
 20
893.8787145460068
 30
0.0
 11
2308.950119650679
 21
895.0787145460067
 31
0.0
  0
LINE
  5
51D
330
517
100
AcDbEntity
  8
0
  6
Continuous
 62
     7
370
    15
100
AcDbLine
 10
2308.950119650679
 20
895.0787145460067
 30
0.0
 11
2313.450119650679
 21
895.0787145460065
 31
0.0
  0
LINE
  5
51E
330
517
100
AcDbEntity
  8
0
  6
Continuous
 62
     7
370
    15
100
AcDbLine
 10
2313.450119650679
 20
895.0787145460065
 30
0.0
 11
2313.450119650679
 21
893.8787145460068
 31
0.0
  0
LINE
  5
51F
330
517
100
AcDbEntity
  8
0
  6
Continuous
 62
     7
370
    15
100
AcDbLine
 10
2313.450119650679
 20
893.8787145460068
 30
0.0
 11
2312.700119650679
 21
893.8787145460068
 31
0.0
  0
LINE
  5
520
330
517
100
AcDbEntity
  8
0
  6
Continuous
 62
     7
370
    15
100
AcDbLine
 10
2312.700119650679
 20
887.4121215030418
 30
0.0
 11
2309.700119650679
 21
887.4121215030418
 31
0.0
  0
LINE
  5
521
330
517
100
AcDbEntity
  8
0
  6
Continuous
 62
     7
370
    15
100
AcDbLine
 10
2312.700119650679
 20
893.8787145460068
 30
0.0
 11
2312.700119650679
 21
887.4121215030418
 31
0.0
  0
LINE
  5
522
330
517
100
AcDbEntity
  8
0
  6
Continuous
 62
     7
370
    15
100
AcDbLine
 10
2312.700119650679
 20
883.7287145460068
 30
0.0
 11
2309.700119650679
 21
883.7287145460068
 31
0.0
  0
LINE
  5
523
330
517
100
AcDbEntity
  8
0
  6
Continuous
 62
     7
370
    15
100
AcDbLine
 10
2309.700119650679
 20
883.7287145460068
 30
0.0
 11
2309.700119650679
 21
887.4121215030418
 31
0.0
  0
LINE
  5
524
330
517
100
AcDbEntity
  8
0
  6
Continuous
 62
     7
370
    15
100
AcDbLine
 10
2312.700119650679
 20
887.4121215030418
 30
0.0
 11
2312.700119650679
 21
883.7287145460068
 31
0.0
  0
LINE
  5
525
330
517
100
AcDbEntity
  8
0
  6
Continuous
 62
     7
370
    15
100
AcDbLine
 10
2309.700119650679
 20
883.3751611554136
 30
0.0
 11
2312.700119650679
 21
883.375161155414
 31
0.0
  0
LINE
  5
526
330
517
100
AcDbEntity
  8
0
  6
Continuous
 62
     7
370
    15
100
AcDbLine
 10
2309.700119650679
 20
883.7287145460068
 30
0.0
 11
2309.700119650679
 21
883.3751611554136
 31
0.0
  0
LINE
  5
527
330
517
100
AcDbEntity
  8
0
  6
Continuous
 62
     7
370
    15
100
AcDbLine
 10
2312.700119650679
 20
883.375161155414
 30
0.0
 11
2312.700119650679
 21
883.7287145460068
 31
0.0
  0
LINE
  5
528
330
517
100
AcDbEntity
  8
0
  6
Continuous
 62
     7
370
    15
100
AcDbLine
 10
2309.700119650679
 20
883.3180543742267
 30
0.0
 11
2312.700119650679
 21
883.3180543742262
 31
0.0
  0
LINE
  5
529
330
517
100
AcDbEntity
  8
0
  6
Continuous
 62
     7
370
    15
100
AcDbLine
 10
2309.700119650679
 20
883.3180543742267
 30
0.0
 11
2309.700119650679
 21
883.3751611554136
 31
0.0
  0
LINE
  5
52A
330
517
100
AcDbEntity
  8
0
  6
Continuous
 62
     7
370
    15
100
AcDbLine
 10
2312.700119650679
 20
883.3180543742262
 30
0.0
 11
2312.700119650679
 21
883.375161155414
 31
0.0
  0
LINE
  5
52B
330
517
100
AcDbEntity
  8
0
  6
Continuous
 62
     7
370
    15
100
AcDbLine
 10
2309.700119650679
 20
882.9645009836335
 30
0.0
 11
2312.700119650679
 21
882.9645009836335
 31
0.0
  0
LINE
  5
52C
330
517
100
AcDbEntity
  8
0
  6
Continuous
 62
     7
370
    15
100
AcDbLine
 10
2309.700119650679
 20
882.9645009836335
 30
0.0
 11
2309.700119650679
 21
883.3180543742267
 31
0.0
  0
LINE
  5
52D
330
517
100
AcDbEntity
  8
0
  6
Continuous
 62
     7
370
    15
100
AcDbLine
 10
2312.700119650679
 20
882.9645009836335
 30
0.0
 11
2312.700119650679
 21
883.3180543742262
 31
0.0
  0
LINE
  5
52E
330
517
100
AcDbEntity
  8
0
  6
Continuous
 62
     7
370
    15
100
AcDbLine
 10
2312.700119650679
 20
880.9501332064069
 30
0.0
 11
2309.700119650679
 21
880.9501332064069
 31
0.0
  0
LINE
  5
52F
330
517
100
AcDbEntity
  8
0
  6
Continuous
 62
     7
370
    15
100
AcDbLine
 10
2309.700119650679
 20
880.9501332064066
 30
0.0
 11
2309.700119650679
 21
882.9645009836335
 31
0.0
  0
LINE
  5
530
330
517
100
AcDbEntity
  8
0
  6
Continuous
 62
     7
370
    15
100
AcDbLine
 10
2312.700119650679
 20
882.9645009836335
 30
0.0
 11
2312.700119650679
 21
880.9501332064069
 31
0.0
  0
LINE
  5
531
330
517
100
AcDbEntity
  8
0
  6
Continuous
 62
     7
370
    15
100
AcDbLine
 10
2312.350119650679
 20
880.6001332064068
 30
0.0
 11
2310.050119650679
 21
880.600133206407
 31
0.0
  0
LINE
  5
532
330
517
100
AcDbEntity
  8
0
  6
Continuous
 62
     7
370
    15
100
AcDbLine
 10
2310.050119650679
 20
880.600133206407
 30
0.0
 11
2309.700119650679
 21
880.9501332064067
 31
0.0
  0
LINE
  5
533
330
517
100
AcDbEntity
  8
0
  6
Continuous
 62
     7
370
    15
100
AcDbLine
 10
2312.700119650679
 20
880.9501332064067
 30
0.0
 11
2312.350119650679
 21
880.6001332064068
 31
0.0
  0
LINE
  5
534
330
517
100
AcDbEntity
  8
0
  6
Continuous
 62
     7
370
    15
100
AcDbLine
 10
2309.847319130827
 20
878.8501332064086
 30
0.0
 11
2309.847319130828
 21
873.0820409743767
 31
0.0
  0
ARC
  5
535
330
517
100
AcDbEntity
  8
0
  6
Continuous
 62
     7
370
    15
100
AcDbCircle
 10
2310.097319130828
 20
878.8501332064086
 30
0.0
 40
0.2500000000000284
100
AcDbArc
 50
90.0
 51
180.0
  0
LINE
  5
536
330
517
100
AcDbEntity
  8
0
  6
Continuous
 62
     7
370
    15
100
AcDbLine
 10
2310.097319130828
 20
879.1001332064084
 30
0.0
 11
2310.250119650679
 21
879.1001332064086
 31
0.0
  0
ARC
  5
537
330
517
100
AcDbEntity
  8
0
  6
Continuous
 62
     7
370
    15
100
AcDbCircle
 10
2310.250119650679
 20
879.3501332064085
 30
0.0
 40
0.2500000000000284
100
AcDbArc
 50
270.0
 51
0.0000000002540373
  0
LINE
  5
538
330
517
100
AcDbEntity
  8
0
  6
Continuous
 62
     7
370
    15
100
AcDbLine
 10
2311.890119650679
 20
880.600133206407
 30
0.0
 11
2311.890119650679
 21
879.3501332064083
 31
0.0
  0
ARC
  5
539
330
517
100
AcDbEntity
  8
0
  6
Continuous
 62
     7
370
    15
100
AcDbCircle
 10
2312.140119650679
 20
879.3501332064083
 30
0.0
 40
0.2500000000000284
100
AcDbArc
 50
180.0
 51
270.0
  0
LINE
  5
53A
330
517
100
AcDbEntity
  8
0
  6
Continuous
 62
     7
370
    15
100
AcDbLine
 10
2312.140119650679
 20
879.1001332064084
 30
0.0
 11
2312.292920170531
 21
879.1001332064084
 31
0.0
  0
ARC
  5
53B
330
517
100
AcDbEntity
  8
0
  6
Continuous
 62
     7
370
    15
100
AcDbCircle
 10
2312.292920170531
 20
878.8501332064084
 30
0.0
 40
0.2500000000000426
100
AcDbArc
 50
359.999999999987
 51
90.0
  0
LINE
  5
53C
330
517
100
AcDbEntity
  8
0
  6
Continuous
 62
     7
370
    15
100
AcDbLine
 10
2312.54292017053
 20
873.0820409743765
 30
0.0
 11
2312.54292017053
 21
878.8501332064084
 31
0.0
  0
LINE
  5
53D
330
517
100
AcDbEntity
  8
0
  6
Continuous
 62
     7
370
    15
100
AcDbLine
 10
2309.847319130828
 20
873.0820409743767
 30
0.0
 11
2312.54292017053
 21
873.0820409743765
 31
0.0
  0
LINE
  5
53E
330
517
100
AcDbEntity
  8
0
  6
Continuous
 62
     7
370
    15
100
AcDbLine
 10
2310.500119650679
 20
879.3501332064085
 30
0.0
 11
2310.500119650679
 21
880.600133206407
 31
0.0
  0
LINE
  5
53F
330
517
100
AcDbEntity
  8
0
  6
Continuous
 62
     7
370
    15
100
AcDbLine
 10
2312.54292017053
 20
871.1539071068992
 30
0.0
 11
2312.54292017053
 21
873.0820409743765
 31
0.0
  0
LINE
  5
540
330
517
100
AcDbEntity
  8
0
  6
Continuous
 62
     7
370
    15
100
AcDbLine
 10
2312.54292017053
 20
871.1539071068992
 30
0.0
 11
2309.847319130828
 21
871.1539071068992
 31
0.0
  0
LINE
  5
541
330
517
100
AcDbEntity
  8
0
  6
Continuous
 62
     7
370
    15
100
AcDbLine
 10
2309.847319130828
 20
873.0820409743767
 30
0.0
 11
2309.847319130828
 21
871.1539071068992
 31
0.0
  0
LINE
  5
542
330
517
100
AcDbEntity
  8
0
  6
Continuous
 62
     7
370
    15
100
AcDbLine
 10
2309.700119650679
 20
883.9787145460066
 30
0.0
 11
2309.350119650678
 21
885.2787145460066
 31
0.0
  0
LINE
  5
543
330
517
100
AcDbEntity
  8
0
  6
Continuous
 62
     7
370
    15
100
AcDbLine
 10
2309.350119650678
 20
885.2787145460066
 30
0.0
 11
2309.700119650679
 21
885.2787145460066
 31
0.0
  0
LINE
  5
544
330
517
100
AcDbEntity
  8
0
  6
Continuous
 62
     7
370
    15
100
AcDbLine
 10
2312.700119650679
 20
885.2787145460066
 30
0.0
 11
2313.050119650679
 21
885.2787145460066
 31
0.0
  0
LINE
  5
545
330
517
100
AcDbEntity
  8
0
  6
Continuous
 62
     7
370
    15
100
AcDbLine
 10
2313.050119650679
 20
885.2787145460066
 30
0.0
 11
2312.700119650679
 21
883.9787145460061
 31
0.0
  0
LINE
  5
546
330
517
100
AcDbEntity
  8
0
  6
Continuous
 62
     7
370
    15
100
AcDbLine
 10
2309.847319130828
 20
870.5754608312659
 30
0.0
 11
2312.54292017053
 21
870.5754608312659
 31
0.0
  0
LINE
  5
547
330
517
100
AcDbEntity
  8
0
  6
Continuous
 62
     7
370
    15
100
AcDbLine
 10
2309.847319130828
 20
871.1539071068992
 30
0.0
 11
2309.847319130828
 21
870.5754608312659
 31
0.0
  0
LINE
  5
548
330
517
100
AcDbEntity
  8
0
  6
Continuous
 62
     7
370
    15
100
AcDbLine
 10
2312.54292017053
 20
870.5754608312659
 30
0.0
 11
2312.54292017053
 21
871.1539071068992
 31
0.0
  0
ENDBLK
  5
519
330
517
100
AcDbEntity
  8
0
100
AcDbBlockEnd
  0
BLOCK
  5
54B
330
54A
100
AcDbEntity
  8
0
100
AcDbBlockBegin
  2
3
 70
     0
 10
0.0
 20
0.0
 30
0.0
  3
3
  1

  0
LINE
  5
54D
330
54A
100
AcDbEntity
  8
0
  6
Continuous
 62
     7
370
    15
100
AcDbLine
 10
2351.45824260151
 20
845.2297388514278
 30
0.0
 11
2351.45824260151
 21
849.7297388514279
 31
0.0
  0
LINE
  5
54E
330
54A
100
AcDbEntity
  8
0
  6
Continuous
 62
     7
370
    15
100
AcDbLine
 10
2351.45824260151
 20
845.2297388514278
 30
0.0
 11
2327.45824260151
 21
845.229738851428
 31
0.0
  0
LINE
  5
54F
330
54A
100
AcDbEntity
  8
0
  6
Continuous
 62
     7
370
    15
100
AcDbLine
 10
2327.45824260151
 20
849.7297388514279
 30
0.0
 11
2327.45824260151
 21
845.229738851428
 31
0.0
  0
LINE
  5
550
330
54A
100
AcDbEntity
  8
0
  6
Continuous
 62
     7
370
    15
100
AcDbLine
 10
2327.45824260151
 20
849.7297388514279
 30
0.0
 11
2351.45824260151
 21
849.7297388514279
 31
0.0
  0
ENDBLK
  5
54C
330
54A
100
AcDbEntity
  8
0
100
AcDbBlockEnd
  0
BLOCK
  5
553
330
552
100
AcDbEntity
  8
0
100
AcDbBlockBegin
  2
4
 70
     0
 10
0.0
 20
0.0
 30
0.0
  3
4
  1

  0
LINE
  5
555
330
552
100
AcDbEntity
  8
0
  6
Continuous
 62
     7
370
    15
100
AcDbLine
 10
2364.312064973688
 20
876.6466139337804
 30
0.0
 11
2363.902252153056
 21
876.4100340281741
 31
0.0
  0
LINE
  5
556
330
552
100
AcDbEntity
  8
0
  6
Continuous
 62
     7
370
    15
100
AcDbLine
 10
2364.228352305265
 20
869.9244932961027
 30
0.0
 11
2366.134430079811
 21
868.8241380185775
 31
0.0
  0
LINE
  5
557
330
552
100
AcDbEntity
  8
0
  6
Continuous
 62
     7
370
    15
100
AcDbLine
 10
2370.110340579418
 20
879.9938871922536
 30
0.0
 11
2369.700527758785
 21
879.7573072866473
 31
0.0
  0
LINE
  5
558
330
552
100
AcDbEntity
  8
0
  6
Continuous
 62
     7
370
    15
100
AcDbLine
 10
2370.026627910995
 20
873.2717665545758
 30
0.0
 11
2371.932705685541
 21
872.1714112770506
 31
0.0
  0
LINE
  5
559
330
552
100
AcDbEntity
  8
0
  6
Continuous
 62
     7
370
    15
100
AcDbLine
 10
2375.908616185148
 20
883.3411604507267
 30
0.0
 11
2375.498803364515
 21
883.1045805451203
 31
0.0
  0
LINE
  5
55A
330
552
100
AcDbEntity
  8
0
  6
Continuous
 62
     7
370
    15
100
AcDbLine
 10
2375.824903516724
 20
876.6190398130488
 30
0.0
 11
2377.730981291271
 21
875.5186845355236
 31
0.0
  0
LINE
  5
55B
330
552
100
AcDbEntity
  8
0
  6
Continuous
 62
     7
370
    15
100
AcDbLine
 10
2361.582632798308
 20
887.9984760138047
 30
0.0
 11
2361.582632798308
 21
888.9783249880672
 31
0.0
  0
LINE
  5
55C
330
552
100
AcDbEntity
  8
0
  6
Continuous
 62
     7
370
    15
100
AcDbLine
 10
2361.582632798308
 20
888.9783249880672
 30
0.0
 11
2364.764613313647
 21
887.1414067364662
 31
0.0
  0
LINE
  5
55D
330
552
100
AcDbEntity
  8
0
  6
Continuous
 62
     7
370
    15
100
AcDbLine
 10
2364.764613313647
 20
887.1414067364662
 30
0.0
 11
2364.764613313647
 21
886.1615577622035
 31
0.0
  0
LINE
  5
55E
330
552
100
AcDbEntity
  8
0
  6
Continuous
 62
     7
370
    15
100
AcDbLine
 10
2364.764613313647
 20
886.1615577622035
 30
0.0
 11
2364.234283227757
 21
886.4677108041371
 31
0.0
  0
LINE
  5
55F
330
552
100
AcDbEntity
  8
0
  6
Continuous
 62
     7
370
    15
100
AcDbLine
 10
2364.234283227757
 20
886.4677108041371
 30
0.0
 11
2364.234283227758
 21
881.1874736706997
 31
0.0
  0
LINE
  5
560
330
552
100
AcDbEntity
  8
0
  6
Continuous
 62
     7
370
    15
100
AcDbLine
 10
2364.234283227757
 20
881.1874736706997
 30
0.0
 11
2362.112962884198
 21
882.4120858384338
 31
0.0
  0
LINE
  5
561
330
552
100
AcDbEntity
  8
0
  6
Continuous
 62
     7
370
    15
100
AcDbLine
 10
2362.112962884198
 20
882.4120858384338
 30
0.0
 11
2362.112962884198
 21
887.6923229718711
 31
0.0
  0
LINE
  5
562
330
552
100
AcDbEntity
  8
0
  6
Continuous
 62
     7
370
    15
100
AcDbLine
 10
2362.112962884198
 20
887.6923229718711
 30
0.0
 11
2361.582632798308
 21
887.9984760138047
 31
0.0
  0
LINE
  5
563
330
552
100
AcDbEntity
  8
0
  6
Continuous
 62
     7
370
    15
100
AcDbLine
 10
2381.735176062125
 20
895.9584551040761
 30
0.0
 11
2381.735176062125
 21
896.9383040783386
 31
0.0
  0
LINE
  5
564
330
552
100
AcDbEntity
  8
0
  6
Continuous
 62
     7
370
    15
100
AcDbLine
 10
2381.735176062125
 20
895.9584551040761
 30
0.0
 11
2364.764613313647
 21
886.1615577622035
 31
0.0
  0
LINE
  5
565
330
552
100
AcDbEntity
  8
0
  6
Continuous
 62
     7
370
    15
100
AcDbLine
 10
2381.735176062125
 20
896.9383040783386
 30
0.0
 11
2364.764613313647
 21
887.1414067364662
 31
0.0
  0
LINE
  5
566
330
552
100
AcDbEntity
  8
0
  6
Continuous
 62
     7
370
    15
100
AcDbLine
 10
2381.735176062125
 20
896.9383040783386
 30
0.0
 11
2378.553195546785
 21
898.7752223299397
 31
0.0
  0
LINE
  5
567
330
552
100
AcDbEntity
  8
0
  6
Continuous
 62
     7
370
    15
100
AcDbLine
 10
2361.582632798308
 20
888.9783249880672
 30
0.0
 11
2378.553195546785
 21
898.7752223299397
 31
0.0
  0
LINE
  5
568
330
552
100
AcDbEntity
  8
0
  6
Continuous
 62
     7
370
    15
100
AcDbLine
 10
2367.80517247275
 20
881.5068903042716
 30
0.0
 11
2366.037405519783
 21
880.4863801644932
 31
0.0
  0
LINE
  5
569
330
552
100
AcDbEntity
  8
0
  6
Continuous
 62
     7
370
    15
100
AcDbLine
 10
2366.037405519783
 20
880.4863801644932
 30
0.0
 11
2366.037405519783
 21
879.4248771090419
 31
0.0
  0
LINE
  5
56A
330
552
100
AcDbEntity
  8
0
  6
Continuous
 62
     7
370
    15
100
AcDbLine
 10
2367.80517247275
 20
880.4453872488203
 30
0.0
 11
2366.037405519783
 21
879.4248771090419
 31
0.0
  0
LINE
  5
56B
330
552
100
AcDbEntity
  8
0
  6
Continuous
 62
     7
370
    15
100
AcDbLine
 10
2373.60344807848
 20
884.8541635627448
 30
0.0
 11
2371.835681125513
 21
883.8336534229664
 31
0.0
  0
LINE
  5
56C
330
552
100
AcDbEntity
  8
0
  6
Continuous
 62
     7
370
    15
100
AcDbLine
 10
2371.835681125513
 20
883.8336534229664
 30
0.0
 11
2371.835681125513
 21
882.7721503675149
 31
0.0
  0
LINE
  5
56D
330
552
100
AcDbEntity
  8
0
  6
Continuous
 62
     7
370
    15
100
AcDbLine
 10
2373.60344807848
 20
883.7926605072935
 30
0.0
 11
2371.835681125513
 21
882.7721503675149
 31
0.0
  0
LINE
  5
56E
330
552
100
AcDbEntity
  8
0
  6
Continuous
 62
     7
370
    15
100
AcDbLine
 10
2381.204845976235
 20
890.984371012572
 30
0.0
 11
2381.204845976235
 21
895.6523020621425
 31
0.0
  0
LINE
  5
56F
330
552
100
AcDbEntity
  8
0
  6
Continuous
 62
     7
370
    15
100
AcDbLine
 10
2381.204845976235
 20
890.984371012572
 30
0.0
 11
2380.391673177871
 21
890.514936348274
 31
0.0
  0
LINE
  5
570
330
552
100
AcDbEntity
  8
0
  6
Continuous
 62
     7
370
    15
100
AcDbLine
 10
2380.391673177871
 20
887.5072842410709
 30
0.0
 11
2380.391673177871
 21
890.514936348274
 31
0.0
  0
ARC
  5
571
330
552
100
AcDbEntity
  8
0
  6
Continuous
 62
     7
370
    15
100
AcDbCircle
 10
2379.67069060283
 20
887.5319134540884
 30
0.0
 40
0.7214031270000617
100
AcDbArc
 50
328.8562722006482
 51
358.0435013569555
  0
LINE
  5
572
330
552
100
AcDbEntity
  8
0
  6
Continuous
 62
     7
370
    15
100
AcDbLine
 10
2380.247739195048
 20
887.0888721313617
 30
0.0
 11
2380.288119787277
 21
887.1588133685367
 31
0.0
  0
ARC
  5
573
330
552
100
AcDbEntity
  8
0
  6
Continuous
 62
     7
370
    15
100
AcDbCircle
 10
2380.865168379495
 20
886.71577204581
 30
0.0
 40
0.7214031269998326
100
AcDbArc
 50
148.8562722006315
 51
178.0435013569555
  0
LINE
  5
574
330
552
100
AcDbEntity
  8
0
  6
Continuous
 62
     7
370
    15
100
AcDbLine
 10
2380.144185804455
 20
885.0955877585741
 30
0.0
 11
2380.144185804455
 21
886.7404012588274
 31
0.0
  0
LINE
  5
575
330
552
100
AcDbEntity
  8
0
  6
Continuous
 62
     7
370
    15
100
AcDbLine
 10
2376.891494610998
 20
883.2178491013818
 30
0.0
 11
2380.144185804455
 21
885.0955877585741
 31
0.0
  0
LINE
  5
576
330
552
100
AcDbEntity
  8
0
  6
Continuous
 62
     7
370
    15
100
AcDbLine
 10
2376.891494610997
 20
884.8626626016352
 30
0.0
 11
2376.891494610998
 21
883.2178491013818
 31
0.0
  0
ARC
  5
577
330
552
100
AcDbEntity
  8
0
  6
Continuous
 62
     7
370
    15
100
AcDbCircle
 10
2376.641164824313
 20
884.8872975482656
 30
0.0
 40
0.2515390281774041
100
AcDbArc
 50
354.3796210363644
 51
54.30196147122591
  0
LINE
  5
578
330
552
100
AcDbEntity
  8
0
  6
Continuous
 62
     7
370
    15
100
AcDbLine
 10
2376.747560628175
 20
885.1148920720747
 30
0.0
 11
2376.787941220404
 21
885.0915732743009
 31
0.0
  0
ARC
  5
579
330
552
100
AcDbEntity
  8
0
  6
Continuous
 62
     7
370
    15
100
AcDbCircle
 10
2376.894337024265
 20
885.3191677981099
 30
0.0
 40
0.2515390281771579
100
AcDbArc
 50
174.3796210363384
 51
234.3019614712259
  0
LINE
  5
57A
330
552
100
AcDbEntity
  8
0
  6
Continuous
 62
     7
370
    15
100
AcDbLine
 10
2376.644007237582
 20
888.3514548519437
 30
0.0
 11
2376.644007237582
 21
885.3438027447404
 31
0.0
  0
LINE
  5
57B
330
552
100
AcDbEntity
  8
0
  6
Continuous
 62
     7
370
    15
100
AcDbLine
 10
2374.593397572141
 20
887.167663089801
 30
0.0
 11
2376.644007237582
 21
888.3514548519437
 31
0.0
  0
LINE
  5
57C
330
552
100
AcDbEntity
  8
0
  6
Continuous
 62
     7
370
    15
100
AcDbLine
 10
2374.593397572141
 20
884.1600109825979
 30
0.0
 11
2374.593397572141
 21
887.167663089801
 31
0.0
  0
ARC
  5
57D
330
552
100
AcDbEntity
  8
0
  6
Continuous
 62
     7
370
    15
100
AcDbCircle
 10
2373.8724149971
 20
884.1846401956154
 30
0.0
 40
0.7214031270007153
100
AcDbArc
 50
328.8562722006594
 51
358.0435013569425
  0
LINE
  5
57E
330
552
100
AcDbEntity
  8
0
  6
Continuous
 62
     7
370
    15
100
AcDbLine
 10
2374.449463589319
 20
883.7415988728887
 30
0.0
 11
2374.489844181548
 21
883.8115401100637
 31
0.0
  0
ARC
  5
57F
330
552
100
AcDbEntity
  8
0
  6
Continuous
 62
     7
370
    15
100
AcDbCircle
 10
2375.066892773765
 20
883.3684987873372
 30
0.0
 40
0.7214031269992879
100
AcDbArc
 50
148.8562722006069
 51
178.0435013569685
  0
LINE
  5
580
330
552
100
AcDbEntity
  8
0
  6
Continuous
 62
     7
370
    15
100
AcDbLine
 10
2374.345910198726
 20
881.7483145001011
 30
0.0
 11
2374.345910198726
 21
883.3931280003543
 31
0.0
  0
LINE
  5
581
330
552
100
AcDbEntity
  8
0
  6
Continuous
 62
     7
370
    15
100
AcDbLine
 10
2371.093219005267
 20
879.870575842909
 30
0.0
 11
2374.345910198726
 21
881.7483145001011
 31
0.0
  0
LINE
  5
582
330
552
100
AcDbEntity
  8
0
  6
Continuous
 62
     7
370
    15
100
AcDbLine
 10
2371.093219005267
 20
881.5153893431622
 30
0.0
 11
2371.093219005267
 21
879.870575842909
 31
0.0
  0
ARC
  5
583
330
552
100
AcDbEntity
  8
0
  6
Continuous
 62
     7
370
    15
100
AcDbCircle
 10
2370.842889218584
 20
881.5400242897927
 30
0.0
 40
0.2515390281771092
100
AcDbArc
 50
354.3796210363449
 51
54.30196147126228
  0
LINE
  5
584
330
552
100
AcDbEntity
  8
0
  6
Continuous
 62
     7
370
    15
100
AcDbLine
 10
2370.949285022445
 20
881.7676188136017
 30
0.0
 11
2370.989665614674
 21
881.7443000158279
 31
0.0
  0
ARC
  5
585
330
552
100
AcDbEntity
  8
0
  6
Continuous
 62
     7
370
    15
100
AcDbCircle
 10
2371.096061418535
 20
881.9718945396369
 30
0.0
 40
0.251539028177124
100
AcDbArc
 50
174.3796210363514
 51
234.3019614712297
  0
LINE
  5
586
330
552
100
AcDbEntity
  8
0
  6
Continuous
 62
     7
370
    15
100
AcDbLine
 10
2370.845731631852
 20
885.0041815934707
 30
0.0
 11
2370.845731631852
 21
881.9965294862674
 31
0.0
  0
LINE
  5
587
330
552
100
AcDbEntity
  8
0
  6
Continuous
 62
     7
370
    15
100
AcDbLine
 10
2368.795121966411
 20
883.8203898313278
 30
0.0
 11
2370.845731631852
 21
885.0041815934707
 31
0.0
  0
LINE
  5
588
330
552
100
AcDbEntity
  8
0
  6
Continuous
 62
     7
370
    15
100
AcDbLine
 10
2368.795121966411
 20
880.8127377241243
 30
0.0
 11
2368.795121966411
 21
883.8203898313278
 31
0.0
  0
ARC
  5
589
330
552
100
AcDbEntity
  8
0
  6
Continuous
 62
     7
370
    15
100
AcDbCircle
 10
2368.074139391371
 20
880.8373669371414
 30
0.0
 40
0.7214031269994878
100
AcDbArc
 50
328.8562722006371
 51
358.0435013569685
  0
LINE
  5
58A
330
552
100
AcDbEntity
  8
0
  6
Continuous
 62
     7
370
    15
100
AcDbLine
 10
2368.651187983588
 20
880.3943256144155
 30
0.0
 11
2368.691568575817
 21
880.4642668515901
 31
0.0
  0
ARC
  5
58B
330
552
100
AcDbEntity
  8
0
  6
Continuous
 62
     7
370
    15
100
AcDbCircle
 10
2369.268617168036
 20
880.0212255288638
 30
0.0
 40
0.7214031270002312
100
AcDbArc
 50
148.8562722006371
 51
178.0435013569555
  0
LINE
  5
58C
330
552
100
AcDbEntity
  8
0
  6
Continuous
 62
     7
370
    15
100
AcDbLine
 10
2368.547634592995
 20
878.401041241628
 30
0.0
 11
2368.547634592995
 21
880.0458547418811
 31
0.0
  0
LINE
  5
58D
330
552
100
AcDbEntity
  8
0
  6
Continuous
 62
     7
370
    15
100
AcDbLine
 10
2365.294943399538
 20
876.5233025844358
 30
0.0
 11
2368.547634592995
 21
878.401041241628
 31
0.0
  0
LINE
  5
58E
330
552
100
AcDbEntity
  8
0
  6
Continuous
 62
     7
370
    15
100
AcDbLine
 10
2365.294943399538
 20
878.1681160846888
 30
0.0
 11
2365.294943399538
 21
876.5233025844358
 31
0.0
  0
ARC
  5
58F
330
552
100
AcDbEntity
  8
0
  6
Continuous
 62
     7
370
    15
100
AcDbCircle
 10
2365.044613612854
 20
878.1927510313195
 30
0.0
 40
0.2515390281771971
100
AcDbArc
 50
354.3796210363449
 51
54.30196147122972
  0
LINE
  5
590
330
552
100
AcDbEntity
  8
0
  6
Continuous
 62
     7
370
    15
100
AcDbLine
 10
2365.151009416715
 20
878.4203455551287
 30
0.0
 11
2365.191390008944
 21
878.3970267573547
 31
0.0
  0
ARC
  5
591
330
552
100
AcDbEntity
  8
0
  6
Continuous
 62
     7
370
    15
100
AcDbCircle
 10
2365.297785812805
 20
878.6246212811638
 30
0.0
 40
0.2515390281771113
100
AcDbArc
 50
174.3796210363255
 51
234.3019614712297
  0
LINE
  5
592
330
552
100
AcDbEntity
  8
0
  6
Continuous
 62
     7
370
    15
100
AcDbLine
 10
2365.047456026122
 20
881.6569083349975
 30
0.0
 11
2365.047456026122
 21
878.6492562277944
 31
0.0
  0
LINE
  5
593
330
552
100
AcDbEntity
  8
0
  6
Continuous
 62
     7
370
    15
100
AcDbLine
 10
2365.047456026122
 20
881.6569083349975
 30
0.0
 11
2364.234283227758
 21
881.1874736706997
 31
0.0
  0
LINE
  5
594
330
552
100
AcDbEntity
  8
0
  6
Continuous
 62
     7
370
    15
100
AcDbLine
 10
2379.401723684209
 20
888.201436821218
 30
0.0
 11
2377.633956731243
 21
887.1809266814395
 31
0.0
  0
LINE
  5
595
330
552
100
AcDbEntity
  8
0
  6
Continuous
 62
     7
370
    15
100
AcDbLine
 10
2377.633956731243
 20
887.1809266814395
 30
0.0
 11
2377.633956731243
 21
886.119423625988
 31
0.0
  0
LINE
  5
596
330
552
100
AcDbEntity
  8
0
  6
Continuous
 62
     7
370
    15
100
AcDbLine
 10
2379.401723684209
 20
887.1399337657665
 30
0.0
 11
2377.633956731243
 21
886.119423625988
 31
0.0
  0
LINE
  5
597
330
552
100
AcDbEntity
  8
0
  6
Continuous
 62
     7
370
    15
100
AcDbLine
 10
2365.047456026122
 20
878.6492562277944
 30
0.0
 11
2362.926135682562
 21
879.8738683955285
 31
0.0
  0
LINE
  5
598
330
552
100
AcDbEntity
  8
0
  6
Continuous
 62
     7
370
    15
100
AcDbLine
 10
2362.926135682562
 20
879.8738683955285
 30
0.0
 11
2362.926135682562
 21
881.9426511741358
 31
0.0
  0
LINE
  5
599
330
552
100
AcDbEntity
  8
0
  6
Continuous
 62
     7
370
    15
100
AcDbLine
 10
2366.284892893199
 20
880.3435087449244
 30
0.0
 11
2366.037405519783
 21
880.4863801644932
 31
0.0
  0
LINE
  5
59A
330
552
100
AcDbEntity
  8
0
  6
Continuous
 62
     7
370
    15
100
AcDbLine
 10
2366.037405519783
 20
879.4248771090419
 30
0.0
 11
2366.284892893199
 21
880.3435087449244
 31
0.0
  0
LINE
  5
59B
330
552
100
AcDbEntity
  8
0
  6
Continuous
 62
     7
370
    15
100
AcDbLine
 10
2368.052659846165
 20
881.3640188847028
 30
0.0
 11
2367.80517247275
 21
881.5068903042716
 31
0.0
  0
LINE
  5
59C
330
552
100
AcDbEntity
  8
0
  6
Continuous
 62
     7
370
    15
100
AcDbLine
 10
2368.052659846165
 20
881.3640188847028
 30
0.0
 11
2366.284892893199
 21
880.3435087449244
 31
0.0
  0
LINE
  5
59D
330
552
100
AcDbEntity
  8
0
  6
Continuous
 62
     7
370
    15
100
AcDbLine
 10
2367.80517247275
 20
880.4453872488203
 30
0.0
 11
2368.052659846165
 21
881.3640188847028
 31
0.0
  0
LINE
  5
59E
330
552
100
AcDbEntity
  8
0
  6
Continuous
 62
     7
370
    15
100
AcDbLine
 10
2363.029689073155
 20
879.6449577228626
 30
0.0
 11
2365.151009416715
 21
878.4203455551287
 31
0.0
  0
ARC
  5
59F
330
552
100
AcDbEntity
  8
0
  6
Continuous
 62
     7
370
    15
100
AcDbCircle
 10
2363.176465469246
 20
879.849233448898
 30
0.0
 40
0.2515390281773976
100
AcDbArc
 50
174.379621036332
 51
234.3019614711934
  0
LINE
  5
5A0
330
552
100
AcDbEntity
  8
0
  6
Continuous
 62
     7
370
    15
100
AcDbLine
 10
2363.070069665384
 20
879.6216389250886
 30
0.0
 11
2365.191390008944
 21
878.3970267573547
 31
0.0
  0
LINE
  5
5A1
330
552
100
AcDbEntity
  8
0
  6
Continuous
 62
     7
370
    15
100
AcDbLine
 10
2363.070069665384
 20
879.6216389250886
 30
0.0
 11
2363.029689073155
 21
879.6449577228626
 31
0.0
  0
LINE
  5
5A2
330
552
100
AcDbEntity
  8
0
  6
Continuous
 62
     7
370
    15
100
AcDbLine
 10
2363.173623055978
 20
879.3927282524229
 30
0.0
 11
2365.294943399538
 21
878.1681160846888
 31
0.0
  0
ARC
  5
5A3
330
552
100
AcDbEntity
  8
0
  6
Continuous
 62
     7
370
    15
100
AcDbCircle
 10
2362.923293269294
 20
879.4173631990533
 30
0.0
 40
0.251539028177412
100
AcDbArc
 50
354.3796210363838
 51
54.30196147122591
  0
LINE
  5
5A4
330
552
100
AcDbEntity
  8
0
  6
Continuous
 62
     7
370
    15
100
AcDbLine
 10
2365.294943399538
 20
876.5233025844359
 30
0.0
 11
2363.173623055978
 21
877.7479147521699
 31
0.0
  0
LINE
  5
5A5
330
552
100
AcDbEntity
  8
0
  6
Continuous
 62
     7
370
    15
100
AcDbLine
 10
2363.173623055978
 20
877.7479147521699
 30
0.0
 11
2363.173623055978
 21
879.3927282524229
 31
0.0
  0
LINE
  5
5A6
330
552
100
AcDbEntity
  8
0
  6
Continuous
 62
     7
370
    15
100
AcDbLine
 10
2368.052659846165
 20
878.1152519574684
 30
0.0
 11
2368.547634592995
 21
878.401041241628
 31
0.0
  0
LINE
  5
5A7
330
552
100
AcDbEntity
  8
0
  6
Continuous
 62
     7
370
    15
100
AcDbLine
 10
2365.294943399538
 20
876.5232561394139
 30
0.0
 11
2368.052659846165
 21
878.1152519574684
 31
0.0
  0
LINE
  5
5A8
330
552
100
AcDbEntity
  8
0
  6
Continuous
 62
     7
370
    15
100
AcDbLine
 10
2365.294943399538
 20
876.5233025844358
 30
0.0
 11
2365.294943399538
 21
876.5232561394137
 31
0.0
  0
LINE
  5
5A9
330
552
100
AcDbEntity
  8
0
  6
Continuous
 62
     7
370
    15
100
AcDbLine
 10
2365.294943399538
 20
876.5232561394137
 30
0.0
 11
2363.668597802808
 21
877.4621254680099
 31
0.0
  0
LINE
  5
5AA
330
552
100
AcDbEntity
  8
0
  6
Continuous
 62
     7
370
    15
100
AcDbLine
 10
2363.668597802808
 20
877.4621254680099
 30
0.0
 11
2363.173623055978
 21
877.7479147521697
 31
0.0
  0
LINE
  5
5AB
330
552
100
AcDbEntity
  8
0
  6
Continuous
 62
     7
370
    15
100
AcDbLine
 10
2365.471720094834
 20
875.5637775579293
 30
0.0
 11
2365.579766378589
 21
875.5014037659806
 31
0.0
  0
ARC
  5
5AC
330
552
100
AcDbEntity
  8
0
  6
Continuous
 62
     7
370
    15
100
AcDbCircle
 10
2365.372739048544
 20
875.1777523359661
 30
0.0
 40
0.3842012018931591
100
AcDbArc
 50
2.605478485662874
 51
57.39452165996635
  0
LINE
  5
5AD
330
552
100
AcDbEntity
  8
0
  6
Continuous
 62
     7
370
    15
100
AcDbLine
 10
2365.756543073886
 20
870.485334834856
 30
0.0
 11
2365.756543073886
 21
875.1952175490314
 31
0.0
  0
LINE
  5
5AE
330
552
100
AcDbEntity
  8
0
  6
Continuous
 62
     7
370
    15
100
AcDbLine
 10
2363.850465299339
 20
871.5856901123814
 30
0.0
 11
2365.756543073886
 21
870.485334834856
 31
0.0
  0
LINE
  5
5AF
330
552
100
AcDbEntity
  8
0
  6
Continuous
 62
     7
370
    15
100
AcDbLine
 10
2363.850465299339
 20
876.2955728265568
 30
0.0
 11
2363.850465299339
 21
871.5856901123814
 31
0.0
  0
ARC
  5
5B0
330
552
100
AcDbEntity
  8
0
  6
Continuous
 62
     7
370
    15
100
AcDbCircle
 10
2363.958233891195
 20
876.3130546257821
 30
0.0
 40
0.1091772993571549
100
AcDbArc
 50
50.79671476430495
 51
189.2140369904628
  0
LINE
  5
5B1
330
552
100
AcDbEntity
  8
0
  6
Continuous
 62
     7
370
    15
100
AcDbLine
 10
2364.027241994635
 20
876.3976570155504
 30
0.0
 11
2364.135288278392
 21
876.3352832236014
 31
0.0
  0
ARC
  5
5B2
330
552
100
AcDbEntity
  8
0
  6
Continuous
 62
     7
370
    15
100
AcDbCircle
 10
2364.204296381831
 20
876.4198856133699
 30
0.0
 40
0.1091772993571465
100
AcDbArc
 50
230.7967147642926
 51
9.214036990469226
  0
LINE
  5
5B3
330
552
100
AcDbEntity
  8
0
  6
Continuous
 62
     7
370
    15
100
AcDbLine
 10
2364.312064973688
 20
876.437367412595
 30
0.0
 11
2364.312064973688
 21
877.0906597771302
 31
0.0
  0
LINE
  5
5B4
330
552
100
AcDbEntity
  8
0
  6
Continuous
 62
     7
370
    15
100
AcDbLine
 10
2365.294943399538
 20
876.5232561394139
 30
0.0
 11
2365.294943399538
 21
875.8699637748785
 31
0.0
  0
ARC
  5
5B5
330
552
100
AcDbEntity
  8
0
  6
Continuous
 62
     7
370
    15
100
AcDbCircle
 10
2365.678747424879
 20
875.8874289879434
 30
0.0
 40
0.3842012018924739
100
AcDbArc
 50
182.6054784856173
 51
237.3945216600348
  0
LINE
  5
5B6
330
552
100
AcDbEntity
  8
0
  6
Continuous
 62
     7
370
    15
100
AcDbLine
 10
2365.294943399538
 20
875.8699637748785
 30
0.0
 11
2367.416263743097
 21
877.0945759426121
 31
0.0
  0
LINE
  5
5B7
330
552
100
AcDbEntity
  8
0
  6
Continuous
 62
     7
370
    15
100
AcDbLine
 10
2367.416263743097
 20
877.0945759426121
 30
0.0
 11
2367.416263743097
 21
877.7478683071477
 31
0.0
  0
LINE
  5
5B8
330
552
100
AcDbEntity
  8
0
  6
Continuous
 62
     7
370
    15
100
AcDbLine
 10
2367.701086722149
 20
876.7260159337146
 30
0.0
 11
2365.579766378589
 21
875.5014037659806
 31
0.0
  0
ARC
  5
5B9
330
552
100
AcDbEntity
  8
0
  6
Continuous
 62
     7
370
    15
100
AcDbCircle
 10
2367.494059392104
 20
876.4023645037003
 30
0.0
 40
0.3842012018928301
100
AcDbArc
 50
2.60547848564986
 51
57.39452165999882
  0
LINE
  5
5BA
330
552
100
AcDbEntity
  8
0
  6
Continuous
 62
     7
370
    15
100
AcDbLine
 10
2365.756543073886
 20
875.1952175490314
 30
0.0
 11
2367.877863417445
 21
876.4198297167654
 31
0.0
  0
ARC
  5
5BB
330
552
100
AcDbEntity
  8
0
  6
Continuous
 62
     7
370
    15
100
AcDbCircle
 10
2367.800067768435
 20
877.1120411556752
 30
0.0
 40
0.3842012018898553
100
AcDbArc
 50
182.6054784854026
 51
237.3945216602192
  0
LINE
  5
5BC
330
552
100
AcDbEntity
  8
0
  6
Continuous
 62
     7
370
    15
100
AcDbLine
 10
2367.593040438393
 20
876.7883897256627
 30
0.0
 11
2365.471720094834
 21
875.5637775579293
 31
0.0
  0
LINE
  5
5BD
330
552
100
AcDbEntity
  8
0
  6
Continuous
 62
     7
370
    15
100
AcDbLine
 10
2367.877863417445
 20
876.4198297167654
 30
0.0
 11
2367.877863417445
 21
871.7099470025898
 31
0.0
  0
LINE
  5
5BE
330
552
100
AcDbEntity
  8
0
  6
Continuous
 62
     7
370
    15
100
AcDbLine
 10
2367.877863417445
 20
871.7099470025898
 30
0.0
 11
2367.637459823321
 21
869.9967649681866
 31
0.0
  0
ARC
  5
5BF
330
552
100
AcDbEntity
  8
0
  6
Continuous
 62
     7
370
    15
100
AcDbCircle
 10
2366.555228841377
 20
870.1621839141976
 30
0.0
 40
1.094800130607463
100
AcDbArc
 50
302.9067666138728
 51
351.3096048990302
  0
LINE
  5
5C0
330
552
100
AcDbEntity
  8
0
  6
Continuous
 62
     7
370
    15
100
AcDbLine
 10
2366.484401636234
 20
868.8587936539239
 30
0.0
 11
2367.150004855097
 21
869.2430382132981
 31
0.0
  0
LWPOLYLINE
  5
5C1
330
552
100
AcDbEntity
  8
0
  6
Continuous
 62
     7
370
    15
100
AcDbPolyline
 90
        9
 70
   128
 43
0.0
 10
2366.484401636234
 20
868.8587936539239
 10
2366.398450173456
 20
868.8178584934091
 10
2366.315110302381
 20
868.7955342525979
 10
2366.236914262819
 20
868.7924992422511
 10
2366.166238001864
 20
868.808845679622
 10
2366.105228981941
 20
868.8440768864829
 10
2366.055740931247
 20
868.897122380441
 10
2366.019277519162
 20
868.9663704010049
 10
2365.99694666801
 20
869.049716882111
  0
LINE
  5
5C2
330
552
100
AcDbEntity
  8
0
  6
Continuous
 62
     7
370
    15
100
AcDbLine
 10
2365.99694666801
 20
869.049716882111
 30
0.0
 11
2365.756543073886
 21
870.485334834856
 31
0.0
  0
LINE
  5
5C3
330
552
100
AcDbEntity
  8
0
  6
Continuous
 62
     7
370
    15
100
AcDbLine
 10
2367.701086722149
 20
876.7260159337146
 30
0.0
 11
2367.593040438393
 21
876.7883897256627
 31
0.0
  0
LINE
  5
5C4
330
552
100
AcDbEntity
  8
0
  6
Continuous
 62
     7
370
    15
100
AcDbLine
 10
2373.850935451895
 20
884.7112921431758
 30
0.0
 11
2373.60344807848
 21
884.8541635627448
 31
0.0
  0
LINE
  5
5C5
330
552
100
AcDbEntity
  8
0
  6
Continuous
 62
     7
370
    15
100
AcDbLine
 10
2373.850935451895
 20
884.7112921431758
 30
0.0
 11
2372.083168498928
 21
883.6907820033975
 31
0.0
  0
LINE
  5
5C6
330
552
100
AcDbEntity
  8
0
  6
Continuous
 62
     7
370
    15
100
AcDbLine
 10
2372.083168498928
 20
883.6907820033975
 30
0.0
 11
2371.835681125513
 21
883.8336534229664
 31
0.0
  0
LINE
  5
5C7
330
552
100
AcDbEntity
  8
0
  6
Continuous
 62
     7
370
    15
100
AcDbLine
 10
2373.60344807848
 20
883.7926605072935
 30
0.0
 11
2373.850935451895
 21
884.7112921431758
 31
0.0
  0
LINE
  5
5C8
330
552
100
AcDbEntity
  8
0
  6
Continuous
 62
     7
370
    15
100
AcDbLine
 10
2371.835681125513
 20
882.7721503675149
 30
0.0
 11
2372.083168498928
 21
883.6907820033975
 31
0.0
  0
LINE
  5
5C9
330
552
100
AcDbEntity
  8
0
  6
Continuous
 62
     7
370
    15
100
AcDbLine
 10
2368.827964678886
 20
882.9922309813357
 30
0.0
 11
2370.949285022445
 21
881.7676188136017
 31
0.0
  0
LWPOLYLINE
  5
5CA
330
552
100
AcDbEntity
  8
0
  6
Continuous
 62
     7
370
    15
100
AcDbPolyline
 90
        3
 70
   128
 43
0.0
 10
2368.795121966411
 20
883.0169998160272
 10
2368.804664212135
 20
883.0084666771419
 10
2368.827964678886
 20
882.9922309813357
  0
LINE
  5
5CB
330
552
100
AcDbEntity
  8
0
  6
Continuous
 62
     7
370
    15
100
AcDbLine
 10
2368.868345271114
 20
882.968912183562
 30
0.0
 11
2370.989665614674
 21
881.7443000158279
 31
0.0
  0
LINE
  5
5CC
330
552
100
AcDbEntity
  8
0
  6
Continuous
 62
     7
370
    15
100
AcDbLine
 10
2368.868345271114
 20
882.968912183562
 30
0.0
 11
2368.827964678886
 21
882.9922309813357
 31
0.0
  0
LINE
  5
5CD
330
552
100
AcDbEntity
  8
0
  6
Continuous
 62
     7
370
    15
100
AcDbLine
 10
2368.971898661708
 20
882.7400015108961
 30
0.0
 11
2371.093219005267
 21
881.5153893431622
 31
0.0
  0
ARC
  5
5CE
330
552
100
AcDbEntity
  8
0
  6
Continuous
 62
     7
370
    15
100
AcDbCircle
 10
2368.721568875024
 20
882.7646364575269
 30
0.0
 40
0.2515390281771875
100
AcDbArc
 50
354.379621036332
 51
54.30196147122972
  0
LINE
  5
5CF
330
552
100
AcDbEntity
  8
0
  6
Continuous
 62
     7
370
    15
100
AcDbLine
 10
2371.093219005267
 20
879.870575842909
 30
0.0
 11
2368.971898661708
 21
881.0951880106429
 31
0.0
  0
LINE
  5
5D0
330
552
100
AcDbEntity
  8
0
  6
Continuous
 62
     7
370
    15
100
AcDbLine
 10
2368.971898661708
 20
881.0951880106429
 30
0.0
 11
2368.971898661708
 21
882.7400015108961
 31
0.0
  0
LINE
  5
5D1
330
552
100
AcDbEntity
  8
0
  6
Continuous
 62
     7
370
    15
100
AcDbLine
 10
2371.093219005267
 20
879.8705293978869
 30
0.0
 11
2373.850935451895
 21
881.4625252159414
 31
0.0
  0
LINE
  5
5D2
330
552
100
AcDbEntity
  8
0
  6
Continuous
 62
     7
370
    15
100
AcDbLine
 10
2371.093219005267
 20
879.8705758429088
 30
0.0
 11
2371.093219005267
 21
879.8705293978867
 31
0.0
  0
LINE
  5
5D3
330
552
100
AcDbEntity
  8
0
  6
Continuous
 62
     7
370
    15
100
AcDbLine
 10
2373.850935451895
 20
881.4625252159414
 30
0.0
 11
2374.345910198725
 21
881.7483145001011
 31
0.0
  0
LINE
  5
5D4
330
552
100
AcDbEntity
  8
0
  6
Continuous
 62
     7
370
    15
100
AcDbLine
 10
2371.093219005267
 20
879.8705293978869
 30
0.0
 11
2369.466873408538
 21
880.8093987264829
 31
0.0
  0
LINE
  5
5D5
330
552
100
AcDbEntity
  8
0
  6
Continuous
 62
     7
370
    15
100
AcDbLine
 10
2369.466873408538
 20
880.8093987264829
 30
0.0
 11
2368.971898661707
 21
881.0951880106429
 31
0.0
  0
LINE
  5
5D6
330
552
100
AcDbEntity
  8
0
  6
Continuous
 62
     7
370
    15
100
AcDbLine
 10
2365.99694666801
 20
869.049716882111
 30
0.0
 11
2364.090868893463
 21
870.1500721596362
 31
0.0
  0
LINE
  5
5D7
330
552
100
AcDbEntity
  8
0
  6
Continuous
 62
     7
370
    15
100
AcDbLine
 10
2363.850465299339
 20
871.5856901123814
 30
0.0
 11
2364.090868893463
 21
870.1500721596362
 31
0.0
  0
LINE
  5
5D8
330
552
100
AcDbEntity
  8
0
  6
Continuous
 62
     7
370
    15
100
AcDbLine
 10
2371.269995700564
 20
878.9110508164023
 30
0.0
 11
2371.37804198432
 21
878.8486770244537
 31
0.0
  0
ARC
  5
5D9
330
552
100
AcDbEntity
  8
0
  6
Continuous
 62
     7
370
    15
100
AcDbCircle
 10
2371.171014654274
 20
878.5250255944392
 30
0.0
 40
0.3842012018931868
100
AcDbArc
 50
2.605478485662874
 51
57.39452165996985
  0
LINE
  5
5DA
330
552
100
AcDbEntity
  8
0
  6
Continuous
 62
     7
370
    15
100
AcDbLine
 10
2371.554818679616
 20
873.8326080933289
 30
0.0
 11
2371.554818679616
 21
878.5424908075045
 31
0.0
  0
LINE
  5
5DB
330
552
100
AcDbEntity
  8
0
  6
Continuous
 62
     7
370
    15
100
AcDbLine
 10
2371.554818679616
 20
873.8326080933289
 30
0.0
 11
2369.648740905069
 21
874.9329633708544
 31
0.0
  0
LINE
  5
5DC
330
552
100
AcDbEntity
  8
0
  6
Continuous
 62
     7
370
    15
100
AcDbLine
 10
2369.648740905068
 20
879.64284608503
 30
0.0
 11
2369.648740905069
 21
874.9329633708544
 31
0.0
  0
ARC
  5
5DD
330
552
100
AcDbEntity
  8
0
  6
Continuous
 62
     7
370
    15
100
AcDbCircle
 10
2369.756509496925
 20
879.6603278842551
 30
0.0
 40
0.1091772993571396
100
AcDbArc
 50
50.79671476430084
 51
189.2140369904564
  0
LINE
  5
5DE
330
552
100
AcDbEntity
  8
0
  6
Continuous
 62
     7
370
    15
100
AcDbLine
 10
2369.825517600365
 20
879.7449302740234
 30
0.0
 11
2369.933563884121
 21
879.6825564820746
 31
0.0
  0
ARC
  5
5DF
330
552
100
AcDbEntity
  8
0
  6
Continuous
 62
     7
370
    15
100
AcDbCircle
 10
2370.002571987561
 20
879.7671588718428
 30
0.0
 40
0.1091772993570804
100
AcDbArc
 50
230.7967147642601
 51
9.214036990514232
  0
LINE
  5
5E0
330
552
100
AcDbEntity
  8
0
  6
Continuous
 62
     7
370
    15
100
AcDbLine
 10
2370.110340579418
 20
879.784640671068
 30
0.0
 11
2370.110340579418
 21
880.4379330356034
 31
0.0
  0
LINE
  5
5E1
330
552
100
AcDbEntity
  8
0
  6
Continuous
 62
     7
370
    15
100
AcDbLine
 10
2371.093219005267
 20
879.8705293978867
 30
0.0
 11
2371.093219005267
 21
879.2172370333517
 31
0.0
  0
ARC
  5
5E2
330
552
100
AcDbEntity
  8
0
  6
Continuous
 62
     7
370
    15
100
AcDbCircle
 10
2371.477023030608
 20
879.2347022464165
 30
0.0
 40
0.3842012018924706
100
AcDbArc
 50
182.6054784856108
 51
237.3945216600348
  0
LINE
  5
5E3
330
552
100
AcDbEntity
  8
0
  6
Continuous
 62
     7
370
    15
100
AcDbLine
 10
2371.093219005267
 20
879.2172370333517
 30
0.0
 11
2373.214539348826
 21
880.4418492010851
 31
0.0
  0
LINE
  5
5E4
330
552
100
AcDbEntity
  8
0
  6
Continuous
 62
     7
370
    15
100
AcDbLine
 10
2373.214539348826
 20
880.4418492010851
 30
0.0
 11
2373.214539348826
 21
881.0951415656207
 31
0.0
  0
LINE
  5
5E5
330
552
100
AcDbEntity
  8
0
  6
Continuous
 62
     7
370
    15
100
AcDbLine
 10
2373.499362327879
 20
880.0732891921876
 30
0.0
 11
2371.37804198432
 21
878.8486770244537
 31
0.0
  0
ARC
  5
5E6
330
552
100
AcDbEntity
  8
0
  6
Continuous
 62
     7
370
    15
100
AcDbCircle
 10
2373.292334997834
 20
879.7496377621735
 30
0.0
 40
0.3842012018926237
100
AcDbArc
 50
2.605478485636846
 51
57.39452166000233
  0
LINE
  5
5E7
330
552
100
AcDbEntity
  8
0
  6
Continuous
 62
     7
370
    15
100
AcDbLine
 10
2371.554818679616
 20
878.5424908075045
 30
0.0
 11
2373.676139023176
 21
879.7671029752384
 31
0.0
  0
ARC
  5
5E8
330
552
100
AcDbEntity
  8
0
  6
Continuous
 62
     7
370
    15
100
AcDbCircle
 10
2364.391870146577
 20
870.1788378118616
 30
0.0
 40
0.302372646124386
100
AcDbArc
 50
185.4589815370972
 51
237.2630757800982
  0
ARC
  5
5E9
330
552
100
AcDbEntity
  8
0
  6
Continuous
 62
     7
370
    15
100
AcDbCircle
 10
2373.598343374165
 20
880.4593144141486
 30
0.0
 40
0.3842012018902734
100
AcDbArc
 50
182.6054784854351
 51
237.3945216601902
  0
LINE
  5
5EA
330
552
100
AcDbEntity
  8
0
  6
Continuous
 62
     7
370
    15
100
AcDbLine
 10
2373.391316044123
 20
880.1356629841357
 30
0.0
 11
2371.269995700564
 21
878.9110508164023
 31
0.0
  0
LINE
  5
5EB
330
552
100
AcDbEntity
  8
0
  6
Continuous
 62
     7
370
    15
100
AcDbLine
 10
2373.676139023176
 20
879.7671029752384
 30
0.0
 11
2373.676139023176
 21
875.0572202610634
 31
0.0
  0
LINE
  5
5EC
330
552
100
AcDbEntity
  8
0
  6
Continuous
 62
     7
370
    15
100
AcDbLine
 10
2373.676139023176
 20
875.0572202610634
 30
0.0
 11
2373.435735429051
 21
873.3440382266598
 31
0.0
  0
ARC
  5
5ED
330
552
100
AcDbEntity
  8
0
  6
Continuous
 62
     7
370
    15
100
AcDbCircle
 10
2372.353504447108
 20
873.5094571726707
 30
0.0
 40
1.094800130607436
100
AcDbArc
 50
302.9067666138728
 51
351.3096048990367
  0
LINE
  5
5EE
330
552
100
AcDbEntity
  8
0
  6
Continuous
 62
     7
370
    15
100
AcDbLine
 10
2372.282677241964
 20
872.2060669123969
 30
0.0
 11
2372.948280460827
 21
872.5903114717711
 31
0.0
  0
LWPOLYLINE
  5
5EF
330
552
100
AcDbEntity
  8
0
  6
Continuous
 62
     7
370
    15
100
AcDbPolyline
 90
        9
 70
   128
 43
0.0
 10
2372.282677241964
 20
872.2060669123969
 10
2372.196725779186
 20
872.1651317518821
 10
2372.11338590811
 20
872.142807511071
 10
2372.035189868549
 20
872.1397725007241
 10
2371.964513607593
 20
872.1561189380951
 10
2371.90350458767
 20
872.1913501449559
 10
2371.854016536977
 20
872.244395638914
 10
2371.817553124892
 20
872.3136436594781
 10
2371.79522227374
 20
872.396990140584
  0
LINE
  5
5F0
330
552
100
AcDbEntity
  8
0
  6
Continuous
 62
     7
370
    15
100
AcDbLine
 10
2371.79522227374
 20
872.396990140584
 30
0.0
 11
2371.554818679616
 21
873.8326080933289
 31
0.0
  0
LINE
  5
5F1
330
552
100
AcDbEntity
  8
0
  6
Continuous
 62
     7
370
    15
100
AcDbLine
 10
2373.499362327879
 20
880.0732891921876
 30
0.0
 11
2373.391316044123
 21
880.1356629841357
 31
0.0
  0
LINE
  5
5F2
330
552
100
AcDbEntity
  8
0
  6
Continuous
 62
     7
370
    15
100
AcDbLine
 10
2379.649211057625
 20
888.0585654016488
 30
0.0
 11
2377.881444104658
 21
887.0380552618705
 31
0.0
  0
LINE
  5
5F3
330
552
100
AcDbEntity
  8
0
  6
Continuous
 62
     7
370
    15
100
AcDbLine
 10
2379.401723684209
 20
887.1399337657665
 30
0.0
 11
2379.649211057625
 21
888.0585654016488
 31
0.0
  0
LINE
  5
5F4
330
552
100
AcDbEntity
  8
0
  6
Continuous
 62
     7
370
    15
100
AcDbLine
 10
2377.633956731243
 20
886.119423625988
 30
0.0
 11
2377.881444104658
 21
887.0380552618705
 31
0.0
  0
LINE
  5
5F5
330
552
100
AcDbEntity
  8
0
  6
Continuous
 62
     7
370
    15
100
AcDbLine
 10
2379.649211057625
 20
888.0585654016488
 30
0.0
 11
2379.401723684209
 21
888.201436821218
 31
0.0
  0
LINE
  5
5F6
330
552
100
AcDbEntity
  8
0
  6
Continuous
 62
     7
370
    15
100
AcDbLine
 10
2377.881444104658
 20
887.0380552618705
 30
0.0
 11
2377.633956731243
 21
887.1809266814395
 31
0.0
  0
LINE
  5
5F7
330
552
100
AcDbEntity
  8
0
  6
Continuous
 62
     7
370
    15
100
AcDbLine
 10
2374.626240284615
 20
886.3395042398087
 30
0.0
 11
2376.747560628175
 21
885.1148920720747
 31
0.0
  0
LWPOLYLINE
  5
5F8
330
552
100
AcDbEntity
  8
0
  6
Continuous
 62
     7
370
    15
100
AcDbPolyline
 90
        3
 70
   128
 43
0.0
 10
2374.593397572141
 20
886.3642730744999
 10
2374.602939817865
 20
886.355739935615
 10
2374.626240284615
 20
886.3395042398087
  0
LINE
  5
5F9
330
552
100
AcDbEntity
  8
0
  6
Continuous
 62
     7
370
    15
100
AcDbLine
 10
2374.666620876844
 20
886.3161854420351
 30
0.0
 11
2376.787941220404
 21
885.0915732743009
 31
0.0
  0
LINE
  5
5FA
330
552
100
AcDbEntity
  8
0
  6
Continuous
 62
     7
370
    15
100
AcDbLine
 10
2374.666620876844
 20
886.3161854420351
 30
0.0
 11
2374.626240284615
 21
886.3395042398087
 31
0.0
  0
LINE
  5
5FB
330
552
100
AcDbEntity
  8
0
  6
Continuous
 62
     7
370
    15
100
AcDbLine
 10
2374.770174267437
 20
886.0872747693692
 30
0.0
 11
2376.891494610997
 21
884.8626626016352
 31
0.0
  0
ARC
  5
5FC
330
552
100
AcDbEntity
  8
0
  6
Continuous
 62
     7
370
    15
100
AcDbCircle
 10
2374.519844480755
 20
886.1119097159999
 30
0.0
 40
0.2515390281767882
100
AcDbArc
 50
354.3796210363061
 51
54.30196147131599
  0
LINE
  5
5FD
330
552
100
AcDbEntity
  8
0
  6
Continuous
 62
     7
370
    15
100
AcDbLine
 10
2376.891494610997
 20
883.2178491013818
 30
0.0
 11
2374.770174267437
 21
884.442461269116
 31
0.0
  0
LINE
  5
5FE
330
552
100
AcDbEntity
  8
0
  6
Continuous
 62
     7
370
    15
100
AcDbLine
 10
2374.770174267437
 20
884.442461269116
 30
0.0
 11
2374.770174267437
 21
886.0872747693692
 31
0.0
  0
LINE
  5
5FF
330
552
100
AcDbEntity
  8
0
  6
Continuous
 62
     7
370
    15
100
AcDbLine
 10
2376.891494610997
 20
883.21780265636
 30
0.0
 11
2379.649211057625
 21
884.8097984744143
 31
0.0
  0
LINE
  5
600
330
552
100
AcDbEntity
  8
0
  6
Continuous
 62
     7
370
    15
100
AcDbLine
 10
2376.891494610998
 20
883.2178491013818
 30
0.0
 11
2376.891494610997
 21
883.2178026563598
 31
0.0
  0
LINE
  5
601
330
552
100
AcDbEntity
  8
0
  6
Continuous
 62
     7
370
    15
100
AcDbLine
 10
2379.649211057625
 20
884.8097984744143
 30
0.0
 11
2380.144185804455
 21
885.0955877585743
 31
0.0
  0
LINE
  5
602
330
552
100
AcDbEntity
  8
0
  6
Continuous
 62
     7
370
    15
100
AcDbLine
 10
2376.891494610997
 20
883.21780265636
 30
0.0
 11
2375.265149014268
 21
884.1566719849559
 31
0.0
  0
LINE
  5
603
330
552
100
AcDbEntity
  8
0
  6
Continuous
 62
     7
370
    15
100
AcDbLine
 10
2375.265149014268
 20
884.1566719849559
 30
0.0
 11
2374.770174267437
 21
884.442461269116
 31
0.0
  0
LINE
  5
604
330
552
100
AcDbEntity
  8
0
  6
Continuous
 62
     7
370
    15
100
AcDbLine
 10
2371.79522227374
 20
872.396990140584
 30
0.0
 11
2369.889144499193
 21
873.4973454181094
 31
0.0
  0
LINE
  5
605
330
552
100
AcDbEntity
  8
0
  6
Continuous
 62
     7
370
    15
100
AcDbLine
 10
2369.648740905069
 20
874.9329633708544
 30
0.0
 11
2369.889144499193
 21
873.4973454181094
 31
0.0
  0
LINE
  5
606
330
552
100
AcDbEntity
  8
0
  6
Continuous
 62
     7
370
    15
100
AcDbLine
 10
2377.068271306294
 20
882.2583240748754
 30
0.0
 11
2377.176317590049
 21
882.1959502829267
 31
0.0
  0
ARC
  5
607
330
552
100
AcDbEntity
  8
0
  6
Continuous
 62
     7
370
    15
100
AcDbCircle
 10
2376.969290260004
 20
881.8722988529124
 30
0.0
 40
0.3842012018930178
100
AcDbArc
 50
2.605478485656367
 51
57.39452165996985
  0
LINE
  5
608
330
552
100
AcDbEntity
  8
0
  6
Continuous
 62
     7
370
    15
100
AcDbLine
 10
2377.353094285346
 20
877.1798813518019
 30
0.0
 11
2377.353094285346
 21
881.8897640659775
 31
0.0
  0
LINE
  5
609
330
552
100
AcDbEntity
  8
0
  6
Continuous
 62
     7
370
    15
100
AcDbLine
 10
2377.353094285346
 20
877.1798813518019
 30
0.0
 11
2375.447016510799
 21
878.2802366293275
 31
0.0
  0
LINE
  5
60A
330
552
100
AcDbEntity
  8
0
  6
Continuous
 62
     7
370
    15
100
AcDbLine
 10
2375.447016510798
 20
882.9901193435031
 30
0.0
 11
2375.447016510799
 21
878.2802366293275
 31
0.0
  0
ARC
  5
60B
330
552
100
AcDbEntity
  8
0
  6
Continuous
 62
     7
370
    15
100
AcDbCircle
 10
2375.554785102655
 20
883.0076011427282
 30
0.0
 40
0.1091772993571314
100
AcDbArc
 50
50.79671476426829
 51
189.2140369904821
  0
LINE
  5
60C
330
552
100
AcDbEntity
  8
0
  6
Continuous
 62
     7
370
    15
100
AcDbLine
 10
2375.623793206095
 20
883.0922035324965
 30
0.0
 11
2375.731839489851
 21
883.0298297405475
 31
0.0
  0
ARC
  5
60D
330
552
100
AcDbEntity
  8
0
  6
Continuous
 62
     7
370
    15
100
AcDbCircle
 10
2375.800847593291
 20
883.114432130316
 30
0.0
 40
0.1091772993571056
100
AcDbArc
 50
230.7967147642926
 51
9.214036990488514
  0
LINE
  5
60E
330
552
100
AcDbEntity
  8
0
  6
Continuous
 62
     7
370
    15
100
AcDbLine
 10
2375.908616185148
 20
883.1319139295411
 30
0.0
 11
2375.908616185148
 21
883.7852062940765
 31
0.0
  0
LINE
  5
60F
330
552
100
AcDbEntity
  8
0
  6
Continuous
 62
     7
370
    15
100
AcDbLine
 10
2376.891494610997
 20
883.2178026563596
 30
0.0
 11
2376.891494610997
 21
882.5645102918247
 31
0.0
  0
ARC
  5
610
330
552
100
AcDbEntity
  8
0
  6
Continuous
 62
     7
370
    15
100
AcDbCircle
 10
2377.275298636339
 20
882.5819755048897
 30
0.0
 40
0.384201201892788
100
AcDbArc
 50
182.6054784856433
 51
237.3945216600313
  0
LINE
  5
611
330
552
100
AcDbEntity
  8
0
  6
Continuous
 62
     7
370
    15
100
AcDbLine
 10
2376.891494610997
 20
882.5645102918247
 30
0.0
 11
2379.012814954555
 21
883.7891224595582
 31
0.0
  0
LINE
  5
612
330
552
100
AcDbEntity
  8
0
  6
Continuous
 62
     7
370
    15
100
AcDbLine
 10
2379.012814954555
 20
883.7891224595582
 30
0.0
 11
2379.012814954556
 21
884.4424148240937
 31
0.0
  0
LINE
  5
613
330
552
100
AcDbEntity
  8
0
  6
Continuous
 62
     7
370
    15
100
AcDbLine
 10
2379.297637933608
 20
883.4205624506607
 30
0.0
 11
2377.176317590049
 21
882.1959502829267
 31
0.0
  0
ARC
  5
614
330
552
100
AcDbEntity
  8
0
  6
Continuous
 62
     7
370
    15
100
AcDbCircle
 10
2379.090610603563
 20
883.0969110206464
 30
0.0
 40
0.384201201892854
100
AcDbArc
 50
2.60547848564986
 51
57.39452165999882
  0
LINE
  5
615
330
552
100
AcDbEntity
  8
0
  6
Continuous
 62
     7
370
    15
100
AcDbLine
 10
2377.353094285346
 20
881.8897640659775
 30
0.0
 11
2379.474414628905
 21
883.1143762337115
 31
0.0
  0
ARC
  5
616
330
552
100
AcDbEntity
  8
0
  6
Continuous
 62
     7
370
    15
100
AcDbCircle
 10
2370.190145752307
 20
873.5261110703348
 30
0.0
 40
0.3023726461243768
100
AcDbArc
 50
185.4589815370972
 51
237.2630757801018
  0
ARC
  5
617
330
552
100
AcDbEntity
  8
0
  6
Continuous
 62
     7
370
    15
100
AcDbCircle
 10
2379.396618979895
 20
883.8065876726217
 30
0.0
 40
0.384201201890214
100
AcDbArc
 50
182.6054784854286
 51
237.3945216601867
  0
LINE
  5
618
330
552
100
AcDbEntity
  8
0
  6
Continuous
 62
     7
370
    15
100
AcDbLine
 10
2379.189591649852
 20
883.4829362426088
 30
0.0
 11
2377.068271306294
 21
882.2583240748754
 31
0.0
  0
LINE
  5
619
330
552
100
AcDbEntity
  8
0
  6
Continuous
 62
     7
370
    15
100
AcDbLine
 10
2379.474414628905
 20
883.1143762337115
 30
0.0
 11
2379.474414628905
 21
878.4044935195364
 31
0.0
  0
LINE
  5
61A
330
552
100
AcDbEntity
  8
0
  6
Continuous
 62
     7
370
    15
100
AcDbLine
 10
2379.474414628905
 20
878.4044935195364
 30
0.0
 11
2379.23401103478
 21
876.6913114851329
 31
0.0
  0
ARC
  5
61B
330
552
100
AcDbEntity
  8
0
  6
Continuous
 62
     7
370
    15
100
AcDbCircle
 10
2378.151780052837
 20
876.8567304311437
 30
0.0
 40
1.094800130607773
100
AcDbArc
 50
302.9067666138764
 51
351.3096048990302
  0
LINE
  5
61C
330
552
100
AcDbEntity
  8
0
  6
Continuous
 62
     7
370
    15
100
AcDbLine
 10
2378.080952847693
 20
875.5533401708699
 30
0.0
 11
2378.746556066557
 21
875.9375847302441
 31
0.0
  0
LWPOLYLINE
  5
61D
330
552
100
AcDbEntity
  8
0
  6
Continuous
 62
     7
370
    15
100
AcDbPolyline
 90
        9
 70
   128
 43
0.0
 10
2378.080952847693
 20
875.5533401708699
 10
2377.995001384915
 20
875.5124050103551
 10
2377.91166151384
 20
875.490080769544
 10
2377.833465474278
 20
875.4870457591971
 10
2377.762789213323
 20
875.5033921965681
 10
2377.7017801934
 20
875.538623403429
 10
2377.652292142706
 20
875.5916688973872
 10
2377.615828730622
 20
875.660916917951
 10
2377.59349787947
 20
875.7442633990571
  0
LINE
  5
61E
330
552
100
AcDbEntity
  8
0
  6
Continuous
 62
     7
370
    15
100
AcDbLine
 10
2377.59349787947
 20
875.7442633990571
 30
0.0
 11
2377.353094285346
 21
877.1798813518019
 31
0.0
  0
LINE
  5
61F
330
552
100
AcDbEntity
  8
0
  6
Continuous
 62
     7
370
    15
100
AcDbLine
 10
2379.297637933608
 20
883.4205624506607
 30
0.0
 11
2379.189591649852
 21
883.4829362426088
 31
0.0
  0
LINE
  5
620
330
552
100
AcDbEntity
  8
0
  6
Continuous
 62
     7
370
    15
100
AcDbLine
 10
2377.59349787947
 20
875.7442633990571
 30
0.0
 11
2375.687420104923
 21
876.8446186765824
 31
0.0
  0
LINE
  5
621
330
552
100
AcDbEntity
  8
0
  6
Continuous
 62
     7
370
    15
100
AcDbLine
 10
2375.447016510799
 20
878.2802366293275
 30
0.0
 11
2375.687420104923
 21
876.8446186765824
 31
0.0
  0
ARC
  5
622
330
552
100
AcDbEntity
  8
0
  6
Continuous
 62
     7
370
    15
100
AcDbCircle
 10
2375.988421358037
 20
876.8733843288076
 30
0.0
 40
0.3023726461241401
100
AcDbArc
 50
185.4589815370777
 51
237.2630757801307
  0
LINE
  5
623
330
552
100
AcDbEntity
  8
0
  6
Continuous
 62
     8
370
    15
100
AcDbLine
 10
2370.845731631852
 20
881.9965294862674
 30
0.0
 11
2368.795121966411
 21
883.1803212484105
 31
0.0
  0
LINE
  5
624
330
552
100
AcDbEntity
  8
0
  6
Continuous
 62
     8
370
    15
100
AcDbLine
 10
2364.135288278392
 20
876.3352832236014
 30
0.0
 11
2364.312064971354
 21
876.4373342362315
 31
0.0
  0
LINE
  5
625
330
552
100
AcDbEntity
  8
0
  6
Continuous
 62
     8
370
    15
100
AcDbLine
 10
2364.027241994635
 20
876.3976570155504
 30
0.0
 11
2364.312064973688
 21
876.5620818214774
 31
0.0
  0
LINE
  5
626
330
552
100
AcDbEntity
  8
0
  6
Continuous
 62
     8
370
    15
100
AcDbLine
 10
2376.644007237582
 20
885.3438027447404
 30
0.0
 11
2374.593397572141
 21
886.5275945068834
 31
0.0
  0
LINE
  5
627
330
552
100
AcDbEntity
  8
0
  6
Continuous
 62
     8
370
    15
100
AcDbLine
 10
2369.933563884121
 20
879.6825564820746
 30
0.0
 11
2370.110340577083
 21
879.7846074947043
 31
0.0
  0
LINE
  5
628
330
552
100
AcDbEntity
  8
0
  6
Continuous
 62
     8
370
    15
100
AcDbLine
 10
2369.825517600365
 20
879.7449302740234
 30
0.0
 11
2370.110340579418
 21
879.9093550799504
 31
0.0
  0
LINE
  5
629
330
552
100
AcDbEntity
  8
0
  6
Continuous
 62
     8
370
    15
100
AcDbLine
 10
2375.731839489851
 20
883.0298297405475
 30
0.0
 11
2375.908616182813
 21
883.1318807531774
 31
0.0
  0
LINE
  5
62A
330
552
100
AcDbEntity
  8
0
  6
Continuous
 62
     8
370
    15
100
AcDbLine
 10
2375.623793206095
 20
883.0922035324965
 30
0.0
 11
2375.908616185148
 21
883.2566283384235
 31
0.0
  0
ENDBLK
  5
554
330
552
100
AcDbEntity
  8
0
100
AcDbBlockEnd
  0
ENDSEC
  0
SECTION
  2
ENTITIES
  0
INSERT
  5
516
330
1F
100
AcDbEntity
  8
0
100
AcDbBlockReference
  2
1
 10
0.0
 20
0.0
 30
0.0
  0
INSERT
  5
549
330
1F
100
AcDbEntity
  8
0
100
AcDbBlockReference
  2
2
 10
0.0
 20
0.0
 30
0.0
  0
INSERT
  5
551
330
1F
100
AcDbEntity
  8
0
100
AcDbBlockReference
  2
3
 10
0.0
 20
0.0
 30
0.0
  0
INSERT
  5
62B
330
1F
100
AcDbEntity
  8
0
100
AcDbBlockReference
  2
4
 10
0.0
 20
0.0
 30
0.0
  0
ENDSEC
  0
SECTION
  2
OBJECTS
  0
DICTIONARY
  5
C
330
0
100
AcDbDictionary
281
     1
  3
ACAD_COLOR
350
6B
  3
ACAD_GROUP
350
D
  3
ACAD_LAYOUT
350
1A
  3
ACAD_MATERIAL
350
6A
  3
ACAD_MLEADERSTYLE
350
12D
  3
ACAD_MLINESTYLE
350
17
  3
ACAD_PLOTSETTINGS
350
19
  3
ACAD_PLOTSTYLENAME
350
E
  3
ACAD_SCALELIST
350
10C
  3
ACAD_TABLESTYLE
350
7E
  3
ACAD_VISUALSTYLE
350
EF
  3
ACDB_RECOMPOSE_DATA
350
15D
  3
AcDbVariableDictionary
350
5E
  3
DWGPROPS
350
639
  0
DICTIONARY
  5
13C
330
10
100
AcDbDictionary
280
     1
281
     1
  3
ADSK_XREC_LAYER_RECONCILED
360
62C
  0
DICTIONARY
  5
6B
102
{ACAD_REACTORS
330
C
102
}
330
C
100
AcDbDictionary
281
     1
  0
DICTIONARY
  5
D
102
{ACAD_REACTORS
330
C
102
}
330
C
100
AcDbDictionary
281
     1
  0
DICTIONARY
  5
1A
102
{ACAD_REACTORS
330
C
102
}
330
C
100
AcDbDictionary
281
     1
  3
Layout1
350
D3
  3
Layout2
350
D7
  3
Model
350
22
  0
DICTIONARY
  5
6A
102
{ACAD_REACTORS
330
C
102
}
330
C
100
AcDbDictionary
281
     1
  3
ByBlock
350
ED
  3
ByLayer
350
EC
  3
Global
350
EE
  0
DICTIONARY
  5
12D
102
{ACAD_REACTORS
330
C
102
}
330
C
100
AcDbDictionary
281
     1
  3
Annotative
350
13B
  3
Standard
350
12E
  0
DICTIONARY
  5
17
102
{ACAD_REACTORS
330
C
102
}
330
C
100
AcDbDictionary
281
     1
  3
Standard
350
18
  0
DICTIONARY
  5
19
102
{ACAD_REACTORS
330
C
102
}
330
C
100
AcDbDictionary
281
     1
  0
ACDBDICTIONARYWDFLT
  5
E
102
{ACAD_REACTORS
330
C
102
}
330
C
100
AcDbDictionary
281
     1
  3
Normal
350
F
100
AcDbDictionaryWithDefault
340
F
  0
DICTIONARY
  5
10C
102
{ACAD_REACTORS
330
C
102
}
330
C
100
AcDbDictionary
281
     1
  3
A0
350
10D
  3
A1
350
188
  3
A2
350
189
  3
A3
350
18A
  3
A4
350
18B
  3
A5
350
18C
  3
A6
350
18D
  3
A7
350
18E
  3
A8
350
18F
  3
A9
350
190
  3
B0
350
191
  3
B1
350
192
  3
B2
350
193
  3
B3
350
194
  3
B4
350
195
  3
B5
350
196
  3
B6
350
197
  3
B7
350
198
  3
B8
350
199
  3
B9
350
19A
  3
C0
350
19B
  3
C1
350
19C
  3
C2
350
19D
  3
C3
350
19E
  3
C4
350
19F
  3
C5
350
1A0
  3
C6
350
1A1
  3
C7
350
1A2
  3
C8
350
1A3
  3
C9
350
1A4
  3
D0
350
1A5
  3
D1
350
1A6
  3
D2
350
1A7
  0
DICTIONARY
  5
7E
102
{ACAD_REACTORS
330
C
102
}
330
C
100
AcDbDictionary
281
     1
  3
Standard
350
7F
  0
DICTIONARY
  5
EF
102
{ACAD_REACTORS
330
C
102
}
330
C
100
AcDbDictionary
281
     1
  3
2dWireframe
350
F5
  3
3D Hidden
350
F7
  3
3dWireframe
350
F6
  3
Basic
350
F4
  3
Brighten
350
FB
  3
ColorChange
350
FF
  3
Conceptual
350
F8
  3
Dim
350
FA
  3
Facepattern
350
FE
  3
Flat
350
F0
  3
FlatWithEdges
350
F1
  3
Gouraud
350
F2
  3
GouraudWithEdges
350
F3
  3
Linepattern
350
FD
  3
Realistic
350
F9
  3
Thicken
350
FC
  0
XRECORD
  5
15D
102
{ACAD_REACTORS
330
C
102
}
330
C
100
AcDbXrecord
280
     1
 90
        1
330
7F
  0
DICTIONARY
  5
5E
102
{ACAD_REACTORS
330
C
102
}
330
C
100
AcDbDictionary
281
     1
  3
CANNOSCALE
350
146
  3
CMLEADERSTYLE
350
145
  3
CTABLESTYLE
350
84
  3
DIMASSOC
350
5F
  3
HIDETEXT
350
63
  3
INDEXCTL
350
635
  3
LIGHTINGUNITS
350
633
  3
MSLTSCALE
350
632
  3
PSOLHEIGHT
350
637
  3
PSOLWIDTH
350
636
  3
SORTENTS
350
634
  0
XRECORD
  5
639
102
{ACAD_REACTORS
330
C
102
}
330
C
100
AcDbXrecord
280
     1
  1
DWGPROPS COOKIE
  2

  3

  4

  6

  7

  8
orhan kara
  9

300
=
301
=
302
=
303
=
304
=
305
=
306
=
307
=
308
=
309
=
 40
0.0003858564814815
 41
2458932.677297199
 42
2458956.445789769
  1

 90
        0
  0
XRECORD
  5
62C
102
{ACAD_REACTORS
330
13C
102
}
330
13C
100
AcDbXrecord
280
     1
290
     1
  0
LAYOUT
  5
D3
102
{ACAD_XDICTIONARY
360
63D
102
}
102
{ACAD_REACTORS
330
1A
102
}
330
1A
100
AcDbPlotSettings
  1

  2
C:\Documents and Settings\basas\Application Data\Autodesk\AutoCAD 2005\R16.1\enu\plotters\Default Windows System Printer.pc3
  4

  6

 40
0.0
 41
0.0
 42
0.0
 43
0.0
 44
0.0
 45
0.0
 46
0.0
 47
0.0
 48
0.0
 49
0.0
140
0.0
141
0.0
142
1.0
143
1.0
 70
   688
 72
     0
 73
     0
 74
     5
  7

 75
    16
147
1.0
148
0.0
149
0.0
100
AcDbLayout
  1
Layout1
 70
     1
 71
     1
 10
0.0
 20
0.0
 11
12.0
 21
9.0
 12
0.0
 22
0.0
 32
0.0
 14
0.0
 24
0.0
 34
0.0
 15
0.0
 25
0.0
 35
0.0
146
0.0
 13
0.0
 23
0.0
 33
0.0
 16
1.0
 26
0.0
 36
0.0
 17
0.0
 27
1.0
 37
0.0
 76
     0
330
D2
  0
LAYOUT
  5
D7
102
{ACAD_XDICTIONARY
360
63F
102
}
102
{ACAD_REACTORS
330
1A
102
}
330
1A
100
AcDbPlotSettings
  1

  2
C:\Documents and Settings\basas\Application Data\Autodesk\AutoCAD 2005\R16.1\enu\plotters\Default Windows System Printer.pc3
  4

  6

 40
0.0
 41
0.0
 42
0.0
 43
0.0
 44
0.0
 45
0.0
 46
0.0
 47
0.0
 48
0.0
 49
0.0
140
0.0
141
0.0
142
1.0
143
1.0
 70
   688
 72
     0
 73
     0
 74
     5
  7

 75
    16
147
1.0
148
0.0
149
0.0
100
AcDbLayout
  1
Layout2
 70
     1
 71
     2
 10
0.0
 20
0.0
 11
12.0
 21
9.0
 12
0.0
 22
0.0
 32
0.0
 14
0.0
 24
0.0
 34
0.0
 15
0.0
 25
0.0
 35
0.0
146
0.0
 13
0.0
 23
0.0
 33
0.0
 16
1.0
 26
0.0
 36
0.0
 17
0.0
 27
1.0
 37
0.0
 76
     0
330
D6
  0
LAYOUT
  5
22
102
{ACAD_XDICTIONARY
360
63A
102
}
102
{ACAD_REACTORS
330
1A
102
}
330
1A
100
AcDbPlotSettings
  1

  2
none_device
  4
ISO_A4_(210.00_x_297.00_MM)
  6

 40
7.5
 41
20.0
 42
7.5
 43
20.0
 44
210.0
 45
297.0
 46
11.54999923706054
 47
-13.65000009536743
 48
0.0
 49
0.0
140
0.0
141
0.0
142
1.0
143
8.704084754739808
 70
 11952
 72
     1
 73
     0
 74
     0
  7

 75
     0
147
0.1148885871608098
148
0.0
149
0.0
100
AcDbLayout
  1
Model
 70
     1
 71
     0
 10
0.0
 20
0.0
 11
12.0
 21
9.0
 12
0.0
 22
0.0
 32
0.0
 14
0.0
 24
0.0
 34
0.0
 15
0.0
 25
0.0
 35
0.0
146
0.0
 13
0.0
 23
0.0
 33
0.0
 16
1.0
 26
0.0
 36
0.0
 17
0.0
 27
1.0
 37
0.0
 76
     0
330
1F
331
EA
1001
ACAD_PSEXT
1000
None
1000
None
1000
Not applicable
1000
The layout will not be plotted unless a new plotter configuration name is selected.
1070
     0
  0
MATERIAL
  5
ED
102
{ACAD_XDICTIONARY
360
643
102
}
102
{ACAD_REACTORS
330
6A
102
}
330
6A
100
AcDbMaterial
  1
ByBlock
  0
MATERIAL
  5
EC
102
{ACAD_XDICTIONARY
360
641
102
}
102
{ACAD_REACTORS
330
6A
102
}
330
6A
100
AcDbMaterial
  1
ByLayer
  0
MATERIAL
  5
EE
102
{ACAD_XDICTIONARY
360
173
102
}
102
{ACAD_REACTORS
330
6A
102
}
330
6A
100
AcDbMaterial
  1
Global
 43
0.0007999999797903
 43
0.0
 43
0.0
 43
0.0
 43
0.0
 43
0.0007999999797903
 43
0.0
 43
0.0
 43
0.0
 43
0.0
 43
1.0
 43
0.0
 43
0.0
 43
0.0
 43
0.0
 43
1.0
 49
0.0007999999797903
 49
0.0
 49
0.0
 49
0.0
 49
0.0
 49
0.0007999999797903
 49
0.0
 49
0.0
 49
0.0
 49
0.0
 49
1.0
 49
0.0
 49
0.0
 49
0.0
 49
0.0
 49
1.0
142
0.0007999999797903
142
0.0
142
0.0
142
0.0
142
0.0
142
0.0007999999797903
142
0.0
142
0.0
142
0.0
142
0.0
142
1.0
142
0.0
142
0.0
142
0.0
142
0.0
142
1.0
144
0.0007999999797903
144
0.0
144
0.0
144
0.0
144
0.0
144
0.0007999999797903
144
0.0
144
0.0
144
0.0
144
0.0
144
1.0
144
0.0
144
0.0
144
0.0
144
0.0
144
1.0
1001
ACAD
1070
    -1
1070
     3
1070
     0
1000

1071
        0
1070
     0
  0
MLEADERSTYLE
  5
13B
102
{ACAD_REACTORS
330
12D
102
}
330
12D
100
AcDbMLeaderStyle
170
     2
171
     1
172
     0
 90
        2
 40
0.0
 41
0.0
173
     1
 91
-1056964608
340
14
 92
       -2
290
     1
 42
2.0
291
     1
 43
8.0
  3
Standard
 44
4.0
300

342
11
174
     1
178
     1
175
     1
176
     0
 93
-1056964608
 45
4.0
292
     0
297
     0
 46
4.0
 94
-1056964608
 47
1.0
 49
1.0
140
1.0
293
     1
141
0.0
294
     1
177
     0
142
1.0
295
     0
296
     1
143
3.75
1001
ACAD_MLEADERVER
1070
     2
  0
MLEADERSTYLE
  5
12E
102
{ACAD_REACTORS
330
12D
102
}
330
12D
100
AcDbMLeaderStyle
170
     2
171
     1
172
     0
 90
        2
 40
0.0
 41
0.0
173
     1
 91
-1056964608
340
14
 92
       -2
290
     1
 42
2.0
291
     1
 43
8.0
  3
Standard
 44
4.0
300

342
11
174
     1
178
     1
175
     1
176
     0
 93
-1056964608
 45
4.0
292
     0
297
     0
 46
4.0
 94
-1056964608
 47
1.0
 49
1.0
140
1.0
293
     1
141
0.0
294
     1
177
     0
142
1.0
295
     0
296
     0
143
3.75
1001
ACAD_MLEADERVER
1070
     2
  0
MLINESTYLE
  5
18
102
{ACAD_REACTORS
330
17
102
}
330
17
100
AcDbMlineStyle
  2
STANDARD
 70
     0
  3

 62
   256
 51
90.0
 52
90.0
 71
     2
 49
0.5
 62
   256
  6
BYLAYER
 49
-0.5
 62
   256
  6
BYLAYER
  0
ACDBPLACEHOLDER
  5
F
102
{ACAD_REACTORS
330
E
102
}
330
E
  0
SCALE
  5
10D
102
{ACAD_REACTORS
330
10C
102
}
330
10C
100
AcDbScale
 70
     0
300
1:1
140
1.0
141
1.0
290
     1
  0
SCALE
  5
188
102
{ACAD_REACTORS
330
10C
102
}
330
10C
100
AcDbScale
 70
     0
300
1:2
140
1.0
141
2.0
290
     0
  0
SCALE
  5
189
102
{ACAD_REACTORS
330
10C
102
}
330
10C
100
AcDbScale
 70
     0
300
1:4
140
1.0
141
4.0
290
     0
  0
SCALE
  5
18A
102
{ACAD_REACTORS
330
10C
102
}
330
10C
100
AcDbScale
 70
     0
300
1:5
140
1.0
141
5.0
290
     0
  0
SCALE
  5
18B
102
{ACAD_REACTORS
330
10C
102
}
330
10C
100
AcDbScale
 70
     0
300
1:8
140
1.0
141
8.0
290
     0
  0
SCALE
  5
18C
102
{ACAD_REACTORS
330
10C
102
}
330
10C
100
AcDbScale
 70
     0
300
1:10
140
1.0
141
10.0
290
     0
  0
SCALE
  5
18D
102
{ACAD_REACTORS
330
10C
102
}
330
10C
100
AcDbScale
 70
     0
300
1:16
140
1.0
141
16.0
290
     0
  0
SCALE
  5
18E
102
{ACAD_REACTORS
330
10C
102
}
330
10C
100
AcDbScale
 70
     0
300
1:20
140
1.0
141
20.0
290
     0
  0
SCALE
  5
18F
102
{ACAD_REACTORS
330
10C
102
}
330
10C
100
AcDbScale
 70
     0
300
1:30
140
1.0
141
30.0
290
     0
  0
SCALE
  5
190
102
{ACAD_REACTORS
330
10C
102
}
330
10C
100
AcDbScale
 70
     0
300
1:40
140
1.0
141
40.0
290
     0
  0
SCALE
  5
191
102
{ACAD_REACTORS
330
10C
102
}
330
10C
100
AcDbScale
 70
     0
300
1:50
140
1.0
141
50.0
290
     0
  0
SCALE
  5
192
102
{ACAD_REACTORS
330
10C
102
}
330
10C
100
AcDbScale
 70
     0
300
1:100
140
1.0
141
100.0
290
     0
  0
SCALE
  5
193
102
{ACAD_REACTORS
330
10C
102
}
330
10C
100
AcDbScale
 70
     0
300
2:1
140
2.0
141
1.0
290
     0
  0
SCALE
  5
194
102
{ACAD_REACTORS
330
10C
102
}
330
10C
100
AcDbScale
 70
     0
300
4:1
140
4.0
141
1.0
290
     0
  0
SCALE
  5
195
102
{ACAD_REACTORS
330
10C
102
}
330
10C
100
AcDbScale
 70
     0
300
8:1
140
8.0
141
1.0
290
     0
  0
SCALE
  5
196
102
{ACAD_REACTORS
330
10C
102
}
330
10C
100
AcDbScale
 70
     0
300
10:1
140
10.0
141
1.0
290
     0
  0
SCALE
  5
197
102
{ACAD_REACTORS
330
10C
102
}
330
10C
100
AcDbScale
 70
     0
300
100:1
140
100.0
141
1.0
290
     0
  0
SCALE
  5
198
102
{ACAD_REACTORS
330
10C
102
}
330
10C
100
AcDbScale
 70
     0
300
1/128" = 1'-0"
140
0.0078125
141
12.0
290
     0
  0
SCALE
  5
199
102
{ACAD_REACTORS
330
10C
102
}
330
10C
100
AcDbScale
 70
     0
300
1/64" = 1'-0"
140
0.015625
141
12.0
290
     0
  0
SCALE
  5
19A
102
{ACAD_REACTORS
330
10C
102
}
330
10C
100
AcDbScale
 70
     0
300
1/32" = 1'-0"
140
0.03125
141
12.0
290
     0
  0
SCALE
  5
19B
102
{ACAD_REACTORS
330
10C
102
}
330
10C
100
AcDbScale
 70
     0
300
1/16" = 1'-0"
140
0.0625
141
12.0
290
     0
  0
SCALE
  5
19C
102
{ACAD_REACTORS
330
10C
102
}
330
10C
100
AcDbScale
 70
     0
300
3/32" = 1'-0"
140
0.09375
141
12.0
290
     0
  0
SCALE
  5
19D
102
{ACAD_REACTORS
330
10C
102
}
330
10C
100
AcDbScale
 70
     0
300
1/8" = 1'-0"
140
0.125
141
12.0
290
     0
  0
SCALE
  5
19E
102
{ACAD_REACTORS
330
10C
102
}
330
10C
100
AcDbScale
 70
     0
300
3/16" = 1'-0"
140
0.1875
141
12.0
290
     0
  0
SCALE
  5
19F
102
{ACAD_REACTORS
330
10C
102
}
330
10C
100
AcDbScale
 70
     0
300
1/4" = 1'-0"
140
0.25
141
12.0
290
     0
  0
SCALE
  5
1A0
102
{ACAD_REACTORS
330
10C
102
}
330
10C
100
AcDbScale
 70
     0
300
3/8" = 1'-0"
140
0.375
141
12.0
290
     0
  0
SCALE
  5
1A1
102
{ACAD_REACTORS
330
10C
102
}
330
10C
100
AcDbScale
 70
     0
300
1/2" = 1'-0"
140
0.5
141
12.0
290
     0
  0
SCALE
  5
1A2
102
{ACAD_REACTORS
330
10C
102
}
330
10C
100
AcDbScale
 70
     0
300
3/4" = 1'-0"
140
0.75
141
12.0
290
     0
  0
SCALE
  5
1A3
102
{ACAD_REACTORS
330
10C
102
}
330
10C
100
AcDbScale
 70
     0
300
1" = 1'-0"
140
1.0
141
12.0
290
     0
  0
SCALE
  5
1A4
102
{ACAD_REACTORS
330
10C
102
}
330
10C
100
AcDbScale
 70
     0
300
1-1/2" = 1'-0"
140
1.5
141
12.0
290
     0
  0
SCALE
  5
1A5
102
{ACAD_REACTORS
330
10C
102
}
330
10C
100
AcDbScale
 70
     0
300
3" = 1'-0"
140
3.0
141
12.0
290
     0
  0
SCALE
  5
1A6
102
{ACAD_REACTORS
330
10C
102
}
330
10C
100
AcDbScale
 70
     0
300
6" = 1'-0"
140
6.0
141
12.0
290
     0
  0
SCALE
  5
1A7
102
{ACAD_REACTORS
330
10C
102
}
330
10C
100
AcDbScale
 70
     0
300
1'-0" = 1'-0"
140
12.0
141
12.0
290
     0
  0
TABLESTYLE
  5
7F
102
{ACAD_XDICTIONARY
360
162
102
}
102
{ACAD_REACTORS
330
7E
102
}
330
7E
100
AcDbTableStyle
  3
Standard
 70
     0
 71
     0
 40
1.5
 41
1.5
280
     0
281
     0
  7
Standard
140
4.5
170
     2
 62
     0
 63
     7
283
     0
274
    -2
284
     1
 64
     0
275
    -2
285
     1
 65
     0
276
    -2
286
     1
 66
     0
277
    -2
287
     1
 67
     0
278
    -2
288
     1
 68
     0
279
    -2
289
     1
 69
     0
  7
Standard
140
6.0
170
     5
 62
     0
 63
     7
283
     0
274
    -2
284
     1
 64
     0
275
    -2
285
     1
 65
     0
276
    -2
286
     1
 66
     0
277
    -2
287
     1
 67
     0
278
    -2
288
     1
 68
     0
279
    -2
289
     1
 69
     0
  7
Standard
140
4.5
170
     5
 62
     0
 63
     7
283
     0
274
    -2
284
     1
 64
     0
275
    -2
285
     1
 65
     0
276
    -2
286
     1
 66
     0
277
    -2
287
     1
 67
     0
278
    -2
288
     1
 68
     0
279
    -2
289
     1
 69
     0
  0
VISUALSTYLE
  5
F5
102
{ACAD_REACTORS
330
EF
102
}
330
EF
100
AcDbVisualStyle
  2
2dWireframe
 70
     4
 71
     0
 72
     2
 73
     1
 90
        0
 40
-0.6
 41
-30.0
 62
     5
 63
     7
 74
     1
 91
        4
 64
     7
 65
   257
 75
     1
175
     1
 42
1.0
 92
        0
 66
   257
 43
1.0
 76
     1
 77
     6
 78
     2
 67
     7
 79
     5
170
     0
171
     0
290
     0
174
     0
 93
        1
 44
0.0
173
     0
291
     0
 45
0.0
1001
ACAD
1000
AcDbSavedByObjectVersion
1070
     0
  0
VISUALSTYLE
  5
F7
102
{ACAD_REACTORS
330
EF
102
}
330
EF
100
AcDbVisualStyle
  2
3D Hidden
 70
     6
 71
     1
 72
     2
 73
     2
 90
        0
 40
-0.6
 41
-30.0
 62
     5
 63
     7
 74
     2
 91
        2
 64
     7
 65
   257
 75
     2
175
     1
 42
40.0
 92
        0
 66
   257
 43
1.0
 76
     1
 77
     6
 78
     2
 67
     7
 79
     3
170
     0
171
     0
290
     0
174
     0
 93
        1
 44
0.0
173
     0
291
     0
 45
0.0
1001
ACAD
1000
AcDbSavedByObjectVersion
1070
     0
  0
VISUALSTYLE
  5
F6
102
{ACAD_REACTORS
330
EF
102
}
330
EF
100
AcDbVisualStyle
  2
3dWireframe
 70
     5
 71
     0
 72
     2
 73
     1
 90
        0
 40
-0.6
 41
-30.0
 62
     5
 63
     7
 74
     1
 91
        4
 64
     7
 65
   257
 75
     1
175
     1
 42
1.0
 92
        0
 66
   257
 43
1.0
 76
     1
 77
     6
 78
     2
 67
     7
 79
     5
170
     0
171
     0
290
     0
174
     0
 93
        1
 44
0.0
173
     0
291
     0
 45
0.0
1001
ACAD
1000
AcDbSavedByObjectVersion
1070
     0
  0
VISUALSTYLE
  5
F4
102
{ACAD_REACTORS
330
EF
102
}
330
EF
100
AcDbVisualStyle
  2
Basic
 70
     7
 71
     1
 72
     0
 73
     1
 90
        0
 40
-0.6
 41
-30.0
 62
     5
 63
     7
 74
     0
 91
        4
 64
     7
 65
   257
 75
     1
175
     1
 42
1.0
 92
        8
 66
     7
 43
1.0
 76
     1
 77
     6
 78
     2
 67
     7
 79
     5
170
     0
171
     0
290
     0
174
     0
 93
        1
 44
0.0
173
     0
291
     1
 45
0.0
1001
ACAD
1000
AcDbSavedByObjectVersion
1070
     0
  0
VISUALSTYLE
  5
FB
102
{ACAD_REACTORS
330
EF
102
}
330
EF
100
AcDbVisualStyle
  2
Brighten
 70
    12
 71
     2
 72
     2
 73
     1
 90
        0
 40
-0.6
 41
-30.0
 62
     5
 63
     7
 74
     1
 91
        4
 64
     7
 65
   257
 75
     1
175
     1
 42
1.0
 92
        8
 66
     7
 43
1.0
 76
     1
 77
     6
 78
     2
 67
     7
 79
     5
170
     0
171
     0
290
     0
174
     0
 93
        1
 44
50.0
173
     0
291
     1
 45
0.0
1001
ACAD
1000
AcDbSavedByObjectVersion
1070
     0
  0
VISUALSTYLE
  5
FF
102
{ACAD_REACTORS
330
EF
102
}
330
EF
100
AcDbVisualStyle
  2
ColorChange
 70
    16
 71
     2
 72
     2
 73
     3
 90
        0
 40
-0.6
 41
-30.0
 62
     5
 63
     8
 74
     1
 91
        4
 64
     7
 65
   257
 75
     1
175
     1
 42
1.0
 92
        8
 66
     8
 43
1.0
 76
     1
 77
     6
 78
     2
 67
     7
 79
     5
170
     0
171
     0
290
     0
174
     0
 93
        1
 44
0.0
173
     0
291
     1
 45
0.0
1001
ACAD
1000
AcDbSavedByObjectVersion
1070
     0
  0
VISUALSTYLE
  5
F8
102
{ACAD_REACTORS
330
EF
102
}
330
EF
100
AcDbVisualStyle
  2
Conceptual
 70
     9
 71
     3
 72
     2
 73
     1
 90
        0
 40
-0.6
 41
-30.0
 62
     5
 63
     7
 74
     2
 91
        2
 64
     7
 65
   257
 75
     1
175
     1
 42
40.0
 92
        8
 66
     7
 43
1.0
 76
     1
 77
     6
 78
     2
 67
     7
 79
     3
170
     0
171
     0
290
     0
174
     0
 93
        1
 44
0.0
173
     0
291
     0
 45
0.0
1001
ACAD
1000
AcDbSavedByObjectVersion
1070
     0
  0
VISUALSTYLE
  5
FA
102
{ACAD_REACTORS
330
EF
102
}
330
EF
100
AcDbVisualStyle
  2
Dim
 70
    11
 71
     2
 72
     2
 73
     1
 90
        0
 40
-0.6
 41
-30.0
 62
     5
 63
     7
 74
     1
 91
        4
 64
     7
 65
   257
 75
     1
175
     1
 42
1.0
 92
        8
 66
     7
 43
1.0
 76
     1
 77
     6
 78
     2
 67
     7
 79
     5
170
     0
171
     0
290
     0
174
     0
 93
        1
 44
-50.0
173
     0
291
     1
 45
0.0
1001
ACAD
1000
AcDbSavedByObjectVersion
1070
     0
  0
VISUALSTYLE
  5
FE
102
{ACAD_REACTORS
330
EF
102
}
330
EF
100
AcDbVisualStyle
  2
Facepattern
 70
    15
 71
     2
 72
     2
 73
     1
 90
        0
 40
-0.6
 41
-30.0
 62
     5
 63
     7
 74
     1
 91
        4
 64
     7
 65
   257
 75
     1
175
     1
 42
1.0
 92
        8
 66
     7
 43
1.0
 76
     1
 77
     6
 78
     2
 67
     7
 79
     5
170
     0
171
     0
290
     0
174
     0
 93
        1
 44
0.0
173
     0
291
     1
 45
0.0
1001
ACAD
1000
AcDbSavedByObjectVersion
1070
     0
  0
VISUALSTYLE
  5
F0
102
{ACAD_REACTORS
330
EF
102
}
330
EF
100
AcDbVisualStyle
  2
Flat
 70
     0
 71
     2
 72
     1
 73
     1
 90
        2
 40
-0.6
 41
30.0
 62
     5
 63
     7
 74
     0
 91
        4
 64
     7
 65
   257
 75
     1
175
     1
 42
1.0
 92
        8
 66
     7
 43
1.0
 76
     1
 77
     6
 78
     2
 67
     7
 79
     5
170
     0
171
     0
290
     0
174
     0
 93
        1
 44
0.0
173
     0
291
     1
 45
0.0
1001
ACAD
1000
AcDbSavedByObjectVersion
1070
     0
  0
VISUALSTYLE
  5
F1
102
{ACAD_REACTORS
330
EF
102
}
330
EF
100
AcDbVisualStyle
  2
FlatWithEdges
 70
     1
 71
     2
 72
     1
 73
     1
 90
        2
 40
-0.6
 41
30.0
 62
     5
 63
     7
 74
     1
 91
        4
 64
     7
 65
   257
 75
     1
175
     1
 42
1.0
 92
        0
 66
   257
 43
1.0
 76
     1
 77
     6
 78
     2
 67
     7
 79
     5
170
     0
171
     0
290
     0
174
     0
 93
        1
 44
0.0
173
     0
291
     1
 45
0.0
1001
ACAD
1000
AcDbSavedByObjectVersion
1070
     0
  0
VISUALSTYLE
  5
F2
102
{ACAD_REACTORS
330
EF
102
}
330
EF
100
AcDbVisualStyle
  2
Gouraud
 70
     2
 71
     2
 72
     2
 73
     1
 90
        2
 40
-0.6
 41
30.0
 62
     5
 63
     7
 74
     0
 91
        4
 64
     7
 65
   257
 75
     1
175
     1
 42
1.0
 92
        0
 66
     7
 43
1.0
 76
     1
 77
     6
 78
     2
 67
     7
 79
     5
170
     0
171
     0
290
     0
174
     0
 93
        1
 44
0.0
173
     0
291
     1
 45
0.0
1001
ACAD
1000
AcDbSavedByObjectVersion
1070
     0
  0
VISUALSTYLE
  5
F3
102
{ACAD_REACTORS
330
EF
102
}
330
EF
100
AcDbVisualStyle
  2
GouraudWithEdges
 70
     3
 71
     2
 72
     2
 73
     1
 90
        2
 40
-0.6
 41
30.0
 62
     5
 63
     7
 74
     1
 91
        4
 64
     7
 65
   257
 75
     1
175
     1
 42
1.0
 92
        0
 66
   257
 43
1.0
 76
     1
 77
     6
 78
     2
 67
     7
 79
     5
170
     0
171
     0
290
     0
174
     0
 93
        1
 44
0.0
173
     0
291
     1
 45
0.0
1001
ACAD
1000
AcDbSavedByObjectVersion
1070
     0
  0
VISUALSTYLE
  5
FD
102
{ACAD_REACTORS
330
EF
102
}
330
EF
100
AcDbVisualStyle
  2
Linepattern
 70
    14
 71
     2
 72
     2
 73
     1
 90
        0
 40
-0.6
 41
-30.0
 62
     5
 63
     7
 74
     1
 91
        4
 64
     7
 65
   257
 75
     7
175
     7
 42
1.0
 92
        8
 66
     7
 43
1.0
 76
     1
 77
     6
 78
     2
 67
     7
 79
     5
170
     0
171
     0
290
     0
174
     0
 93
        1
 44
0.0
173
     0
291
     1
 45
0.0
1001
ACAD
1000
AcDbSavedByObjectVersion
1070
     0
  0
VISUALSTYLE
  5
F9
102
{ACAD_REACTORS
330
EF
102
}
330
EF
100
AcDbVisualStyle
  2
Realistic
 70
     8
 71
     2
 72
     2
 73
     1
 90
        0
 40
-0.6
 41
-30.0
 62
     5
 63
     7
 74
     1
 91
        0
 64
     7
 65
   257
 75
     1
175
     1
 42
1.0
 92
        8
 66
     8
 43
1.0
 76
     1
 77
     6
 78
     2
 67
     7
 79
     5
170
     0
171
     0
290
     0
174
     0
 93
       13
 44
0.0
173
     0
291
     0
 45
0.0
1001
ACAD
1000
AcDbSavedByObjectVersion
1070
     0
  0
VISUALSTYLE
  5
FC
102
{ACAD_REACTORS
330
EF
102
}
330
EF
100
AcDbVisualStyle
  2
Thicken
 70
    13
 71
     2
 72
     2
 73
     1
 90
        0
 40
-0.6
 41
-30.0
 62
     5
 63
     7
 74
     1
 91
        4
 64
     7
 65
   257
 75
     1
175
     1
 42
1.0
 92
       12
 66
     7
 43
1.0
 76
     1
 77
     6
 78
     2
 67
     7
 79
     5
170
     0
171
     0
290
     0
174
     0
 93
        1
 44
0.0
173
     0
291
     1
 45
0.0
1001
ACAD
1000
AcDbSavedByObjectVersion
1070
     0
  0
DICTIONARYVAR
  5
146
102
{ACAD_REACTORS
330
5E
102
}
330
5E
100
DictionaryVariables
280
     0
  1
1:1
  0
DICTIONARYVAR
  5
145
102
{ACAD_REACTORS
330
5E
102
}
330
5E
100
DictionaryVariables
280
     0
  1
STANDARD
  0
DICTIONARYVAR
  5
84
102
{ACAD_REACTORS
330
5E
102
}
330
5E
100
DictionaryVariables
280
     0
  1
STANDARD
  0
DICTIONARYVAR
  5
5F
102
{ACAD_REACTORS
330
5E
102
}
330
5E
100
DictionaryVariables
280
     0
  1
2
  0
DICTIONARYVAR
  5
63
102
{ACAD_REACTORS
330
5E
102
}
330
5E
100
DictionaryVariables
280
     0
  1
1
  0
DICTIONARYVAR
  5
635
102
{ACAD_REACTORS
330
5E
102
}
330
5E
100
DictionaryVariables
280
     0
  1
0
  0
DICTIONARYVAR
  5
633
102
{ACAD_REACTORS
330
5E
102
}
330
5E
100
DictionaryVariables
280
     0
  1
2
  0
DICTIONARYVAR
  5
632
102
{ACAD_REACTORS
330
5E
102
}
330
5E
100
DictionaryVariables
280
     0
  1
1
  0
DICTIONARYVAR
  5
637
102
{ACAD_REACTORS
330
5E
102
}
330
5E
100
DictionaryVariables
280
     0
  1
80.000000
  0
DICTIONARYVAR
  5
636
102
{ACAD_REACTORS
330
5E
102
}
330
5E
100
DictionaryVariables
280
     0
  1
5.000000
  0
DICTIONARYVAR
  5
634
102
{ACAD_REACTORS
330
5E
102
}
330
5E
100
DictionaryVariables
280
     0
  1
127
  0
DICTIONARY
  5
63D
330
D3
100
AcDbDictionary
280
     1
281
     1
  3
ACAD_XREC_ROUNDTRIP
360
63E
  0
DICTIONARY
  5
63F
330
D7
100
AcDbDictionary
280
     1
281
     1
  3
ACAD_XREC_ROUNDTRIP
360
640
  0
DICTIONARY
  5
63A
330
22
100
AcDbDictionary
280
     1
281
     1
  3
ACAD_XREC_ROUNDTRIP
360
63B
  0
DICTIONARY
  5
643
330
ED
100
AcDbDictionary
280
     1
281
     1
  3
ACAD_XREC_ROUNDTRIP
360
644
  0
DICTIONARY
  5
641
330
EC
100
AcDbDictionary
280
     1
281
     1
  3
ACAD_XREC_ROUNDTRIP
360
642
  0
DICTIONARY
  5
173
330
EE
100
AcDbDictionary
280
     1
281
     1
  3
ACAD_XREC_ROUNDTRIP
360
645
  3
BUMPTILE
360
175
  3
DIFFUSETILE
360
174
  3
OPACITYTILE
360
176
  3
REFLECTIONTILE
360
177
  0
DICTIONARY
  5
162
330
7F
100
AcDbDictionary
280
     1
281
     1
  3
ACAD_ROUNDTRIP_2008_TABLESTYLE_CELLSTYLEMAP
360
638
  3
ACAD_XREC_ROUNDTRIP
360
63C
  0
XRECORD
  5
63E
102
{ACAD_REACTORS
330
63D
102
}
330
63D
100
AcDbXrecord
280
     1
102
SHADEPLOT
 70
     0
102
SHADEPLOTRESLEVEL
 70
     2
102
SHADEPLOTCUSTOMDPI
 70
   300
  0
XRECORD
  5
640
102
{ACAD_REACTORS
330
63F
102
}
330
63F
100
AcDbXrecord
280
     1
102
SHADEPLOT
 70
     0
102
SHADEPLOTRESLEVEL
 70
     2
102
SHADEPLOTCUSTOMDPI
 70
   300
  0
XRECORD
  5
63B
102
{ACAD_REACTORS
330
63A
102
}
330
63A
100
AcDbXrecord
280
     1
102
SHADEPLOT
 70
     0
102
SHADEPLOTRESLEVEL
 70
     2
102
SHADEPLOTCUSTOMDPI
 70
   300
  0
XRECORD
  5
644
102
{ACAD_REACTORS
330
643
102
}
330
643
100
AcDbXrecord
280
     1
102
MATERIAL
148
0.0
149
0.0
149
0.0
 93
        0
 94
       63
282
     0
 72
     1
 77
     1
171
     1
175
     1
179
     1
273
     0
  0
XRECORD
  5
642
102
{ACAD_REACTORS
330
641
102
}
330
641
100
AcDbXrecord
280
     1
102
MATERIAL
148
0.0
149
0.0
149
0.0
 93
        0
 94
       63
282
     0
 72
     1
 77
     1
171
     1
175
     1
179
     1
273
     0
  0
XRECORD
  5
645
102
{ACAD_REACTORS
330
173
102
}
330
173
100
AcDbXrecord
280
     1
102
MATERIAL
148
0.0
149
0.0
149
0.0
 93
        0
 94
       63
282
     0
 72
     1
 77
     1
171
     1
175
     1
179
     1
273
     0
  0
XRECORD
  5
175
102
{ACAD_REACTORS
330
173
102
}
330
173
100
AcDbXrecord
280
     1
270
     1
271
     1
  0
XRECORD
  5
174
102
{ACAD_REACTORS
330
173
102
}
330
173
100
AcDbXrecord
280
     1
270
     1
271
     1
  0
XRECORD
  5
176
102
{ACAD_REACTORS
330
173
102
}
330
173
100
AcDbXrecord
280
     1
270
     1
271
     1
  0
XRECORD
  5
177
102
{ACAD_REACTORS
330
173
102
}
330
173
100
AcDbXrecord
280
     1
270
     1
271
     1
  0
CELLSTYLEMAP
  5
638
102
{ACAD_REACTORS
330
162
102
}
330
162
100
AcDbCellStyleMap
 90
        3
300
CELLSTYLE
  1
TABLEFORMAT_BEGIN
 90
        5
170
     1
 91
        0
 92
    32768
 62
   257
 93
        1
300
CONTENTFORMAT
  1
CONTENTFORMAT_BEGIN
 90
        0
 91
        0
 92
      512
 93
        0
300

 40
0.0
140
1.0
 94
        5
 62
     0
340
11
144
6.0
309
CONTENTFORMAT_END
171
     1
301
MARGIN
  1
CELLMARGIN_BEGIN
 40
1.5
 40
1.5
 40
1.5
 40
1.5
 40
4.5
 40
4.5
309
CELLMARGIN_END
 94
        6
 95
        1
302
GRIDFORMAT
  1
GRIDFORMAT_BEGIN
 90
        0
 91
        1
 62
     0
 92
       -2
340
14
 93
        0
 40
1.125
309
GRIDFORMAT_END
 95
        2
302
GRIDFORMAT
  1
GRIDFORMAT_BEGIN
 90
        0
 91
        1
 62
     0
 92
       -2
340
14
 93
        0
 40
1.125
309
GRIDFORMAT_END
 95
        4
302
GRIDFORMAT
  1
GRIDFORMAT_BEGIN
 90
        0
 91
        1
 62
     0
 92
       -2
340
14
 93
        0
 40
1.125
309
GRIDFORMAT_END
 95
        8
302
GRIDFORMAT
  1
GRIDFORMAT_BEGIN
 90
        0
 91
        1
 62
     0
 92
       -2
340
14
 93
        0
 40
1.125
309
GRIDFORMAT_END
 95
       16
302
GRIDFORMAT
  1
GRIDFORMAT_BEGIN
 90
        0
 91
        1
 62
     0
 92
       -2
340
14
 93
        0
 40
1.125
309
GRIDFORMAT_END
 95
       32
302
GRIDFORMAT
  1
GRIDFORMAT_BEGIN
 90
        0
 91
        1
 62
     0
 92
       -2
340
14
 93
        0
 40
1.125
309
GRIDFORMAT_END
309
TABLEFORMAT_END
  1
CELLSTYLE_BEGIN
 90
        1
 91
        1
300
_TITLE
309
CELLSTYLE_END
300
CELLSTYLE
  1
TABLEFORMAT_BEGIN
 90
        5
170
     1
 91
        0
 92
        0
 62
   257
 93
        1
300
CONTENTFORMAT
  1
CONTENTFORMAT_BEGIN
 90
        0
 91
        0
 92
      512
 93
        0
300

 40
0.0
140
1.0
 94
        5
 62
     0
340
11
144
4.5
309
CONTENTFORMAT_END
171
     1
301
MARGIN
  1
CELLMARGIN_BEGIN
 40
1.5
 40
1.5
 40
1.5
 40
1.5
 40
4.5
 40
4.5
309
CELLMARGIN_END
 94
        6
 95
        1
302
GRIDFORMAT
  1
GRIDFORMAT_BEGIN
 90
        0
 91
        1
 62
     0
 92
       -2
340
14
 93
        0
 40
1.125
309
GRIDFORMAT_END
 95
        2
302
GRIDFORMAT
  1
GRIDFORMAT_BEGIN
 90
        0
 91
        1
 62
     0
 92
       -2
340
14
 93
        0
 40
1.125
309
GRIDFORMAT_END
 95
        4
302
GRIDFORMAT
  1
GRIDFORMAT_BEGIN
 90
        0
 91
        1
 62
     0
 92
       -2
340
14
 93
        0
 40
1.125
309
GRIDFORMAT_END
 95
        8
302
GRIDFORMAT
  1
GRIDFORMAT_BEGIN
 90
        0
 91
        1
 62
     0
 92
       -2
340
14
 93
        0
 40
1.125
309
GRIDFORMAT_END
 95
       16
302
GRIDFORMAT
  1
GRIDFORMAT_BEGIN
 90
        0
 91
        1
 62
     0
 92
       -2
340
14
 93
        0
 40
1.125
309
GRIDFORMAT_END
 95
       32
302
GRIDFORMAT
  1
GRIDFORMAT_BEGIN
 90
        0
 91
        1
 62
     0
 92
       -2
340
14
 93
        0
 40
1.125
309
GRIDFORMAT_END
309
TABLEFORMAT_END
  1
CELLSTYLE_BEGIN
 90
        2
 91
        1
300
_HEADER
309
CELLSTYLE_END
300
CELLSTYLE
  1
TABLEFORMAT_BEGIN
 90
        5
170
     1
 91
        0
 92
        0
 62
   257
 93
        1
300
CONTENTFORMAT
  1
CONTENTFORMAT_BEGIN
 90
        0
 91
        0
 92
      512
 93
        0
300

 40
0.0
140
1.0
 94
        2
 62
     0
340
11
144
4.5
309
CONTENTFORMAT_END
171
     1
301
MARGIN
  1
CELLMARGIN_BEGIN
 40
1.5
 40
1.5
 40
1.5
 40
1.5
 40
4.5
 40
4.5
309
CELLMARGIN_END
 94
        6
 95
        1
302
GRIDFORMAT
  1
GRIDFORMAT_BEGIN
 90
        0
 91
        1
 62
     0
 92
       -2
340
14
 93
        0
 40
1.125
309
GRIDFORMAT_END
 95
        2
302
GRIDFORMAT
  1
GRIDFORMAT_BEGIN
 90
        0
 91
        1
 62
     0
 92
       -2
340
14
 93
        0
 40
1.125
309
GRIDFORMAT_END
 95
        4
302
GRIDFORMAT
  1
GRIDFORMAT_BEGIN
 90
        0
 91
        1
 62
     0
 92
       -2
340
14
 93
        0
 40
1.125
309
GRIDFORMAT_END
 95
        8
302
GRIDFORMAT
  1
GRIDFORMAT_BEGIN
 90
        0
 91
        1
 62
     0
 92
       -2
340
14
 93
        0
 40
1.125
309
GRIDFORMAT_END
 95
       16
302
GRIDFORMAT
  1
GRIDFORMAT_BEGIN
 90
        0
 91
        1
 62
     0
 92
       -2
340
14
 93
        0
 40
1.125
309
GRIDFORMAT_END
 95
       32
302
GRIDFORMAT
  1
GRIDFORMAT_BEGIN
 90
        0
 91
        1
 62
     0
 92
       -2
340
14
 93
        0
 40
1.125
309
GRIDFORMAT_END
309
TABLEFORMAT_END
  1
CELLSTYLE_BEGIN
 90
        3
 91
        2
300
_DATA
309
CELLSTYLE_END
  0
XRECORD
  5
63C
102
{ACAD_REACTORS
330
162
102
}
330
162
100
AcDbXrecord
280
     1
102
ACAD_ROUNDTRIP_PRE2007_TABLESTYLE
 90
      512
 91
        0
  1

 92
      512
 93
        0
  2

 94
      512
 95
        0
  3

  0
ENDSEC
  0
EOF
