  0
SECTION
  2
HEADER
  9
$ACADVER
  1
AC1015
  9
$ACADMAINTVER
 70
    20
  9
$DWGCODEPAGE
  3
ANSI_1254
  9
$INSBASE
 10
0.0
 20
0.0
 30
0.0
  9
$EXTMIN
 10
2116.680125895744
 20
694.1583832521125
 30
0.0
  9
$EXTMAX
 10
2165.338802033603
 20
729.2383845091239
 30
0.0
  9
$LIMMIN
 10
0.0
 20
0.0
  9
$LIMMAX
 10
420.0
 20
297.0
  9
$ORTHOMODE
 70
     1
  9
$REGENMODE
 70
     1
  9
$FILLMODE
 70
     1
  9
$QTEXTMODE
 70
     0
  9
$MIRRTEXT
 70
     0
  9
$LTSCALE
 40
1.0
  9
$ATTMODE
 70
     1
  9
$TEXTSIZE
 40
2.5
  9
$TRACEWID
 40
1.0
  9
$TEXTSTYLE
  7
Standard
  9
$CLAYER
  8
0
  9
$CELTYPE
  6
ByLayer
  9
$CECOLOR
 62
   256
  9
$CELTSCALE
 40
1.0
  9
$DISPSILH
 70
     0
  9
$DIMSCALE
 40
1.0
  9
$DIMASZ
 40
2.5
  9
$DIMEXO
 40
0.625
  9
$DIMDLI
 40
3.75
  9
$DIMRND
 40
0.0
  9
$DIMDLE
 40
0.0
  9
$DIMEXE
 40
1.25
  9
$DIMTP
 40
0.0
  9
$DIMTM
 40
0.0
  9
$DIMTXT
 40
2.5
  9
$DIMCEN
 40
2.5
  9
$DIMTSZ
 40
0.0
  9
$DIMTOL
 70
     0
  9
$DIMLIM
 70
     0
  9
$DIMTIH
 70
     0
  9
$DIMTOH
 70
     0
  9
$DIMSE1
 70
     0
  9
$DIMSE2
 70
     0
  9
$DIMTAD
 70
     1
  9
$DIMZIN
 70
     8
  9
$DIMBLK
  1

  9
$DIMASO
 70
     1
  9
$DIMSHO
 70
     1
  9
$DIMPOST
  1

  9
$DIMAPOST
  1

  9
$DIMALT
 70
     0
  9
$DIMALTD
 70
     3
  9
$DIMALTF
 40
0.03937007874016
  9
$DIMLFAC
 40
1.0
  9
$DIMTOFL
 70
     1
  9
$DIMTVP
 40
0.0
  9
$DIMTIX
 70
     0
  9
$DIMSOXD
 70
     0
  9
$DIMSAH
 70
     0
  9
$DIMBLK1
  1

  9
$DIMBLK2
  1

  9
$DIMSTYLE
  2
ISO-25
  9
$DIMCLRD
 70
     0
  9
$DIMCLRE
 70
     0
  9
$DIMCLRT
 70
     0
  9
$DIMTFAC
 40
1.0
  9
$DIMGAP
 40
0.625
  9
$DIMJUST
 70
     0
  9
$DIMSD1
 70
     0
  9
$DIMSD2
 70
     0
  9
$DIMTOLJ
 70
     0
  9
$DIMTZIN
 70
     8
  9
$DIMALTZ
 70
     0
  9
$DIMALTTZ
 70
     0
  9
$DIMUPT
 70
     0
  9
$DIMDEC
 70
     2
  9
$DIMTDEC
 70
     2
  9
$DIMALTU
 70
     2
  9
$DIMALTTD
 70
     3
  9
$DIMTXSTY
  7
Standard
  9
$DIMAUNIT
 70
     0
  9
$DIMADEC
 70
     0
  9
$DIMALTRND
 40
0.0
  9
$DIMAZIN
 70
     0
  9
$DIMDSEP
 70
    44
  9
$DIMATFIT
 70
     3
  9
$DIMFRAC
 70
     0
  9
$DIMLDRBLK
  1

  9
$DIMLUNIT
 70
     2
  9
$DIMLWD
 70
    -2
  9
$DIMLWE
 70
    -2
  9
$DIMTMOVE
 70
     0
  9
$LUNITS
 70
     2
  9
$LUPREC
 70
     4
  9
$SKETCHINC
 40
1.0
  9
$FILLETRAD
 40
0.0
  9
$AUNITS
 70
     0
  9
$AUPREC
 70
     0
  9
$MENU
  1
.
  9
$ELEVATION
 40
0.0
  9
$PELEVATION
 40
0.0
  9
$THICKNESS
 40
0.0
  9
$LIMCHECK
 70
     0
  9
$CHAMFERA
 40
0.0
  9
$CHAMFERB
 40
0.0
  9
$CHAMFERC
 40
0.0
  9
$CHAMFERD
 40
0.0
  9
$SKPOLY
 70
     0
  9
$TDCREATE
 40
2458932.674664120
  9
$TDUCREATE
 40
2458932.549664120
  9
$TDUPDATE
 40
2458956.445561539
  9
$TDUUPDATE
 40
2458956.320561540
  9
$TDINDWG
 40
0.0004778356
  9
$TDUSRTIMER
 40
0.0004778356
  9
$USRTIMER
 70
     1
  9
$ANGBASE
 50
0.0
  9
$ANGDIR
 70
     0
  9
$PDMODE
 70
     0
  9
$PDSIZE
 40
0.0
  9
$PLINEWID
 40
0.0
  9
$SPLFRAME
 70
     0
  9
$SPLINETYPE
 70
     6
  9
$SPLINESEGS
 70
     8
  9
$HANDSEED
  5
517
  9
$SURFTAB1
 70
     6
  9
$SURFTAB2
 70
     6
  9
$SURFTYPE
 70
     6
  9
$SURFU
 70
     6
  9
$SURFV
 70
     6
  9
$UCSBASE
  2

  9
$UCSNAME
  2

  9
$UCSORG
 10
0.0
 20
0.0
 30
0.0
  9
$UCSXDIR
 10
1.0
 20
0.0
 30
0.0
  9
$UCSYDIR
 10
0.0
 20
1.0
 30
0.0
  9
$UCSORTHOREF
  2

  9
$UCSORTHOVIEW
 70
     0
  9
$UCSORGTOP
 10
0.0
 20
0.0
 30
0.0
  9
$UCSORGBOTTOM
 10
0.0
 20
0.0
 30
0.0
  9
$UCSORGLEFT
 10
0.0
 20
0.0
 30
0.0
  9
$UCSORGRIGHT
 10
0.0
 20
0.0
 30
0.0
  9
$UCSORGFRONT
 10
0.0
 20
0.0
 30
0.0
  9
$UCSORGBACK
 10
0.0
 20
0.0
 30
0.0
  9
$PUCSBASE
  2

  9
$PUCSNAME
  2

  9
$PUCSORG
 10
0.0
 20
0.0
 30
0.0
  9
$PUCSXDIR
 10
1.0
 20
0.0
 30
0.0
  9
$PUCSYDIR
 10
0.0
 20
1.0
 30
0.0
  9
$PUCSORTHOREF
  2

  9
$PUCSORTHOVIEW
 70
     0
  9
$PUCSORGTOP
 10
0.0
 20
0.0
 30
0.0
  9
$PUCSORGBOTTOM
 10
0.0
 20
0.0
 30
0.0
  9
$PUCSORGLEFT
 10
0.0
 20
0.0
 30
0.0
  9
$PUCSORGRIGHT
 10
0.0
 20
0.0
 30
0.0
  9
$PUCSORGFRONT
 10
0.0
 20
0.0
 30
0.0
  9
$PUCSORGBACK
 10
0.0
 20
0.0
 30
0.0
  9
$USERI1
 70
     0
  9
$USERI2
 70
     0
  9
$USERI3
 70
     0
  9
$USERI4
 70
     0
  9
$USERI5
 70
     0
  9
$USERR1
 40
0.0
  9
$USERR2
 40
0.0
  9
$USERR3
 40
0.0
  9
$USERR4
 40
0.0
  9
$USERR5
 40
0.0
  9
$WORLDVIEW
 70
     1
  9
$SHADEDGE
 70
     3
  9
$SHADEDIF
 70
    70
  9
$TILEMODE
 70
     1
  9
$MAXACTVP
 70
    64
  9
$PINSBASE
 10
0.0
 20
0.0
 30
0.0
  9
$PLIMCHECK
 70
     0
  9
$PEXTMIN
 10
0.0
 20
0.0
 30
0.0
  9
$PEXTMAX
 10
0.0
 20
0.0
 30
0.0
  9
$PLIMMIN
 10
0.0
 20
0.0
  9
$PLIMMAX
 10
12.0
 20
9.0
  9
$UNITMODE
 70
     0
  9
$VISRETAIN
 70
     1
  9
$PLINEGEN
 70
     0
  9
$PSLTSCALE
 70
     1
  9
$TREEDEPTH
 70
  3020
  9
$CMLSTYLE
  2
Standard
  9
$CMLJUST
 70
     0
  9
$CMLSCALE
 40
20.0
  9
$PROXYGRAPHICS
 70
     1
  9
$MEASUREMENT
 70
     1
  9
$CELWEIGHT
370
    -1
  9
$ENDCAPS
280
     0
  9
$JOINSTYLE
280
     0
  9
$LWDISPLAY
290
     0
  9
$INSUNITS
 70
     4
  9
$HYPERLINKBASE
  1

  9
$STYLESHEET
  1

  9
$XEDIT
290
     1
  9
$CEPSNTYPE
380
     0
  9
$PSTYLEMODE
290
     1
  9
$FINGERPRINTGUID
  2
{9C476A5B-B809-4C86-9EEF-5CA059A6F2B8}
  9
$VERSIONGUID
  2
{82636A9F-8C28-4B4F-93EA-12C4F9ECF7E9}
  9
$EXTNAMES
290
     1
  9
$PSVPSCALE
 40
0.0
  9
$OLESTARTUP
290
     0
  0
ENDSEC
  0
SECTION
  2
CLASSES
  0
CLASS
  1
ACDBDICTIONARYWDFLT
  2
AcDbDictionaryWithDefault
  3
ObjectDBX Classes
 90
        0
280
     0
281
     0
  0
CLASS
  1
ACDBPLACEHOLDER
  2
AcDbPlaceHolder
  3
ObjectDBX Classes
 90
        0
280
     0
281
     0
  0
CLASS
  1
LAYOUT
  2
AcDbLayout
  3
ObjectDBX Classes
 90
        0
280
     0
281
     0
  0
CLASS
  1
DICTIONARYVAR
  2
AcDbDictionaryVar
  3
ObjectDBX Classes
 90
        0
280
     0
281
     0
  0
CLASS
  1
TABLESTYLE
  2
AcDbTableStyle
  3
ObjectDBX Classes
 90
     4095
280
     0
281
     0
  0
CLASS
  1
MATERIAL
  2
AcDbMaterial
  3
ObjectDBX Classes
 90
     1153
280
     0
281
     0
  0
CLASS
  1
VISUALSTYLE
  2
AcDbVisualStyle
  3
ObjectDBX Classes
 90
     4095
280
     0
281
     0
  0
CLASS
  1
SCALE
  2
AcDbScale
  3
ObjectDBX Classes
 90
     1153
280
     0
281
     0
  0
CLASS
  1
MLEADERSTYLE
  2
AcDbMLeaderStyle
  3
ACDB_MLEADERSTYLE_CLASS
 90
     4095
280
     0
281
     0
  0
CLASS
  1
CELLSTYLEMAP
  2
AcDbCellStyleMap
  3
ObjectDBX Classes
 90
     1152
280
     0
281
     0
  0
ENDSEC
  0
SECTION
  2
TABLES
  0
TABLE
  2
VPORT
  5
8
330
0
100
AcDbSymbolTable
 70
     1
  0
VPORT
  5
EA
330
8
100
AcDbSymbolTableRecord
100
AcDbViewportTableRecord
  2
*Active
 70
     0
 10
0.0
 20
0.0
 11
1.0
 21
1.0
 12
2147.639714488724
 22
712.4592172999144
 13
0.0
 23
0.0
 14
10.0
 24
10.0
 15
10.0
 25
10.0
 16
0.0
 26
0.0
 36
1.0
 17
0.0
 27
0.0
 37
0.0
 40
70.66897623403952
 41
1.90311004784689
 42
50.0
 43
0.0
 44
0.0
 50
0.0
 51
0.0
 71
     0
 72
  1000
 73
     1
 74
     3
 75
     0
 76
     0
 77
     0
 78
     0
281
     0
 65
     1
110
0.0
120
0.0
130
0.0
111
1.0
121
0.0
131
0.0
112
0.0
122
1.0
132
0.0
 79
     0
146
0.0
  0
ENDTAB
  0
TABLE
  2
LTYPE
  5
5
330
0
100
AcDbSymbolTable
 70
     1
  0
LTYPE
  5
14
330
5
100
AcDbSymbolTableRecord
100
AcDbLinetypeTableRecord
  2
ByBlock
 70
     0
  3

 72
    65
 73
     0
 40
0.0
  0
LTYPE
  5
15
330
5
100
AcDbSymbolTableRecord
100
AcDbLinetypeTableRecord
  2
ByLayer
 70
     0
  3

 72
    65
 73
     0
 40
0.0
  0
LTYPE
  5
16
330
5
100
AcDbSymbolTableRecord
100
AcDbLinetypeTableRecord
  2
Continuous
 70
     0
  3
Solid line
 72
    65
 73
     0
 40
0.0
  0
ENDTAB
  0
TABLE
  2
LAYER
  5
2
330
0
100
AcDbSymbolTable
 70
     1
  0
LAYER
  5
10
102
{ACAD_XDICTIONARY
360
13C
102
}
330
2
100
AcDbSymbolTableRecord
100
AcDbLayerTableRecord
  2
0
 70
     0
 62
     7
  6
Continuous
370
    -3
390
F
  0
ENDTAB
  0
TABLE
  2
STYLE
  5
3
330
0
100
AcDbSymbolTable
 70
     2
  0
STYLE
  5
11
330
3
100
AcDbSymbolTableRecord
100
AcDbTextStyleTableRecord
  2
Standard
 70
     0
 40
0.0
 41
1.0
 50
0.0
 71
     0
 42
2.5
  3
txt
  4

  0
STYLE
  5
132
330
3
100
AcDbSymbolTableRecord
100
AcDbTextStyleTableRecord
  2
Annotative
 70
     0
 40
0.0
 41
1.0
 50
0.0
 71
     0
 42
2.5
  3
txt.shx
  4

1001
AcadAnnotative
1000
AnnotativeData
1002
{
1070
     1
1070
     1
1002
}
  0
ENDTAB
  0
TABLE
  2
VIEW
  5
6
330
0
100
AcDbSymbolTable
 70
     0
  0
ENDTAB
  0
TABLE
  2
UCS
  5
7
330
0
100
AcDbSymbolTable
 70
     0
  0
ENDTAB
  0
TABLE
  2
APPID
  5
9
330
0
100
AcDbSymbolTable
 70
     7
  0
APPID
  5
12
330
9
100
AcDbSymbolTableRecord
100
AcDbRegAppTableRecord
  2
ACAD
 70
     0
  0
APPID
  5
9E
330
9
100
AcDbSymbolTableRecord
100
AcDbRegAppTableRecord
  2
ACAD_PSEXT
 70
     0
  0
APPID
  5
133
330
9
100
AcDbSymbolTableRecord
100
AcDbRegAppTableRecord
  2
AcadAnnoPO
 70
     0
  0
APPID
  5
134
330
9
100
AcDbSymbolTableRecord
100
AcDbRegAppTableRecord
  2
AcadAnnotative
 70
     0
  0
APPID
  5
135
330
9
100
AcDbSymbolTableRecord
100
AcDbRegAppTableRecord
  2
ACAD_DSTYLE_DIMJAG
 70
     0
  0
APPID
  5
136
330
9
100
AcDbSymbolTableRecord
100
AcDbRegAppTableRecord
  2
ACAD_DSTYLE_DIMTALN
 70
     0
  0
APPID
  5
165
330
9
100
AcDbSymbolTableRecord
100
AcDbRegAppTableRecord
  2
ACAD_MLEADERVER
 70
     0
  0
ENDTAB
  0
TABLE
  2
DIMSTYLE
  5
A
330
0
100
AcDbSymbolTable
 70
     2
100
AcDbDimStyleTable
 71
     2
340
27
340
137
  0
DIMSTYLE
105
27
330
A
100
AcDbSymbolTableRecord
100
AcDbDimStyleTableRecord
  2
ISO-25
 70
     0
 41
2.5
 42
0.625
 43
3.75
 44
1.25
 73
     0
 74
     0
 77
     1
 78
     8
140
2.5
141
2.5
143
0.03937007874016
147
0.625
171
     3
172
     1
271
     2
272
     2
274
     3
278
    44
283
     0
284
     8
340
11
  0
DIMSTYLE
105
137
330
A
100
AcDbSymbolTableRecord
100
AcDbDimStyleTableRecord
  2
Annotative
 70
     0
 40
0.0
 41
2.5
 42
0.625
 43
3.75
 44
1.25
 73
     0
 74
     0
 77
     1
 78
     8
140
2.5
141
2.5
143
0.03937007874016
147
0.625
171
     3
172
     1
271
     2
272
     2
274
     3
278
    44
283
     0
284
     8
340
11
1001
AcadAnnotative
1000
AnnotativeData
1002
{
1070
     1
1070
     1
1002
}
1001
ACAD_DSTYLE_DIMJAG
1070
   388
1040
1.5
1001
ACAD_DSTYLE_DIMTALN
1070
   392
1070
     0
  0
ENDTAB
  0
TABLE
  2
BLOCK_RECORD
  5
1
330
0
100
AcDbSymbolTable
 70
     5
  0
BLOCK_RECORD
  5
1F
330
1
100
AcDbSymbolTableRecord
100
AcDbBlockTableRecord
  2
*Model_Space
340
22
  0
BLOCK_RECORD
  5
D2
330
1
100
AcDbSymbolTableRecord
100
AcDbBlockTableRecord
  2
*Paper_Space
340
D3
  0
BLOCK_RECORD
  5
D6
330
1
100
AcDbSymbolTableRecord
100
AcDbBlockTableRecord
  2
*Paper_Space0
340
D7
  0
BLOCK_RECORD
  5
3D9
330
1
100
AcDbSymbolTableRecord
100
AcDbBlockTableRecord
  2
1
340
0
310
2800000020000000200000000100080000000000000400000000000000000000000000000000000000000000000080000080000000808000800000008000800080800000C0C0C000C0DCC000F0CAA6000020400000206000002080000020A0000020C0000020E00000400000004020000040400000406000004080000040A0
310
000040C0000040E00000600000006020000060400000606000006080000060A0000060C0000060E00000800000008020000080400000806000008080000080A0000080C0000080E00000A0000000A0200000A0400000A0600000A0800000A0A00000A0C00000A0E00000C0000000C0200000C0400000C0600000C0800000C0
310
A00000C0C00000C0E00000E0000000E0200000E0400000E0600000E0800000E0A00000E0C00000E0E00040000000400020004000400040006000400080004000A0004000C0004000E00040200000402020004020400040206000402080004020A0004020C0004020E000404000004040200040404000404060004040800040
310
40A0004040C0004040E00040600000406020004060400040606000406080004060A0004060C0004060E00040800000408020004080400040806000408080004080A0004080C0004080E00040A0000040A0200040A0400040A0600040A0800040A0A00040A0C00040A0E00040C0000040C0200040C0400040C0600040C08000
310
40C0A00040C0C00040C0E00040E0000040E0200040E0400040E0600040E0800040E0A00040E0C00040E0E00080000000800020008000400080006000800080008000A0008000C0008000E00080200000802020008020400080206000802080008020A0008020C0008020E00080400000804020008040400080406000804080
310
008040A0008040C0008040E00080600000806020008060400080606000806080008060A0008060C0008060E00080800000808020008080400080806000808080008080A0008080C0008080E00080A0000080A0200080A0400080A0600080A0800080A0A00080A0C00080A0E00080C0000080C0200080C0400080C0600080C0
310
800080C0A00080C0C00080C0E00080E0000080E0200080E0400080E0600080E0800080E0A00080E0C00080E0E000C0000000C0002000C0004000C0006000C0008000C000A000C000C000C000E000C0200000C0202000C0204000C0206000C0208000C020A000C020C000C020E000C0400000C0402000C0404000C0406000C0
310
408000C040A000C040C000C040E000C0600000C0602000C0604000C0606000C0608000C060A000C060C000C060E000C0800000C0802000C0804000C0806000C0808000C080A000C080C000C080E000C0A00000C0A02000C0A04000C0A06000C0A08000C0A0A000C0A0C000C0A0E000C0C00000C0C02000C0C04000C0C06000
310
C0C08000C0C0A000F0FBFF00A4A0A000808080000000FF0000FF000000FFFF00FF000000FF00FF00FFFF0000FFFFFF00000000000000000000000000000000000000000000000000000000000000000000000000000000000000FFFF0000000000000000FFFF00000000000000000000000000000000000000FF0000FF0000
310
00000000FF0000FF000000000000000000000000000000000000FF000000FF0000000000FF0000FF000000000000000000000000000000000000FF000000FF00000000FF000000FF000000000000000000000000000000000000FF000000FF00000000FF000000FF000000000000000000000000000000000000FF000000FF
310
00000000FF000000FF000000000000000000000000000000000000FF000000FF00000000FF000000FF000000000000000000000000000000000000FF000000FF00000000FF000000FF000000000000000000000000000000000000FF000000FF00000000FF000000FF000000000000000000000000000000000000FF000000
310
FF00000000FF000000FF000000000000000000000000000000000000FFFFFFFFFF00000000FFFFFFFFFF000000000000000000000000000000000000FFFFFFFFFF00000000FFFFFFFFFF0000000000000000000000000000000000FFFFFFFFFFFF00000000FFFFFFFFFFFF00000000000000000000000000000000FF000000
310
00FF00000000FF00000000FF00000000000000000000000000000000FF00000000FF00000000FF00000000FF00000000000000000000000000000000FF00000000FFFF0000FFFF00000000FF00000000000000000000000000000000FFFFFFFFFF00FF0000FF00FFFFFFFFFF00000000000000000000000000000000FFFFFF
310
FFFF00FF0000FF00FFFFFFFFFF00000000000000000000000000000000FF0000000000FF0000FF0000000000FF00000000000000000000000000000000FF0000000000FF0000FF0000000000FF0000000000000000000000000000FFFFFF0000000000FFFFFFFF0000000000FFFFFF000000000000000000000000FF000000
310
000000000000000000000000000000FF000000000000000000000000FF000000000000000000000000000000000000FF000000000000000000000000FF000000000000000000000000000000000000FF000000000000000000000000FF000000000000000000000000000000000000FF000000000000000000000000FF0000
310
00000000000000000000000000000000FF000000000000000000000000FF000000000000000000000000000000000000FF000000000000000000000000FFFFFFFFFFFFFFFFFFFFFFFFFFFFFFFFFFFFFFFF000000000000000000000000FF000000000000000000000000000000000000FF000000000000000000000000FFFF
310
FFFFFFFFFFFFFFFFFFFFFFFFFFFFFFFFFFFF0000000000000000000000000000000000000000000000000000000000000000000000000000
102
{BLKREFS
331
429
102
}
1001
ACAD
1000
DesignCenter Data
1002
{
1070
     1
1070
     4
1002
}
  0
BLOCK_RECORD
  5
42A
330
1
100
AcDbSymbolTableRecord
100
AcDbBlockTableRecord
  2
2
340
0
310
2800000020000000200000000100080000000000000400000000000000000000000000000000000000000000000080000080000000808000800000008000800080800000C0C0C000C0DCC000F0CAA6000020400000206000002080000020A0000020C0000020E00000400000004020000040400000406000004080000040A0
310
000040C0000040E00000600000006020000060400000606000006080000060A0000060C0000060E00000800000008020000080400000806000008080000080A0000080C0000080E00000A0000000A0200000A0400000A0600000A0800000A0A00000A0C00000A0E00000C0000000C0200000C0400000C0600000C0800000C0
310
A00000C0C00000C0E00000E0000000E0200000E0400000E0600000E0800000E0A00000E0C00000E0E00040000000400020004000400040006000400080004000A0004000C0004000E00040200000402020004020400040206000402080004020A0004020C0004020E000404000004040200040404000404060004040800040
310
40A0004040C0004040E00040600000406020004060400040606000406080004060A0004060C0004060E00040800000408020004080400040806000408080004080A0004080C0004080E00040A0000040A0200040A0400040A0600040A0800040A0A00040A0C00040A0E00040C0000040C0200040C0400040C0600040C08000
310
40C0A00040C0C00040C0E00040E0000040E0200040E0400040E0600040E0800040E0A00040E0C00040E0E00080000000800020008000400080006000800080008000A0008000C0008000E00080200000802020008020400080206000802080008020A0008020C0008020E00080400000804020008040400080406000804080
310
008040A0008040C0008040E00080600000806020008060400080606000806080008060A0008060C0008060E00080800000808020008080400080806000808080008080A0008080C0008080E00080A0000080A0200080A0400080A0600080A0800080A0A00080A0C00080A0E00080C0000080C0200080C0400080C0600080C0
310
800080C0A00080C0C00080C0E00080E0000080E0200080E0400080E0600080E0800080E0A00080E0C00080E0E000C0000000C0002000C0004000C0006000C0008000C000A000C000C000C000E000C0200000C0202000C0204000C0206000C0208000C020A000C020C000C020E000C0400000C0402000C0404000C0406000C0
310
408000C040A000C040C000C040E000C0600000C0602000C0604000C0606000C0608000C060A000C060C000C060E000C0800000C0802000C0804000C0806000C0808000C080A000C080C000C080E000C0A00000C0A02000C0A04000C0A06000C0A08000C0A0A000C0A0C000C0A0E000C0C00000C0C02000C0C04000C0C06000
310
C0C08000C0C0A000F0FBFF00A4A0A000808080000000FF0000FF000000FFFF00FF000000FF00FF00FFFF0000FFFFFF0000000000000000000000000000000000000000000000000000000000000000000000000000000000000000000000FFFFFFFF00000000000000000000000000000000000000000000000000000000FF
310
FFFFFF00000000000000000000000000000000000000000000000000000000FF0000FF00000000000000000000000000000000000000000000000000000000FFFFFFFF00000000000000000000000000000000000000000000000000000000FF0000FF00000000000000000000000000000000000000000000000000000000
310
FF0000FF00000000000000000000000000000000000000000000000000000000FF0000FF00000000000000000000000000000000000000000000000000000000FF0000FF00000000000000000000000000000000000000000000000000000000FF0000FF000000000000000000000000000000000000000000000000000000
310
00FF0000FF00000000000000000000000000000000000000000000000000000000FF0000FF0000000000000000000000000000000000000000000000000000000000FFFF0000000000000000000000000000000000000000000000000000000000FFFFFFFF0000000000000000000000000000000000000000000000000000
310
0000FF0000FF00000000000000000000000000000000000000000000000000000000FF0000FF00000000000000000000000000000000000000000000000000000000FFFFFFFF00000000000000000000000000000000000000000000000000000000FFFFFFFF00000000000000000000000000000000000000000000000000
310
0000FFFF0000FFFF000000000000000000000000000000000000000000000000000000FF0000FF00000000000000000000000000000000000000000000000000000000FF0000FF00000000000000000000000000000000000000000000000000000000FFFFFFFF000000000000000000000000000000000000000000000000
310
00000000FF0000FF00000000000000000000000000000000000000000000000000000000FF0000FF00000000000000000000000000000000000000000000000000000000FF0000FF00000000000000000000000000000000000000000000000000000000FF0000FF0000000000000000000000000000000000000000000000
310
0000000000FF0000FF00000000000000000000000000000000000000000000000000000000FF0000FF000000000000000000000000000000000000000000000000000000FFFF0000FFFF0000000000000000000000000000000000000000000000000000FF00000000FF000000000000000000000000000000000000000000
310
0000000000FFFFFFFFFFFF000000000000000000000000000000000000000000000000000000000000000000000000000000000000000000
102
{BLKREFS
331
45C
102
}
1001
ACAD
1000
DesignCenter Data
1002
{
1070
     1
1070
     4
1002
}
  0
BLOCK_RECORD
  5
45D
330
1
100
AcDbSymbolTableRecord
100
AcDbBlockTableRecord
  2
3
340
0
310
2800000020000000200000000100080000000000000400000000000000000000000000000000000000000000000080000080000000808000800000008000800080800000C0C0C000C0DCC000F0CAA6000020400000206000002080000020A0000020C0000020E00000400000004020000040400000406000004080000040A0
310
000040C0000040E00000600000006020000060400000606000006080000060A0000060C0000060E00000800000008020000080400000806000008080000080A0000080C0000080E00000A0000000A0200000A0400000A0600000A0800000A0A00000A0C00000A0E00000C0000000C0200000C0400000C0600000C0800000C0
310
A00000C0C00000C0E00000E0000000E0200000E0400000E0600000E0800000E0A00000E0C00000E0E00040000000400020004000400040006000400080004000A0004000C0004000E00040200000402020004020400040206000402080004020A0004020C0004020E000404000004040200040404000404060004040800040
310
40A0004040C0004040E00040600000406020004060400040606000406080004060A0004060C0004060E00040800000408020004080400040806000408080004080A0004080C0004080E00040A0000040A0200040A0400040A0600040A0800040A0A00040A0C00040A0E00040C0000040C0200040C0400040C0600040C08000
310
40C0A00040C0C00040C0E00040E0000040E0200040E0400040E0600040E0800040E0A00040E0C00040E0E00080000000800020008000400080006000800080008000A0008000C0008000E00080200000802020008020400080206000802080008020A0008020C0008020E00080400000804020008040400080406000804080
310
008040A0008040C0008040E00080600000806020008060400080606000806080008060A0008060C0008060E00080800000808020008080400080806000808080008080A0008080C0008080E00080A0000080A0200080A0400080A0600080A0800080A0A00080A0C00080A0E00080C0000080C0200080C0400080C0600080C0
310
800080C0A00080C0C00080C0E00080E0000080E0200080E0400080E0600080E0800080E0A00080E0C00080E0E000C0000000C0002000C0004000C0006000C0008000C000A000C000C000C000E000C0200000C0202000C0204000C0206000C0208000C020A000C020C000C020E000C0400000C0402000C0404000C0406000C0
310
408000C040A000C040C000C040E000C0600000C0602000C0604000C0606000C0608000C060A000C060C000C060E000C0800000C0802000C0804000C0806000C0808000C080A000C080C000C080E000C0A00000C0A02000C0A04000C0A06000C0A08000C0A0A000C0A0C000C0A0E000C0C00000C0C02000C0C04000C0C06000
310
C0C08000C0C0A000F0FBFF00A4A0A000808080000000FF0000FF000000FFFF00FF000000FF00FF00FFFF0000FFFFFF0000000000000000000000000000000000000000000000000000000000000000000000000000000000000000000000000000000000000000000000000000000000000000000000000000000000000000
310
00000000000000000000000000000000000000000000000000000000000000000000000000000000000000000000000000000000000000000000000000000000000000000000000000000000000000000000000000000000000000000000000000000000000000000000000000000000000000000000000000000000000000
310
00000000000000000000000000000000000000000000000000000000000000000000000000000000000000000000000000000000000000000000000000000000000000000000000000000000000000000000000000000000000000000000000000000000000000000000000000000000000000000000000000000000000000
310
0000000000000000000000000000000000000000FFFFFFFFFFFFFFFFFFFFFFFFFFFFFFFFFFFFFFFFFFFFFFFFFFFFFFFFFFFF0000FF00000000000000000000000000000000000000000000000000000000FF0000FF00000000000000000000000000000000000000000000000000000000FF0000FF00000000000000000000
310
000000000000000000000000000000000000FF0000FF00000000000000000000000000000000000000000000000000000000FF0000FF00000000000000000000000000000000000000000000000000000000FF0000FF00000000000000000000000000000000000000000000000000000000FF0000FF000000000000000000
310
00000000000000000000000000000000000000FF0000FF00000000000000000000000000000000000000000000000000000000FF0000FFFFFFFFFFFFFFFFFFFFFFFFFFFFFFFFFFFFFFFFFFFFFFFFFFFFFFFFFFFF00000000000000000000000000000000000000000000000000000000000000000000000000000000000000
310
00000000000000000000000000000000000000000000000000000000000000000000000000000000000000000000000000000000000000000000000000000000000000000000000000000000000000000000000000000000000000000000000000000000000000000000000000000000000000000000000000000000000000
310
00000000000000000000000000000000000000000000000000000000000000000000000000000000000000000000000000000000000000000000000000000000000000000000000000000000000000000000000000000000000000000000000000000000000000000000000000000000000000000000000000000000000000
310
0000000000000000000000000000000000000000000000000000000000000000000000000000000000000000000000000000000000000000
102
{BLKREFS
331
464
102
}
1001
ACAD
1000
DesignCenter Data
1002
{
1070
     1
1070
     4
1002
}
  0
BLOCK_RECORD
  5
465
330
1
100
AcDbSymbolTableRecord
100
AcDbBlockTableRecord
  2
4
340
0
310
2800000020000000200000000100080000000000000400000000000000000000000000000000000000000000000080000080000000808000800000008000800080800000C0C0C000C0DCC000F0CAA6000020400000206000002080000020A0000020C0000020E00000400000004020000040400000406000004080000040A0
310
000040C0000040E00000600000006020000060400000606000006080000060A0000060C0000060E00000800000008020000080400000806000008080000080A0000080C0000080E00000A0000000A0200000A0400000A0600000A0800000A0A00000A0C00000A0E00000C0000000C0200000C0400000C0600000C0800000C0
310
A00000C0C00000C0E00000E0000000E0200000E0400000E0600000E0800000E0A00000E0C00000E0E00040000000400020004000400040006000400080004000A0004000C0004000E00040200000402020004020400040206000402080004020A0004020C0004020E000404000004040200040404000404060004040800040
310
40A0004040C0004040E00040600000406020004060400040606000406080004060A0004060C0004060E00040800000408020004080400040806000408080004080A0004080C0004080E00040A0000040A0200040A0400040A0600040A0800040A0A00040A0C00040A0E00040C0000040C0200040C0400040C0600040C08000
310
40C0A00040C0C00040C0E00040E0000040E0200040E0400040E0600040E0800040E0A00040E0C00040E0E00080000000800020008000400080006000800080008000A0008000C0008000E00080200000802020008020400080206000802080008020A0008020C0008020E00080400000804020008040400080406000804080
310
008040A0008040C0008040E00080600000806020008060400080606000806080008060A0008060C0008060E00080800000808020008080400080806000808080008080A0008080C0008080E00080A0000080A0200080A0400080A0600080A0800080A0A00080A0C00080A0E00080C0000080C0200080C0400080C0600080C0
310
800080C0A00080C0C00080C0E00080E0000080E0200080E0400080E0600080E0800080E0A00080E0C00080E0E000C0000000C0002000C0004000C0006000C0008000C000A000C000C000C000E000C0200000C0202000C0204000C0206000C0208000C020A000C020C000C020E000C0400000C0402000C0404000C0406000C0
310
408000C040A000C040C000C040E000C0600000C0602000C0604000C0606000C0608000C060A000C060C000C060E000C0800000C0802000C0804000C0806000C0808000C080A000C080C000C080E000C0A00000C0A02000C0A04000C0A06000C0A08000C0A0A000C0A0C000C0A0E000C0C00000C0C02000C0C04000C0C06000
310
C0C08000C0C0A000F0FBFF00A4A0A000808080000000FF0000FF000000FFFF00FF000000FF00FF00FFFF0000FFFFFF00000000000000000000000000000000000000000000000000000000000000000000000000000000000000000000FF000000000000000000000000000000000000000000000000000000000000FFFFFF
310
00000000000000000000000000000000000000000000000000000000FFFF00FF000000000000000000000000000000000000000000000000000000FFFFFF0000FF0000000000000000000000000000000000000000000000000000FF00FF0000FF000000FFFF000000000000000000000000000000000000000000FF00FF00
310
00FF00FFFFFFFF000000000000000000000000000000000000000000FF00FF0000FF00FFFF0000FF0000000000000000000000000000000000000000FF00FFFF00FFFFFFFF0000FF0000000000000000000000000000000000000000FFFFFF00FFFFFF00FF0000FF000000000000000000000000000000000000000000FFFF
310
FFFF00FF00FF0000FF0000000000000000000000000000000000000000FFFFFFFFFFFFFF00FF0000FF0000000000000000000000000000000000000000FFFFFF0000FFFF00FFFF00FF00000000000000000000000000000000000000FFFF00FFFF00FFFFFFFFFFFFFF00000000000000000000000000000000000000FF0000
310
FFFFFFFFFFFFFFFFFF0000000000000000000000000000000000000000FFFFFFFF00FFFFFF00FF0000FF000000000000000000000000000000000000FFFF00FF00000000FFFFFFFF00FF000000000000000000000000000000000000FF0000FF00000000FF00FFFFFFFFFF0000000000000000000000000000000000FF0000
310
FF0000000000FFFF00FFFFFF0000000000000000000000000000000000FF0000FF000000000000FF000000FF0000000000000000000000000000000000FF0000FF00000000000000000000FF0000000000000000000000000000000000FF0000FFFFFF0000000000000000FFFF00000000000000000000000000000000FFFF
310
FF00FFFFFFFF00000000000000FF00000000000000000000000000000000FF0000000000FFFFFFFF0000000000FF0000000000000000000000000000000000FFFF0000000000FFFFFF00000000FF00000000000000000000000000000000000000FFFF0000000000FFFFFF0000FF0000000000000000000000000000000000
310
00000000FF0000000000FFFFFFFFFF00000000000000000000000000000000000000000000FFFF0000000000FFFFFF000000000000000000000000000000000000000000000000FFFF0000000000FF0000000000000000000000000000000000000000000000000000FFFF00FFFF0000000000000000000000000000000000
310
000000000000000000000000FF00000000000000000000000000000000000000000000000000000000000000000000000000000000000000
102
{BLKREFS
331
4FC
102
}
1001
ACAD
1000
DesignCenter Data
1002
{
1070
     1
1070
     4
1002
}
  0
ENDTAB
  0
ENDSEC
  0
SECTION
  2
BLOCKS
  0
BLOCK
  5
20
330
1F
100
AcDbEntity
  8
0
100
AcDbBlockBegin
  2
*Model_Space
 70
     0
 10
0.0
 20
0.0
 30
0.0
  3
*Model_Space
  1

  0
ENDBLK
  5
21
330
1F
100
AcDbEntity
  8
0
100
AcDbBlockEnd
  0
BLOCK
  5
D4
330
D2
100
AcDbEntity
 67
     1
  8
0
100
AcDbBlockBegin
  2
*Paper_Space
 70
     0
 10
0.0
 20
0.0
 30
0.0
  3
*Paper_Space
  1

  0
ENDBLK
  5
D5
330
D2
100
AcDbEntity
 67
     1
  8
0
100
AcDbBlockEnd
  0
BLOCK
  5
D8
330
D6
100
AcDbEntity
 67
     1
  8
0
100
AcDbBlockBegin
  2
*Paper_Space0
 70
     0
 10
0.0
 20
0.0
 30
0.0
  3
*Paper_Space0
  1

  0
ENDBLK
  5
D9
330
D6
100
AcDbEntity
 67
     1
  8
0
100
AcDbBlockEnd
  0
BLOCK
  5
3DA
330
3D9
100
AcDbEntity
  8
0
100
AcDbBlockBegin
  2
1
 70
     0
 10
0.0
 20
0.0
 30
0.0
  3
1
  1

  0
LINE
  5
3DC
330
3D9
100
AcDbEntity
  8
0
  6
Continuous
 62
     7
370
    15
100
AcDbLine
 10
2143.157904605065
 20
728.889149983664
 30
0.0
 11
2127.357904605065
 21
728.8891499836638
 31
0.0
  0
LINE
  5
3DD
330
3D9
100
AcDbEntity
  8
0
  6
Continuous
 62
     7
370
    15
100
AcDbLine
 10
2143.157904605065
 20
727.6891499836643
 30
0.0
 11
2143.157904605065
 21
728.889149983664
 31
0.0
  0
LINE
  5
3DE
330
3D9
100
AcDbEntity
  8
0
  6
Continuous
 62
     7
370
    15
100
AcDbLine
 10
2127.357904605065
 20
728.8891499836638
 30
0.0
 11
2127.357904605065
 21
727.6891499836643
 31
0.0
  0
LINE
  5
3DF
330
3D9
100
AcDbEntity
  8
0
  6
Continuous
 62
     7
370
    15
100
AcDbLine
 10
2143.157904605065
 20
727.6891499836643
 30
0.0
 11
2127.357904605065
 21
727.6891499836643
 31
0.0
  0
LINE
  5
3E0
330
3D9
100
AcDbEntity
  8
0
  6
Continuous
 62
     7
370
    15
100
AcDbLine
 10
2140.607904605065
 20
719.089149983664
 30
0.0
 11
2138.107904605066
 21
719.089149983664
 31
0.0
  0
LINE
  5
3E1
330
3D9
100
AcDbEntity
  8
0
  6
Continuous
 62
     7
370
    15
100
AcDbLine
 10
2140.607904605065
 20
717.7891499836639
 30
0.0
 11
2138.107904605066
 21
717.7891499836639
 31
0.0
  0
LINE
  5
3E2
330
3D9
100
AcDbEntity
  8
0
  6
Continuous
 62
     7
370
    15
100
AcDbLine
 10
2138.107904605066
 20
717.7891499836639
 30
0.0
 11
2138.107904605066
 21
719.089149983664
 31
0.0
  0
LINE
  5
3E3
330
3D9
100
AcDbEntity
  8
0
  6
Continuous
 62
     7
370
    15
100
AcDbLine
 10
2140.607904605065
 20
717.7891499836639
 30
0.0
 11
2140.607904605065
 21
719.089149983664
 31
0.0
  0
LINE
  5
3E4
330
3D9
100
AcDbEntity
  8
0
  6
Continuous
 62
     7
370
    15
100
AcDbLine
 10
2132.407904605066
 20
717.7891499836639
 30
0.0
 11
2129.907904605066
 21
717.7891499836639
 31
0.0
  0
LINE
  5
3E5
330
3D9
100
AcDbEntity
  8
0
  6
Continuous
 62
     7
370
    15
100
AcDbLine
 10
2132.407904605066
 20
717.7891499836639
 30
0.0
 11
2132.407904605066
 21
719.0891499836639
 31
0.0
  0
LINE
  5
3E6
330
3D9
100
AcDbEntity
  8
0
  6
Continuous
 62
     7
370
    15
100
AcDbLine
 10
2129.907904605066
 20
717.7891499836639
 30
0.0
 11
2129.907904605066
 21
719.0891499836639
 31
0.0
  0
LINE
  5
3E7
330
3D9
100
AcDbEntity
  8
0
  6
Continuous
 62
     7
370
    15
100
AcDbLine
 10
2132.407904605066
 20
719.0891499836639
 30
0.0
 11
2129.907904605066
 21
719.0891499836639
 31
0.0
  0
LINE
  5
3E8
330
3D9
100
AcDbEntity
  8
0
  6
Continuous
 62
     7
370
    15
100
AcDbLine
 10
2141.804351214473
 20
717.1284898118841
 30
0.0
 11
2141.861457995659
 21
717.185596593071
 31
0.0
  0
ARC
  5
3E9
330
3D9
100
AcDbEntity
  8
0
  6
Continuous
 62
     7
370
    15
100
AcDbCircle
 10
2142.157904605065
 20
716.7749364212908
 30
0.0
 40
0.5000000000000569
100
AcDbArc
 50
135.0000000000046
 51
180.0
  0
LINE
  5
3EA
330
3D9
100
AcDbEntity
  8
0
  6
Continuous
 62
     7
370
    15
100
AcDbLine
 10
2141.657904605065
 20
714.760568644064
 30
0.0
 11
2141.657904605065
 21
716.7749364212908
 31
0.0
  0
LINE
  5
3EB
330
3D9
100
AcDbEntity
  8
0
  6
Continuous
 62
     7
370
    15
100
AcDbLine
 10
2137.057904605065
 20
714.760568644064
 30
0.0
 11
2141.657904605065
 21
714.760568644064
 31
0.0
  0
ARC
  5
3EC
330
3D9
100
AcDbEntity
  8
0
  6
Continuous
 62
     7
370
    15
100
AcDbCircle
 10
2136.557904605065
 20
716.7749364212908
 30
0.0
 40
0.5
100
AcDbArc
 50
0.0
 51
45.00000000002303
  0
LINE
  5
3ED
330
3D9
100
AcDbEntity
  8
0
  6
Continuous
 62
     7
370
    15
100
AcDbLine
 10
2136.854351214472
 20
717.1855965930705
 30
0.0
 11
2136.911457995659
 21
717.1284898118842
 31
0.0
  0
ARC
  5
3EE
330
3D9
100
AcDbEntity
  8
0
  6
Continuous
 62
     7
370
    15
100
AcDbCircle
 10
2137.207904605066
 20
717.5391499836639
 30
0.0
 40
0.5
100
AcDbArc
 50
180.0
 51
224.9999999999954
  0
LINE
  5
3EF
330
3D9
100
AcDbEntity
  8
0
  6
Continuous
 62
     7
370
    15
100
AcDbLine
 10
2136.707904605065
 20
721.2225569406994
 30
0.0
 11
2136.707904605065
 21
717.5391499836639
 31
0.0
  0
LINE
  5
3F0
330
3D9
100
AcDbEntity
  8
0
  6
Continuous
 62
     7
370
    15
100
AcDbLine
 10
2133.807904605065
 20
721.2225569406994
 30
0.0
 11
2136.707904605065
 21
721.2225569406994
 31
0.0
  0
LINE
  5
3F1
330
3D9
100
AcDbEntity
  8
0
  6
Continuous
 62
     7
370
    15
100
AcDbLine
 10
2133.807904605065
 20
717.5391499836639
 30
0.0
 11
2133.807904605065
 21
721.2225569406994
 31
0.0
  0
ARC
  5
3F2
330
3D9
100
AcDbEntity
  8
0
  6
Continuous
 62
     7
370
    15
100
AcDbCircle
 10
2133.307904605065
 20
717.5391499836639
 30
0.0
 40
0.5
100
AcDbArc
 50
315.0000000000092
 51
0.0
  0
LINE
  5
3F3
330
3D9
100
AcDbEntity
  8
0
  6
Continuous
 62
     7
370
    15
100
AcDbLine
 10
2133.604351214472
 20
717.1284898118842
 30
0.0
 11
2133.661457995658
 21
717.1855965930707
 31
0.0
  0
ARC
  5
3F4
330
3D9
100
AcDbEntity
  8
0
  6
Continuous
 62
     7
370
    15
100
AcDbCircle
 10
2133.957904605065
 20
716.7749364212908
 30
0.0
 40
0.5000000000000342
100
AcDbArc
 50
134.9999999999816
 51
180.0
  0
LINE
  5
3F5
330
3D9
100
AcDbEntity
  8
0
  6
Continuous
 62
     7
370
    15
100
AcDbLine
 10
2133.457904605065
 20
714.7605686440642
 30
0.0
 11
2133.457904605065
 21
716.7749364212908
 31
0.0
  0
LINE
  5
3F6
330
3D9
100
AcDbEntity
  8
0
  6
Continuous
 62
     7
370
    15
100
AcDbLine
 10
2128.857904605065
 20
714.7605686440642
 30
0.0
 11
2133.457904605065
 21
714.7605686440642
 31
0.0
  0
LINE
  5
3F7
330
3D9
100
AcDbEntity
  8
0
  6
Continuous
 62
     7
370
    15
100
AcDbLine
 10
2128.857904605065
 20
716.7749364212908
 30
0.0
 11
2128.857904605065
 21
714.7605686440642
 31
0.0
  0
ARC
  5
3F8
330
3D9
100
AcDbEntity
  8
0
  6
Continuous
 62
     7
370
    15
100
AcDbCircle
 10
2128.357904605065
 20
716.7749364212908
 30
0.0
 40
0.5000000000000342
100
AcDbArc
 50
0.0
 51
44.99999999999539
  0
LINE
  5
3F9
330
3D9
100
AcDbEntity
  8
0
  6
Continuous
 62
     7
370
    15
100
AcDbLine
 10
2128.654351214472
 20
717.185596593071
 30
0.0
 11
2128.711457995658
 21
717.1284898118841
 31
0.0
  0
ARC
  5
3FA
330
3D9
100
AcDbEntity
  8
0
  6
Continuous
 62
     7
370
    15
100
AcDbCircle
 10
2129.007904605065
 20
717.5391499836644
 30
0.0
 40
0.5000000000000142
100
AcDbArc
 50
180.0
 51
225.0
  0
LINE
  5
3FB
330
3D9
100
AcDbEntity
  8
0
  6
Continuous
 62
     7
370
    15
100
AcDbLine
 10
2128.507904605065
 20
721.2225569406994
 30
0.0
 11
2128.507904605065
 21
717.5391499836644
 31
0.0
  0
LINE
  5
3FC
330
3D9
100
AcDbEntity
  8
0
  6
Continuous
 62
     7
370
    15
100
AcDbLine
 10
2128.507904605065
 20
721.2225569406994
 30
0.0
 11
2127.357904605065
 21
721.2225569406994
 31
0.0
  0
LINE
  5
3FD
330
3D9
100
AcDbEntity
  8
0
  6
Continuous
 62
     7
370
    15
100
AcDbLine
 10
2143.157904605065
 20
721.2225569406994
 30
0.0
 11
2142.007904605065
 21
721.2225569406994
 31
0.0
  0
LINE
  5
3FE
330
3D9
100
AcDbEntity
  8
0
  6
Continuous
 62
     7
370
    15
100
AcDbLine
 10
2142.007904605065
 20
717.5391499836642
 30
0.0
 11
2142.007904605065
 21
721.2225569406994
 31
0.0
  0
ARC
  5
3FF
330
3D9
100
AcDbEntity
  8
0
  6
Continuous
 62
     7
370
    15
100
AcDbCircle
 10
2141.507904605065
 20
717.5391499836644
 30
0.0
 40
0.5000000000000543
100
AcDbArc
 50
315.0000000000092
 51
0.0
  0
LINE
  5
400
330
3D9
100
AcDbEntity
  8
0
  6
Continuous
 62
     7
370
    15
100
AcDbLine
 10
2137.057904605065
 20
716.7749364212908
 30
0.0
 11
2137.057904605065
 21
714.760568644064
 31
0.0
  0
LINE
  5
401
330
3D9
100
AcDbEntity
  8
0
  6
Continuous
 62
     7
370
    15
100
AcDbLine
 10
2127.357904605065
 20
727.6891499836643
 30
0.0
 11
2127.357904605065
 21
721.2225569406994
 31
0.0
  0
LINE
  5
402
330
3D9
100
AcDbEntity
  8
0
  6
Continuous
 62
     7
370
    15
100
AcDbLine
 10
2143.157904605065
 20
721.2225569406994
 30
0.0
 11
2143.157904605065
 21
727.6891499836643
 31
0.0
  0
LINE
  5
403
330
3D9
100
AcDbEntity
  8
0
  6
Continuous
 62
     7
370
    15
100
AcDbLine
 10
2137.407904605065
 20
714.4105686440643
 30
0.0
 11
2141.307904605065
 21
714.4105686440643
 31
0.0
  0
LINE
  5
404
330
3D9
100
AcDbEntity
  8
0
  6
Continuous
 62
     7
370
    15
100
AcDbLine
 10
2137.057904605065
 20
714.7605686440642
 30
0.0
 11
2137.407904605065
 21
714.4105686440643
 31
0.0
  0
LINE
  5
405
330
3D9
100
AcDbEntity
  8
0
  6
Continuous
 62
     7
370
    15
100
AcDbLine
 10
2141.307904605065
 20
714.4105686440643
 30
0.0
 11
2141.657904605065
 21
714.7605686440641
 31
0.0
  0
LINE
  5
406
330
3D9
100
AcDbEntity
  8
0
  6
Continuous
 62
     7
370
    15
100
AcDbLine
 10
2133.107904605065
 20
714.4105686440645
 30
0.0
 11
2133.457904605065
 21
714.7605686440641
 31
0.0
  0
LINE
  5
407
330
3D9
100
AcDbEntity
  8
0
  6
Continuous
 62
     7
370
    15
100
AcDbLine
 10
2129.207904605065
 20
714.4105686440646
 30
0.0
 11
2133.107904605065
 21
714.4105686440645
 31
0.0
  0
LINE
  5
408
330
3D9
100
AcDbEntity
  8
0
  6
Continuous
 62
     7
370
    15
100
AcDbLine
 10
2128.857904605065
 20
714.7605686440642
 30
0.0
 11
2129.207904605065
 21
714.4105686440643
 31
0.0
  0
LINE
  5
409
330
3D9
100
AcDbEntity
  8
0
  6
Continuous
 62
     7
370
    15
100
AcDbLine
 10
2137.857904605065
 20
706.8924764120335
 30
0.0
 11
2137.857904605065
 21
712.6605686440659
 31
0.0
  0
LINE
  5
40A
330
3D9
100
AcDbEntity
  8
0
  6
Continuous
 62
     7
370
    15
100
AcDbLine
 10
2137.857904605065
 20
712.6605686440659
 30
0.0
 11
2140.857904605065
 21
712.6605686440659
 31
0.0
  0
LINE
  5
40B
330
3D9
100
AcDbEntity
  8
0
  6
Continuous
 62
     7
370
    15
100
AcDbLine
 10
2140.857904605065
 20
712.6605686440659
 30
0.0
 11
2140.857904605065
 21
706.8924764120342
 31
0.0
  0
LINE
  5
40C
330
3D9
100
AcDbEntity
  8
0
  6
Continuous
 62
     7
370
    15
100
AcDbLine
 10
2140.857904605065
 20
706.8924764120342
 30
0.0
 11
2140.517922581812
 21
704.9643425445567
 31
0.0
  0
ARC
  5
40D
330
3D9
100
AcDbEntity
  8
0
  6
Continuous
 62
     7
370
    15
100
AcDbCircle
 10
2139.828557154703
 20
705.0858962689235
 30
0.0
 40
0.7000000000000029
100
AcDbArc
 50
270.0
 51
350.0000000000089
  0
LINE
  5
40E
330
3D9
100
AcDbEntity
  8
0
  6
Continuous
 62
     7
370
    15
100
AcDbLine
 10
2138.887252055428
 20
704.3858962689235
 30
0.0
 11
2139.828557154703
 21
704.3858962689235
 31
0.0
  0
ARC
  5
40F
330
3D9
100
AcDbEntity
  8
0
  6
Continuous
 62
     7
370
    15
100
AcDbCircle
 10
2138.887252055428
 20
705.0858962689235
 30
0.0
 40
0.7000000000000029
100
AcDbArc
 50
189.999999999991
 51
270.0
  0
LINE
  5
410
330
3D9
100
AcDbEntity
  8
0
  6
Continuous
 62
     7
370
    15
100
AcDbLine
 10
2138.197886628319
 20
704.9643425445567
 30
0.0
 11
2137.857904605065
 21
706.8924764120335
 31
0.0
  0
LINE
  5
411
330
3D9
100
AcDbEntity
  8
0
  6
Continuous
 62
     7
370
    15
100
AcDbLine
 10
2140.857904605065
 20
712.9105686440659
 30
0.0
 11
2137.857904605065
 21
712.9105686440659
 31
0.0
  0
LINE
  5
412
330
3D9
100
AcDbEntity
  8
0
  6
Continuous
 62
     7
370
    15
100
AcDbLine
 10
2137.857904605065
 20
712.9105686440659
 30
0.0
 11
2137.857904605065
 21
712.6605686440659
 31
0.0
  0
LINE
  5
413
330
3D9
100
AcDbEntity
  8
0
  6
Continuous
 62
     7
370
    15
100
AcDbLine
 10
2140.857904605065
 20
712.6605686440659
 30
0.0
 11
2140.857904605065
 21
712.9105686440659
 31
0.0
  0
LINE
  5
414
330
3D9
100
AcDbEntity
  8
0
  6
Continuous
 62
     7
370
    15
100
AcDbLine
 10
2129.657904605065
 20
706.8924764120337
 30
0.0
 11
2129.657904605066
 21
712.6605686440659
 31
0.0
  0
LINE
  5
415
330
3D9
100
AcDbEntity
  8
0
  6
Continuous
 62
     7
370
    15
100
AcDbLine
 10
2129.657904605066
 20
712.6605686440659
 30
0.0
 11
2132.657904605065
 21
712.6605686440659
 31
0.0
  0
LINE
  5
416
330
3D9
100
AcDbEntity
  8
0
  6
Continuous
 62
     7
370
    15
100
AcDbLine
 10
2132.657904605065
 20
706.8924764120335
 30
0.0
 11
2132.317922581811
 21
704.9643425445566
 31
0.0
  0
ARC
  5
417
330
3D9
100
AcDbEntity
  8
0
  6
Continuous
 62
     7
370
    15
100
AcDbCircle
 10
2131.628557154703
 20
705.0858962689235
 30
0.0
 40
0.7000000000000029
100
AcDbArc
 50
270.0
 51
350.0000000000025
  0
LINE
  5
418
330
3D9
100
AcDbEntity
  8
0
  6
Continuous
 62
     7
370
    15
100
AcDbLine
 10
2130.687252055428
 20
704.3858962689235
 30
0.0
 11
2131.628557154703
 21
704.3858962689235
 31
0.0
  0
ARC
  5
419
330
3D9
100
AcDbEntity
  8
0
  6
Continuous
 62
     7
370
    15
100
AcDbCircle
 10
2130.687252055428
 20
705.0858962689235
 30
0.0
 40
0.7000000000000029
100
AcDbArc
 50
189.999999999991
 51
270.0
  0
LINE
  5
41A
330
3D9
100
AcDbEntity
  8
0
  6
Continuous
 62
     7
370
    15
100
AcDbLine
 10
2129.997886628319
 20
704.9643425445567
 30
0.0
 11
2129.657904605065
 21
706.8924764120337
 31
0.0
  0
LINE
  5
41B
330
3D9
100
AcDbEntity
  8
0
  6
Continuous
 62
     7
370
    15
100
AcDbLine
 10
2132.657904605065
 20
712.6605686440659
 30
0.0
 11
2132.657904605065
 21
706.8924764120335
 31
0.0
  0
LINE
  5
41C
330
3D9
100
AcDbEntity
  8
0
  6
Continuous
 62
     7
370
    15
100
AcDbLine
 10
2132.657904605065
 20
712.9105686440659
 30
0.0
 11
2129.657904605066
 21
712.9105686440659
 31
0.0
  0
LINE
  5
41D
330
3D9
100
AcDbEntity
  8
0
  6
Continuous
 62
     7
370
    15
100
AcDbLine
 10
2129.657904605066
 20
712.9105686440659
 30
0.0
 11
2129.657904605066
 21
712.6605686440659
 31
0.0
  0
LINE
  5
41E
330
3D9
100
AcDbEntity
  8
0
  6
Continuous
 62
     7
370
    15
100
AcDbLine
 10
2132.657904605065
 20
712.6605686440659
 30
0.0
 11
2132.657904605065
 21
712.9105686440659
 31
0.0
  0
LINE
  5
41F
330
3D9
100
AcDbEntity
  8
0
  6
Continuous
 62
     7
370
    15
100
AcDbLine
 10
2137.857904605065
 20
713.1605686440659
 30
0.0
 11
2140.857904605064
 21
713.1605686440659
 31
0.0
  0
LINE
  5
420
330
3D9
100
AcDbEntity
  8
0
  6
Continuous
 62
     7
370
    15
100
AcDbLine
 10
2137.857904605065
 20
713.1605686440659
 30
0.0
 11
2137.857904605065
 21
712.9105686440659
 31
0.0
  0
LINE
  5
421
330
3D9
100
AcDbEntity
  8
0
  6
Continuous
 62
     7
370
    15
100
AcDbLine
 10
2140.857904605064
 20
712.9105686440659
 30
0.0
 11
2140.857904605064
 21
713.1605686440659
 31
0.0
  0
LINE
  5
422
330
3D9
100
AcDbEntity
  8
0
  6
Continuous
 62
     7
370
    15
100
AcDbLine
 10
2129.657904605066
 20
713.1605686440659
 30
0.0
 11
2132.657904605064
 21
713.1605686440659
 31
0.0
  0
LINE
  5
423
330
3D9
100
AcDbEntity
  8
0
  6
Continuous
 62
     7
370
    15
100
AcDbLine
 10
2129.657904605066
 20
713.1605686440659
 30
0.0
 11
2129.657904605066
 21
712.9105686440659
 31
0.0
  0
LINE
  5
424
330
3D9
100
AcDbEntity
  8
0
  6
Continuous
 62
     7
370
    15
100
AcDbLine
 10
2132.657904605064
 20
712.9105686440659
 30
0.0
 11
2132.657904605064
 21
713.1605686440659
 31
0.0
  0
LINE
  5
425
330
3D9
100
AcDbEntity
  8
0
  6
Continuous
 62
     7
370
    15
100
AcDbLine
 10
2137.857904605065
 20
714.4105686440642
 30
0.0
 11
2137.857904605065
 21
713.1605686440659
 31
0.0
  0
LINE
  5
426
330
3D9
100
AcDbEntity
  8
0
  6
Continuous
 62
     7
370
    15
100
AcDbLine
 10
2140.857904605064
 20
713.1605686440659
 30
0.0
 11
2140.857904605065
 21
714.4105686440643
 31
0.0
  0
LINE
  5
427
330
3D9
100
AcDbEntity
  8
0
  6
Continuous
 62
     7
370
    15
100
AcDbLine
 10
2129.657904605066
 20
714.4105686440642
 30
0.0
 11
2129.657904605066
 21
713.1605686440659
 31
0.0
  0
LINE
  5
428
330
3D9
100
AcDbEntity
  8
0
  6
Continuous
 62
     7
370
    15
100
AcDbLine
 10
2132.657904605064
 20
713.1605686440659
 30
0.0
 11
2132.657904605065
 21
714.4105686440643
 31
0.0
  0
ENDBLK
  5
3DB
330
3D9
100
AcDbEntity
  8
0
100
AcDbBlockEnd
  0
BLOCK
  5
42B
330
42A
100
AcDbEntity
  8
0
100
AcDbBlockBegin
  2
2
 70
     0
 10
0.0
 20
0.0
 30
0.0
  3
2
  1

  0
LINE
  5
42D
330
42A
100
AcDbEntity
  8
0
  6
Continuous
 62
     7
370
    15
100
AcDbLine
 10
2109.599781654234
 20
721.2225569406994
 30
0.0
 11
2109.599781654235
 21
727.6891499836643
 31
0.0
  0
LINE
  5
42E
330
42A
100
AcDbEntity
  8
0
  6
Continuous
 62
     7
370
    15
100
AcDbLine
 10
2109.599781654235
 20
727.6891499836643
 30
0.0
 11
2108.849781654235
 21
727.6891499836643
 31
0.0
  0
LINE
  5
42F
330
42A
100
AcDbEntity
  8
0
  6
Continuous
 62
     7
370
    15
100
AcDbLine
 10
2108.849781654235
 20
727.6891499836643
 30
0.0
 11
2108.849781654235
 21
728.889149983664
 31
0.0
  0
LINE
  5
430
330
42A
100
AcDbEntity
  8
0
  6
Continuous
 62
     7
370
    15
100
AcDbLine
 10
2108.849781654235
 20
728.889149983664
 30
0.0
 11
2113.349781654235
 21
728.8891499836638
 31
0.0
  0
LINE
  5
431
330
42A
100
AcDbEntity
  8
0
  6
Continuous
 62
     7
370
    15
100
AcDbLine
 10
2113.349781654235
 20
728.8891499836638
 30
0.0
 11
2113.349781654235
 21
727.6891499836643
 31
0.0
  0
LINE
  5
432
330
42A
100
AcDbEntity
  8
0
  6
Continuous
 62
     7
370
    15
100
AcDbLine
 10
2113.349781654235
 20
727.6891499836643
 30
0.0
 11
2112.599781654235
 21
727.6891499836643
 31
0.0
  0
LINE
  5
433
330
42A
100
AcDbEntity
  8
0
  6
Continuous
 62
     7
370
    15
100
AcDbLine
 10
2112.599781654235
 20
727.6891499836643
 30
0.0
 11
2112.599781654235
 21
721.2225569406994
 31
0.0
  0
LINE
  5
434
330
42A
100
AcDbEntity
  8
0
  6
Continuous
 62
     7
370
    15
100
AcDbLine
 10
2112.599781654235
 20
721.2225569406994
 30
0.0
 11
2109.599781654234
 21
721.2225569406994
 31
0.0
  0
LINE
  5
435
330
42A
100
AcDbEntity
  8
0
  6
Continuous
 62
     7
370
    15
100
AcDbLine
 10
2112.599781654235
 20
717.5391499836642
 30
0.0
 11
2109.599781654234
 21
717.5391499836642
 31
0.0
  0
LINE
  5
436
330
42A
100
AcDbEntity
  8
0
  6
Continuous
 62
     7
370
    15
100
AcDbLine
 10
2109.599781654234
 20
717.5391499836642
 30
0.0
 11
2109.599781654234
 21
721.2225569406994
 31
0.0
  0
LINE
  5
437
330
42A
100
AcDbEntity
  8
0
  6
Continuous
 62
     7
370
    15
100
AcDbLine
 10
2112.599781654235
 20
721.2225569406994
 30
0.0
 11
2112.599781654235
 21
717.5391499836642
 31
0.0
  0
LINE
  5
438
330
42A
100
AcDbEntity
  8
0
  6
Continuous
 62
     7
370
    15
100
AcDbLine
 10
2109.599781654234
 20
717.185596593071
 30
0.0
 11
2112.599781654235
 21
717.1855965930715
 31
0.0
  0
LINE
  5
439
330
42A
100
AcDbEntity
  8
0
  6
Continuous
 62
     7
370
    15
100
AcDbLine
 10
2109.599781654234
 20
717.5391499836642
 30
0.0
 11
2109.599781654234
 21
717.185596593071
 31
0.0
  0
LINE
  5
43A
330
42A
100
AcDbEntity
  8
0
  6
Continuous
 62
     7
370
    15
100
AcDbLine
 10
2112.599781654235
 20
717.1855965930715
 30
0.0
 11
2112.599781654235
 21
717.5391499836642
 31
0.0
  0
LINE
  5
43B
330
42A
100
AcDbEntity
  8
0
  6
Continuous
 62
     7
370
    15
100
AcDbLine
 10
2109.599781654234
 20
717.1284898118841
 30
0.0
 11
2112.599781654235
 21
717.1284898118836
 31
0.0
  0
LINE
  5
43C
330
42A
100
AcDbEntity
  8
0
  6
Continuous
 62
     7
370
    15
100
AcDbLine
 10
2109.599781654234
 20
717.1284898118841
 30
0.0
 11
2109.599781654234
 21
717.185596593071
 31
0.0
  0
LINE
  5
43D
330
42A
100
AcDbEntity
  8
0
  6
Continuous
 62
     7
370
    15
100
AcDbLine
 10
2112.599781654235
 20
717.1284898118836
 30
0.0
 11
2112.599781654235
 21
717.1855965930715
 31
0.0
  0
LINE
  5
43E
330
42A
100
AcDbEntity
  8
0
  6
Continuous
 62
     7
370
    15
100
AcDbLine
 10
2109.599781654234
 20
716.7749364212908
 30
0.0
 11
2112.599781654235
 21
716.7749364212908
 31
0.0
  0
LINE
  5
43F
330
42A
100
AcDbEntity
  8
0
  6
Continuous
 62
     7
370
    15
100
AcDbLine
 10
2109.599781654234
 20
716.7749364212908
 30
0.0
 11
2109.599781654234
 21
717.1284898118841
 31
0.0
  0
LINE
  5
440
330
42A
100
AcDbEntity
  8
0
  6
Continuous
 62
     7
370
    15
100
AcDbLine
 10
2112.599781654235
 20
716.7749364212908
 30
0.0
 11
2112.599781654235
 21
717.1284898118836
 31
0.0
  0
LINE
  5
441
330
42A
100
AcDbEntity
  8
0
  6
Continuous
 62
     7
370
    15
100
AcDbLine
 10
2112.599781654235
 20
714.760568644064
 30
0.0
 11
2112.249781654234
 21
714.4105686440643
 31
0.0
  0
LINE
  5
442
330
42A
100
AcDbEntity
  8
0
  6
Continuous
 62
     7
370
    15
100
AcDbLine
 10
2112.249781654234
 20
714.4105686440643
 30
0.0
 11
2109.949781654234
 21
714.4105686440643
 31
0.0
  0
LINE
  5
443
330
42A
100
AcDbEntity
  8
0
  6
Continuous
 62
     7
370
    15
100
AcDbLine
 10
2109.949781654234
 20
714.4105686440643
 30
0.0
 11
2109.599781654234
 21
714.7605686440641
 31
0.0
  0
LINE
  5
444
330
42A
100
AcDbEntity
  8
0
  6
Continuous
 62
     7
370
    15
100
AcDbLine
 10
2112.599781654235
 20
714.7605686440642
 30
0.0
 11
2109.599781654234
 21
714.7605686440642
 31
0.0
  0
LINE
  5
445
330
42A
100
AcDbEntity
  8
0
  6
Continuous
 62
     7
370
    15
100
AcDbLine
 10
2109.599781654234
 20
714.760568644064
 30
0.0
 11
2109.599781654234
 21
716.7749364212908
 31
0.0
  0
LINE
  5
446
330
42A
100
AcDbEntity
  8
0
  6
Continuous
 62
     7
370
    15
100
AcDbLine
 10
2112.599781654235
 20
716.7749364212908
 30
0.0
 11
2112.599781654235
 21
714.7605686440642
 31
0.0
  0
LINE
  5
447
330
42A
100
AcDbEntity
  8
0
  6
Continuous
 62
     7
370
    15
100
AcDbLine
 10
2109.746981134383
 20
712.6605686440659
 30
0.0
 11
2109.746981134384
 21
706.8924764120342
 31
0.0
  0
ARC
  5
448
330
42A
100
AcDbEntity
  8
0
  6
Continuous
 62
     7
370
    15
100
AcDbCircle
 10
2109.996981134384
 20
712.6605686440659
 30
0.0
 40
0.2500000000000284
100
AcDbArc
 50
90.0
 51
180.0
  0
LINE
  5
449
330
42A
100
AcDbEntity
  8
0
  6
Continuous
 62
     7
370
    15
100
AcDbLine
 10
2109.996981134384
 20
712.9105686440659
 30
0.0
 11
2110.149781654234
 21
712.9105686440659
 31
0.0
  0
ARC
  5
44A
330
42A
100
AcDbEntity
  8
0
  6
Continuous
 62
     7
370
    15
100
AcDbCircle
 10
2110.149781654234
 20
713.1605686440659
 30
0.0
 40
0.2500000000000284
100
AcDbArc
 50
270.0
 51
0.0000000002475235
  0
LINE
  5
44B
330
42A
100
AcDbEntity
  8
0
  6
Continuous
 62
     7
370
    15
100
AcDbLine
 10
2111.789781654235
 20
714.4105686440643
 30
0.0
 11
2111.789781654235
 21
713.1605686440658
 31
0.0
  0
ARC
  5
44C
330
42A
100
AcDbEntity
  8
0
  6
Continuous
 62
     7
370
    15
100
AcDbCircle
 10
2112.039781654235
 20
713.1605686440658
 30
0.0
 40
0.2500000000000284
100
AcDbArc
 50
180.0
 51
270.0
  0
LINE
  5
44D
330
42A
100
AcDbEntity
  8
0
  6
Continuous
 62
     7
370
    15
100
AcDbLine
 10
2112.039781654235
 20
712.9105686440659
 30
0.0
 11
2112.192582174087
 21
712.9105686440659
 31
0.0
  0
ARC
  5
44E
330
42A
100
AcDbEntity
  8
0
  6
Continuous
 62
     7
370
    15
100
AcDbCircle
 10
2112.192582174087
 20
712.6605686440658
 30
0.0
 40
0.2500000000000426
100
AcDbArc
 50
359.999999999987
 51
90.0
  0
LINE
  5
44F
330
42A
100
AcDbEntity
  8
0
  6
Continuous
 62
     7
370
    15
100
AcDbLine
 10
2112.442582174086
 20
706.8924764120338
 30
0.0
 11
2112.442582174086
 21
712.6605686440658
 31
0.0
  0
LINE
  5
450
330
42A
100
AcDbEntity
  8
0
  6
Continuous
 62
     7
370
    15
100
AcDbLine
 10
2109.746981134384
 20
706.8924764120342
 30
0.0
 11
2112.442582174086
 21
706.8924764120338
 31
0.0
  0
LINE
  5
451
330
42A
100
AcDbEntity
  8
0
  6
Continuous
 62
     7
370
    15
100
AcDbLine
 10
2110.399781654235
 20
713.1605686440659
 30
0.0
 11
2110.399781654235
 21
714.4105686440643
 31
0.0
  0
LINE
  5
452
330
42A
100
AcDbEntity
  8
0
  6
Continuous
 62
     7
370
    15
100
AcDbLine
 10
2112.442582174086
 20
704.9643425445566
 30
0.0
 11
2112.442582174086
 21
706.8924764120338
 31
0.0
  0
LINE
  5
453
330
42A
100
AcDbEntity
  8
0
  6
Continuous
 62
     7
370
    15
100
AcDbLine
 10
2112.442582174086
 20
704.9643425445566
 30
0.0
 11
2109.746981134384
 21
704.9643425445567
 31
0.0
  0
LINE
  5
454
330
42A
100
AcDbEntity
  8
0
  6
Continuous
 62
     7
370
    15
100
AcDbLine
 10
2109.746981134384
 20
706.8924764120342
 30
0.0
 11
2109.746981134384
 21
704.9643425445567
 31
0.0
  0
LINE
  5
455
330
42A
100
AcDbEntity
  8
0
  6
Continuous
 62
     7
370
    15
100
AcDbLine
 10
2112.599781654235
 20
719.089149983664
 30
0.0
 11
2112.949781654235
 21
719.089149983664
 31
0.0
  0
LINE
  5
456
330
42A
100
AcDbEntity
  8
0
  6
Continuous
 62
     7
370
    15
100
AcDbLine
 10
2112.949781654235
 20
719.089149983664
 30
0.0
 11
2112.599781654235
 21
717.7891499836634
 31
0.0
  0
LINE
  5
457
330
42A
100
AcDbEntity
  8
0
  6
Continuous
 62
     7
370
    15
100
AcDbLine
 10
2109.249781654234
 20
719.089149983664
 30
0.0
 11
2109.599781654235
 21
719.089149983664
 31
0.0
  0
LINE
  5
458
330
42A
100
AcDbEntity
  8
0
  6
Continuous
 62
     7
370
    15
100
AcDbLine
 10
2109.599781654235
 20
717.7891499836639
 30
0.0
 11
2109.249781654234
 21
719.089149983664
 31
0.0
  0
LINE
  5
459
330
42A
100
AcDbEntity
  8
0
  6
Continuous
 62
     7
370
    15
100
AcDbLine
 10
2109.746981134384
 20
704.3858962689235
 30
0.0
 11
2112.442582174086
 21
704.3858962689234
 31
0.0
  0
LINE
  5
45A
330
42A
100
AcDbEntity
  8
0
  6
Continuous
 62
     7
370
    15
100
AcDbLine
 10
2109.746981134384
 20
704.9643425445567
 30
0.0
 11
2109.746981134384
 21
704.3858962689235
 31
0.0
  0
LINE
  5
45B
330
42A
100
AcDbEntity
  8
0
  6
Continuous
 62
     7
370
    15
100
AcDbLine
 10
2112.442582174086
 20
704.3858962689234
 30
0.0
 11
2112.442582174086
 21
704.9643425445566
 31
0.0
  0
ENDBLK
  5
42C
330
42A
100
AcDbEntity
  8
0
100
AcDbBlockEnd
  0
BLOCK
  5
45E
330
45D
100
AcDbEntity
  8
0
100
AcDbBlockBegin
  2
3
 70
     0
 10
0.0
 20
0.0
 30
0.0
  3
3
  1

  0
LINE
  5
460
330
45D
100
AcDbEntity
  8
0
  6
Continuous
 62
     7
370
    15
100
AcDbLine
 10
2127.357904605065
 20
683.5401742890853
 30
0.0
 11
2143.157904605065
 21
683.5401742890852
 31
0.0
  0
LINE
  5
461
330
45D
100
AcDbEntity
  8
0
  6
Continuous
 62
     7
370
    15
100
AcDbLine
 10
2143.157904605065
 20
679.0401742890852
 30
0.0
 11
2143.157904605065
 21
683.5401742890852
 31
0.0
  0
LINE
  5
462
330
45D
100
AcDbEntity
  8
0
  6
Continuous
 62
     7
370
    15
100
AcDbLine
 10
2143.157904605065
 20
679.0401742890852
 30
0.0
 11
2127.357904605065
 21
679.0401742890853
 31
0.0
  0
LINE
  5
463
330
45D
100
AcDbEntity
  8
0
  6
Continuous
 62
     7
370
    15
100
AcDbLine
 10
2127.357904605065
 20
683.5401742890853
 30
0.0
 11
2127.357904605065
 21
679.0401742890853
 31
0.0
  0
ENDBLK
  5
45F
330
45D
100
AcDbEntity
  8
0
100
AcDbBlockEnd
  0
BLOCK
  5
466
330
465
100
AcDbEntity
  8
0
100
AcDbBlockBegin
  2
4
 70
     0
 10
0.0
 20
0.0
 30
0.0
  3
4
  1

  0
LINE
  5
468
330
465
100
AcDbEntity
  8
0
  6
Continuous
 62
     7
370
    15
100
AcDbLine
 10
2164.211726977244
 20
710.4570493714378
 30
0.0
 11
2163.801914156612
 21
710.2204694658316
 31
0.0
  0
LINE
  5
469
330
465
100
AcDbEntity
  8
0
  6
Continuous
 62
     7
370
    15
100
AcDbLine
 10
2164.128014308821
 20
703.73492873376
 30
0.0
 11
2166.034092083367
 21
702.6345734562348
 31
0.0
  0
LINE
  5
46A
330
465
100
AcDbEntity
  8
0
  6
Continuous
 62
     7
370
    15
100
AcDbLine
 10
2170.010002582974
 20
713.8043226299109
 30
0.0
 11
2169.600189762341
 21
713.5677427243047
 31
0.0
  0
LINE
  5
46B
330
465
100
AcDbEntity
  8
0
  6
Continuous
 62
     7
370
    15
100
AcDbLine
 10
2169.926289914551
 20
707.0822019922331
 30
0.0
 11
2171.832367689097
 21
705.9818467147079
 31
0.0
  0
LINE
  5
46C
330
465
100
AcDbEntity
  8
0
  6
Continuous
 62
     7
370
    15
100
AcDbLine
 10
2161.482294801864
 20
721.808911451462
 30
0.0
 11
2161.482294801864
 21
722.7887604257245
 31
0.0
  0
LINE
  5
46D
330
465
100
AcDbEntity
  8
0
  6
Continuous
 62
     7
370
    15
100
AcDbLine
 10
2161.482294801864
 20
722.7887604257245
 30
0.0
 11
2164.664275317203
 21
720.9518421741236
 31
0.0
  0
LINE
  5
46E
330
465
100
AcDbEntity
  8
0
  6
Continuous
 62
     7
370
    15
100
AcDbLine
 10
2164.664275317203
 20
720.9518421741236
 30
0.0
 11
2164.664275317203
 21
719.9719931998609
 31
0.0
  0
LINE
  5
46F
330
465
100
AcDbEntity
  8
0
  6
Continuous
 62
     7
370
    15
100
AcDbLine
 10
2164.664275317203
 20
719.9719931998609
 30
0.0
 11
2164.133945231313
 21
720.2781462417945
 31
0.0
  0
LINE
  5
470
330
465
100
AcDbEntity
  8
0
  6
Continuous
 62
     7
370
    15
100
AcDbLine
 10
2164.133945231313
 20
720.2781462417945
 30
0.0
 11
2164.133945231314
 21
714.997909108357
 31
0.0
  0
LINE
  5
471
330
465
100
AcDbEntity
  8
0
  6
Continuous
 62
     7
370
    15
100
AcDbLine
 10
2164.133945231313
 20
714.997909108357
 30
0.0
 11
2162.012624887754
 21
716.2225212760911
 31
0.0
  0
LINE
  5
472
330
465
100
AcDbEntity
  8
0
  6
Continuous
 62
     7
370
    15
100
AcDbLine
 10
2162.012624887754
 20
716.2225212760911
 30
0.0
 11
2162.012624887754
 21
721.5027584095285
 31
0.0
  0
LINE
  5
473
330
465
100
AcDbEntity
  8
0
  6
Continuous
 62
     7
370
    15
100
AcDbLine
 10
2162.012624887754
 20
721.5027584095285
 30
0.0
 11
2161.482294801864
 21
721.808911451462
 31
0.0
  0
LINE
  5
474
330
465
100
AcDbEntity
  8
0
  6
Continuous
 62
     7
370
    15
100
AcDbLine
 10
2161.482294801864
 20
722.7887604257245
 30
0.0
 11
2172.654581944612
 21
729.2383845091239
 31
0.0
  0
LINE
  5
475
330
465
100
AcDbEntity
  8
0
  6
Continuous
 62
     7
370
    15
100
AcDbLine
 10
2175.83656245995
 20
727.401466257523
 30
0.0
 11
2172.654581944612
 21
729.2383845091239
 31
0.0
  0
LINE
  5
476
330
465
100
AcDbEntity
  8
0
  6
Continuous
 62
     7
370
    15
100
AcDbLine
 10
2175.83656245995
 20
727.401466257523
 30
0.0
 11
2164.664275317203
 21
720.9518421741236
 31
0.0
  0
LINE
  5
477
330
465
100
AcDbEntity
  8
0
  6
Continuous
 62
     7
370
    15
100
AcDbLine
 10
2175.83656245995
 20
726.4216172832604
 30
0.0
 11
2175.83656245995
 21
727.401466257523
 31
0.0
  0
LINE
  5
478
330
465
100
AcDbEntity
  8
0
  6
Continuous
 62
     7
370
    15
100
AcDbLine
 10
2175.83656245995
 20
726.4216172832604
 30
0.0
 11
2164.664275317203
 21
719.9719931998609
 31
0.0
  0
LINE
  5
479
330
465
100
AcDbEntity
  8
0
  6
Continuous
 62
     7
370
    15
100
AcDbLine
 10
2174.349125592875
 20
717.5520343105461
 30
0.0
 11
2174.389506185104
 21
717.621975547721
 31
0.0
  0
ARC
  5
47A
330
465
100
AcDbEntity
  8
0
  6
Continuous
 62
     7
370
    15
100
AcDbCircle
 10
2174.966554777321
 20
717.1789342249946
 30
0.0
 40
0.7214031269992879
100
AcDbArc
 50
148.8562722006069
 51
178.0435013569685
  0
LINE
  5
47B
330
465
100
AcDbEntity
  8
0
  6
Continuous
 62
     7
370
    15
100
AcDbLine
 10
2174.245572202281
 20
715.5587499377584
 30
0.0
 11
2174.245572202281
 21
717.2035634380117
 31
0.0
  0
LINE
  5
47C
330
465
100
AcDbEntity
  8
0
  6
Continuous
 62
     7
370
    15
100
AcDbLine
 10
2170.992881008823
 20
713.6810112805663
 30
0.0
 11
2174.245572202281
 21
715.5587499377584
 31
0.0
  0
LINE
  5
47D
330
465
100
AcDbEntity
  8
0
  6
Continuous
 62
     7
370
    15
100
AcDbLine
 10
2170.992881008823
 20
715.3258247808196
 30
0.0
 11
2170.992881008823
 21
713.6810112805663
 31
0.0
  0
ARC
  5
47E
330
465
100
AcDbEntity
  8
0
  6
Continuous
 62
     7
370
    15
100
AcDbCircle
 10
2170.74255122214
 20
715.3504597274501
 30
0.0
 40
0.2515390281771092
100
AcDbArc
 50
354.3796210363449
 51
54.30196147126228
  0
LINE
  5
47F
330
465
100
AcDbEntity
  8
0
  6
Continuous
 62
     7
370
    15
100
AcDbLine
 10
2170.848947026001
 20
715.5780542512591
 30
0.0
 11
2170.88932761823
 21
715.5547354534852
 31
0.0
  0
ARC
  5
480
330
465
100
AcDbEntity
  8
0
  6
Continuous
 62
     7
370
    15
100
AcDbCircle
 10
2170.995723422091
 20
715.7823299772942
 30
0.0
 40
0.251539028177124
100
AcDbArc
 50
174.3796210363514
 51
234.3019614712297
  0
LINE
  5
481
330
465
100
AcDbEntity
  8
0
  6
Continuous
 62
     7
370
    15
100
AcDbLine
 10
2170.745393635408
 20
718.8146170311281
 30
0.0
 11
2170.745393635408
 21
715.8069649239247
 31
0.0
  0
LINE
  5
482
330
465
100
AcDbEntity
  8
0
  6
Continuous
 62
     7
370
    15
100
AcDbLine
 10
2168.694783969967
 20
717.630825268985
 30
0.0
 11
2170.745393635408
 21
718.8146170311281
 31
0.0
  0
LINE
  5
483
330
465
100
AcDbEntity
  8
0
  6
Continuous
 62
     7
370
    15
100
AcDbLine
 10
2168.694783969967
 20
714.6231731617817
 30
0.0
 11
2168.694783969967
 21
717.630825268985
 31
0.0
  0
ARC
  5
484
330
465
100
AcDbEntity
  8
0
  6
Continuous
 62
     7
370
    15
100
AcDbCircle
 10
2167.973801394927
 20
714.6478023747988
 30
0.0
 40
0.7214031269994878
100
AcDbArc
 50
328.8562722006371
 51
358.0435013569685
  0
LINE
  5
485
330
465
100
AcDbEntity
  8
0
  6
Continuous
 62
     7
370
    15
100
AcDbLine
 10
2168.550849987144
 20
714.2047610520728
 30
0.0
 11
2168.591230579373
 21
714.2747022892474
 31
0.0
  0
ARC
  5
486
330
465
100
AcDbEntity
  8
0
  6
Continuous
 62
     7
370
    15
100
AcDbCircle
 10
2169.168279171592
 20
713.8316609665211
 30
0.0
 40
0.7214031270002312
100
AcDbArc
 50
148.8562722006371
 51
178.0435013569555
  0
LINE
  5
487
330
465
100
AcDbEntity
  8
0
  6
Continuous
 62
     7
370
    15
100
AcDbLine
 10
2168.447296596551
 20
712.2114766792853
 30
0.0
 11
2168.447296596551
 21
713.8562901795385
 31
0.0
  0
LINE
  5
488
330
465
100
AcDbEntity
  8
0
  6
Continuous
 62
     7
370
    15
100
AcDbLine
 10
2165.194605403093
 20
710.3337380220931
 30
0.0
 11
2168.447296596551
 21
712.2114766792853
 31
0.0
  0
LINE
  5
489
330
465
100
AcDbEntity
  8
0
  6
Continuous
 62
     7
370
    15
100
AcDbLine
 10
2165.194605403093
 20
711.9785515223462
 30
0.0
 11
2165.194605403093
 21
710.3337380220931
 31
0.0
  0
ARC
  5
48A
330
465
100
AcDbEntity
  8
0
  6
Continuous
 62
     7
370
    15
100
AcDbCircle
 10
2164.94427561641
 20
712.0031864689768
 30
0.0
 40
0.2515390281771971
100
AcDbArc
 50
354.3796210363449
 51
54.30196147122972
  0
LINE
  5
48B
330
465
100
AcDbEntity
  8
0
  6
Continuous
 62
     7
370
    15
100
AcDbLine
 10
2165.050671420271
 20
712.230780992786
 30
0.0
 11
2165.0910520125
 21
712.207462195012
 31
0.0
  0
ARC
  5
48C
330
465
100
AcDbEntity
  8
0
  6
Continuous
 62
     7
370
    15
100
AcDbCircle
 10
2165.19744781636
 20
712.4350567188212
 30
0.0
 40
0.2515390281771113
100
AcDbArc
 50
174.3796210363255
 51
234.3019614712297
  0
LINE
  5
48D
330
465
100
AcDbEntity
  8
0
  6
Continuous
 62
     7
370
    15
100
AcDbLine
 10
2164.947118029678
 20
715.4673437726549
 30
0.0
 11
2164.947118029678
 21
712.4596916654517
 31
0.0
  0
LINE
  5
48E
330
465
100
AcDbEntity
  8
0
  6
Continuous
 62
     7
370
    15
100
AcDbLine
 10
2164.947118029678
 20
715.4673437726549
 30
0.0
 11
2164.133945231314
 21
714.997909108357
 31
0.0
  0
LINE
  5
48F
330
465
100
AcDbEntity
  8
0
  6
Continuous
 62
     7
370
    15
100
AcDbLine
 10
2175.306232374061
 20
721.4475331917563
 30
0.0
 11
2175.306232374061
 21
726.1154642413268
 31
0.0
  0
LINE
  5
490
330
465
100
AcDbEntity
  8
0
  6
Continuous
 62
     7
370
    15
100
AcDbLine
 10
2175.306232374061
 20
721.4475331917563
 30
0.0
 11
2174.493059575697
 21
720.9780985274583
 31
0.0
  0
LINE
  5
491
330
465
100
AcDbEntity
  8
0
  6
Continuous
 62
     7
370
    15
100
AcDbLine
 10
2174.493059575697
 20
717.9704464202552
 30
0.0
 11
2174.493059575697
 21
720.9780985274583
 31
0.0
  0
ARC
  5
492
330
465
100
AcDbEntity
  8
0
  6
Continuous
 62
     7
370
    15
100
AcDbCircle
 10
2173.772077000656
 20
717.9950756332727
 30
0.0
 40
0.7214031270007153
100
AcDbArc
 50
328.8562722006594
 51
358.0435013569425
  0
LINE
  5
493
330
465
100
AcDbEntity
  8
0
  6
Continuous
 62
     7
370
    15
100
AcDbLine
 10
2167.704834476306
 20
715.317325741929
 30
0.0
 11
2165.937067523339
 21
714.2968156021506
 31
0.0
  0
LINE
  5
494
330
465
100
AcDbEntity
  8
0
  6
Continuous
 62
     7
370
    15
100
AcDbLine
 10
2165.937067523339
 20
714.2968156021506
 30
0.0
 11
2165.937067523339
 21
713.2353125466992
 31
0.0
  0
LINE
  5
495
330
465
100
AcDbEntity
  8
0
  6
Continuous
 62
     7
370
    15
100
AcDbLine
 10
2167.704834476306
 20
714.2558226864776
 30
0.0
 11
2165.937067523339
 21
713.2353125466992
 31
0.0
  0
LINE
  5
496
330
465
100
AcDbEntity
  8
0
  6
Continuous
 62
     7
370
    15
100
AcDbLine
 10
2173.503110082036
 20
718.6645990004022
 30
0.0
 11
2171.735343129069
 21
717.6440888606237
 31
0.0
  0
LINE
  5
497
330
465
100
AcDbEntity
  8
0
  6
Continuous
 62
     7
370
    15
100
AcDbLine
 10
2171.735343129069
 20
717.6440888606237
 30
0.0
 11
2171.735343129069
 21
716.5825858051723
 31
0.0
  0
LINE
  5
498
330
465
100
AcDbEntity
  8
0
  6
Continuous
 62
     7
370
    15
100
AcDbLine
 10
2173.503110082036
 20
717.6030959449508
 30
0.0
 11
2171.735343129069
 21
716.5825858051723
 31
0.0
  0
LINE
  5
499
330
465
100
AcDbEntity
  8
0
  6
Continuous
 62
     7
370
    15
100
AcDbLine
 10
2164.947118029678
 20
712.4596916654517
 30
0.0
 11
2162.825797686118
 21
713.6843038331859
 31
0.0
  0
LINE
  5
49A
330
465
100
AcDbEntity
  8
0
  6
Continuous
 62
     7
370
    15
100
AcDbLine
 10
2162.825797686118
 20
713.6843038331859
 30
0.0
 11
2162.825797686118
 21
715.7530866117931
 31
0.0
  0
LINE
  5
49B
330
465
100
AcDbEntity
  8
0
  6
Continuous
 62
     7
370
    15
100
AcDbLine
 10
2167.952321849721
 20
715.1744543223601
 30
0.0
 11
2167.704834476306
 21
715.317325741929
 31
0.0
  0
LINE
  5
49C
330
465
100
AcDbEntity
  8
0
  6
Continuous
 62
     7
370
    15
100
AcDbLine
 10
2167.952321849721
 20
715.1744543223601
 30
0.0
 11
2166.184554896755
 21
714.1539441825817
 31
0.0
  0
LINE
  5
49D
330
465
100
AcDbEntity
  8
0
  6
Continuous
 62
     7
370
    15
100
AcDbLine
 10
2166.184554896755
 20
714.1539441825817
 30
0.0
 11
2165.937067523339
 21
714.2968156021506
 31
0.0
  0
LINE
  5
49E
330
465
100
AcDbEntity
  8
0
  6
Continuous
 62
     7
370
    15
100
AcDbLine
 10
2165.937067523339
 20
713.2353125466992
 30
0.0
 11
2166.184554896755
 21
714.1539441825817
 31
0.0
  0
LINE
  5
49F
330
465
100
AcDbEntity
  8
0
  6
Continuous
 62
     7
370
    15
100
AcDbLine
 10
2167.704834476306
 20
714.2558226864776
 30
0.0
 11
2167.952321849721
 21
715.1744543223601
 31
0.0
  0
LINE
  5
4A0
330
465
100
AcDbEntity
  8
0
  6
Continuous
 62
     7
370
    15
100
AcDbLine
 10
2162.929351076711
 20
713.4553931605201
 30
0.0
 11
2165.050671420271
 21
712.230780992786
 31
0.0
  0
ARC
  5
4A1
330
465
100
AcDbEntity
  8
0
  6
Continuous
 62
     7
370
    15
100
AcDbCircle
 10
2163.076127472802
 20
713.6596688865552
 30
0.0
 40
0.2515390281773976
100
AcDbArc
 50
174.379621036332
 51
234.3019614711934
  0
LINE
  5
4A2
330
465
100
AcDbEntity
  8
0
  6
Continuous
 62
     7
370
    15
100
AcDbLine
 10
2162.96973166894
 20
713.4320743627461
 30
0.0
 11
2165.0910520125
 21
712.207462195012
 31
0.0
  0
LINE
  5
4A3
330
465
100
AcDbEntity
  8
0
  6
Continuous
 62
     7
370
    15
100
AcDbLine
 10
2162.96973166894
 20
713.4320743627461
 30
0.0
 11
2162.929351076711
 21
713.4553931605201
 31
0.0
  0
LINE
  5
4A4
330
465
100
AcDbEntity
  8
0
  6
Continuous
 62
     7
370
    15
100
AcDbLine
 10
2163.073285059534
 20
713.2031636900803
 30
0.0
 11
2165.194605403093
 21
711.9785515223462
 31
0.0
  0
ARC
  5
4A5
330
465
100
AcDbEntity
  8
0
  6
Continuous
 62
     7
370
    15
100
AcDbCircle
 10
2162.82295527285
 20
713.2277986367107
 30
0.0
 40
0.251539028177412
100
AcDbArc
 50
354.3796210363838
 51
54.30196147122591
  0
LINE
  5
4A6
330
465
100
AcDbEntity
  8
0
  6
Continuous
 62
     7
370
    15
100
AcDbLine
 10
2165.194605403093
 20
710.3337380220932
 30
0.0
 11
2163.073285059534
 21
711.5583501898272
 31
0.0
  0
LINE
  5
4A7
330
465
100
AcDbEntity
  8
0
  6
Continuous
 62
     7
370
    15
100
AcDbLine
 10
2163.073285059534
 20
711.5583501898272
 30
0.0
 11
2163.073285059534
 21
713.2031636900803
 31
0.0
  0
LINE
  5
4A8
330
465
100
AcDbEntity
  8
0
  6
Continuous
 62
     7
370
    15
100
AcDbLine
 10
2167.952321849721
 20
711.9256873951257
 30
0.0
 11
2168.447296596551
 21
712.2114766792853
 31
0.0
  0
LINE
  5
4A9
330
465
100
AcDbEntity
  8
0
  6
Continuous
 62
     7
370
    15
100
AcDbLine
 10
2165.194605403093
 20
710.3336915770712
 30
0.0
 11
2167.952321849721
 21
711.9256873951257
 31
0.0
  0
LINE
  5
4AA
330
465
100
AcDbEntity
  8
0
  6
Continuous
 62
     7
370
    15
100
AcDbLine
 10
2165.194605403093
 20
710.3337380220931
 30
0.0
 11
2165.194605403093
 21
710.3336915770711
 31
0.0
  0
LINE
  5
4AB
330
465
100
AcDbEntity
  8
0
  6
Continuous
 62
     7
370
    15
100
AcDbLine
 10
2165.194605403093
 20
710.3336915770711
 30
0.0
 11
2163.568259806364
 21
711.2725609056671
 31
0.0
  0
LINE
  5
4AC
330
465
100
AcDbEntity
  8
0
  6
Continuous
 62
     7
370
    15
100
AcDbLine
 10
2163.568259806364
 20
711.2725609056671
 30
0.0
 11
2163.073285059534
 21
711.5583501898271
 31
0.0
  0
LINE
  5
4AD
330
465
100
AcDbEntity
  8
0
  6
Continuous
 62
     7
370
    15
100
AcDbLine
 10
2165.37138209839
 20
709.3742129955866
 30
0.0
 11
2165.479428382145
 21
709.311839203638
 31
0.0
  0
ARC
  5
4AE
330
465
100
AcDbEntity
  8
0
  6
Continuous
 62
     7
370
    15
100
AcDbCircle
 10
2165.2724010521
 20
708.9881877736236
 30
0.0
 40
0.3842012018931591
100
AcDbArc
 50
2.605478485662874
 51
57.39452165996635
  0
LINE
  5
4AF
330
465
100
AcDbEntity
  8
0
  6
Continuous
 62
     7
370
    15
100
AcDbLine
 10
2165.656205077442
 20
704.2957702725133
 30
0.0
 11
2165.656205077442
 21
709.0056529866887
 31
0.0
  0
LINE
  5
4B0
330
465
100
AcDbEntity
  8
0
  6
Continuous
 62
     7
370
    15
100
AcDbLine
 10
2163.750127302895
 20
705.3961255500388
 30
0.0
 11
2165.656205077442
 21
704.2957702725133
 31
0.0
  0
LINE
  5
4B1
330
465
100
AcDbEntity
  8
0
  6
Continuous
 62
     7
370
    15
100
AcDbLine
 10
2163.750127302895
 20
710.1060082642142
 30
0.0
 11
2163.750127302895
 21
705.3961255500388
 31
0.0
  0
ARC
  5
4B2
330
465
100
AcDbEntity
  8
0
  6
Continuous
 62
     7
370
    15
100
AcDbCircle
 10
2163.857895894751
 20
710.1234900634395
 30
0.0
 40
0.1091772993571549
100
AcDbArc
 50
50.79671476430495
 51
189.2140369904628
  0
LINE
  5
4B3
330
465
100
AcDbEntity
  8
0
  6
Continuous
 62
     7
370
    15
100
AcDbLine
 10
2163.926903998191
 20
710.2080924532079
 30
0.0
 11
2164.034950281948
 21
710.1457186612588
 31
0.0
  0
ARC
  5
4B4
330
465
100
AcDbEntity
  8
0
  6
Continuous
 62
     7
370
    15
100
AcDbCircle
 10
2164.103958385388
 20
710.2303210510272
 30
0.0
 40
0.1091772993571465
100
AcDbArc
 50
230.7967147642926
 51
9.214036990469226
  0
LINE
  5
4B5
330
465
100
AcDbEntity
  8
0
  6
Continuous
 62
     7
370
    15
100
AcDbLine
 10
2164.211726977244
 20
710.2478028502524
 30
0.0
 11
2164.211726977244
 21
710.9010952147876
 31
0.0
  0
LINE
  5
4B6
330
465
100
AcDbEntity
  8
0
  6
Continuous
 62
     7
370
    15
100
AcDbLine
 10
2165.194605403093
 20
710.3336915770712
 30
0.0
 11
2165.194605403093
 21
709.6803992125359
 31
0.0
  0
ARC
  5
4B7
330
465
100
AcDbEntity
  8
0
  6
Continuous
 62
     7
370
    15
100
AcDbCircle
 10
2165.578409428435
 20
709.6978644256008
 30
0.0
 40
0.3842012018924739
100
AcDbArc
 50
182.6054784856173
 51
237.3945216600348
  0
LINE
  5
4B8
330
465
100
AcDbEntity
  8
0
  6
Continuous
 62
     7
370
    15
100
AcDbLine
 10
2165.194605403093
 20
709.6803992125359
 30
0.0
 11
2167.315925746652
 21
710.9050113802695
 31
0.0
  0
LINE
  5
4B9
330
465
100
AcDbEntity
  8
0
  6
Continuous
 62
     7
370
    15
100
AcDbLine
 10
2167.315925746652
 20
710.9050113802695
 30
0.0
 11
2167.315925746652
 21
711.5583037448051
 31
0.0
  0
LINE
  5
4BA
330
465
100
AcDbEntity
  8
0
  6
Continuous
 62
     7
370
    15
100
AcDbLine
 10
2167.600748725705
 20
710.536451371372
 30
0.0
 11
2165.479428382145
 21
709.311839203638
 31
0.0
  0
ARC
  5
4BB
330
465
100
AcDbEntity
  8
0
  6
Continuous
 62
     7
370
    15
100
AcDbCircle
 10
2167.39372139566
 20
710.2127999413576
 30
0.0
 40
0.3842012018928301
100
AcDbArc
 50
2.60547848564986
 51
57.39452165999882
  0
LINE
  5
4BC
330
465
100
AcDbEntity
  8
0
  6
Continuous
 62
     7
370
    15
100
AcDbLine
 10
2165.656205077442
 20
709.0056529866887
 30
0.0
 11
2167.777525421001
 21
710.2302651544228
 31
0.0
  0
ARC
  5
4BD
330
465
100
AcDbEntity
  8
0
  6
Continuous
 62
     7
370
    15
100
AcDbCircle
 10
2167.699729771991
 20
710.9224765933326
 30
0.0
 40
0.3842012018898553
100
AcDbArc
 50
182.6054784854026
 51
237.3945216602192
  0
LINE
  5
4BE
330
465
100
AcDbEntity
  8
0
  6
Continuous
 62
     7
370
    15
100
AcDbLine
 10
2167.492702441949
 20
710.5988251633201
 30
0.0
 11
2165.37138209839
 21
709.3742129955866
 31
0.0
  0
LINE
  5
4BF
330
465
100
AcDbEntity
  8
0
  6
Continuous
 62
     7
370
    15
100
AcDbLine
 10
2167.777525421001
 20
710.2302651544228
 30
0.0
 11
2167.777525421001
 21
705.5203824402472
 31
0.0
  0
LINE
  5
4C0
330
465
100
AcDbEntity
  8
0
  6
Continuous
 62
     7
370
    15
100
AcDbLine
 10
2167.777525421001
 20
705.5203824402472
 30
0.0
 11
2167.537121826877
 21
703.807200405844
 31
0.0
  0
ARC
  5
4C1
330
465
100
AcDbEntity
  8
0
  6
Continuous
 62
     7
370
    15
100
AcDbCircle
 10
2166.454890844933
 20
703.9726193518549
 30
0.0
 40
1.094800130607463
100
AcDbArc
 50
302.9067666138728
 51
351.3096048990302
  0
LINE
  5
4C2
330
465
100
AcDbEntity
  8
0
  6
Continuous
 62
     7
370
    15
100
AcDbLine
 10
2166.38406363979
 20
702.6692290915812
 30
0.0
 11
2167.049666858653
 21
703.0534736509555
 31
0.0
  0
LWPOLYLINE
  5
4C3
330
465
100
AcDbEntity
  8
0
  6
Continuous
 62
     7
370
    15
100
AcDbPolyline
 90
        9
 70
   128
 43
0.0
 10
2166.38406363979
 20
702.6692290915812
 10
2166.298112177011
 20
702.6282939310664
 10
2166.214772305937
 20
702.6059696902554
 10
2166.136576266375
 20
702.6029346799084
 10
2166.06590000542
 20
702.6192811172793
 10
2166.004890985496
 20
702.6545123241402
 10
2165.955402934803
 20
702.7075578180983
 10
2165.918939522718
 20
702.7768058386623
 10
2165.896608671566
 20
702.8601523197684
  0
LINE
  5
4C4
330
465
100
AcDbEntity
  8
0
  6
Continuous
 62
     7
370
    15
100
AcDbLine
 10
2165.896608671566
 20
702.8601523197684
 30
0.0
 11
2165.656205077442
 21
704.2957702725133
 31
0.0
  0
LINE
  5
4C5
330
465
100
AcDbEntity
  8
0
  6
Continuous
 62
     7
370
    15
100
AcDbLine
 10
2167.600748725705
 20
710.536451371372
 30
0.0
 11
2167.492702441949
 21
710.5988251633201
 31
0.0
  0
LINE
  5
4C6
330
465
100
AcDbEntity
  8
0
  6
Continuous
 62
     7
370
    15
100
AcDbLine
 10
2173.75059745545
 20
718.5217275808333
 30
0.0
 11
2173.503110082036
 21
718.6645990004022
 31
0.0
  0
LINE
  5
4C7
330
465
100
AcDbEntity
  8
0
  6
Continuous
 62
     7
370
    15
100
AcDbLine
 10
2173.75059745545
 20
718.5217275808333
 30
0.0
 11
2171.982830502484
 21
717.5012174410548
 31
0.0
  0
LINE
  5
4C8
330
465
100
AcDbEntity
  8
0
  6
Continuous
 62
     7
370
    15
100
AcDbLine
 10
2171.982830502484
 20
717.5012174410548
 30
0.0
 11
2171.735343129069
 21
717.6440888606237
 31
0.0
  0
LINE
  5
4C9
330
465
100
AcDbEntity
  8
0
  6
Continuous
 62
     7
370
    15
100
AcDbLine
 10
2173.503110082036
 20
717.6030959449508
 30
0.0
 11
2173.75059745545
 21
718.5217275808333
 31
0.0
  0
LINE
  5
4CA
330
465
100
AcDbEntity
  8
0
  6
Continuous
 62
     7
370
    15
100
AcDbLine
 10
2171.735343129069
 20
716.5825858051723
 30
0.0
 11
2171.982830502484
 21
717.5012174410548
 31
0.0
  0
LINE
  5
4CB
330
465
100
AcDbEntity
  8
0
  6
Continuous
 62
     7
370
    15
100
AcDbLine
 10
2168.727626682442
 20
716.802666418993
 30
0.0
 11
2170.848947026001
 21
715.5780542512591
 31
0.0
  0
LWPOLYLINE
  5
4CC
330
465
100
AcDbEntity
  8
0
  6
Continuous
 62
     7
370
    15
100
AcDbPolyline
 90
        3
 70
   128
 43
0.0
 10
2168.694783969967
 20
716.8274352536846
 10
2168.704326215691
 20
716.8189021147992
 10
2168.727626682442
 20
716.802666418993
  0
LINE
  5
4CD
330
465
100
AcDbEntity
  8
0
  6
Continuous
 62
     7
370
    15
100
AcDbLine
 10
2168.76800727467
 20
716.7793476212193
 30
0.0
 11
2170.88932761823
 21
715.5547354534852
 31
0.0
  0
LINE
  5
4CE
330
465
100
AcDbEntity
  8
0
  6
Continuous
 62
     7
370
    15
100
AcDbLine
 10
2168.76800727467
 20
716.7793476212193
 30
0.0
 11
2168.727626682442
 21
716.802666418993
 31
0.0
  0
LINE
  5
4CF
330
465
100
AcDbEntity
  8
0
  6
Continuous
 62
     7
370
    15
100
AcDbLine
 10
2168.871560665264
 20
716.5504369485536
 30
0.0
 11
2170.992881008823
 21
715.3258247808196
 31
0.0
  0
ARC
  5
4D0
330
465
100
AcDbEntity
  8
0
  6
Continuous
 62
     7
370
    15
100
AcDbCircle
 10
2168.62123087858
 20
716.5750718951842
 30
0.0
 40
0.2515390281771875
100
AcDbArc
 50
354.379621036332
 51
54.30196147122972
  0
LINE
  5
4D1
330
465
100
AcDbEntity
  8
0
  6
Continuous
 62
     7
370
    15
100
AcDbLine
 10
2170.992881008823
 20
713.6810112805663
 30
0.0
 11
2168.871560665264
 21
714.9056234483004
 31
0.0
  0
LINE
  5
4D2
330
465
100
AcDbEntity
  8
0
  6
Continuous
 62
     7
370
    15
100
AcDbLine
 10
2168.871560665264
 20
714.9056234483004
 30
0.0
 11
2168.871560665264
 21
716.5504369485536
 31
0.0
  0
LINE
  5
4D3
330
465
100
AcDbEntity
  8
0
  6
Continuous
 62
     7
370
    15
100
AcDbLine
 10
2170.992881008823
 20
713.6810112805662
 30
0.0
 11
2170.992881008823
 21
713.6809648355441
 31
0.0
  0
LINE
  5
4D4
330
465
100
AcDbEntity
  8
0
  6
Continuous
 62
     7
370
    15
100
AcDbLine
 10
2170.992881008823
 20
713.6809648355442
 30
0.0
 11
2169.366535412094
 21
714.6198341641402
 31
0.0
  0
LINE
  5
4D5
330
465
100
AcDbEntity
  8
0
  6
Continuous
 62
     7
370
    15
100
AcDbLine
 10
2169.366535412094
 20
714.6198341641402
 30
0.0
 11
2168.871560665263
 21
714.9056234483004
 31
0.0
  0
LINE
  5
4D6
330
465
100
AcDbEntity
  8
0
  6
Continuous
 62
     7
370
    15
100
AcDbLine
 10
2170.992881008823
 20
713.6809648355442
 30
0.0
 11
2173.75059745545
 21
715.2729606535987
 31
0.0
  0
LINE
  5
4D7
330
465
100
AcDbEntity
  8
0
  6
Continuous
 62
     7
370
    15
100
AcDbLine
 10
2173.75059745545
 20
715.2729606535987
 30
0.0
 11
2174.245572202281
 21
715.5587499377585
 31
0.0
  0
LINE
  5
4D8
330
465
100
AcDbEntity
  8
0
  6
Continuous
 62
     7
370
    15
100
AcDbLine
 10
2165.896608671566
 20
702.8601523197684
 30
0.0
 11
2163.990530897019
 21
703.9605075972936
 31
0.0
  0
LINE
  5
4D9
330
465
100
AcDbEntity
  8
0
  6
Continuous
 62
     7
370
    15
100
AcDbLine
 10
2163.750127302895
 20
705.3961255500388
 30
0.0
 11
2163.990530897019
 21
703.9605075972936
 31
0.0
  0
LINE
  5
4DA
330
465
100
AcDbEntity
  8
0
  6
Continuous
 62
     7
370
    15
100
AcDbLine
 10
2171.16965770412
 20
712.7214862540597
 30
0.0
 11
2171.277703987875
 21
712.6591124621111
 31
0.0
  0
ARC
  5
4DB
330
465
100
AcDbEntity
  8
0
  6
Continuous
 62
     7
370
    15
100
AcDbCircle
 10
2171.07067665783
 20
712.3354610320966
 30
0.0
 40
0.3842012018931868
100
AcDbArc
 50
2.605478485662874
 51
57.39452165996985
  0
LINE
  5
4DC
330
465
100
AcDbEntity
  8
0
  6
Continuous
 62
     7
370
    15
100
AcDbLine
 10
2171.454480683172
 20
707.6430435309863
 30
0.0
 11
2171.454480683172
 21
712.3529262451618
 31
0.0
  0
LINE
  5
4DD
330
465
100
AcDbEntity
  8
0
  6
Continuous
 62
     7
370
    15
100
AcDbLine
 10
2171.454480683172
 20
707.6430435309863
 30
0.0
 11
2169.548402908625
 21
708.7433988085117
 31
0.0
  0
LINE
  5
4DE
330
465
100
AcDbEntity
  8
0
  6
Continuous
 62
     7
370
    15
100
AcDbLine
 10
2169.548402908624
 20
713.4532815226873
 30
0.0
 11
2169.548402908625
 21
708.7433988085117
 31
0.0
  0
ARC
  5
4DF
330
465
100
AcDbEntity
  8
0
  6
Continuous
 62
     7
370
    15
100
AcDbCircle
 10
2169.656171500481
 20
713.4707633219124
 30
0.0
 40
0.1091772993571396
100
AcDbArc
 50
50.79671476430084
 51
189.2140369904564
  0
LINE
  5
4E0
330
465
100
AcDbEntity
  8
0
  6
Continuous
 62
     7
370
    15
100
AcDbLine
 10
2169.725179603921
 20
713.5553657116808
 30
0.0
 11
2169.833225887677
 21
713.4929919197319
 31
0.0
  0
ARC
  5
4E1
330
465
100
AcDbEntity
  8
0
  6
Continuous
 62
     7
370
    15
100
AcDbCircle
 10
2169.902233991117
 20
713.5775943095002
 30
0.0
 40
0.1091772993570804
100
AcDbArc
 50
230.7967147642601
 51
9.214036990514232
  0
LINE
  5
4E2
330
465
100
AcDbEntity
  8
0
  6
Continuous
 62
     7
370
    15
100
AcDbLine
 10
2170.010002582974
 20
713.5950761087254
 30
0.0
 11
2170.010002582974
 21
714.2483684732608
 31
0.0
  0
LINE
  5
4E3
330
465
100
AcDbEntity
  8
0
  6
Continuous
 62
     7
370
    15
100
AcDbLine
 10
2170.992881008823
 20
713.6809648355442
 30
0.0
 11
2170.992881008823
 21
713.027672471009
 31
0.0
  0
ARC
  5
4E4
330
465
100
AcDbEntity
  8
0
  6
Continuous
 62
     7
370
    15
100
AcDbCircle
 10
2171.376685034164
 20
713.0451376840738
 30
0.0
 40
0.3842012018924706
100
AcDbArc
 50
182.6054784856108
 51
237.3945216600348
  0
LINE
  5
4E5
330
465
100
AcDbEntity
  8
0
  6
Continuous
 62
     7
370
    15
100
AcDbLine
 10
2170.992881008823
 20
713.027672471009
 30
0.0
 11
2173.114201352382
 21
714.2522846387424
 31
0.0
  0
LINE
  5
4E6
330
465
100
AcDbEntity
  8
0
  6
Continuous
 62
     7
370
    15
100
AcDbLine
 10
2173.114201352382
 20
714.2522846387424
 30
0.0
 11
2173.114201352382
 21
714.905577003278
 31
0.0
  0
LINE
  5
4E7
330
465
100
AcDbEntity
  8
0
  6
Continuous
 62
     7
370
    15
100
AcDbLine
 10
2173.399024331435
 20
713.883724629845
 30
0.0
 11
2171.277703987875
 21
712.6591124621111
 31
0.0
  0
ARC
  5
4E8
330
465
100
AcDbEntity
  8
0
  6
Continuous
 62
     7
370
    15
100
AcDbCircle
 10
2173.19199700139
 20
713.5600731998309
 30
0.0
 40
0.3842012018926237
100
AcDbArc
 50
2.605478485636846
 51
57.39452166000233
  0
LINE
  5
4E9
330
465
100
AcDbEntity
  8
0
  6
Continuous
 62
     7
370
    15
100
AcDbLine
 10
2171.454480683172
 20
712.3529262451618
 30
0.0
 11
2173.575801026732
 21
713.5775384128958
 31
0.0
  0
ARC
  5
4EA
330
465
100
AcDbEntity
  8
0
  6
Continuous
 62
     7
370
    15
100
AcDbCircle
 10
2164.291532150133
 20
703.9892732495189
 30
0.0
 40
0.302372646124386
100
AcDbArc
 50
185.4589815370972
 51
237.2630757800982
  0
ARC
  5
4EB
330
465
100
AcDbEntity
  8
0
  6
Continuous
 62
     7
370
    15
100
AcDbCircle
 10
2173.498005377721
 20
714.269749851806
 30
0.0
 40
0.3842012018902734
100
AcDbArc
 50
182.6054784854351
 51
237.3945216601902
  0
LINE
  5
4EC
330
465
100
AcDbEntity
  8
0
  6
Continuous
 62
     7
370
    15
100
AcDbLine
 10
2173.290978047679
 20
713.9460984217931
 30
0.0
 11
2171.16965770412
 21
712.7214862540597
 31
0.0
  0
LINE
  5
4ED
330
465
100
AcDbEntity
  8
0
  6
Continuous
 62
     7
370
    15
100
AcDbLine
 10
2173.575801026732
 20
713.5775384128958
 30
0.0
 11
2173.575801026732
 21
708.8676556987207
 31
0.0
  0
LINE
  5
4EE
330
465
100
AcDbEntity
  8
0
  6
Continuous
 62
     7
370
    15
100
AcDbLine
 10
2173.575801026732
 20
708.8676556987207
 30
0.0
 11
2173.335397432607
 21
707.1544736643171
 31
0.0
  0
ARC
  5
4EF
330
465
100
AcDbEntity
  8
0
  6
Continuous
 62
     7
370
    15
100
AcDbCircle
 10
2172.253166450663
 20
707.3198926103279
 30
0.0
 40
1.094800130607436
100
AcDbArc
 50
302.9067666138728
 51
351.3096048990367
  0
LINE
  5
4F0
330
465
100
AcDbEntity
  8
0
  6
Continuous
 62
     7
370
    15
100
AcDbLine
 10
2172.18233924552
 20
706.0165023500543
 30
0.0
 11
2172.847942464383
 21
706.4007469094285
 31
0.0
  0
LWPOLYLINE
  5
4F1
330
465
100
AcDbEntity
  8
0
  6
Continuous
 62
     7
370
    15
100
AcDbPolyline
 90
        9
 70
   128
 43
0.0
 10
2172.18233924552
 20
706.0165023500543
 10
2172.096387782742
 20
705.9755671895395
 10
2172.013047911666
 20
705.9532429487283
 10
2171.934851872105
 20
705.9502079383815
 10
2171.864175611149
 20
705.9665543757525
 10
2171.803166591226
 20
706.0017855826132
 10
2171.753678540533
 20
706.0548310765714
 10
2171.717215128448
 20
706.1240790971354
 10
2171.694884277296
 20
706.2074255782414
  0
LINE
  5
4F2
330
465
100
AcDbEntity
  8
0
  6
Continuous
 62
     7
370
    15
100
AcDbLine
 10
2171.694884277296
 20
706.2074255782414
 30
0.0
 11
2171.454480683172
 21
707.6430435309863
 31
0.0
  0
LINE
  5
4F3
330
465
100
AcDbEntity
  8
0
  6
Continuous
 62
     7
370
    15
100
AcDbLine
 10
2173.399024331435
 20
713.883724629845
 30
0.0
 11
2173.290978047679
 21
713.9460984217931
 31
0.0
  0
LINE
  5
4F4
330
465
100
AcDbEntity
  8
0
  6
Continuous
 62
     7
370
    15
100
AcDbLine
 10
2171.694884277296
 20
706.2074255782414
 30
0.0
 11
2169.788806502749
 21
707.3077808557667
 31
0.0
  0
LINE
  5
4F5
330
465
100
AcDbEntity
  8
0
  6
Continuous
 62
     7
370
    15
100
AcDbLine
 10
2169.548402908625
 20
708.7433988085117
 30
0.0
 11
2169.788806502749
 21
707.3077808557667
 31
0.0
  0
ARC
  5
4F6
330
465
100
AcDbEntity
  8
0
  6
Continuous
 62
     7
370
    15
100
AcDbCircle
 10
2170.089807755863
 20
707.3365465079921
 30
0.0
 40
0.3023726461243768
100
AcDbArc
 50
185.4589815370972
 51
237.2630757801018
  0
LINE
  5
4F7
330
465
100
AcDbEntity
  8
0
  6
Continuous
 62
     8
370
    15
100
AcDbLine
 10
2170.745393635408
 20
715.8069649239247
 30
0.0
 11
2168.694783969967
 21
716.9907566860679
 31
0.0
  0
LINE
  5
4F8
330
465
100
AcDbEntity
  8
0
  6
Continuous
 62
     8
370
    15
100
AcDbLine
 10
2164.034950281948
 20
710.1457186612588
 30
0.0
 11
2164.211726974909
 21
710.2477696738888
 31
0.0
  0
LINE
  5
4F9
330
465
100
AcDbEntity
  8
0
  6
Continuous
 62
     8
370
    15
100
AcDbLine
 10
2163.926903998191
 20
710.2080924532079
 30
0.0
 11
2164.211726977244
 21
710.3725172591348
 31
0.0
  0
LINE
  5
4FA
330
465
100
AcDbEntity
  8
0
  6
Continuous
 62
     8
370
    15
100
AcDbLine
 10
2169.833225887677
 20
713.4929919197319
 30
0.0
 11
2170.010002580639
 21
713.5950429323618
 31
0.0
  0
LINE
  5
4FB
330
465
100
AcDbEntity
  8
0
  6
Continuous
 62
     8
370
    15
100
AcDbLine
 10
2169.725179603921
 20
713.5553657116808
 30
0.0
 11
2170.010002582974
 21
713.7197905176078
 31
0.0
  0
ENDBLK
  5
467
330
465
100
AcDbEntity
  8
0
100
AcDbBlockEnd
  0
ENDSEC
  0
SECTION
  2
ENTITIES
  0
INSERT
  5
429
330
1F
100
AcDbEntity
  8
0
100
AcDbBlockReference
  2
1
 10
0.0
 20
0.0
 30
0.0
  0
INSERT
  5
45C
330
1F
100
AcDbEntity
  8
0
100
AcDbBlockReference
  2
2
 10
7.830344241508555
 20
0.0
 30
0.0
  0
INSERT
  5
464
330
1F
100
AcDbEntity
  8
0
100
AcDbBlockReference
  2
3
 10
0.0
 20
15.11820896302731
 30
0.0
  0
INSERT
  5
4FC
330
1F
100
AcDbEntity
  8
0
100
AcDbBlockReference
  2
4
 10
-10.49776042634767
 20
0.0
 30
0.0
  0
ENDSEC
  0
SECTION
  2
OBJECTS
  0
DICTIONARY
  5
C
330
0
100
AcDbDictionary
281
     1
  3
ACAD_COLOR
350
6B
  3
ACAD_GROUP
350
D
  3
ACAD_LAYOUT
350
1A
  3
ACAD_MATERIAL
350
6A
  3
ACAD_MLEADERSTYLE
350
12D
  3
ACAD_MLINESTYLE
350
17
  3
ACAD_PLOTSETTINGS
350
19
  3
ACAD_PLOTSTYLENAME
350
E
  3
ACAD_SCALELIST
350
10C
  3
ACAD_TABLESTYLE
350
7E
  3
ACAD_VISUALSTYLE
350
EF
  3
ACDB_RECOMPOSE_DATA
350
15D
  3
AcDbVariableDictionary
350
5E
  3
DWGPROPS
350
50A
  0
DICTIONARY
  5
13C
330
10
100
AcDbDictionary
280
     1
281
     1
  3
ADSK_XREC_LAYER_RECONCILED
360
4FD
  0
DICTIONARY
  5
6B
102
{ACAD_REACTORS
330
C
102
}
330
C
100
AcDbDictionary
281
     1
  0
DICTIONARY
  5
D
102
{ACAD_REACTORS
330
C
102
}
330
C
100
AcDbDictionary
281
     1
  0
DICTIONARY
  5
1A
102
{ACAD_REACTORS
330
C
102
}
330
C
100
AcDbDictionary
281
     1
  3
Layout1
350
D3
  3
Layout2
350
D7
  3
Model
350
22
  0
DICTIONARY
  5
6A
102
{ACAD_REACTORS
330
C
102
}
330
C
100
AcDbDictionary
281
     1
  3
ByBlock
350
ED
  3
ByLayer
350
EC
  3
Global
350
EE
  0
DICTIONARY
  5
12D
102
{ACAD_REACTORS
330
C
102
}
330
C
100
AcDbDictionary
281
     1
  3
Annotative
350
13B
  3
Standard
350
12E
  0
DICTIONARY
  5
17
102
{ACAD_REACTORS
330
C
102
}
330
C
100
AcDbDictionary
281
     1
  3
Standard
350
18
  0
DICTIONARY
  5
19
102
{ACAD_REACTORS
330
C
102
}
330
C
100
AcDbDictionary
281
     1
  0
ACDBDICTIONARYWDFLT
  5
E
102
{ACAD_REACTORS
330
C
102
}
330
C
100
AcDbDictionary
281
     1
  3
Normal
350
F
100
AcDbDictionaryWithDefault
340
F
  0
DICTIONARY
  5
10C
102
{ACAD_REACTORS
330
C
102
}
330
C
100
AcDbDictionary
281
     1
  3
A0
350
10D
  3
A1
350
188
  3
A2
350
189
  3
A3
350
18A
  3
A4
350
18B
  3
A5
350
18C
  3
A6
350
18D
  3
A7
350
18E
  3
A8
350
18F
  3
A9
350
190
  3
B0
350
191
  3
B1
350
192
  3
B2
350
193
  3
B3
350
194
  3
B4
350
195
  3
B5
350
196
  3
B6
350
197
  3
B7
350
198
  3
B8
350
199
  3
B9
350
19A
  3
C0
350
19B
  3
C1
350
19C
  3
C2
350
19D
  3
C3
350
19E
  3
C4
350
19F
  3
C5
350
1A0
  3
C6
350
1A1
  3
C7
350
1A2
  3
C8
350
1A3
  3
C9
350
1A4
  3
D0
350
1A5
  3
D1
350
1A6
  3
D2
350
1A7
  0
DICTIONARY
  5
7E
102
{ACAD_REACTORS
330
C
102
}
330
C
100
AcDbDictionary
281
     1
  3
Standard
350
7F
  0
DICTIONARY
  5
EF
102
{ACAD_REACTORS
330
C
102
}
330
C
100
AcDbDictionary
281
     1
  3
2dWireframe
350
F5
  3
3D Hidden
350
F7
  3
3dWireframe
350
F6
  3
Basic
350
F4
  3
Brighten
350
FB
  3
ColorChange
350
FF
  3
Conceptual
350
F8
  3
Dim
350
FA
  3
Facepattern
350
FE
  3
Flat
350
F0
  3
FlatWithEdges
350
F1
  3
Gouraud
350
F2
  3
GouraudWithEdges
350
F3
  3
Linepattern
350
FD
  3
Realistic
350
F9
  3
Thicken
350
FC
  0
XRECORD
  5
15D
102
{ACAD_REACTORS
330
C
102
}
330
C
100
AcDbXrecord
280
     1
 90
        1
330
7F
  0
DICTIONARY
  5
5E
102
{ACAD_REACTORS
330
C
102
}
330
C
100
AcDbDictionary
281
     1
  3
CANNOSCALE
350
146
  3
CMLEADERSTYLE
350
145
  3
CTABLESTYLE
350
84
  3
DIMASSOC
350
5F
  3
HIDETEXT
350
63
  3
INDEXCTL
350
506
  3
LIGHTINGUNITS
350
504
  3
MSLTSCALE
350
503
  3
PSOLHEIGHT
350
508
  3
PSOLWIDTH
350
507
  3
SORTENTS
350
505
  0
XRECORD
  5
50A
102
{ACAD_REACTORS
330
C
102
}
330
C
100
AcDbXrecord
280
     1
  1
DWGPROPS COOKIE
  2

  3

  4

  6

  7

  8
orhan kara
  9

300
=
301
=
302
=
303
=
304
=
305
=
306
=
307
=
308
=
309
=
 40
0.000477650462963
 41
2458932.67466412
 42
2458956.445561539
  1

 90
        0
  0
XRECORD
  5
4FD
102
{ACAD_REACTORS
330
13C
102
}
330
13C
100
AcDbXrecord
280
     1
290
     1
  0
LAYOUT
  5
D3
102
{ACAD_XDICTIONARY
360
50E
102
}
102
{ACAD_REACTORS
330
1A
102
}
330
1A
100
AcDbPlotSettings
  1

  2
C:\Documents and Settings\basas\Application Data\Autodesk\AutoCAD 2005\R16.1\enu\plotters\Default Windows System Printer.pc3
  4

  6

 40
0.0
 41
0.0
 42
0.0
 43
0.0
 44
0.0
 45
0.0
 46
0.0
 47
0.0
 48
0.0
 49
0.0
140
0.0
141
0.0
142
1.0
143
1.0
 70
   688
 72
     0
 73
     0
 74
     5
  7

 75
    16
147
1.0
148
0.0
149
0.0
100
AcDbLayout
  1
Layout1
 70
     1
 71
     1
 10
0.0
 20
0.0
 11
12.0
 21
9.0
 12
0.0
 22
0.0
 32
0.0
 14
0.0
 24
0.0
 34
0.0
 15
0.0
 25
0.0
 35
0.0
146
0.0
 13
0.0
 23
0.0
 33
0.0
 16
1.0
 26
0.0
 36
0.0
 17
0.0
 27
1.0
 37
0.0
 76
     0
330
D2
  0
LAYOUT
  5
D7
102
{ACAD_XDICTIONARY
360
510
102
}
102
{ACAD_REACTORS
330
1A
102
}
330
1A
100
AcDbPlotSettings
  1

  2
C:\Documents and Settings\basas\Application Data\Autodesk\AutoCAD 2005\R16.1\enu\plotters\Default Windows System Printer.pc3
  4

  6

 40
0.0
 41
0.0
 42
0.0
 43
0.0
 44
0.0
 45
0.0
 46
0.0
 47
0.0
 48
0.0
 49
0.0
140
0.0
141
0.0
142
1.0
143
1.0
 70
   688
 72
     0
 73
     0
 74
     5
  7

 75
    16
147
1.0
148
0.0
149
0.0
100
AcDbLayout
  1
Layout2
 70
     1
 71
     2
 10
0.0
 20
0.0
 11
12.0
 21
9.0
 12
0.0
 22
0.0
 32
0.0
 14
0.0
 24
0.0
 34
0.0
 15
0.0
 25
0.0
 35
0.0
146
0.0
 13
0.0
 23
0.0
 33
0.0
 16
1.0
 26
0.0
 36
0.0
 17
0.0
 27
1.0
 37
0.0
 76
     0
330
D6
  0
LAYOUT
  5
22
102
{ACAD_XDICTIONARY
360
50B
102
}
102
{ACAD_REACTORS
330
1A
102
}
330
1A
100
AcDbPlotSettings
  1

  2
none_device
  4
ISO_A4_(210.00_x_297.00_MM)
  6

 40
7.5
 41
20.0
 42
7.5
 43
20.0
 44
210.0
 45
297.0
 46
11.54999923706054
 47
-13.65000009536743
 48
0.0
 49
0.0
140
0.0
141
0.0
142
1.0
143
8.704084754739808
 70
 11952
 72
     1
 73
     0
 74
     0
  7

 75
     0
147
0.1148885871608098
148
0.0
149
0.0
100
AcDbLayout
  1
Model
 70
     1
 71
     0
 10
0.0
 20
0.0
 11
12.0
 21
9.0
 12
0.0
 22
0.0
 32
0.0
 14
0.0
 24
0.0
 34
0.0
 15
0.0
 25
0.0
 35
0.0
146
0.0
 13
0.0
 23
0.0
 33
0.0
 16
1.0
 26
0.0
 36
0.0
 17
0.0
 27
1.0
 37
0.0
 76
     0
330
1F
331
EA
1001
ACAD_PSEXT
1000
None
1000
None
1000
Not applicable
1000
The layout will not be plotted unless a new plotter configuration name is selected.
1070
     0
  0
MATERIAL
  5
ED
102
{ACAD_XDICTIONARY
360
514
102
}
102
{ACAD_REACTORS
330
6A
102
}
330
6A
100
AcDbMaterial
  1
ByBlock
  0
MATERIAL
  5
EC
102
{ACAD_XDICTIONARY
360
512
102
}
102
{ACAD_REACTORS
330
6A
102
}
330
6A
100
AcDbMaterial
  1
ByLayer
  0
MATERIAL
  5
EE
102
{ACAD_XDICTIONARY
360
173
102
}
102
{ACAD_REACTORS
330
6A
102
}
330
6A
100
AcDbMaterial
  1
Global
 43
0.0007999999797903
 43
0.0
 43
0.0
 43
0.0
 43
0.0
 43
0.0007999999797903
 43
0.0
 43
0.0
 43
0.0
 43
0.0
 43
1.0
 43
0.0
 43
0.0
 43
0.0
 43
0.0
 43
1.0
 49
0.0007999999797903
 49
0.0
 49
0.0
 49
0.0
 49
0.0
 49
0.0007999999797903
 49
0.0
 49
0.0
 49
0.0
 49
0.0
 49
1.0
 49
0.0
 49
0.0
 49
0.0
 49
0.0
 49
1.0
142
0.0007999999797903
142
0.0
142
0.0
142
0.0
142
0.0
142
0.0007999999797903
142
0.0
142
0.0
142
0.0
142
0.0
142
1.0
142
0.0
142
0.0
142
0.0
142
0.0
142
1.0
144
0.0007999999797903
144
0.0
144
0.0
144
0.0
144
0.0
144
0.0007999999797903
144
0.0
144
0.0
144
0.0
144
0.0
144
1.0
144
0.0
144
0.0
144
0.0
144
0.0
144
1.0
1001
ACAD
1070
    -1
1070
     3
1070
     0
1000

1071
        0
1070
     0
  0
MLEADERSTYLE
  5
13B
102
{ACAD_REACTORS
330
12D
102
}
330
12D
100
AcDbMLeaderStyle
170
     2
171
     1
172
     0
 90
        2
 40
0.0
 41
0.0
173
     1
 91
-1056964608
340
14
 92
       -2
290
     1
 42
2.0
291
     1
 43
8.0
  3
Standard
 44
4.0
300

342
11
174
     1
178
     1
175
     1
176
     0
 93
-1056964608
 45
4.0
292
     0
297
     0
 46
4.0
 94
-1056964608
 47
1.0
 49
1.0
140
1.0
293
     1
141
0.0
294
     1
177
     0
142
1.0
295
     0
296
     1
143
3.75
1001
ACAD_MLEADERVER
1070
     2
  0
MLEADERSTYLE
  5
12E
102
{ACAD_REACTORS
330
12D
102
}
330
12D
100
AcDbMLeaderStyle
170
     2
171
     1
172
     0
 90
        2
 40
0.0
 41
0.0
173
     1
 91
-1056964608
340
14
 92
       -2
290
     1
 42
2.0
291
     1
 43
8.0
  3
Standard
 44
4.0
300

342
11
174
     1
178
     1
175
     1
176
     0
 93
-1056964608
 45
4.0
292
     0
297
     0
 46
4.0
 94
-1056964608
 47
1.0
 49
1.0
140
1.0
293
     1
141
0.0
294
     1
177
     0
142
1.0
295
     0
296
     0
143
3.75
1001
ACAD_MLEADERVER
1070
     2
  0
MLINESTYLE
  5
18
102
{ACAD_REACTORS
330
17
102
}
330
17
100
AcDbMlineStyle
  2
STANDARD
 70
     0
  3

 62
   256
 51
90.0
 52
90.0
 71
     2
 49
0.5
 62
   256
  6
BYLAYER
 49
-0.5
 62
   256
  6
BYLAYER
  0
ACDBPLACEHOLDER
  5
F
102
{ACAD_REACTORS
330
E
102
}
330
E
  0
SCALE
  5
10D
102
{ACAD_REACTORS
330
10C
102
}
330
10C
100
AcDbScale
 70
     0
300
1:1
140
1.0
141
1.0
290
     1
  0
SCALE
  5
188
102
{ACAD_REACTORS
330
10C
102
}
330
10C
100
AcDbScale
 70
     0
300
1:2
140
1.0
141
2.0
290
     0
  0
SCALE
  5
189
102
{ACAD_REACTORS
330
10C
102
}
330
10C
100
AcDbScale
 70
     0
300
1:4
140
1.0
141
4.0
290
     0
  0
SCALE
  5
18A
102
{ACAD_REACTORS
330
10C
102
}
330
10C
100
AcDbScale
 70
     0
300
1:5
140
1.0
141
5.0
290
     0
  0
SCALE
  5
18B
102
{ACAD_REACTORS
330
10C
102
}
330
10C
100
AcDbScale
 70
     0
300
1:8
140
1.0
141
8.0
290
     0
  0
SCALE
  5
18C
102
{ACAD_REACTORS
330
10C
102
}
330
10C
100
AcDbScale
 70
     0
300
1:10
140
1.0
141
10.0
290
     0
  0
SCALE
  5
18D
102
{ACAD_REACTORS
330
10C
102
}
330
10C
100
AcDbScale
 70
     0
300
1:16
140
1.0
141
16.0
290
     0
  0
SCALE
  5
18E
102
{ACAD_REACTORS
330
10C
102
}
330
10C
100
AcDbScale
 70
     0
300
1:20
140
1.0
141
20.0
290
     0
  0
SCALE
  5
18F
102
{ACAD_REACTORS
330
10C
102
}
330
10C
100
AcDbScale
 70
     0
300
1:30
140
1.0
141
30.0
290
     0
  0
SCALE
  5
190
102
{ACAD_REACTORS
330
10C
102
}
330
10C
100
AcDbScale
 70
     0
300
1:40
140
1.0
141
40.0
290
     0
  0
SCALE
  5
191
102
{ACAD_REACTORS
330
10C
102
}
330
10C
100
AcDbScale
 70
     0
300
1:50
140
1.0
141
50.0
290
     0
  0
SCALE
  5
192
102
{ACAD_REACTORS
330
10C
102
}
330
10C
100
AcDbScale
 70
     0
300
1:100
140
1.0
141
100.0
290
     0
  0
SCALE
  5
193
102
{ACAD_REACTORS
330
10C
102
}
330
10C
100
AcDbScale
 70
     0
300
2:1
140
2.0
141
1.0
290
     0
  0
SCALE
  5
194
102
{ACAD_REACTORS
330
10C
102
}
330
10C
100
AcDbScale
 70
     0
300
4:1
140
4.0
141
1.0
290
     0
  0
SCALE
  5
195
102
{ACAD_REACTORS
330
10C
102
}
330
10C
100
AcDbScale
 70
     0
300
8:1
140
8.0
141
1.0
290
     0
  0
SCALE
  5
196
102
{ACAD_REACTORS
330
10C
102
}
330
10C
100
AcDbScale
 70
     0
300
10:1
140
10.0
141
1.0
290
     0
  0
SCALE
  5
197
102
{ACAD_REACTORS
330
10C
102
}
330
10C
100
AcDbScale
 70
     0
300
100:1
140
100.0
141
1.0
290
     0
  0
SCALE
  5
198
102
{ACAD_REACTORS
330
10C
102
}
330
10C
100
AcDbScale
 70
     0
300
1/128" = 1'-0"
140
0.0078125
141
12.0
290
     0
  0
SCALE
  5
199
102
{ACAD_REACTORS
330
10C
102
}
330
10C
100
AcDbScale
 70
     0
300
1/64" = 1'-0"
140
0.015625
141
12.0
290
     0
  0
SCALE
  5
19A
102
{ACAD_REACTORS
330
10C
102
}
330
10C
100
AcDbScale
 70
     0
300
1/32" = 1'-0"
140
0.03125
141
12.0
290
     0
  0
SCALE
  5
19B
102
{ACAD_REACTORS
330
10C
102
}
330
10C
100
AcDbScale
 70
     0
300
1/16" = 1'-0"
140
0.0625
141
12.0
290
     0
  0
SCALE
  5
19C
102
{ACAD_REACTORS
330
10C
102
}
330
10C
100
AcDbScale
 70
     0
300
3/32" = 1'-0"
140
0.09375
141
12.0
290
     0
  0
SCALE
  5
19D
102
{ACAD_REACTORS
330
10C
102
}
330
10C
100
AcDbScale
 70
     0
300
1/8" = 1'-0"
140
0.125
141
12.0
290
     0
  0
SCALE
  5
19E
102
{ACAD_REACTORS
330
10C
102
}
330
10C
100
AcDbScale
 70
     0
300
3/16" = 1'-0"
140
0.1875
141
12.0
290
     0
  0
SCALE
  5
19F
102
{ACAD_REACTORS
330
10C
102
}
330
10C
100
AcDbScale
 70
     0
300
1/4" = 1'-0"
140
0.25
141
12.0
290
     0
  0
SCALE
  5
1A0
102
{ACAD_REACTORS
330
10C
102
}
330
10C
100
AcDbScale
 70
     0
300
3/8" = 1'-0"
140
0.375
141
12.0
290
     0
  0
SCALE
  5
1A1
102
{ACAD_REACTORS
330
10C
102
}
330
10C
100
AcDbScale
 70
     0
300
1/2" = 1'-0"
140
0.5
141
12.0
290
     0
  0
SCALE
  5
1A2
102
{ACAD_REACTORS
330
10C
102
}
330
10C
100
AcDbScale
 70
     0
300
3/4" = 1'-0"
140
0.75
141
12.0
290
     0
  0
SCALE
  5
1A3
102
{ACAD_REACTORS
330
10C
102
}
330
10C
100
AcDbScale
 70
     0
300
1" = 1'-0"
140
1.0
141
12.0
290
     0
  0
SCALE
  5
1A4
102
{ACAD_REACTORS
330
10C
102
}
330
10C
100
AcDbScale
 70
     0
300
1-1/2" = 1'-0"
140
1.5
141
12.0
290
     0
  0
SCALE
  5
1A5
102
{ACAD_REACTORS
330
10C
102
}
330
10C
100
AcDbScale
 70
     0
300
3" = 1'-0"
140
3.0
141
12.0
290
     0
  0
SCALE
  5
1A6
102
{ACAD_REACTORS
330
10C
102
}
330
10C
100
AcDbScale
 70
     0
300
6" = 1'-0"
140
6.0
141
12.0
290
     0
  0
SCALE
  5
1A7
102
{ACAD_REACTORS
330
10C
102
}
330
10C
100
AcDbScale
 70
     0
300
1'-0" = 1'-0"
140
12.0
141
12.0
290
     0
  0
TABLESTYLE
  5
7F
102
{ACAD_XDICTIONARY
360
162
102
}
102
{ACAD_REACTORS
330
7E
102
}
330
7E
100
AcDbTableStyle
  3
Standard
 70
     0
 71
     0
 40
1.5
 41
1.5
280
     0
281
     0
  7
Standard
140
4.5
170
     2
 62
     0
 63
     7
283
     0
274
    -2
284
     1
 64
     0
275
    -2
285
     1
 65
     0
276
    -2
286
     1
 66
     0
277
    -2
287
     1
 67
     0
278
    -2
288
     1
 68
     0
279
    -2
289
     1
 69
     0
  7
Standard
140
6.0
170
     5
 62
     0
 63
     7
283
     0
274
    -2
284
     1
 64
     0
275
    -2
285
     1
 65
     0
276
    -2
286
     1
 66
     0
277
    -2
287
     1
 67
     0
278
    -2
288
     1
 68
     0
279
    -2
289
     1
 69
     0
  7
Standard
140
4.5
170
     5
 62
     0
 63
     7
283
     0
274
    -2
284
     1
 64
     0
275
    -2
285
     1
 65
     0
276
    -2
286
     1
 66
     0
277
    -2
287
     1
 67
     0
278
    -2
288
     1
 68
     0
279
    -2
289
     1
 69
     0
  0
VISUALSTYLE
  5
F5
102
{ACAD_REACTORS
330
EF
102
}
330
EF
100
AcDbVisualStyle
  2
2dWireframe
 70
     4
 71
     0
 72
     2
 73
     1
 90
        0
 40
-0.6
 41
-30.0
 62
     5
 63
     7
 74
     1
 91
        4
 64
     7
 65
   257
 75
     1
175
     1
 42
1.0
 92
        0
 66
   257
 43
1.0
 76
     1
 77
     6
 78
     2
 67
     7
 79
     5
170
     0
171
     0
290
     0
174
     0
 93
        1
 44
0.0
173
     0
291
     0
 45
0.0
1001
ACAD
1000
AcDbSavedByObjectVersion
1070
     0
  0
VISUALSTYLE
  5
F7
102
{ACAD_REACTORS
330
EF
102
}
330
EF
100
AcDbVisualStyle
  2
3D Hidden
 70
     6
 71
     1
 72
     2
 73
     2
 90
        0
 40
-0.6
 41
-30.0
 62
     5
 63
     7
 74
     2
 91
        2
 64
     7
 65
   257
 75
     2
175
     1
 42
40.0
 92
        0
 66
   257
 43
1.0
 76
     1
 77
     6
 78
     2
 67
     7
 79
     3
170
     0
171
     0
290
     0
174
     0
 93
        1
 44
0.0
173
     0
291
     0
 45
0.0
1001
ACAD
1000
AcDbSavedByObjectVersion
1070
     0
  0
VISUALSTYLE
  5
F6
102
{ACAD_REACTORS
330
EF
102
}
330
EF
100
AcDbVisualStyle
  2
3dWireframe
 70
     5
 71
     0
 72
     2
 73
     1
 90
        0
 40
-0.6
 41
-30.0
 62
     5
 63
     7
 74
     1
 91
        4
 64
     7
 65
   257
 75
     1
175
     1
 42
1.0
 92
        0
 66
   257
 43
1.0
 76
     1
 77
     6
 78
     2
 67
     7
 79
     5
170
     0
171
     0
290
     0
174
     0
 93
        1
 44
0.0
173
     0
291
     0
 45
0.0
1001
ACAD
1000
AcDbSavedByObjectVersion
1070
     0
  0
VISUALSTYLE
  5
F4
102
{ACAD_REACTORS
330
EF
102
}
330
EF
100
AcDbVisualStyle
  2
Basic
 70
     7
 71
     1
 72
     0
 73
     1
 90
        0
 40
-0.6
 41
-30.0
 62
     5
 63
     7
 74
     0
 91
        4
 64
     7
 65
   257
 75
     1
175
     1
 42
1.0
 92
        8
 66
     7
 43
1.0
 76
     1
 77
     6
 78
     2
 67
     7
 79
     5
170
     0
171
     0
290
     0
174
     0
 93
        1
 44
0.0
173
     0
291
     1
 45
0.0
1001
ACAD
1000
AcDbSavedByObjectVersion
1070
     0
  0
VISUALSTYLE
  5
FB
102
{ACAD_REACTORS
330
EF
102
}
330
EF
100
AcDbVisualStyle
  2
Brighten
 70
    12
 71
     2
 72
     2
 73
     1
 90
        0
 40
-0.6
 41
-30.0
 62
     5
 63
     7
 74
     1
 91
        4
 64
     7
 65
   257
 75
     1
175
     1
 42
1.0
 92
        8
 66
     7
 43
1.0
 76
     1
 77
     6
 78
     2
 67
     7
 79
     5
170
     0
171
     0
290
     0
174
     0
 93
        1
 44
50.0
173
     0
291
     1
 45
0.0
1001
ACAD
1000
AcDbSavedByObjectVersion
1070
     0
  0
VISUALSTYLE
  5
FF
102
{ACAD_REACTORS
330
EF
102
}
330
EF
100
AcDbVisualStyle
  2
ColorChange
 70
    16
 71
     2
 72
     2
 73
     3
 90
        0
 40
-0.6
 41
-30.0
 62
     5
 63
     8
 74
     1
 91
        4
 64
     7
 65
   257
 75
     1
175
     1
 42
1.0
 92
        8
 66
     8
 43
1.0
 76
     1
 77
     6
 78
     2
 67
     7
 79
     5
170
     0
171
     0
290
     0
174
     0
 93
        1
 44
0.0
173
     0
291
     1
 45
0.0
1001
ACAD
1000
AcDbSavedByObjectVersion
1070
     0
  0
VISUALSTYLE
  5
F8
102
{ACAD_REACTORS
330
EF
102
}
330
EF
100
AcDbVisualStyle
  2
Conceptual
 70
     9
 71
     3
 72
     2
 73
     1
 90
        0
 40
-0.6
 41
-30.0
 62
     5
 63
     7
 74
     2
 91
        2
 64
     7
 65
   257
 75
     1
175
     1
 42
40.0
 92
        8
 66
     7
 43
1.0
 76
     1
 77
     6
 78
     2
 67
     7
 79
     3
170
     0
171
     0
290
     0
174
     0
 93
        1
 44
0.0
173
     0
291
     0
 45
0.0
1001
ACAD
1000
AcDbSavedByObjectVersion
1070
     0
  0
VISUALSTYLE
  5
FA
102
{ACAD_REACTORS
330
EF
102
}
330
EF
100
AcDbVisualStyle
  2
Dim
 70
    11
 71
     2
 72
     2
 73
     1
 90
        0
 40
-0.6
 41
-30.0
 62
     5
 63
     7
 74
     1
 91
        4
 64
     7
 65
   257
 75
     1
175
     1
 42
1.0
 92
        8
 66
     7
 43
1.0
 76
     1
 77
     6
 78
     2
 67
     7
 79
     5
170
     0
171
     0
290
     0
174
     0
 93
        1
 44
-50.0
173
     0
291
     1
 45
0.0
1001
ACAD
1000
AcDbSavedByObjectVersion
1070
     0
  0
VISUALSTYLE
  5
FE
102
{ACAD_REACTORS
330
EF
102
}
330
EF
100
AcDbVisualStyle
  2
Facepattern
 70
    15
 71
     2
 72
     2
 73
     1
 90
        0
 40
-0.6
 41
-30.0
 62
     5
 63
     7
 74
     1
 91
        4
 64
     7
 65
   257
 75
     1
175
     1
 42
1.0
 92
        8
 66
     7
 43
1.0
 76
     1
 77
     6
 78
     2
 67
     7
 79
     5
170
     0
171
     0
290
     0
174
     0
 93
        1
 44
0.0
173
     0
291
     1
 45
0.0
1001
ACAD
1000
AcDbSavedByObjectVersion
1070
     0
  0
VISUALSTYLE
  5
F0
102
{ACAD_REACTORS
330
EF
102
}
330
EF
100
AcDbVisualStyle
  2
Flat
 70
     0
 71
     2
 72
     1
 73
     1
 90
        2
 40
-0.6
 41
30.0
 62
     5
 63
     7
 74
     0
 91
        4
 64
     7
 65
   257
 75
     1
175
     1
 42
1.0
 92
        8
 66
     7
 43
1.0
 76
     1
 77
     6
 78
     2
 67
     7
 79
     5
170
     0
171
     0
290
     0
174
     0
 93
        1
 44
0.0
173
     0
291
     1
 45
0.0
1001
ACAD
1000
AcDbSavedByObjectVersion
1070
     0
  0
VISUALSTYLE
  5
F1
102
{ACAD_REACTORS
330
EF
102
}
330
EF
100
AcDbVisualStyle
  2
FlatWithEdges
 70
     1
 71
     2
 72
     1
 73
     1
 90
        2
 40
-0.6
 41
30.0
 62
     5
 63
     7
 74
     1
 91
        4
 64
     7
 65
   257
 75
     1
175
     1
 42
1.0
 92
        0
 66
   257
 43
1.0
 76
     1
 77
     6
 78
     2
 67
     7
 79
     5
170
     0
171
     0
290
     0
174
     0
 93
        1
 44
0.0
173
     0
291
     1
 45
0.0
1001
ACAD
1000
AcDbSavedByObjectVersion
1070
     0
  0
VISUALSTYLE
  5
F2
102
{ACAD_REACTORS
330
EF
102
}
330
EF
100
AcDbVisualStyle
  2
Gouraud
 70
     2
 71
     2
 72
     2
 73
     1
 90
        2
 40
-0.6
 41
30.0
 62
     5
 63
     7
 74
     0
 91
        4
 64
     7
 65
   257
 75
     1
175
     1
 42
1.0
 92
        0
 66
     7
 43
1.0
 76
     1
 77
     6
 78
     2
 67
     7
 79
     5
170
     0
171
     0
290
     0
174
     0
 93
        1
 44
0.0
173
     0
291
     1
 45
0.0
1001
ACAD
1000
AcDbSavedByObjectVersion
1070
     0
  0
VISUALSTYLE
  5
F3
102
{ACAD_REACTORS
330
EF
102
}
330
EF
100
AcDbVisualStyle
  2
GouraudWithEdges
 70
     3
 71
     2
 72
     2
 73
     1
 90
        2
 40
-0.6
 41
30.0
 62
     5
 63
     7
 74
     1
 91
        4
 64
     7
 65
   257
 75
     1
175
     1
 42
1.0
 92
        0
 66
   257
 43
1.0
 76
     1
 77
     6
 78
     2
 67
     7
 79
     5
170
     0
171
     0
290
     0
174
     0
 93
        1
 44
0.0
173
     0
291
     1
 45
0.0
1001
ACAD
1000
AcDbSavedByObjectVersion
1070
     0
  0
VISUALSTYLE
  5
FD
102
{ACAD_REACTORS
330
EF
102
}
330
EF
100
AcDbVisualStyle
  2
Linepattern
 70
    14
 71
     2
 72
     2
 73
     1
 90
        0
 40
-0.6
 41
-30.0
 62
     5
 63
     7
 74
     1
 91
        4
 64
     7
 65
   257
 75
     7
175
     7
 42
1.0
 92
        8
 66
     7
 43
1.0
 76
     1
 77
     6
 78
     2
 67
     7
 79
     5
170
     0
171
     0
290
     0
174
     0
 93
        1
 44
0.0
173
     0
291
     1
 45
0.0
1001
ACAD
1000
AcDbSavedByObjectVersion
1070
     0
  0
VISUALSTYLE
  5
F9
102
{ACAD_REACTORS
330
EF
102
}
330
EF
100
AcDbVisualStyle
  2
Realistic
 70
     8
 71
     2
 72
     2
 73
     1
 90
        0
 40
-0.6
 41
-30.0
 62
     5
 63
     7
 74
     1
 91
        0
 64
     7
 65
   257
 75
     1
175
     1
 42
1.0
 92
        8
 66
     8
 43
1.0
 76
     1
 77
     6
 78
     2
 67
     7
 79
     5
170
     0
171
     0
290
     0
174
     0
 93
       13
 44
0.0
173
     0
291
     0
 45
0.0
1001
ACAD
1000
AcDbSavedByObjectVersion
1070
     0
  0
VISUALSTYLE
  5
FC
102
{ACAD_REACTORS
330
EF
102
}
330
EF
100
AcDbVisualStyle
  2
Thicken
 70
    13
 71
     2
 72
     2
 73
     1
 90
        0
 40
-0.6
 41
-30.0
 62
     5
 63
     7
 74
     1
 91
        4
 64
     7
 65
   257
 75
     1
175
     1
 42
1.0
 92
       12
 66
     7
 43
1.0
 76
     1
 77
     6
 78
     2
 67
     7
 79
     5
170
     0
171
     0
290
     0
174
     0
 93
        1
 44
0.0
173
     0
291
     1
 45
0.0
1001
ACAD
1000
AcDbSavedByObjectVersion
1070
     0
  0
DICTIONARYVAR
  5
146
102
{ACAD_REACTORS
330
5E
102
}
330
5E
100
DictionaryVariables
280
     0
  1
1:1
  0
DICTIONARYVAR
  5
145
102
{ACAD_REACTORS
330
5E
102
}
330
5E
100
DictionaryVariables
280
     0
  1
STANDARD
  0
DICTIONARYVAR
  5
84
102
{ACAD_REACTORS
330
5E
102
}
330
5E
100
DictionaryVariables
280
     0
  1
STANDARD
  0
DICTIONARYVAR
  5
5F
102
{ACAD_REACTORS
330
5E
102
}
330
5E
100
DictionaryVariables
280
     0
  1
2
  0
DICTIONARYVAR
  5
63
102
{ACAD_REACTORS
330
5E
102
}
330
5E
100
DictionaryVariables
280
     0
  1
1
  0
DICTIONARYVAR
  5
506
102
{ACAD_REACTORS
330
5E
102
}
330
5E
100
DictionaryVariables
280
     0
  1
0
  0
DICTIONARYVAR
  5
504
102
{ACAD_REACTORS
330
5E
102
}
330
5E
100
DictionaryVariables
280
     0
  1
2
  0
DICTIONARYVAR
  5
503
102
{ACAD_REACTORS
330
5E
102
}
330
5E
100
DictionaryVariables
280
     0
  1
1
  0
DICTIONARYVAR
  5
508
102
{ACAD_REACTORS
330
5E
102
}
330
5E
100
DictionaryVariables
280
     0
  1
80.000000
  0
DICTIONARYVAR
  5
507
102
{ACAD_REACTORS
330
5E
102
}
330
5E
100
DictionaryVariables
280
     0
  1
5.000000
  0
DICTIONARYVAR
  5
505
102
{ACAD_REACTORS
330
5E
102
}
330
5E
100
DictionaryVariables
280
     0
  1
127
  0
DICTIONARY
  5
50E
330
D3
100
AcDbDictionary
280
     1
281
     1
  3
ACAD_XREC_ROUNDTRIP
360
50F
  0
DICTIONARY
  5
510
330
D7
100
AcDbDictionary
280
     1
281
     1
  3
ACAD_XREC_ROUNDTRIP
360
511
  0
DICTIONARY
  5
50B
330
22
100
AcDbDictionary
280
     1
281
     1
  3
ACAD_XREC_ROUNDTRIP
360
50C
  0
DICTIONARY
  5
514
330
ED
100
AcDbDictionary
280
     1
281
     1
  3
ACAD_XREC_ROUNDTRIP
360
515
  0
DICTIONARY
  5
512
330
EC
100
AcDbDictionary
280
     1
281
     1
  3
ACAD_XREC_ROUNDTRIP
360
513
  0
DICTIONARY
  5
173
330
EE
100
AcDbDictionary
280
     1
281
     1
  3
ACAD_XREC_ROUNDTRIP
360
516
  3
BUMPTILE
360
175
  3
DIFFUSETILE
360
174
  3
OPACITYTILE
360
176
  3
REFLECTIONTILE
360
177
  0
DICTIONARY
  5
162
330
7F
100
AcDbDictionary
280
     1
281
     1
  3
ACAD_ROUNDTRIP_2008_TABLESTYLE_CELLSTYLEMAP
360
509
  3
ACAD_XREC_ROUNDTRIP
360
50D
  0
XRECORD
  5
50F
102
{ACAD_REACTORS
330
50E
102
}
330
50E
100
AcDbXrecord
280
     1
102
SHADEPLOT
 70
     0
102
SHADEPLOTRESLEVEL
 70
     2
102
SHADEPLOTCUSTOMDPI
 70
   300
  0
XRECORD
  5
511
102
{ACAD_REACTORS
330
510
102
}
330
510
100
AcDbXrecord
280
     1
102
SHADEPLOT
 70
     0
102
SHADEPLOTRESLEVEL
 70
     2
102
SHADEPLOTCUSTOMDPI
 70
   300
  0
XRECORD
  5
50C
102
{ACAD_REACTORS
330
50B
102
}
330
50B
100
AcDbXrecord
280
     1
102
SHADEPLOT
 70
     0
102
SHADEPLOTRESLEVEL
 70
     2
102
SHADEPLOTCUSTOMDPI
 70
   300
  0
XRECORD
  5
515
102
{ACAD_REACTORS
330
514
102
}
330
514
100
AcDbXrecord
280
     1
102
MATERIAL
148
0.0
149
0.0
149
0.0
 93
        0
 94
       63
282
     0
 72
     1
 77
     1
171
     1
175
     1
179
     1
273
     0
  0
XRECORD
  5
513
102
{ACAD_REACTORS
330
512
102
}
330
512
100
AcDbXrecord
280
     1
102
MATERIAL
148
0.0
149
0.0
149
0.0
 93
        0
 94
       63
282
     0
 72
     1
 77
     1
171
     1
175
     1
179
     1
273
     0
  0
XRECORD
  5
516
102
{ACAD_REACTORS
330
173
102
}
330
173
100
AcDbXrecord
280
     1
102
MATERIAL
148
0.0
149
0.0
149
0.0
 93
        0
 94
       63
282
     0
 72
     1
 77
     1
171
     1
175
     1
179
     1
273
     0
  0
XRECORD
  5
175
102
{ACAD_REACTORS
330
173
102
}
330
173
100
AcDbXrecord
280
     1
270
     1
271
     1
  0
XRECORD
  5
174
102
{ACAD_REACTORS
330
173
102
}
330
173
100
AcDbXrecord
280
     1
270
     1
271
     1
  0
XRECORD
  5
176
102
{ACAD_REACTORS
330
173
102
}
330
173
100
AcDbXrecord
280
     1
270
     1
271
     1
  0
XRECORD
  5
177
102
{ACAD_REACTORS
330
173
102
}
330
173
100
AcDbXrecord
280
     1
270
     1
271
     1
  0
CELLSTYLEMAP
  5
509
102
{ACAD_REACTORS
330
162
102
}
330
162
100
AcDbCellStyleMap
 90
        3
300
CELLSTYLE
  1
TABLEFORMAT_BEGIN
 90
        5
170
     1
 91
        0
 92
    32768
 62
   257
 93
        1
300
CONTENTFORMAT
  1
CONTENTFORMAT_BEGIN
 90
        0
 91
        0
 92
      512
 93
        0
300

 40
0.0
140
1.0
 94
        5
 62
     0
340
11
144
6.0
309
CONTENTFORMAT_END
171
     1
301
MARGIN
  1
CELLMARGIN_BEGIN
 40
1.5
 40
1.5
 40
1.5
 40
1.5
 40
4.5
 40
4.5
309
CELLMARGIN_END
 94
        6
 95
        1
302
GRIDFORMAT
  1
GRIDFORMAT_BEGIN
 90
        0
 91
        1
 62
     0
 92
       -2
340
14
 93
        0
 40
1.125
309
GRIDFORMAT_END
 95
        2
302
GRIDFORMAT
  1
GRIDFORMAT_BEGIN
 90
        0
 91
        1
 62
     0
 92
       -2
340
14
 93
        0
 40
1.125
309
GRIDFORMAT_END
 95
        4
302
GRIDFORMAT
  1
GRIDFORMAT_BEGIN
 90
        0
 91
        1
 62
     0
 92
       -2
340
14
 93
        0
 40
1.125
309
GRIDFORMAT_END
 95
        8
302
GRIDFORMAT
  1
GRIDFORMAT_BEGIN
 90
        0
 91
        1
 62
     0
 92
       -2
340
14
 93
        0
 40
1.125
309
GRIDFORMAT_END
 95
       16
302
GRIDFORMAT
  1
GRIDFORMAT_BEGIN
 90
        0
 91
        1
 62
     0
 92
       -2
340
14
 93
        0
 40
1.125
309
GRIDFORMAT_END
 95
       32
302
GRIDFORMAT
  1
GRIDFORMAT_BEGIN
 90
        0
 91
        1
 62
     0
 92
       -2
340
14
 93
        0
 40
1.125
309
GRIDFORMAT_END
309
TABLEFORMAT_END
  1
CELLSTYLE_BEGIN
 90
        1
 91
        1
300
_TITLE
309
CELLSTYLE_END
300
CELLSTYLE
  1
TABLEFORMAT_BEGIN
 90
        5
170
     1
 91
        0
 92
        0
 62
   257
 93
        1
300
CONTENTFORMAT
  1
CONTENTFORMAT_BEGIN
 90
        0
 91
        0
 92
      512
 93
        0
300

 40
0.0
140
1.0
 94
        5
 62
     0
340
11
144
4.5
309
CONTENTFORMAT_END
171
     1
301
MARGIN
  1
CELLMARGIN_BEGIN
 40
1.5
 40
1.5
 40
1.5
 40
1.5
 40
4.5
 40
4.5
309
CELLMARGIN_END
 94
        6
 95
        1
302
GRIDFORMAT
  1
GRIDFORMAT_BEGIN
 90
        0
 91
        1
 62
     0
 92
       -2
340
14
 93
        0
 40
1.125
309
GRIDFORMAT_END
 95
        2
302
GRIDFORMAT
  1
GRIDFORMAT_BEGIN
 90
        0
 91
        1
 62
     0
 92
       -2
340
14
 93
        0
 40
1.125
309
GRIDFORMAT_END
 95
        4
302
GRIDFORMAT
  1
GRIDFORMAT_BEGIN
 90
        0
 91
        1
 62
     0
 92
       -2
340
14
 93
        0
 40
1.125
309
GRIDFORMAT_END
 95
        8
302
GRIDFORMAT
  1
GRIDFORMAT_BEGIN
 90
        0
 91
        1
 62
     0
 92
       -2
340
14
 93
        0
 40
1.125
309
GRIDFORMAT_END
 95
       16
302
GRIDFORMAT
  1
GRIDFORMAT_BEGIN
 90
        0
 91
        1
 62
     0
 92
       -2
340
14
 93
        0
 40
1.125
309
GRIDFORMAT_END
 95
       32
302
GRIDFORMAT
  1
GRIDFORMAT_BEGIN
 90
        0
 91
        1
 62
     0
 92
       -2
340
14
 93
        0
 40
1.125
309
GRIDFORMAT_END
309
TABLEFORMAT_END
  1
CELLSTYLE_BEGIN
 90
        2
 91
        1
300
_HEADER
309
CELLSTYLE_END
300
CELLSTYLE
  1
TABLEFORMAT_BEGIN
 90
        5
170
     1
 91
        0
 92
        0
 62
   257
 93
        1
300
CONTENTFORMAT
  1
CONTENTFORMAT_BEGIN
 90
        0
 91
        0
 92
      512
 93
        0
300

 40
0.0
140
1.0
 94
        2
 62
     0
340
11
144
4.5
309
CONTENTFORMAT_END
171
     1
301
MARGIN
  1
CELLMARGIN_BEGIN
 40
1.5
 40
1.5
 40
1.5
 40
1.5
 40
4.5
 40
4.5
309
CELLMARGIN_END
 94
        6
 95
        1
302
GRIDFORMAT
  1
GRIDFORMAT_BEGIN
 90
        0
 91
        1
 62
     0
 92
       -2
340
14
 93
        0
 40
1.125
309
GRIDFORMAT_END
 95
        2
302
GRIDFORMAT
  1
GRIDFORMAT_BEGIN
 90
        0
 91
        1
 62
     0
 92
       -2
340
14
 93
        0
 40
1.125
309
GRIDFORMAT_END
 95
        4
302
GRIDFORMAT
  1
GRIDFORMAT_BEGIN
 90
        0
 91
        1
 62
     0
 92
       -2
340
14
 93
        0
 40
1.125
309
GRIDFORMAT_END
 95
        8
302
GRIDFORMAT
  1
GRIDFORMAT_BEGIN
 90
        0
 91
        1
 62
     0
 92
       -2
340
14
 93
        0
 40
1.125
309
GRIDFORMAT_END
 95
       16
302
GRIDFORMAT
  1
GRIDFORMAT_BEGIN
 90
        0
 91
        1
 62
     0
 92
       -2
340
14
 93
        0
 40
1.125
309
GRIDFORMAT_END
 95
       32
302
GRIDFORMAT
  1
GRIDFORMAT_BEGIN
 90
        0
 91
        1
 62
     0
 92
       -2
340
14
 93
        0
 40
1.125
309
GRIDFORMAT_END
309
TABLEFORMAT_END
  1
CELLSTYLE_BEGIN
 90
        3
 91
        2
300
_DATA
309
CELLSTYLE_END
  0
XRECORD
  5
50D
102
{ACAD_REACTORS
330
162
102
}
330
162
100
AcDbXrecord
280
     1
102
ACAD_ROUNDTRIP_PRE2007_TABLESTYLE
 90
      512
 91
        0
  1

 92
      512
 93
        0
  2

 94
      512
 95
        0
  3

  0
ENDSEC
  0
EOF
