  0
SECTION
  2
HEADER
  9
$ACADVER
  1
AC1015
  9
$ACADMAINTVER
 70
    20
  9
$DWGCODEPAGE
  3
ANSI_1254
  9
$INSBASE
 10
0.0
 20
0.0
 30
0.0
  9
$EXTMIN
 10
130.6936984187533
 20
81.90530889636994
 30
0.0
  9
$EXTMAX
 10
293.6908114872005
 20
139.9023102474741
 30
0.0
  9
$LIMMIN
 10
0.0
 20
0.0
  9
$LIMMAX
 10
431.7999999999999
 20
279.4
  9
$ORTHOMODE
 70
     0
  9
$REGENMODE
 70
     1
  9
$FILLMODE
 70
     1
  9
$QTEXTMODE
 70
     0
  9
$MIRRTEXT
 70
     1
  9
$LTSCALE
 40
1.0
  9
$ATTMODE
 70
     1
  9
$TEXTSIZE
 40
2.5
  9
$TRACEWID
 40
1.0
  9
$TEXTSTYLE
  7
Standard
  9
$CLAYER
  8
0
  9
$CELTYPE
  6
ByLayer
  9
$CECOLOR
 62
   256
  9
$CELTSCALE
 40
1.0
  9
$DISPSILH
 70
     0
  9
$DIMSCALE
 40
1.0
  9
$DIMASZ
 40
3.301999999999999
  9
$DIMEXO
 40
1.0
  9
$DIMDLI
 40
3.75
  9
$DIMRND
 40
0.0
  9
$DIMDLE
 40
0.0
  9
$DIMEXE
 40
1.0
  9
$DIMTP
 40
0.0
  9
$DIMTM
 40
0.0
  9
$DIMTXT
 40
3.5
  9
$DIMCEN
 40
2.5
  9
$DIMTSZ
 40
0.0
  9
$DIMTOL
 70
     0
  9
$DIMLIM
 70
     0
  9
$DIMTIH
 70
     1
  9
$DIMTOH
 70
     1
  9
$DIMSE1
 70
     0
  9
$DIMSE2
 70
     0
  9
$DIMTAD
 70
     1
  9
$DIMZIN
 70
     0
  9
$DIMBLK
  1

  9
$DIMASO
 70
     1
  9
$DIMSHO
 70
     1
  9
$DIMPOST
  1

  9
$DIMAPOST
  1

  9
$DIMALT
 70
     0
  9
$DIMALTD
 70
     3
  9
$DIMALTF
 40
0.0393700787401575
  9
$DIMLFAC
 40
1.0
  9
$DIMTOFL
 70
     1
  9
$DIMTVP
 40
0.0
  9
$DIMTIX
 70
     0
  9
$DIMSOXD
 70
     0
  9
$DIMSAH
 70
     0
  9
$DIMBLK1
  1

  9
$DIMBLK2
  1

  9
$DIMSTYLE
  2
ISO-25
  9
$DIMCLRD
 70
     0
  9
$DIMCLRE
 70
     0
  9
$DIMCLRT
 70
     0
  9
$DIMTFAC
 40
1.0
  9
$DIMGAP
 40
1.524
  9
$DIMJUST
 70
     0
  9
$DIMSD1
 70
     0
  9
$DIMSD2
 70
     0
  9
$DIMTOLJ
 70
     0
  9
$DIMTZIN
 70
     0
  9
$DIMALTZ
 70
     0
  9
$DIMALTTZ
 70
     0
  9
$DIMUPT
 70
     0
  9
$DIMDEC
 70
     3
  9
$DIMTDEC
 70
     3
  9
$DIMALTU
 70
     2
  9
$DIMALTTD
 70
     3
  9
$DIMTXSTY
  7
Standard
  9
$DIMAUNIT
 70
     0
  9
$DIMADEC
 70
     2
  9
$DIMALTRND
 40
0.0
  9
$DIMAZIN
 70
     0
  9
$DIMDSEP
 70
    44
  9
$DIMATFIT
 70
     3
  9
$DIMFRAC
 70
     0
  9
$DIMLDRBLK
  1

  9
$DIMLUNIT
 70
     2
  9
$DIMLWD
 70
    -2
  9
$DIMLWE
 70
    -2
  9
$DIMTMOVE
 70
     0
  9
$LUNITS
 70
     2
  9
$LUPREC
 70
     2
  9
$SKETCHINC
 40
1.0
  9
$FILLETRAD
 40
10.0
  9
$AUNITS
 70
     0
  9
$AUPREC
 70
     2
  9
$MENU
  1
.
  9
$ELEVATION
 40
0.0
  9
$PELEVATION
 40
0.0
  9
$THICKNESS
 40
0.0
  9
$LIMCHECK
 70
     0
  9
$CHAMFERA
 40
10.0
  9
$CHAMFERB
 40
10.0
  9
$CHAMFERC
 40
20.0
  9
$CHAMFERD
 40
0.0
  9
$SKPOLY
 70
     0
  9
$TDCREATE
 40
2458932.587429537
  9
$TDUCREATE
 40
2458932.462429537
  9
$TDUPDATE
 40
2458956.444844699
  9
$TDUUPDATE
 40
2458956.319844699
  9
$TDINDWG
 40
0.0039325116
  9
$TDUSRTIMER
 40
0.0039325116
  9
$USRTIMER
 70
     1
  9
$ANGBASE
 50
0.0
  9
$ANGDIR
 70
     0
  9
$PDMODE
 70
     0
  9
$PDSIZE
 40
-1.0
  9
$PLINEWID
 40
0.0
  9
$SPLFRAME
 70
     0
  9
$SPLINETYPE
 70
     6
  9
$SPLINESEGS
 70
     8
  9
$HANDSEED
  5
8CF
  9
$SURFTAB1
 70
     6
  9
$SURFTAB2
 70
     6
  9
$SURFTYPE
 70
     6
  9
$SURFU
 70
     6
  9
$SURFV
 70
     6
  9
$UCSBASE
  2

  9
$UCSNAME
  2

  9
$UCSORG
 10
0.0
 20
0.0
 30
0.0
  9
$UCSXDIR
 10
1.0
 20
0.0
 30
0.0
  9
$UCSYDIR
 10
0.0
 20
1.0
 30
0.0
  9
$UCSORTHOREF
  2

  9
$UCSORTHOVIEW
 70
     0
  9
$UCSORGTOP
 10
0.0
 20
0.0
 30
0.0
  9
$UCSORGBOTTOM
 10
0.0
 20
0.0
 30
0.0
  9
$UCSORGLEFT
 10
0.0
 20
0.0
 30
0.0
  9
$UCSORGRIGHT
 10
0.0
 20
0.0
 30
0.0
  9
$UCSORGFRONT
 10
0.0
 20
0.0
 30
0.0
  9
$UCSORGBACK
 10
0.0
 20
0.0
 30
0.0
  9
$PUCSBASE
  2

  9
$PUCSNAME
  2

  9
$PUCSORG
 10
0.0
 20
0.0
 30
0.0
  9
$PUCSXDIR
 10
1.0
 20
0.0
 30
0.0
  9
$PUCSYDIR
 10
0.0
 20
1.0
 30
0.0
  9
$PUCSORTHOREF
  2

  9
$PUCSORTHOVIEW
 70
     0
  9
$PUCSORGTOP
 10
0.0
 20
0.0
 30
0.0
  9
$PUCSORGBOTTOM
 10
0.0
 20
0.0
 30
0.0
  9
$PUCSORGLEFT
 10
0.0
 20
0.0
 30
0.0
  9
$PUCSORGRIGHT
 10
0.0
 20
0.0
 30
0.0
  9
$PUCSORGFRONT
 10
0.0
 20
0.0
 30
0.0
  9
$PUCSORGBACK
 10
0.0
 20
0.0
 30
0.0
  9
$USERI1
 70
     0
  9
$USERI2
 70
     0
  9
$USERI3
 70
     0
  9
$USERI4
 70
     0
  9
$USERI5
 70
     0
  9
$USERR1
 40
0.0
  9
$USERR2
 40
0.0
  9
$USERR3
 40
0.0
  9
$USERR4
 40
0.0
  9
$USERR5
 40
0.0
  9
$WORLDVIEW
 70
     1
  9
$SHADEDGE
 70
     3
  9
$SHADEDIF
 70
    70
  9
$TILEMODE
 70
     1
  9
$MAXACTVP
 70
    64
  9
$PINSBASE
 10
0.0
 20
0.0
 30
0.0
  9
$PLIMCHECK
 70
     0
  9
$PEXTMIN
 10
1.000000000000000E+20
 20
1.000000000000000E+20
 30
1.000000000000000E+20
  9
$PEXTMAX
 10
-1.000000000000000E+20
 20
-1.000000000000000E+20
 30
-1.000000000000000E+20
  9
$PLIMMIN
 10
0.0
 20
0.0
  9
$PLIMMAX
 10
420.0
 20
297.0
  9
$UNITMODE
 70
     0
  9
$VISRETAIN
 70
     1
  9
$PLINEGEN
 70
     0
  9
$PSLTSCALE
 70
     1
  9
$TREEDEPTH
 70
  3020
  9
$CMLSTYLE
  2
Standard
  9
$CMLJUST
 70
     0
  9
$CMLSCALE
 40
20.0
  9
$PROXYGRAPHICS
 70
     1
  9
$MEASUREMENT
 70
     1
  9
$CELWEIGHT
370
    -1
  9
$ENDCAPS
280
     0
  9
$JOINSTYLE
280
     0
  9
$LWDISPLAY
290
     1
  9
$INSUNITS
 70
     4
  9
$HYPERLINKBASE
  1

  9
$STYLESHEET
  1

  9
$XEDIT
290
     1
  9
$CEPSNTYPE
380
     0
  9
$PSTYLEMODE
290
     1
  9
$FINGERPRINTGUID
  2
{AF884A66-2131-4DC1-833B-855ACB11049D}
  9
$VERSIONGUID
  2
{A4CEDA54-80A3-4E1D-BDC1-927D894100BF}
  9
$EXTNAMES
290
     1
  9
$PSVPSCALE
 40
0.0
  9
$OLESTARTUP
290
     0
  0
ENDSEC
  0
SECTION
  2
CLASSES
  0
CLASS
  1
ACDBDICTIONARYWDFLT
  2
AcDbDictionaryWithDefault
  3
ObjectDBX Classes
 90
        0
280
     0
281
     0
  0
CLASS
  1
VISUALSTYLE
  2
AcDbVisualStyle
  3
ObjectDBX Classes
 90
     4095
280
     0
281
     0
  0
CLASS
  1
MATERIAL
  2
AcDbMaterial
  3
ObjectDBX Classes
 90
     1153
280
     0
281
     0
  0
CLASS
  1
ACDBPLACEHOLDER
  2
AcDbPlaceHolder
  3
ObjectDBX Classes
 90
        0
280
     0
281
     0
  0
CLASS
  1
LAYOUT
  2
AcDbLayout
  3
ObjectDBX Classes
 90
        0
280
     0
281
     0
  0
CLASS
  1
TABLESTYLE
  2
AcDbTableStyle
  3
ObjectDBX Classes
 90
     4095
280
     0
281
     0
  0
CLASS
  1
SCALE
  2
AcDbScale
  3
ObjectDBX Classes
 90
     1153
280
     0
281
     0
  0
CLASS
  1
MLEADERSTYLE
  2
AcDbMLeaderStyle
  3
ACDB_MLEADERSTYLE_CLASS
 90
     4095
280
     0
281
     0
  0
CLASS
  1
CELLSTYLEMAP
  2
AcDbCellStyleMap
  3
ObjectDBX Classes
 90
     1152
280
     0
281
     0
  0
CLASS
  1
DICTIONARYVAR
  2
AcDbDictionaryVar
  3
ObjectDBX Classes
 90
        0
280
     0
281
     0
  0
ENDSEC
  0
SECTION
  2
TABLES
  0
TABLE
  2
VPORT
  5
8
330
0
100
AcDbSymbolTable
 70
     1
  0
VPORT
  5
29
330
8
100
AcDbSymbolTableRecord
100
AcDbViewportTableRecord
  2
*Active
 70
     0
 10
0.0
 20
0.0
 11
1.0
 21
1.0
 12
226.7013635107796
 22
108.248522934469
 13
0.0
 23
0.0
 14
10.0
 24
10.0
 15
10.0
 25
10.0
 16
0.0
 26
0.0
 36
1.0
 17
0.0
 27
0.0
 37
0.0
 40
120.7931472647284
 41
1.903110047846889
 42
50.0
 43
0.0
 44
0.0
 50
0.0
 51
0.0
 71
     0
 72
  2000
 73
     1
 74
     3
 75
     0
 76
     0
 77
     0
 78
     0
281
     0
 65
     1
110
0.0
120
0.0
130
0.0
111
1.0
121
0.0
131
0.0
112
0.0
122
1.0
132
0.0
 79
     0
146
0.0
  0
ENDTAB
  0
TABLE
  2
LTYPE
  5
5
330
0
100
AcDbSymbolTable
 70
     6
  0
LTYPE
  5
14
330
5
100
AcDbSymbolTableRecord
100
AcDbLinetypeTableRecord
  2
ByBlock
 70
     0
  3

 72
    65
 73
     0
 40
0.0
  0
LTYPE
  5
15
330
5
100
AcDbSymbolTableRecord
100
AcDbLinetypeTableRecord
  2
ByLayer
 70
     0
  3

 72
    65
 73
     0
 40
0.0
  0
LTYPE
  5
16
330
5
100
AcDbSymbolTableRecord
100
AcDbLinetypeTableRecord
  2
Continuous
 70
     0
  3
Solid line
 72
    65
 73
     0
 40
0.0
  0
LTYPE
  5
3F
330
5
100
AcDbSymbolTableRecord
100
AcDbLinetypeTableRecord
  2
HIDDEN
 70
     0
  3
Hidden __ __ __ __ __ __ __ __ __ __ __ __ __ __
 72
    65
 73
     2
 40
1.905
 49
1.27
 74
     0
 49
-0.635
 74
     0
  0
LTYPE
  5
40
330
5
100
AcDbSymbolTableRecord
100
AcDbLinetypeTableRecord
  2
PHANTOM
 70
     0
  3
Phantom ______  __  __  ______  __  __  ______
 72
    65
 73
     6
 40
12.7
 49
6.349999999999999
 74
     0
 49
-1.27
 74
     0
 49
1.27
 74
     0
 49
-1.27
 74
     0
 49
1.27
 74
     0
 49
-1.27
 74
     0
  0
LTYPE
  5
41
330
5
100
AcDbSymbolTableRecord
100
AcDbLinetypeTableRecord
  2
CENTER
 70
     0
  3
Center ____ _ ____ _ ____ _ ____ _ ____ _ ____
 72
    65
 73
     4
 40
10.16
 49
6.349999999999999
 74
     0
 49
-1.27
 74
     0
 49
1.27
 74
     0
 49
-1.27
 74
     0
  0
LTYPE
  5
42
330
5
100
AcDbSymbolTableRecord
100
AcDbLinetypeTableRecord
  2
CENTERX2
 70
     0
  3
Center (2x) ________  __  ________  __  _____
 72
    65
 73
     4
 40
20.32
 49
12.7
 74
     0
 49
-2.54
 74
     0
 49
2.54
 74
     0
 49
-2.54
 74
     0
  0
LTYPE
  5
43
330
5
100
AcDbSymbolTableRecord
100
AcDbLinetypeTableRecord
  2
DOT2
 70
     0
  3
Dot (.5x) ........................................
 72
    65
 73
     2
 40
0.635
 49
0.0
 74
     0
 49
-0.635
 74
     0
  0
ENDTAB
  0
TABLE
  2
LAYER
  5
2
330
0
100
AcDbSymbolTable
 70
     1
  0
LAYER
  5
10
102
{ACAD_XDICTIONARY
360
8B1
102
}
330
2
100
AcDbSymbolTableRecord
100
AcDbLayerTableRecord
  2
0
 70
     0
 62
     7
  6
Continuous
370
    -3
390
F
  0
ENDTAB
  0
TABLE
  2
STYLE
  5
3
330
0
100
AcDbSymbolTable
 70
     1
  0
STYLE
  5
11
330
3
100
AcDbSymbolTableRecord
100
AcDbTextStyleTableRecord
  2
Standard
 70
     0
 40
0.0
 41
1.0
 50
0.0
 71
     0
 42
2.5
  3
txt
  4

  0
ENDTAB
  0
TABLE
  2
VIEW
  5
6
330
0
100
AcDbSymbolTable
 70
     0
  0
ENDTAB
  0
TABLE
  2
UCS
  5
7
330
0
100
AcDbSymbolTable
 70
     0
  0
ENDTAB
  0
TABLE
  2
APPID
  5
9
330
0
100
AcDbSymbolTable
 70
     2
  0
APPID
  5
12
330
9
100
AcDbSymbolTableRecord
100
AcDbRegAppTableRecord
  2
ACAD
 70
     0
  0
APPID
  5
49A
330
9
100
AcDbSymbolTableRecord
100
AcDbRegAppTableRecord
  2
ACAD_MLEADERVER
 70
     0
  0
ENDTAB
  0
TABLE
  2
DIMSTYLE
  5
A
330
0
100
AcDbSymbolTable
 70
     1
100
AcDbDimStyleTable
 71
     0
  0
DIMSTYLE
105
27
330
A
100
AcDbSymbolTableRecord
100
AcDbDimStyleTableRecord
  2
ISO-25
 70
     0
 41
2.5
 42
0.625
 43
3.75
 44
1.25
 73
     0
 74
     0
 77
     1
 78
     8
140
2.5
141
2.5
143
0.03937007874016
147
0.625
171
     3
172
     1
271
     2
272
     2
274
     3
278
    44
283
     0
284
     8
340
11
  0
ENDTAB
  0
TABLE
  2
BLOCK_RECORD
  5
1
330
0
100
AcDbSymbolTable
 70
     5
  0
BLOCK_RECORD
  5
1F
330
1
100
AcDbSymbolTableRecord
100
AcDbBlockTableRecord
  2
*Model_Space
340
22
  0
BLOCK_RECORD
  5
1B
330
1
100
AcDbSymbolTableRecord
100
AcDbBlockTableRecord
  2
*Paper_Space
340
1E
  0
BLOCK_RECORD
  5
23
330
1
100
AcDbSymbolTableRecord
100
AcDbBlockTableRecord
  2
*Paper_Space0
340
26
  0
BLOCK_RECORD
  5
49D
330
1
100
AcDbSymbolTableRecord
100
AcDbBlockTableRecord
  2
1
340
0
310
2800000020000000200000000100080000000000000400000000000000000000000000000000000000000000000080000080000000808000800000008000800080800000C0C0C000C0DCC000F0CAA6000020400000206000002080000020A0000020C0000020E00000400000004020000040400000406000004080000040A0
310
000040C0000040E00000600000006020000060400000606000006080000060A0000060C0000060E00000800000008020000080400000806000008080000080A0000080C0000080E00000A0000000A0200000A0400000A0600000A0800000A0A00000A0C00000A0E00000C0000000C0200000C0400000C0600000C0800000C0
310
A00000C0C00000C0E00000E0000000E0200000E0400000E0600000E0800000E0A00000E0C00000E0E00040000000400020004000400040006000400080004000A0004000C0004000E00040200000402020004020400040206000402080004020A0004020C0004020E000404000004040200040404000404060004040800040
310
40A0004040C0004040E00040600000406020004060400040606000406080004060A0004060C0004060E00040800000408020004080400040806000408080004080A0004080C0004080E00040A0000040A0200040A0400040A0600040A0800040A0A00040A0C00040A0E00040C0000040C0200040C0400040C0600040C08000
310
40C0A00040C0C00040C0E00040E0000040E0200040E0400040E0600040E0800040E0A00040E0C00040E0E00080000000800020008000400080006000800080008000A0008000C0008000E00080200000802020008020400080206000802080008020A0008020C0008020E00080400000804020008040400080406000804080
310
008040A0008040C0008040E00080600000806020008060400080606000806080008060A0008060C0008060E00080800000808020008080400080806000808080008080A0008080C0008080E00080A0000080A0200080A0400080A0600080A0800080A0A00080A0C00080A0E00080C0000080C0200080C0400080C0600080C0
310
800080C0A00080C0C00080C0E00080E0000080E0200080E0400080E0600080E0800080E0A00080E0C00080E0E000C0000000C0002000C0004000C0006000C0008000C000A000C000C000C000E000C0200000C0202000C0204000C0206000C0208000C020A000C020C000C020E000C0400000C0402000C0404000C0406000C0
310
408000C040A000C040C000C040E000C0600000C0602000C0604000C0606000C0608000C060A000C060C000C060E000C0800000C0802000C0804000C0806000C0808000C080A000C080C000C080E000C0A00000C0A02000C0A04000C0A06000C0A08000C0A0A000C0A0C000C0A0E000C0C00000C0C02000C0C04000C0C06000
310
C0C08000C0C0A000F0FBFF00A4A0A000808080000000FF0000FF000000FFFF00FF000000FF00FF00FFFF0000FFFFFF0000000000000000000000000000000000000000000000000000000000000000000000000000000000000000000000000000000000000000000000000000000000000000000000000000000000000000
310
00000000000000000000000000000000000000000000000000000000000000000000000000000000000000000000000000000000000000000000000000000000000000000000000000000000000000000000000000000000000000000000000000000000000000000000000000000000000000000000000000000000000000
310
0000000000000000000000000000000000000000000000000000000000000000000000000000000000000000000000000000000000000000000000000000000000000000000000000000000000000000000000000000000000000000000000000000000000000000000000000000000000000000FFFF00FFFF00FFFF00FFFF
310
00FF0000FF00FFFF00FFFF00FFFF00FFFF00000000FFFF00FFFF00FFFF00FFFFFFFFFFFFFF00FFFF00FFFF00FFFF00FFFF00000000FFFF00FFFF00FFFF00FFFFFF00FFFF00FFFFFF00FFFF00FFFF00FFFF00000000FFFF00FFFF00FFFF00FFFFFF00FFFF00FFFFFF00FFFF00FFFF00FFFF00000000FFFF00FFFF00FFFF00FF
310
FFFFFFFFFFFFFFFFFF00FFFF00FFFF00FFFF00000000FFFFFFFFFFFFFFFFFFFFFFFFFFFFFFFFFFFFFFFFFFFFFFFFFFFFFFFF00000000FF00FFFF00FF00FFFF00FFFF00FFFF00FFFF00FFFF00FF00FFFF00FF00000000FFFFFFFFFFFFFFFFFFFFFFFFFFFFFFFFFFFFFFFFFFFFFFFFFFFFFFFF000000FFFF00FFFF00FF00FFFF
310
00FFFF00FFFF00FFFF00FFFF00FF00FFFF00FFFF0000FF00000000000000000000000000000000000000000000000000000000FF0000FFFFFFFFFFFFFFFFFFFFFFFFFFFFFFFFFFFFFFFFFFFFFFFFFFFFFFFFFFFF0000FFFFFFFFFFFFFFFFFFFFFFFFFFFFFFFFFFFFFFFFFFFFFFFFFFFFFFFFFFFF0000000000000000000000
310
00000000000000000000000000000000000000000000000000000000000000000000000000000000000000000000000000000000000000000000000000000000000000000000000000000000000000000000000000000000000000000000000000000000000000000000000000000000000000000000000000000000000000
310
00000000000000000000000000000000000000000000000000000000000000000000000000000000000000000000000000000000000000000000000000000000000000000000000000000000000000000000000000000000000000000000000000000000000000000000000000000000000000000000000000000000000000
310
0000000000000000000000000000000000000000000000000000000000000000000000000000000000000000000000000000000000000000
102
{BLKREFS
331
61E
102
}
1001
ACAD
1000
DesignCenter Data
1002
{
1070
     1
1070
     4
1002
}
  0
BLOCK_RECORD
  5
61F
330
1
100
AcDbSymbolTableRecord
100
AcDbBlockTableRecord
  2
2
340
0
310
2800000020000000200000000100080000000000000400000000000000000000000000000000000000000000000080000080000000808000800000008000800080800000C0C0C000C0DCC000F0CAA6000020400000206000002080000020A0000020C0000020E00000400000004020000040400000406000004080000040A0
310
000040C0000040E00000600000006020000060400000606000006080000060A0000060C0000060E00000800000008020000080400000806000008080000080A0000080C0000080E00000A0000000A0200000A0400000A0600000A0800000A0A00000A0C00000A0E00000C0000000C0200000C0400000C0600000C0800000C0
310
A00000C0C00000C0E00000E0000000E0200000E0400000E0600000E0800000E0A00000E0C00000E0E00040000000400020004000400040006000400080004000A0004000C0004000E00040200000402020004020400040206000402080004020A0004020C0004020E000404000004040200040404000404060004040800040
310
40A0004040C0004040E00040600000406020004060400040606000406080004060A0004060C0004060E00040800000408020004080400040806000408080004080A0004080C0004080E00040A0000040A0200040A0400040A0600040A0800040A0A00040A0C00040A0E00040C0000040C0200040C0400040C0600040C08000
310
40C0A00040C0C00040C0E00040E0000040E0200040E0400040E0600040E0800040E0A00040E0C00040E0E00080000000800020008000400080006000800080008000A0008000C0008000E00080200000802020008020400080206000802080008020A0008020C0008020E00080400000804020008040400080406000804080
310
008040A0008040C0008040E00080600000806020008060400080606000806080008060A0008060C0008060E00080800000808020008080400080806000808080008080A0008080C0008080E00080A0000080A0200080A0400080A0600080A0800080A0A00080A0C00080A0E00080C0000080C0200080C0400080C0600080C0
310
800080C0A00080C0C00080C0E00080E0000080E0200080E0400080E0600080E0800080E0A00080E0C00080E0E000C0000000C0002000C0004000C0006000C0008000C000A000C000C000C000E000C0200000C0202000C0204000C0206000C0208000C020A000C020C000C020E000C0400000C0402000C0404000C0406000C0
310
408000C040A000C040C000C040E000C0600000C0602000C0604000C0606000C0608000C060A000C060C000C060E000C0800000C0802000C0804000C0806000C0808000C080A000C080C000C080E000C0A00000C0A02000C0A04000C0A06000C0A08000C0A0A000C0A0C000C0A0E000C0C00000C0C02000C0C04000C0C06000
310
C0C08000C0C0A000F0FBFF00A4A0A000808080000000FF0000FF000000FFFF00FF000000FF00FF00FFFF0000FFFFFF0000000000000000000000000000000000000000000000000000000000000000000000000000000000000000000000FFFFFFFF00000000000000000000000000000000000000000000000000000000FF
310
FFFFFF00000000000000000000000000000000000000000000000000000000FF0000FF00000000000000000000000000000000000000000000000000000000FFFFFFFF00000000000000000000000000000000000000000000000000000000FF0000FF00000000000000000000000000000000000000000000000000000000
310
FF0000FF00000000000000000000000000000000000000000000000000000000FF0000FF00000000000000000000000000000000000000000000000000000000FF0000FF00000000000000000000000000000000000000000000000000000000FF0000FF000000000000000000000000000000000000000000000000000000
310
00FF0000FF00000000000000000000000000000000000000000000000000000000FFFFFFFF0000000000000000000000000000000000000000000000000000000000FFFF0000000000000000000000000000000000000000000000000000000000FFFFFFFF0000000000000000000000000000000000000000000000000000
310
0000FFFFFFFF00000000000000000000000000000000000000000000000000000000FFFFFFFF00000000000000000000000000000000000000000000000000000000FF0000FF00000000000000000000000000000000000000000000000000000000FF0000FF00000000000000000000000000000000000000000000000000
310
000000FF0000FF00000000000000000000000000000000000000000000000000000000FF0000FF00000000000000000000000000000000000000000000000000000000FF0000FF00000000000000000000000000000000000000000000000000000000FF0000FF000000000000000000000000000000000000000000000000
310
00000000FF0000FF00000000000000000000000000000000000000000000000000000000FFFFFFFF00000000000000000000000000000000000000000000000000000000FF0000FF00000000000000000000000000000000000000000000000000000000FF0000FF0000000000000000000000000000000000000000000000
310
0000000000FF0000FF00000000000000000000000000000000000000000000000000000000FF0000FF000000000000000000000000000000000000000000000000000000FFFF0000FFFF0000000000000000000000000000000000000000000000000000FF00000000FF000000000000000000000000000000000000000000
310
0000000000FFFFFFFFFFFF000000000000000000000000000000000000000000000000000000000000000000000000000000000000000000
102
{BLKREFS
331
64D
102
}
1001
ACAD
1000
DesignCenter Data
1002
{
1070
     1
1070
     4
1002
}
  0
BLOCK_RECORD
  5
64E
330
1
100
AcDbSymbolTableRecord
100
AcDbBlockTableRecord
  2
3
340
0
310
2800000020000000200000000100080000000000000400000000000000000000000000000000000000000000000080000080000000808000800000008000800080800000C0C0C000C0DCC000F0CAA6000020400000206000002080000020A0000020C0000020E00000400000004020000040400000406000004080000040A0
310
000040C0000040E00000600000006020000060400000606000006080000060A0000060C0000060E00000800000008020000080400000806000008080000080A0000080C0000080E00000A0000000A0200000A0400000A0600000A0800000A0A00000A0C00000A0E00000C0000000C0200000C0400000C0600000C0800000C0
310
A00000C0C00000C0E00000E0000000E0200000E0400000E0600000E0800000E0A00000E0C00000E0E00040000000400020004000400040006000400080004000A0004000C0004000E00040200000402020004020400040206000402080004020A0004020C0004020E000404000004040200040404000404060004040800040
310
40A0004040C0004040E00040600000406020004060400040606000406080004060A0004060C0004060E00040800000408020004080400040806000408080004080A0004080C0004080E00040A0000040A0200040A0400040A0600040A0800040A0A00040A0C00040A0E00040C0000040C0200040C0400040C0600040C08000
310
40C0A00040C0C00040C0E00040E0000040E0200040E0400040E0600040E0800040E0A00040E0C00040E0E00080000000800020008000400080006000800080008000A0008000C0008000E00080200000802020008020400080206000802080008020A0008020C0008020E00080400000804020008040400080406000804080
310
008040A0008040C0008040E00080600000806020008060400080606000806080008060A0008060C0008060E00080800000808020008080400080806000808080008080A0008080C0008080E00080A0000080A0200080A0400080A0600080A0800080A0A00080A0C00080A0E00080C0000080C0200080C0400080C0600080C0
310
800080C0A00080C0C00080C0E00080E0000080E0200080E0400080E0600080E0800080E0A00080E0C00080E0E000C0000000C0002000C0004000C0006000C0008000C000A000C000C000C000E000C0200000C0202000C0204000C0206000C0208000C020A000C020C000C020E000C0400000C0402000C0404000C0406000C0
310
408000C040A000C040C000C040E000C0600000C0602000C0604000C0606000C0608000C060A000C060C000C060E000C0800000C0802000C0804000C0806000C0808000C080A000C080C000C080E000C0A00000C0A02000C0A04000C0A06000C0A08000C0A0A000C0A0C000C0A0E000C0C00000C0C02000C0C04000C0C06000
310
C0C08000C0C0A000F0FBFF00A4A0A000808080000000FF0000FF000000FFFF00FF000000FF00FF00FFFF0000FFFFFF0000000000000000000000000000000000000000000000000000000000000000000000000000000000000000000000000000000000000000000000000000000000000000000000000000000000000000
310
00000000000000000000000000000000000000000000000000000000000000000000000000000000000000000000000000000000000000000000000000000000000000000000000000000000000000000000000000000000000000000000000000000000000000000000000000000000000000000000000000000000000000
310
00000000000000000000000000000000000000000000000000000000000000000000000000000000000000000000000000000000000000000000000000000000000000000000000000000000000000000000000000000000000000000000000000000000000000000000000000000000000000000000000000000000000000
310
00000000000000000000000000000000000000000000000000000000000000000000000000000000000000000000000000000000000000000000000000000000000000000000000000000000000000000000000000000000000000000000000000000000000000000000000000000000000000000000000000000000000000
310
000000000000000000000000000000000000000000FFFFFFFFFFFFFFFFFFFFFFFFFFFFFFFFFFFFFFFFFFFFFFFFFFFFFFFFFFFF0000FFFFFFFFFFFFFFFFFFFFFFFFFFFFFFFFFFFFFFFFFFFFFFFFFFFFFFFFFFFF0000000000000000000000000000000000000000000000000000000000000000000000000000000000000000
310
00000000000000000000000000000000000000000000000000000000000000000000000000000000000000000000000000000000000000000000000000000000000000000000000000000000000000000000000000000000000000000000000000000000000000000000000000000000000000000000000000000000000000
310
00000000000000000000000000000000000000000000000000000000000000000000000000000000000000000000000000000000000000000000000000000000000000000000000000000000000000000000000000000000000000000000000000000000000000000000000000000000000000000000000000000000000000
310
00000000000000000000000000000000000000000000000000000000000000000000000000000000000000000000000000000000000000000000000000000000000000000000000000000000000000000000000000000000000000000000000000000000000000000000000000000000000000000000000000000000000000
310
0000000000000000000000000000000000000000000000000000000000000000000000000000000000000000000000000000000000000000
102
{BLKREFS
331
655
102
}
1001
ACAD
1000
DesignCenter Data
1002
{
1070
     1
1070
     4
1002
}
  0
BLOCK_RECORD
  5
656
330
1
100
AcDbSymbolTableRecord
100
AcDbBlockTableRecord
  2
4
340
0
310
2800000020000000200000000100080000000000000400000000000000000000000000000000000000000000000080000080000000808000800000008000800080800000C0C0C000C0DCC000F0CAA6000020400000206000002080000020A0000020C0000020E00000400000004020000040400000406000004080000040A0
310
000040C0000040E00000600000006020000060400000606000006080000060A0000060C0000060E00000800000008020000080400000806000008080000080A0000080C0000080E00000A0000000A0200000A0400000A0600000A0800000A0A00000A0C00000A0E00000C0000000C0200000C0400000C0600000C0800000C0
310
A00000C0C00000C0E00000E0000000E0200000E0400000E0600000E0800000E0A00000E0C00000E0E00040000000400020004000400040006000400080004000A0004000C0004000E00040200000402020004020400040206000402080004020A0004020C0004020E000404000004040200040404000404060004040800040
310
40A0004040C0004040E00040600000406020004060400040606000406080004060A0004060C0004060E00040800000408020004080400040806000408080004080A0004080C0004080E00040A0000040A0200040A0400040A0600040A0800040A0A00040A0C00040A0E00040C0000040C0200040C0400040C0600040C08000
310
40C0A00040C0C00040C0E00040E0000040E0200040E0400040E0600040E0800040E0A00040E0C00040E0E00080000000800020008000400080006000800080008000A0008000C0008000E00080200000802020008020400080206000802080008020A0008020C0008020E00080400000804020008040400080406000804080
310
008040A0008040C0008040E00080600000806020008060400080606000806080008060A0008060C0008060E00080800000808020008080400080806000808080008080A0008080C0008080E00080A0000080A0200080A0400080A0600080A0800080A0A00080A0C00080A0E00080C0000080C0200080C0400080C0600080C0
310
800080C0A00080C0C00080C0E00080E0000080E0200080E0400080E0600080E0800080E0A00080E0C00080E0E000C0000000C0002000C0004000C0006000C0008000C000A000C000C000C000E000C0200000C0202000C0204000C0206000C0208000C020A000C020C000C020E000C0400000C0402000C0404000C0406000C0
310
408000C040A000C040C000C040E000C0600000C0602000C0604000C0606000C0608000C060A000C060C000C060E000C0800000C0802000C0804000C0806000C0808000C080A000C080C000C080E000C0A00000C0A02000C0A04000C0A06000C0A08000C0A0A000C0A0C000C0A0E000C0C00000C0C02000C0C04000C0C06000
310
C0C08000C0C0A000F0FBFF00A4A0A000808080000000FF0000FF000000FFFF00FF000000FF00FF00FFFF0000FFFFFF000000000000000000000000000000000000000000000000000000000000000000000000000000000000000000000000000000000000000000000000000000000000000000FF00000000000000000000
310
00000000000000000000000000000000000000FFFFFF0000000000000000000000000000000000000000000000000000000000FFFF00FFFFFF0000000000000000000000000000000000000000000000000000FFFF00FFFFFF00FF000000000000000000000000000000000000000000000000FFFF00FFFFFFFFFFFF000000
310
0000000000000000000000000000000000000000FFFFFFFFFFFFFFFFFFFFFF000000000000000000000000000000000000000000FFFF00FFFFFFFFFFFFFF00FFFF00000000000000000000000000000000000000FFFFFFFFFFFFFFFFFFFF00FFFFFF000000000000000000000000000000000000FFFFFFFFFFFFFFFFFFFF00
310
FFFFFF00FFFF000000000000000000000000000000FFFF00FFFFFFFF00FFFFFFFFFFFFFFFFFF00FF00000000000000000000000000FFFF0000FFFFFFFFFFFFFFFFFFFFFFFFFFFFFF000000000000000000000000FFFFFFFFFF0000FFFFFFFF00FFFFFFFFFFFFFF00FFFFFF000000000000000000FFFF00FFFFFFFF0000FFFF
310
FFFFFFFFFFFFFFFF00FFFFFF00000000000000000000FFFF0000FFFFFFFF00FF00FFFF00FFFFFFFF00FFFFFFFFFFFF000000000000000000FFFF0000FFFFFFFF00FFFFFFFF00FFFFFFFFFFFFFFFFFF00FF000000000000000000FFFF0000FFFFFF000000FFFFFFFFFFFFFFFFFFFFFFFFFF0000000000000000000000FFFF00
310
00FFFFFF00FF00FFFFFFFFFFFFFFFFFFFF00FF000000000000000000000000FF0000FFFFFFFF00FFFFFFFFFFFFFFFFFFFF00FF00000000000000000000000000FFFF0000FFFFFFFF0000FFFFFFFF00FFFFFFFF000000000000000000000000000000FFFF0000FFFFFFFFFFFFFFFFFFFFFFFFFF000000000000000000000000
310
0000000000FFFF0000FFFFFF0000FFFFFFFF00FF00000000000000000000000000000000000000FFFF0000FFFFFFFF00FFFFFFFF000000000000000000000000000000000000000000FF0000FFFFFFFFFFFF00FF00000000000000000000000000000000000000000000FFFF0000FFFFFFFF00FF0000000000000000000000
310
00000000000000000000000000FFFF0000FFFFFFFF0000000000000000000000000000000000000000000000000000FFFF0000FFFFFF000000000000000000000000000000000000000000000000000000FFFF0000FF0000000000000000000000000000000000000000000000000000000000FFFF00000000000000000000
310
0000000000000000000000000000000000000000000000000000000000000000000000000000000000000000000000000000000000000000
102
{BLKREFS
331
8B0
102
}
1001
ACAD
1000
DesignCenter Data
1002
{
1070
     1
1070
     4
1002
}
  0
ENDTAB
  0
ENDSEC
  0
SECTION
  2
BLOCKS
  0
BLOCK
  5
20
330
1F
100
AcDbEntity
  8
0
100
AcDbBlockBegin
  2
*Model_Space
 70
     0
 10
0.0
 20
0.0
 30
0.0
  3
*Model_Space
  1

  0
ENDBLK
  5
21
330
1F
100
AcDbEntity
  8
0
100
AcDbBlockEnd
  0
BLOCK
  5
1C
330
1B
100
AcDbEntity
 67
     1
  8
0
100
AcDbBlockBegin
  2
*Paper_Space
 70
     0
 10
0.0
 20
0.0
 30
0.0
  3
*Paper_Space
  1

  0
ENDBLK
  5
1D
330
1B
100
AcDbEntity
 67
     1
  8
0
100
AcDbBlockEnd
  0
BLOCK
  5
24
330
23
100
AcDbEntity
 67
     1
  8
0
100
AcDbBlockBegin
  2
*Paper_Space0
 70
     0
 10
0.0
 20
0.0
 30
0.0
  3
*Paper_Space0
  1

  0
ENDBLK
  5
25
330
23
100
AcDbEntity
 67
     1
  8
0
100
AcDbBlockEnd
  0
BLOCK
  5
49E
330
49D
100
AcDbEntity
  8
0
100
AcDbBlockBegin
  2
1
 70
     0
 10
0.0
 20
0.0
 30
0.0
  3
1
  1

  0
LINE
  5
4A0
330
49D
100
AcDbEntity
  8
0
  6
Continuous
 62
     7
370
    15
100
AcDbLine
 10
146.6453355482003
 20
123.4547262568642
 30
0.0
 11
213.1453355481451
 21
123.454726256848
 31
0.0
  0
LINE
  5
4A1
330
49D
100
AcDbEntity
  8
0
  6
Continuous
 62
     7
370
    15
100
AcDbLine
 10
213.1453355481451
 20
123.4546864246522
 30
0.0
 11
146.6453355482003
 21
123.4546864246693
 31
0.0
  0
LINE
  5
4A2
330
49D
100
AcDbEntity
  8
0
  6
Continuous
 62
     7
370
    15
100
AcDbLine
 10
146.6453355482003
 20
123.4547262568642
 30
0.0
 11
146.6453355482003
 21
123.4546864246693
 31
0.0
  0
LINE
  5
4A3
330
49D
100
AcDbEntity
  8
0
  6
Continuous
 62
     7
370
    15
100
AcDbLine
 10
146.6453355482003
 20
122.1546864247254
 30
0.0
 11
213.1453355481451
 21
122.1546864247099
 31
0.0
  0
LINE
  5
4A4
330
49D
100
AcDbEntity
  8
0
  6
Continuous
 62
     7
370
    15
100
AcDbLine
 10
146.6453355482003
 20
123.4546864246693
 30
0.0
 11
146.6453355482003
 21
122.1546864247254
 31
0.0
  0
LINE
  5
4A5
330
49D
100
AcDbEntity
  8
0
  6
Continuous
 62
     7
370
    15
100
AcDbLine
 10
213.1453355481451
 20
122.1546864247099
 30
0.0
 11
213.1453355481451
 21
123.4546864246522
 31
0.0
  0
LINE
  5
4A6
330
49D
100
AcDbEntity
  8
0
  6
Continuous
 62
     7
370
    15
100
AcDbLine
 10
184.495335548203
 20
115.504686424661
 30
0.0
 11
181.9953355482029
 21
115.504686424661
 31
0.0
  0
LINE
  5
4A7
330
49D
100
AcDbEntity
  8
0
  6
Continuous
 62
     7
370
    15
100
AcDbLine
 10
184.495335548203
 20
114.2046864247198
 30
0.0
 11
184.495335548203
 21
115.504686424661
 31
0.0
  0
LINE
  5
4A8
330
49D
100
AcDbEntity
  8
0
  6
Continuous
 62
     7
370
    15
100
AcDbLine
 10
184.495335548203
 20
114.2046864247198
 30
0.0
 11
181.9953355482029
 21
114.2046864247198
 31
0.0
  0
LINE
  5
4A9
330
49D
100
AcDbEntity
  8
0
  6
Continuous
 62
     7
370
    15
100
AcDbLine
 10
181.9953355482029
 20
114.2046864247198
 30
0.0
 11
181.9953355482029
 21
115.504686424661
 31
0.0
  0
LINE
  5
4AA
330
49D
100
AcDbEntity
  8
0
  6
Continuous
 62
     7
370
    15
100
AcDbLine
 10
177.7953355482029
 20
115.5046864246632
 30
0.0
 11
175.2953355482029
 21
115.5046864246632
 31
0.0
  0
LINE
  5
4AB
330
49D
100
AcDbEntity
  8
0
  6
Continuous
 62
     7
370
    15
100
AcDbLine
 10
177.7953355482029
 20
114.204686424722
 30
0.0
 11
177.7953355482029
 21
115.5046864246632
 31
0.0
  0
LINE
  5
4AC
330
49D
100
AcDbEntity
  8
0
  6
Continuous
 62
     7
370
    15
100
AcDbLine
 10
177.7953355482029
 20
114.204686424722
 30
0.0
 11
175.2953355482029
 21
114.204686424722
 31
0.0
  0
LINE
  5
4AD
330
49D
100
AcDbEntity
  8
0
  6
Continuous
 62
     7
370
    15
100
AcDbLine
 10
175.2953355482029
 20
114.204686424722
 30
0.0
 11
175.2953355482029
 21
115.5046864246632
 31
0.0
  0
LINE
  5
4AE
330
49D
100
AcDbEntity
  8
0
  6
Continuous
 62
     7
370
    15
100
AcDbLine
 10
150.9953355482029
 20
115.5046864246697
 30
0.0
 11
148.495335548203
 21
115.5046864246697
 31
0.0
  0
LINE
  5
4AF
330
49D
100
AcDbEntity
  8
0
  6
Continuous
 62
     7
370
    15
100
AcDbLine
 10
150.9953355482029
 20
114.2046864247284
 30
0.0
 11
150.9953355482029
 21
115.5046864246697
 31
0.0
  0
LINE
  5
4B0
330
49D
100
AcDbEntity
  8
0
  6
Continuous
 62
     7
370
    15
100
AcDbLine
 10
150.9953355482029
 20
114.2046864247284
 30
0.0
 11
148.495335548203
 21
114.2046864247284
 31
0.0
  0
LINE
  5
4B1
330
49D
100
AcDbEntity
  8
0
  6
Continuous
 62
     7
370
    15
100
AcDbLine
 10
148.495335548203
 20
114.2046864247284
 30
0.0
 11
148.495335548203
 21
115.5046864246697
 31
0.0
  0
LINE
  5
4B2
330
49D
100
AcDbEntity
  8
0
  6
Continuous
 62
     7
370
    15
100
AcDbLine
 10
211.295335548203
 20
115.5046864246523
 30
0.0
 11
208.795335548203
 21
115.5046864246523
 31
0.0
  0
LINE
  5
4B3
330
49D
100
AcDbEntity
  8
0
  6
Continuous
 62
     7
370
    15
100
AcDbLine
 10
211.295335548203
 20
114.2046864247111
 30
0.0
 11
211.295335548203
 21
115.5046864246523
 31
0.0
  0
LINE
  5
4B4
330
49D
100
AcDbEntity
  8
0
  6
Continuous
 62
     7
370
    15
100
AcDbLine
 10
211.295335548203
 20
114.2046864247111
 30
0.0
 11
208.795335548203
 21
114.2046864247111
 31
0.0
  0
LINE
  5
4B5
330
49D
100
AcDbEntity
  8
0
  6
Continuous
 62
     7
370
    15
100
AcDbLine
 10
208.795335548203
 20
114.2046864247111
 30
0.0
 11
208.795335548203
 21
115.5046864246523
 31
0.0
  0
LINE
  5
4B6
330
49D
100
AcDbEntity
  8
0
  6
Continuous
 62
     7
370
    15
100
AcDbLine
 10
197.8953355482029
 20
115.5046864246568
 30
0.0
 11
195.3953355482029
 21
115.5046864246568
 31
0.0
  0
LINE
  5
4B7
330
49D
100
AcDbEntity
  8
0
  6
Continuous
 62
     7
370
    15
100
AcDbLine
 10
197.8953355482029
 20
114.2046864247155
 30
0.0
 11
197.8953355482029
 21
115.5046864246568
 31
0.0
  0
LINE
  5
4B8
330
49D
100
AcDbEntity
  8
0
  6
Continuous
 62
     7
370
    15
100
AcDbLine
 10
197.8953355482029
 20
114.2046864247155
 30
0.0
 11
195.3953355482029
 21
114.2046864247155
 31
0.0
  0
LINE
  5
4B9
330
49D
100
AcDbEntity
  8
0
  6
Continuous
 62
     7
370
    15
100
AcDbLine
 10
195.3953355482029
 20
114.2046864247155
 30
0.0
 11
195.3953355482029
 21
115.5046864246568
 31
0.0
  0
LINE
  5
4BA
330
49D
100
AcDbEntity
  8
0
  6
Continuous
 62
     7
370
    15
100
AcDbLine
 10
204.5953355482029
 20
115.5046864246546
 30
0.0
 11
202.095335548203
 21
115.5046864246546
 31
0.0
  0
LINE
  5
4BB
330
49D
100
AcDbEntity
  8
0
  6
Continuous
 62
     7
370
    15
100
AcDbLine
 10
204.5953355482029
 20
114.2046864247133
 30
0.0
 11
202.095335548203
 21
114.2046864247133
 31
0.0
  0
LINE
  5
4BC
330
49D
100
AcDbEntity
  8
0
  6
Continuous
 62
     7
370
    15
100
AcDbLine
 10
202.095335548203
 20
114.2046864247133
 30
0.0
 11
202.095335548203
 21
115.5046864246546
 31
0.0
  0
LINE
  5
4BD
330
49D
100
AcDbEntity
  8
0
  6
Continuous
 62
     7
370
    15
100
AcDbLine
 10
204.5953355482029
 20
114.2046864247133
 30
0.0
 11
204.5953355482029
 21
115.5046864246546
 31
0.0
  0
LINE
  5
4BE
330
49D
100
AcDbEntity
  8
0
  6
Continuous
 62
     7
370
    15
100
AcDbLine
 10
164.3953355482029
 20
114.2046864247262
 30
0.0
 11
161.8953355482029
 21
114.2046864247262
 31
0.0
  0
LINE
  5
4BF
330
49D
100
AcDbEntity
  8
0
  6
Continuous
 62
     7
370
    15
100
AcDbLine
 10
161.8953355482029
 20
114.2046864247262
 30
0.0
 11
161.8953355482029
 21
115.5046864246674
 31
0.0
  0
LINE
  5
4C0
330
49D
100
AcDbEntity
  8
0
  6
Continuous
 62
     7
370
    15
100
AcDbLine
 10
164.3953355482029
 20
114.2046864247262
 30
0.0
 11
164.3953355482029
 21
115.5046864246674
 31
0.0
  0
LINE
  5
4C1
330
49D
100
AcDbEntity
  8
0
  6
Continuous
 62
     7
370
    15
100
AcDbLine
 10
164.3953355482029
 20
115.5046864246674
 30
0.0
 11
161.8953355482029
 21
115.5046864246674
 31
0.0
  0
LINE
  5
4C2
330
49D
100
AcDbEntity
  8
0
  6
Continuous
 62
     7
370
    15
100
AcDbLine
 10
191.1953355482029
 20
115.5046864246588
 30
0.0
 11
188.6953355482029
 21
115.5046864246588
 31
0.0
  0
LINE
  5
4C3
330
49D
100
AcDbEntity
  8
0
  6
Continuous
 62
     7
370
    15
100
AcDbLine
 10
191.1953355482029
 20
114.2046864247175
 30
0.0
 11
191.1953355482029
 21
115.5046864246588
 31
0.0
  0
LINE
  5
4C4
330
49D
100
AcDbEntity
  8
0
  6
Continuous
 62
     7
370
    15
100
AcDbLine
 10
191.1953355482029
 20
114.2046864247175
 30
0.0
 11
188.6953355482029
 21
114.2046864247175
 31
0.0
  0
LINE
  5
4C5
330
49D
100
AcDbEntity
  8
0
  6
Continuous
 62
     7
370
    15
100
AcDbLine
 10
188.6953355482029
 20
114.2046864247175
 30
0.0
 11
188.6953355482029
 21
115.5046864246588
 31
0.0
  0
LINE
  5
4C6
330
49D
100
AcDbEntity
  8
0
  6
Continuous
 62
     7
370
    15
100
AcDbLine
 10
157.6953355482029
 20
114.2046864247284
 30
0.0
 11
157.6953355482029
 21
115.5046864246697
 31
0.0
  0
LINE
  5
4C7
330
49D
100
AcDbEntity
  8
0
  6
Continuous
 62
     7
370
    15
100
AcDbLine
 10
157.6953355482029
 20
114.2046864247284
 30
0.0
 11
155.1953355482029
 21
114.2046864247284
 31
0.0
  0
LINE
  5
4C8
330
49D
100
AcDbEntity
  8
0
  6
Continuous
 62
     7
370
    15
100
AcDbLine
 10
155.1953355482029
 20
114.2046864247284
 30
0.0
 11
155.1953355482029
 21
115.5046864246697
 31
0.0
  0
LINE
  5
4C9
330
49D
100
AcDbEntity
  8
0
  6
Continuous
 62
     7
370
    15
100
AcDbLine
 10
157.6953355482029
 20
115.5046864246697
 30
0.0
 11
155.1953355482029
 21
115.5046864246697
 31
0.0
  0
LINE
  5
4CA
330
49D
100
AcDbEntity
  8
0
  6
Continuous
 62
     7
370
    15
100
AcDbLine
 10
171.0953355482029
 20
114.2046864247242
 30
0.0
 11
168.5953355482029
 21
114.2046864247242
 31
0.0
  0
LINE
  5
4CB
330
49D
100
AcDbEntity
  8
0
  6
Continuous
 62
     7
370
    15
100
AcDbLine
 10
168.5953355482029
 20
114.2046864247242
 30
0.0
 11
168.5953355482029
 21
115.5046864246654
 31
0.0
  0
LINE
  5
4CC
330
49D
100
AcDbEntity
  8
0
  6
Continuous
 62
     7
370
    15
100
AcDbLine
 10
171.0953355482029
 20
114.2046864247242
 30
0.0
 11
171.0953355482029
 21
115.5046864246654
 31
0.0
  0
LINE
  5
4CD
330
49D
100
AcDbEntity
  8
0
  6
Continuous
 62
     7
370
    15
100
AcDbLine
 10
171.0953355482029
 20
115.5046864246654
 30
0.0
 11
168.5953355482029
 21
115.5046864246654
 31
0.0
  0
LINE
  5
4CE
330
49D
100
AcDbEntity
  8
0
  6
Continuous
 62
     7
370
    15
100
AcDbLine
 10
188.4453355480625
 20
107.817968847062
 30
0.0
 11
191.4453355480508
 21
107.817968847062
 31
0.0
  0
LINE
  5
4CF
330
49D
100
AcDbEntity
  8
0
  6
Continuous
 62
     7
370
    15
100
AcDbLine
 10
188.4453355480625
 20
107.817968847062
 30
0.0
 11
188.4453355480625
 21
108.0179697954432
 31
0.0
  0
LINE
  5
4D0
330
49D
100
AcDbEntity
  8
0
  6
Continuous
 62
     7
370
    15
100
AcDbLine
 10
191.4453355480494
 20
108.0179702593654
 30
0.0
 11
188.4453355480625
 21
108.0179697954432
 31
0.0
  0
LINE
  5
4D1
330
49D
100
AcDbEntity
  8
0
  6
Continuous
 62
     7
370
    15
100
AcDbLine
 10
191.4453355480494
 20
108.0179702593654
 30
0.0
 11
191.4453355480508
 21
107.817968847062
 31
0.0
  0
LINE
  5
4D2
330
49D
100
AcDbEntity
  8
0
  6
Continuous
 62
     7
370
    15
100
AcDbLine
 10
195.1453355480625
 20
107.81796884706
 30
0.0
 11
198.1453355480508
 21
107.81796884706
 31
0.0
  0
LINE
  5
4D3
330
49D
100
AcDbEntity
  8
0
  6
Continuous
 62
     7
370
    15
100
AcDbLine
 10
195.1453355480625
 20
107.81796884706
 30
0.0
 11
195.1453355480625
 21
108.0179697954412
 31
0.0
  0
LINE
  5
4D4
330
49D
100
AcDbEntity
  8
0
  6
Continuous
 62
     7
370
    15
100
AcDbLine
 10
198.1453355480494
 20
108.0179702593634
 30
0.0
 11
195.1453355480625
 21
108.0179697954412
 31
0.0
  0
LINE
  5
4D5
330
49D
100
AcDbEntity
  8
0
  6
Continuous
 62
     7
370
    15
100
AcDbLine
 10
198.1453355480494
 20
108.0179702593634
 30
0.0
 11
198.1453355480508
 21
107.81796884706
 31
0.0
  0
LINE
  5
4D6
330
49D
100
AcDbEntity
  8
0
  6
Continuous
 62
     7
370
    15
100
AcDbLine
 10
175.0453355480624
 20
107.8179688470665
 30
0.0
 11
178.0453355480508
 21
107.8179688470665
 31
0.0
  0
LINE
  5
4D7
330
49D
100
AcDbEntity
  8
0
  6
Continuous
 62
     7
370
    15
100
AcDbLine
 10
175.0453355480624
 20
107.8179688470665
 30
0.0
 11
175.0453355480624
 21
108.0179697954476
 31
0.0
  0
LINE
  5
4D8
330
49D
100
AcDbEntity
  8
0
  6
Continuous
 62
     7
370
    15
100
AcDbLine
 10
178.0453355480494
 20
108.0179702593698
 30
0.0
 11
175.0453355480624
 21
108.0179697954476
 31
0.0
  0
LINE
  5
4D9
330
49D
100
AcDbEntity
  8
0
  6
Continuous
 62
     7
370
    15
100
AcDbLine
 10
178.0453355480494
 20
108.0179702593698
 30
0.0
 11
178.0453355480508
 21
107.8179688470665
 31
0.0
  0
LINE
  5
4DA
330
49D
100
AcDbEntity
  8
0
  6
Continuous
 62
     7
370
    15
100
AcDbLine
 10
208.5453355480625
 20
107.8179688470556
 30
0.0
 11
211.5453355480508
 21
107.8179688470556
 31
0.0
  0
LINE
  5
4DB
330
49D
100
AcDbEntity
  8
0
  6
Continuous
 62
     7
370
    15
100
AcDbLine
 10
208.5453355480625
 20
107.8179688470556
 30
0.0
 11
208.5453355480625
 21
108.0179697954367
 31
0.0
  0
LINE
  5
4DC
330
49D
100
AcDbEntity
  8
0
  6
Continuous
 62
     7
370
    15
100
AcDbLine
 10
211.5453355480494
 20
108.0179702593589
 30
0.0
 11
208.5453355480625
 21
108.0179697954367
 31
0.0
  0
LINE
  5
4DD
330
49D
100
AcDbEntity
  8
0
  6
Continuous
 62
     7
370
    15
100
AcDbLine
 10
211.5453355480494
 20
108.0179702593589
 30
0.0
 11
211.5453355480508
 21
107.8179688470556
 31
0.0
  0
LINE
  5
4DE
330
49D
100
AcDbEntity
  8
0
  6
Continuous
 62
     7
370
    15
100
AcDbLine
 10
181.7453355480625
 20
107.8179688470642
 30
0.0
 11
184.7453355480508
 21
107.8179688470642
 31
0.0
  0
LINE
  5
4DF
330
49D
100
AcDbEntity
  8
0
  6
Continuous
 62
     7
370
    15
100
AcDbLine
 10
181.7453355480625
 20
107.8179688470642
 30
0.0
 11
181.7453355480625
 21
108.0179697954454
 31
0.0
  0
LINE
  5
4E0
330
49D
100
AcDbEntity
  8
0
  6
Continuous
 62
     7
370
    15
100
AcDbLine
 10
184.7453355480494
 20
108.0179702593676
 30
0.0
 11
181.7453355480625
 21
108.0179697954454
 31
0.0
  0
LINE
  5
4E1
330
49D
100
AcDbEntity
  8
0
  6
Continuous
 62
     7
370
    15
100
AcDbLine
 10
184.7453355480494
 20
108.0179702593676
 30
0.0
 11
184.7453355480508
 21
107.8179688470642
 31
0.0
  0
LINE
  5
4E2
330
49D
100
AcDbEntity
  8
0
  6
Continuous
 62
     7
370
    15
100
AcDbLine
 10
148.2453355480625
 20
107.8179688470729
 30
0.0
 11
151.2453355480493
 21
107.8179688470729
 31
0.0
  0
LINE
  5
4E3
330
49D
100
AcDbEntity
  8
0
  6
Continuous
 62
     7
370
    15
100
AcDbLine
 10
148.2453355480625
 20
107.8179688470729
 30
0.0
 11
148.2453355480625
 21
108.017969795454
 31
0.0
  0
LINE
  5
4E4
330
49D
100
AcDbEntity
  8
0
  6
Continuous
 62
     7
370
    15
100
AcDbLine
 10
151.2453355480493
 20
108.0179702593763
 30
0.0
 11
148.2453355480625
 21
108.017969795454
 31
0.0
  0
LINE
  5
4E5
330
49D
100
AcDbEntity
  8
0
  6
Continuous
 62
     7
370
    15
100
AcDbLine
 10
151.2453355480493
 20
108.0179702593763
 30
0.0
 11
151.2453355480493
 21
107.8179688470729
 31
0.0
  0
LINE
  5
4E6
330
49D
100
AcDbEntity
  8
0
  6
Continuous
 62
     7
370
    15
100
AcDbLine
 10
201.8453355480625
 20
107.8179688470578
 30
0.0
 11
204.8453355480508
 21
107.8179688470578
 31
0.0
  0
LINE
  5
4E7
330
49D
100
AcDbEntity
  8
0
  6
Continuous
 62
     7
370
    15
100
AcDbLine
 10
204.8453355480494
 20
108.0179702593612
 30
0.0
 11
201.8453355480625
 21
108.0179697954389
 31
0.0
  0
LINE
  5
4E8
330
49D
100
AcDbEntity
  8
0
  6
Continuous
 62
     7
370
    15
100
AcDbLine
 10
204.8453355480494
 20
108.0179702593612
 30
0.0
 11
204.8453355480508
 21
107.8179688470578
 31
0.0
  0
LINE
  5
4E9
330
49D
100
AcDbEntity
  8
0
  6
Continuous
 62
     7
370
    15
100
AcDbLine
 10
201.8453355480625
 20
107.8179688470578
 30
0.0
 11
201.8453355480625
 21
108.0179697954389
 31
0.0
  0
LINE
  5
4EA
330
49D
100
AcDbEntity
  8
0
  6
Continuous
 62
     7
370
    15
100
AcDbLine
 10
168.3453355480625
 20
107.8179688470687
 30
0.0
 11
171.3453355480508
 21
107.8179688470687
 31
0.0
  0
LINE
  5
4EB
330
49D
100
AcDbEntity
  8
0
  6
Continuous
 62
     7
370
    15
100
AcDbLine
 10
171.3453355480494
 20
108.017970259372
 30
0.0
 11
168.3453355480625
 21
108.0179697954498
 31
0.0
  0
LINE
  5
4EC
330
49D
100
AcDbEntity
  8
0
  6
Continuous
 62
     7
370
    15
100
AcDbLine
 10
171.3453355480494
 20
108.017970259372
 30
0.0
 11
171.3453355480508
 21
107.8179688470687
 31
0.0
  0
LINE
  5
4ED
330
49D
100
AcDbEntity
  8
0
  6
Continuous
 62
     7
370
    15
100
AcDbLine
 10
168.3453355480625
 20
107.8179688470687
 30
0.0
 11
168.3453355480625
 21
108.0179697954498
 31
0.0
  0
LINE
  5
4EE
330
49D
100
AcDbEntity
  8
0
  6
Continuous
 62
     7
370
    15
100
AcDbLine
 10
154.9453355480624
 20
107.8179688470729
 30
0.0
 11
157.9453355480508
 21
107.8179688470729
 31
0.0
  0
LINE
  5
4EF
330
49D
100
AcDbEntity
  8
0
  6
Continuous
 62
     7
370
    15
100
AcDbLine
 10
154.9453355480624
 20
107.8179688470729
 30
0.0
 11
154.9453355480624
 21
108.017969795454
 31
0.0
  0
LINE
  5
4F0
330
49D
100
AcDbEntity
  8
0
  6
Continuous
 62
     7
370
    15
100
AcDbLine
 10
157.9453355480494
 20
108.0179702593763
 30
0.0
 11
154.9453355480624
 21
108.017969795454
 31
0.0
  0
LINE
  5
4F1
330
49D
100
AcDbEntity
  8
0
  6
Continuous
 62
     7
370
    15
100
AcDbLine
 10
157.9453355480494
 20
108.0179702593763
 30
0.0
 11
157.9453355480508
 21
107.8179688470729
 31
0.0
  0
LINE
  5
4F2
330
49D
100
AcDbEntity
  8
0
  6
Continuous
 62
     7
370
    15
100
AcDbLine
 10
161.6453355480625
 20
107.8179688470707
 30
0.0
 11
164.6453355480508
 21
107.8179688470707
 31
0.0
  0
LINE
  5
4F3
330
49D
100
AcDbEntity
  8
0
  6
Continuous
 62
     7
370
    15
100
AcDbLine
 10
164.6453355480494
 20
108.017970259374
 30
0.0
 11
161.6453355480625
 21
108.0179697954518
 31
0.0
  0
LINE
  5
4F4
330
49D
100
AcDbEntity
  8
0
  6
Continuous
 62
     7
370
    15
100
AcDbLine
 10
164.6453355480494
 20
108.017970259374
 30
0.0
 11
164.6453355480508
 21
107.8179688470707
 31
0.0
  0
LINE
  5
4F5
330
49D
100
AcDbEntity
  8
0
  6
Continuous
 62
     7
370
    15
100
AcDbLine
 10
161.6453355480625
 20
107.8179688470707
 30
0.0
 11
161.6453355480625
 21
108.0179697954518
 31
0.0
  0
LINE
  5
4F6
330
49D
100
AcDbEntity
  8
0
  6
Continuous
 62
     7
370
    15
100
AcDbLine
 10
170.9372033270522
 20
99.74185900717976
 30
0.0
 11
171.3453355480495
 21
102.0564894810555
 31
0.0
  0
ARC
  5
4F7
330
49D
100
AcDbEntity
  8
0
  6
Continuous
 62
     7
370
    15
100
AcDbCircle
 10
170.5925206134978
 20
99.80263586936096
 30
0.0
 40
0.3500000000004862
100
AcDbArc
 50
270.0000000000008
 51
349.9999999999207
  0
LINE
  5
4F8
330
49D
100
AcDbEntity
  8
0
  6
Continuous
 62
     7
370
    15
100
AcDbLine
 10
168.9776575615636
 20
99.45263586937599
 30
0.0
 11
170.5925206134978
 21
99.45263586937622
 31
0.0
  0
ARC
  5
4F9
330
49D
100
AcDbEntity
  8
0
  6
Continuous
 62
     7
370
    15
100
AcDbCircle
 10
168.9776575615636
 20
99.80263586936096
 30
0.0
 40
0.3500000000007136
100
AcDbArc
 50
190.0000000001161
 51
270.0000000000008
  0
LINE
  5
4FA
330
49D
100
AcDbEntity
  8
0
  6
Continuous
 62
     7
370
    15
100
AcDbLine
 10
168.3453355480653
 20
101.3731425395013
 30
0.0
 11
168.6329748480092
 21
99.74185900717955
 31
0.0
  0
LINE
  5
4FB
330
49D
100
AcDbEntity
  8
0
  6
Continuous
 62
     7
370
    15
100
AcDbLine
 10
171.3453355480495
 20
102.0564894810555
 30
0.0
 11
171.3453355480508
 21
107.8179688470687
 31
0.0
  0
LINE
  5
4FC
330
49D
100
AcDbEntity
  8
0
  6
Continuous
 62
     7
370
    15
100
AcDbLine
 10
168.3453355480625
 20
107.8179688470687
 30
0.0
 11
168.3453355480653
 21
101.3731425395013
 31
0.0
  0
LINE
  5
4FD
330
49D
100
AcDbEntity
  8
0
  6
Continuous
 62
     7
370
    15
100
AcDbLine
 10
164.2372033270522
 20
99.74185900718177
 30
0.0
 11
164.6453355480495
 21
102.0564894810574
 31
0.0
  0
ARC
  5
4FE
330
49D
100
AcDbEntity
  8
0
  6
Continuous
 62
     7
370
    15
100
AcDbCircle
 10
163.8925206134978
 20
99.80263586936297
 30
0.0
 40
0.3500000000005004
100
AcDbArc
 50
270.0000000000008
 51
349.9999999999207
  0
LINE
  5
4FF
330
49D
100
AcDbEntity
  8
0
  6
Continuous
 62
     7
370
    15
100
AcDbLine
 10
162.2776575615635
 20
99.452635869378
 30
0.0
 11
163.8925206134978
 21
99.45263586937821
 31
0.0
  0
ARC
  5
500
330
49D
100
AcDbEntity
  8
0
  6
Continuous
 62
     7
370
    15
100
AcDbCircle
 10
162.2776575615635
 20
99.80263586936297
 30
0.0
 40
0.3500000000007136
100
AcDbArc
 50
190.0000000001191
 51
270.0000000000008
  0
LINE
  5
501
330
49D
100
AcDbEntity
  8
0
  6
Continuous
 62
     7
370
    15
100
AcDbLine
 10
161.6453355480653
 20
101.3731425395033
 30
0.0
 11
161.9329748480093
 21
99.74185900718154
 31
0.0
  0
LINE
  5
502
330
49D
100
AcDbEntity
  8
0
  6
Continuous
 62
     7
370
    15
100
AcDbLine
 10
164.6453355480495
 20
102.0564894810574
 30
0.0
 11
164.6453355480508
 21
107.8179688470707
 31
0.0
  0
LINE
  5
503
330
49D
100
AcDbEntity
  8
0
  6
Continuous
 62
     7
370
    15
100
AcDbLine
 10
161.6453355480625
 20
107.8179688470707
 30
0.0
 11
161.6453355480653
 21
101.3731425395033
 31
0.0
  0
LINE
  5
504
330
49D
100
AcDbEntity
  8
0
  6
Continuous
 62
     7
370
    15
100
AcDbLine
 10
184.3372033270522
 20
99.74185900717534
 30
0.0
 11
184.7453355480495
 21
102.056489481051
 31
0.0
  0
ARC
  5
505
330
49D
100
AcDbEntity
  8
0
  6
Continuous
 62
     7
370
    15
100
AcDbCircle
 10
183.9925206134978
 20
99.80263586935654
 30
0.0
 40
0.3500000000005004
100
AcDbArc
 50
270.0000000000008
 51
349.9999999999216
  0
LINE
  5
506
330
49D
100
AcDbEntity
  8
0
  6
Continuous
 62
     7
370
    15
100
AcDbLine
 10
182.3776575615636
 20
99.45263586937157
 30
0.0
 11
183.9925206134978
 21
99.45263586937178
 31
0.0
  0
ARC
  5
507
330
49D
100
AcDbEntity
  8
0
  6
Continuous
 62
     7
370
    15
100
AcDbCircle
 10
182.3776575615636
 20
99.80263586935654
 30
0.0
 40
0.3500000000007136
100
AcDbArc
 50
190.0000000001183
 51
270.0000000000008
  0
LINE
  5
508
330
49D
100
AcDbEntity
  8
0
  6
Continuous
 62
     7
370
    15
100
AcDbLine
 10
181.7453355480653
 20
101.3731425394969
 30
0.0
 11
182.0329748480093
 21
99.74185900717511
 31
0.0
  0
LINE
  5
509
330
49D
100
AcDbEntity
  8
0
  6
Continuous
 62
     7
370
    15
100
AcDbLine
 10
184.7453355480495
 20
102.056489481051
 30
0.0
 11
184.7453355480508
 21
107.8179688470642
 31
0.0
  0
LINE
  5
50A
330
49D
100
AcDbEntity
  8
0
  6
Continuous
 62
     7
370
    15
100
AcDbLine
 10
181.7453355480625
 20
107.8179688470642
 30
0.0
 11
181.7453355480653
 21
101.3731425394969
 31
0.0
  0
LINE
  5
50B
330
49D
100
AcDbEntity
  8
0
  6
Continuous
 62
     7
370
    15
100
AcDbLine
 10
150.8372033270522
 20
99.74185900718422
 30
0.0
 11
151.2453355480578
 21
102.0564894810592
 31
0.0
  0
ARC
  5
50C
330
49D
100
AcDbEntity
  8
0
  6
Continuous
 62
     7
370
    15
100
AcDbCircle
 10
150.4925206134978
 20
99.80263586936519
 30
0.0
 40
0.3500000000004862
100
AcDbArc
 50
270.0000000000008
 51
349.9999999999582
  0
LINE
  5
50D
330
49D
100
AcDbEntity
  8
0
  6
Continuous
 62
     7
370
    15
100
AcDbLine
 10
148.8776575615636
 20
99.45263586938066
 30
0.0
 11
150.4925206134978
 21
99.45263586938045
 31
0.0
  0
ARC
  5
50E
330
49D
100
AcDbEntity
  8
0
  6
Continuous
 62
     7
370
    15
100
AcDbCircle
 10
148.8776575615636
 20
99.80263586936519
 30
0.0
 40
0.350000000000273
100
AcDbArc
 50
190.0000000001183
 51
270.0000000000008
  0
LINE
  5
50F
330
49D
100
AcDbEntity
  8
0
  6
Continuous
 62
     7
370
    15
100
AcDbLine
 10
148.2453355480653
 20
101.3731425395055
 30
0.0
 11
148.5329748480092
 21
99.74185900718376
 31
0.0
  0
LINE
  5
510
330
49D
100
AcDbEntity
  8
0
  6
Continuous
 62
     7
370
    15
100
AcDbLine
 10
151.2453355480578
 20
102.0564894810592
 30
0.0
 11
151.2453355480493
 21
107.8179688470729
 31
0.0
  0
LINE
  5
511
330
49D
100
AcDbEntity
  8
0
  6
Continuous
 62
     7
370
    15
100
AcDbLine
 10
148.2453355480625
 20
107.8179688470729
 30
0.0
 11
148.2453355480653
 21
101.3731425395055
 31
0.0
  0
LINE
  5
512
330
49D
100
AcDbEntity
  8
0
  6
Continuous
 62
     7
370
    15
100
AcDbLine
 10
204.4372033270522
 20
99.74185900716889
 30
0.0
 11
204.8453355480495
 21
102.0564894810446
 31
0.0
  0
ARC
  5
513
330
49D
100
AcDbEntity
  8
0
  6
Continuous
 62
     7
370
    15
100
AcDbCircle
 10
204.0925206134978
 20
99.80263586935009
 30
0.0
 40
0.3500000000005004
100
AcDbArc
 50
270.0000000000008
 51
349.9999999999207
  0
LINE
  5
514
330
49D
100
AcDbEntity
  8
0
  6
Continuous
 62
     7
370
    15
100
AcDbLine
 10
202.4776575615635
 20
99.45263586936512
 30
0.0
 11
204.0925206134978
 21
99.45263586936533
 31
0.0
  0
ARC
  5
515
330
49D
100
AcDbEntity
  8
0
  6
Continuous
 62
     7
370
    15
100
AcDbCircle
 10
202.4776575615635
 20
99.80263586935009
 30
0.0
 40
0.3500000000007136
100
AcDbArc
 50
190.0000000001199
 51
270.0000000000008
  0
LINE
  5
516
330
49D
100
AcDbEntity
  8
0
  6
Continuous
 62
     7
370
    15
100
AcDbLine
 10
201.8453355480653
 20
101.3731425394904
 30
0.0
 11
202.1329748480093
 21
99.74185900716868
 31
0.0
  0
LINE
  5
517
330
49D
100
AcDbEntity
  8
0
  6
Continuous
 62
     7
370
    15
100
AcDbLine
 10
204.8453355480495
 20
102.0564894810446
 30
0.0
 11
204.8453355480508
 21
107.8179688470578
 31
0.0
  0
LINE
  5
518
330
49D
100
AcDbEntity
  8
0
  6
Continuous
 62
     7
370
    15
100
AcDbLine
 10
201.8453355480625
 20
107.8179688470578
 30
0.0
 11
201.8453355480653
 21
101.3731425394904
 31
0.0
  0
LINE
  5
519
330
49D
100
AcDbEntity
  8
0
  6
Continuous
 62
     7
370
    15
100
AcDbLine
 10
177.6372033270522
 20
99.74185900717756
 30
0.0
 11
178.0453355480495
 21
102.0564894810532
 31
0.0
  0
ARC
  5
51A
330
49D
100
AcDbEntity
  8
0
  6
Continuous
 62
     7
370
    15
100
AcDbCircle
 10
177.2925206134978
 20
99.80263586935876
 30
0.0
 40
0.3500000000004862
100
AcDbArc
 50
270.0000000000008
 51
349.9999999999207
  0
LINE
  5
51B
330
49D
100
AcDbEntity
  8
0
  6
Continuous
 62
     7
370
    15
100
AcDbLine
 10
175.6776575615635
 20
99.45263586937379
 30
0.0
 11
177.2925206134978
 21
99.452635869374
 31
0.0
  0
ARC
  5
51C
330
49D
100
AcDbEntity
  8
0
  6
Continuous
 62
     7
370
    15
100
AcDbCircle
 10
175.6776575615635
 20
99.80263586935876
 30
0.0
 40
0.3500000000007136
100
AcDbArc
 50
190.0000000001191
 51
270.0000000000008
  0
LINE
  5
51D
330
49D
100
AcDbEntity
  8
0
  6
Continuous
 62
     7
370
    15
100
AcDbLine
 10
175.0453355480653
 20
101.3731425394991
 30
0.0
 11
175.3329748480093
 21
99.74185900717733
 31
0.0
  0
LINE
  5
51E
330
49D
100
AcDbEntity
  8
0
  6
Continuous
 62
     7
370
    15
100
AcDbLine
 10
178.0453355480495
 20
102.0564894810532
 30
0.0
 11
178.0453355480508
 21
107.8179688470665
 31
0.0
  0
LINE
  5
51F
330
49D
100
AcDbEntity
  8
0
  6
Continuous
 62
     7
370
    15
100
AcDbLine
 10
175.0453355480624
 20
107.8179688470665
 30
0.0
 11
175.0453355480653
 21
101.3731425394991
 31
0.0
  0
LINE
  5
520
330
49D
100
AcDbEntity
  8
0
  6
Continuous
 62
     7
370
    15
100
AcDbLine
 10
191.0372033270522
 20
99.7418590071731
 30
0.0
 11
191.4453355480494
 21
102.0564894810488
 31
0.0
  0
ARC
  5
521
330
49D
100
AcDbEntity
  8
0
  6
Continuous
 62
     7
370
    15
100
AcDbCircle
 10
190.6925206134978
 20
99.8026358693543
 30
0.0
 40
0.3500000000004862
100
AcDbArc
 50
270.0000000000008
 51
349.9999999999216
  0
LINE
  5
522
330
49D
100
AcDbEntity
  8
0
  6
Continuous
 62
     7
370
    15
100
AcDbLine
 10
189.0776575615636
 20
99.45263586936933
 30
0.0
 11
190.6925206134978
 21
99.45263586936956
 31
0.0
  0
ARC
  5
523
330
49D
100
AcDbEntity
  8
0
  6
Continuous
 62
     7
370
    15
100
AcDbCircle
 10
189.0776575615636
 20
99.8026358693543
 30
0.0
 40
0.3500000000007136
100
AcDbArc
 50
190.0000000001161
 51
270.0000000000008
  0
LINE
  5
524
330
49D
100
AcDbEntity
  8
0
  6
Continuous
 62
     7
370
    15
100
AcDbLine
 10
188.4453355480653
 20
101.3731425394946
 30
0.0
 11
188.7329748480092
 21
99.74185900717289
 31
0.0
  0
LINE
  5
525
330
49D
100
AcDbEntity
  8
0
  6
Continuous
 62
     7
370
    15
100
AcDbLine
 10
191.4453355480494
 20
102.0564894810488
 30
0.0
 11
191.4453355480508
 21
107.817968847062
 31
0.0
  0
LINE
  5
526
330
49D
100
AcDbEntity
  8
0
  6
Continuous
 62
     7
370
    15
100
AcDbLine
 10
188.4453355480625
 20
107.817968847062
 30
0.0
 11
188.4453355480653
 21
101.3731425394946
 31
0.0
  0
LINE
  5
527
330
49D
100
AcDbEntity
  8
0
  6
Continuous
 62
     7
370
    15
100
AcDbLine
 10
157.5372033270522
 20
99.74185900718399
 30
0.0
 11
157.9453355480494
 21
102.0564894810597
 31
0.0
  0
ARC
  5
528
330
49D
100
AcDbEntity
  8
0
  6
Continuous
 62
     7
370
    15
100
AcDbCircle
 10
157.1925206134978
 20
99.80263586936519
 30
0.0
 40
0.3500000000004862
100
AcDbArc
 50
270.0000000000008
 51
349.9999999999216
  0
LINE
  5
529
330
49D
100
AcDbEntity
  8
0
  6
Continuous
 62
     7
370
    15
100
AcDbLine
 10
155.5776575615635
 20
99.45263586938022
 30
0.0
 11
157.1925206134978
 21
99.45263586938045
 31
0.0
  0
ARC
  5
52A
330
49D
100
AcDbEntity
  8
0
  6
Continuous
 62
     7
370
    15
100
AcDbCircle
 10
155.5776575615635
 20
99.80263586936519
 30
0.0
 40
0.3500000000007136
100
AcDbArc
 50
190.0000000001191
 51
270.0000000000008
  0
LINE
  5
52B
330
49D
100
AcDbEntity
  8
0
  6
Continuous
 62
     7
370
    15
100
AcDbLine
 10
154.9453355480653
 20
101.3731425395055
 30
0.0
 11
155.2329748480092
 21
99.74185900718376
 31
0.0
  0
LINE
  5
52C
330
49D
100
AcDbEntity
  8
0
  6
Continuous
 62
     7
370
    15
100
AcDbLine
 10
157.9453355480494
 20
102.0564894810597
 30
0.0
 11
157.9453355480508
 21
107.8179688470729
 31
0.0
  0
LINE
  5
52D
330
49D
100
AcDbEntity
  8
0
  6
Continuous
 62
     7
370
    15
100
AcDbLine
 10
154.9453355480624
 20
107.8179688470729
 30
0.0
 11
154.9453355480653
 21
101.3731425395055
 31
0.0
  0
LINE
  5
52E
330
49D
100
AcDbEntity
  8
0
  6
Continuous
 62
     7
370
    15
100
AcDbLine
 10
197.7372033270522
 20
99.74185900717111
 30
0.0
 11
198.1453355480494
 21
102.0564894810468
 31
0.0
  0
ARC
  5
52F
330
49D
100
AcDbEntity
  8
0
  6
Continuous
 62
     7
370
    15
100
AcDbCircle
 10
197.3925206134978
 20
99.80263586935231
 30
0.0
 40
0.3500000000005004
100
AcDbArc
 50
270.0000000000008
 51
349.9999999999207
  0
LINE
  5
530
330
49D
100
AcDbEntity
  8
0
  6
Continuous
 62
     7
370
    15
100
AcDbLine
 10
195.7776575615635
 20
99.45263586936734
 30
0.0
 11
197.3925206134978
 21
99.45263586936755
 31
0.0
  0
ARC
  5
531
330
49D
100
AcDbEntity
  8
0
  6
Continuous
 62
     7
370
    15
100
AcDbCircle
 10
195.7776575615635
 20
99.80263586935231
 30
0.0
 40
0.3500000000007136
100
AcDbArc
 50
190.0000000001191
 51
270.0000000000008
  0
LINE
  5
532
330
49D
100
AcDbEntity
  8
0
  6
Continuous
 62
     7
370
    15
100
AcDbLine
 10
195.1453355480653
 20
101.3731425394926
 30
0.0
 11
195.4329748480093
 21
99.74185900717088
 31
0.0
  0
LINE
  5
533
330
49D
100
AcDbEntity
  8
0
  6
Continuous
 62
     7
370
    15
100
AcDbLine
 10
195.1453355480625
 20
107.81796884706
 30
0.0
 11
195.1453355480653
 21
101.3731425394926
 31
0.0
  0
LINE
  5
534
330
49D
100
AcDbEntity
  8
0
  6
Continuous
 62
     7
370
    15
100
AcDbLine
 10
198.1453355480494
 20
102.0564894810468
 30
0.0
 11
198.1453355480508
 21
107.81796884706
 31
0.0
  0
LINE
  5
535
330
49D
100
AcDbEntity
  8
0
  6
Continuous
 62
     7
370
    15
100
AcDbLine
 10
211.1372033270522
 20
99.74185900716667
 30
0.0
 11
211.5453355480495
 21
102.0564894810424
 31
0.0
  0
ARC
  5
536
330
49D
100
AcDbEntity
  8
0
  6
Continuous
 62
     7
370
    15
100
AcDbCircle
 10
210.7925206134979
 20
99.80263586934787
 30
0.0
 40
0.3500000000004862
100
AcDbArc
 50
270.0000000000008
 51
349.9999999999216
  0
LINE
  5
537
330
49D
100
AcDbEntity
  8
0
  6
Continuous
 62
     7
370
    15
100
AcDbLine
 10
209.1776575615635
 20
99.4526358693629
 30
0.0
 11
210.7925206134979
 21
99.45263586936313
 31
0.0
  0
ARC
  5
538
330
49D
100
AcDbEntity
  8
0
  6
Continuous
 62
     7
370
    15
100
AcDbCircle
 10
209.1776575615635
 20
99.80263586934787
 30
0.0
 40
0.3500000000007136
100
AcDbArc
 50
190.0000000001168
 51
270.0000000000008
  0
LINE
  5
539
330
49D
100
AcDbEntity
  8
0
  6
Continuous
 62
     7
370
    15
100
AcDbLine
 10
208.5453355480653
 20
101.3731425394882
 30
0.0
 11
208.8329748480093
 21
99.74185900716646
 31
0.0
  0
LINE
  5
53A
330
49D
100
AcDbEntity
  8
0
  6
Continuous
 62
     7
370
    15
100
AcDbLine
 10
211.5453355480495
 20
102.0564894810424
 30
0.0
 11
211.5453355480508
 21
107.8179688470556
 31
0.0
  0
LINE
  5
53B
330
49D
100
AcDbEntity
  8
0
  6
Continuous
 62
     7
370
    15
100
AcDbLine
 10
208.5453355480625
 20
107.8179688470556
 30
0.0
 11
208.5453355480653
 21
101.3731425394882
 31
0.0
  0
LINE
  5
53C
330
49D
100
AcDbEntity
  8
0
  6
Continuous
 62
     7
370
    15
100
AcDbLine
 10
198.9953355482003
 20
117.606718668988
 30
0.0
 11
198.9953355482003
 21
110.9766940122965
 31
0.0
  0
LINE
  5
53D
330
49D
100
AcDbEntity
  8
0
  6
Continuous
 62
     7
370
    15
100
AcDbLine
 10
198.5953355482334
 20
110.5766940123481
 30
0.0
 11
198.9953355482003
 21
110.9766940122965
 31
0.0
  0
LINE
  5
53E
330
49D
100
AcDbEntity
  8
0
  6
Continuous
 62
     7
370
    15
100
AcDbLine
 10
198.5953355482334
 20
110.5766940123481
 30
0.0
 11
198.5953355482332
 21
109.374694012371
 31
0.0
  0
LINE
  5
53F
330
49D
100
AcDbEntity
  8
0
  6
Continuous
 62
     7
370
    15
100
AcDbLine
 10
194.6953355481671
 20
109.374694012371
 30
0.0
 11
198.5953355482332
 21
109.374694012371
 31
0.0
  0
LINE
  5
540
330
49D
100
AcDbEntity
  8
0
  6
Continuous
 62
     7
370
    15
100
AcDbLine
 10
194.6953355481671
 20
109.374694012371
 30
0.0
 11
194.6953355481672
 21
110.5766940123481
 31
0.0
  0
LINE
  5
541
330
49D
100
AcDbEntity
  8
0
  6
Continuous
 62
     7
370
    15
100
AcDbLine
 10
194.2953355482003
 20
110.9766940122968
 30
0.0
 11
194.6953355481672
 21
110.5766940123481
 31
0.0
  0
LINE
  5
542
330
49D
100
AcDbEntity
  8
0
  6
Continuous
 62
     7
370
    15
100
AcDbLine
 10
194.2953355482003
 20
110.9766940122968
 30
0.0
 11
194.2953355482003
 21
117.6067186689676
 31
0.0
  0
LINE
  5
543
330
49D
100
AcDbEntity
  8
0
  6
Continuous
 62
     7
370
    15
100
AcDbLine
 10
192.2953355482003
 20
117.606718668988
 30
0.0
 11
194.2953355482003
 21
117.6067186689676
 31
0.0
  0
LINE
  5
544
330
49D
100
AcDbEntity
  8
0
  6
Continuous
 62
     7
370
    15
100
AcDbLine
 10
192.2953355482003
 20
117.606718668988
 30
0.0
 11
192.2953355482003
 21
110.9766940122985
 31
0.0
  0
LINE
  5
545
330
49D
100
AcDbEntity
  8
0
  6
Continuous
 62
     7
370
    15
100
AcDbLine
 10
191.8953355482334
 20
110.5766940123501
 30
0.0
 11
192.2953355482003
 21
110.9766940122985
 31
0.0
  0
LINE
  5
546
330
49D
100
AcDbEntity
  8
0
  6
Continuous
 62
     7
370
    15
100
AcDbLine
 10
191.8953355482334
 20
110.5766940123501
 30
0.0
 11
191.8953355482332
 21
109.374694012373
 31
0.0
  0
LINE
  5
547
330
49D
100
AcDbEntity
  8
0
  6
Continuous
 62
     7
370
    15
100
AcDbLine
 10
187.9953355481671
 20
109.374694012373
 30
0.0
 11
191.8953355482332
 21
109.374694012373
 31
0.0
  0
LINE
  5
548
330
49D
100
AcDbEntity
  8
0
  6
Continuous
 62
     7
370
    15
100
AcDbLine
 10
187.9953355481671
 20
109.374694012373
 30
0.0
 11
187.9953355481672
 21
110.5766940123501
 31
0.0
  0
LINE
  5
549
330
49D
100
AcDbEntity
  8
0
  6
Continuous
 62
     7
370
    15
100
AcDbLine
 10
187.5953355482003
 20
110.9766940122988
 30
0.0
 11
187.9953355481672
 21
110.5766940123501
 31
0.0
  0
LINE
  5
54A
330
49D
100
AcDbEntity
  8
0
  6
Continuous
 62
     7
370
    15
100
AcDbLine
 10
187.5953355482003
 20
110.9766940122988
 30
0.0
 11
187.5953355482003
 21
117.6067186689696
 31
0.0
  0
LINE
  5
54B
330
49D
100
AcDbEntity
  8
0
  6
Continuous
 62
     7
370
    15
100
AcDbLine
 10
185.5953355482003
 20
117.606718668988
 30
0.0
 11
187.5953355482003
 21
117.6067186689696
 31
0.0
  0
LINE
  5
54C
330
49D
100
AcDbEntity
  8
0
  6
Continuous
 62
     7
370
    15
100
AcDbLine
 10
185.5953355482003
 20
117.606718668988
 30
0.0
 11
185.5953355482003
 21
110.9766940123008
 31
0.0
  0
LINE
  5
54D
330
49D
100
AcDbEntity
  8
0
  6
Continuous
 62
     7
370
    15
100
AcDbLine
 10
185.1953355482334
 20
110.5766940123523
 30
0.0
 11
185.5953355482003
 21
110.9766940123008
 31
0.0
  0
LINE
  5
54E
330
49D
100
AcDbEntity
  8
0
  6
Continuous
 62
     7
370
    15
100
AcDbLine
 10
185.1953355482334
 20
110.5766940123523
 30
0.0
 11
185.1953355482332
 21
109.3746940123753
 31
0.0
  0
LINE
  5
54F
330
49D
100
AcDbEntity
  8
0
  6
Continuous
 62
     7
370
    15
100
AcDbLine
 10
181.2953355481671
 20
109.3746940123753
 30
0.0
 11
185.1953355482332
 21
109.3746940123753
 31
0.0
  0
LINE
  5
550
330
49D
100
AcDbEntity
  8
0
  6
Continuous
 62
     7
370
    15
100
AcDbLine
 10
181.2953355481671
 20
109.3746940123753
 30
0.0
 11
181.2953355481672
 21
110.5766940123523
 31
0.0
  0
LINE
  5
551
330
49D
100
AcDbEntity
  8
0
  6
Continuous
 62
     7
370
    15
100
AcDbLine
 10
180.8953355482003
 20
110.976694012301
 30
0.0
 11
181.2953355481672
 21
110.5766940123523
 31
0.0
  0
LINE
  5
552
330
49D
100
AcDbEntity
  8
0
  6
Continuous
 62
     7
370
    15
100
AcDbLine
 10
180.8953355482003
 20
110.976694012301
 30
0.0
 11
180.8953355482003
 21
117.6067186689718
 31
0.0
  0
LINE
  5
553
330
49D
100
AcDbEntity
  8
0
  6
Continuous
 62
     7
370
    15
100
AcDbLine
 10
178.8953355482003
 20
117.606718668988
 30
0.0
 11
180.8953355482003
 21
117.6067186689718
 31
0.0
  0
LINE
  5
554
330
49D
100
AcDbEntity
  8
0
  6
Continuous
 62
     7
370
    15
100
AcDbLine
 10
178.8953355482003
 20
117.606718668988
 30
0.0
 11
178.8953355482003
 21
110.976694012303
 31
0.0
  0
LINE
  5
555
330
49D
100
AcDbEntity
  8
0
  6
Continuous
 62
     7
370
    15
100
AcDbLine
 10
178.4953355482334
 20
110.5766940123545
 30
0.0
 11
178.8953355482003
 21
110.976694012303
 31
0.0
  0
LINE
  5
556
330
49D
100
AcDbEntity
  8
0
  6
Continuous
 62
     7
370
    15
100
AcDbLine
 10
178.4953355482334
 20
110.5766940123545
 30
0.0
 11
178.4953355482332
 21
109.3746940123775
 31
0.0
  0
LINE
  5
557
330
49D
100
AcDbEntity
  8
0
  6
Continuous
 62
     7
370
    15
100
AcDbLine
 10
174.5953355481671
 20
109.3746940123775
 30
0.0
 11
178.4953355482332
 21
109.3746940123775
 31
0.0
  0
LINE
  5
558
330
49D
100
AcDbEntity
  8
0
  6
Continuous
 62
     7
370
    15
100
AcDbLine
 10
174.5953355481671
 20
109.3746940123775
 30
0.0
 11
174.5953355481672
 21
110.5766940123545
 31
0.0
  0
LINE
  5
559
330
49D
100
AcDbEntity
  8
0
  6
Continuous
 62
     7
370
    15
100
AcDbLine
 10
174.1953355482003
 20
110.9766940123032
 30
0.0
 11
174.5953355481672
 21
110.5766940123545
 31
0.0
  0
LINE
  5
55A
330
49D
100
AcDbEntity
  8
0
  6
Continuous
 62
     7
370
    15
100
AcDbLine
 10
174.1953355482003
 20
110.9766940123032
 30
0.0
 11
174.1953355482003
 21
117.606718668974
 31
0.0
  0
LINE
  5
55B
330
49D
100
AcDbEntity
  8
0
  6
Continuous
 62
     7
370
    15
100
AcDbLine
 10
172.1953355482003
 20
117.606718668988
 30
0.0
 11
174.1953355482003
 21
117.606718668974
 31
0.0
  0
LINE
  5
55C
330
49D
100
AcDbEntity
  8
0
  6
Continuous
 62
     7
370
    15
100
AcDbLine
 10
172.1953355482003
 20
117.606718668988
 30
0.0
 11
172.1953355482003
 21
110.9766940123052
 31
0.0
  0
LINE
  5
55D
330
49D
100
AcDbEntity
  8
0
  6
Continuous
 62
     7
370
    15
100
AcDbLine
 10
171.7953355482334
 20
110.5766940123568
 30
0.0
 11
172.1953355482003
 21
110.9766940123052
 31
0.0
  0
LINE
  5
55E
330
49D
100
AcDbEntity
  8
0
  6
Continuous
 62
     7
370
    15
100
AcDbLine
 10
171.7953355482334
 20
110.5766940123568
 30
0.0
 11
171.7953355482332
 21
109.3746940123797
 31
0.0
  0
LINE
  5
55F
330
49D
100
AcDbEntity
  8
0
  6
Continuous
 62
     7
370
    15
100
AcDbLine
 10
167.8953355481671
 20
109.3746940123797
 30
0.0
 11
171.7953355482332
 21
109.3746940123797
 31
0.0
  0
LINE
  5
560
330
49D
100
AcDbEntity
  8
0
  6
Continuous
 62
     7
370
    15
100
AcDbLine
 10
167.8953355481671
 20
109.3746940123797
 30
0.0
 11
167.8953355481672
 21
110.5766940123568
 31
0.0
  0
LINE
  5
561
330
49D
100
AcDbEntity
  8
0
  6
Continuous
 62
     7
370
    15
100
AcDbLine
 10
167.4953355482003
 20
110.9766940123054
 30
0.0
 11
167.8953355481672
 21
110.5766940123568
 31
0.0
  0
LINE
  5
562
330
49D
100
AcDbEntity
  8
0
  6
Continuous
 62
     7
370
    15
100
AcDbLine
 10
167.4953355482003
 20
110.9766940123054
 30
0.0
 11
167.4953355482003
 21
117.6067186689763
 31
0.0
  0
LINE
  5
563
330
49D
100
AcDbEntity
  8
0
  6
Continuous
 62
     7
370
    15
100
AcDbLine
 10
165.4953355482003
 20
117.60671866899
 30
0.0
 11
167.4953355482003
 21
117.6067186689763
 31
0.0
  0
LINE
  5
564
330
49D
100
AcDbEntity
  8
0
  6
Continuous
 62
     7
370
    15
100
AcDbLine
 10
165.4953355482003
 20
117.60671866899
 30
0.0
 11
165.4953355482003
 21
110.9766940123072
 31
0.0
  0
LINE
  5
565
330
49D
100
AcDbEntity
  8
0
  6
Continuous
 62
     7
370
    15
100
AcDbLine
 10
165.0953355482334
 20
110.5766940123588
 30
0.0
 11
165.4953355482003
 21
110.9766940123072
 31
0.0
  0
LINE
  5
566
330
49D
100
AcDbEntity
  8
0
  6
Continuous
 62
     7
370
    15
100
AcDbLine
 10
165.0953355482334
 20
110.5766940123588
 30
0.0
 11
165.0953355482332
 21
109.3746940123817
 31
0.0
  0
LINE
  5
567
330
49D
100
AcDbEntity
  8
0
  6
Continuous
 62
     7
370
    15
100
AcDbLine
 10
161.1953355481671
 20
109.3746940123817
 30
0.0
 11
165.0953355482332
 21
109.3746940123817
 31
0.0
  0
LINE
  5
568
330
49D
100
AcDbEntity
  8
0
  6
Continuous
 62
     7
370
    15
100
AcDbLine
 10
161.1953355481671
 20
109.3746940123817
 30
0.0
 11
161.1953355481672
 21
110.5766940123588
 31
0.0
  0
LINE
  5
569
330
49D
100
AcDbEntity
  8
0
  6
Continuous
 62
     7
370
    15
100
AcDbLine
 10
160.7953355482003
 20
110.9766940123074
 30
0.0
 11
161.1953355481672
 21
110.5766940123588
 31
0.0
  0
LINE
  5
56A
330
49D
100
AcDbEntity
  8
0
  6
Continuous
 62
     7
370
    15
100
AcDbLine
 10
160.7953355482003
 20
110.9766940123074
 30
0.0
 11
160.7953355482004
 21
117.6067186689783
 31
0.0
  0
LINE
  5
56B
330
49D
100
AcDbEntity
  8
0
  6
Continuous
 62
     7
370
    15
100
AcDbLine
 10
158.7953355482003
 20
117.6067186689923
 30
0.0
 11
160.7953355482004
 21
117.6067186689783
 31
0.0
  0
LINE
  5
56C
330
49D
100
AcDbEntity
  8
0
  6
Continuous
 62
     7
370
    15
100
AcDbLine
 10
158.7953355482003
 20
117.6067186689923
 30
0.0
 11
158.7953355482003
 21
110.9766940123094
 31
0.0
  0
LINE
  5
56D
330
49D
100
AcDbEntity
  8
0
  6
Continuous
 62
     7
370
    15
100
AcDbLine
 10
158.3953355482334
 20
110.576694012361
 30
0.0
 11
158.7953355482003
 21
110.9766940123094
 31
0.0
  0
LINE
  5
56E
330
49D
100
AcDbEntity
  8
0
  6
Continuous
 62
     7
370
    15
100
AcDbLine
 10
158.3953355482334
 20
110.576694012361
 30
0.0
 11
158.3953355482332
 21
109.3746940123839
 31
0.0
  0
LINE
  5
56F
330
49D
100
AcDbEntity
  8
0
  6
Continuous
 62
     7
370
    15
100
AcDbLine
 10
154.4953355481671
 20
109.3746940123839
 30
0.0
 11
158.3953355482332
 21
109.3746940123839
 31
0.0
  0
LINE
  5
570
330
49D
100
AcDbEntity
  8
0
  6
Continuous
 62
     7
370
    15
100
AcDbLine
 10
154.4953355481671
 20
109.3746940123839
 30
0.0
 11
154.4953355481672
 21
110.576694012361
 31
0.0
  0
LINE
  5
571
330
49D
100
AcDbEntity
  8
0
  6
Continuous
 62
     7
370
    15
100
AcDbLine
 10
154.0953355482003
 20
110.9766940123096
 30
0.0
 11
154.4953355481672
 21
110.576694012361
 31
0.0
  0
LINE
  5
572
330
49D
100
AcDbEntity
  8
0
  6
Continuous
 62
     7
370
    15
100
AcDbLine
 10
154.0953355482003
 20
110.9766940123096
 30
0.0
 11
154.0953355482003
 21
117.6067186689805
 31
0.0
  0
LINE
  5
573
330
49D
100
AcDbEntity
  8
0
  6
Continuous
 62
     7
370
    15
100
AcDbLine
 10
154.0953355482003
 20
117.6067186689805
 30
0.0
 11
152.0953355482003
 21
117.6067187004322
 31
0.0
  0
LINE
  5
574
330
49D
100
AcDbEntity
  8
0
  6
Continuous
 62
     7
370
    15
100
AcDbLine
 10
152.0953355482003
 20
117.6067187004322
 30
0.0
 11
152.0953355482003
 21
110.9766940123094
 31
0.0
  0
LINE
  5
575
330
49D
100
AcDbEntity
  8
0
  6
Continuous
 62
     7
370
    15
100
AcDbLine
 10
152.0953355482003
 20
110.9766940123094
 30
0.0
 11
151.6953355482334
 21
110.576694012361
 31
0.0
  0
LINE
  5
576
330
49D
100
AcDbEntity
  8
0
  6
Continuous
 62
     7
370
    15
100
AcDbLine
 10
151.6953355482332
 20
109.3746940123839
 30
0.0
 11
151.6953355482334
 21
110.576694012361
 31
0.0
  0
LINE
  5
577
330
49D
100
AcDbEntity
  8
0
  6
Continuous
 62
     7
370
    15
100
AcDbLine
 10
147.7953355481671
 20
109.3746940123839
 30
0.0
 11
151.6953355482332
 21
109.3746940123839
 31
0.0
  0
LINE
  5
578
330
49D
100
AcDbEntity
  8
0
  6
Continuous
 62
     7
370
    15
100
AcDbLine
 10
147.7953355481671
 20
109.3746940123839
 30
0.0
 11
147.7953355481672
 21
110.576694012361
 31
0.0
  0
LINE
  5
579
330
49D
100
AcDbEntity
  8
0
  6
Continuous
 62
     7
370
    15
100
AcDbLine
 10
147.3953355482003
 20
110.9766940123096
 30
0.0
 11
147.7953355481672
 21
110.576694012361
 31
0.0
  0
LINE
  5
57A
330
49D
100
AcDbEntity
  8
0
  6
Continuous
 62
     7
370
    15
100
AcDbLine
 10
147.3953355482003
 20
110.9766940123096
 30
0.0
 11
147.3953355482003
 21
117.6067186689809
 31
0.0
  0
LINE
  5
57B
330
49D
100
AcDbEntity
  8
0
  6
Continuous
 62
     7
370
    15
100
AcDbLine
 10
147.3953355482003
 20
117.6067186689809
 30
0.0
 11
146.6453355482003
 21
117.6067186689783
 31
0.0
  0
LINE
  5
57C
330
49D
100
AcDbEntity
  8
0
  6
Continuous
 62
     7
370
    15
100
AcDbLine
 10
212.3953355482004
 20
117.6067186689749
 30
0.0
 11
213.1453355481451
 21
117.6067186689749
 31
0.0
  0
LINE
  5
57D
330
49D
100
AcDbEntity
  8
0
  6
Continuous
 62
     7
370
    15
100
AcDbLine
 10
212.3953355482004
 20
117.6067186689749
 30
0.0
 11
212.3953355482004
 21
110.9766940122921
 31
0.0
  0
LINE
  5
57E
330
49D
100
AcDbEntity
  8
0
  6
Continuous
 62
     7
370
    15
100
AcDbLine
 10
211.9953355482334
 20
110.5766940123437
 30
0.0
 11
212.3953355482004
 21
110.9766940122921
 31
0.0
  0
LINE
  5
57F
330
49D
100
AcDbEntity
  8
0
  6
Continuous
 62
     7
370
    15
100
AcDbLine
 10
211.9953355482334
 20
110.5766940123437
 30
0.0
 11
211.9953355482332
 21
109.3746940123666
 31
0.0
  0
LINE
  5
580
330
49D
100
AcDbEntity
  8
0
  6
Continuous
 62
     7
370
    15
100
AcDbLine
 10
208.0953355481671
 20
109.3746940123666
 30
0.0
 11
211.9953355482332
 21
109.3746940123666
 31
0.0
  0
LINE
  5
581
330
49D
100
AcDbEntity
  8
0
  6
Continuous
 62
     7
370
    15
100
AcDbLine
 10
208.0953355481671
 20
109.3746940123666
 30
0.0
 11
208.0953355481672
 21
110.5766940123437
 31
0.0
  0
LINE
  5
582
330
49D
100
AcDbEntity
  8
0
  6
Continuous
 62
     7
370
    15
100
AcDbLine
 10
207.6953355482003
 20
110.9766940122923
 30
0.0
 11
208.0953355481672
 21
110.5766940123437
 31
0.0
  0
LINE
  5
583
330
49D
100
AcDbEntity
  8
0
  6
Continuous
 62
     7
370
    15
100
AcDbLine
 10
207.6953355482003
 20
110.9766940122923
 30
0.0
 11
207.6953355482003
 21
117.6067186689632
 31
0.0
  0
LINE
  5
584
330
49D
100
AcDbEntity
  8
0
  6
Continuous
 62
     7
370
    15
100
AcDbLine
 10
205.6953355482003
 20
117.606718668988
 30
0.0
 11
207.6953355482003
 21
117.6067186689632
 31
0.0
  0
LINE
  5
585
330
49D
100
AcDbEntity
  8
0
  6
Continuous
 62
     7
370
    15
100
AcDbLine
 10
205.6953355482003
 20
117.606718668988
 30
0.0
 11
205.6953355482003
 21
110.9766940122943
 31
0.0
  0
LINE
  5
586
330
49D
100
AcDbEntity
  8
0
  6
Continuous
 62
     7
370
    15
100
AcDbLine
 10
205.2953355482334
 20
110.5766940123459
 30
0.0
 11
205.6953355482003
 21
110.9766940122943
 31
0.0
  0
LINE
  5
587
330
49D
100
AcDbEntity
  8
0
  6
Continuous
 62
     7
370
    15
100
AcDbLine
 10
205.2953355482334
 20
110.5766940123459
 30
0.0
 11
205.2953355482332
 21
109.3746940123688
 31
0.0
  0
LINE
  5
588
330
49D
100
AcDbEntity
  8
0
  6
Continuous
 62
     7
370
    15
100
AcDbLine
 10
201.3953355481671
 20
109.3746940123688
 30
0.0
 11
205.2953355482332
 21
109.3746940123688
 31
0.0
  0
LINE
  5
589
330
49D
100
AcDbEntity
  8
0
  6
Continuous
 62
     7
370
    15
100
AcDbLine
 10
201.3953355481671
 20
109.3746940123688
 30
0.0
 11
201.3953355481672
 21
110.5766940123459
 31
0.0
  0
LINE
  5
58A
330
49D
100
AcDbEntity
  8
0
  6
Continuous
 62
     7
370
    15
100
AcDbLine
 10
200.9953355482003
 20
110.9766940122945
 30
0.0
 11
201.3953355481672
 21
110.5766940123459
 31
0.0
  0
LINE
  5
58B
330
49D
100
AcDbEntity
  8
0
  6
Continuous
 62
     7
370
    15
100
AcDbLine
 10
200.9953355482003
 20
110.9766940122945
 30
0.0
 11
200.9953355482004
 21
117.6067186689654
 31
0.0
  0
LINE
  5
58C
330
49D
100
AcDbEntity
  8
0
  6
Continuous
 62
     7
370
    15
100
AcDbLine
 10
198.9953355482003
 20
117.606718668988
 30
0.0
 11
200.9953355482004
 21
117.6067186689654
 31
0.0
  0
LINE
  5
58D
330
49D
100
AcDbEntity
  8
0
  6
Continuous
 62
     7
370
    15
100
AcDbLine
 10
146.6453355482003
 20
122.15469401181
 30
0.0
 11
146.6453355482003
 21
117.6067186689783
 31
0.0
  0
LINE
  5
58E
330
49D
100
AcDbEntity
  8
0
  6
Continuous
 62
     7
370
    15
100
AcDbLine
 10
213.1453355481451
 20
117.6067186689749
 30
0.0
 11
213.1453355481451
 21
122.1546940117944
 31
0.0
  0
LINE
  5
58F
330
49D
100
AcDbEntity
  8
0
  6
Continuous
 62
     7
370
    15
100
AcDbLine
 10
154.0953355482003
 20
117.606694012012
 30
0.0
 11
152.0953355482003
 21
117.6066940120122
 31
0.0
  0
LINE
  5
590
330
49D
100
AcDbEntity
  8
0
  6
Continuous
 62
     7
370
    15
100
AcDbLine
 10
180.8953355482003
 20
117.6066940120034
 30
0.0
 11
178.8953355482003
 21
117.6066940120134
 31
0.0
  0
LINE
  5
591
330
49D
100
AcDbEntity
  8
0
  6
Continuous
 62
     7
370
    15
100
AcDbLine
 10
187.5953355482003
 20
117.6066940120011
 30
0.0
 11
185.5953355482003
 21
117.6066940120111
 31
0.0
  0
LINE
  5
592
330
49D
100
AcDbEntity
  8
0
  6
Continuous
 62
     7
370
    15
100
AcDbLine
 10
207.6953355482003
 20
117.6066940119947
 30
0.0
 11
205.6953355482003
 21
117.6066940120047
 31
0.0
  0
LINE
  5
593
330
49D
100
AcDbEntity
  8
0
  6
Continuous
 62
     7
370
    15
100
AcDbLine
 10
213.1453355481451
 20
117.6066940120025
 30
0.0
 11
212.3953355482004
 21
117.6066940120025
 31
0.0
  0
LINE
  5
594
330
49D
100
AcDbEntity
  8
0
  6
Continuous
 62
     7
370
    15
100
AcDbLine
 10
213.1453355481451
 20
117.6066940120025
 30
0.0
 11
213.1453355481451
 21
117.6067186689749
 31
0.0
  0
LINE
  5
595
330
49D
100
AcDbEntity
  8
0
  6
Continuous
 62
     7
370
    15
100
AcDbLine
 10
174.1953355482003
 20
117.6066940120056
 30
0.0
 11
172.1953355482003
 21
117.6066940120156
 31
0.0
  0
LINE
  5
596
330
49D
100
AcDbEntity
  8
0
  6
Continuous
 62
     7
370
    15
100
AcDbLine
 10
147.3953355482003
 20
117.6066940120125
 30
0.0
 11
146.6453355482003
 21
117.60669401201
 31
0.0
  0
LINE
  5
597
330
49D
100
AcDbEntity
  8
0
  6
Continuous
 62
     7
370
    15
100
AcDbLine
 10
146.6453355482003
 20
117.6067186689783
 30
0.0
 11
146.6453355482003
 21
117.60669401201
 31
0.0
  0
LINE
  5
598
330
49D
100
AcDbEntity
  8
0
  6
Continuous
 62
     7
370
    15
100
AcDbLine
 10
194.2953355482003
 20
117.6066940119991
 30
0.0
 11
192.2953355482003
 21
117.6066940120089
 31
0.0
  0
LINE
  5
599
330
49D
100
AcDbEntity
  8
0
  6
Continuous
 62
     7
370
    15
100
AcDbLine
 10
167.4953355482003
 20
117.6066940120078
 30
0.0
 11
165.4953355482003
 21
117.6066940120176
 31
0.0
  0
LINE
  5
59A
330
49D
100
AcDbEntity
  8
0
  6
Continuous
 62
     7
370
    15
100
AcDbLine
 10
160.7953355482004
 20
117.6066940120098
 30
0.0
 11
158.7953355482003
 21
117.6066940120198
 31
0.0
  0
LINE
  5
59B
330
49D
100
AcDbEntity
  8
0
  6
Continuous
 62
     7
370
    15
100
AcDbLine
 10
200.9953355482004
 20
117.6066940119969
 30
0.0
 11
198.9953355482003
 21
117.6066940120069
 31
0.0
  0
LINE
  5
59C
330
49D
100
AcDbEntity
  8
0
  6
Continuous
 62
     7
370
    15
100
AcDbLine
 10
204.9953355482166
 20
108.9746978059523
 30
0.0
 11
205.2953355482331
 21
109.2746949607913
 31
0.0
  0
LINE
  5
59D
330
49D
100
AcDbEntity
  8
0
  6
Continuous
 62
     7
370
    15
100
AcDbLine
 10
204.9953355482166
 20
108.9746978059523
 30
0.0
 11
201.6953355481702
 21
108.9746978059552
 31
0.0
  0
LINE
  5
59E
330
49D
100
AcDbEntity
  8
0
  6
Continuous
 62
     7
370
    15
100
AcDbLine
 10
201.3953355481674
 20
109.2746949607915
 30
0.0
 11
201.6953355481702
 21
108.9746978059552
 31
0.0
  0
LINE
  5
59F
330
49D
100
AcDbEntity
  8
0
  6
Continuous
 62
     7
370
    15
100
AcDbLine
 10
205.2953355482331
 20
109.2746949607913
 30
0.0
 11
205.2953355482332
 21
109.3746940123688
 31
0.0
  0
LINE
  5
5A0
330
49D
100
AcDbEntity
  8
0
  6
Continuous
 62
     7
370
    15
100
AcDbLine
 10
201.3953355481671
 20
109.3746940123688
 30
0.0
 11
201.3953355481674
 21
109.2746949607915
 31
0.0
  0
LINE
  5
5A1
330
49D
100
AcDbEntity
  8
0
  6
Continuous
 62
     7
370
    15
100
AcDbLine
 10
158.0953355482166
 20
108.9746978059674
 30
0.0
 11
158.3953355482331
 21
109.2746949608064
 31
0.0
  0
LINE
  5
5A2
330
49D
100
AcDbEntity
  8
0
  6
Continuous
 62
     7
370
    15
100
AcDbLine
 10
158.0953355482166
 20
108.9746978059674
 30
0.0
 11
154.7953355481701
 21
108.9746978059703
 31
0.0
  0
LINE
  5
5A3
330
49D
100
AcDbEntity
  8
0
  6
Continuous
 62
     7
370
    15
100
AcDbLine
 10
154.4953355481674
 20
109.2746949608066
 30
0.0
 11
154.7953355481701
 21
108.9746978059703
 31
0.0
  0
LINE
  5
5A4
330
49D
100
AcDbEntity
  8
0
  6
Continuous
 62
     7
370
    15
100
AcDbLine
 10
154.4953355481671
 20
109.3746940123839
 30
0.0
 11
154.4953355481674
 21
109.2746949608066
 31
0.0
  0
LINE
  5
5A5
330
49D
100
AcDbEntity
  8
0
  6
Continuous
 62
     7
370
    15
100
AcDbLine
 10
158.3953355482331
 20
109.2746949608064
 30
0.0
 11
158.3953355482332
 21
109.3746940123839
 31
0.0
  0
LINE
  5
5A6
330
49D
100
AcDbEntity
  8
0
  6
Continuous
 62
     7
370
    15
100
AcDbLine
 10
164.7953355482166
 20
108.9746978059652
 30
0.0
 11
165.0953355482331
 21
109.2746949608042
 31
0.0
  0
LINE
  5
5A7
330
49D
100
AcDbEntity
  8
0
  6
Continuous
 62
     7
370
    15
100
AcDbLine
 10
164.7953355482166
 20
108.9746978059652
 30
0.0
 11
161.4953355481701
 21
108.9746978059681
 31
0.0
  0
LINE
  5
5A8
330
49D
100
AcDbEntity
  8
0
  6
Continuous
 62
     7
370
    15
100
AcDbLine
 10
161.1953355481674
 20
109.2746949608044
 30
0.0
 11
161.4953355481701
 21
108.9746978059681
 31
0.0
  0
LINE
  5
5A9
330
49D
100
AcDbEntity
  8
0
  6
Continuous
 62
     7
370
    15
100
AcDbLine
 10
165.0953355482331
 20
109.2746949608042
 30
0.0
 11
165.0953355482332
 21
109.3746940123817
 31
0.0
  0
LINE
  5
5AA
330
49D
100
AcDbEntity
  8
0
  6
Continuous
 62
     7
370
    15
100
AcDbLine
 10
161.1953355481671
 20
109.3746940123817
 30
0.0
 11
161.1953355481674
 21
109.2746949608044
 31
0.0
  0
LINE
  5
5AB
330
49D
100
AcDbEntity
  8
0
  6
Continuous
 62
     7
370
    15
100
AcDbLine
 10
151.3953355482166
 20
108.9746978059674
 30
0.0
 11
151.6953355482332
 21
109.2746949608066
 31
0.0
  0
LINE
  5
5AC
330
49D
100
AcDbEntity
  8
0
  6
Continuous
 62
     7
370
    15
100
AcDbLine
 10
151.3953355482166
 20
108.9746978059674
 30
0.0
 11
148.0953355481701
 21
108.9746978059703
 31
0.0
  0
LINE
  5
5AD
330
49D
100
AcDbEntity
  8
0
  6
Continuous
 62
     7
370
    15
100
AcDbLine
 10
147.7953355481674
 20
109.2746949608066
 30
0.0
 11
148.0953355481701
 21
108.9746978059703
 31
0.0
  0
LINE
  5
5AE
330
49D
100
AcDbEntity
  8
0
  6
Continuous
 62
     7
370
    15
100
AcDbLine
 10
151.6953355482332
 20
109.2746949608066
 30
0.0
 11
151.6953355482332
 21
109.3746940123839
 31
0.0
  0
LINE
  5
5AF
330
49D
100
AcDbEntity
  8
0
  6
Continuous
 62
     7
370
    15
100
AcDbLine
 10
147.7953355481671
 20
109.3746940123839
 30
0.0
 11
147.7953355481674
 21
109.2746949608066
 31
0.0
  0
LINE
  5
5B0
330
49D
100
AcDbEntity
  8
0
  6
Continuous
 62
     7
370
    15
100
AcDbLine
 10
184.8953355482166
 20
108.9746978059588
 30
0.0
 11
185.1953355482331
 21
109.2746949607977
 31
0.0
  0
LINE
  5
5B1
330
49D
100
AcDbEntity
  8
0
  6
Continuous
 62
     7
370
    15
100
AcDbLine
 10
184.8953355482166
 20
108.9746978059588
 30
0.0
 11
181.5953355481701
 21
108.9746978059616
 31
0.0
  0
LINE
  5
5B2
330
49D
100
AcDbEntity
  8
0
  6
Continuous
 62
     7
370
    15
100
AcDbLine
 10
181.2953355481674
 20
109.274694960798
 30
0.0
 11
181.5953355481701
 21
108.9746978059616
 31
0.0
  0
LINE
  5
5B3
330
49D
100
AcDbEntity
  8
0
  6
Continuous
 62
     7
370
    15
100
AcDbLine
 10
185.1953355482331
 20
109.2746949607977
 30
0.0
 11
185.1953355482332
 21
109.3746940123753
 31
0.0
  0
LINE
  5
5B4
330
49D
100
AcDbEntity
  8
0
  6
Continuous
 62
     7
370
    15
100
AcDbLine
 10
181.2953355481671
 20
109.3746940123753
 30
0.0
 11
181.2953355481674
 21
109.274694960798
 31
0.0
  0
LINE
  5
5B5
330
49D
100
AcDbEntity
  8
0
  6
Continuous
 62
     7
370
    15
100
AcDbLine
 10
211.6953355482166
 20
108.9746978059501
 30
0.0
 11
211.9953355482331
 21
109.2746949607891
 31
0.0
  0
LINE
  5
5B6
330
49D
100
AcDbEntity
  8
0
  6
Continuous
 62
     7
370
    15
100
AcDbLine
 10
211.6953355482166
 20
108.9746978059501
 30
0.0
 11
208.3953355481701
 21
108.974697805953
 31
0.0
  0
LINE
  5
5B7
330
49D
100
AcDbEntity
  8
0
  6
Continuous
 62
     7
370
    15
100
AcDbLine
 10
208.0953355481674
 20
109.2746949607893
 30
0.0
 11
208.3953355481701
 21
108.974697805953
 31
0.0
  0
LINE
  5
5B8
330
49D
100
AcDbEntity
  8
0
  6
Continuous
 62
     7
370
    15
100
AcDbLine
 10
211.9953355482331
 20
109.2746949607891
 30
0.0
 11
211.9953355482332
 21
109.3746940123666
 31
0.0
  0
LINE
  5
5B9
330
49D
100
AcDbEntity
  8
0
  6
Continuous
 62
     7
370
    15
100
AcDbLine
 10
208.0953355481671
 20
109.3746940123666
 30
0.0
 11
208.0953355481674
 21
109.2746949607893
 31
0.0
  0
LINE
  5
5BA
330
49D
100
AcDbEntity
  8
0
  6
Continuous
 62
     7
370
    15
100
AcDbLine
 10
171.4953355482166
 20
108.9746978059632
 30
0.0
 11
171.7953355482331
 21
109.2746949608022
 31
0.0
  0
LINE
  5
5BB
330
49D
100
AcDbEntity
  8
0
  6
Continuous
 62
     7
370
    15
100
AcDbLine
 10
171.4953355482166
 20
108.9746978059632
 30
0.0
 11
168.1953355481701
 21
108.9746978059661
 31
0.0
  0
LINE
  5
5BC
330
49D
100
AcDbEntity
  8
0
  6
Continuous
 62
     7
370
    15
100
AcDbLine
 10
167.8953355481674
 20
109.2746949608024
 30
0.0
 11
168.1953355481701
 21
108.9746978059661
 31
0.0
  0
LINE
  5
5BD
330
49D
100
AcDbEntity
  8
0
  6
Continuous
 62
     7
370
    15
100
AcDbLine
 10
171.7953355482331
 20
109.2746949608022
 30
0.0
 11
171.7953355482332
 21
109.3746940123797
 31
0.0
  0
LINE
  5
5BE
330
49D
100
AcDbEntity
  8
0
  6
Continuous
 62
     7
370
    15
100
AcDbLine
 10
167.8953355481671
 20
109.3746940123797
 30
0.0
 11
167.8953355481674
 21
109.2746949608024
 31
0.0
  0
LINE
  5
5BF
330
49D
100
AcDbEntity
  8
0
  6
Continuous
 62
     7
370
    15
100
AcDbLine
 10
198.2953355482166
 20
108.9746978059545
 30
0.0
 11
198.5953355482331
 21
109.2746949607935
 31
0.0
  0
LINE
  5
5C0
330
49D
100
AcDbEntity
  8
0
  6
Continuous
 62
     7
370
    15
100
AcDbLine
 10
198.2953355482166
 20
108.9746978059545
 30
0.0
 11
194.9953355481702
 21
108.9746978059574
 31
0.0
  0
LINE
  5
5C1
330
49D
100
AcDbEntity
  8
0
  6
Continuous
 62
     7
370
    15
100
AcDbLine
 10
194.6953355481674
 20
109.2746949607937
 30
0.0
 11
194.9953355481702
 21
108.9746978059574
 31
0.0
  0
LINE
  5
5C2
330
49D
100
AcDbEntity
  8
0
  6
Continuous
 62
     7
370
    15
100
AcDbLine
 10
194.6953355481671
 20
109.374694012371
 30
0.0
 11
194.6953355481674
 21
109.2746949607937
 31
0.0
  0
LINE
  5
5C3
330
49D
100
AcDbEntity
  8
0
  6
Continuous
 62
     7
370
    15
100
AcDbLine
 10
198.5953355482331
 20
109.2746949607935
 30
0.0
 11
198.5953355482332
 21
109.374694012371
 31
0.0
  0
LINE
  5
5C4
330
49D
100
AcDbEntity
  8
0
  6
Continuous
 62
     7
370
    15
100
AcDbLine
 10
178.1953355482166
 20
108.974697805961
 30
0.0
 11
178.4953355482331
 21
109.2746949608
 31
0.0
  0
LINE
  5
5C5
330
49D
100
AcDbEntity
  8
0
  6
Continuous
 62
     7
370
    15
100
AcDbLine
 10
178.1953355482166
 20
108.974697805961
 30
0.0
 11
174.8953355481701
 21
108.9746978059639
 31
0.0
  0
LINE
  5
5C6
330
49D
100
AcDbEntity
  8
0
  6
Continuous
 62
     7
370
    15
100
AcDbLine
 10
174.5953355481674
 20
109.2746949608002
 30
0.0
 11
174.8953355481701
 21
108.9746978059639
 31
0.0
  0
LINE
  5
5C7
330
49D
100
AcDbEntity
  8
0
  6
Continuous
 62
     7
370
    15
100
AcDbLine
 10
174.5953355481671
 20
109.3746940123775
 30
0.0
 11
174.5953355481674
 21
109.2746949608002
 31
0.0
  0
LINE
  5
5C8
330
49D
100
AcDbEntity
  8
0
  6
Continuous
 62
     7
370
    15
100
AcDbLine
 10
178.4953355482331
 20
109.2746949608
 30
0.0
 11
178.4953355482332
 21
109.3746940123775
 31
0.0
  0
LINE
  5
5C9
330
49D
100
AcDbEntity
  8
0
  6
Continuous
 62
     7
370
    15
100
AcDbLine
 10
191.5953355482166
 20
108.9746978059565
 30
0.0
 11
191.8953355482331
 21
109.2746949607955
 31
0.0
  0
LINE
  5
5CA
330
49D
100
AcDbEntity
  8
0
  6
Continuous
 62
     7
370
    15
100
AcDbLine
 10
191.5953355482166
 20
108.9746978059565
 30
0.0
 11
188.2953355481701
 21
108.9746978059594
 31
0.0
  0
LINE
  5
5CB
330
49D
100
AcDbEntity
  8
0
  6
Continuous
 62
     7
370
    15
100
AcDbLine
 10
187.9953355481674
 20
109.2746949607957
 30
0.0
 11
188.2953355481701
 21
108.9746978059594
 31
0.0
  0
LINE
  5
5CC
330
49D
100
AcDbEntity
  8
0
  6
Continuous
 62
     7
370
    15
100
AcDbLine
 10
191.8953355482331
 20
109.2746949607955
 30
0.0
 11
191.8953355482332
 21
109.374694012373
 31
0.0
  0
LINE
  5
5CD
330
49D
100
AcDbEntity
  8
0
  6
Continuous
 62
     7
370
    15
100
AcDbLine
 10
187.9953355481671
 20
109.374694012373
 30
0.0
 11
187.9953355481674
 21
109.2746949607957
 31
0.0
  0
LINE
  5
5CE
330
49D
100
AcDbEntity
  8
0
  6
Continuous
 62
     7
370
    15
100
AcDbLine
 10
178.0453355480893
 20
108.017970723281
 30
0.0
 11
175.0453355480624
 21
108.0179702593618
 31
0.0
  0
LINE
  5
5CF
330
49D
100
AcDbEntity
  8
0
  6
Continuous
 62
     7
370
    15
100
AcDbLine
 10
178.0453355480893
 20
108.017970723281
 30
0.0
 11
178.0453355480494
 21
108.0179702593698
 31
0.0
  0
LINE
  5
5D0
330
49D
100
AcDbEntity
  8
0
  6
Continuous
 62
     7
370
    15
100
AcDbLine
 10
175.0453355480624
 20
108.0179697954476
 30
0.0
 11
175.0453355480624
 21
108.0179702593618
 31
0.0
  0
LINE
  5
5D1
330
49D
100
AcDbEntity
  8
0
  6
Continuous
 62
     7
370
    15
100
AcDbLine
 10
157.9453355480893
 20
108.0179707232874
 30
0.0
 11
154.9453355480624
 21
108.0179702593683
 31
0.0
  0
LINE
  5
5D2
330
49D
100
AcDbEntity
  8
0
  6
Continuous
 62
     7
370
    15
100
AcDbLine
 10
157.9453355480893
 20
108.0179707232874
 30
0.0
 11
157.9453355480494
 21
108.0179702593763
 31
0.0
  0
LINE
  5
5D3
330
49D
100
AcDbEntity
  8
0
  6
Continuous
 62
     7
370
    15
100
AcDbLine
 10
154.9453355480624
 20
108.017969795454
 30
0.0
 11
154.9453355480624
 21
108.0179702593683
 31
0.0
  0
LINE
  5
5D4
330
49D
100
AcDbEntity
  8
0
  6
Continuous
 62
     7
370
    15
100
AcDbLine
 10
151.2453355480843
 20
108.0179707232874
 30
0.0
 11
148.2453355480625
 21
108.0179702593683
 31
0.0
  0
LINE
  5
5D5
330
49D
100
AcDbEntity
  8
0
  6
Continuous
 62
     7
370
    15
100
AcDbLine
 10
151.2453355480843
 20
108.0179707232874
 30
0.0
 11
151.2453355480493
 21
108.0179702593763
 31
0.0
  0
LINE
  5
5D6
330
49D
100
AcDbEntity
  8
0
  6
Continuous
 62
     7
370
    15
100
AcDbLine
 10
148.2453355480625
 20
108.017969795454
 30
0.0
 11
148.2453355480625
 21
108.0179702593683
 31
0.0
  0
LINE
  5
5D7
330
49D
100
AcDbEntity
  8
0
  6
Continuous
 62
     7
370
    15
100
AcDbLine
 10
184.7453355480893
 20
108.0179707232787
 30
0.0
 11
181.7453355480625
 21
108.0179702593596
 31
0.0
  0
LINE
  5
5D8
330
49D
100
AcDbEntity
  8
0
  6
Continuous
 62
     7
370
    15
100
AcDbLine
 10
184.7453355480893
 20
108.0179707232787
 30
0.0
 11
184.7453355480494
 21
108.0179702593676
 31
0.0
  0
LINE
  5
5D9
330
49D
100
AcDbEntity
  8
0
  6
Continuous
 62
     7
370
    15
100
AcDbLine
 10
181.7453355480625
 20
108.0179697954454
 30
0.0
 11
181.7453355480625
 21
108.0179702593596
 31
0.0
  0
LINE
  5
5DA
330
49D
100
AcDbEntity
  8
0
  6
Continuous
 62
     7
370
    15
100
AcDbLine
 10
191.4453355480893
 20
108.0179707232765
 30
0.0
 11
188.4453355480625
 21
108.0179702593574
 31
0.0
  0
LINE
  5
5DB
330
49D
100
AcDbEntity
  8
0
  6
Continuous
 62
     7
370
    15
100
AcDbLine
 10
191.4453355480893
 20
108.0179707232765
 30
0.0
 11
191.4453355480494
 21
108.0179702593654
 31
0.0
  0
LINE
  5
5DC
330
49D
100
AcDbEntity
  8
0
  6
Continuous
 62
     7
370
    15
100
AcDbLine
 10
188.4453355480625
 20
108.0179697954432
 30
0.0
 11
188.4453355480625
 21
108.0179702593574
 31
0.0
  0
LINE
  5
5DD
330
49D
100
AcDbEntity
  8
0
  6
Continuous
 62
     7
370
    15
100
AcDbLine
 10
198.1453355480893
 20
108.0179707232745
 30
0.0
 11
195.1453355480625
 21
108.0179702593554
 31
0.0
  0
LINE
  5
5DE
330
49D
100
AcDbEntity
  8
0
  6
Continuous
 62
     7
370
    15
100
AcDbLine
 10
195.1453355480625
 20
108.0179697954412
 30
0.0
 11
195.1453355480625
 21
108.0179702593554
 31
0.0
  0
LINE
  5
5DF
330
49D
100
AcDbEntity
  8
0
  6
Continuous
 62
     7
370
    15
100
AcDbLine
 10
198.1453355480893
 20
108.0179707232745
 30
0.0
 11
198.1453355480494
 21
108.0179702593634
 31
0.0
  0
LINE
  5
5E0
330
49D
100
AcDbEntity
  8
0
  6
Continuous
 62
     7
370
    15
100
AcDbLine
 10
211.5453355480893
 20
108.0179707232701
 30
0.0
 11
208.5453355480625
 21
108.017970259351
 31
0.0
  0
LINE
  5
5E1
330
49D
100
AcDbEntity
  8
0
  6
Continuous
 62
     7
370
    15
100
AcDbLine
 10
211.5453355480893
 20
108.0179707232701
 30
0.0
 11
211.5453355480494
 21
108.0179702593589
 31
0.0
  0
LINE
  5
5E2
330
49D
100
AcDbEntity
  8
0
  6
Continuous
 62
     7
370
    15
100
AcDbLine
 10
208.5453355480625
 20
108.0179697954367
 30
0.0
 11
208.5453355480625
 21
108.017970259351
 31
0.0
  0
LINE
  5
5E3
330
49D
100
AcDbEntity
  8
0
  6
Continuous
 62
     7
370
    15
100
AcDbLine
 10
164.6453355480893
 20
108.0179707232852
 30
0.0
 11
161.6453355480625
 21
108.0179702593661
 31
0.0
  0
LINE
  5
5E4
330
49D
100
AcDbEntity
  8
0
  6
Continuous
 62
     7
370
    15
100
AcDbLine
 10
164.6453355480893
 20
108.0179707232852
 30
0.0
 11
164.6453355480494
 21
108.017970259374
 31
0.0
  0
LINE
  5
5E5
330
49D
100
AcDbEntity
  8
0
  6
Continuous
 62
     7
370
    15
100
AcDbLine
 10
161.6453355480625
 20
108.0179697954518
 30
0.0
 11
161.6453355480625
 21
108.0179702593661
 31
0.0
  0
LINE
  5
5E6
330
49D
100
AcDbEntity
  8
0
  6
Continuous
 62
     7
370
    15
100
AcDbLine
 10
171.3453355480893
 20
108.0179707232832
 30
0.0
 11
168.3453355480625
 21
108.0179702593641
 31
0.0
  0
LINE
  5
5E7
330
49D
100
AcDbEntity
  8
0
  6
Continuous
 62
     7
370
    15
100
AcDbLine
 10
171.3453355480893
 20
108.0179707232832
 30
0.0
 11
171.3453355480494
 21
108.017970259372
 31
0.0
  0
LINE
  5
5E8
330
49D
100
AcDbEntity
  8
0
  6
Continuous
 62
     7
370
    15
100
AcDbLine
 10
168.3453355480625
 20
108.0179697954498
 30
0.0
 11
168.3453355480625
 21
108.0179702593641
 31
0.0
  0
LINE
  5
5E9
330
49D
100
AcDbEntity
  8
0
  6
Continuous
 62
     7
370
    15
100
AcDbLine
 10
204.8453355480893
 20
108.0179707232723
 30
0.0
 11
201.8453355480625
 21
108.0179702593532
 31
0.0
  0
LINE
  5
5EA
330
49D
100
AcDbEntity
  8
0
  6
Continuous
 62
     7
370
    15
100
AcDbLine
 10
204.8453355480893
 20
108.0179707232723
 30
0.0
 11
204.8453355480494
 21
108.0179702593612
 31
0.0
  0
LINE
  5
5EB
330
49D
100
AcDbEntity
  8
0
  6
Continuous
 62
     7
370
    15
100
AcDbLine
 10
201.8453355480625
 20
108.0179697954389
 30
0.0
 11
201.8453355480625
 21
108.0179702593532
 31
0.0
  0
LINE
  5
5EC
330
49D
100
AcDbEntity
  8
0
  6
Continuous
 62
     7
370
    15
100
AcDbLine
 10
198.1453355481292
 20
108.2179711974787
 30
0.0
 11
195.1453355480623
 21
108.2179721458643
 31
0.0
  0
LINE
  5
5ED
330
49D
100
AcDbEntity
  8
0
  6
Continuous
 62
     7
370
    15
100
AcDbLine
 10
195.1453355480625
 20
108.0179702593554
 30
0.0
 11
195.1453355480623
 21
108.2179721458643
 31
0.0
  0
LINE
  5
5EE
330
49D
100
AcDbEntity
  8
0
  6
Continuous
 62
     7
370
    15
100
AcDbLine
 10
198.1453355481292
 20
108.2179711974787
 30
0.0
 11
198.1453355480893
 21
108.0179707232745
 31
0.0
  0
LINE
  5
5EF
330
49D
100
AcDbEntity
  8
0
  6
Continuous
 62
     7
370
    15
100
AcDbLine
 10
151.2453355481192
 20
108.2179711974916
 30
0.0
 11
148.2453355480623
 21
108.2179721458772
 31
0.0
  0
LINE
  5
5F0
330
49D
100
AcDbEntity
  8
0
  6
Continuous
 62
     7
370
    15
100
AcDbLine
 10
151.2453355481192
 20
108.2179711974916
 30
0.0
 11
151.2453355480843
 21
108.0179707232874
 31
0.0
  0
LINE
  5
5F1
330
49D
100
AcDbEntity
  8
0
  6
Continuous
 62
     7
370
    15
100
AcDbLine
 10
148.2453355480625
 20
108.0179702593683
 30
0.0
 11
148.2453355480623
 21
108.2179721458772
 31
0.0
  0
LINE
  5
5F2
330
49D
100
AcDbEntity
  8
0
  6
Continuous
 62
     7
370
    15
100
AcDbLine
 10
184.7453355481292
 20
108.2179711974829
 30
0.0
 11
181.7453355480623
 21
108.2179721458685
 31
0.0
  0
LINE
  5
5F3
330
49D
100
AcDbEntity
  8
0
  6
Continuous
 62
     7
370
    15
100
AcDbLine
 10
184.7453355481292
 20
108.2179711974829
 30
0.0
 11
184.7453355480893
 21
108.0179707232787
 31
0.0
  0
LINE
  5
5F4
330
49D
100
AcDbEntity
  8
0
  6
Continuous
 62
     7
370
    15
100
AcDbLine
 10
181.7453355480625
 20
108.0179702593596
 30
0.0
 11
181.7453355480623
 21
108.2179721458685
 31
0.0
  0
LINE
  5
5F5
330
49D
100
AcDbEntity
  8
0
  6
Continuous
 62
     7
370
    15
100
AcDbLine
 10
171.3453355481292
 20
108.2179711974874
 30
0.0
 11
168.3453355480623
 21
108.217972145873
 31
0.0
  0
LINE
  5
5F6
330
49D
100
AcDbEntity
  8
0
  6
Continuous
 62
     7
370
    15
100
AcDbLine
 10
171.3453355481292
 20
108.2179711974874
 30
0.0
 11
171.3453355480893
 21
108.0179707232832
 31
0.0
  0
LINE
  5
5F7
330
49D
100
AcDbEntity
  8
0
  6
Continuous
 62
     7
370
    15
100
AcDbLine
 10
168.3453355480625
 20
108.0179702593641
 30
0.0
 11
168.3453355480623
 21
108.217972145873
 31
0.0
  0
LINE
  5
5F8
330
49D
100
AcDbEntity
  8
0
  6
Continuous
 62
     7
370
    15
100
AcDbLine
 10
191.4453355481292
 20
108.2179711974807
 30
0.0
 11
188.4453355480623
 21
108.2179721458663
 31
0.0
  0
LINE
  5
5F9
330
49D
100
AcDbEntity
  8
0
  6
Continuous
 62
     7
370
    15
100
AcDbLine
 10
191.4453355481292
 20
108.2179711974807
 30
0.0
 11
191.4453355480893
 21
108.0179707232765
 31
0.0
  0
LINE
  5
5FA
330
49D
100
AcDbEntity
  8
0
  6
Continuous
 62
     7
370
    15
100
AcDbLine
 10
188.4453355480625
 20
108.0179702593574
 30
0.0
 11
188.4453355480623
 21
108.2179721458663
 31
0.0
  0
LINE
  5
5FB
330
49D
100
AcDbEntity
  8
0
  6
Continuous
 62
     7
370
    15
100
AcDbLine
 10
164.6453355481292
 20
108.2179711974894
 30
0.0
 11
161.6453355480623
 21
108.217972145875
 31
0.0
  0
LINE
  5
5FC
330
49D
100
AcDbEntity
  8
0
  6
Continuous
 62
     7
370
    15
100
AcDbLine
 10
164.6453355481292
 20
108.2179711974894
 30
0.0
 11
164.6453355480893
 21
108.0179707232852
 31
0.0
  0
LINE
  5
5FD
330
49D
100
AcDbEntity
  8
0
  6
Continuous
 62
     7
370
    15
100
AcDbLine
 10
161.6453355480625
 20
108.0179702593661
 30
0.0
 11
161.6453355480623
 21
108.217972145875
 31
0.0
  0
LINE
  5
5FE
330
49D
100
AcDbEntity
  8
0
  6
Continuous
 62
     7
370
    15
100
AcDbLine
 10
157.9453355481292
 20
108.2179711974916
 30
0.0
 11
154.9453355480623
 21
108.2179721458772
 31
0.0
  0
LINE
  5
5FF
330
49D
100
AcDbEntity
  8
0
  6
Continuous
 62
     7
370
    15
100
AcDbLine
 10
157.9453355481292
 20
108.2179711974916
 30
0.0
 11
157.9453355480893
 21
108.0179707232874
 31
0.0
  0
LINE
  5
600
330
49D
100
AcDbEntity
  8
0
  6
Continuous
 62
     7
370
    15
100
AcDbLine
 10
154.9453355480624
 20
108.0179702593683
 30
0.0
 11
154.9453355480623
 21
108.2179721458772
 31
0.0
  0
LINE
  5
601
330
49D
100
AcDbEntity
  8
0
  6
Continuous
 62
     7
370
    15
100
AcDbLine
 10
204.8453355481292
 20
108.2179711974765
 30
0.0
 11
201.8453355480623
 21
108.2179721458621
 31
0.0
  0
LINE
  5
602
330
49D
100
AcDbEntity
  8
0
  6
Continuous
 62
     7
370
    15
100
AcDbLine
 10
204.8453355481292
 20
108.2179711974765
 30
0.0
 11
204.8453355480893
 21
108.0179707232723
 31
0.0
  0
LINE
  5
603
330
49D
100
AcDbEntity
  8
0
  6
Continuous
 62
     7
370
    15
100
AcDbLine
 10
201.8453355480625
 20
108.0179702593532
 30
0.0
 11
201.8453355480623
 21
108.2179721458621
 31
0.0
  0
LINE
  5
604
330
49D
100
AcDbEntity
  8
0
  6
Continuous
 62
     7
370
    15
100
AcDbLine
 10
211.5453355481292
 20
108.2179711974743
 30
0.0
 11
208.5453355480623
 21
108.2179721458599
 31
0.0
  0
LINE
  5
605
330
49D
100
AcDbEntity
  8
0
  6
Continuous
 62
     7
370
    15
100
AcDbLine
 10
211.5453355481292
 20
108.2179711974743
 30
0.0
 11
211.5453355480893
 21
108.0179707232701
 31
0.0
  0
LINE
  5
606
330
49D
100
AcDbEntity
  8
0
  6
Continuous
 62
     7
370
    15
100
AcDbLine
 10
208.5453355480625
 20
108.017970259351
 30
0.0
 11
208.5453355480623
 21
108.2179721458599
 31
0.0
  0
LINE
  5
607
330
49D
100
AcDbEntity
  8
0
  6
Continuous
 62
     7
370
    15
100
AcDbLine
 10
178.0453355481292
 20
108.2179711974852
 30
0.0
 11
175.0453355480623
 21
108.2179721458708
 31
0.0
  0
LINE
  5
608
330
49D
100
AcDbEntity
  8
0
  6
Continuous
 62
     7
370
    15
100
AcDbLine
 10
178.0453355481292
 20
108.2179711974852
 30
0.0
 11
178.0453355480893
 21
108.017970723281
 31
0.0
  0
LINE
  5
609
330
49D
100
AcDbEntity
  8
0
  6
Continuous
 62
     7
370
    15
100
AcDbLine
 10
175.0453355480624
 20
108.0179702593618
 30
0.0
 11
175.0453355480623
 21
108.2179721458708
 31
0.0
  0
LINE
  5
60A
330
49D
100
AcDbEntity
  8
0
  6
Continuous
 62
     7
370
    15
100
AcDbLine
 10
204.845335548048
 20
108.974700651118
 30
0.0
 11
204.8453355481292
 21
108.2179711974765
 31
0.0
  0
LINE
  5
60B
330
49D
100
AcDbEntity
  8
0
  6
Continuous
 62
     7
370
    15
100
AcDbLine
 10
201.8453355480623
 20
108.2179721458621
 30
0.0
 11
201.8453355480611
 21
108.974700651118
 31
0.0
  0
LINE
  5
60C
330
49D
100
AcDbEntity
  8
0
  6
Continuous
 62
     7
370
    15
100
AcDbLine
 10
157.945335548048
 20
108.9747006511331
 30
0.0
 11
157.9453355481292
 21
108.2179711974916
 31
0.0
  0
LINE
  5
60D
330
49D
100
AcDbEntity
  8
0
  6
Continuous
 62
     7
370
    15
100
AcDbLine
 10
154.9453355480623
 20
108.2179721458772
 30
0.0
 11
154.9453355480611
 21
108.9747006511331
 31
0.0
  0
LINE
  5
60E
330
49D
100
AcDbEntity
  8
0
  6
Continuous
 62
     7
370
    15
100
AcDbLine
 10
164.645335548048
 20
108.9747006511309
 30
0.0
 11
164.6453355481292
 21
108.2179711974894
 31
0.0
  0
LINE
  5
60F
330
49D
100
AcDbEntity
  8
0
  6
Continuous
 62
     7
370
    15
100
AcDbLine
 10
161.6453355480623
 20
108.217972145875
 30
0.0
 11
161.6453355480611
 21
108.9747006511309
 31
0.0
  0
LINE
  5
610
330
49D
100
AcDbEntity
  8
0
  6
Continuous
 62
     7
370
    15
100
AcDbLine
 10
195.1453355480623
 20
108.2179721458643
 30
0.0
 11
195.1453355480611
 21
108.9747006511202
 31
0.0
  0
LINE
  5
611
330
49D
100
AcDbEntity
  8
0
  6
Continuous
 62
     7
370
    15
100
AcDbLine
 10
198.145335548048
 20
108.9747006511202
 30
0.0
 11
198.1453355481292
 21
108.2179711974787
 31
0.0
  0
LINE
  5
612
330
49D
100
AcDbEntity
  8
0
  6
Continuous
 62
     7
370
    15
100
AcDbLine
 10
171.345335548048
 20
108.9747006511289
 30
0.0
 11
171.3453355481292
 21
108.2179711974874
 31
0.0
  0
LINE
  5
613
330
49D
100
AcDbEntity
  8
0
  6
Continuous
 62
     7
370
    15
100
AcDbLine
 10
168.3453355480623
 20
108.217972145873
 30
0.0
 11
168.3453355480611
 21
108.9747006511289
 31
0.0
  0
LINE
  5
614
330
49D
100
AcDbEntity
  8
0
  6
Continuous
 62
     7
370
    15
100
AcDbLine
 10
178.045335548048
 20
108.9747006511266
 30
0.0
 11
178.0453355481292
 21
108.2179711974852
 31
0.0
  0
LINE
  5
615
330
49D
100
AcDbEntity
  8
0
  6
Continuous
 62
     7
370
    15
100
AcDbLine
 10
175.0453355480623
 20
108.2179721458708
 30
0.0
 11
175.0453355480611
 21
108.9747006511266
 31
0.0
  0
LINE
  5
616
330
49D
100
AcDbEntity
  8
0
  6
Continuous
 62
     7
370
    15
100
AcDbLine
 10
184.745335548048
 20
108.9747006511244
 30
0.0
 11
184.7453355481292
 21
108.2179711974829
 31
0.0
  0
LINE
  5
617
330
49D
100
AcDbEntity
  8
0
  6
Continuous
 62
     7
370
    15
100
AcDbLine
 10
181.7453355480623
 20
108.2179721458685
 30
0.0
 11
181.7453355480611
 21
108.9747006511244
 31
0.0
  0
LINE
  5
618
330
49D
100
AcDbEntity
  8
0
  6
Continuous
 62
     7
370
    15
100
AcDbLine
 10
191.445335548048
 20
108.9747006511222
 30
0.0
 11
191.4453355481292
 21
108.2179711974807
 31
0.0
  0
LINE
  5
619
330
49D
100
AcDbEntity
  8
0
  6
Continuous
 62
     7
370
    15
100
AcDbLine
 10
188.4453355480623
 20
108.2179721458663
 30
0.0
 11
188.4453355480611
 21
108.9747006511222
 31
0.0
  0
LINE
  5
61A
330
49D
100
AcDbEntity
  8
0
  6
Continuous
 62
     7
370
    15
100
AcDbLine
 10
211.5453355480481
 20
108.9747006511158
 30
0.0
 11
211.5453355481292
 21
108.2179711974743
 31
0.0
  0
LINE
  5
61B
330
49D
100
AcDbEntity
  8
0
  6
Continuous
 62
     7
370
    15
100
AcDbLine
 10
208.5453355480623
 20
108.2179721458599
 30
0.0
 11
208.5453355480611
 21
108.9747006511158
 31
0.0
  0
LINE
  5
61C
330
49D
100
AcDbEntity
  8
0
  6
Continuous
 62
     7
370
    15
100
AcDbLine
 10
151.245335548048
 20
108.9747006511331
 30
0.0
 11
151.2453355481192
 21
108.2179711974916
 31
0.0
  0
LINE
  5
61D
330
49D
100
AcDbEntity
  8
0
  6
Continuous
 62
     7
370
    15
100
AcDbLine
 10
148.2453355480623
 20
108.2179721458772
 30
0.0
 11
148.2453355480611
 21
108.9747006511331
 31
0.0
  0
ENDBLK
  5
49F
330
49D
100
AcDbEntity
  8
0
100
AcDbBlockEnd
  0
BLOCK
  5
620
330
61F
100
AcDbEntity
  8
0
100
AcDbBlockBegin
  2
2
 70
     0
 10
0.0
 20
0.0
 30
0.0
  3
2
  1

  0
LINE
  5
622
330
61F
100
AcDbEntity
  8
0
  6
Continuous
 62
     7
370
    15
100
AcDbLine
 10
134.0936429570139
 20
117.6066940120025
 30
0.0
 11
131.493753880072
 21
117.606718668975
 31
0.0
  0
LINE
  5
623
330
61F
100
AcDbEntity
  8
0
  6
Continuous
 62
     7
370
    15
100
AcDbLine
 10
131.493753880072
 20
117.606718668975
 30
0.0
 11
131.4937107477308
 21
122.1546940117944
 31
0.0
  0
LINE
  5
624
330
61F
100
AcDbEntity
  8
0
  6
Continuous
 62
     7
370
    15
100
AcDbLine
 10
130.6937107477655
 20
122.1546864247099
 30
0.0
 11
131.4937107477308
 21
122.1546940117944
 31
0.0
  0
LINE
  5
625
330
61F
100
AcDbEntity
  8
0
  6
Continuous
 62
     7
370
    15
100
AcDbLine
 10
130.6937107477655
 20
122.1546864247099
 30
0.0
 11
130.6936984187533
 21
123.4546864246523
 31
0.0
  0
LINE
  5
626
330
61F
100
AcDbEntity
  8
0
  6
Continuous
 62
     7
370
    15
100
AcDbLine
 10
130.6936984187533
 20
123.4546864246523
 30
0.0
 11
134.8936984189428
 21
123.454726256848
 31
0.0
  0
LINE
  5
627
330
61F
100
AcDbEntity
  8
0
  6
Continuous
 62
     7
370
    15
100
AcDbLine
 10
134.8936860895529
 20
122.1546864247099
 30
0.0
 11
134.093686089589
 21
122.1546940117944
 31
0.0
  0
LINE
  5
628
330
61F
100
AcDbEntity
  8
0
  6
Continuous
 62
     7
370
    15
100
AcDbLine
 10
134.093686089589
 20
122.1546940117944
 30
0.0
 11
134.0936429570139
 21
117.6066940120025
 31
0.0
  0
LINE
  5
629
330
61F
100
AcDbEntity
  8
0
  6
Continuous
 62
     7
370
    15
100
AcDbLine
 10
134.8936984189428
 20
123.454726256848
 30
0.0
 11
134.8936860895529
 21
122.1546864247099
 31
0.0
  0
LINE
  5
62A
330
61F
100
AcDbEntity
  8
0
  6
Continuous
 62
     7
370
    15
100
AcDbLine
 10
131.4938193189095
 20
110.5766940123437
 30
0.0
 11
134.0935775186441
 21
110.5767186680749
 31
0.0
  0
LINE
  5
62B
330
61F
100
AcDbEntity
  8
0
  6
Continuous
 62
     7
370
    15
100
AcDbLine
 10
131.4938155253671
 20
110.9766940122921
 30
0.0
 11
134.0935813121864
 21
110.9767186680955
 31
0.0
  0
LINE
  5
62C
330
61F
100
AcDbEntity
  8
0
  6
Continuous
 62
     7
370
    15
100
AcDbLine
 10
131.4938193189095
 20
110.5766940123437
 30
0.0
 11
131.4938155253671
 21
110.9766940122921
 31
0.0
  0
LINE
  5
62D
330
61F
100
AcDbEntity
  8
0
  6
Continuous
 62
     7
370
    15
100
AcDbLine
 10
134.0935775186441
 20
110.5767186680749
 30
0.0
 11
134.0935813121864
 21
110.9767186680955
 31
0.0
  0
LINE
  5
62E
330
61F
100
AcDbEntity
  8
0
  6
Continuous
 62
     7
370
    15
100
AcDbLine
 10
131.493753880072
 20
117.606718668975
 30
0.0
 11
131.4938155253671
 21
110.9766940122921
 31
0.0
  0
LINE
  5
62F
330
61F
100
AcDbEntity
  8
0
  6
Continuous
 62
     7
370
    15
100
AcDbLine
 10
134.0936429570139
 20
117.6066940120025
 30
0.0
 11
134.0935813121864
 21
110.9767186680955
 31
0.0
  0
LINE
  5
630
330
61F
100
AcDbEntity
  8
0
  6
Continuous
 62
     7
370
    15
100
AcDbLine
 10
133.9935879298429
 20
109.2747177197318
 30
0.0
 11
131.5938316668528
 21
109.2746949607891
 31
0.0
  0
LINE
  5
631
330
61F
100
AcDbEntity
  8
0
  6
Continuous
 62
     7
370
    15
100
AcDbLine
 10
131.5938316668528
 20
109.2746949607891
 30
0.0
 11
131.4938307185039
 21
109.3746940123666
 31
0.0
  0
LINE
  5
632
330
61F
100
AcDbEntity
  8
0
  6
Continuous
 62
     7
370
    15
100
AcDbLine
 10
133.9935879298429
 20
109.2747177197318
 30
0.0
 11
134.0935661188159
 21
109.3746940123657
 31
0.0
  0
LINE
  5
633
330
61F
100
AcDbEntity
  8
0
  6
Continuous
 62
     7
370
    15
100
AcDbLine
 10
131.4938193189095
 20
110.5766940123437
 30
0.0
 11
131.4938307185039
 21
109.3746940123666
 31
0.0
  0
LINE
  5
634
330
61F
100
AcDbEntity
  8
0
  6
Continuous
 62
     7
370
    15
100
AcDbLine
 10
134.0935661188159
 20
109.3746940123657
 30
0.0
 11
134.0935775186441
 21
110.5767186680749
 31
0.0
  0
LINE
  5
635
330
61F
100
AcDbEntity
  8
0
  6
Continuous
 62
     7
370
    15
100
AcDbLine
 10
133.6935793941394
 20
108.9747148744601
 30
0.0
 11
131.8938345120189
 21
108.9746978059501
 31
0.0
  0
LINE
  5
636
330
61F
100
AcDbEntity
  8
0
  6
Continuous
 62
     7
370
    15
100
AcDbLine
 10
131.8938345120189
 20
108.9746978059501
 30
0.0
 11
131.5938316668528
 21
109.2746949607891
 31
0.0
  0
LINE
  5
637
330
61F
100
AcDbEntity
  8
0
  6
Continuous
 62
     7
370
    15
100
AcDbLine
 10
133.6935793941394
 20
108.9747148744601
 30
0.0
 11
133.9935879298429
 21
109.2747177197318
 31
0.0
  0
LINE
  5
638
330
61F
100
AcDbEntity
  8
0
  6
Continuous
 62
     7
370
    15
100
AcDbLine
 10
133.3938416886547
 20
108.2179844748724
 30
0.0
 11
133.3938345119596
 21
108.9747120317424
 31
0.0
  0
ARC
  5
639
330
61F
100
AcDbEntity
  8
0
  6
Continuous
 62
     7
370
    15
100
AcDbCircle
 10
133.5938416886502
 20
108.2179858974336
 30
0.0
 40
0.2000000000005856
100
AcDbArc
 50
180.0004075337604
 51
270.0000679232577
  0
LINE
  5
63A
330
61F
100
AcDbEntity
  8
0
  6
Continuous
 62
     7
370
    15
100
AcDbLine
 10
133.9416792724327
 20
108.0179868252887
 30
0.0
 11
133.5938419257465
 21
108.0179863613614
 31
0.0
  0
ARC
  5
63B
330
61F
100
AcDbEntity
  8
0
  6
Continuous
 62
     7
370
    15
100
AcDbCircle
 10
133.9416792724327
 20
107.8179868252929
 30
0.0
 40
0.1999999999998596
100
AcDbArc
 50
0.0005433847906735
 51
90.0
  0
LINE
  5
63C
330
61F
100
AcDbEntity
  8
0
  6
Continuous
 62
     7
370
    15
100
AcDbLine
 10
134.1416792724235
 20
107.8179887220637
 30
0.0
 11
134.1417339133931
 21
102.0565150463642
 31
0.0
  0
LINE
  5
63D
330
61F
100
AcDbEntity
  8
0
  6
Continuous
 62
     7
370
    15
100
AcDbLine
 10
131.4460663330792
 20
102.0564894810424
 30
0.0
 11
134.1417339133931
 21
102.0565150463642
 31
0.0
  0
LINE
  5
63E
330
61F
100
AcDbEntity
  8
0
  6
Continuous
 62
     7
370
    15
100
AcDbLine
 10
131.4460663330792
 20
102.0564894810424
 30
0.0
 11
131.4460116920284
 21
107.8179688470556
 31
0.0
  0
ARC
  5
63F
330
61F
100
AcDbEntity
  8
0
  6
Continuous
 62
     7
370
    15
100
AcDbCircle
 10
131.6460116920262
 20
107.8179697954414
 30
0.0
 40
0.2000004639177019
100
AcDbArc
 50
90.00006792198915
 51
180.0002716925203
  0
LINE
  5
640
330
61F
100
AcDbEntity
  8
0
  6
Continuous
 62
     7
370
    15
100
AcDbLine
 10
131.9938419258202
 20
108.0179707232701
 30
0.0
 11
131.6460114549332
 21
108.017970259359
 31
0.0
  0
ARC
  5
641
330
61F
100
AcDbEntity
  8
0
  6
Continuous
 62
     7
370
    15
100
AcDbCircle
 10
131.9938416887239
 20
108.2179707232645
 30
0.0
 40
0.1999999999945727
100
AcDbArc
 50
270.0000679231002
 51
0.0001358535336824
  0
LINE
  5
642
330
61F
100
AcDbEntity
  8
0
  6
Continuous
 62
     7
370
    15
100
AcDbLine
 10
132.1938345120142
 20
108.9747006511158
 30
0.0
 11
132.1938381003691
 21
108.2179711974743
 31
0.0
  0
LINE
  5
643
330
61F
100
AcDbEntity
  8
0
  6
Continuous
 62
     7
370
    15
100
AcDbLine
 10
134.1417339133931
 20
102.0565150463642
 30
0.0
 11
134.1417558650529
 21
99.74187983056083
 31
0.0
  0
LINE
  5
644
330
61F
100
AcDbEntity
  8
0
  6
Continuous
 62
     7
370
    15
100
AcDbLine
 10
134.1417558650529
 20
99.74187983056083
 30
0.0
 11
131.4460882847064
 21
99.74185900716669
 31
0.0
  0
LINE
  5
645
330
61F
100
AcDbEntity
  8
0
  6
Continuous
 62
     7
370
    15
100
AcDbLine
 10
131.4460882847064
 20
99.74185900716669
 30
0.0
 11
131.4460663330792
 21
102.0564894810424
 31
0.0
  0
LINE
  5
646
330
61F
100
AcDbEntity
  8
0
  6
Continuous
 62
     7
370
    15
100
AcDbLine
 10
134.0936230216437
 20
115.5046864246524
 30
0.0
 11
134.3436984185429
 21
115.5046864246524
 31
0.0
  0
LINE
  5
647
330
61F
100
AcDbEntity
  8
0
  6
Continuous
 62
     7
370
    15
100
AcDbLine
 10
134.3436984185429
 20
115.5046864246524
 30
0.0
 11
134.0936106926314
 21
114.2046864247109
 31
0.0
  0
LINE
  5
648
330
61F
100
AcDbEntity
  8
0
  6
Continuous
 62
     7
370
    15
100
AcDbLine
 10
131.4937861444545
 20
114.2046864247111
 30
0.0
 11
131.243698418543
 21
115.5046864246524
 31
0.0
  0
LINE
  5
649
330
61F
100
AcDbEntity
  8
0
  6
Continuous
 62
     7
370
    15
100
AcDbLine
 10
131.243698418543
 20
115.5046864246524
 30
0.0
 11
131.4937738154423
 21
115.5046864246524
 31
0.0
  0
LINE
  5
64A
330
61F
100
AcDbEntity
  8
0
  6
Continuous
 62
     7
370
    15
100
AcDbLine
 10
131.4460910276572
 20
99.45263586936315
 30
0.0
 11
134.141758608003
 21
99.45265669275748
 31
0.0
  0
LINE
  5
64B
330
61F
100
AcDbEntity
  8
0
  6
Continuous
 62
     7
370
    15
100
AcDbLine
 10
134.141758608003
 20
99.45265669275748
 30
0.0
 11
134.1417558650529
 21
99.74187983056083
 31
0.0
  0
LINE
  5
64C
330
61F
100
AcDbEntity
  8
0
  6
Continuous
 62
     7
370
    15
100
AcDbLine
 10
131.4460882847064
 20
99.74185900716669
 30
0.0
 11
131.4460910276572
 21
99.45263586936315
 31
0.0
  0
ENDBLK
  5
621
330
61F
100
AcDbEntity
  8
0
100
AcDbBlockEnd
  0
BLOCK
  5
64F
330
64E
100
AcDbEntity
  8
0
100
AcDbBlockBegin
  2
3
 70
     0
 10
0.0
 20
0.0
 30
0.0
  3
3
  1

  0
LINE
  5
651
330
64E
100
AcDbEntity
  8
0
  6
Continuous
 62
     7
370
    15
100
AcDbLine
 10
213.1453355481452
 20
81.90530889636994
 30
0.0
 11
213.1453355481452
 21
86.10530889655954
 31
0.0
  0
LINE
  5
652
330
64E
100
AcDbEntity
  8
0
  6
Continuous
 62
     7
370
    15
100
AcDbLine
 10
213.1453355481452
 20
81.90530889636994
 30
0.0
 11
146.6453355482004
 21
81.90530889636994
 31
0.0
  0
LINE
  5
653
330
64E
100
AcDbEntity
  8
0
  6
Continuous
 62
     7
370
    15
100
AcDbLine
 10
146.6453355482004
 20
86.10530889655954
 30
0.0
 11
146.6453355482004
 21
81.90530889636994
 31
0.0
  0
LINE
  5
654
330
64E
100
AcDbEntity
  8
0
  6
Continuous
 62
     7
370
    15
100
AcDbLine
 10
146.6453355482004
 20
86.10530889655954
 30
0.0
 11
213.1453355481452
 21
86.10530889655954
 31
0.0
  0
ENDBLK
  5
650
330
64E
100
AcDbEntity
  8
0
100
AcDbBlockEnd
  0
BLOCK
  5
657
330
656
100
AcDbEntity
  8
0
100
AcDbBlockBegin
  2
4
 70
     0
 10
0.0
 20
0.0
 30
0.0
  3
4
  1

  0
LINE
  5
659
330
656
100
AcDbEntity
  8
0
  6
Continuous
 62
     7
370
    15
100
AcDbLine
 10
245.8902957528996
 20
100.70777870534
 30
0.0
 11
245.4029202280719
 21
100.4264228036858
 31
0.0
  0
LINE
  5
65A
330
656
100
AcDbEntity
  8
0
  6
Continuous
 62
     7
370
    15
100
AcDbLine
 10
245.6335670708521
 20
93.7450419285674
 30
0.0
 11
247.5396935732482
 21
92.64464151788386
 31
0.0
  0
LINE
  5
65B
330
656
100
AcDbEntity
  8
0
  6
Continuous
 62
     7
370
    15
100
AcDbLine
 10
250.6279111868494
 20
103.442745879946
 30
0.0
 11
250.1405356620217
 21
103.1613899782918
 31
0.0
  0
LINE
  5
65C
330
656
100
AcDbEntity
  8
0
  6
Continuous
 62
     7
370
    15
100
AcDbLine
 10
250.3711825048019
 20
96.4800091031735
 30
0.0
 11
252.2773090071981
 21
95.37960869248994
 31
0.0
  0
LINE
  5
65D
330
656
100
AcDbEntity
  8
0
  6
Continuous
 62
     7
370
    15
100
AcDbLine
 10
255.3655266207993
 20
106.1777130545503
 30
0.0
 11
254.8781510959717
 21
105.8963571528961
 31
0.0
  0
LINE
  5
65E
330
656
100
AcDbEntity
  8
0
  6
Continuous
 62
     7
370
    15
100
AcDbLine
 10
255.1087979387518
 20
99.2149762777778
 30
0.0
 11
257.0149244411479
 21
98.11457586709426
 31
0.0
  0
LINE
  5
65F
330
656
100
AcDbEntity
  8
0
  6
Continuous
 62
     7
370
    15
100
AcDbLine
 10
260.1031420547492
 20
108.9126802291547
 30
0.0
 11
259.6157665299216
 21
108.6313243275005
 31
0.0
  0
LINE
  5
660
330
656
100
AcDbEntity
  8
0
  6
Continuous
 62
     7
370
    15
100
AcDbLine
 10
259.8464133727016
 20
101.9499434523821
 30
0.0
 11
261.7525398750979
 21
100.8495430416986
 31
0.0
  0
LINE
  5
661
330
656
100
AcDbEntity
  8
0
  6
Continuous
 62
     7
370
    15
100
AcDbLine
 10
264.840757488699
 20
111.647647403759
 30
0.0
 11
264.3533819638713
 21
111.3662915021048
 31
0.0
  0
LINE
  5
662
330
656
100
AcDbEntity
  8
0
  6
Continuous
 62
     7
370
    15
100
AcDbLine
 10
264.5840288066515
 20
104.6849106269864
 30
0.0
 11
266.4901553090477
 21
103.5845102163029
 31
0.0
  0
LINE
  5
663
330
656
100
AcDbEntity
  8
0
  6
Continuous
 62
     7
370
    15
100
AcDbLine
 10
269.5783729226489
 20
114.3826145783633
 30
0.0
 11
269.0909973978213
 21
114.1012586767091
 31
0.0
  0
LINE
  5
664
330
656
100
AcDbEntity
  8
0
  6
Continuous
 62
     7
370
    15
100
AcDbLine
 10
269.3216442406015
 20
107.4198778015907
 30
0.0
 11
271.2277707429975
 21
106.3194773909071
 31
0.0
  0
LINE
  5
665
330
656
100
AcDbEntity
  8
0
  6
Continuous
 62
     7
370
    15
100
AcDbLine
 10
274.3159883565989
 20
117.1175817529675
 30
0.0
 11
273.8286128317713
 21
116.8362258513133
 31
0.0
  0
LINE
  5
666
330
656
100
AcDbEntity
  8
0
  6
Continuous
 62
     7
370
    15
100
AcDbLine
 10
274.0592596745512
 20
110.154844976195
 30
0.0
 11
275.9653861769475
 21
109.0544445655114
 31
0.0
  0
LINE
  5
667
330
656
100
AcDbEntity
  8
0
  6
Continuous
 62
     7
370
    15
100
AcDbLine
 10
279.0536037905487
 20
119.852548927572
 30
0.0
 11
278.5662282657211
 21
119.5711930259178
 31
0.0
  0
LINE
  5
668
330
656
100
AcDbEntity
  8
0
  6
Continuous
 62
     7
370
    15
100
AcDbLine
 10
278.7968751085013
 20
112.8898121507993
 30
0.0
 11
280.7030016108973
 21
111.7894117401158
 31
0.0
  0
LINE
  5
669
330
656
100
AcDbEntity
  8
0
  6
Continuous
 62
     7
370
    15
100
AcDbLine
 10
283.7912192244985
 20
122.5875161021762
 30
0.0
 11
283.3038436996709
 21
122.306160200522
 31
0.0
  0
LINE
  5
66A
330
656
100
AcDbEntity
  8
0
  6
Continuous
 62
     7
370
    15
100
AcDbLine
 10
283.5344905424511
 20
115.6247793254036
 30
0.0
 11
285.4406170448472
 21
114.5243789147201
 31
0.0
  0
LINE
  5
66B
330
656
100
AcDbEntity
  8
0
  6
Continuous
 62
     7
370
    15
100
AcDbLine
 10
288.5288346584485
 20
125.3224832767805
 30
0.0
 11
288.0414591336209
 21
125.0411273751263
 31
0.0
  0
LINE
  5
66C
330
656
100
AcDbEntity
  8
0
  6
Continuous
 62
     7
370
    15
100
AcDbLine
 10
288.2721059764008
 20
118.3597465000079
 30
0.0
 11
290.1782324787971
 21
117.2593460893244
 31
0.0
  0
LINE
  5
66D
330
656
100
AcDbEntity
  8
0
  6
Continuous
 62
     7
370
    15
100
AcDbLine
 10
243.6983620572165
 20
112.7567405294047
 30
0.0
 11
290.720963006083
 21
139.9023102474741
 31
0.0
  0
LINE
  5
66E
330
656
100
AcDbEntity
  8
0
  6
Continuous
 62
     7
370
    15
100
AcDbLine
 10
293.6908114872005
 20
138.1878206879556
 30
0.0
 11
290.720963006083
 21
139.9023102474741
 31
0.0
  0
LINE
  5
66F
330
656
100
AcDbEntity
  8
0
  6
Continuous
 62
     7
370
    15
100
AcDbLine
 10
293.6908114872005
 20
138.1878206879556
 30
0.0
 11
246.6682105383341
 21
111.0422509698869
 31
0.0
  0
LINE
  5
670
330
656
100
AcDbEntity
  8
0
  6
Continuous
 62
     7
370
    15
100
AcDbLine
 10
243.6983620572165
 20
112.7567405294047
 30
0.0
 11
246.6682105383341
 21
111.0422509698869
 31
0.0
  0
LINE
  5
671
330
656
100
AcDbEntity
  8
0
  6
Continuous
 62
     7
370
    15
100
AcDbLine
 10
246.6682018204059
 20
109.980752947234
 30
0.0
 11
246.1025163954813
 21
110.307322387113
 31
0.0
  0
LINE
  5
672
330
656
100
AcDbEntity
  8
0
  6
Continuous
 62
     7
370
    15
100
AcDbLine
 10
246.1025163954813
 20
110.307322387113
 30
0.0
 11
246.1024858963103
 21
106.5937325150376
 31
0.0
  0
LINE
  5
673
330
656
100
AcDbEntity
  8
0
  6
Continuous
 62
     7
370
    15
100
AcDbLine
 10
246.1024858963103
 20
106.5937325150376
 30
0.0
 11
244.264086699672
 21
107.6549976477439
 31
0.0
  0
LINE
  5
674
330
656
100
AcDbEntity
  8
0
  6
Continuous
 62
     7
370
    15
100
AcDbLine
 10
244.264086699672
 20
107.6549976477439
 30
0.0
 11
244.2640562003354
 21
111.3686428669291
 31
0.0
  0
LINE
  5
675
330
656
100
AcDbEntity
  8
0
  6
Continuous
 62
     7
370
    15
100
AcDbLine
 10
244.2640562003354
 20
111.3686428669291
 30
0.0
 11
243.6983707754117
 21
111.6951999164793
 31
0.0
  0
LINE
  5
676
330
656
100
AcDbEntity
  8
0
  6
Continuous
 62
     7
370
    15
100
AcDbLine
 10
243.6983707754117
 20
111.6951999164793
 30
0.0
 11
243.6983620572165
 21
112.7567405294047
 31
0.0
  0
LINE
  5
677
330
656
100
AcDbEntity
  8
0
  6
Continuous
 62
     7
370
    15
100
AcDbLine
 10
246.6682105383341
 20
111.0422509698869
 30
0.0
 11
246.6682018204059
 21
109.980752947234
 31
0.0
  0
LINE
  5
678
330
656
100
AcDbEntity
  8
0
  6
Continuous
 62
     7
370
    15
100
AcDbLine
 10
293.6908027692724
 20
137.1263226653039
 30
0.0
 11
293.6908114872005
 21
138.1878206879556
 31
0.0
  0
LINE
  5
679
330
656
100
AcDbEntity
  8
0
  6
Continuous
 62
     7
370
    15
100
AcDbLine
 10
246.6682018204059
 20
109.980752947234
 30
0.0
 11
293.6908027692724
 21
137.1263226653039
 31
0.0
  0
LINE
  5
67A
330
656
100
AcDbEntity
  8
0
  6
Continuous
 62
     7
370
    15
100
AcDbLine
 10
291.816925203587
 20
131.2677377520148
 30
0.0
 11
290.0491582506206
 21
130.2472276122364
 31
0.0
  0
LINE
  5
67B
330
656
100
AcDbEntity
  8
0
  6
Continuous
 62
     7
370
    15
100
AcDbLine
 10
290.0491582506206
 20
130.2472276122364
 30
0.0
 11
290.0491495326924
 21
129.1857295895857
 31
0.0
  0
LINE
  5
67C
330
656
100
AcDbEntity
  8
0
  6
Continuous
 62
     7
370
    15
100
AcDbLine
 10
291.8169164856588
 20
130.206239729364
 30
0.0
 11
290.0491495326924
 21
129.1857295895857
 31
0.0
  0
LINE
  5
67D
330
656
100
AcDbEntity
  8
0
  6
Continuous
 62
     7
370
    15
100
AcDbLine
 10
287.0793097696371
 20
128.5327705774106
 30
0.0
 11
285.3115428166708
 21
127.5122604376321
 31
0.0
  0
LINE
  5
67E
330
656
100
AcDbEntity
  8
0
  6
Continuous
 62
     7
370
    15
100
AcDbLine
 10
285.3115428166708
 20
127.5122604376321
 30
0.0
 11
285.3115340987424
 21
126.4507624149814
 31
0.0
  0
LINE
  5
67F
330
656
100
AcDbEntity
  8
0
  6
Continuous
 62
     7
370
    15
100
AcDbLine
 10
287.079301051709
 20
127.4712725547599
 30
0.0
 11
285.3115340987424
 21
126.4507624149814
 31
0.0
  0
LINE
  5
680
330
656
100
AcDbEntity
  8
0
  6
Continuous
 62
     7
370
    15
100
AcDbLine
 10
282.3416943356873
 20
125.7978034028063
 30
0.0
 11
280.5739273827208
 21
124.7772932630279
 31
0.0
  0
LINE
  5
681
330
656
100
AcDbEntity
  8
0
  6
Continuous
 62
     7
370
    15
100
AcDbLine
 10
280.5739273827208
 20
124.7772932630279
 30
0.0
 11
280.5739186647926
 21
123.7157952403772
 31
0.0
  0
LINE
  5
682
330
656
100
AcDbEntity
  8
0
  6
Continuous
 62
     7
370
    15
100
AcDbLine
 10
282.341685617759
 20
124.7363053801556
 30
0.0
 11
280.5739186647926
 21
123.7157952403772
 31
0.0
  0
LINE
  5
683
330
656
100
AcDbEntity
  8
0
  6
Continuous
 62
     7
370
    15
100
AcDbLine
 10
277.6040789017374
 20
123.0628362282018
 30
0.0
 11
275.836311948771
 21
122.0423260884234
 31
0.0
  0
LINE
  5
684
330
656
100
AcDbEntity
  8
0
  6
Continuous
 62
     7
370
    15
100
AcDbLine
 10
275.836311948771
 20
122.0423260884234
 30
0.0
 11
275.8363032308429
 21
120.9808280657728
 31
0.0
  0
LINE
  5
685
330
656
100
AcDbEntity
  8
0
  6
Continuous
 62
     7
370
    15
100
AcDbLine
 10
277.6040701838092
 20
122.0013382055512
 30
0.0
 11
275.8363032308429
 21
120.9808280657728
 31
0.0
  0
LINE
  5
686
330
656
100
AcDbEntity
  8
0
  6
Continuous
 62
     7
370
    15
100
AcDbLine
 10
272.8664634677875
 20
120.3278690535976
 30
0.0
 11
271.0986965148212
 21
119.3073589138192
 31
0.0
  0
LINE
  5
687
330
656
100
AcDbEntity
  8
0
  6
Continuous
 62
     7
370
    15
100
AcDbLine
 10
271.0986965148212
 20
119.3073589138192
 30
0.0
 11
271.0986877968928
 21
118.2458608911685
 31
0.0
  0
LINE
  5
688
330
656
100
AcDbEntity
  8
0
  6
Continuous
 62
     7
370
    15
100
AcDbLine
 10
272.8664547498591
 20
119.2663710309469
 30
0.0
 11
271.0986877968928
 21
118.2458608911685
 31
0.0
  0
LINE
  5
689
330
656
100
AcDbEntity
  8
0
  6
Continuous
 62
     7
370
    15
100
AcDbLine
 10
268.1288480338375
 20
117.5929018789933
 30
0.0
 11
266.3610810808713
 21
116.5723917392149
 31
0.0
  0
LINE
  5
68A
330
656
100
AcDbEntity
  8
0
  6
Continuous
 62
     7
370
    15
100
AcDbLine
 10
266.3610810808713
 20
116.5723917392149
 30
0.0
 11
266.361072362943
 21
115.5108937165642
 31
0.0
  0
LINE
  5
68B
330
656
100
AcDbEntity
  8
0
  6
Continuous
 62
     7
370
    15
100
AcDbLine
 10
268.1288393159094
 20
116.5314038563425
 30
0.0
 11
266.361072362943
 21
115.5108937165642
 31
0.0
  0
LINE
  5
68C
330
656
100
AcDbEntity
  8
0
  6
Continuous
 62
     7
370
    15
100
AcDbLine
 10
263.3912325998877
 20
114.857934704389
 30
0.0
 11
261.6234656469214
 21
113.8374245646107
 31
0.0
  0
LINE
  5
68D
330
656
100
AcDbEntity
  8
0
  6
Continuous
 62
     7
370
    15
100
AcDbLine
 10
261.6234656469214
 20
113.8374245646107
 30
0.0
 11
261.6234569289932
 21
112.77592654196
 31
0.0
  0
LINE
  5
68E
330
656
100
AcDbEntity
  8
0
  6
Continuous
 62
     7
370
    15
100
AcDbLine
 10
263.3912238819594
 20
113.7964366817384
 30
0.0
 11
261.6234569289932
 21
112.77592654196
 31
0.0
  0
LINE
  5
68F
330
656
100
AcDbEntity
  8
0
  6
Continuous
 62
     7
370
    15
100
AcDbLine
 10
249.1783862980382
 20
106.6530331805742
 30
0.0
 11
247.4106193450718
 21
105.6325230407959
 31
0.0
  0
LINE
  5
690
330
656
100
AcDbEntity
  8
0
  6
Continuous
 62
     7
370
    15
100
AcDbLine
 10
247.4106193450718
 20
105.6325230407959
 30
0.0
 11
247.4106106271436
 21
104.5710250181453
 31
0.0
  0
LINE
  5
691
330
656
100
AcDbEntity
  8
0
  6
Continuous
 62
     7
370
    15
100
AcDbLine
 10
249.1783775801099
 20
105.5915351579236
 30
0.0
 11
247.4106106271436
 21
104.5710250181453
 31
0.0
  0
LINE
  5
692
330
656
100
AcDbEntity
  8
0
  6
Continuous
 62
     7
370
    15
100
AcDbLine
 10
253.916001731988
 20
109.3880003551803
 30
0.0
 11
252.1482347790216
 21
108.3674902154019
 31
0.0
  0
LINE
  5
693
330
656
100
AcDbEntity
  8
0
  6
Continuous
 62
     7
370
    15
100
AcDbLine
 10
252.1482347790216
 20
108.3674902154019
 30
0.0
 11
252.1482260610933
 21
107.3059921927513
 31
0.0
  0
LINE
  5
694
330
656
100
AcDbEntity
  8
0
  6
Continuous
 62
     7
370
    15
100
AcDbLine
 10
253.9159930140598
 20
108.3265023325297
 30
0.0
 11
252.1482260610933
 21
107.3059921927513
 31
0.0
  0
LINE
  5
695
330
656
100
AcDbEntity
  8
0
  6
Continuous
 62
     7
370
    15
100
AcDbLine
 10
258.6536171659379
 20
112.1229675297846
 30
0.0
 11
256.8858502129715
 21
111.1024573900063
 31
0.0
  0
LINE
  5
696
330
656
100
AcDbEntity
  8
0
  6
Continuous
 62
     7
370
    15
100
AcDbLine
 10
256.8858502129715
 20
111.1024573900063
 30
0.0
 11
256.8858414950432
 21
110.0409593673555
 31
0.0
  0
LINE
  5
697
330
656
100
AcDbEntity
  8
0
  6
Continuous
 62
     7
370
    15
100
AcDbLine
 10
258.6536084480095
 20
111.0614695071339
 30
0.0
 11
256.8858414950432
 21
110.0409593673555
 31
0.0
  0
LINE
  5
698
330
656
100
AcDbEntity
  8
0
  6
Continuous
 62
     7
370
    15
100
AcDbLine
 10
283.1195258914261
 20
127.9632148420051
 30
0.0
 11
283.1194823016199
 21
122.549554289867
 31
0.0
  0
LINE
  5
699
330
656
100
AcDbEntity
  8
0
  6
Continuous
 62
     7
370
    15
100
AcDbLine
 10
282.8366369067292
 20
122.0596578913432
 30
0.0
 11
283.1194823016199
 21
122.549554289867
 31
0.0
  0
LINE
  5
69A
330
656
100
AcDbEntity
  8
0
  6
Continuous
 62
     7
370
    15
100
AcDbLine
 10
282.8366369067292
 20
122.0596578913432
 30
0.0
 11
282.8366288459985
 21
121.0781804888359
 31
0.0
  0
LINE
  5
69B
330
656
100
AcDbEntity
  8
0
  6
Continuous
 62
     7
370
    15
100
AcDbLine
 10
280.0789123993242
 20
119.4861846707546
 30
0.0
 11
282.8366288459985
 21
121.0781804888359
 31
0.0
  0
LINE
  5
69C
330
656
100
AcDbEntity
  8
0
  6
Continuous
 62
     7
370
    15
100
AcDbLine
 10
280.0789123993242
 20
119.4861846707546
 30
0.0
 11
280.0789204600549
 21
120.4676620732619
 31
0.0
  0
LINE
  5
69D
330
656
100
AcDbEntity
  8
0
  6
Continuous
 62
     7
370
    15
100
AcDbLine
 10
279.796080430043
 20
120.6309952270839
 30
0.0
 11
280.0789204600549
 21
120.4676620732619
 31
0.0
  0
LINE
  5
69E
330
656
100
AcDbEntity
  8
0
  6
Continuous
 62
     7
370
    15
100
AcDbLine
 10
279.796080430043
 20
120.6309952270839
 30
0.0
 11
279.7961240198493
 21
126.044655779205
 31
0.0
  0
LINE
  5
69F
330
656
100
AcDbEntity
  8
0
  6
Continuous
 62
     7
370
    15
100
AcDbLine
 10
278.3819104574763
 20
125.228247667399
 30
0.0
 11
279.7961240198493
 21
126.044655779205
 31
0.0
  0
LINE
  5
6A0
330
656
100
AcDbEntity
  8
0
  6
Continuous
 62
     7
370
    15
100
AcDbLine
 10
278.3819104574763
 20
125.228247667399
 30
0.0
 11
278.3818668676701
 21
119.8145871152626
 31
0.0
  0
LINE
  5
6A1
330
656
100
AcDbEntity
  8
0
  6
Continuous
 62
     7
370
    15
100
AcDbLine
 10
278.0990214727792
 20
119.3246907167388
 30
0.0
 11
278.3818668676701
 21
119.8145871152626
 31
0.0
  0
LINE
  5
6A2
330
656
100
AcDbEntity
  8
0
  6
Continuous
 62
     7
370
    15
100
AcDbLine
 10
278.0990214727792
 20
119.3246907167388
 30
0.0
 11
278.0990134120487
 21
118.3432133142315
 31
0.0
  0
LINE
  5
6A3
330
656
100
AcDbEntity
  8
0
  6
Continuous
 62
     7
370
    15
100
AcDbLine
 10
275.3412969653743
 20
116.7512174961503
 30
0.0
 11
278.0990134120487
 21
118.3432133142315
 31
0.0
  0
LINE
  5
6A4
330
656
100
AcDbEntity
  8
0
  6
Continuous
 62
     7
370
    15
100
AcDbLine
 10
275.3412969653743
 20
116.7512174961503
 30
0.0
 11
275.3413050261049
 21
117.7326948986575
 31
0.0
  0
LINE
  5
6A5
330
656
100
AcDbEntity
  8
0
  6
Continuous
 62
     7
370
    15
100
AcDbLine
 10
275.0584649960932
 20
117.8960280524795
 30
0.0
 11
275.3413050261049
 21
117.7326948986575
 31
0.0
  0
LINE
  5
6A6
330
656
100
AcDbEntity
  8
0
  6
Continuous
 62
     7
370
    15
100
AcDbLine
 10
275.0584649960932
 20
117.8960280524795
 30
0.0
 11
275.0585085858994
 21
123.3096886046006
 31
0.0
  0
LINE
  5
6A7
330
656
100
AcDbEntity
  8
0
  6
Continuous
 62
     7
370
    15
100
AcDbLine
 10
273.6442950235263
 20
122.4932804927929
 30
0.0
 11
275.0585085858994
 21
123.3096886046006
 31
0.0
  0
LINE
  5
6A8
330
656
100
AcDbEntity
  8
0
  6
Continuous
 62
     7
370
    15
100
AcDbLine
 10
273.6442950235263
 20
122.4932804927929
 30
0.0
 11
273.6442514337201
 21
117.0796199406583
 31
0.0
  0
LINE
  5
6A9
330
656
100
AcDbEntity
  8
0
  6
Continuous
 62
     7
370
    15
100
AcDbLine
 10
273.3614060388294
 20
116.5897235421345
 30
0.0
 11
273.6442514337201
 21
117.0796199406583
 31
0.0
  0
LINE
  5
6AA
330
656
100
AcDbEntity
  8
0
  6
Continuous
 62
     7
370
    15
100
AcDbLine
 10
273.3614060388294
 20
116.5897235421345
 30
0.0
 11
273.3613979780987
 21
115.6082461396273
 31
0.0
  0
LINE
  5
6AB
330
656
100
AcDbEntity
  8
0
  6
Continuous
 62
     7
370
    15
100
AcDbLine
 10
270.6036815314246
 20
114.016250321546
 30
0.0
 11
273.3613979780987
 21
115.6082461396273
 31
0.0
  0
LINE
  5
6AC
330
656
100
AcDbEntity
  8
0
  6
Continuous
 62
     7
370
    15
100
AcDbLine
 10
270.6036815314246
 20
114.016250321546
 30
0.0
 11
270.6036895921551
 21
114.9977277240532
 31
0.0
  0
LINE
  5
6AD
330
656
100
AcDbEntity
  8
0
  6
Continuous
 62
     7
370
    15
100
AcDbLine
 10
270.3208495621434
 20
115.1610608778752
 30
0.0
 11
270.6036895921551
 21
114.9977277240532
 31
0.0
  0
LINE
  5
6AE
330
656
100
AcDbEntity
  8
0
  6
Continuous
 62
     7
370
    15
100
AcDbLine
 10
270.3208495621434
 20
115.1610608778752
 30
0.0
 11
270.3208931519496
 21
120.5747214299963
 31
0.0
  0
LINE
  5
6AF
330
656
100
AcDbEntity
  8
0
  6
Continuous
 62
     7
370
    15
100
AcDbLine
 10
268.9066795895765
 20
119.7583133181868
 30
0.0
 11
270.3208931519496
 21
120.5747214299963
 31
0.0
  0
LINE
  5
6B0
330
656
100
AcDbEntity
  8
0
  6
Continuous
 62
     7
370
    15
100
AcDbLine
 10
268.9066795895765
 20
119.7583133181868
 30
0.0
 11
268.9066359997703
 21
114.3446527660542
 31
0.0
  0
LINE
  5
6B1
330
656
100
AcDbEntity
  8
0
  6
Continuous
 62
     7
370
    15
100
AcDbLine
 10
268.6237906048796
 20
113.8547563675303
 30
0.0
 11
268.9066359997703
 21
114.3446527660542
 31
0.0
  0
LINE
  5
6B2
330
656
100
AcDbEntity
  8
0
  6
Continuous
 62
     7
370
    15
100
AcDbLine
 10
268.6237906048796
 20
113.8547563675303
 30
0.0
 11
268.6237825441489
 21
112.8732789650229
 31
0.0
  0
LINE
  5
6B3
330
656
100
AcDbEntity
  8
0
  6
Continuous
 62
     7
370
    15
100
AcDbLine
 10
265.8660660974745
 20
111.2812831469417
 30
0.0
 11
268.6237825441489
 21
112.8732789650229
 31
0.0
  0
LINE
  5
6B4
330
656
100
AcDbEntity
  8
0
  6
Continuous
 62
     7
370
    15
100
AcDbLine
 10
265.8660660974745
 20
111.2812831469417
 30
0.0
 11
265.8660741582052
 21
112.262760549449
 31
0.0
  0
LINE
  5
6B5
330
656
100
AcDbEntity
  8
0
  6
Continuous
 62
     7
370
    15
100
AcDbLine
 10
265.5832341281934
 20
112.4260937032709
 30
0.0
 11
265.8660741582052
 21
112.262760549449
 31
0.0
  0
LINE
  5
6B6
330
656
100
AcDbEntity
  8
0
  6
Continuous
 62
     7
370
    15
100
AcDbLine
 10
265.5832341281934
 20
112.4260937032709
 30
0.0
 11
265.5832777179997
 21
117.839754255392
 31
0.0
  0
LINE
  5
6B7
330
656
100
AcDbEntity
  8
0
  6
Continuous
 62
     7
370
    15
100
AcDbLine
 10
264.1690641556266
 20
117.0233461435807
 30
0.0
 11
265.5832777179997
 21
117.839754255392
 31
0.0
  0
LINE
  5
6B8
330
656
100
AcDbEntity
  8
0
  6
Continuous
 62
     7
370
    15
100
AcDbLine
 10
264.1690641556266
 20
117.0233461435807
 30
0.0
 11
264.1690205658203
 21
111.6096855914499
 31
0.0
  0
LINE
  5
6B9
330
656
100
AcDbEntity
  8
0
  6
Continuous
 62
     7
370
    15
100
AcDbLine
 10
263.8861751709296
 20
111.1197891929261
 30
0.0
 11
264.1690205658203
 21
111.6096855914499
 31
0.0
  0
LINE
  5
6BA
330
656
100
AcDbEntity
  8
0
  6
Continuous
 62
     7
370
    15
100
AcDbLine
 10
263.8861751709296
 20
111.1197891929261
 30
0.0
 11
263.886167110199
 21
110.1383117904187
 31
0.0
  0
LINE
  5
6BB
330
656
100
AcDbEntity
  8
0
  6
Continuous
 62
     7
370
    15
100
AcDbLine
 10
261.1284506635247
 20
108.5463159723375
 30
0.0
 11
263.886167110199
 21
110.1383117904187
 31
0.0
  0
LINE
  5
6BC
330
656
100
AcDbEntity
  8
0
  6
Continuous
 62
     7
370
    15
100
AcDbLine
 10
261.1284506635247
 20
108.5463159723375
 30
0.0
 11
261.1284587242553
 21
109.5277933748447
 31
0.0
  0
LINE
  5
6BD
330
656
100
AcDbEntity
  8
0
  6
Continuous
 62
     7
370
    15
100
AcDbLine
 10
260.8456186942436
 20
109.6911265286667
 30
0.0
 11
261.1284587242553
 21
109.5277933748447
 31
0.0
  0
LINE
  5
6BE
330
656
100
AcDbEntity
  8
0
  6
Continuous
 62
     7
370
    15
100
AcDbLine
 10
260.8456186942436
 20
109.6911265286667
 30
0.0
 11
260.8456622840498
 21
115.1047870807878
 31
0.0
  0
LINE
  5
6BF
330
656
100
AcDbEntity
  8
0
  6
Continuous
 62
     7
370
    15
100
AcDbLine
 10
259.4314487216767
 20
114.2883789689763
 30
0.0
 11
260.8456622840498
 21
115.1047870807878
 31
0.0
  0
LINE
  5
6C0
330
656
100
AcDbEntity
  8
0
  6
Continuous
 62
     7
370
    15
100
AcDbLine
 10
259.4314487216767
 20
114.2883789689763
 30
0.0
 11
259.4314051318705
 21
108.8747184168454
 31
0.0
  0
LINE
  5
6C1
330
656
100
AcDbEntity
  8
0
  6
Continuous
 62
     7
370
    15
100
AcDbLine
 10
259.1485597369798
 20
108.3848220183216
 30
0.0
 11
259.4314051318705
 21
108.8747184168454
 31
0.0
  0
LINE
  5
6C2
330
656
100
AcDbEntity
  8
0
  6
Continuous
 62
     7
370
    15
100
AcDbLine
 10
259.1485597369798
 20
108.3848220183216
 30
0.0
 11
259.1485516762491
 21
107.4033446158142
 31
0.0
  0
LINE
  5
6C3
330
656
100
AcDbEntity
  8
0
  6
Continuous
 62
     7
370
    15
100
AcDbLine
 10
256.3908352295749
 20
105.811348797733
 30
0.0
 11
259.1485516762491
 21
107.4033446158142
 31
0.0
  0
LINE
  5
6C4
330
656
100
AcDbEntity
  8
0
  6
Continuous
 62
     7
370
    15
100
AcDbLine
 10
256.3908352295749
 20
105.811348797733
 30
0.0
 11
256.3908432903054
 21
106.7928262002403
 31
0.0
  0
LINE
  5
6C5
330
656
100
AcDbEntity
  8
0
  6
Continuous
 62
     7
370
    15
100
AcDbLine
 10
256.1080032602937
 20
106.9561593540622
 30
0.0
 11
256.3908432903054
 21
106.7928262002403
 31
0.0
  0
LINE
  5
6C6
330
656
100
AcDbEntity
  8
0
  6
Continuous
 62
     7
370
    15
100
AcDbLine
 10
256.1080032602937
 20
106.9561593540622
 30
0.0
 11
256.1080468500999
 21
112.3698199061833
 31
0.0
  0
LINE
  5
6C7
330
656
100
AcDbEntity
  8
0
  6
Continuous
 62
     7
370
    15
100
AcDbLine
 10
254.6938332877267
 20
111.553411794372
 30
0.0
 11
256.1080468500999
 21
112.3698199061833
 31
0.0
  0
LINE
  5
6C8
330
656
100
AcDbEntity
  8
0
  6
Continuous
 62
     7
370
    15
100
AcDbLine
 10
254.6938332877267
 20
111.553411794372
 30
0.0
 11
254.6937896979205
 21
106.1397512422411
 31
0.0
  0
LINE
  5
6C9
330
656
100
AcDbEntity
  8
0
  6
Continuous
 62
     7
370
    15
100
AcDbLine
 10
254.4109443030299
 20
105.6498548437173
 30
0.0
 11
254.6937896979205
 21
106.1397512422411
 31
0.0
  0
LINE
  5
6CA
330
656
100
AcDbEntity
  8
0
  6
Continuous
 62
     7
370
    15
100
AcDbLine
 10
254.4109443030299
 20
105.6498548437173
 30
0.0
 11
254.4109362422993
 21
104.6683774412101
 31
0.0
  0
LINE
  5
6CB
330
656
100
AcDbEntity
  8
0
  6
Continuous
 62
     7
370
    15
100
AcDbLine
 10
251.6532197956249
 20
103.0763816231288
 30
0.0
 11
254.4109362422993
 21
104.6683774412101
 31
0.0
  0
LINE
  5
6CC
330
656
100
AcDbEntity
  8
0
  6
Continuous
 62
     7
370
    15
100
AcDbLine
 10
251.6532197956249
 20
103.0763816231288
 30
0.0
 11
251.6532278563556
 21
104.057859025636
 31
0.0
  0
LINE
  5
6CD
330
656
100
AcDbEntity
  8
0
  6
Continuous
 62
     7
370
    15
100
AcDbLine
 10
251.3703878263438
 20
104.221192179458
 30
0.0
 11
251.6532278563556
 21
104.057859025636
 31
0.0
  0
LINE
  5
6CE
330
656
100
AcDbEntity
  8
0
  6
Continuous
 62
     7
370
    15
100
AcDbLine
 10
251.3703878263438
 20
104.221192179458
 30
0.0
 11
251.37043141615
 21
109.6348527315792
 31
0.0
  0
LINE
  5
6CF
330
656
100
AcDbEntity
  8
0
  6
Continuous
 62
     7
370
    15
100
AcDbLine
 10
251.37043141615
 20
109.6348527315792
 30
0.0
 11
249.9562178537771
 21
108.8184446454379
 31
0.0
  0
LINE
  5
6D0
330
656
100
AcDbEntity
  8
0
  6
Continuous
 62
     7
370
    15
100
AcDbLine
 10
249.9562178537771
 20
108.8184446454379
 30
0.0
 11
249.9561742639708
 21
103.4047840676351
 31
0.0
  0
LINE
  5
6D1
330
656
100
AcDbEntity
  8
0
  6
Continuous
 62
     7
370
    15
100
AcDbLine
 10
249.9561742639708
 20
103.4047840676351
 30
0.0
 11
249.67332886908
 21
102.9148876691112
 31
0.0
  0
LINE
  5
6D2
330
656
100
AcDbEntity
  8
0
  6
Continuous
 62
     7
370
    15
100
AcDbLine
 10
249.6733208083494
 20
101.933410266604
 30
0.0
 11
249.67332886908
 21
102.9148876691112
 31
0.0
  0
LINE
  5
6D3
330
656
100
AcDbEntity
  8
0
  6
Continuous
 62
     7
370
    15
100
AcDbLine
 10
246.9156043616751
 20
100.3414144485227
 30
0.0
 11
249.6733208083494
 21
101.933410266604
 31
0.0
  0
LINE
  5
6D4
330
656
100
AcDbEntity
  8
0
  6
Continuous
 62
     7
370
    15
100
AcDbLine
 10
246.9156043616751
 20
100.3414144485227
 30
0.0
 11
246.9156124224057
 21
101.32289185103
 31
0.0
  0
LINE
  5
6D5
330
656
100
AcDbEntity
  8
0
  6
Continuous
 62
     7
370
    15
100
AcDbLine
 10
246.6327723923939
 20
101.486225004852
 30
0.0
 11
246.9156124224057
 21
101.32289185103
 31
0.0
  0
LINE
  5
6D6
330
656
100
AcDbEntity
  8
0
  6
Continuous
 62
     7
370
    15
100
AcDbLine
 10
246.6327723923939
 20
101.486225004852
 30
0.0
 11
246.6328159822001
 21
106.8998855569734
 31
0.0
  0
LINE
  5
6D7
330
656
100
AcDbEntity
  8
0
  6
Continuous
 62
     7
370
    15
100
AcDbLine
 10
246.6328159822001
 20
106.8998855569734
 30
0.0
 11
246.1024858963103
 21
106.5937325150376
 31
0.0
  0
LINE
  5
6D8
330
656
100
AcDbEntity
  8
0
  6
Continuous
 62
     7
370
    15
100
AcDbLine
 10
293.1250868451767
 20
133.7393022331175
 30
0.0
 11
293.1251119802389
 21
136.7997563239552
 31
0.0
  0
LINE
  5
6D9
330
656
100
AcDbEntity
  8
0
  6
Continuous
 62
     7
370
    15
100
AcDbLine
 10
292.5947567593259
 20
133.4331491912065
 30
0.0
 11
293.1250868451767
 21
133.7393022331175
 31
0.0
  0
LINE
  5
6DA
330
656
100
AcDbEntity
  8
0
  6
Continuous
 62
     7
370
    15
100
AcDbLine
 10
292.5947567593259
 20
133.4331491912065
 30
0.0
 11
292.5947131695197
 21
128.0194886390756
 31
0.0
  0
LINE
  5
6DB
330
656
100
AcDbEntity
  8
0
  6
Continuous
 62
     7
370
    15
100
AcDbLine
 10
292.311867774629
 20
127.5295922405518
 30
0.0
 11
292.5947131695197
 21
128.0194886390756
 31
0.0
  0
LINE
  5
6DC
330
656
100
AcDbEntity
  8
0
  6
Continuous
 62
     7
370
    15
100
AcDbLine
 10
292.311867774629
 20
127.5295922405518
 30
0.0
 11
292.3118597138983
 21
126.5481148380444
 31
0.0
  0
LINE
  5
6DD
330
656
100
AcDbEntity
  8
0
  6
Continuous
 62
     7
370
    15
100
AcDbLine
 10
289.5541432672239
 20
124.9561190199631
 30
0.0
 11
292.3118597138983
 21
126.5481148380444
 31
0.0
  0
LINE
  5
6DE
330
656
100
AcDbEntity
  8
0
  6
Continuous
 62
     7
370
    15
100
AcDbLine
 10
289.5541432672239
 20
124.9561190199631
 30
0.0
 11
289.5541513279545
 21
125.9375964224705
 31
0.0
  0
LINE
  5
6DF
330
656
100
AcDbEntity
  8
0
  6
Continuous
 62
     7
370
    15
100
AcDbLine
 10
289.2713112979428
 20
126.1009295762924
 30
0.0
 11
289.5541513279545
 21
125.9375964224705
 31
0.0
  0
LINE
  5
6E0
330
656
100
AcDbEntity
  8
0
  6
Continuous
 62
     7
370
    15
100
AcDbLine
 10
289.2713112979428
 20
126.1009295762924
 30
0.0
 11
289.271354887749
 21
131.5145901284135
 31
0.0
  0
LINE
  5
6E1
330
656
100
AcDbEntity
  8
0
  6
Continuous
 62
     7
370
    15
100
AcDbLine
 10
287.8571413253759
 20
130.6981820166111
 30
0.0
 11
289.271354887749
 21
131.5145901284135
 31
0.0
  0
LINE
  5
6E2
330
656
100
AcDbEntity
  8
0
  6
Continuous
 62
     7
370
    15
100
AcDbLine
 10
287.8571413253759
 20
130.6981820166111
 30
0.0
 11
287.8570977355697
 21
125.2845214644713
 31
0.0
  0
LINE
  5
6E3
330
656
100
AcDbEntity
  8
0
  6
Continuous
 62
     7
370
    15
100
AcDbLine
 10
287.574252340679
 20
124.7946250659475
 30
0.0
 11
287.8570977355697
 21
125.2845214644713
 31
0.0
  0
LINE
  5
6E4
330
656
100
AcDbEntity
  8
0
  6
Continuous
 62
     7
370
    15
100
AcDbLine
 10
287.574252340679
 20
124.7946250659475
 30
0.0
 11
287.5742442799483
 21
123.8131476634402
 31
0.0
  0
LINE
  5
6E5
330
656
100
AcDbEntity
  8
0
  6
Continuous
 62
     7
370
    15
100
AcDbLine
 10
284.8165278332741
 20
122.2211518453589
 30
0.0
 11
287.5742442799483
 21
123.8131476634402
 31
0.0
  0
LINE
  5
6E6
330
656
100
AcDbEntity
  8
0
  6
Continuous
 62
     7
370
    15
100
AcDbLine
 10
284.8165278332741
 20
122.2211518453589
 30
0.0
 11
284.8165358940047
 21
123.2026292478662
 31
0.0
  0
LINE
  5
6E7
330
656
100
AcDbEntity
  8
0
  6
Continuous
 62
     7
370
    15
100
AcDbLine
 10
284.5336958639931
 20
123.3659624016882
 30
0.0
 11
284.8165358940047
 21
123.2026292478662
 31
0.0
  0
LINE
  5
6E8
330
656
100
AcDbEntity
  8
0
  6
Continuous
 62
     7
370
    15
100
AcDbLine
 10
284.5336958639931
 20
123.3659624016882
 30
0.0
 11
284.5337394537992
 21
128.7796229538092
 31
0.0
  0
LINE
  5
6E9
330
656
100
AcDbEntity
  8
0
  6
Continuous
 62
     7
370
    15
100
AcDbLine
 10
283.1195258914261
 20
127.9632148420051
 30
0.0
 11
284.5337394537992
 21
128.7796229538092
 31
0.0
  0
LINE
  5
6EA
330
656
100
AcDbEntity
  8
0
  6
Continuous
 62
     7
370
    15
100
AcDbLine
 10
244.7944603750372
 20
102.5474800759205
 30
0.0
 11
246.6327723923939
 21
101.486225004852
 31
0.0
  0
LINE
  5
6EB
330
656
100
AcDbEntity
  8
0
  6
Continuous
 62
     7
370
    15
100
AcDbLine
 10
244.7944603750372
 20
102.5474800759205
 30
0.0
 11
244.7944217156681
 21
107.3488475677399
 31
0.0
  0
LINE
  5
6EC
330
656
100
AcDbEntity
  8
0
  6
Continuous
 62
     7
370
    15
100
AcDbLine
 10
249.3552163069935
 20
106.5509513892763
 30
0.0
 11
247.5874493540271
 21
105.530441249498
 31
0.0
  0
LINE
  5
6ED
330
656
100
AcDbEntity
  8
0
  6
Continuous
 62
     7
370
    15
100
AcDbLine
 10
249.1783775801099
 20
105.5915351579236
 30
0.0
 11
249.3552163069935
 21
106.5509513892763
 31
0.0
  0
LINE
  5
6EE
330
656
100
AcDbEntity
  8
0
  6
Continuous
 62
     7
370
    15
100
AcDbLine
 10
247.4106106271436
 20
104.5710250181453
 30
0.0
 11
247.5874493540271
 21
105.530441249498
 31
0.0
  0
LINE
  5
6EF
330
656
100
AcDbEntity
  8
0
  6
Continuous
 62
     7
370
    15
100
AcDbLine
 10
247.5874493540271
 20
105.530441249498
 30
0.0
 11
247.4106193450718
 21
105.6325230407959
 31
0.0
  0
LINE
  5
6F0
330
656
100
AcDbEntity
  8
0
  6
Continuous
 62
     7
370
    15
100
AcDbLine
 10
249.3552163069935
 20
106.5509513892763
 30
0.0
 11
249.1783862980382
 21
106.6530331805742
 31
0.0
  0
LINE
  5
6F1
330
656
100
AcDbEntity
  8
0
  6
Continuous
 62
     7
370
    15
100
AcDbLine
 10
245.0773057699247
 20
102.3841438249631
 30
0.0
 11
246.9156124224057
 21
101.32289185103
 31
0.0
  0
LINE
  5
6F2
330
656
100
AcDbEntity
  8
0
  6
Continuous
 62
     7
370
    15
100
AcDbLine
 10
244.7944603750372
 20
102.5474800759205
 30
0.0
 11
245.0773057699247
 21
102.3841438249631
 31
0.0
  0
LINE
  5
6F3
330
656
100
AcDbEntity
  8
0
  6
Continuous
 62
     7
370
    15
100
AcDbLine
 10
249.9561874111725
 20
105.0376081893287
 30
0.0
 11
251.3703878263438
 21
104.221192179458
 31
0.0
  0
LINE
  5
6F4
330
656
100
AcDbEntity
  8
0
  6
Continuous
 62
     7
370
    15
100
AcDbLine
 10
246.8448930129726
 20
100.300581934471
 30
0.0
 11
245.1480090862174
 21
101.2801907578274
 31
0.0
  0
LINE
  5
6F5
330
656
100
AcDbEntity
  8
0
  6
Continuous
 62
     7
370
    15
100
AcDbLine
 10
245.0773138308237
 20
101.4026369832253
 30
0.0
 11
245.1480090862174
 21
101.2801907578274
 31
0.0
  0
LINE
  5
6F6
330
656
100
AcDbEntity
  8
0
  6
Continuous
 62
     7
370
    15
100
AcDbLine
 10
246.9156043616751
 20
100.3414144485227
 30
0.0
 11
246.8448930129726
 21
100.300581934471
 31
0.0
  0
LINE
  5
6F7
330
656
100
AcDbEntity
  8
0
  6
Continuous
 62
     7
370
    15
100
AcDbLine
 10
245.0773057699247
 20
102.3841438249631
 30
0.0
 11
245.0773138308237
 21
101.4026369832253
 31
0.0
  0
LINE
  5
6F8
330
656
100
AcDbEntity
  8
0
  6
Continuous
 62
     7
370
    15
100
AcDbLine
 10
249.6026094596468
 20
101.8925777525521
 30
0.0
 11
249.6733208083494
 21
101.933410266604
 31
0.0
  0
LINE
  5
6F9
330
656
100
AcDbEntity
  8
0
  6
Continuous
 62
     7
370
    15
100
AcDbLine
 10
249.1783433790869
 20
101.647618993578
 30
0.0
 11
249.6026094596468
 21
101.8925777525521
 31
0.0
  0
LINE
  5
6FA
330
656
100
AcDbEntity
  8
0
  6
Continuous
 62
     7
370
    15
100
AcDbLine
 10
249.1783433790869
 20
101.647618993578
 30
0.0
 11
246.8448910011396
 21
100.3005456090531
 31
0.0
  0
LINE
  5
6FB
330
656
100
AcDbEntity
  8
0
  6
Continuous
 62
     7
370
    15
100
AcDbLine
 10
246.8448930129726
 20
100.300581934471
 30
0.0
 11
246.8448910011396
 21
100.3005456090531
 31
0.0
  0
LINE
  5
6FC
330
656
100
AcDbEntity
  8
0
  6
Continuous
 62
     7
370
    15
100
AcDbLine
 10
245.1480090862174
 20
101.2801907578274
 30
0.0
 11
245.5722791905938
 21
101.0352227066815
 31
0.0
  0
LINE
  5
6FD
330
656
100
AcDbEntity
  8
0
  6
Continuous
 62
     7
370
    15
100
AcDbLine
 10
246.8448910011396
 20
100.3005456090531
 30
0.0
 11
245.5722791905938
 21
101.0352227066815
 31
0.0
  0
LINE
  5
6FE
330
656
100
AcDbEntity
  8
0
  6
Continuous
 62
     7
370
    15
100
AcDbLine
 10
246.7388199091905
 20
99.86634297886109
 30
0.0
 11
246.7388239781251
 21
100.3617779597012
 31
0.0
  0
ARC
  5
6FF
330
656
100
AcDbEntity
  8
0
  6
Continuous
 62
     7
370
    15
100
AcDbCircle
 10
247.0458619254423
 20
99.88031281484907
 30
0.0
 40
0.3073596526245716
100
AcDbArc
 50
182.6050539644218
 51
237.3945949214282
  0
LINE
  5
700
330
656
100
AcDbEntity
  8
0
  6
Continuous
 62
     7
370
    15
100
AcDbLine
 10
247.1261942147898
 20
99.47940647066737
 30
0.0
 11
246.8802410977723
 21
99.6213925616756
 31
0.0
  0
ARC
  5
701
330
656
100
AcDbEntity
  8
0
  6
Continuous
 62
     7
370
    15
100
AcDbCircle
 10
246.9605725294173
 20
99.22048547397984
 30
0.0
 40
0.3073607411353885
100
AcDbArc
 50
2.605308358403405
 51
57.39453491774144
  0
LINE
  5
702
330
656
100
AcDbEntity
  8
0
  6
Continuous
 62
     7
370
    15
100
AcDbLine
 10
247.2676155710255
 20
99.23445672271697
 30
0.0
 11
247.2675723513769
 21
93.97201796724774
 31
0.0
  0
LINE
  5
703
330
656
100
AcDbEntity
  8
0
  6
Continuous
 62
     7
370
    15
100
AcDbLine
 10
245.3614475254841
 20
95.07241741007993
 30
0.0
 11
247.2675723513769
 21
93.97201796724774
 31
0.0
  0
LINE
  5
704
330
656
100
AcDbEntity
  8
0
  6
Continuous
 62
     7
370
    15
100
AcDbLine
 10
245.3614475254841
 20
95.07241741007993
 30
0.0
 11
245.3614907451055
 21
100.3348553911794
 31
0.0
  0
ARC
  5
705
330
656
100
AcDbEntity
  8
0
  6
Continuous
 62
     7
370
    15
100
AcDbCircle
 10
245.4477057599776
 20
100.34883902132
 30
0.0
 40
0.0873416893659277
100
AcDbArc
 50
50.79661220715337
 51
189.2128505995744
  0
LINE
  5
706
330
656
100
AcDbEntity
  8
0
  6
Continuous
 62
     7
370
    15
100
AcDbLine
 10
245.7488702479258
 20
100.2745318202388
 30
0.0
 11
245.5029122689904
 21
100.4165207179884
 31
0.0
  0
ARC
  5
707
330
656
100
AcDbEntity
  8
0
  6
Continuous
 62
     7
370
    15
100
AcDbCircle
 10
245.8040799627407
 20
100.3422106569555
 30
0.0
 40
0.0873414995821989
100
AcDbArc
 50
230.7937967306996
 51
9.214821702979097
  0
LINE
  5
708
330
656
100
AcDbEntity
  8
0
  6
Continuous
 62
     7
370
    15
100
AcDbLine
 10
245.8902963436208
 20
100.8516318292075
 30
0.0
 11
245.8902943091589
 21
100.3561972226865
 31
0.0
  0
LINE
  5
709
330
656
100
AcDbEntity
  8
0
  6
Continuous
 62
     7
370
    15
100
AcDbLine
 10
252.3250647879769
 20
108.2654084241041
 30
0.0
 11
252.1482347790216
 21
108.3674902154019
 31
0.0
  0
LINE
  5
70A
330
656
100
AcDbEntity
  8
0
  6
Continuous
 62
     7
370
    15
100
AcDbLine
 10
252.1482260610933
 20
107.3059921927513
 30
0.0
 11
252.3250647879769
 21
108.2654084241041
 31
0.0
  0
LINE
  5
70B
330
656
100
AcDbEntity
  8
0
  6
Continuous
 62
     7
370
    15
100
AcDbLine
 10
254.0928317409433
 20
109.2859185638824
 30
0.0
 11
252.3250647879769
 21
108.2654084241041
 31
0.0
  0
LINE
  5
70C
330
656
100
AcDbEntity
  8
0
  6
Continuous
 62
     7
370
    15
100
AcDbLine
 10
253.9159930140598
 20
108.3265023325297
 30
0.0
 11
254.0928317409433
 21
109.2859185638824
 31
0.0
  0
LINE
  5
70D
330
656
100
AcDbEntity
  8
0
  6
Continuous
 62
     7
370
    15
100
AcDbLine
 10
254.0928317409433
 20
109.2859185638824
 30
0.0
 11
253.916001731988
 21
109.3880003551803
 31
0.0
  0
LINE
  5
70E
330
656
100
AcDbEntity
  8
0
  6
Continuous
 62
     7
370
    15
100
AcDbLine
 10
248.8601443216919
 20
101.4639265877467
 30
0.0
 11
248.8601427901373
 21
101.0909529074436
 31
0.0
  0
LINE
  5
70F
330
656
100
AcDbEntity
  8
0
  6
Continuous
 62
     7
370
    15
100
AcDbLine
 10
248.8601427901373
 20
101.0909529074436
 30
0.0
 11
246.7388199091905
 21
99.86634297886109
 31
0.0
  0
LINE
  5
710
330
656
100
AcDbEntity
  8
0
  6
Continuous
 62
     7
370
    15
100
AcDbLine
 10
247.2676155710255
 20
99.23445672271697
 30
0.0
 11
249.3889359145759
 21
100.4590688904457
 31
0.0
  0
LINE
  5
711
330
656
100
AcDbEntity
  8
0
  6
Continuous
 62
     7
370
    15
100
AcDbLine
 10
249.2475147259903
 20
100.7040189204251
 30
0.0
 11
247.1261942147898
 21
99.47940647066737
 31
0.0
  0
ARC
  5
712
330
656
100
AcDbEntity
  8
0
  6
Continuous
 62
     7
370
    15
100
AcDbCircle
 10
249.0818938090093
 20
100.4450985936003
 30
0.0
 40
0.3073597627939618
100
AcDbArc
 50
2.605139028607061
 51
57.39458829469771
  0
LINE
  5
713
330
656
100
AcDbEntity
  8
0
  6
Continuous
 62
     7
370
    15
100
AcDbLine
 10
249.3888972775244
 20
95.75460815595986
 30
0.0
 11
249.3889359145759
 21
100.4590688904457
 31
0.0
  0
LINE
  5
714
330
656
100
AcDbEntity
  8
0
  6
Continuous
 62
     7
370
    15
100
AcDbLine
 10
249.1002886942862
 20
93.69802564238716
 30
0.0
 11
249.3888972775244
 21
95.75460815595986
 31
0.0
  0
ARC
  5
715
330
656
100
AcDbEntity
  8
0
  6
Continuous
 62
     7
370
    15
100
AcDbCircle
 10
248.5591689483518
 20
93.78074076318448
 30
0.0
 40
0.5474051247920137
100
AcDbArc
 50
302.9067125962041
 51
351.3090878343858
  0
LINE
  5
716
330
656
100
AcDbEntity
  8
0
  6
Continuous
 62
     7
370
    15
100
AcDbLine
 10
247.7146786559043
 20
92.66196973709632
 30
0.0
 11
248.856559270615
 21
93.32116338463684
 31
0.0
  0
LWPOLYLINE
  5
717
330
656
100
AcDbEntity
  8
0
  6
Continuous
 62
     7
370
    15
100
AcDbPolyline
 90
        9
 70
   128
 43
0.0
 10
247.7146786559043
 20
92.66196973709632
 10
247.6717029601734
 20
92.64150213625347
 10
247.6300331305271
 20
92.63033995471769
 10
247.5909352836532
 20
92.62882234972634
 10
247.5555973878444
 20
92.63699543293894
 10
247.5250931671831
 20
92.65461086935804
 10
247.5003494769781
 20
92.68113342286232
 10
247.4821181417355
 20
92.71575721908364
 10
247.4709531113514
 20
92.75743023149521
  0
LINE
  5
718
330
656
100
AcDbEntity
  8
0
  6
Continuous
 62
     7
370
    15
100
AcDbLine
 10
247.2675723513769
 20
93.97201796724774
 30
0.0
 11
247.4709531113514
 21
92.75743023149521
 31
0.0
  0
LINE
  5
719
330
656
100
AcDbEntity
  8
0
  6
Continuous
 62
     7
370
    15
100
AcDbLine
 10
249.0015614413475
 20
100.8460051082276
 30
0.0
 11
246.8802410977723
 21
99.6213925616756
 31
0.0
  0
LINE
  5
71A
330
656
100
AcDbEntity
  8
0
  6
Continuous
 62
     7
370
    15
100
AcDbLine
 10
249.0015614413475
 20
100.8460051082276
 30
0.0
 11
249.2475147259903
 21
100.7040189204251
 31
0.0
  0
ARC
  5
71B
330
656
100
AcDbEntity
  8
0
  6
Continuous
 62
     7
370
    15
100
AcDbCircle
 10
249.1671937817938
 20
101.1049289769504
 30
0.0
 40
0.3073689021292349
100
AcDbArc
 50
182.6061386931068
 51
237.3931502392332
  0
LINE
  5
71C
330
656
100
AcDbEntity
  8
0
  6
Continuous
 62
     7
370
    15
100
AcDbLine
 10
249.95618741077
 20
105.0375582071038
 30
0.0
 11
251.6532278563556
 21
104.057859025636
 31
0.0
  0
LINE
  5
71D
330
656
100
AcDbEntity
  8
0
  6
Continuous
 62
     7
370
    15
100
AcDbLine
 10
254.6938028451223
 20
107.7725753639331
 30
0.0
 11
256.1080032602937
 21
106.9561593540622
 31
0.0
  0
LINE
  5
71E
330
656
100
AcDbEntity
  8
0
  6
Continuous
 62
     7
370
    15
100
AcDbLine
 10
249.9561788506317
 20
103.9744270117387
 30
0.0
 11
251.5825084469225
 21
103.035549109077
 31
0.0
  0
LINE
  5
71F
330
656
100
AcDbEntity
  8
0
  6
Continuous
 62
     7
370
    15
100
AcDbLine
 10
251.6532197956249
 20
103.0763816231288
 30
0.0
 11
251.5825084469225
 21
103.035549109077
 31
0.0
  0
LINE
  5
720
330
656
100
AcDbEntity
  8
0
  6
Continuous
 62
     7
370
    15
100
AcDbLine
 10
254.3402248935966
 20
104.627544927158
 30
0.0
 11
254.4109362422993
 21
104.6683774412101
 31
0.0
  0
LINE
  5
721
330
656
100
AcDbEntity
  8
0
  6
Continuous
 62
     7
370
    15
100
AcDbLine
 10
253.9159588130368
 20
104.3825861681841
 30
0.0
 11
254.3402248935966
 21
104.627544927158
 31
0.0
  0
LINE
  5
722
330
656
100
AcDbEntity
  8
0
  6
Continuous
 62
     7
370
    15
100
AcDbLine
 10
253.9159588130368
 20
104.3825861681841
 30
0.0
 11
251.5825064350895
 21
103.0355127836591
 31
0.0
  0
LINE
  5
723
330
656
100
AcDbEntity
  8
0
  6
Continuous
 62
     7
370
    15
100
AcDbLine
 10
251.5825084469225
 20
103.035549109077
 30
0.0
 11
251.5825064350895
 21
103.0355127836591
 31
0.0
  0
LINE
  5
724
330
656
100
AcDbEntity
  8
0
  6
Continuous
 62
     7
370
    15
100
AcDbLine
 10
249.9561788505816
 20
103.9744207778634
 30
0.0
 11
250.3098946245437
 21
103.7701898812876
 31
0.0
  0
LINE
  5
725
330
656
100
AcDbEntity
  8
0
  6
Continuous
 62
     7
370
    15
100
AcDbLine
 10
251.5825064350895
 20
103.0355127836591
 30
0.0
 11
250.3098946245437
 21
103.7701898812876
 31
0.0
  0
ARC
  5
726
330
656
100
AcDbEntity
  8
0
  6
Continuous
 62
     7
370
    15
100
AcDbCircle
 10
251.6981879633672
 20
101.9554526485859
 30
0.0
 40
0.3073607411353366
100
AcDbArc
 50
2.605308358403886
 51
57.39453491775035
  0
LINE
  5
727
330
656
100
AcDbEntity
  8
0
  6
Continuous
 62
     7
370
    15
100
AcDbLine
 10
252.0052310049754
 20
101.969423897323
 30
0.0
 11
252.0051877853267
 21
96.70698514185382
 31
0.0
  0
LINE
  5
728
330
656
100
AcDbEntity
  8
0
  6
Continuous
 62
     7
370
    15
100
AcDbLine
 10
250.0990629594338
 20
97.80738458468601
 30
0.0
 11
252.0051877853267
 21
96.70698514185382
 31
0.0
  0
LINE
  5
729
330
656
100
AcDbEntity
  8
0
  6
Continuous
 62
     7
370
    15
100
AcDbLine
 10
250.0990629594338
 20
97.80738458468601
 30
0.0
 11
250.0991061790554
 21
103.0698225657855
 31
0.0
  0
ARC
  5
72A
330
656
100
AcDbEntity
  8
0
  6
Continuous
 62
     7
370
    15
100
AcDbCircle
 10
250.1853211939275
 20
103.083806195926
 30
0.0
 40
0.0873416893659209
100
AcDbArc
 50
50.79661220714748
 51
189.2128505995468
  0
LINE
  5
72B
330
656
100
AcDbEntity
  8
0
  6
Continuous
 62
     7
370
    15
100
AcDbLine
 10
250.4864856818755
 20
103.0094989948448
 30
0.0
 11
250.2405277029402
 21
103.1514878925944
 31
0.0
  0
ARC
  5
72C
330
656
100
AcDbEntity
  8
0
  6
Continuous
 62
     7
370
    15
100
AcDbCircle
 10
250.5416953966904
 20
103.0771778315615
 30
0.0
 40
0.0873414995821989
100
AcDbArc
 50
230.7937967306996
 51
9.214821702979097
  0
LINE
  5
72D
330
656
100
AcDbEntity
  8
0
  6
Continuous
 62
     7
370
    15
100
AcDbLine
 10
250.6279117775707
 20
103.5865990038137
 30
0.0
 11
250.6279097431086
 21
103.0911643972925
 31
0.0
  0
LINE
  5
72E
330
656
100
AcDbEntity
  8
0
  6
Continuous
 62
     7
370
    15
100
AcDbLine
 10
251.4764353431402
 20
102.6013101534671
 30
0.0
 11
251.4764394120751
 21
103.0967451343073
 31
0.0
  0
ARC
  5
72F
330
656
100
AcDbEntity
  8
0
  6
Continuous
 62
     7
370
    15
100
AcDbCircle
 10
251.7834773593927
 20
102.6152799894556
 30
0.0
 40
0.3073596526252389
100
AcDbArc
 50
182.6050539645063
 51
237.3945949214008
  0
LINE
  5
730
330
656
100
AcDbEntity
  8
0
  6
Continuous
 62
     7
370
    15
100
AcDbLine
 10
251.8638096487397
 20
102.2143736452734
 30
0.0
 11
251.6178565317222
 21
102.3563597362817
 31
0.0
  0
LINE
  5
731
330
656
100
AcDbEntity
  8
0
  6
Continuous
 62
     7
370
    15
100
AcDbLine
 10
258.8304471748932
 20
112.0208857384867
 30
0.0
 11
258.6536171659379
 21
112.1229675297846
 31
0.0
  0
LINE
  5
732
330
656
100
AcDbEntity
  8
0
  6
Continuous
 62
     7
370
    15
100
AcDbLine
 10
258.8304471748932
 20
112.0208857384867
 30
0.0
 11
257.0626802219268
 21
111.0003755987084
 31
0.0
  0
LINE
  5
733
330
656
100
AcDbEntity
  8
0
  6
Continuous
 62
     7
370
    15
100
AcDbLine
 10
257.0626802219268
 20
111.0003755987084
 30
0.0
 11
256.8858502129715
 21
111.1024573900063
 31
0.0
  0
LINE
  5
734
330
656
100
AcDbEntity
  8
0
  6
Continuous
 62
     7
370
    15
100
AcDbLine
 10
258.6536084480095
 20
111.0614695071339
 30
0.0
 11
258.8304471748932
 21
112.0208857384867
 31
0.0
  0
LINE
  5
735
330
656
100
AcDbEntity
  8
0
  6
Continuous
 62
     7
370
    15
100
AcDbLine
 10
256.8858414950432
 20
110.0409593673555
 30
0.0
 11
257.0626802219268
 21
111.0003755987084
 31
0.0
  0
LINE
  5
736
330
656
100
AcDbEntity
  8
0
  6
Continuous
 62
     7
370
    15
100
AcDbLine
 10
253.5977597556446
 20
104.1988937623543
 30
0.0
 11
253.5977582240942
 21
103.8259200820538
 31
0.0
  0
LINE
  5
737
330
656
100
AcDbEntity
  8
0
  6
Continuous
 62
     7
370
    15
100
AcDbLine
 10
253.5977582240942
 20
103.8259200820538
 30
0.0
 11
251.4764353431402
 21
102.6013101534671
 31
0.0
  0
LINE
  5
738
330
656
100
AcDbEntity
  8
0
  6
Continuous
 62
     7
370
    15
100
AcDbLine
 10
247.4709531113514
 20
92.75743023149521
 30
0.0
 11
245.5648282854637
 21
93.85782967433247
 31
0.0
  0
LINE
  5
739
330
656
100
AcDbEntity
  8
0
  6
Continuous
 62
     7
370
    15
100
AcDbLine
 10
245.5648282854637
 20
93.85782967433247
 30
0.0
 11
245.3614475254841
 21
95.07241741007993
 31
0.0
  0
LINE
  5
73A
330
656
100
AcDbEntity
  8
0
  6
Continuous
 62
     7
370
    15
100
AcDbLine
 10
252.0052310049754
 20
101.969423897323
 30
0.0
 11
254.1265513485268
 21
103.1940360650523
 31
0.0
  0
LINE
  5
73B
330
656
100
AcDbEntity
  8
0
  6
Continuous
 62
     7
370
    15
100
AcDbLine
 10
253.9851301599402
 20
103.4389860950312
 30
0.0
 11
251.8638096487397
 21
102.2143736452734
 31
0.0
  0
ARC
  5
73C
330
656
100
AcDbEntity
  8
0
  6
Continuous
 62
     7
370
    15
100
AcDbCircle
 10
253.8195092429548
 20
103.1800657682025
 30
0.0
 40
0.3073597627995158
100
AcDbArc
 50
2.605139029376863
 51
57.39458829439882
  0
LINE
  5
73D
330
656
100
AcDbEntity
  8
0
  6
Continuous
 62
     7
370
    15
100
AcDbLine
 10
254.1265127114684
 20
98.48957533056294
 30
0.0
 11
254.1265513485268
 21
103.1940360650523
 31
0.0
  0
LINE
  5
73E
330
656
100
AcDbEntity
  8
0
  6
Continuous
 62
     7
370
    15
100
AcDbLine
 10
253.8379041282359
 20
96.43299281699306
 30
0.0
 11
254.1265127114684
 21
98.48957533056294
 31
0.0
  0
ARC
  5
73F
330
656
100
AcDbEntity
  8
0
  6
Continuous
 62
     7
370
    15
100
AcDbCircle
 10
253.2967843823019
 20
96.51570793779043
 30
0.0
 40
0.5474051247916925
100
AcDbArc
 50
302.9067125961822
 51
351.3090878343774
  0
LINE
  5
740
330
656
100
AcDbEntity
  8
0
  6
Continuous
 62
     7
370
    15
100
AcDbLine
 10
252.4522940898541
 20
95.39693691170198
 30
0.0
 11
253.5941747045648
 21
96.05613055924294
 31
0.0
  0
LWPOLYLINE
  5
741
330
656
100
AcDbEntity
  8
0
  6
Continuous
 62
     7
370
    15
100
AcDbPolyline
 90
        9
 70
   128
 43
0.0
 10
252.4522940898541
 20
95.39693691170198
 10
252.4093183941233
 20
95.37646931085928
 10
252.3676485644769
 20
95.36530712932338
 10
252.3285507176028
 20
95.36378952433199
 10
252.2932128217941
 20
95.3719626075447
 10
252.2627086011327
 20
95.38957804396391
 10
252.2379649109276
 20
95.41610059746799
 10
252.2197335756851
 20
95.45072439368944
 10
252.2085685453011
 20
95.49239740610131
  0
LINE
  5
742
330
656
100
AcDbEntity
  8
0
  6
Continuous
 62
     7
370
    15
100
AcDbLine
 10
252.0051877853267
 20
96.70698514185382
 30
0.0
 11
252.2085685453011
 21
95.49239740610131
 31
0.0
  0
LINE
  5
743
330
656
100
AcDbEntity
  8
0
  6
Continuous
 62
     7
370
    15
100
AcDbLine
 10
253.7391768753008
 20
103.5809722828356
 30
0.0
 11
253.9851301599402
 21
103.4389860950312
 31
0.0
  0
LINE
  5
744
330
656
100
AcDbEntity
  8
0
  6
Continuous
 62
     7
370
    15
100
AcDbLine
 10
253.7391768753008
 20
103.5809722828356
 30
0.0
 11
251.6178565317222
 21
102.3563597362817
 31
0.0
  0
ARC
  5
745
330
656
100
AcDbEntity
  8
0
  6
Continuous
 62
     7
370
    15
100
AcDbCircle
 10
253.9048092157711
 20
103.8398961515676
 30
0.0
 40
0.3073689021498527
100
AcDbArc
 50
182.6061386942339
 51
237.3931502363814
  0
ARC
  5
746
330
656
100
AcDbEntity
  8
0
  6
Continuous
 62
     7
370
    15
100
AcDbCircle
 10
245.7153267746985
 20
93.87221098177027
 30
0.0
 40
0.1511840509629479
100
AcDbArc
 50
185.4584856576934
 51
237.2621693262157
  0
LINE
  5
747
330
656
100
AcDbEntity
  8
0
  6
Continuous
 62
     7
370
    15
100
AcDbLine
 10
254.6938028447196
 20
107.7725253817081
 30
0.0
 11
256.3908432903054
 21
106.7928262002403
 31
0.0
  0
LINE
  5
748
330
656
100
AcDbEntity
  8
0
  6
Continuous
 62
     7
370
    15
100
AcDbLine
 10
259.4314182790723
 20
110.5075425385375
 30
0.0
 11
260.8456186942436
 21
109.6911265286667
 31
0.0
  0
LINE
  5
749
330
656
100
AcDbEntity
  8
0
  6
Continuous
 62
     7
370
    15
100
AcDbLine
 10
254.6937942845817
 20
106.7093941863429
 30
0.0
 11
256.3201238808724
 21
105.7705162836813
 31
0.0
  0
LINE
  5
74A
330
656
100
AcDbEntity
  8
0
  6
Continuous
 62
     7
370
    15
100
AcDbLine
 10
256.3908352295749
 20
105.811348797733
 30
0.0
 11
256.3201238808724
 21
105.7705162836813
 31
0.0
  0
LINE
  5
74B
330
656
100
AcDbEntity
  8
0
  6
Continuous
 62
     7
370
    15
100
AcDbLine
 10
259.0778403275464
 20
107.3625121017622
 30
0.0
 11
259.1485516762491
 21
107.4033446158142
 31
0.0
  0
LINE
  5
74C
330
656
100
AcDbEntity
  8
0
  6
Continuous
 62
     7
370
    15
100
AcDbLine
 10
258.6535742469866
 20
107.1175533427882
 30
0.0
 11
259.0778403275464
 21
107.3625121017622
 31
0.0
  0
LINE
  5
74D
330
656
100
AcDbEntity
  8
0
  6
Continuous
 62
     7
370
    15
100
AcDbLine
 10
258.6535742469866
 20
107.1175533427882
 30
0.0
 11
256.3201218690394
 21
105.7704799582634
 31
0.0
  0
LINE
  5
74E
330
656
100
AcDbEntity
  8
0
  6
Continuous
 62
     7
370
    15
100
AcDbLine
 10
256.3201238808724
 20
105.7705162836813
 30
0.0
 11
256.3201218690394
 21
105.7704799582634
 31
0.0
  0
LINE
  5
74F
330
656
100
AcDbEntity
  8
0
  6
Continuous
 62
     7
370
    15
100
AcDbLine
 10
254.6937942845314
 20
106.7093879524676
 30
0.0
 11
255.0475100584935
 21
106.5051570558919
 31
0.0
  0
LINE
  5
750
330
656
100
AcDbEntity
  8
0
  6
Continuous
 62
     7
370
    15
100
AcDbLine
 10
256.3201218690394
 20
105.7704799582634
 30
0.0
 11
255.0475100584935
 21
106.5051570558919
 31
0.0
  0
ARC
  5
751
330
656
100
AcDbEntity
  8
0
  6
Continuous
 62
     7
370
    15
100
AcDbCircle
 10
256.4358033973171
 20
104.6904198231902
 30
0.0
 40
0.3073607411353905
100
AcDbArc
 50
2.605308358411344
 51
57.39453491775018
  0
LINE
  5
752
330
656
100
AcDbEntity
  8
0
  6
Continuous
 62
     7
370
    15
100
AcDbLine
 10
256.7428464389253
 20
104.7043910719273
 30
0.0
 11
256.7428032192765
 21
99.44195231645807
 31
0.0
  0
LINE
  5
753
330
656
100
AcDbEntity
  8
0
  6
Continuous
 62
     7
370
    15
100
AcDbLine
 10
254.8366783933837
 20
100.5423517592902
 30
0.0
 11
256.7428032192765
 21
99.44195231645807
 31
0.0
  0
LINE
  5
754
330
656
100
AcDbEntity
  8
0
  6
Continuous
 62
     7
370
    15
100
AcDbLine
 10
254.8366783933837
 20
100.5423517592902
 30
0.0
 11
254.8367216130052
 21
105.8047897403897
 31
0.0
  0
ARC
  5
755
330
656
100
AcDbEntity
  8
0
  6
Continuous
 62
     7
370
    15
100
AcDbCircle
 10
254.9229366278773
 20
105.8187733705302
 30
0.0
 40
0.0873416893660452
100
AcDbArc
 50
50.79661220722408
 51
189.2128505994675
  0
LINE
  5
756
330
656
100
AcDbEntity
  8
0
  6
Continuous
 62
     7
370
    15
100
AcDbLine
 10
255.2241011158253
 20
105.744466169449
 30
0.0
 11
254.9781431368902
 21
105.8864550671987
 31
0.0
  0
ARC
  5
757
330
656
100
AcDbEntity
  8
0
  6
Continuous
 62
     7
370
    15
100
AcDbCircle
 10
255.2793108306401
 20
105.8121450061658
 30
0.0
 40
0.087341499582262
100
AcDbArc
 50
230.7937967307815
 51
9.214821702927116
  0
LINE
  5
758
330
656
100
AcDbEntity
  8
0
  6
Continuous
 62
     7
370
    15
100
AcDbLine
 10
255.3655272115205
 20
106.3215661784178
 30
0.0
 11
255.3655251770583
 21
105.8261315718967
 31
0.0
  0
LINE
  5
759
330
656
100
AcDbEntity
  8
0
  6
Continuous
 62
     7
370
    15
100
AcDbLine
 10
256.2140507770902
 20
105.3362773280713
 30
0.0
 11
256.214054846025
 21
105.8317123089116
 31
0.0
  0
ARC
  5
75A
330
656
100
AcDbEntity
  8
0
  6
Continuous
 62
     7
370
    15
100
AcDbCircle
 10
256.5210927933422
 20
105.3502471640597
 30
0.0
 40
0.307359652624833
100
AcDbArc
 50
182.6050539644945
 51
237.3945949214405
  0
LINE
  5
75B
330
656
100
AcDbEntity
  8
0
  6
Continuous
 62
     7
370
    15
100
AcDbLine
 10
256.6014250826896
 20
104.9493408198777
 30
0.0
 11
256.3554719656721
 21
105.091326910886
 31
0.0
  0
LINE
  5
75C
330
656
100
AcDbEntity
  8
0
  6
Continuous
 62
     7
370
    15
100
AcDbLine
 10
263.568062608843
 20
114.7558529130912
 30
0.0
 11
261.8002956558767
 21
113.7353427733128
 31
0.0
  0
LINE
  5
75D
330
656
100
AcDbEntity
  8
0
  6
Continuous
 62
     7
370
    15
100
AcDbLine
 10
263.3912238819594
 20
113.7964366817384
 30
0.0
 11
263.568062608843
 21
114.7558529130912
 31
0.0
  0
LINE
  5
75E
330
656
100
AcDbEntity
  8
0
  6
Continuous
 62
     7
370
    15
100
AcDbLine
 10
261.6234569289932
 20
112.77592654196
 30
0.0
 11
261.8002956558767
 21
113.7353427733128
 31
0.0
  0
LINE
  5
75F
330
656
100
AcDbEntity
  8
0
  6
Continuous
 62
     7
370
    15
100
AcDbLine
 10
261.8002956558767
 20
113.7353427733128
 30
0.0
 11
261.6234656469214
 21
113.8374245646107
 31
0.0
  0
LINE
  5
760
330
656
100
AcDbEntity
  8
0
  6
Continuous
 62
     7
370
    15
100
AcDbLine
 10
263.568062608843
 20
114.7558529130912
 30
0.0
 11
263.3912325998877
 21
114.857934704389
 31
0.0
  0
LINE
  5
761
330
656
100
AcDbEntity
  8
0
  6
Continuous
 62
     7
370
    15
100
AcDbLine
 10
258.3353751895944
 20
106.9338609369587
 30
0.0
 11
258.335373658044
 21
106.5608872566579
 31
0.0
  0
LINE
  5
762
330
656
100
AcDbEntity
  8
0
  6
Continuous
 62
     7
370
    15
100
AcDbLine
 10
258.335373658044
 20
106.5608872566579
 30
0.0
 11
256.2140507770902
 21
105.3362773280713
 31
0.0
  0
LINE
  5
763
330
656
100
AcDbEntity
  8
0
  6
Continuous
 62
     7
370
    15
100
AcDbLine
 10
252.2085685453011
 20
95.49239740610131
 30
0.0
 11
250.3024437194135
 21
96.59279684893855
 31
0.0
  0
LINE
  5
764
330
656
100
AcDbEntity
  8
0
  6
Continuous
 62
     7
370
    15
100
AcDbLine
 10
250.3024437194135
 20
96.59279684893855
 30
0.0
 11
250.0990629594338
 21
97.80738458468601
 31
0.0
  0
LINE
  5
765
330
656
100
AcDbEntity
  8
0
  6
Continuous
 62
     7
370
    15
100
AcDbLine
 10
256.7428464389253
 20
104.7043910719273
 30
0.0
 11
258.8641667824767
 21
105.9290032396566
 31
0.0
  0
LINE
  5
766
330
656
100
AcDbEntity
  8
0
  6
Continuous
 62
     7
370
    15
100
AcDbLine
 10
258.7227455938901
 20
106.1739532696355
 30
0.0
 11
256.6014250826896
 21
104.9493408198777
 31
0.0
  0
ARC
  5
767
330
656
100
AcDbEntity
  8
0
  6
Continuous
 62
     7
370
    15
100
AcDbCircle
 10
258.5571246769044
 20
105.9150329428066
 30
0.0
 40
0.3073597627997914
100
AcDbArc
 50
2.605139029411504
 51
57.39458829436847
  0
LINE
  5
768
330
656
100
AcDbEntity
  8
0
  6
Continuous
 62
     7
370
    15
100
AcDbLine
 10
258.8641281454183
 20
101.2245425051671
 30
0.0
 11
258.8641667824767
 21
105.9290032396566
 31
0.0
  0
LINE
  5
769
330
656
100
AcDbEntity
  8
0
  6
Continuous
 62
     7
370
    15
100
AcDbLine
 10
258.5755195621858
 20
99.16795999159726
 30
0.0
 11
258.8641281454183
 21
101.2245425051671
 31
0.0
  0
ARC
  5
76A
330
656
100
AcDbEntity
  8
0
  6
Continuous
 62
     7
370
    15
100
AcDbCircle
 10
258.0343998162515
 20
99.25067511239491
 30
0.0
 40
0.5474051247920344
100
AcDbArc
 50
302.906712596191
 51
351.309087834351
  0
LINE
  5
76B
330
656
100
AcDbEntity
  8
0
  6
Continuous
 62
     7
370
    15
100
AcDbLine
 10
257.189909523804
 20
98.13190408630628
 30
0.0
 11
258.3317901385147
 21
98.79109773384719
 31
0.0
  0
LWPOLYLINE
  5
76C
330
656
100
AcDbEntity
  8
0
  6
Continuous
 62
     7
370
    15
100
AcDbPolyline
 90
        9
 70
   128
 43
0.0
 10
257.189909523804
 20
98.13190408630628
 10
257.1469338280731
 20
98.11143648546361
 10
257.1052639984267
 20
98.1002743039277
 10
257.0661661515527
 20
98.09875669893619
 10
257.030828255744
 20
98.10692978214895
 10
257.0003240350827
 20
98.12454521856805
 10
256.9755803448775
 20
98.15106777207233
 10
256.957349009635
 20
98.18569156829363
 10
256.9461839792511
 20
98.22736458070563
  0
LINE
  5
76D
330
656
100
AcDbEntity
  8
0
  6
Continuous
 62
     7
370
    15
100
AcDbLine
 10
256.7428032192765
 20
99.44195231645807
 30
0.0
 11
256.9461839792511
 21
98.22736458070563
 31
0.0
  0
LINE
  5
76E
330
656
100
AcDbEntity
  8
0
  6
Continuous
 62
     7
370
    15
100
AcDbLine
 10
258.4767923092507
 20
106.3159394574399
 30
0.0
 11
258.7227455938901
 21
106.1739532696355
 31
0.0
  0
LINE
  5
76F
330
656
100
AcDbEntity
  8
0
  6
Continuous
 62
     7
370
    15
100
AcDbLine
 10
258.4767923092507
 20
106.3159394574399
 30
0.0
 11
256.3554719656721
 21
105.091326910886
 31
0.0
  0
ARC
  5
770
330
656
100
AcDbEntity
  8
0
  6
Continuous
 62
     7
370
    15
100
AcDbCircle
 10
258.6424246497204
 20
106.5748633261716
 30
0.0
 40
0.3073689021493939
100
AcDbArc
 50
182.6061386942192
 51
237.3931502364566
  0
ARC
  5
771
330
656
100
AcDbEntity
  8
0
  6
Continuous
 62
     7
370
    15
100
AcDbCircle
 10
250.4529422086484
 20
96.60717815637646
 30
0.0
 40
0.1511840509630862
100
AcDbArc
 50
185.4584856577269
 51
237.2621693261999
  0
LINE
  5
772
330
656
100
AcDbEntity
  8
0
  6
Continuous
 62
     7
370
    15
100
AcDbLine
 10
259.4314182786696
 20
110.5074925563125
 30
0.0
 11
261.1284587242553
 21
109.5277933748447
 31
0.0
  0
LINE
  5
773
330
656
100
AcDbEntity
  8
0
  6
Continuous
 62
     7
370
    15
100
AcDbLine
 10
264.169033713022
 20
113.2425097131418
 30
0.0
 11
265.5832341281934
 21
112.4260937032709
 31
0.0
  0
LINE
  5
774
330
656
100
AcDbEntity
  8
0
  6
Continuous
 62
     7
370
    15
100
AcDbLine
 10
259.4314097185313
 20
109.4443613609476
 30
0.0
 11
261.0577393148223
 21
108.5054834582857
 31
0.0
  0
LINE
  5
775
330
656
100
AcDbEntity
  8
0
  6
Continuous
 62
     7
370
    15
100
AcDbLine
 10
261.1284506635247
 20
108.5463159723375
 30
0.0
 11
261.0577393148223
 21
108.5054834582857
 31
0.0
  0
LINE
  5
776
330
656
100
AcDbEntity
  8
0
  6
Continuous
 62
     7
370
    15
100
AcDbLine
 10
263.8154557614963
 20
110.0974792763666
 30
0.0
 11
263.886167110199
 21
110.1383117904187
 31
0.0
  0
LINE
  5
777
330
656
100
AcDbEntity
  8
0
  6
Continuous
 62
     7
370
    15
100
AcDbLine
 10
263.3911896809366
 20
109.8525205173928
 30
0.0
 11
263.8154557614963
 21
110.0974792763666
 31
0.0
  0
LINE
  5
778
330
656
100
AcDbEntity
  8
0
  6
Continuous
 62
     7
370
    15
100
AcDbLine
 10
263.3911896809366
 20
109.8525205173928
 30
0.0
 11
261.0577373029893
 21
108.5054471328679
 31
0.0
  0
LINE
  5
779
330
656
100
AcDbEntity
  8
0
  6
Continuous
 62
     7
370
    15
100
AcDbLine
 10
261.0577393148223
 20
108.5054834582857
 30
0.0
 11
261.0577373029893
 21
108.5054471328679
 31
0.0
  0
LINE
  5
77A
330
656
100
AcDbEntity
  8
0
  6
Continuous
 62
     7
370
    15
100
AcDbLine
 10
259.431409718481
 20
109.4443551270722
 30
0.0
 11
259.7851254924433
 21
109.2401242304962
 31
0.0
  0
LINE
  5
77B
330
656
100
AcDbEntity
  8
0
  6
Continuous
 62
     7
370
    15
100
AcDbLine
 10
261.0577373029893
 20
108.5054471328679
 30
0.0
 11
259.7851254924433
 21
109.2401242304962
 31
0.0
  0
ARC
  5
77C
330
656
100
AcDbEntity
  8
0
  6
Continuous
 62
     7
370
    15
100
AcDbCircle
 10
261.1734188312671
 20
107.4253869977946
 30
0.0
 40
0.3073607411353826
100
AcDbArc
 50
2.605308358403886
 51
57.39453491773698
  0
LINE
  5
77D
330
656
100
AcDbEntity
  8
0
  6
Continuous
 62
     7
370
    15
100
AcDbLine
 10
261.4804618728752
 20
107.4393582465317
 30
0.0
 11
261.4804186532265
 21
102.1769194910625
 31
0.0
  0
LINE
  5
77E
330
656
100
AcDbEntity
  8
0
  6
Continuous
 62
     7
370
    15
100
AcDbLine
 10
259.5742938273336
 20
103.2773189338946
 30
0.0
 11
261.4804186532265
 21
102.1769194910625
 31
0.0
  0
LINE
  5
77F
330
656
100
AcDbEntity
  8
0
  6
Continuous
 62
     7
370
    15
100
AcDbLine
 10
259.5742938273336
 20
103.2773189338946
 30
0.0
 11
259.5743370469551
 21
108.5397569149942
 31
0.0
  0
ARC
  5
780
330
656
100
AcDbEntity
  8
0
  6
Continuous
 62
     7
370
    15
100
AcDbCircle
 10
259.6605520618272
 20
108.5537405451347
 30
0.0
 40
0.0873416893659982
100
AcDbArc
 50
50.79661220715983
 51
189.2128505995408
  0
LINE
  5
781
330
656
100
AcDbEntity
  8
0
  6
Continuous
 62
     7
370
    15
100
AcDbLine
 10
259.9617165497752
 20
108.4794333440535
 30
0.0
 11
259.7157585708401
 21
108.6214222418031
 31
0.0
  0
ARC
  5
782
330
656
100
AcDbEntity
  8
0
  6
Continuous
 62
     7
370
    15
100
AcDbCircle
 10
260.01692626459
 20
108.5471121807702
 30
0.0
 40
0.0873414995821983
100
AcDbArc
 50
230.79379673072
 51
9.21482170296691
  0
LINE
  5
783
330
656
100
AcDbEntity
  8
0
  6
Continuous
 62
     7
370
    15
100
AcDbLine
 10
260.1031426454702
 20
109.0565333530224
 30
0.0
 11
260.1031406110083
 21
108.5610987465012
 31
0.0
  0
LINE
  5
784
330
656
100
AcDbEntity
  8
0
  6
Continuous
 62
     7
370
    15
100
AcDbLine
 10
260.95166621104
 20
108.0712445026758
 30
0.0
 11
260.9516702799748
 21
108.5666794835161
 31
0.0
  0
ARC
  5
785
330
656
100
AcDbEntity
  8
0
  6
Continuous
 62
     7
370
    15
100
AcDbCircle
 10
261.2587082272924
 20
108.0852143386643
 30
0.0
 40
0.3073596526251724
100
AcDbArc
 50
182.6050539645043
 51
237.3945949214054
  0
LINE
  5
786
330
656
100
AcDbEntity
  8
0
  6
Continuous
 62
     7
370
    15
100
AcDbLine
 10
261.3390405166395
 20
107.6843079944821
 30
0.0
 11
261.093087399622
 21
107.8262940854904
 31
0.0
  0
LINE
  5
787
330
656
100
AcDbEntity
  8
0
  6
Continuous
 62
     7
370
    15
100
AcDbLine
 10
268.305678042793
 20
117.4908200876954
 30
0.0
 11
266.5379110898266
 21
116.4703099479171
 31
0.0
  0
LINE
  5
788
330
656
100
AcDbEntity
  8
0
  6
Continuous
 62
     7
370
    15
100
AcDbLine
 10
268.1288393159094
 20
116.5314038563425
 30
0.0
 11
268.305678042793
 21
117.4908200876954
 31
0.0
  0
LINE
  5
789
330
656
100
AcDbEntity
  8
0
  6
Continuous
 62
     7
370
    15
100
AcDbLine
 10
266.361072362943
 20
115.5108937165642
 30
0.0
 11
266.5379110898266
 21
116.4703099479171
 31
0.0
  0
LINE
  5
78A
330
656
100
AcDbEntity
  8
0
  6
Continuous
 62
     7
370
    15
100
AcDbLine
 10
266.5379110898266
 20
116.4703099479171
 30
0.0
 11
266.3610810808713
 21
116.5723917392149
 31
0.0
  0
LINE
  5
78B
330
656
100
AcDbEntity
  8
0
  6
Continuous
 62
     7
370
    15
100
AcDbLine
 10
268.305678042793
 20
117.4908200876954
 30
0.0
 11
268.1288480338375
 21
117.5929018789933
 31
0.0
  0
LINE
  5
78C
330
656
100
AcDbEntity
  8
0
  6
Continuous
 62
     7
370
    15
100
AcDbLine
 10
263.0729906235441
 20
109.668828111563
 30
0.0
 11
263.072989091994
 21
109.2958544312625
 31
0.0
  0
LINE
  5
78D
330
656
100
AcDbEntity
  8
0
  6
Continuous
 62
     7
370
    15
100
AcDbLine
 10
263.072989091994
 20
109.2958544312625
 30
0.0
 11
260.95166621104
 21
108.0712445026758
 31
0.0
  0
LINE
  5
78E
330
656
100
AcDbEntity
  8
0
  6
Continuous
 62
     7
370
    15
100
AcDbLine
 10
256.9461839792511
 20
98.22736458070563
 30
0.0
 11
255.0400591533634
 21
99.32776402354285
 31
0.0
  0
LINE
  5
78F
330
656
100
AcDbEntity
  8
0
  6
Continuous
 62
     7
370
    15
100
AcDbLine
 10
255.0400591533634
 20
99.32776402354285
 30
0.0
 11
254.8366783933837
 21
100.5423517592902
 31
0.0
  0
LINE
  5
790
330
656
100
AcDbEntity
  8
0
  6
Continuous
 62
     7
370
    15
100
AcDbLine
 10
261.4804618728752
 20
107.4393582465317
 30
0.0
 11
263.6017822164266
 21
108.663970414261
 31
0.0
  0
LINE
  5
791
330
656
100
AcDbEntity
  8
0
  6
Continuous
 62
     7
370
    15
100
AcDbLine
 10
263.46036102784
 20
108.9089204442399
 30
0.0
 11
261.3390405166395
 21
107.6843079944821
 31
0.0
  0
ARC
  5
792
330
656
100
AcDbEntity
  8
0
  6
Continuous
 62
     7
370
    15
100
AcDbCircle
 10
263.2947401108544
 20
108.6500001174111
 30
0.0
 40
0.3073597627997767
100
AcDbArc
 50
2.605139029398754
 51
57.39458829436705
  0
LINE
  5
793
330
656
100
AcDbEntity
  8
0
  6
Continuous
 62
     7
370
    15
100
AcDbLine
 10
263.6017435793681
 20
103.9595096797716
 30
0.0
 11
263.6017822164266
 21
108.663970414261
 31
0.0
  0
LINE
  5
794
330
656
100
AcDbEntity
  8
0
  6
Continuous
 62
     7
370
    15
100
AcDbLine
 10
263.3131349961357
 20
101.9029271662018
 30
0.0
 11
263.6017435793681
 21
103.9595096797716
 31
0.0
  0
ARC
  5
795
330
656
100
AcDbEntity
  8
0
  6
Continuous
 62
     7
370
    15
100
AcDbCircle
 10
262.7720152502011
 20
101.9856422869994
 30
0.0
 40
0.5474051247923031
100
AcDbArc
 50
302.9067125962153
 51
351.309087834357
  0
LINE
  5
796
330
656
100
AcDbEntity
  8
0
  6
Continuous
 62
     7
370
    15
100
AcDbLine
 10
261.927524957754
 20
100.8668712609106
 30
0.0
 11
263.0694055724646
 21
101.5260649084516
 31
0.0
  0
LWPOLYLINE
  5
797
330
656
100
AcDbEntity
  8
0
  6
Continuous
 62
     7
370
    15
100
AcDbPolyline
 90
        9
 70
   128
 43
0.0
 10
261.927524957754
 20
100.8668712609106
 10
261.884549262023
 20
100.846403660068
 10
261.8428794323766
 20
100.8352414785321
 10
261.8037815855026
 20
100.8337238735407
 10
261.7684436896939
 20
100.8418969567534
 10
261.7379394690324
 20
100.8595123931726
 10
261.7131957788274
 20
100.8860349466767
 10
261.6949644435849
 20
100.9206587428981
 10
261.683799413201
 20
100.96233175531
  0
LINE
  5
798
330
656
100
AcDbEntity
  8
0
  6
Continuous
 62
     7
370
    15
100
AcDbLine
 10
261.4804186532265
 20
102.1769194910625
 30
0.0
 11
261.683799413201
 21
100.96233175531
 31
0.0
  0
LINE
  5
799
330
656
100
AcDbEntity
  8
0
  6
Continuous
 62
     7
370
    15
100
AcDbLine
 10
263.2144077432006
 20
109.0509066320444
 30
0.0
 11
263.46036102784
 21
108.9089204442399
 31
0.0
  0
LINE
  5
79A
330
656
100
AcDbEntity
  8
0
  6
Continuous
 62
     7
370
    15
100
AcDbLine
 10
263.2144077432006
 20
109.0509066320444
 30
0.0
 11
261.093087399622
 21
107.8262940854904
 31
0.0
  0
ARC
  5
79B
330
656
100
AcDbEntity
  8
0
  6
Continuous
 62
     7
370
    15
100
AcDbCircle
 10
263.3800400836702
 20
109.309830500776
 30
0.0
 40
0.3073689021492183
100
AcDbArc
 50
182.6061386941995
 51
237.3931502364659
  0
ARC
  5
79C
330
656
100
AcDbEntity
  8
0
  6
Continuous
 62
     7
370
    15
100
AcDbCircle
 10
255.1905576425986
 20
99.34214533098105
 30
0.0
 40
0.1511840509634362
100
AcDbArc
 50
185.4584856578165
 51
237.2621693261827
  0
LINE
  5
79D
330
656
100
AcDbEntity
  8
0
  6
Continuous
 62
     7
370
    15
100
AcDbLine
 10
264.1690337126197
 20
113.2424597309166
 30
0.0
 11
265.8660741582052
 21
112.262760549449
 31
0.0
  0
LINE
  5
79E
330
656
100
AcDbEntity
  8
0
  6
Continuous
 62
     7
370
    15
100
AcDbLine
 10
268.906649146972
 20
115.9774768877459
 30
0.0
 11
270.3208495621434
 21
115.1610608778752
 31
0.0
  0
LINE
  5
79F
330
656
100
AcDbEntity
  8
0
  6
Continuous
 62
     7
370
    15
100
AcDbLine
 10
264.1690251524813
 20
112.1793285355516
 30
0.0
 11
265.7953547487721
 21
111.24045063289
 31
0.0
  0
LINE
  5
7A0
330
656
100
AcDbEntity
  8
0
  6
Continuous
 62
     7
370
    15
100
AcDbLine
 10
265.8660660974745
 20
111.2812831469417
 30
0.0
 11
265.7953547487721
 21
111.24045063289
 31
0.0
  0
LINE
  5
7A1
330
656
100
AcDbEntity
  8
0
  6
Continuous
 62
     7
370
    15
100
AcDbLine
 10
268.5530711954462
 20
112.8324464509709
 30
0.0
 11
268.6237825441489
 21
112.8732789650229
 31
0.0
  0
LINE
  5
7A2
330
656
100
AcDbEntity
  8
0
  6
Continuous
 62
     7
370
    15
100
AcDbLine
 10
268.1288051148865
 20
112.587487691997
 30
0.0
 11
268.5530711954462
 21
112.8324464509709
 31
0.0
  0
LINE
  5
7A3
330
656
100
AcDbEntity
  8
0
  6
Continuous
 62
     7
370
    15
100
AcDbLine
 10
268.1288051148865
 20
112.587487691997
 30
0.0
 11
265.7953527369391
 21
111.2404143074722
 31
0.0
  0
LINE
  5
7A4
330
656
100
AcDbEntity
  8
0
  6
Continuous
 62
     7
370
    15
100
AcDbLine
 10
265.7953547487721
 20
111.24045063289
 30
0.0
 11
265.7953527369391
 21
111.2404143074722
 31
0.0
  0
LINE
  5
7A5
330
656
100
AcDbEntity
  8
0
  6
Continuous
 62
     7
370
    15
100
AcDbLine
 10
264.1690251524311
 20
112.1793223016762
 30
0.0
 11
264.5227409263933
 21
111.9750914051006
 31
0.0
  0
LINE
  5
7A6
330
656
100
AcDbEntity
  8
0
  6
Continuous
 62
     7
370
    15
100
AcDbLine
 10
265.7953527369391
 20
111.2404143074722
 30
0.0
 11
264.5227409263933
 21
111.9750914051006
 31
0.0
  0
ARC
  5
7A7
330
656
100
AcDbEntity
  8
0
  6
Continuous
 62
     7
370
    15
100
AcDbCircle
 10
265.9110342652166
 20
110.1603541723987
 30
0.0
 40
0.3073607411355995
100
AcDbArc
 50
2.605308358436362
 51
57.39453491773767
  0
LINE
  5
7A8
330
656
100
AcDbEntity
  8
0
  6
Continuous
 62
     7
370
    15
100
AcDbLine
 10
266.218077306825
 20
110.174325421136
 30
0.0
 11
266.2180340871763
 21
104.9118866656668
 31
0.0
  0
LINE
  5
7A9
330
656
100
AcDbEntity
  8
0
  6
Continuous
 62
     7
370
    15
100
AcDbLine
 10
264.3119092612836
 20
106.0122861084989
 30
0.0
 11
266.2180340871763
 21
104.9118866656668
 31
0.0
  0
LINE
  5
7AA
330
656
100
AcDbEntity
  8
0
  6
Continuous
 62
     7
370
    15
100
AcDbLine
 10
264.3119092612836
 20
106.0122861084989
 30
0.0
 11
264.311952480905
 21
111.2747240895984
 31
0.0
  0
ARC
  5
7AB
330
656
100
AcDbEntity
  8
0
  6
Continuous
 62
     7
370
    15
100
AcDbCircle
 10
264.3981674957771
 20
111.288707719739
 30
0.0
 40
0.0873416893659512
100
AcDbArc
 50
50.79661220718283
 51
189.2128505995928
  0
LINE
  5
7AC
330
656
100
AcDbEntity
  8
0
  6
Continuous
 62
     7
370
    15
100
AcDbLine
 10
264.6993319837251
 20
111.2144005186577
 30
0.0
 11
264.4533740047898
 21
111.3563894164074
 31
0.0
  0
ARC
  5
7AD
330
656
100
AcDbEntity
  8
0
  6
Continuous
 62
     7
370
    15
100
AcDbCircle
 10
264.7545416985399
 20
111.2820793553745
 30
0.0
 40
0.0873414995822522
100
AcDbArc
 50
230.7937967307901
 51
9.214821702951738
  0
LINE
  5
7AE
330
656
100
AcDbEntity
  8
0
  6
Continuous
 62
     7
370
    15
100
AcDbLine
 10
264.8407580794203
 20
111.7915005276267
 30
0.0
 11
264.8407560449582
 21
111.2960659211055
 31
0.0
  0
LINE
  5
7AF
330
656
100
AcDbEntity
  8
0
  6
Continuous
 62
     7
370
    15
100
AcDbLine
 10
265.6892816449899
 20
110.80621167728
 30
0.0
 11
265.6892857139246
 21
111.3016466581204
 31
0.0
  0
ARC
  5
7B0
330
656
100
AcDbEntity
  8
0
  6
Continuous
 62
     7
370
    15
100
AcDbCircle
 10
265.9963236612414
 20
110.820181513268
 30
0.0
 40
0.3073596526242815
100
AcDbArc
 50
182.6050539644322
 51
237.3945949214851
  0
LINE
  5
7B1
330
656
100
AcDbEntity
  8
0
  6
Continuous
 62
     7
370
    15
100
AcDbLine
 10
266.0766559505893
 20
110.4192751690864
 30
0.0
 11
265.8307028335718
 21
110.5612612600947
 31
0.0
  0
LINE
  5
7B2
330
656
100
AcDbEntity
  8
0
  6
Continuous
 62
     7
370
    15
100
AcDbLine
 10
273.0432934767429
 20
120.2257872622997
 30
0.0
 11
271.2755265237766
 21
119.2052771225213
 31
0.0
  0
LINE
  5
7B3
330
656
100
AcDbEntity
  8
0
  6
Continuous
 62
     7
370
    15
100
AcDbLine
 10
272.8664547498591
 20
119.2663710309469
 30
0.0
 11
273.0432934767429
 21
120.2257872622997
 31
0.0
  0
LINE
  5
7B4
330
656
100
AcDbEntity
  8
0
  6
Continuous
 62
     7
370
    15
100
AcDbLine
 10
271.0986877968928
 20
118.2458608911685
 30
0.0
 11
271.2755265237766
 21
119.2052771225213
 31
0.0
  0
LINE
  5
7B5
330
656
100
AcDbEntity
  8
0
  6
Continuous
 62
     7
370
    15
100
AcDbLine
 10
273.0432934767429
 20
120.2257872622997
 30
0.0
 11
272.8664634677875
 21
120.3278690535976
 31
0.0
  0
LINE
  5
7B6
330
656
100
AcDbEntity
  8
0
  6
Continuous
 62
     7
370
    15
100
AcDbLine
 10
271.2755265237766
 20
119.2052771225213
 30
0.0
 11
271.0986965148212
 21
119.3073589138192
 31
0.0
  0
LINE
  5
7B7
330
656
100
AcDbEntity
  8
0
  6
Continuous
 62
     7
370
    15
100
AcDbLine
 10
267.8106060574941
 20
112.4037952861671
 30
0.0
 11
267.8106045259438
 21
112.0308216058667
 31
0.0
  0
LINE
  5
7B8
330
656
100
AcDbEntity
  8
0
  6
Continuous
 62
     7
370
    15
100
AcDbLine
 10
267.8106045259438
 20
112.0308216058667
 30
0.0
 11
265.6892816449899
 21
110.80621167728
 31
0.0
  0
LINE
  5
7B9
330
656
100
AcDbEntity
  8
0
  6
Continuous
 62
     7
370
    15
100
AcDbLine
 10
261.683799413201
 20
100.96233175531
 30
0.0
 11
259.7776745873133
 21
102.0627311981472
 31
0.0
  0
LINE
  5
7BA
330
656
100
AcDbEntity
  8
0
  6
Continuous
 62
     7
370
    15
100
AcDbLine
 10
259.7776745873133
 20
102.0627311981472
 30
0.0
 11
259.5742938273336
 21
103.2773189338946
 31
0.0
  0
LINE
  5
7BB
330
656
100
AcDbEntity
  8
0
  6
Continuous
 62
     7
370
    15
100
AcDbLine
 10
266.218077306825
 20
110.174325421136
 30
0.0
 11
268.3393976503765
 21
111.3989375888653
 31
0.0
  0
LINE
  5
7BC
330
656
100
AcDbEntity
  8
0
  6
Continuous
 62
     7
370
    15
100
AcDbLine
 10
268.1979764617899
 20
111.6438876188442
 30
0.0
 11
266.0766559505893
 21
110.4192751690864
 31
0.0
  0
ARC
  5
7BD
330
656
100
AcDbEntity
  8
0
  6
Continuous
 62
     7
370
    15
100
AcDbCircle
 10
268.0323555448037
 20
111.3849672920151
 30
0.0
 40
0.3073597628002541
100
AcDbArc
 50
2.605139029442053
 51
57.39458829432133
  0
LINE
  5
7BE
330
656
100
AcDbEntity
  8
0
  6
Continuous
 62
     7
370
    15
100
AcDbLine
 10
268.3393590133181
 20
106.6944768543758
 30
0.0
 11
268.3393976503765
 21
111.3989375888653
 31
0.0
  0
LINE
  5
7BF
330
656
100
AcDbEntity
  8
0
  6
Continuous
 62
     7
370
    15
100
AcDbLine
 10
268.0507504300855
 20
104.6378943408059
 30
0.0
 11
268.3393590133181
 21
106.6944768543758
 31
0.0
  0
ARC
  5
7C0
330
656
100
AcDbEntity
  8
0
  6
Continuous
 62
     7
370
    15
100
AcDbCircle
 10
267.5096306841515
 20
104.7206094616033
 30
0.0
 40
0.54740512479175
100
AcDbArc
 50
302.9067125961963
 51
351.3090878343695
  0
LINE
  5
7C1
330
656
100
AcDbEntity
  8
0
  6
Continuous
 62
     7
370
    15
100
AcDbLine
 10
266.6651403917037
 20
103.6018384355149
 30
0.0
 11
267.8070210064145
 21
104.2610320830559
 31
0.0
  0
LWPOLYLINE
  5
7C2
330
656
100
AcDbEntity
  8
0
  6
Continuous
 62
     7
370
    15
100
AcDbPolyline
 90
        9
 70
   128
 43
0.0
 10
266.6651403917037
 20
103.6018384355149
 10
266.6221646959729
 20
103.5813708346723
 10
266.5804948663265
 20
103.5702086531363
 10
266.5413970194526
 20
103.5686910481449
 10
266.5060591236438
 20
103.5768641313577
 10
266.4755549029824
 20
103.5944795677767
 10
266.4508112127772
 20
103.621002121281
 10
266.4325798775347
 20
103.6556259175023
 10
266.4214148471509
 20
103.6972989299143
  0
LINE
  5
7C3
330
656
100
AcDbEntity
  8
0
  6
Continuous
 62
     7
370
    15
100
AcDbLine
 10
266.2180340871763
 20
104.9118866656668
 30
0.0
 11
266.4214148471509
 21
103.6972989299143
 31
0.0
  0
LINE
  5
7C4
330
656
100
AcDbEntity
  8
0
  6
Continuous
 62
     7
370
    15
100
AcDbLine
 10
267.9520231771504
 20
111.7858738066485
 30
0.0
 11
268.1979764617899
 21
111.6438876188442
 31
0.0
  0
LINE
  5
7C5
330
656
100
AcDbEntity
  8
0
  6
Continuous
 62
     7
370
    15
100
AcDbLine
 10
267.9520231771504
 20
111.7858738066485
 30
0.0
 11
265.8307028335718
 21
110.5612612600947
 31
0.0
  0
ARC
  5
7C6
330
656
100
AcDbEntity
  8
0
  6
Continuous
 62
     7
370
    15
100
AcDbCircle
 10
268.1176555176202
 20
112.0447976753802
 30
0.0
 40
0.3073689021493307
100
AcDbArc
 50
182.6061386941932
 51
237.3931502364391
  0
ARC
  5
7C7
330
656
100
AcDbEntity
  8
0
  6
Continuous
 62
     7
370
    15
100
AcDbCircle
 10
259.9281730765489
 20
102.0771125055855
 30
0.0
 40
0.151184050963875
100
AcDbArc
 50
185.4584856578601
 51
237.2621693260517
  0
LINE
  5
7C8
330
656
100
AcDbEntity
  8
0
  6
Continuous
 62
     7
370
    15
100
AcDbLine
 10
268.9066491465695
 20
115.977426905521
 30
0.0
 11
270.6036895921551
 21
114.9977277240532
 31
0.0
  0
LINE
  5
7C9
330
656
100
AcDbEntity
  8
0
  6
Continuous
 62
     7
370
    15
100
AcDbLine
 10
273.6442645809219
 20
118.7124440623503
 30
0.0
 11
275.0584649960932
 21
117.8960280524795
 31
0.0
  0
LINE
  5
7CA
330
656
100
AcDbEntity
  8
0
  6
Continuous
 62
     7
370
    15
100
AcDbLine
 10
268.9066405864313
 20
114.9142957101559
 30
0.0
 11
270.532970182722
 21
113.9754178074942
 31
0.0
  0
LINE
  5
7CB
330
656
100
AcDbEntity
  8
0
  6
Continuous
 62
     7
370
    15
100
AcDbLine
 10
270.6036815314246
 20
114.016250321546
 30
0.0
 11
270.532970182722
 21
113.9754178074942
 31
0.0
  0
LINE
  5
7CC
330
656
100
AcDbEntity
  8
0
  6
Continuous
 62
     7
370
    15
100
AcDbLine
 10
273.290686629396
 20
115.5674136255752
 30
0.0
 11
273.3613979780987
 21
115.6082461396273
 31
0.0
  0
LINE
  5
7CD
330
656
100
AcDbEntity
  8
0
  6
Continuous
 62
     7
370
    15
100
AcDbLine
 10
272.8664205488362
 20
115.3224548666012
 30
0.0
 11
273.290686629396
 21
115.5674136255752
 31
0.0
  0
LINE
  5
7CE
330
656
100
AcDbEntity
  8
0
  6
Continuous
 62
     7
370
    15
100
AcDbLine
 10
272.8664205488362
 20
115.3224548666012
 30
0.0
 11
270.532968170889
 21
113.9753814820763
 31
0.0
  0
LINE
  5
7CF
330
656
100
AcDbEntity
  8
0
  6
Continuous
 62
     7
370
    15
100
AcDbLine
 10
270.532970182722
 20
113.9754178074942
 30
0.0
 11
270.532968170889
 21
113.9753814820763
 31
0.0
  0
LINE
  5
7D0
330
656
100
AcDbEntity
  8
0
  6
Continuous
 62
     7
370
    15
100
AcDbLine
 10
268.9066405863811
 20
114.9142894762808
 30
0.0
 11
269.2603563603431
 21
114.7100585797049
 31
0.0
  0
LINE
  5
7D1
330
656
100
AcDbEntity
  8
0
  6
Continuous
 62
     7
370
    15
100
AcDbLine
 10
270.532968170889
 20
113.9753814820763
 30
0.0
 11
269.2603563603431
 21
114.7100585797049
 31
0.0
  0
ARC
  5
7D2
330
656
100
AcDbEntity
  8
0
  6
Continuous
 62
     7
370
    15
100
AcDbCircle
 10
270.6486496991667
 20
112.8953213470029
 30
0.0
 40
0.3073607411355435
100
AcDbArc
 50
2.605308358463307
 51
57.39453491776874
  0
LINE
  5
7D3
330
656
100
AcDbEntity
  8
0
  6
Continuous
 62
     7
370
    15
100
AcDbLine
 10
270.955692740775
 20
112.9092925957403
 30
0.0
 11
270.9556495211263
 21
107.646853840271
 31
0.0
  0
LINE
  5
7D4
330
656
100
AcDbEntity
  8
0
  6
Continuous
 62
     7
370
    15
100
AcDbLine
 10
269.0495246952333
 20
108.7472532831033
 30
0.0
 11
270.9556495211263
 21
107.646853840271
 31
0.0
  0
LINE
  5
7D5
330
656
100
AcDbEntity
  8
0
  6
Continuous
 62
     7
370
    15
100
AcDbLine
 10
269.0495246952333
 20
108.7472532831033
 30
0.0
 11
269.0495679148548
 21
114.0096912642027
 31
0.0
  0
ARC
  5
7D6
330
656
100
AcDbEntity
  8
0
  6
Continuous
 62
     7
370
    15
100
AcDbCircle
 10
269.135782929727
 20
114.0236748943431
 30
0.0
 40
0.0873416893660596
100
AcDbArc
 50
50.79661220718929
 51
189.2128505994093
  0
LINE
  5
7D7
330
656
100
AcDbEntity
  8
0
  6
Continuous
 62
     7
370
    15
100
AcDbLine
 10
269.436947417675
 20
113.949367693262
 30
0.0
 11
269.1909894387399
 21
114.0913565910116
 31
0.0
  0
ARC
  5
7D8
330
656
100
AcDbEntity
  8
0
  6
Continuous
 62
     7
370
    15
100
AcDbCircle
 10
269.4921571324899
 20
114.0170465299787
 30
0.0
 40
0.0873414995821112
100
AcDbArc
 50
230.7937967307193
 51
9.214821703080074
  0
LINE
  5
7D9
330
656
100
AcDbEntity
  8
0
  6
Continuous
 62
     7
370
    15
100
AcDbLine
 10
269.5783735133699
 20
114.5264677022309
 30
0.0
 11
269.5783714789079
 21
114.0310330957098
 31
0.0
  0
LINE
  5
7DA
330
656
100
AcDbEntity
  8
0
  6
Continuous
 62
     7
370
    15
100
AcDbLine
 10
270.4268970789399
 20
113.5411788518843
 30
0.0
 11
270.4269011478746
 21
114.0366138327246
 31
0.0
  0
ARC
  5
7DB
330
656
100
AcDbEntity
  8
0
  6
Continuous
 62
     7
370
    15
100
AcDbCircle
 10
270.7339390951914
 20
113.5551486878723
 30
0.0
 40
0.3073596526242802
100
AcDbArc
 50
182.6050539644269
 51
237.3945949214851
  0
LINE
  5
7DC
330
656
100
AcDbEntity
  8
0
  6
Continuous
 62
     7
370
    15
100
AcDbLine
 10
270.8142713845392
 20
113.1542423436906
 30
0.0
 11
270.5683182675218
 21
113.296228434699
 31
0.0
  0
LINE
  5
7DD
330
656
100
AcDbEntity
  8
0
  6
Continuous
 62
     7
370
    15
100
AcDbLine
 10
277.7809089106926
 20
122.9607544369039
 30
0.0
 11
277.6040789017374
 21
123.0628362282018
 31
0.0
  0
LINE
  5
7DE
330
656
100
AcDbEntity
  8
0
  6
Continuous
 62
     7
370
    15
100
AcDbLine
 10
277.7809089106926
 20
122.9607544369039
 30
0.0
 11
276.0131419577263
 21
121.9402442971255
 31
0.0
  0
LINE
  5
7DF
330
656
100
AcDbEntity
  8
0
  6
Continuous
 62
     7
370
    15
100
AcDbLine
 10
276.0131419577263
 20
121.9402442971255
 30
0.0
 11
275.836311948771
 21
122.0423260884234
 31
0.0
  0
LINE
  5
7E0
330
656
100
AcDbEntity
  8
0
  6
Continuous
 62
     7
370
    15
100
AcDbLine
 10
277.6040701838092
 20
122.0013382055512
 30
0.0
 11
277.7809089106926
 21
122.9607544369039
 31
0.0
  0
LINE
  5
7E1
330
656
100
AcDbEntity
  8
0
  6
Continuous
 62
     7
370
    15
100
AcDbLine
 10
275.8363032308429
 20
120.9808280657728
 30
0.0
 11
276.0131419577263
 21
121.9402442971255
 31
0.0
  0
LINE
  5
7E2
330
656
100
AcDbEntity
  8
0
  6
Continuous
 62
     7
370
    15
100
AcDbLine
 10
272.5482214914441
 20
115.1387624607715
 30
0.0
 11
272.5482199598936
 21
114.765788780471
 31
0.0
  0
LINE
  5
7E3
330
656
100
AcDbEntity
  8
0
  6
Continuous
 62
     7
370
    15
100
AcDbLine
 10
272.5482199598936
 20
114.765788780471
 30
0.0
 11
270.4268970789399
 21
113.5411788518843
 31
0.0
  0
LINE
  5
7E4
330
656
100
AcDbEntity
  8
0
  6
Continuous
 62
     7
370
    15
100
AcDbLine
 10
266.4214148471509
 20
103.6972989299143
 30
0.0
 11
264.5152900212632
 21
104.7976983727515
 31
0.0
  0
LINE
  5
7E5
330
656
100
AcDbEntity
  8
0
  6
Continuous
 62
     7
370
    15
100
AcDbLine
 10
264.5152900212632
 20
104.7976983727515
 30
0.0
 11
264.3119092612836
 21
106.0122861084989
 31
0.0
  0
LINE
  5
7E6
330
656
100
AcDbEntity
  8
0
  6
Continuous
 62
     7
370
    15
100
AcDbLine
 10
270.955692740775
 20
112.9092925957403
 30
0.0
 11
273.0770130843263
 21
114.1339047634696
 31
0.0
  0
LINE
  5
7E7
330
656
100
AcDbEntity
  8
0
  6
Continuous
 62
     7
370
    15
100
AcDbLine
 10
272.9355918957397
 20
114.3788547934485
 30
0.0
 11
270.8142713845392
 21
113.1542423436906
 31
0.0
  0
ARC
  5
7E8
330
656
100
AcDbEntity
  8
0
  6
Continuous
 62
     7
370
    15
100
AcDbCircle
 10
272.769970978754
 20
114.1199344666196
 30
0.0
 40
0.3073597627998489
100
AcDbArc
 50
2.605139029413669
 51
57.39458829437561
  0
LINE
  5
7E9
330
656
100
AcDbEntity
  8
0
  6
Continuous
 62
     7
370
    15
100
AcDbLine
 10
273.0769744472679
 20
109.4294440289801
 30
0.0
 11
273.0770130843263
 21
114.1339047634696
 31
0.0
  0
LINE
  5
7EA
330
656
100
AcDbEntity
  8
0
  6
Continuous
 62
     7
370
    15
100
AcDbLine
 10
272.7883658640355
 20
107.3728615154102
 30
0.0
 11
273.0769744472679
 21
109.4294440289801
 31
0.0
  0
ARC
  5
7EB
330
656
100
AcDbEntity
  8
0
  6
Continuous
 62
     7
370
    15
100
AcDbCircle
 10
272.247246118101
 20
107.455576636208
 30
0.0
 40
0.5474051247922511
100
AcDbArc
 50
302.9067125961912
 51
351.3090878343414
  0
LINE
  5
7EC
330
656
100
AcDbEntity
  8
0
  6
Continuous
 62
     7
370
    15
100
AcDbLine
 10
271.4027558256538
 20
106.3368056101192
 30
0.0
 11
272.5446364403643
 21
106.9959992576601
 31
0.0
  0
LWPOLYLINE
  5
7ED
330
656
100
AcDbEntity
  8
0
  6
Continuous
 62
     7
370
    15
100
AcDbPolyline
 90
        9
 70
   128
 43
0.0
 10
271.4027558256538
 20
106.3368056101192
 10
271.3597801299228
 20
106.3163380092766
 10
271.3181103002764
 20
106.3051758277405
 10
271.2790124534024
 20
106.3036582227491
 10
271.2436745575937
 20
106.311831305962
 10
271.2131703369323
 20
106.329446742381
 10
271.1884266467271
 20
106.3559692958853
 10
271.1701953114847
 20
106.3905930921066
 10
271.1590302811007
 20
106.4322661045185
  0
LINE
  5
7EE
330
656
100
AcDbEntity
  8
0
  6
Continuous
 62
     7
370
    15
100
AcDbLine
 10
270.9556495211263
 20
107.646853840271
 30
0.0
 11
271.1590302811007
 21
106.4322661045185
 31
0.0
  0
LINE
  5
7EF
330
656
100
AcDbEntity
  8
0
  6
Continuous
 62
     7
370
    15
100
AcDbLine
 10
272.6896386111004
 20
114.5208409812528
 30
0.0
 11
272.9355918957397
 21
114.3788547934485
 31
0.0
  0
LINE
  5
7F0
330
656
100
AcDbEntity
  8
0
  6
Continuous
 62
     7
370
    15
100
AcDbLine
 10
272.6896386111004
 20
114.5208409812528
 30
0.0
 11
270.5683182675218
 21
113.296228434699
 31
0.0
  0
ARC
  5
7F1
330
656
100
AcDbEntity
  8
0
  6
Continuous
 62
     7
370
    15
100
AcDbCircle
 10
272.8552709515707
 20
114.779764849985
 30
0.0
 40
0.3073689021500366
100
AcDbArc
 50
182.606138694288
 51
237.3931502364234
  0
ARC
  5
7F2
330
656
100
AcDbEntity
  8
0
  6
Continuous
 62
     7
370
    15
100
AcDbCircle
 10
264.665788510498
 20
104.8120796801893
 30
0.0
 40
0.1511840509629735
100
AcDbArc
 50
185.4584856576817
 51
237.2621693261918
  0
LINE
  5
7F3
330
656
100
AcDbEntity
  8
0
  6
Continuous
 62
     7
370
    15
100
AcDbLine
 10
273.6442645805193
 20
118.7123940801253
 30
0.0
 11
275.3413050261049
 21
117.7326948986575
 31
0.0
  0
LINE
  5
7F4
330
656
100
AcDbEntity
  8
0
  6
Continuous
 62
     7
370
    15
100
AcDbLine
 10
278.3818800148716
 20
121.4474112369548
 30
0.0
 11
279.796080430043
 21
120.6309952270839
 31
0.0
  0
LINE
  5
7F5
330
656
100
AcDbEntity
  8
0
  6
Continuous
 62
     7
370
    15
100
AcDbLine
 10
273.6442560203812
 20
117.6492628847602
 30
0.0
 11
275.2705856166719
 21
116.7103849820985
 31
0.0
  0
LINE
  5
7F6
330
656
100
AcDbEntity
  8
0
  6
Continuous
 62
     7
370
    15
100
AcDbLine
 10
275.3412969653743
 20
116.7512174961503
 30
0.0
 11
275.2705856166719
 21
116.7103849820985
 31
0.0
  0
LINE
  5
7F7
330
656
100
AcDbEntity
  8
0
  6
Continuous
 62
     7
370
    15
100
AcDbLine
 10
278.0283020633458
 20
118.3023808001794
 30
0.0
 11
278.0990134120487
 21
118.3432133142315
 31
0.0
  0
LINE
  5
7F8
330
656
100
AcDbEntity
  8
0
  6
Continuous
 62
     7
370
    15
100
AcDbLine
 10
277.6040359827863
 20
118.0574220412055
 30
0.0
 11
278.0283020633458
 21
118.3023808001794
 31
0.0
  0
LINE
  5
7F9
330
656
100
AcDbEntity
  8
0
  6
Continuous
 62
     7
370
    15
100
AcDbLine
 10
277.6040359827863
 20
118.0574220412055
 30
0.0
 11
275.2705836048388
 21
116.7103486566806
 31
0.0
  0
LINE
  5
7FA
330
656
100
AcDbEntity
  8
0
  6
Continuous
 62
     7
370
    15
100
AcDbLine
 10
275.2705856166719
 20
116.7103849820985
 30
0.0
 11
275.2705836048388
 21
116.7103486566806
 31
0.0
  0
LINE
  5
7FB
330
656
100
AcDbEntity
  8
0
  6
Continuous
 62
     7
370
    15
100
AcDbLine
 10
273.6442560203309
 20
117.6492566508848
 30
0.0
 11
273.9979717942931
 21
117.4450257543091
 31
0.0
  0
LINE
  5
7FC
330
656
100
AcDbEntity
  8
0
  6
Continuous
 62
     7
370
    15
100
AcDbLine
 10
275.2705836048388
 20
116.7103486566806
 30
0.0
 11
273.9979717942931
 21
117.4450257543091
 31
0.0
  0
ARC
  5
7FD
330
656
100
AcDbEntity
  8
0
  6
Continuous
 62
     7
370
    15
100
AcDbCircle
 10
275.3862651331159
 20
115.630288521607
 30
0.0
 40
0.3073607411360413
100
AcDbArc
 50
2.605308358477496
 51
57.3945349177023
  0
LINE
  5
7FE
330
656
100
AcDbEntity
  8
0
  6
Continuous
 62
     7
370
    15
100
AcDbLine
 10
275.6933081747248
 20
115.6442597703445
 30
0.0
 11
275.6932649550761
 21
110.3818210148752
 31
0.0
  0
LINE
  5
7FF
330
656
100
AcDbEntity
  8
0
  6
Continuous
 62
     7
370
    15
100
AcDbLine
 10
273.7871401291834
 20
111.4822204577074
 30
0.0
 11
275.6932649550761
 21
110.3818210148752
 31
0.0
  0
LINE
  5
800
330
656
100
AcDbEntity
  8
0
  6
Continuous
 62
     7
370
    15
100
AcDbLine
 10
273.7871401291834
 20
111.4822204577074
 30
0.0
 11
273.7871833488048
 21
116.744658438807
 31
0.0
  0
ARC
  5
801
330
656
100
AcDbEntity
  8
0
  6
Continuous
 62
     7
370
    15
100
AcDbCircle
 10
273.8733983636769
 20
116.7586420689475
 30
0.0
 40
0.0873416893659182
100
AcDbArc
 50
50.79661220716516
 51
189.212850599516
  0
LINE
  5
802
330
656
100
AcDbEntity
  8
0
  6
Continuous
 62
     7
370
    15
100
AcDbLine
 10
274.1745628516248
 20
116.6843348678662
 30
0.0
 11
273.9286048726897
 21
116.8263237656159
 31
0.0
  0
ARC
  5
803
330
656
100
AcDbEntity
  8
0
  6
Continuous
 62
     7
370
    15
100
AcDbCircle
 10
274.2297725664396
 20
116.7520137045831
 30
0.0
 40
0.0873414995822992
100
AcDbArc
 50
230.7937967307553
 51
9.214821702908958
  0
LINE
  5
804
330
656
100
AcDbEntity
  8
0
  6
Continuous
 62
     7
370
    15
100
AcDbLine
 10
274.3159889473201
 20
117.2614348768351
 30
0.0
 11
274.315986912858
 21
116.7660002703139
 31
0.0
  0
LINE
  5
805
330
656
100
AcDbEntity
  8
0
  6
Continuous
 62
     7
370
    15
100
AcDbLine
 10
275.1645125128896
 20
116.2761460264886
 30
0.0
 11
275.1645165818244
 21
116.7715810073289
 31
0.0
  0
ARC
  5
806
330
656
100
AcDbEntity
  8
0
  6
Continuous
 62
     7
370
    15
100
AcDbCircle
 10
275.4715545291418
 20
116.2901158624769
 30
0.0
 40
0.3073596526249421
100
AcDbArc
 50
182.6050539644745
 51
237.3945949214283
  0
LINE
  5
807
330
656
100
AcDbEntity
  8
0
  6
Continuous
 62
     7
370
    15
100
AcDbLine
 10
275.551886818489
 20
115.8892095182949
 30
0.0
 11
275.3059337014716
 21
116.0311956093032
 31
0.0
  0
LINE
  5
808
330
656
100
AcDbEntity
  8
0
  6
Continuous
 62
     7
370
    15
100
AcDbLine
 10
280.7507573916761
 20
124.6752114717301
 30
0.0
 11
280.5739273827208
 21
124.7772932630279
 31
0.0
  0
LINE
  5
809
330
656
100
AcDbEntity
  8
0
  6
Continuous
 62
     7
370
    15
100
AcDbLine
 10
280.5739186647926
 20
123.7157952403772
 30
0.0
 11
280.7507573916761
 21
124.6752114717301
 31
0.0
  0
LINE
  5
80A
330
656
100
AcDbEntity
  8
0
  6
Continuous
 62
     7
370
    15
100
AcDbLine
 10
282.5185243446426
 20
125.6957216115085
 30
0.0
 11
280.7507573916761
 21
124.6752114717301
 31
0.0
  0
LINE
  5
80B
330
656
100
AcDbEntity
  8
0
  6
Continuous
 62
     7
370
    15
100
AcDbLine
 10
282.341685617759
 20
124.7363053801556
 30
0.0
 11
282.5185243446426
 21
125.6957216115085
 31
0.0
  0
LINE
  5
80C
330
656
100
AcDbEntity
  8
0
  6
Continuous
 62
     7
370
    15
100
AcDbLine
 10
282.5185243446426
 20
125.6957216115085
 30
0.0
 11
282.3416943356873
 21
125.7978034028063
 31
0.0
  0
LINE
  5
80D
330
656
100
AcDbEntity
  8
0
  6
Continuous
 62
     7
370
    15
100
AcDbLine
 10
277.2858369253939
 20
117.8737296353758
 30
0.0
 11
277.2858353938437
 21
117.5007559550752
 31
0.0
  0
LINE
  5
80E
330
656
100
AcDbEntity
  8
0
  6
Continuous
 62
     7
370
    15
100
AcDbLine
 10
277.2858353938437
 20
117.5007559550752
 30
0.0
 11
275.1645125128896
 21
116.2761460264886
 31
0.0
  0
LINE
  5
80F
330
656
100
AcDbEntity
  8
0
  6
Continuous
 62
     7
370
    15
100
AcDbLine
 10
271.1590302811007
 20
106.4322661045185
 30
0.0
 11
269.2529054552131
 21
107.5326655473557
 31
0.0
  0
LINE
  5
810
330
656
100
AcDbEntity
  8
0
  6
Continuous
 62
     7
370
    15
100
AcDbLine
 10
269.2529054552131
 20
107.5326655473557
 30
0.0
 11
269.0495246952333
 21
108.7472532831033
 31
0.0
  0
LINE
  5
811
330
656
100
AcDbEntity
  8
0
  6
Continuous
 62
     7
370
    15
100
AcDbLine
 10
275.6933081747248
 20
115.6442597703445
 30
0.0
 11
277.8146285182761
 21
116.8688719380738
 31
0.0
  0
LINE
  5
812
330
656
100
AcDbEntity
  8
0
  6
Continuous
 62
     7
370
    15
100
AcDbLine
 10
277.6732073296897
 20
117.1138219680527
 30
0.0
 11
275.551886818489
 21
115.8892095182949
 31
0.0
  0
ARC
  5
813
330
656
100
AcDbEntity
  8
0
  6
Continuous
 62
     7
370
    15
100
AcDbCircle
 10
277.507586412704
 20
116.8549016412241
 30
0.0
 40
0.3073597627995731
100
AcDbArc
 50
2.60513902936315
 51
57.39458829434278
  0
LINE
  5
814
330
656
100
AcDbEntity
  8
0
  6
Continuous
 62
     7
370
    15
100
AcDbLine
 10
277.8145898812176
 20
112.1644112035844
 30
0.0
 11
277.8146285182761
 21
116.8688719380738
 31
0.0
  0
LINE
  5
815
330
656
100
AcDbEntity
  8
0
  6
Continuous
 62
     7
370
    15
100
AcDbLine
 10
277.5259812979853
 20
110.1078286900145
 30
0.0
 11
277.8145898812176
 21
112.1644112035844
 31
0.0
  0
ARC
  5
816
330
656
100
AcDbEntity
  8
0
  6
Continuous
 62
     7
370
    15
100
AcDbCircle
 10
276.9848615520498
 20
110.1905438108127
 30
0.0
 40
0.5474051247932647
100
AcDbArc
 50
302.9067125962777
 51
351.3090878343228
  0
LINE
  5
817
330
656
100
AcDbEntity
  8
0
  6
Continuous
 62
     7
370
    15
100
AcDbLine
 10
276.1403712596036
 20
109.0717727847234
 30
0.0
 11
277.2822518743144
 21
109.7309664322643
 31
0.0
  0
LWPOLYLINE
  5
818
330
656
100
AcDbEntity
  8
0
  6
Continuous
 62
     7
370
    15
100
AcDbPolyline
 90
        9
 70
   128
 43
0.0
 10
276.1403712596036
 20
109.0717727847234
 10
276.0973955638726
 20
109.0513051838807
 10
276.0557257342262
 20
109.0401430023448
 10
276.0166278873524
 20
109.0386253973534
 10
275.9812899915435
 20
109.0467984805661
 10
275.9507857708821
 20
109.0644139169853
 10
275.9260420806771
 20
109.0909364704895
 10
275.9078107454345
 20
109.1255602667109
 10
275.8966457150507
 20
109.1672332791228
  0
LINE
  5
819
330
656
100
AcDbEntity
  8
0
  6
Continuous
 62
     7
370
    15
100
AcDbLine
 10
275.6932649550761
 20
110.3818210148752
 30
0.0
 11
275.8966457150507
 21
109.1672332791228
 31
0.0
  0
LINE
  5
81A
330
656
100
AcDbEntity
  8
0
  6
Continuous
 62
     7
370
    15
100
AcDbLine
 10
277.4272540450502
 20
117.2558081558571
 30
0.0
 11
277.6732073296897
 21
117.1138219680527
 31
0.0
  0
LINE
  5
81B
330
656
100
AcDbEntity
  8
0
  6
Continuous
 62
     7
370
    15
100
AcDbLine
 10
277.4272540450502
 20
117.2558081558571
 30
0.0
 11
275.3059337014716
 21
116.0311956093032
 31
0.0
  0
ARC
  5
81C
330
656
100
AcDbEntity
  8
0
  6
Continuous
 62
     7
370
    15
100
AcDbCircle
 10
277.5928863855197
 20
117.5147320245885
 30
0.0
 40
0.3073689021489292
100
AcDbArc
 50
182.6061386941627
 51
237.3931502364698
  0
ARC
  5
81D
330
656
100
AcDbEntity
  8
0
  6
Continuous
 62
     7
370
    15
100
AcDbCircle
 10
269.4034039444473
 20
107.5470468547932
 30
0.0
 40
0.1511840509623945
100
AcDbArc
 50
185.4584856576057
 51
237.2621693263387
  0
LINE
  5
81E
330
656
100
AcDbEntity
  8
0
  6
Continuous
 62
     7
370
    15
100
AcDbLine
 10
278.3818800144691
 20
121.4473612547298
 30
0.0
 11
280.0789204600549
 21
120.4676620732619
 31
0.0
  0
LINE
  5
81F
330
656
100
AcDbEntity
  8
0
  6
Continuous
 62
     7
370
    15
100
AcDbLine
 10
283.1194954488214
 20
124.182378411559
 30
0.0
 11
284.5336958639931
 21
123.3659624016882
 31
0.0
  0
LINE
  5
820
330
656
100
AcDbEntity
  8
0
  6
Continuous
 62
     7
370
    15
100
AcDbLine
 10
278.3818714543309
 20
120.3842300593646
 30
0.0
 11
280.0082010506217
 21
119.4453521567029
 31
0.0
  0
LINE
  5
821
330
656
100
AcDbEntity
  8
0
  6
Continuous
 62
     7
370
    15
100
AcDbLine
 10
280.0789123993242
 20
119.4861846707546
 30
0.0
 11
280.0082010506217
 21
119.4453521567029
 31
0.0
  0
LINE
  5
822
330
656
100
AcDbEntity
  8
0
  6
Continuous
 62
     7
370
    15
100
AcDbLine
 10
282.7659174972959
 20
121.0373479747839
 30
0.0
 11
282.8366288459985
 21
121.0781804888359
 31
0.0
  0
LINE
  5
823
330
656
100
AcDbEntity
  8
0
  6
Continuous
 62
     7
370
    15
100
AcDbLine
 10
282.3416514167361
 20
120.7923892158099
 30
0.0
 11
282.7659174972959
 21
121.0373479747839
 31
0.0
  0
LINE
  5
824
330
656
100
AcDbEntity
  8
0
  6
Continuous
 62
     7
370
    15
100
AcDbLine
 10
282.3416514167361
 20
120.7923892158099
 30
0.0
 11
280.0081990387888
 21
119.4453158312851
 31
0.0
  0
LINE
  5
825
330
656
100
AcDbEntity
  8
0
  6
Continuous
 62
     7
370
    15
100
AcDbLine
 10
280.0082010506217
 20
119.4453521567029
 30
0.0
 11
280.0081990387888
 21
119.4453158312851
 31
0.0
  0
LINE
  5
826
330
656
100
AcDbEntity
  8
0
  6
Continuous
 62
     7
370
    15
100
AcDbLine
 10
278.3818714542807
 20
120.3842238254892
 30
0.0
 11
278.7355872282429
 21
120.1799929289135
 31
0.0
  0
LINE
  5
827
330
656
100
AcDbEntity
  8
0
  6
Continuous
 62
     7
370
    15
100
AcDbLine
 10
280.0081990387888
 20
119.4453158312851
 30
0.0
 11
278.7355872282429
 21
120.1799929289135
 31
0.0
  0
ARC
  5
828
330
656
100
AcDbEntity
  8
0
  6
Continuous
 62
     7
370
    15
100
AcDbCircle
 10
280.1238805670673
 20
118.3652556962123
 30
0.0
 40
0.3073607411344921
100
AcDbArc
 50
2.605308358331721
 51
57.39453491781947
  0
LINE
  5
829
330
656
100
AcDbEntity
  8
0
  6
Continuous
 62
     7
370
    15
100
AcDbLine
 10
280.4309236086746
 20
118.379226944949
 30
0.0
 11
280.4308803890259
 21
113.1167881894796
 31
0.0
  0
LINE
  5
82A
330
656
100
AcDbEntity
  8
0
  6
Continuous
 62
     7
370
    15
100
AcDbLine
 10
278.5247555631332
 20
114.2171876323119
 30
0.0
 11
280.4308803890259
 21
113.1167881894796
 31
0.0
  0
LINE
  5
82B
330
656
100
AcDbEntity
  8
0
  6
Continuous
 62
     7
370
    15
100
AcDbLine
 10
278.5247555631332
 20
114.2171876323119
 30
0.0
 11
278.5247987827546
 21
119.4796256134114
 31
0.0
  0
ARC
  5
82C
330
656
100
AcDbEntity
  8
0
  6
Continuous
 62
     7
370
    15
100
AcDbCircle
 10
278.6110137976266
 20
119.4936092435519
 30
0.0
 40
0.0873416893659623
100
AcDbArc
 50
50.79661220718872
 51
189.212850599464
  0
LINE
  5
82D
330
656
100
AcDbEntity
  8
0
  6
Continuous
 62
     7
370
    15
100
AcDbLine
 10
278.9121782855748
 20
119.4193020424707
 30
0.0
 11
278.6662203066395
 21
119.5612909402203
 31
0.0
  0
ARC
  5
82E
330
656
100
AcDbEntity
  8
0
  6
Continuous
 62
     7
370
    15
100
AcDbCircle
 10
278.9673880003896
 20
119.4869808791873
 30
0.0
 40
0.0873414995821157
100
AcDbArc
 50
230.7937967306787
 51
9.214821703098479
  0
LINE
  5
82F
330
656
100
AcDbEntity
  8
0
  6
Continuous
 62
     7
370
    15
100
AcDbLine
 10
279.0536043812699
 20
119.9964020514397
 30
0.0
 11
279.0536023468078
 21
119.5009674449185
 31
0.0
  0
LINE
  5
830
330
656
100
AcDbEntity
  8
0
  6
Continuous
 62
     7
370
    15
100
AcDbLine
 10
279.9021279468394
 20
119.011113201093
 30
0.0
 11
279.9021320157744
 21
119.5065481819332
 31
0.0
  0
ARC
  5
831
330
656
100
AcDbEntity
  8
0
  6
Continuous
 62
     7
370
    15
100
AcDbCircle
 10
280.2091699630916
 20
119.0250830370815
 30
0.0
 40
0.3073596526249816
100
AcDbArc
 50
182.6050539645031
 51
237.3945949214312
  0
LINE
  5
832
330
656
100
AcDbEntity
  8
0
  6
Continuous
 62
     7
370
    15
100
AcDbLine
 10
280.289502252439
 20
118.6241766928993
 30
0.0
 11
280.0435491354214
 21
118.7661627839076
 31
0.0
  0
LINE
  5
833
330
656
100
AcDbEntity
  8
0
  6
Continuous
 62
     7
370
    15
100
AcDbLine
 10
285.4883728256261
 20
127.4101786463342
 30
0.0
 11
285.3115428166708
 21
127.5122604376321
 31
0.0
  0
LINE
  5
834
330
656
100
AcDbEntity
  8
0
  6
Continuous
 62
     7
370
    15
100
AcDbLine
 10
285.3115340987424
 20
126.4507624149814
 30
0.0
 11
285.4883728256261
 21
127.4101786463342
 31
0.0
  0
LINE
  5
835
330
656
100
AcDbEntity
  8
0
  6
Continuous
 62
     7
370
    15
100
AcDbLine
 10
287.2561397785925
 20
128.4306887861127
 30
0.0
 11
285.4883728256261
 21
127.4101786463342
 31
0.0
  0
LINE
  5
836
330
656
100
AcDbEntity
  8
0
  6
Continuous
 62
     7
370
    15
100
AcDbLine
 10
287.079301051709
 20
127.4712725547599
 30
0.0
 11
287.2561397785925
 21
128.4306887861127
 31
0.0
  0
LINE
  5
837
330
656
100
AcDbEntity
  8
0
  6
Continuous
 62
     7
370
    15
100
AcDbLine
 10
287.2561397785925
 20
128.4306887861127
 30
0.0
 11
287.0793097696371
 21
128.5327705774106
 31
0.0
  0
LINE
  5
838
330
656
100
AcDbEntity
  8
0
  6
Continuous
 62
     7
370
    15
100
AcDbLine
 10
282.0234523593437
 20
120.6086968099803
 30
0.0
 11
282.0234508277934
 21
120.2357231296796
 31
0.0
  0
LINE
  5
839
330
656
100
AcDbEntity
  8
0
  6
Continuous
 62
     7
370
    15
100
AcDbLine
 10
282.0234508277934
 20
120.2357231296796
 30
0.0
 11
279.9021279468394
 21
119.011113201093
 31
0.0
  0
LINE
  5
83A
330
656
100
AcDbEntity
  8
0
  6
Continuous
 62
     7
370
    15
100
AcDbLine
 10
275.8966457150507
 20
109.1672332791228
 30
0.0
 11
273.9905208891629
 21
110.26763272196
 31
0.0
  0
LINE
  5
83B
330
656
100
AcDbEntity
  8
0
  6
Continuous
 62
     7
370
    15
100
AcDbLine
 10
273.9905208891629
 20
110.26763272196
 30
0.0
 11
273.7871401291834
 21
111.4822204577074
 31
0.0
  0
LINE
  5
83C
330
656
100
AcDbEntity
  8
0
  6
Continuous
 62
     7
370
    15
100
AcDbLine
 10
280.4309236086746
 20
118.379226944949
 30
0.0
 11
282.5522439522261
 21
119.6038391126783
 31
0.0
  0
LINE
  5
83D
330
656
100
AcDbEntity
  8
0
  6
Continuous
 62
     7
370
    15
100
AcDbLine
 10
282.4108227636395
 20
119.8487891426572
 30
0.0
 11
280.289502252439
 21
118.6241766928993
 31
0.0
  0
ARC
  5
83E
330
656
100
AcDbEntity
  8
0
  6
Continuous
 62
     7
370
    15
100
AcDbCircle
 10
282.2452018466535
 20
119.5898688158282
 30
0.0
 40
0.3073597628000854
100
AcDbArc
 50
2.605139029430266
 51
57.39458829434098
  0
LINE
  5
83F
330
656
100
AcDbEntity
  8
0
  6
Continuous
 62
     7
370
    15
100
AcDbLine
 10
282.5522053151677
 20
114.8993783781888
 30
0.0
 11
282.5522439522261
 21
119.6038391126783
 31
0.0
  0
LINE
  5
840
330
656
100
AcDbEntity
  8
0
  6
Continuous
 62
     7
370
    15
100
AcDbLine
 10
282.2635967319351
 20
112.8427958646189
 30
0.0
 11
282.5522053151677
 21
114.8993783781888
 31
0.0
  0
ARC
  5
841
330
656
100
AcDbEntity
  8
0
  6
Continuous
 62
     7
370
    15
100
AcDbCircle
 10
281.7224769860013
 20
112.9255109854161
 30
0.0
 40
0.5474051247915341
100
AcDbArc
 50
302.906712596191
 51
351.3090878343991
  0
LINE
  5
842
330
656
100
AcDbEntity
  8
0
  6
Continuous
 62
     7
370
    15
100
AcDbLine
 10
280.8779866935534
 20
111.8067399593279
 30
0.0
 11
282.0198673082641
 21
112.4659336068688
 31
0.0
  0
LWPOLYLINE
  5
843
330
656
100
AcDbEntity
  8
0
  6
Continuous
 62
     7
370
    15
100
AcDbPolyline
 90
        9
 70
   128
 43
0.0
 10
280.8779866935534
 20
111.8067399593279
 10
280.8350109978226
 20
111.7862723584853
 10
280.7933411681762
 20
111.7751101769492
 10
280.7542433213022
 20
111.7735925719579
 10
280.7189054254933
 20
111.7817656551706
 10
280.6884012048321
 20
111.7993810915897
 10
280.6636575146269
 20
111.8259036450939
 10
280.6454261793843
 20
111.8605274413153
 10
280.6342611490005
 20
111.9022004537271
  0
LINE
  5
844
330
656
100
AcDbEntity
  8
0
  6
Continuous
 62
     7
370
    15
100
AcDbLine
 10
280.4308803890259
 20
113.1167881894796
 30
0.0
 11
280.6342611490005
 21
111.9022004537271
 31
0.0
  0
LINE
  5
845
330
656
100
AcDbEntity
  8
0
  6
Continuous
 62
     7
370
    15
100
AcDbLine
 10
282.164869479
 20
119.9907753304616
 30
0.0
 11
282.4108227636395
 21
119.8487891426572
 31
0.0
  0
LINE
  5
846
330
656
100
AcDbEntity
  8
0
  6
Continuous
 62
     7
370
    15
100
AcDbLine
 10
282.164869479
 20
119.9907753304616
 30
0.0
 11
280.0435491354214
 21
118.7661627839076
 31
0.0
  0
ARC
  5
847
330
656
100
AcDbEntity
  8
0
  6
Continuous
 62
     7
370
    15
100
AcDbCircle
 10
282.3305018194708
 20
120.2496991991938
 30
0.0
 40
0.3073689021503237
100
AcDbArc
 50
182.6061386942988
 51
237.393150236343
  0
ARC
  5
848
330
656
100
AcDbEntity
  8
0
  6
Continuous
 62
     7
370
    15
100
AcDbCircle
 10
274.1410193783981
 20
110.2820140293981
 30
0.0
 40
0.1511840509634448
100
AcDbArc
 50
185.4584856577853
 51
237.262169326108
  0
LINE
  5
849
330
656
100
AcDbEntity
  8
0
  6
Continuous
 62
     7
370
    15
100
AcDbLine
 10
283.1194954484191
 20
124.1823284293339
 30
0.0
 11
284.8165358940047
 21
123.2026292478662
 31
0.0
  0
LINE
  5
84A
330
656
100
AcDbEntity
  8
0
  6
Continuous
 62
     7
370
    15
100
AcDbLine
 10
287.8571108827714
 20
126.9173455861631
 30
0.0
 11
289.2713112979428
 21
126.1009295762924
 31
0.0
  0
LINE
  5
84B
330
656
100
AcDbEntity
  8
0
  6
Continuous
 62
     7
370
    15
100
AcDbLine
 10
283.1194868882809
 20
123.1191972339689
 30
0.0
 11
284.7458164845718
 21
122.1803193313072
 31
0.0
  0
LINE
  5
84C
330
656
100
AcDbEntity
  8
0
  6
Continuous
 62
     7
370
    15
100
AcDbLine
 10
284.8165278332741
 20
122.2211518453589
 30
0.0
 11
284.7458164845718
 21
122.1803193313072
 31
0.0
  0
LINE
  5
84D
330
656
100
AcDbEntity
  8
0
  6
Continuous
 62
     7
370
    15
100
AcDbLine
 10
287.5035329312456
 20
123.7723151493881
 30
0.0
 11
287.5742442799483
 21
123.8131476634402
 31
0.0
  0
LINE
  5
84E
330
656
100
AcDbEntity
  8
0
  6
Continuous
 62
     7
370
    15
100
AcDbLine
 10
287.0792668506858
 20
123.5273563904143
 30
0.0
 11
287.5035329312456
 21
123.7723151493881
 31
0.0
  0
LINE
  5
84F
330
656
100
AcDbEntity
  8
0
  6
Continuous
 62
     7
370
    15
100
AcDbLine
 10
287.0792668506858
 20
123.5273563904143
 30
0.0
 11
284.7458144727387
 21
122.1802830058894
 31
0.0
  0
LINE
  5
850
330
656
100
AcDbEntity
  8
0
  6
Continuous
 62
     7
370
    15
100
AcDbLine
 10
284.7458164845718
 20
122.1803193313072
 30
0.0
 11
284.7458144727387
 21
122.1802830058894
 31
0.0
  0
LINE
  5
851
330
656
100
AcDbEntity
  8
0
  6
Continuous
 62
     7
370
    15
100
AcDbLine
 10
283.1194868882308
 20
123.1191910000935
 30
0.0
 11
283.4732026621927
 21
122.9149601035177
 31
0.0
  0
LINE
  5
852
330
656
100
AcDbEntity
  8
0
  6
Continuous
 62
     7
370
    15
100
AcDbLine
 10
284.7458144727387
 20
122.1802830058894
 30
0.0
 11
283.4732026621927
 21
122.9149601035177
 31
0.0
  0
ARC
  5
853
330
656
100
AcDbEntity
  8
0
  6
Continuous
 62
     7
370
    15
100
AcDbCircle
 10
284.8614960010159
 20
121.1002228708157
 30
0.0
 40
0.3073607411358829
100
AcDbArc
 50
2.605308358471003
 51
57.39453491773373
  0
LINE
  5
854
330
656
100
AcDbEntity
  8
0
  6
Continuous
 62
     7
370
    15
100
AcDbLine
 10
285.1685390426246
 20
121.1141941195532
 30
0.0
 11
285.1684958229759
 21
115.8517553640839
 31
0.0
  0
LINE
  5
855
330
656
100
AcDbEntity
  8
0
  6
Continuous
 62
     7
370
    15
100
AcDbLine
 10
283.262370997083
 20
116.9521548069161
 30
0.0
 11
285.1684958229759
 21
115.8517553640839
 31
0.0
  0
LINE
  5
856
330
656
100
AcDbEntity
  8
0
  6
Continuous
 62
     7
370
    15
100
AcDbLine
 10
283.262370997083
 20
116.9521548069161
 30
0.0
 11
283.2624142167044
 21
122.2145927880156
 31
0.0
  0
ARC
  5
857
330
656
100
AcDbEntity
  8
0
  6
Continuous
 62
     7
370
    15
100
AcDbCircle
 10
283.3486292315766
 20
122.228576418156
 30
0.0
 40
0.0873416893661385
100
AcDbArc
 50
50.79661220722996
 51
189.2128505994953
  0
LINE
  5
858
330
656
100
AcDbEntity
  8
0
  6
Continuous
 62
     7
370
    15
100
AcDbLine
 10
283.6497937195246
 20
122.154269217075
 30
0.0
 11
283.4038357405894
 21
122.2962581148246
 31
0.0
  0
ARC
  5
859
330
656
100
AcDbEntity
  8
0
  6
Continuous
 62
     7
370
    15
100
AcDbCircle
 10
283.7050034343395
 20
122.2219480537916
 30
0.0
 40
0.0873414995821368
100
AcDbArc
 50
230.7937967306905
 51
9.214821703006458
  0
LINE
  5
85A
330
656
100
AcDbEntity
  8
0
  6
Continuous
 62
     7
370
    15
100
AcDbLine
 10
283.7912198152197
 20
122.7313692260438
 30
0.0
 11
283.7912177807575
 21
122.2359346195227
 31
0.0
  0
LINE
  5
85B
330
656
100
AcDbEntity
  8
0
  6
Continuous
 62
     7
370
    15
100
AcDbLine
 10
284.6397433807895
 20
121.7460803756973
 30
0.0
 11
284.6397474497242
 21
122.2415153565376
 31
0.0
  0
ARC
  5
85C
330
656
100
AcDbEntity
  8
0
  6
Continuous
 62
     7
370
    15
100
AcDbCircle
 10
284.9467853970414
 20
121.7600502116855
 30
0.0
 40
0.3073596526247544
100
AcDbArc
 50
182.6050539644548
 51
237.3945949214437
  0
LINE
  5
85D
330
656
100
AcDbEntity
  8
0
  6
Continuous
 62
     7
370
    15
100
AcDbLine
 10
285.0271176863888
 20
121.3591438675036
 30
0.0
 11
284.7811645693714
 21
121.5011299585118
 31
0.0
  0
LINE
  5
85E
330
656
100
AcDbEntity
  8
0
  6
Continuous
 62
     7
370
    15
100
AcDbLine
 10
290.2259882595759
 20
130.1451458209385
 30
0.0
 11
290.0491582506206
 21
130.2472276122364
 31
0.0
  0
LINE
  5
85F
330
656
100
AcDbEntity
  8
0
  6
Continuous
 62
     7
370
    15
100
AcDbLine
 10
290.0491495326924
 20
129.1857295895857
 30
0.0
 11
290.2259882595759
 21
130.1451458209385
 31
0.0
  0
LINE
  5
860
330
656
100
AcDbEntity
  8
0
  6
Continuous
 62
     7
370
    15
100
AcDbLine
 10
291.9937552125422
 20
131.1656559607169
 30
0.0
 11
290.2259882595759
 21
130.1451458209385
 31
0.0
  0
LINE
  5
861
330
656
100
AcDbEntity
  8
0
  6
Continuous
 62
     7
370
    15
100
AcDbLine
 10
291.8169164856588
 20
130.206239729364
 30
0.0
 11
291.9937552125422
 21
131.1656559607169
 31
0.0
  0
LINE
  5
862
330
656
100
AcDbEntity
  8
0
  6
Continuous
 62
     7
370
    15
100
AcDbLine
 10
291.9937552125422
 20
131.1656559607169
 30
0.0
 11
291.816925203587
 21
131.2677377520148
 31
0.0
  0
LINE
  5
863
330
656
100
AcDbEntity
  8
0
  6
Continuous
 62
     7
370
    15
100
AcDbLine
 10
286.7610677932937
 20
123.3436639845843
 30
0.0
 11
286.7610662617432
 21
122.9706903042839
 31
0.0
  0
LINE
  5
864
330
656
100
AcDbEntity
  8
0
  6
Continuous
 62
     7
370
    15
100
AcDbLine
 10
286.7610662617432
 20
122.9706903042839
 30
0.0
 11
284.6397433807895
 21
121.7460803756973
 31
0.0
  0
LINE
  5
865
330
656
100
AcDbEntity
  8
0
  6
Continuous
 62
     7
370
    15
100
AcDbLine
 10
280.6342611490005
 20
111.9022004537271
 30
0.0
 11
278.7281363231129
 21
113.0025998965644
 31
0.0
  0
LINE
  5
866
330
656
100
AcDbEntity
  8
0
  6
Continuous
 62
     7
370
    15
100
AcDbLine
 10
278.7281363231129
 20
113.0025998965644
 30
0.0
 11
278.5247555631332
 21
114.2171876323119
 31
0.0
  0
LINE
  5
867
330
656
100
AcDbEntity
  8
0
  6
Continuous
 62
     7
370
    15
100
AcDbLine
 10
285.1685390426246
 20
121.1141941195532
 30
0.0
 11
287.2898593861759
 21
122.3388062872825
 31
0.0
  0
LINE
  5
868
330
656
100
AcDbEntity
  8
0
  6
Continuous
 62
     7
370
    15
100
AcDbLine
 10
287.1484381975893
 20
122.5837563172614
 30
0.0
 11
285.0271176863888
 21
121.3591438675036
 31
0.0
  0
ARC
  5
869
330
656
100
AcDbEntity
  8
0
  6
Continuous
 62
     7
370
    15
100
AcDbCircle
 10
286.982817280604
 20
122.3248359904327
 30
0.0
 40
0.3073597627994665
100
AcDbArc
 50
2.605139029374698
 51
57.39458829441812
  0
LINE
  5
86A
330
656
100
AcDbEntity
  8
0
  6
Continuous
 62
     7
370
    15
100
AcDbLine
 10
287.2898207491175
 20
117.6343455527931
 30
0.0
 11
287.2898593861759
 21
122.3388062872825
 31
0.0
  0
LINE
  5
86B
330
656
100
AcDbEntity
  8
0
  6
Continuous
 62
     7
370
    15
100
AcDbLine
 10
287.0012121658851
 20
115.5777630392231
 30
0.0
 11
287.2898207491175
 21
117.6343455527931
 31
0.0
  0
ARC
  5
86C
330
656
100
AcDbEntity
  8
0
  6
Continuous
 62
     7
370
    15
100
AcDbCircle
 10
286.4600924199505
 20
115.6604781600211
 30
0.0
 40
0.5474051247924035
100
AcDbArc
 50
302.9067125962014
 51
351.3090878343226
  0
LINE
  5
86D
330
656
100
AcDbEntity
  8
0
  6
Continuous
 62
     7
370
    15
100
AcDbLine
 10
285.6156021275034
 20
114.5417071339321
 30
0.0
 11
286.7574827422139
 21
115.2009007814731
 31
0.0
  0
LWPOLYLINE
  5
86E
330
656
100
AcDbEntity
  8
0
  6
Continuous
 62
     7
370
    15
100
AcDbPolyline
 90
        9
 70
   128
 43
0.0
 10
285.6156021275034
 20
114.5417071339321
 10
285.5726264317724
 20
114.5212395330895
 10
285.530956602126
 20
114.5100773515535
 10
285.491858755252
 20
114.5085597465622
 10
285.4565208594433
 20
114.5167328297748
 10
285.4260166387819
 20
114.534348266194
 10
285.4012729485769
 20
114.5608708196981
 10
285.3830416133343
 20
114.5954946159196
 10
285.3718765829503
 20
114.6371676283314
  0
LINE
  5
86F
330
656
100
AcDbEntity
  8
0
  6
Continuous
 62
     7
370
    15
100
AcDbLine
 10
285.1684958229759
 20
115.8517553640839
 30
0.0
 11
285.3718765829503
 21
114.6371676283314
 31
0.0
  0
LINE
  5
870
330
656
100
AcDbEntity
  8
0
  6
Continuous
 62
     7
370
    15
100
AcDbLine
 10
286.90248491295
 20
122.7257425050658
 30
0.0
 11
287.1484381975893
 21
122.5837563172614
 31
0.0
  0
LINE
  5
871
330
656
100
AcDbEntity
  8
0
  6
Continuous
 62
     7
370
    15
100
AcDbLine
 10
286.90248491295
 20
122.7257425050658
 30
0.0
 11
284.7811645693714
 21
121.5011299585118
 31
0.0
  0
ARC
  5
872
330
656
100
AcDbEntity
  8
0
  6
Continuous
 62
     7
370
    15
100
AcDbCircle
 10
287.0681172534203
 20
122.984666373798
 30
0.0
 40
0.3073689021500353
100
AcDbArc
 50
182.6061386942827
 51
237.3931502364205
  0
ARC
  5
873
330
656
100
AcDbEntity
  8
0
  6
Continuous
 62
     7
370
    15
100
AcDbCircle
 10
278.8786348123466
 20
113.0169812040016
 30
0.0
 40
0.1511840509619164
100
AcDbArc
 50
185.4584856575095
 51
237.2621693264015
  0
LINE
  5
874
330
656
100
AcDbEntity
  8
0
  6
Continuous
 62
     7
370
    15
100
AcDbLine
 10
287.8571108823686
 20
126.9172956039383
 30
0.0
 11
289.5541513279545
 21
125.9375964224705
 31
0.0
  0
LINE
  5
875
330
656
100
AcDbEntity
  8
0
  6
Continuous
 62
     7
370
    15
100
AcDbLine
 10
287.8571023222307
 20
125.8541644085731
 30
0.0
 11
289.4834319185216
 21
124.9152865059115
 31
0.0
  0
LINE
  5
876
330
656
100
AcDbEntity
  8
0
  6
Continuous
 62
     7
370
    15
100
AcDbLine
 10
289.5541432672239
 20
124.9561190199631
 30
0.0
 11
289.4834319185216
 21
124.9152865059115
 31
0.0
  0
LINE
  5
877
330
656
100
AcDbEntity
  8
0
  6
Continuous
 62
     7
370
    15
100
AcDbLine
 10
292.2411483651954
 20
126.5072823239924
 30
0.0
 11
292.3118597138983
 21
126.5481148380444
 31
0.0
  0
LINE
  5
878
330
656
100
AcDbEntity
  8
0
  6
Continuous
 62
     7
370
    15
100
AcDbLine
 10
291.8168822846359
 20
126.2623235650185
 30
0.0
 11
292.2411483651954
 21
126.5072823239924
 31
0.0
  0
LINE
  5
879
330
656
100
AcDbEntity
  8
0
  6
Continuous
 62
     7
370
    15
100
AcDbLine
 10
291.8168822846359
 20
126.2623235650185
 30
0.0
 11
289.4834299066886
 21
124.9152501804936
 31
0.0
  0
LINE
  5
87A
330
656
100
AcDbEntity
  8
0
  6
Continuous
 62
     7
370
    15
100
AcDbLine
 10
289.4834319185216
 20
124.9152865059115
 30
0.0
 11
289.4834299066886
 21
124.9152501804936
 31
0.0
  0
LINE
  5
87B
330
656
100
AcDbEntity
  8
0
  6
Continuous
 62
     7
370
    15
100
AcDbLine
 10
287.8571023221805
 20
125.854158174698
 30
0.0
 11
288.2108180961427
 21
125.649927278122
 31
0.0
  0
LINE
  5
87C
330
656
100
AcDbEntity
  8
0
  6
Continuous
 62
     7
370
    15
100
AcDbLine
 10
289.4834299066886
 20
124.9152501804936
 30
0.0
 11
288.2108180961427
 21
125.649927278122
 31
0.0
  0
ARC
  5
87D
330
656
100
AcDbEntity
  8
0
  6
Continuous
 62
     7
370
    15
100
AcDbCircle
 10
289.5991114349664
 20
123.8351900454205
 30
0.0
 40
0.3073607411353253
100
AcDbArc
 50
2.605308358377423
 51
57.39453491773448
  0
LINE
  5
87E
330
656
100
AcDbEntity
  8
0
  6
Continuous
 62
     7
370
    15
100
AcDbLine
 10
289.9061544765745
 20
123.8491612941575
 30
0.0
 11
289.9061112569257
 21
118.5867225386882
 31
0.0
  0
LINE
  5
87F
330
656
100
AcDbEntity
  8
0
  6
Continuous
 62
     7
370
    15
100
AcDbLine
 10
287.999986431033
 20
119.6871219815204
 30
0.0
 11
289.9061112569257
 21
118.5867225386882
 31
0.0
  0
LINE
  5
880
330
656
100
AcDbEntity
  8
0
  6
Continuous
 62
     7
370
    15
100
AcDbLine
 10
287.999986431033
 20
119.6871219815204
 30
0.0
 11
288.0000296506544
 21
124.9495599626199
 31
0.0
  0
ARC
  5
881
330
656
100
AcDbEntity
  8
0
  6
Continuous
 62
     7
370
    15
100
AcDbCircle
 10
288.0862446655265
 20
124.9635435927604
 30
0.0
 40
0.0873416893659793
100
AcDbArc
 50
50.79661220721762
 51
189.2128505995501
  0
LINE
  5
882
330
656
100
AcDbEntity
  8
0
  6
Continuous
 62
     7
370
    15
100
AcDbLine
 10
288.3874091534744
 20
124.8892363916792
 30
0.0
 11
288.1414511745393
 21
125.0312252894289
 31
0.0
  0
ARC
  5
883
330
656
100
AcDbEntity
  8
0
  6
Continuous
 62
     7
370
    15
100
AcDbCircle
 10
288.4426188682892
 20
124.9569152283962
 30
0.0
 40
0.0873414995823901
100
AcDbArc
 50
230.793796730826
 51
9.21482170287215
  0
LINE
  5
884
330
656
100
AcDbEntity
  8
0
  6
Continuous
 62
     7
370
    15
100
AcDbLine
 10
288.5288352491695
 20
125.4663364006483
 30
0.0
 11
288.5288332147076
 21
124.970901794127
 31
0.0
  0
LINE
  5
885
330
656
100
AcDbEntity
  8
0
  6
Continuous
 62
     7
370
    15
100
AcDbLine
 10
289.3773588147393
 20
124.4810475503015
 30
0.0
 11
289.3773628836742
 21
124.9764825311417
 31
0.0
  0
ARC
  5
886
330
656
100
AcDbEntity
  8
0
  6
Continuous
 62
     7
370
    15
100
AcDbCircle
 10
289.6844008309917
 20
124.4950173862901
 30
0.0
 40
0.3073596526252935
100
AcDbArc
 50
182.6050539645325
 51
237.3945949213947
  0
LINE
  5
887
330
656
100
AcDbEntity
  8
0
  6
Continuous
 62
     7
370
    15
100
AcDbLine
 10
289.7647331203388
 20
124.0941110421079
 30
0.0
 11
289.5187800033212
 21
124.2360971331161
 31
0.0
  0
LINE
  5
888
330
656
100
AcDbEntity
  8
0
  6
Continuous
 62
     7
370
    15
100
AcDbLine
 10
291.4986832272435
 20
126.0786311591886
 30
0.0
 11
291.4986816956933
 21
125.7056574788881
 31
0.0
  0
LINE
  5
889
330
656
100
AcDbEntity
  8
0
  6
Continuous
 62
     7
370
    15
100
AcDbLine
 10
291.4986816956933
 20
125.7056574788881
 30
0.0
 11
289.3773588147393
 21
124.4810475503015
 31
0.0
  0
LINE
  5
88A
330
656
100
AcDbEntity
  8
0
  6
Continuous
 62
     7
370
    15
100
AcDbLine
 10
285.3718765829503
 20
114.6371676283314
 30
0.0
 11
283.4657517570627
 21
115.7375670711687
 31
0.0
  0
LINE
  5
88B
330
656
100
AcDbEntity
  8
0
  6
Continuous
 62
     7
370
    15
100
AcDbLine
 10
283.4657517570627
 20
115.7375670711687
 30
0.0
 11
283.262370997083
 21
116.9521548069161
 31
0.0
  0
LINE
  5
88C
330
656
100
AcDbEntity
  8
0
  6
Continuous
 62
     7
370
    15
100
AcDbLine
 10
289.9061544765745
 20
123.8491612941575
 30
0.0
 11
292.0274748201259
 21
125.0737734618868
 31
0.0
  0
LINE
  5
88D
330
656
100
AcDbEntity
  8
0
  6
Continuous
 62
     7
370
    15
100
AcDbLine
 10
291.8860536315393
 20
125.3187234918657
 30
0.0
 11
289.7647331203388
 21
124.0941110421079
 31
0.0
  0
ARC
  5
88E
330
656
100
AcDbEntity
  8
0
  6
Continuous
 62
     7
370
    15
100
AcDbCircle
 10
291.720432714553
 20
125.0598031650365
 30
0.0
 40
0.3073597628004864
100
AcDbArc
 50
2.605139029461298
 51
57.39458829429847
  0
LINE
  5
88F
330
656
100
AcDbEntity
  8
0
  6
Continuous
 62
     7
370
    15
100
AcDbLine
 10
292.0274361830673
 20
120.3693127273973
 30
0.0
 11
292.0274748201259
 21
125.0737734618868
 31
0.0
  0
LINE
  5
890
330
656
100
AcDbEntity
  8
0
  6
Continuous
 62
     7
370
    15
100
AcDbLine
 10
291.738827599835
 20
118.3127302138274
 30
0.0
 11
292.0274361830673
 21
120.3693127273973
 31
0.0
  0
ARC
  5
891
330
656
100
AcDbEntity
  8
0
  6
Continuous
 62
     7
370
    15
100
AcDbCircle
 10
291.1977078539008
 20
118.3954453346249
 30
0.0
 40
0.5474051247919293
100
AcDbArc
 50
302.9067125962031
 51
351.3090878343648
  0
LINE
  5
892
330
656
100
AcDbEntity
  8
0
  6
Continuous
 62
     7
370
    15
100
AcDbLine
 10
290.3532175614532
 20
117.2766743085364
 30
0.0
 11
291.4950981761639
 21
117.9358679560774
 31
0.0
  0
LWPOLYLINE
  5
893
330
656
100
AcDbEntity
  8
0
  6
Continuous
 62
     7
370
    15
100
AcDbPolyline
 90
        9
 70
   128
 43
0.0
 10
290.3532175614532
 20
117.2766743085364
 10
290.3102418657222
 20
117.2562067076937
 10
290.2685720360758
 20
117.2450445261578
 10
290.229474189202
 20
117.2435269211663
 10
290.1941362933931
 20
117.2517000043791
 10
290.1636320727316
 20
117.2693154407982
 10
290.1388883825267
 20
117.2958379943024
 10
290.1206570472841
 20
117.3304617905238
 10
290.1094920169003
 20
117.3721348029358
  0
LINE
  5
894
330
656
100
AcDbEntity
  8
0
  6
Continuous
 62
     7
370
    15
100
AcDbLine
 10
289.9061112569257
 20
118.5867225386882
 30
0.0
 11
290.1094920169003
 21
117.3721348029358
 31
0.0
  0
LINE
  5
895
330
656
100
AcDbEntity
  8
0
  6
Continuous
 62
     7
370
    15
100
AcDbLine
 10
291.6401003468997
 20
125.46070967967
 30
0.0
 11
291.8860536315393
 21
125.3187234918657
 31
0.0
  0
LINE
  5
896
330
656
100
AcDbEntity
  8
0
  6
Continuous
 62
     7
370
    15
100
AcDbLine
 10
291.6401003468997
 20
125.46070967967
 30
0.0
 11
289.5187800033212
 21
124.2360971331161
 31
0.0
  0
ARC
  5
897
330
656
100
AcDbEntity
  8
0
  6
Continuous
 62
     7
370
    15
100
AcDbCircle
 10
291.8057326873698
 20
125.7196335484017
 30
0.0
 40
0.3073689021494563
100
AcDbArc
 50
182.6061386942002
 51
237.3931502364195
  0
ARC
  5
898
330
656
100
AcDbEntity
  8
0
  6
Continuous
 62
     7
370
    15
100
AcDbCircle
 10
283.6162502462983
 20
115.7519483786071
 30
0.0
 40
0.1511840509638256
100
AcDbArc
 50
185.4584856578728
 51
237.2621693260727
  0
LINE
  5
899
330
656
100
AcDbEntity
  8
0
  6
Continuous
 62
     7
370
    15
100
AcDbLine
 10
290.1094920169003
 20
117.3721348029358
 30
0.0
 11
288.2033671910125
 21
118.472534245773
 31
0.0
  0
LINE
  5
89A
330
656
100
AcDbEntity
  8
0
  6
Continuous
 62
     7
370
    15
100
AcDbLine
 10
288.2033671910125
 20
118.472534245773
 30
0.0
 11
287.999986431033
 21
119.6871219815204
 31
0.0
  0
ARC
  5
89B
330
656
100
AcDbEntity
  8
0
  6
Continuous
 62
     7
370
    15
100
AcDbCircle
 10
288.353865680248
 20
118.4869155532113
 30
0.0
 40
0.1511840509637658
100
AcDbArc
 50
185.4584856578481
 51
237.2621693260581
  0
LINE
  5
89C
330
656
100
AcDbEntity
  8
0
  6
Continuous
 62
     8
370
    15
100
AcDbLine
 10
245.7488702479258
 20
100.2745318202388
 30
0.0
 11
245.8902917700017
 21
100.3561729207231
 31
0.0
  0
LINE
  5
89D
330
656
100
AcDbEntity
  8
0
  6
Continuous
 62
     8
370
    15
100
AcDbLine
 10
245.5029122689904
 20
100.4165207179884
 30
0.0
 11
245.8902954751977
 21
100.6401523873246
 31
0.0
  0
LINE
  5
89E
330
656
100
AcDbEntity
  8
0
  6
Continuous
 62
     8
370
    15
100
AcDbLine
 10
250.4864856818755
 20
103.0094989948448
 30
0.0
 11
250.6279072039514
 21
103.0911400953291
 31
0.0
  0
LINE
  5
89F
330
656
100
AcDbEntity
  8
0
  6
Continuous
 62
     8
370
    15
100
AcDbLine
 10
250.2405277029402
 20
103.1514878925944
 30
0.0
 11
250.6279109091474
 21
103.3751195619308
 31
0.0
  0
LINE
  5
8A0
330
656
100
AcDbEntity
  8
0
  6
Continuous
 62
     8
370
    15
100
AcDbLine
 10
255.2241011158253
 20
105.744466169449
 30
0.0
 11
255.3655226379012
 21
105.8261072699333
 31
0.0
  0
LINE
  5
8A1
330
656
100
AcDbEntity
  8
0
  6
Continuous
 62
     8
370
    15
100
AcDbLine
 10
254.9781431368902
 20
105.8864550671987
 30
0.0
 11
255.3655263430974
 21
106.1100867365351
 31
0.0
  0
LINE
  5
8A2
330
656
100
AcDbEntity
  8
0
  6
Continuous
 62
     8
370
    15
100
AcDbLine
 10
259.9617165497752
 20
108.4794333440535
 30
0.0
 11
260.1031380718512
 21
108.5610744445377
 31
0.0
  0
LINE
  5
8A3
330
656
100
AcDbEntity
  8
0
  6
Continuous
 62
     8
370
    15
100
AcDbLine
 10
259.7157585708401
 20
108.6214222418031
 30
0.0
 11
260.1031417770472
 21
108.8450539111396
 31
0.0
  0
LINE
  5
8A4
330
656
100
AcDbEntity
  8
0
  6
Continuous
 62
     8
370
    15
100
AcDbLine
 10
264.6993319837251
 20
111.2144005186577
 30
0.0
 11
264.840753505801
 21
111.2960416191419
 31
0.0
  0
LINE
  5
8A5
330
656
100
AcDbEntity
  8
0
  6
Continuous
 62
     8
370
    15
100
AcDbLine
 10
264.4533740047898
 20
111.3563894164074
 30
0.0
 11
264.840757210997
 21
111.5800210857437
 31
0.0
  0
LINE
  5
8A6
330
656
100
AcDbEntity
  8
0
  6
Continuous
 62
     8
370
    15
100
AcDbLine
 10
269.436947417675
 20
113.949367693262
 30
0.0
 11
269.5783689397508
 21
114.0310087937463
 31
0.0
  0
LINE
  5
8A7
330
656
100
AcDbEntity
  8
0
  6
Continuous
 62
     8
370
    15
100
AcDbLine
 10
269.1909894387399
 20
114.0913565910116
 30
0.0
 11
269.5783726449469
 21
114.314988260348
 31
0.0
  0
LINE
  5
8A8
330
656
100
AcDbEntity
  8
0
  6
Continuous
 62
     8
370
    15
100
AcDbLine
 10
274.1745628516248
 20
116.6843348678662
 30
0.0
 11
274.3159843737009
 21
116.7659759683505
 31
0.0
  0
LINE
  5
8A9
330
656
100
AcDbEntity
  8
0
  6
Continuous
 62
     8
370
    15
100
AcDbLine
 10
273.9286048726897
 20
116.8263237656159
 30
0.0
 11
274.315988078897
 21
117.0499554349524
 31
0.0
  0
LINE
  5
8AA
330
656
100
AcDbEntity
  8
0
  6
Continuous
 62
     8
370
    15
100
AcDbLine
 10
278.9121782855748
 20
119.4193020424707
 30
0.0
 11
279.0535998076506
 21
119.5009431429549
 31
0.0
  0
LINE
  5
8AB
330
656
100
AcDbEntity
  8
0
  6
Continuous
 62
     8
370
    15
100
AcDbLine
 10
278.6662203066395
 20
119.5612909402203
 30
0.0
 11
279.0536035128468
 21
119.7849226095568
 31
0.0
  0
LINE
  5
8AC
330
656
100
AcDbEntity
  8
0
  6
Continuous
 62
     8
370
    15
100
AcDbLine
 10
283.6497937195246
 20
122.154269217075
 30
0.0
 11
283.7912152416005
 21
122.2359103175592
 31
0.0
  0
LINE
  5
8AD
330
656
100
AcDbEntity
  8
0
  6
Continuous
 62
     8
370
    15
100
AcDbLine
 10
283.4038357405894
 20
122.2962581148246
 30
0.0
 11
283.7912189467966
 21
122.5198897841611
 31
0.0
  0
LINE
  5
8AE
330
656
100
AcDbEntity
  8
0
  6
Continuous
 62
     8
370
    15
100
AcDbLine
 10
288.3874091534744
 20
124.8892363916792
 30
0.0
 11
288.5288306755505
 21
124.9708774921634
 31
0.0
  0
LINE
  5
8AF
330
656
100
AcDbEntity
  8
0
  6
Continuous
 62
     8
370
    15
100
AcDbLine
 10
288.1414511745393
 20
125.0312252894289
 30
0.0
 11
288.5288343807464
 21
125.2548569587652
 31
0.0
  0
ENDBLK
  5
658
330
656
100
AcDbEntity
  8
0
100
AcDbBlockEnd
  0
ENDSEC
  0
SECTION
  2
ENTITIES
  0
INSERT
  5
61E
330
1F
100
AcDbEntity
  8
0
100
AcDbBlockReference
  2
1
 10
0.0
 20
0.0
 30
0.0
  0
INSERT
  5
64D
330
1F
100
AcDbEntity
  8
0
100
AcDbBlockReference
  2
2
 10
0.0
 20
0.0
 30
0.0
  0
INSERT
  5
655
330
1F
100
AcDbEntity
  8
0
100
AcDbBlockReference
  2
3
 10
0.0
 20
0.0
 30
0.0
  0
INSERT
  5
8B0
330
1F
100
AcDbEntity
  8
0
100
AcDbBlockReference
  2
4
 10
0.0
 20
0.0
 30
0.0
  0
ENDSEC
  0
SECTION
  2
OBJECTS
  0
DICTIONARY
  5
C
330
0
100
AcDbDictionary
281
     1
  3
ACAD_COLOR
350
473
  3
ACAD_GROUP
350
D
  3
ACAD_LAYOUT
350
1A
  3
ACAD_MATERIAL
350
449
  3
ACAD_MLEADERSTYLE
350
498
  3
ACAD_MLINESTYLE
350
17
  3
ACAD_PLOTSETTINGS
350
19
  3
ACAD_PLOTSTYLENAME
350
E
  3
ACAD_SCALELIST
350
476
  3
ACAD_TABLESTYLE
350
474
  3
ACAD_VISUALSTYLE
350
462
  3
ACDB_RECOMPOSE_DATA
350
8B5
  3
AcDbVariableDictionary
350
8B6
  3
DWGPROPS
350
8C4
  0
DICTIONARY
  5
8B1
330
10
100
AcDbDictionary
280
     1
281
     1
  3
ADSK_XREC_LAYER_RECONCILED
360
8B2
  0
DICTIONARY
  5
473
102
{ACAD_REACTORS
330
C
102
}
330
C
100
AcDbDictionary
281
     1
  0
DICTIONARY
  5
D
102
{ACAD_REACTORS
330
C
102
}
330
C
100
AcDbDictionary
281
     1
  0
DICTIONARY
  5
1A
102
{ACAD_REACTORS
330
C
102
}
330
C
100
AcDbDictionary
281
     1
  3
Layout1
350
1E
  3
Layout2
350
26
  3
Model
350
22
  0
DICTIONARY
  5
449
102
{ACAD_REACTORS
330
C
102
}
330
C
100
AcDbDictionary
281
     1
  3
ByBlock
350
452
  3
ByLayer
350
44A
  3
Global
350
45A
  0
DICTIONARY
  5
498
102
{ACAD_REACTORS
330
C
102
}
330
C
100
AcDbDictionary
281
     1
  3
Standard
350
499
  0
DICTIONARY
  5
17
102
{ACAD_REACTORS
330
C
102
}
330
C
100
AcDbDictionary
281
     1
  3
Standard
350
18
  0
DICTIONARY
  5
19
102
{ACAD_REACTORS
330
C
102
}
330
C
100
AcDbDictionary
281
     1
  0
ACDBDICTIONARYWDFLT
  5
E
102
{ACAD_REACTORS
330
C
102
}
330
C
100
AcDbDictionary
281
     1
  3
Normal
350
F
100
AcDbDictionaryWithDefault
340
F
  0
DICTIONARY
  5
476
102
{ACAD_REACTORS
330
C
102
}
330
C
100
AcDbDictionary
281
     1
  3
A0
350
477
  3
A1
350
478
  3
A2
350
479
  3
A3
350
47A
  3
A4
350
47B
  3
A5
350
47C
  3
A6
350
47D
  3
A7
350
47E
  3
A8
350
47F
  3
A9
350
480
  3
B0
350
481
  3
B1
350
482
  3
B2
350
483
  3
B3
350
484
  3
B4
350
485
  3
B5
350
486
  3
B6
350
487
  3
B7
350
488
  3
B8
350
489
  3
B9
350
48A
  3
C0
350
48B
  3
C1
350
48C
  3
C2
350
48D
  3
C3
350
48E
  3
C4
350
48F
  3
C5
350
490
  3
C6
350
491
  3
C7
350
492
  3
C8
350
493
  3
C9
350
494
  3
D0
350
495
  3
D1
350
496
  3
D2
350
497
  0
DICTIONARY
  5
474
102
{ACAD_REACTORS
330
C
102
}
330
C
100
AcDbDictionary
281
     1
  3
Standard
350
475
  0
DICTIONARY
  5
462
102
{ACAD_REACTORS
330
C
102
}
330
C
100
AcDbDictionary
281
     1
  3
2dWireframe
350
468
  3
3D Hidden
350
46A
  3
3dWireframe
350
469
  3
Basic
350
467
  3
Brighten
350
46E
  3
ColorChange
350
472
  3
Conceptual
350
46B
  3
Dim
350
46D
  3
Facepattern
350
471
  3
Flat
350
463
  3
FlatWithEdges
350
464
  3
Gouraud
350
465
  3
GouraudWithEdges
350
466
  3
Linepattern
350
470
  3
Realistic
350
46C
  3
Thicken
350
46F
  0
XRECORD
  5
8B5
102
{ACAD_REACTORS
330
C
102
}
330
C
100
AcDbXrecord
280
     1
 90
        1
330
475
  0
DICTIONARY
  5
8B6
102
{ACAD_REACTORS
330
C
102
}
330
C
100
AcDbDictionary
281
     1
  3
CANNOSCALE
350
8BA
  3
CMLEADERSTYLE
350
8B8
  3
CTABLESTYLE
350
8B7
  3
DIMASSOC
350
8C2
  3
INDEXCTL
350
8C1
  3
LIGHTINGUNITS
350
8BB
  3
MSLTSCALE
350
8B9
  3
SORTENTS
350
8C0
  0
XRECORD
  5
8C4
102
{ACAD_REACTORS
330
C
102
}
330
C
100
AcDbXrecord
280
     1
  1
DWGPROPS COOKIE
  2

  3

  4

  6

  7

  8
orhan kara
  9

300
=
301
=
302
=
303
=
304
=
305
=
306
=
307
=
308
=
309
=
 40
0.0039325115740741
 41
2458932.587429537
 42
2458956.444844699
  1

 90
        0
  0
XRECORD
  5
8B2
102
{ACAD_REACTORS
330
8B1
102
}
330
8B1
100
AcDbXrecord
280
     1
290
     1
  0
LAYOUT
  5
1E
102
{ACAD_XDICTIONARY
360
8C5
102
}
102
{ACAD_REACTORS
330
1A
102
}
330
1A
100
AcDbPlotSettings
  1

  2
none_device
  4

  6

 40
0.0
 41
0.0
 42
0.0
 43
0.0
 44
0.0
 45
0.0
 46
0.0
 47
0.0
 48
0.0
 49
0.0
140
0.0
141
0.0
142
1.0
143
1.0
 70
   688
 72
     0
 73
     0
 74
     5
  7

 75
    16
147
1.0
148
0.0
149
0.0
100
AcDbLayout
  1
Layout1
 70
     1
 71
     1
 10
0.0
 20
0.0
 11
420.0
 21
297.0
 12
0.0
 22
0.0
 32
0.0
 14
1.000000000000000E+20
 24
1.000000000000000E+20
 34
1.000000000000000E+20
 15
-1.000000000000000E+20
 25
-1.000000000000000E+20
 35
-1.000000000000000E+20
146
0.0
 13
0.0
 23
0.0
 33
0.0
 16
1.0
 26
0.0
 36
0.0
 17
0.0
 27
1.0
 37
0.0
 76
     0
330
1B
  0
LAYOUT
  5
26
102
{ACAD_XDICTIONARY
360
8C9
102
}
102
{ACAD_REACTORS
330
1A
102
}
330
1A
100
AcDbPlotSettings
  1

  2
none_device
  4

  6

 40
0.0
 41
0.0
 42
0.0
 43
0.0
 44
0.0
 45
0.0
 46
0.0
 47
0.0
 48
0.0
 49
0.0
140
0.0
141
0.0
142
1.0
143
1.0
 70
   688
 72
     0
 73
     0
 74
     5
  7

 75
    16
147
1.0
148
0.0
149
0.0
100
AcDbLayout
  1
Layout2
 70
     1
 71
     2
 10
0.0
 20
0.0
 11
0.0
 21
0.0
 12
0.0
 22
0.0
 32
0.0
 14
0.0
 24
0.0
 34
0.0
 15
0.0
 25
0.0
 35
0.0
146
0.0
 13
0.0
 23
0.0
 33
0.0
 16
1.0
 26
0.0
 36
0.0
 17
0.0
 27
1.0
 37
0.0
 76
     0
330
23
  0
LAYOUT
  5
22
102
{ACAD_XDICTIONARY
360
8C7
102
}
102
{ACAD_REACTORS
330
1A
102
}
330
1A
100
AcDbPlotSettings
  1

  2
none_device
  4

  6

 40
0.0
 41
0.0
 42
0.0
 43
0.0
 44
0.0
 45
0.0
 46
0.0
 47
0.0
 48
0.0
 49
0.0
140
0.0
141
0.0
142
1.0
143
1.0
 70
  1712
 72
     0
 73
     0
 74
     0
  7

 75
     0
147
1.0
148
0.0
149
0.0
100
AcDbLayout
  1
Model
 70
     1
 71
     0
 10
0.0
 20
0.0
 11
431.7999999999999
 21
279.4
 12
0.0
 22
0.0
 32
0.0
 14
0.0
 24
0.0
 34
0.0
 15
431.7999999999999
 25
279.4
 35
0.0
146
0.0
 13
0.0
 23
0.0
 33
0.0
 16
1.0
 26
0.0
 36
0.0
 17
0.0
 27
1.0
 37
0.0
 76
     0
330
1F
331
29
  0
MATERIAL
  5
452
102
{ACAD_XDICTIONARY
360
453
102
}
102
{ACAD_REACTORS
330
449
102
}
330
449
100
AcDbMaterial
  1
ByBlock
 72
     0
 43
0.0008202099737533
 43
0.0
 43
0.0
 43
0.0
 43
0.0
 43
0.0008202099737533
 43
0.0
 43
0.0
 43
0.0
 43
0.0
 43
1.0
 43
0.0
 43
0.0
 43
0.0
 43
0.0
 43
1.0
 77
     0
 47
0.0008202099737533
 47
0.0
 47
0.0
 47
0.0
 47
0.0
 47
0.0008202099737533
 47
0.0
 47
0.0
 47
0.0
 47
0.0
 47
1.0
 47
0.0
 47
0.0
 47
0.0
 47
0.0
 47
1.0
171
     0
 49
0.0008202099737533
 49
0.0
 49
0.0
 49
0.0
 49
0.0
 49
0.0008202099737533
 49
0.0
 49
0.0
 49
0.0
 49
0.0
 49
1.0
 49
0.0
 49
0.0
 49
0.0
 49
0.0
 49
1.0
175
     0
142
0.0008202099737533
142
0.0
142
0.0
142
0.0
142
0.0
142
0.0008202099737533
142
0.0
142
0.0
142
0.0
142
0.0
142
1.0
142
0.0
142
0.0
142
0.0
142
0.0
142
1.0
179
     0
144
0.0008202099737533
144
0.0
144
0.0
144
0.0
144
0.0
144
0.0008202099737533
144
0.0
144
0.0
144
0.0
144
0.0
144
1.0
144
0.0
144
0.0
144
0.0
144
0.0
144
1.0
147
0.0008202099737533
147
0.0
147
0.0
147
0.0
147
0.0
147
0.0008202099737533
147
0.0
147
0.0
147
0.0
147
0.0
147
1.0
147
0.0
147
0.0
147
0.0
147
0.0
147
1.0
  0
MATERIAL
  5
44A
102
{ACAD_XDICTIONARY
360
44B
102
}
102
{ACAD_REACTORS
330
449
102
}
330
449
100
AcDbMaterial
  1
ByLayer
 72
     0
 43
0.0008202099737533
 43
0.0
 43
0.0
 43
0.0
 43
0.0
 43
0.0008202099737533
 43
0.0
 43
0.0
 43
0.0
 43
0.0
 43
1.0
 43
0.0
 43
0.0
 43
0.0
 43
0.0
 43
1.0
 77
     0
 47
0.0008202099737533
 47
0.0
 47
0.0
 47
0.0
 47
0.0
 47
0.0008202099737533
 47
0.0
 47
0.0
 47
0.0
 47
0.0
 47
1.0
 47
0.0
 47
0.0
 47
0.0
 47
0.0
 47
1.0
171
     0
 49
0.0008202099737533
 49
0.0
 49
0.0
 49
0.0
 49
0.0
 49
0.0008202099737533
 49
0.0
 49
0.0
 49
0.0
 49
0.0
 49
1.0
 49
0.0
 49
0.0
 49
0.0
 49
0.0
 49
1.0
175
     0
142
0.0008202099737533
142
0.0
142
0.0
142
0.0
142
0.0
142
0.0008202099737533
142
0.0
142
0.0
142
0.0
142
0.0
142
1.0
142
0.0
142
0.0
142
0.0
142
0.0
142
1.0
179
     0
144
0.0008202099737533
144
0.0
144
0.0
144
0.0
144
0.0
144
0.0008202099737533
144
0.0
144
0.0
144
0.0
144
0.0
144
1.0
144
0.0
144
0.0
144
0.0
144
0.0
144
1.0
147
0.0008202099737533
147
0.0
147
0.0
147
0.0
147
0.0
147
0.0008202099737533
147
0.0
147
0.0
147
0.0
147
0.0
147
1.0
147
0.0
147
0.0
147
0.0
147
0.0
147
1.0
  0
MATERIAL
  5
45A
102
{ACAD_XDICTIONARY
360
45B
102
}
102
{ACAD_REACTORS
330
449
102
}
330
449
100
AcDbMaterial
  1
Global
 72
     0
 43
0.0008202099737533
 43
0.0
 43
0.0
 43
0.0
 43
0.0
 43
0.0008202099737533
 43
0.0
 43
0.0
 43
0.0
 43
0.0
 43
1.0
 43
0.0
 43
0.0
 43
0.0
 43
0.0
 43
1.0
 77
     0
 47
0.0008202099737533
 47
0.0
 47
0.0
 47
0.0
 47
0.0
 47
0.0008202099737533
 47
0.0
 47
0.0
 47
0.0
 47
0.0
 47
1.0
 47
0.0
 47
0.0
 47
0.0
 47
0.0
 47
1.0
171
     0
 49
0.0008202099737533
 49
0.0
 49
0.0
 49
0.0
 49
0.0
 49
0.0008202099737533
 49
0.0
 49
0.0
 49
0.0
 49
0.0
 49
1.0
 49
0.0
 49
0.0
 49
0.0
 49
0.0
 49
1.0
175
     0
142
0.0008202099737533
142
0.0
142
0.0
142
0.0
142
0.0
142
0.0008202099737533
142
0.0
142
0.0
142
0.0
142
0.0
142
1.0
142
0.0
142
0.0
142
0.0
142
0.0
142
1.0
179
     0
144
0.0008202099737533
144
0.0
144
0.0
144
0.0
144
0.0
144
0.0008202099737533
144
0.0
144
0.0
144
0.0
144
0.0
144
1.0
144
0.0
144
0.0
144
0.0
144
0.0
144
1.0
147
0.0008202099737533
147
0.0
147
0.0
147
0.0
147
0.0
147
0.0008202099737533
147
0.0
147
0.0
147
0.0
147
0.0
147
1.0
147
0.0
147
0.0
147
0.0
147
0.0
147
1.0
  0
MLEADERSTYLE
  5
499
102
{ACAD_REACTORS
330
498
102
}
330
498
100
AcDbMLeaderStyle
170
     2
171
     1
172
     0
 90
        2
 40
0.0
 41
0.0
173
     1
 91
-1056964608
340
14
 92
       -2
290
     1
 42
2.0
291
     1
 43
0.36
  3
Standard
 44
4.0
300

342
11
174
     1
178
     6
175
     1
176
     0
 93
-1056964608
 45
4.0
292
     0
297
     0
 46
4.0
 94
-1056964608
 47
1.0
 49
1.0
140
1.0
293
     1
141
0.0
294
     1
177
     0
142
1.0
295
     0
296
     0
143
0.125
1001
ACAD_MLEADERVER
1070
     2
  0
MLINESTYLE
  5
18
102
{ACAD_REACTORS
330
17
102
}
330
17
100
AcDbMlineStyle
  2
STANDARD
 70
     0
  3

 62
   256
 51
90.0
 52
90.0
 71
     2
 49
0.5
 62
   256
  6
BYLAYER
 49
-0.5
 62
   256
  6
BYLAYER
  0
ACDBPLACEHOLDER
  5
F
102
{ACAD_REACTORS
330
E
102
}
330
E
  0
SCALE
  5
477
102
{ACAD_REACTORS
330
476
102
}
330
476
100
AcDbScale
 70
     0
300
1:1
140
1.0
141
1.0
290
     1
  0
SCALE
  5
478
102
{ACAD_REACTORS
330
476
102
}
330
476
100
AcDbScale
 70
     0
300
1:2
140
1.0
141
2.0
290
     0
  0
SCALE
  5
479
102
{ACAD_REACTORS
330
476
102
}
330
476
100
AcDbScale
 70
     0
300
1:4
140
1.0
141
4.0
290
     0
  0
SCALE
  5
47A
102
{ACAD_REACTORS
330
476
102
}
330
476
100
AcDbScale
 70
     0
300
1:5
140
1.0
141
5.0
290
     0
  0
SCALE
  5
47B
102
{ACAD_REACTORS
330
476
102
}
330
476
100
AcDbScale
 70
     0
300
1:8
140
1.0
141
8.0
290
     0
  0
SCALE
  5
47C
102
{ACAD_REACTORS
330
476
102
}
330
476
100
AcDbScale
 70
     0
300
1:10
140
1.0
141
10.0
290
     0
  0
SCALE
  5
47D
102
{ACAD_REACTORS
330
476
102
}
330
476
100
AcDbScale
 70
     0
300
1:16
140
1.0
141
16.0
290
     0
  0
SCALE
  5
47E
102
{ACAD_REACTORS
330
476
102
}
330
476
100
AcDbScale
 70
     0
300
1:20
140
1.0
141
20.0
290
     0
  0
SCALE
  5
47F
102
{ACAD_REACTORS
330
476
102
}
330
476
100
AcDbScale
 70
     0
300
1:30
140
1.0
141
30.0
290
     0
  0
SCALE
  5
480
102
{ACAD_REACTORS
330
476
102
}
330
476
100
AcDbScale
 70
     0
300
1:40
140
1.0
141
40.0
290
     0
  0
SCALE
  5
481
102
{ACAD_REACTORS
330
476
102
}
330
476
100
AcDbScale
 70
     0
300
1:50
140
1.0
141
50.0
290
     0
  0
SCALE
  5
482
102
{ACAD_REACTORS
330
476
102
}
330
476
100
AcDbScale
 70
     0
300
1:100
140
1.0
141
100.0
290
     0
  0
SCALE
  5
483
102
{ACAD_REACTORS
330
476
102
}
330
476
100
AcDbScale
 70
     0
300
2:1
140
2.0
141
1.0
290
     0
  0
SCALE
  5
484
102
{ACAD_REACTORS
330
476
102
}
330
476
100
AcDbScale
 70
     0
300
4:1
140
4.0
141
1.0
290
     0
  0
SCALE
  5
485
102
{ACAD_REACTORS
330
476
102
}
330
476
100
AcDbScale
 70
     0
300
8:1
140
8.0
141
1.0
290
     0
  0
SCALE
  5
486
102
{ACAD_REACTORS
330
476
102
}
330
476
100
AcDbScale
 70
     0
300
10:1
140
10.0
141
1.0
290
     0
  0
SCALE
  5
487
102
{ACAD_REACTORS
330
476
102
}
330
476
100
AcDbScale
 70
     0
300
100:1
140
100.0
141
1.0
290
     0
  0
SCALE
  5
488
102
{ACAD_REACTORS
330
476
102
}
330
476
100
AcDbScale
 70
     0
300
1/128" = 1'-0"
140
0.0078125
141
12.0
290
     0
  0
SCALE
  5
489
102
{ACAD_REACTORS
330
476
102
}
330
476
100
AcDbScale
 70
     0
300
1/64" = 1'-0"
140
0.015625
141
12.0
290
     0
  0
SCALE
  5
48A
102
{ACAD_REACTORS
330
476
102
}
330
476
100
AcDbScale
 70
     0
300
1/32" = 1'-0"
140
0.03125
141
12.0
290
     0
  0
SCALE
  5
48B
102
{ACAD_REACTORS
330
476
102
}
330
476
100
AcDbScale
 70
     0
300
1/16" = 1'-0"
140
0.0625
141
12.0
290
     0
  0
SCALE
  5
48C
102
{ACAD_REACTORS
330
476
102
}
330
476
100
AcDbScale
 70
     0
300
3/32" = 1'-0"
140
0.09375
141
12.0
290
     0
  0
SCALE
  5
48D
102
{ACAD_REACTORS
330
476
102
}
330
476
100
AcDbScale
 70
     0
300
1/8" = 1'-0"
140
0.125
141
12.0
290
     0
  0
SCALE
  5
48E
102
{ACAD_REACTORS
330
476
102
}
330
476
100
AcDbScale
 70
     0
300
3/16" = 1'-0"
140
0.1875
141
12.0
290
     0
  0
SCALE
  5
48F
102
{ACAD_REACTORS
330
476
102
}
330
476
100
AcDbScale
 70
     0
300
1/4" = 1'-0"
140
0.25
141
12.0
290
     0
  0
SCALE
  5
490
102
{ACAD_REACTORS
330
476
102
}
330
476
100
AcDbScale
 70
     0
300
3/8" = 1'-0"
140
0.375
141
12.0
290
     0
  0
SCALE
  5
491
102
{ACAD_REACTORS
330
476
102
}
330
476
100
AcDbScale
 70
     0
300
1/2" = 1'-0"
140
0.5
141
12.0
290
     0
  0
SCALE
  5
492
102
{ACAD_REACTORS
330
476
102
}
330
476
100
AcDbScale
 70
     0
300
3/4" = 1'-0"
140
0.75
141
12.0
290
     0
  0
SCALE
  5
493
102
{ACAD_REACTORS
330
476
102
}
330
476
100
AcDbScale
 70
     0
300
1" = 1'-0"
140
1.0
141
12.0
290
     0
  0
SCALE
  5
494
102
{ACAD_REACTORS
330
476
102
}
330
476
100
AcDbScale
 70
     0
300
1-1/2" = 1'-0"
140
1.5
141
12.0
290
     0
  0
SCALE
  5
495
102
{ACAD_REACTORS
330
476
102
}
330
476
100
AcDbScale
 70
     0
300
3" = 1'-0"
140
3.0
141
12.0
290
     0
  0
SCALE
  5
496
102
{ACAD_REACTORS
330
476
102
}
330
476
100
AcDbScale
 70
     0
300
6" = 1'-0"
140
6.0
141
12.0
290
     0
  0
SCALE
  5
497
102
{ACAD_REACTORS
330
476
102
}
330
476
100
AcDbScale
 70
     0
300
1'-0" = 1'-0"
140
12.0
141
12.0
290
     0
  0
TABLESTYLE
  5
475
102
{ACAD_XDICTIONARY
360
8B3
102
}
102
{ACAD_REACTORS
330
474
102
}
330
474
100
AcDbTableStyle
  3
Standard
 70
     0
 71
     0
 40
1.5
 41
1.5
280
     0
281
     0
  7
Standard
140
4.5
170
     2
 62
     0
 63
     7
283
     0
274
    -2
284
     1
 64
     0
275
    -2
285
     1
 65
     0
276
    -2
286
     1
 66
     0
277
    -2
287
     1
 67
     0
278
    -2
288
     1
 68
     0
279
    -2
289
     1
 69
     0
  7
Standard
140
6.0
170
     5
 62
     0
 63
     7
283
     0
274
    -2
284
     1
 64
     0
275
    -2
285
     1
 65
     0
276
    -2
286
     1
 66
     0
277
    -2
287
     1
 67
     0
278
    -2
288
     1
 68
     0
279
    -2
289
     1
 69
     0
  7
Standard
140
4.5
170
     5
 62
     0
 63
     7
283
     0
274
    -2
284
     1
 64
     0
275
    -2
285
     1
 65
     0
276
    -2
286
     1
 66
     0
277
    -2
287
     1
 67
     0
278
    -2
288
     1
 68
     0
279
    -2
289
     1
 69
     0
  0
VISUALSTYLE
  5
468
102
{ACAD_REACTORS
330
462
102
}
330
462
100
AcDbVisualStyle
  2
2dWireframe
 70
     4
 71
     0
 72
     2
 73
     0
 90
        0
 40
-0.6
 41
-30.0
 62
     5
 63
     7
 74
     1
 91
        4
 64
     7
 65
   257
 75
     1
175
     1
 42
1.0
 92
        0
 66
   257
 43
1.0
 76
     1
 77
     6
 78
     2
 67
     7
 79
     5
170
     0
171
     0
290
     0
174
     0
 93
        1
 44
0.0
173
     0
291
     0
 45
0.0
1001
ACAD
1000
AcDbSavedByObjectVersion
1070
     0
  0
VISUALSTYLE
  5
46A
102
{ACAD_REACTORS
330
462
102
}
330
462
100
AcDbVisualStyle
  2
3D Hidden
 70
     6
 71
     1
 72
     2
 73
     2
 90
        0
 40
-0.6
 41
-30.0
 62
     5
 63
     7
 74
     2
 91
        2
 64
     7
 65
   257
 75
     2
175
     1
 42
40.0
 92
        0
 66
   257
 43
1.0
 76
     1
 77
     6
 78
     2
 67
     7
 79
     3
170
     0
171
     0
290
     0
174
     0
 93
        1
 44
0.0
173
     0
291
     0
 45
0.0
1001
ACAD
1000
AcDbSavedByObjectVersion
1070
     0
  0
VISUALSTYLE
  5
469
102
{ACAD_REACTORS
330
462
102
}
330
462
100
AcDbVisualStyle
  2
3dWireframe
 70
     5
 71
     0
 72
     2
 73
     0
 90
        0
 40
-0.6
 41
-30.0
 62
     5
 63
     7
 74
     1
 91
        4
 64
     7
 65
   257
 75
     1
175
     1
 42
1.0
 92
        0
 66
   257
 43
1.0
 76
     1
 77
     6
 78
     2
 67
     7
 79
     5
170
     0
171
     0
290
     0
174
     0
 93
        1
 44
0.0
173
     0
291
     0
 45
0.0
1001
ACAD
1000
AcDbSavedByObjectVersion
1070
     0
  0
VISUALSTYLE
  5
467
102
{ACAD_REACTORS
330
462
102
}
330
462
100
AcDbVisualStyle
  2
Basic
 70
     7
 71
     1
 72
     0
 73
     1
 90
        0
 40
-0.6
 41
-30.0
 62
     5
 63
     7
 74
     0
 91
        4
 64
     7
 65
   257
 75
     1
175
     1
 42
1.0
 92
        8
 66
     7
 43
1.0
 76
     1
 77
     6
 78
     2
 67
     7
 79
     5
170
     0
171
     0
290
     0
174
     0
 93
        1
 44
0.0
173
     0
291
     1
 45
0.0
1001
ACAD
1000
AcDbSavedByObjectVersion
1070
     0
  0
VISUALSTYLE
  5
46E
102
{ACAD_REACTORS
330
462
102
}
330
462
100
AcDbVisualStyle
  2
Brighten
 70
    12
 71
     2
 72
     2
 73
     0
 90
        0
 40
-0.6
 41
-30.0
 62
     5
 63
     7
 74
     1
 91
        4
 64
     7
 65
   257
 75
     1
175
     1
 42
1.0
 92
        8
 66
     7
 43
1.0
 76
     1
 77
     6
 78
     2
 67
     7
 79
     5
170
     0
171
     0
290
     0
174
     0
 93
        1
 44
50.0
173
     0
291
     1
 45
0.0
1001
ACAD
1000
AcDbSavedByObjectVersion
1070
     0
  0
VISUALSTYLE
  5
472
102
{ACAD_REACTORS
330
462
102
}
330
462
100
AcDbVisualStyle
  2
ColorChange
 70
    16
 71
     2
 72
     2
 73
     3
 90
        0
 40
-0.6
 41
-30.0
 62
     5
 63
     8
 74
     1
 91
        4
 64
     7
 65
   257
 75
     1
175
     1
 42
1.0
 92
        8
 66
     8
 43
1.0
 76
     1
 77
     6
 78
     2
 67
     7
 79
     5
170
     0
171
     0
290
     0
174
     0
 93
        1
 44
0.0
173
     0
291
     1
 45
0.0
1001
ACAD
1000
AcDbSavedByObjectVersion
1070
     0
  0
VISUALSTYLE
  5
46B
102
{ACAD_REACTORS
330
462
102
}
330
462
100
AcDbVisualStyle
  2
Conceptual
 70
     9
 71
     3
 72
     2
 73
     0
 90
        0
 40
-0.6
 41
-30.0
 62
     5
 63
     7
 74
     2
 91
        2
 64
     7
 65
   257
 75
     1
175
     1
 42
40.0
 92
        8
 66
     7
 43
1.0
 76
     1
 77
     6
 78
     2
 67
     7
 79
     3
170
     0
171
     0
290
     0
174
     0
 93
        1
 44
0.0
173
     0
291
     0
 45
0.0
1001
ACAD
1000
AcDbSavedByObjectVersion
1070
     0
  0
VISUALSTYLE
  5
46D
102
{ACAD_REACTORS
330
462
102
}
330
462
100
AcDbVisualStyle
  2
Dim
 70
    11
 71
     2
 72
     2
 73
     0
 90
        0
 40
-0.6
 41
-30.0
 62
     5
 63
     7
 74
     1
 91
        4
 64
     7
 65
   257
 75
     1
175
     1
 42
1.0
 92
        8
 66
     7
 43
1.0
 76
     1
 77
     6
 78
     2
 67
     7
 79
     5
170
     0
171
     0
290
     0
174
     0
 93
        1
 44
-50.0
173
     0
291
     1
 45
0.0
1001
ACAD
1000
AcDbSavedByObjectVersion
1070
     0
  0
VISUALSTYLE
  5
471
102
{ACAD_REACTORS
330
462
102
}
330
462
100
AcDbVisualStyle
  2
Facepattern
 70
    15
 71
     2
 72
     2
 73
     0
 90
        0
 40
-0.6
 41
-30.0
 62
     5
 63
     7
 74
     1
 91
        4
 64
     7
 65
   257
 75
     1
175
     1
 42
1.0
 92
        8
 66
     7
 43
1.0
 76
     1
 77
     6
 78
     2
 67
     7
 79
     5
170
     0
171
     0
290
     0
174
     0
 93
        1
 44
0.0
173
     0
291
     1
 45
0.0
1001
ACAD
1000
AcDbSavedByObjectVersion
1070
     0
  0
VISUALSTYLE
  5
463
102
{ACAD_REACTORS
330
462
102
}
330
462
100
AcDbVisualStyle
  2
Flat
 70
     0
 71
     2
 72
     1
 73
     1
 90
        2
 40
-0.6
 41
30.0
 62
     5
 63
     7
 74
     0
 91
        4
 64
     7
 65
   257
 75
     1
175
     1
 42
1.0
 92
        8
 66
     7
 43
1.0
 76
     1
 77
     6
 78
     2
 67
     7
 79
     5
170
     0
171
     0
290
     0
174
     0
 93
       13
 44
0.0
173
     0
291
     1
 45
0.0
1001
ACAD
1000
AcDbSavedByObjectVersion
1070
     0
  0
VISUALSTYLE
  5
464
102
{ACAD_REACTORS
330
462
102
}
330
462
100
AcDbVisualStyle
  2
FlatWithEdges
 70
     1
 71
     2
 72
     1
 73
     1
 90
        2
 40
-0.6
 41
30.0
 62
     5
 63
     7
 74
     1
 91
        4
 64
     7
 65
   257
 75
     1
175
     1
 42
1.0
 92
        0
 66
   257
 43
1.0
 76
     1
 77
     6
 78
     2
 67
     7
 79
     5
170
     0
171
     0
290
     0
174
     0
 93
       13
 44
0.0
173
     0
291
     1
 45
0.0
1001
ACAD
1000
AcDbSavedByObjectVersion
1070
     0
  0
VISUALSTYLE
  5
465
102
{ACAD_REACTORS
330
462
102
}
330
462
100
AcDbVisualStyle
  2
Gouraud
 70
     2
 71
     2
 72
     2
 73
     1
 90
        2
 40
-0.6
 41
30.0
 62
     5
 63
     7
 74
     0
 91
        4
 64
     7
 65
   257
 75
     1
175
     1
 42
1.0
 92
        0
 66
     7
 43
1.0
 76
     1
 77
     6
 78
     2
 67
     7
 79
     5
170
     0
171
     0
290
     0
174
     0
 93
       13
 44
0.0
173
     0
291
     1
 45
0.0
1001
ACAD
1000
AcDbSavedByObjectVersion
1070
     0
  0
VISUALSTYLE
  5
466
102
{ACAD_REACTORS
330
462
102
}
330
462
100
AcDbVisualStyle
  2
GouraudWithEdges
 70
     3
 71
     2
 72
     2
 73
     1
 90
        2
 40
-0.6
 41
30.0
 62
     5
 63
     7
 74
     1
 91
        4
 64
     7
 65
   257
 75
     1
175
     1
 42
1.0
 92
        0
 66
   257
 43
1.0
 76
     1
 77
     6
 78
     2
 67
     7
 79
     5
170
     0
171
     0
290
     0
174
     0
 93
       13
 44
0.0
173
     0
291
     1
 45
0.0
1001
ACAD
1000
AcDbSavedByObjectVersion
1070
     0
  0
VISUALSTYLE
  5
470
102
{ACAD_REACTORS
330
462
102
}
330
462
100
AcDbVisualStyle
  2
Linepattern
 70
    14
 71
     2
 72
     2
 73
     0
 90
        0
 40
-0.6
 41
-30.0
 62
     5
 63
     7
 74
     1
 91
        4
 64
     7
 65
   257
 75
     7
175
     7
 42
1.0
 92
        8
 66
     7
 43
1.0
 76
     1
 77
     6
 78
     2
 67
     7
 79
     5
170
     0
171
     0
290
     0
174
     0
 93
        1
 44
0.0
173
     0
291
     1
 45
0.0
1001
ACAD
1000
AcDbSavedByObjectVersion
1070
     0
  0
VISUALSTYLE
  5
46C
102
{ACAD_REACTORS
330
462
102
}
330
462
100
AcDbVisualStyle
  2
Realistic
 70
     8
 71
     2
 72
     2
 73
     0
 90
        0
 40
-0.6
 41
-30.0
 62
     5
 63
     7
 74
     1
 91
        0
 64
     7
 65
   257
 75
     1
175
     1
 42
1.0
 92
        8
 66
     8
 43
1.0
 76
     1
 77
     6
 78
     2
 67
     7
 79
     5
170
     0
171
     0
290
     0
174
     0
 93
       13
 44
0.0
173
     0
291
     0
 45
0.0
1001
ACAD
1000
AcDbSavedByObjectVersion
1070
     0
  0
VISUALSTYLE
  5
46F
102
{ACAD_REACTORS
330
462
102
}
330
462
100
AcDbVisualStyle
  2
Thicken
 70
    13
 71
     2
 72
     2
 73
     0
 90
        0
 40
-0.6
 41
-30.0
 62
     5
 63
     7
 74
     1
 91
        4
 64
     7
 65
   257
 75
     1
175
     1
 42
1.0
 92
       12
 66
     7
 43
1.0
 76
     1
 77
     6
 78
     2
 67
     7
 79
     5
170
     0
171
     0
290
     0
174
     0
 93
        1
 44
0.0
173
     0
291
     1
 45
0.0
1001
ACAD
1000
AcDbSavedByObjectVersion
1070
     0
  0
DICTIONARYVAR
  5
8BA
102
{ACAD_REACTORS
330
8B6
102
}
330
8B6
100
DictionaryVariables
280
     0
  1
1:1
  0
DICTIONARYVAR
  5
8B8
102
{ACAD_REACTORS
330
8B6
102
}
330
8B6
100
DictionaryVariables
280
     0
  1
STANDARD
  0
DICTIONARYVAR
  5
8B7
102
{ACAD_REACTORS
330
8B6
102
}
330
8B6
100
DictionaryVariables
280
     0
  1
STANDARD
  0
DICTIONARYVAR
  5
8C2
102
{ACAD_REACTORS
330
8B6
102
}
330
8B6
100
DictionaryVariables
280
     0
  1
1
  0
DICTIONARYVAR
  5
8C1
102
{ACAD_REACTORS
330
8B6
102
}
330
8B6
100
DictionaryVariables
280
     0
  1
0
  0
DICTIONARYVAR
  5
8BB
102
{ACAD_REACTORS
330
8B6
102
}
330
8B6
100
DictionaryVariables
280
     0
  1
0
  0
DICTIONARYVAR
  5
8B9
102
{ACAD_REACTORS
330
8B6
102
}
330
8B6
100
DictionaryVariables
280
     0
  1
0
  0
DICTIONARYVAR
  5
8C0
102
{ACAD_REACTORS
330
8B6
102
}
330
8B6
100
DictionaryVariables
280
     0
  1
127
  0
DICTIONARY
  5
8C5
330
1E
100
AcDbDictionary
280
     1
281
     1
  3
ACAD_XREC_ROUNDTRIP
360
8C6
  0
DICTIONARY
  5
8C9
330
26
100
AcDbDictionary
280
     1
281
     1
  3
ACAD_XREC_ROUNDTRIP
360
8CA
  0
DICTIONARY
  5
8C7
330
22
100
AcDbDictionary
280
     1
281
     1
  3
ACAD_XREC_ROUNDTRIP
360
8C8
  0
DICTIONARY
  5
453
330
452
100
AcDbDictionary
280
     1
281
     1
  3
ACAD_XREC_ROUNDTRIP
360
8CC
  3
BUMPTILE
360
455
  3
DIFFUSETILE
360
454
  3
OPACITYTILE
360
458
  3
REFLECTIONTILE
360
457
  3
REFRACTIONTILE
360
459
  3
SPECULARTILE
360
456
  0
DICTIONARY
  5
44B
330
44A
100
AcDbDictionary
280
     1
281
     1
  3
ACAD_XREC_ROUNDTRIP
360
8CB
  3
BUMPTILE
360
44D
  3
DIFFUSETILE
360
44C
  3
OPACITYTILE
360
450
  3
REFLECTIONTILE
360
44F
  3
REFRACTIONTILE
360
451
  3
SPECULARTILE
360
44E
  0
DICTIONARY
  5
45B
330
45A
100
AcDbDictionary
280
     1
281
     1
  3
ACAD_XREC_ROUNDTRIP
360
8CD
  3
BUMPTILE
360
45D
  3
DIFFUSETILE
360
45C
  3
OPACITYTILE
360
460
  3
REFLECTIONTILE
360
45F
  3
REFRACTIONTILE
360
461
  3
SPECULARTILE
360
45E
  0
DICTIONARY
  5
8B3
330
475
100
AcDbDictionary
280
     1
281
     1
  3
ACAD_ROUNDTRIP_2008_TABLESTYLE_CELLSTYLEMAP
360
8C3
  3
ACAD_XREC_ROUNDTRIP
360
8CE
  0
XRECORD
  5
8C6
102
{ACAD_REACTORS
330
8C5
102
}
330
8C5
100
AcDbXrecord
280
     1
102
SHADEPLOT
 70
     0
102
SHADEPLOTRESLEVEL
 70
     2
102
SHADEPLOTCUSTOMDPI
 70
   300
  0
XRECORD
  5
8CA
102
{ACAD_REACTORS
330
8C9
102
}
330
8C9
100
AcDbXrecord
280
     1
102
SHADEPLOT
 70
     0
102
SHADEPLOTRESLEVEL
 70
     2
102
SHADEPLOTCUSTOMDPI
 70
   300
  0
XRECORD
  5
8C8
102
{ACAD_REACTORS
330
8C7
102
}
330
8C7
100
AcDbXrecord
280
     1
102
SHADEPLOT
 70
     0
102
SHADEPLOTRESLEVEL
 70
     2
102
SHADEPLOTCUSTOMDPI
 70
   300
  0
XRECORD
  5
8CC
102
{ACAD_REACTORS
330
453
102
}
330
453
100
AcDbXrecord
280
     1
102
MATERIAL
148
0.0
149
0.0
149
0.0
 93
        0
 94
      127
282
     0
 72
     0
 77
     0
171
     0
175
     0
179
     0
273
     0
  0
XRECORD
  5
455
102
{ACAD_REACTORS
330
453
102
}
330
453
100
AcDbXrecord
280
     1
270
     1
271
     1
  0
XRECORD
  5
454
102
{ACAD_REACTORS
330
453
102
}
330
453
100
AcDbXrecord
280
     1
270
     1
271
     1
  0
XRECORD
  5
458
102
{ACAD_REACTORS
330
453
102
}
330
453
100
AcDbXrecord
280
     1
270
     1
271
     1
  0
XRECORD
  5
457
102
{ACAD_REACTORS
330
453
102
}
330
453
100
AcDbXrecord
280
     1
270
     1
271
     1
  0
XRECORD
  5
459
102
{ACAD_REACTORS
330
453
102
}
330
453
100
AcDbXrecord
280
     1
270
     1
271
     1
  0
XRECORD
  5
456
102
{ACAD_REACTORS
330
453
102
}
330
453
100
AcDbXrecord
280
     1
270
     1
271
     1
  0
XRECORD
  5
8CB
102
{ACAD_REACTORS
330
44B
102
}
330
44B
100
AcDbXrecord
280
     1
102
MATERIAL
148
0.0
149
0.0
149
0.0
 93
        0
 94
      127
282
     0
 72
     0
 77
     0
171
     0
175
     0
179
     0
273
     0
  0
XRECORD
  5
44D
102
{ACAD_REACTORS
330
44B
102
}
330
44B
100
AcDbXrecord
280
     1
270
     1
271
     1
  0
XRECORD
  5
44C
102
{ACAD_REACTORS
330
44B
102
}
330
44B
100
AcDbXrecord
280
     1
270
     1
271
     1
  0
XRECORD
  5
450
102
{ACAD_REACTORS
330
44B
102
}
330
44B
100
AcDbXrecord
280
     1
270
     1
271
     1
  0
XRECORD
  5
44F
102
{ACAD_REACTORS
330
44B
102
}
330
44B
100
AcDbXrecord
280
     1
270
     1
271
     1
  0
XRECORD
  5
451
102
{ACAD_REACTORS
330
44B
102
}
330
44B
100
AcDbXrecord
280
     1
270
     1
271
     1
  0
XRECORD
  5
44E
102
{ACAD_REACTORS
330
44B
102
}
330
44B
100
AcDbXrecord
280
     1
270
     1
271
     1
  0
XRECORD
  5
8CD
102
{ACAD_REACTORS
330
45B
102
}
330
45B
100
AcDbXrecord
280
     1
102
MATERIAL
148
0.0
149
0.0
149
0.0
 93
        0
 94
      127
282
     0
 72
     0
 77
     0
171
     0
175
     0
179
     0
273
     0
  0
XRECORD
  5
45D
102
{ACAD_REACTORS
330
45B
102
}
330
45B
100
AcDbXrecord
280
     1
270
     1
271
     1
  0
XRECORD
  5
45C
102
{ACAD_REACTORS
330
45B
102
}
330
45B
100
AcDbXrecord
280
     1
270
     1
271
     1
  0
XRECORD
  5
460
102
{ACAD_REACTORS
330
45B
102
}
330
45B
100
AcDbXrecord
280
     1
270
     1
271
     1
  0
XRECORD
  5
45F
102
{ACAD_REACTORS
330
45B
102
}
330
45B
100
AcDbXrecord
280
     1
270
     1
271
     1
  0
XRECORD
  5
461
102
{ACAD_REACTORS
330
45B
102
}
330
45B
100
AcDbXrecord
280
     1
270
     1
271
     1
  0
XRECORD
  5
45E
102
{ACAD_REACTORS
330
45B
102
}
330
45B
100
AcDbXrecord
280
     1
270
     1
271
     1
  0
CELLSTYLEMAP
  5
8C3
102
{ACAD_REACTORS
330
8B3
102
}
330
8B3
100
AcDbCellStyleMap
 90
        3
300
CELLSTYLE
  1
TABLEFORMAT_BEGIN
 90
        5
170
     1
 91
        0
 92
    32768
 62
   257
 93
        1
300
CONTENTFORMAT
  1
CONTENTFORMAT_BEGIN
 90
        0
 91
        0
 92
      512
 93
        0
300

 40
0.0
140
1.0
 94
        5
 62
     0
340
11
144
6.0
309
CONTENTFORMAT_END
171
     1
301
MARGIN
  1
CELLMARGIN_BEGIN
 40
1.5
 40
1.5
 40
1.5
 40
1.5
 40
4.5
 40
4.5
309
CELLMARGIN_END
 94
        6
 95
        1
302
GRIDFORMAT
  1
GRIDFORMAT_BEGIN
 90
        0
 91
        1
 62
     0
 92
       -2
340
0
 93
        0
 40
1.125
309
GRIDFORMAT_END
 95
        2
302
GRIDFORMAT
  1
GRIDFORMAT_BEGIN
 90
        0
 91
        1
 62
     0
 92
       -2
340
0
 93
        0
 40
1.125
309
GRIDFORMAT_END
 95
        4
302
GRIDFORMAT
  1
GRIDFORMAT_BEGIN
 90
        0
 91
        1
 62
     0
 92
       -2
340
0
 93
        0
 40
1.125
309
GRIDFORMAT_END
 95
        8
302
GRIDFORMAT
  1
GRIDFORMAT_BEGIN
 90
        0
 91
        1
 62
     0
 92
       -2
340
0
 93
        0
 40
1.125
309
GRIDFORMAT_END
 95
       16
302
GRIDFORMAT
  1
GRIDFORMAT_BEGIN
 90
        0
 91
        1
 62
     0
 92
       -2
340
0
 93
        0
 40
1.125
309
GRIDFORMAT_END
 95
       32
302
GRIDFORMAT
  1
GRIDFORMAT_BEGIN
 90
        0
 91
        1
 62
     0
 92
       -2
340
0
 93
        0
 40
1.125
309
GRIDFORMAT_END
309
TABLEFORMAT_END
  1
CELLSTYLE_BEGIN
 90
        1
 91
        1
300
_TITLE
309
CELLSTYLE_END
300
CELLSTYLE
  1
TABLEFORMAT_BEGIN
 90
        5
170
     1
 91
        0
 92
        0
 62
   257
 93
        1
300
CONTENTFORMAT
  1
CONTENTFORMAT_BEGIN
 90
        0
 91
        0
 92
      512
 93
        0
300

 40
0.0
140
1.0
 94
        5
 62
     0
340
11
144
4.5
309
CONTENTFORMAT_END
171
     1
301
MARGIN
  1
CELLMARGIN_BEGIN
 40
1.5
 40
1.5
 40
1.5
 40
1.5
 40
4.5
 40
4.5
309
CELLMARGIN_END
 94
        6
 95
        1
302
GRIDFORMAT
  1
GRIDFORMAT_BEGIN
 90
        0
 91
        1
 62
     0
 92
       -2
340
0
 93
        0
 40
1.125
309
GRIDFORMAT_END
 95
        2
302
GRIDFORMAT
  1
GRIDFORMAT_BEGIN
 90
        0
 91
        1
 62
     0
 92
       -2
340
0
 93
        0
 40
1.125
309
GRIDFORMAT_END
 95
        4
302
GRIDFORMAT
  1
GRIDFORMAT_BEGIN
 90
        0
 91
        1
 62
     0
 92
       -2
340
0
 93
        0
 40
1.125
309
GRIDFORMAT_END
 95
        8
302
GRIDFORMAT
  1
GRIDFORMAT_BEGIN
 90
        0
 91
        1
 62
     0
 92
       -2
340
0
 93
        0
 40
1.125
309
GRIDFORMAT_END
 95
       16
302
GRIDFORMAT
  1
GRIDFORMAT_BEGIN
 90
        0
 91
        1
 62
     0
 92
       -2
340
0
 93
        0
 40
1.125
309
GRIDFORMAT_END
 95
       32
302
GRIDFORMAT
  1
GRIDFORMAT_BEGIN
 90
        0
 91
        1
 62
     0
 92
       -2
340
0
 93
        0
 40
1.125
309
GRIDFORMAT_END
309
TABLEFORMAT_END
  1
CELLSTYLE_BEGIN
 90
        2
 91
        1
300
_HEADER
309
CELLSTYLE_END
300
CELLSTYLE
  1
TABLEFORMAT_BEGIN
 90
        5
170
     1
 91
        0
 92
        0
 62
   257
 93
        1
300
CONTENTFORMAT
  1
CONTENTFORMAT_BEGIN
 90
        0
 91
        0
 92
      512
 93
        0
300

 40
0.0
140
1.0
 94
        2
 62
     0
340
11
144
4.5
309
CONTENTFORMAT_END
171
     1
301
MARGIN
  1
CELLMARGIN_BEGIN
 40
1.5
 40
1.5
 40
1.5
 40
1.5
 40
4.5
 40
4.5
309
CELLMARGIN_END
 94
        6
 95
        1
302
GRIDFORMAT
  1
GRIDFORMAT_BEGIN
 90
        0
 91
        1
 62
     0
 92
       -2
340
0
 93
        0
 40
1.125
309
GRIDFORMAT_END
 95
        2
302
GRIDFORMAT
  1
GRIDFORMAT_BEGIN
 90
        0
 91
        1
 62
     0
 92
       -2
340
0
 93
        0
 40
1.125
309
GRIDFORMAT_END
 95
        4
302
GRIDFORMAT
  1
GRIDFORMAT_BEGIN
 90
        0
 91
        1
 62
     0
 92
       -2
340
0
 93
        0
 40
1.125
309
GRIDFORMAT_END
 95
        8
302
GRIDFORMAT
  1
GRIDFORMAT_BEGIN
 90
        0
 91
        1
 62
     0
 92
       -2
340
0
 93
        0
 40
1.125
309
GRIDFORMAT_END
 95
       16
302
GRIDFORMAT
  1
GRIDFORMAT_BEGIN
 90
        0
 91
        1
 62
     0
 92
       -2
340
0
 93
        0
 40
1.125
309
GRIDFORMAT_END
 95
       32
302
GRIDFORMAT
  1
GRIDFORMAT_BEGIN
 90
        0
 91
        1
 62
     0
 92
       -2
340
0
 93
        0
 40
1.125
309
GRIDFORMAT_END
309
TABLEFORMAT_END
  1
CELLSTYLE_BEGIN
 90
        3
 91
        2
300
_DATA
309
CELLSTYLE_END
  0
XRECORD
  5
8CE
102
{ACAD_REACTORS
330
8B3
102
}
330
8B3
100
AcDbXrecord
280
     1
102
ACAD_ROUNDTRIP_PRE2007_TABLESTYLE
 90
      512
 91
        0
  1

 92
      512
 93
        0
  2

 94
      512
 95
        0
  3

  0
ENDSEC
  0
EOF
