  0
SECTION
  2
HEADER
  9
$ACADVER
  1
AC1015
  9
$ACADMAINTVER
 70
    20
  9
$DWGCODEPAGE
  3
ANSI_1254
  9
$INSBASE
 10
0.0
 20
0.0
 30
0.0
  9
$EXTMIN
 10
2267.370827427794
 20
772.5218034283138
 30
0.0
  9
$EXTMAX
 10
2348.549254847712
 20
820.9615783792569
 30
0.0
  9
$LIMMIN
 10
0.0
 20
0.0
  9
$LIMMAX
 10
420.0
 20
297.0
  9
$ORTHOMODE
 70
     0
  9
$REGENMODE
 70
     1
  9
$FILLMODE
 70
     1
  9
$QTEXTMODE
 70
     0
  9
$MIRRTEXT
 70
     0
  9
$LTSCALE
 40
1.0
  9
$ATTMODE
 70
     1
  9
$TEXTSIZE
 40
2.5
  9
$TRACEWID
 40
1.0
  9
$TEXTSTYLE
  7
Standard
  9
$CLAYER
  8
0
  9
$CELTYPE
  6
ByLayer
  9
$CECOLOR
 62
   256
  9
$CELTSCALE
 40
1.0
  9
$DISPSILH
 70
     0
  9
$DIMSCALE
 40
1.0
  9
$DIMASZ
 40
2.5
  9
$DIMEXO
 40
0.625
  9
$DIMDLI
 40
3.75
  9
$DIMRND
 40
0.0
  9
$DIMDLE
 40
0.0
  9
$DIMEXE
 40
1.25
  9
$DIMTP
 40
0.0
  9
$DIMTM
 40
0.0
  9
$DIMTXT
 40
2.5
  9
$DIMCEN
 40
2.5
  9
$DIMTSZ
 40
0.0
  9
$DIMTOL
 70
     0
  9
$DIMLIM
 70
     0
  9
$DIMTIH
 70
     0
  9
$DIMTOH
 70
     0
  9
$DIMSE1
 70
     0
  9
$DIMSE2
 70
     0
  9
$DIMTAD
 70
     1
  9
$DIMZIN
 70
     8
  9
$DIMBLK
  1

  9
$DIMASO
 70
     1
  9
$DIMSHO
 70
     1
  9
$DIMPOST
  1

  9
$DIMAPOST
  1

  9
$DIMALT
 70
     0
  9
$DIMALTD
 70
     3
  9
$DIMALTF
 40
0.03937007874016
  9
$DIMLFAC
 40
1.0
  9
$DIMTOFL
 70
     1
  9
$DIMTVP
 40
0.0
  9
$DIMTIX
 70
     0
  9
$DIMSOXD
 70
     0
  9
$DIMSAH
 70
     0
  9
$DIMBLK1
  1

  9
$DIMBLK2
  1

  9
$DIMSTYLE
  2
ISO-25
  9
$DIMCLRD
 70
     0
  9
$DIMCLRE
 70
     0
  9
$DIMCLRT
 70
     0
  9
$DIMTFAC
 40
1.0
  9
$DIMGAP
 40
0.625
  9
$DIMJUST
 70
     0
  9
$DIMSD1
 70
     0
  9
$DIMSD2
 70
     0
  9
$DIMTOLJ
 70
     0
  9
$DIMTZIN
 70
     8
  9
$DIMALTZ
 70
     0
  9
$DIMALTTZ
 70
     0
  9
$DIMUPT
 70
     0
  9
$DIMDEC
 70
     2
  9
$DIMTDEC
 70
     2
  9
$DIMALTU
 70
     2
  9
$DIMALTTD
 70
     3
  9
$DIMTXSTY
  7
Standard
  9
$DIMAUNIT
 70
     0
  9
$DIMADEC
 70
     0
  9
$DIMALTRND
 40
0.0
  9
$DIMAZIN
 70
     0
  9
$DIMDSEP
 70
    44
  9
$DIMATFIT
 70
     3
  9
$DIMFRAC
 70
     0
  9
$DIMLDRBLK
  1

  9
$DIMLUNIT
 70
     2
  9
$DIMLWD
 70
    -2
  9
$DIMLWE
 70
    -2
  9
$DIMTMOVE
 70
     0
  9
$LUNITS
 70
     2
  9
$LUPREC
 70
     4
  9
$SKETCHINC
 40
1.0
  9
$FILLETRAD
 40
0.0
  9
$AUNITS
 70
     0
  9
$AUPREC
 70
     0
  9
$MENU
  1
.
  9
$ELEVATION
 40
0.0
  9
$PELEVATION
 40
0.0
  9
$THICKNESS
 40
0.0
  9
$LIMCHECK
 70
     0
  9
$CHAMFERA
 40
0.0
  9
$CHAMFERB
 40
0.0
  9
$CHAMFERC
 40
0.0
  9
$CHAMFERD
 40
0.0
  9
$SKPOLY
 70
     0
  9
$TDCREATE
 40
2458932.586523206
  9
$TDUCREATE
 40
2458932.461523206
  9
$TDUPDATE
 40
2458956.440874410
  9
$TDUUPDATE
 40
2458956.315874410
  9
$TDINDWG
 40
0.0003886111
  9
$TDUSRTIMER
 40
0.0003886111
  9
$USRTIMER
 70
     1
  9
$ANGBASE
 50
0.0
  9
$ANGDIR
 70
     0
  9
$PDMODE
 70
     0
  9
$PDSIZE
 40
0.0
  9
$PLINEWID
 40
0.0
  9
$SPLFRAME
 70
     0
  9
$SPLINETYPE
 70
     6
  9
$SPLINESEGS
 70
     8
  9
$HANDSEED
  5
739
  9
$SURFTAB1
 70
     6
  9
$SURFTAB2
 70
     6
  9
$SURFTYPE
 70
     6
  9
$SURFU
 70
     6
  9
$SURFV
 70
     6
  9
$UCSBASE
  2

  9
$UCSNAME
  2

  9
$UCSORG
 10
0.0
 20
0.0
 30
0.0
  9
$UCSXDIR
 10
1.0
 20
0.0
 30
0.0
  9
$UCSYDIR
 10
0.0
 20
1.0
 30
0.0
  9
$UCSORTHOREF
  2

  9
$UCSORTHOVIEW
 70
     0
  9
$UCSORGTOP
 10
0.0
 20
0.0
 30
0.0
  9
$UCSORGBOTTOM
 10
0.0
 20
0.0
 30
0.0
  9
$UCSORGLEFT
 10
0.0
 20
0.0
 30
0.0
  9
$UCSORGRIGHT
 10
0.0
 20
0.0
 30
0.0
  9
$UCSORGFRONT
 10
0.0
 20
0.0
 30
0.0
  9
$UCSORGBACK
 10
0.0
 20
0.0
 30
0.0
  9
$PUCSBASE
  2

  9
$PUCSNAME
  2

  9
$PUCSORG
 10
0.0
 20
0.0
 30
0.0
  9
$PUCSXDIR
 10
1.0
 20
0.0
 30
0.0
  9
$PUCSYDIR
 10
0.0
 20
1.0
 30
0.0
  9
$PUCSORTHOREF
  2

  9
$PUCSORTHOVIEW
 70
     0
  9
$PUCSORGTOP
 10
0.0
 20
0.0
 30
0.0
  9
$PUCSORGBOTTOM
 10
0.0
 20
0.0
 30
0.0
  9
$PUCSORGLEFT
 10
0.0
 20
0.0
 30
0.0
  9
$PUCSORGRIGHT
 10
0.0
 20
0.0
 30
0.0
  9
$PUCSORGFRONT
 10
0.0
 20
0.0
 30
0.0
  9
$PUCSORGBACK
 10
0.0
 20
0.0
 30
0.0
  9
$USERI1
 70
     0
  9
$USERI2
 70
     0
  9
$USERI3
 70
     0
  9
$USERI4
 70
     0
  9
$USERI5
 70
     0
  9
$USERR1
 40
0.0
  9
$USERR2
 40
0.0
  9
$USERR3
 40
0.0
  9
$USERR4
 40
0.0
  9
$USERR5
 40
0.0
  9
$WORLDVIEW
 70
     1
  9
$SHADEDGE
 70
     3
  9
$SHADEDIF
 70
    70
  9
$TILEMODE
 70
     1
  9
$MAXACTVP
 70
    64
  9
$PINSBASE
 10
0.0
 20
0.0
 30
0.0
  9
$PLIMCHECK
 70
     0
  9
$PEXTMIN
 10
0.0
 20
0.0
 30
0.0
  9
$PEXTMAX
 10
0.0
 20
0.0
 30
0.0
  9
$PLIMMIN
 10
0.0
 20
0.0
  9
$PLIMMAX
 10
12.0
 20
9.0
  9
$UNITMODE
 70
     0
  9
$VISRETAIN
 70
     1
  9
$PLINEGEN
 70
     0
  9
$PSLTSCALE
 70
     1
  9
$TREEDEPTH
 70
  3020
  9
$CMLSTYLE
  2
Standard
  9
$CMLJUST
 70
     0
  9
$CMLSCALE
 40
20.0
  9
$PROXYGRAPHICS
 70
     1
  9
$MEASUREMENT
 70
     1
  9
$CELWEIGHT
370
    -1
  9
$ENDCAPS
280
     0
  9
$JOINSTYLE
280
     0
  9
$LWDISPLAY
290
     0
  9
$INSUNITS
 70
     4
  9
$HYPERLINKBASE
  1

  9
$STYLESHEET
  1

  9
$XEDIT
290
     1
  9
$CEPSNTYPE
380
     0
  9
$PSTYLEMODE
290
     1
  9
$FINGERPRINTGUID
  2
{485B6F56-23E8-4AC6-AFC7-DC601ABE9805}
  9
$VERSIONGUID
  2
{CE06CDB9-3969-4680-B59B-9E97DB23B683}
  9
$EXTNAMES
290
     1
  9
$PSVPSCALE
 40
0.0
  9
$OLESTARTUP
290
     0
  0
ENDSEC
  0
SECTION
  2
CLASSES
  0
CLASS
  1
ACDBDICTIONARYWDFLT
  2
AcDbDictionaryWithDefault
  3
ObjectDBX Classes
 90
        0
280
     0
281
     0
  0
CLASS
  1
ACDBPLACEHOLDER
  2
AcDbPlaceHolder
  3
ObjectDBX Classes
 90
        0
280
     0
281
     0
  0
CLASS
  1
LAYOUT
  2
AcDbLayout
  3
ObjectDBX Classes
 90
        0
280
     0
281
     0
  0
CLASS
  1
DICTIONARYVAR
  2
AcDbDictionaryVar
  3
ObjectDBX Classes
 90
        0
280
     0
281
     0
  0
CLASS
  1
TABLESTYLE
  2
AcDbTableStyle
  3
ObjectDBX Classes
 90
     4095
280
     0
281
     0
  0
CLASS
  1
MATERIAL
  2
AcDbMaterial
  3
ObjectDBX Classes
 90
     1153
280
     0
281
     0
  0
CLASS
  1
VISUALSTYLE
  2
AcDbVisualStyle
  3
ObjectDBX Classes
 90
     4095
280
     0
281
     0
  0
CLASS
  1
SCALE
  2
AcDbScale
  3
ObjectDBX Classes
 90
     1153
280
     0
281
     0
  0
CLASS
  1
MLEADERSTYLE
  2
AcDbMLeaderStyle
  3
ACDB_MLEADERSTYLE_CLASS
 90
     4095
280
     0
281
     0
  0
CLASS
  1
CELLSTYLEMAP
  2
AcDbCellStyleMap
  3
ObjectDBX Classes
 90
     1152
280
     0
281
     0
  0
ENDSEC
  0
SECTION
  2
TABLES
  0
TABLE
  2
VPORT
  5
8
330
0
100
AcDbSymbolTable
 70
     1
  0
VPORT
  5
EA
330
8
100
AcDbSymbolTableRecord
100
AcDbViewportTableRecord
  2
*Active
 70
     0
 10
0.0
 20
0.0
 11
1.0
 21
1.0
 12
2307.947053601223
 22
799.5191988230206
 13
0.0
 23
0.0
 14
10.0
 24
10.0
 15
10.0
 25
10.0
 16
0.0
 26
0.0
 36
1.0
 17
0.0
 27
0.0
 37
0.0
 40
54.40855150586984
 41
1.903110047846889
 42
50.0
 43
0.0
 44
0.0
 50
0.0
 51
0.0
 71
     0
 72
  1000
 73
     1
 74
     3
 75
     0
 76
     0
 77
     0
 78
     0
281
     0
 65
     1
110
0.0
120
0.0
130
0.0
111
1.0
121
0.0
131
0.0
112
0.0
122
1.0
132
0.0
 79
     0
146
0.0
  0
ENDTAB
  0
TABLE
  2
LTYPE
  5
5
330
0
100
AcDbSymbolTable
 70
     1
  0
LTYPE
  5
14
330
5
100
AcDbSymbolTableRecord
100
AcDbLinetypeTableRecord
  2
ByBlock
 70
     0
  3

 72
    65
 73
     0
 40
0.0
  0
LTYPE
  5
15
330
5
100
AcDbSymbolTableRecord
100
AcDbLinetypeTableRecord
  2
ByLayer
 70
     0
  3

 72
    65
 73
     0
 40
0.0
  0
LTYPE
  5
16
330
5
100
AcDbSymbolTableRecord
100
AcDbLinetypeTableRecord
  2
Continuous
 70
     0
  3
Solid line
 72
    65
 73
     0
 40
0.0
  0
ENDTAB
  0
TABLE
  2
LAYER
  5
2
330
0
100
AcDbSymbolTable
 70
     1
  0
LAYER
  5
10
102
{ACAD_XDICTIONARY
360
13C
102
}
330
2
100
AcDbSymbolTableRecord
100
AcDbLayerTableRecord
  2
0
 70
     0
 62
     7
  6
Continuous
370
    -3
390
F
  0
ENDTAB
  0
TABLE
  2
STYLE
  5
3
330
0
100
AcDbSymbolTable
 70
     2
  0
STYLE
  5
11
330
3
100
AcDbSymbolTableRecord
100
AcDbTextStyleTableRecord
  2
Standard
 70
     0
 40
0.0
 41
1.0
 50
0.0
 71
     0
 42
2.5
  3
txt
  4

  0
STYLE
  5
132
330
3
100
AcDbSymbolTableRecord
100
AcDbTextStyleTableRecord
  2
Annotative
 70
     0
 40
0.0
 41
1.0
 50
0.0
 71
     0
 42
2.5
  3
txt.shx
  4

1001
AcadAnnotative
1000
AnnotativeData
1002
{
1070
     1
1070
     1
1002
}
  0
ENDTAB
  0
TABLE
  2
VIEW
  5
6
330
0
100
AcDbSymbolTable
 70
     0
  0
ENDTAB
  0
TABLE
  2
UCS
  5
7
330
0
100
AcDbSymbolTable
 70
     0
  0
ENDTAB
  0
TABLE
  2
APPID
  5
9
330
0
100
AcDbSymbolTable
 70
     7
  0
APPID
  5
12
330
9
100
AcDbSymbolTableRecord
100
AcDbRegAppTableRecord
  2
ACAD
 70
     0
  0
APPID
  5
9E
330
9
100
AcDbSymbolTableRecord
100
AcDbRegAppTableRecord
  2
ACAD_PSEXT
 70
     0
  0
APPID
  5
133
330
9
100
AcDbSymbolTableRecord
100
AcDbRegAppTableRecord
  2
AcadAnnoPO
 70
     0
  0
APPID
  5
134
330
9
100
AcDbSymbolTableRecord
100
AcDbRegAppTableRecord
  2
AcadAnnotative
 70
     0
  0
APPID
  5
135
330
9
100
AcDbSymbolTableRecord
100
AcDbRegAppTableRecord
  2
ACAD_DSTYLE_DIMJAG
 70
     0
  0
APPID
  5
136
330
9
100
AcDbSymbolTableRecord
100
AcDbRegAppTableRecord
  2
ACAD_DSTYLE_DIMTALN
 70
     0
  0
APPID
  5
165
330
9
100
AcDbSymbolTableRecord
100
AcDbRegAppTableRecord
  2
ACAD_MLEADERVER
 70
     0
  0
ENDTAB
  0
TABLE
  2
DIMSTYLE
  5
A
330
0
100
AcDbSymbolTable
 70
     2
100
AcDbDimStyleTable
 71
     2
340
27
340
137
  0
DIMSTYLE
105
27
330
A
100
AcDbSymbolTableRecord
100
AcDbDimStyleTableRecord
  2
ISO-25
 70
     0
 41
2.5
 42
0.625
 43
3.75
 44
1.25
 73
     0
 74
     0
 77
     1
 78
     8
140
2.5
141
2.5
143
0.03937007874016
147
0.625
171
     3
172
     1
271
     2
272
     2
274
     3
278
    44
283
     0
284
     8
340
11
  0
DIMSTYLE
105
137
330
A
100
AcDbSymbolTableRecord
100
AcDbDimStyleTableRecord
  2
Annotative
 70
     0
 40
0.0
 41
2.5
 42
0.625
 43
3.75
 44
1.25
 73
     0
 74
     0
 77
     1
 78
     8
140
2.5
141
2.5
143
0.03937007874016
147
0.625
171
     3
172
     1
271
     2
272
     2
274
     3
278
    44
283
     0
284
     8
340
11
1001
AcadAnnotative
1000
AnnotativeData
1002
{
1070
     1
1070
     1
1002
}
1001
ACAD_DSTYLE_DIMJAG
1070
   388
1040
1.5
1001
ACAD_DSTYLE_DIMTALN
1070
   392
1070
     0
  0
ENDTAB
  0
TABLE
  2
BLOCK_RECORD
  5
1
330
0
100
AcDbSymbolTable
 70
     5
  0
BLOCK_RECORD
  5
1F
330
1
100
AcDbSymbolTableRecord
100
AcDbBlockTableRecord
  2
*Model_Space
340
22
  0
BLOCK_RECORD
  5
D2
330
1
100
AcDbSymbolTableRecord
100
AcDbBlockTableRecord
  2
*Paper_Space
340
D3
  0
BLOCK_RECORD
  5
D6
330
1
100
AcDbSymbolTableRecord
100
AcDbBlockTableRecord
  2
*Paper_Space0
340
D7
  0
BLOCK_RECORD
  5
545
330
1
100
AcDbSymbolTableRecord
100
AcDbBlockTableRecord
  2
1
340
0
310
2800000020000000200000000100080000000000000400000000000000000000000000000000000000000000000080000080000000808000800000008000800080800000C0C0C000C0DCC000F0CAA6000020400000206000002080000020A0000020C0000020E00000400000004020000040400000406000004080000040A0
310
000040C0000040E00000600000006020000060400000606000006080000060A0000060C0000060E00000800000008020000080400000806000008080000080A0000080C0000080E00000A0000000A0200000A0400000A0600000A0800000A0A00000A0C00000A0E00000C0000000C0200000C0400000C0600000C0800000C0
310
A00000C0C00000C0E00000E0000000E0200000E0400000E0600000E0800000E0A00000E0C00000E0E00040000000400020004000400040006000400080004000A0004000C0004000E00040200000402020004020400040206000402080004020A0004020C0004020E000404000004040200040404000404060004040800040
310
40A0004040C0004040E00040600000406020004060400040606000406080004060A0004060C0004060E00040800000408020004080400040806000408080004080A0004080C0004080E00040A0000040A0200040A0400040A0600040A0800040A0A00040A0C00040A0E00040C0000040C0200040C0400040C0600040C08000
310
40C0A00040C0C00040C0E00040E0000040E0200040E0400040E0600040E0800040E0A00040E0C00040E0E00080000000800020008000400080006000800080008000A0008000C0008000E00080200000802020008020400080206000802080008020A0008020C0008020E00080400000804020008040400080406000804080
310
008040A0008040C0008040E00080600000806020008060400080606000806080008060A0008060C0008060E00080800000808020008080400080806000808080008080A0008080C0008080E00080A0000080A0200080A0400080A0600080A0800080A0A00080A0C00080A0E00080C0000080C0200080C0400080C0600080C0
310
800080C0A00080C0C00080C0E00080E0000080E0200080E0400080E0600080E0800080E0A00080E0C00080E0E000C0000000C0002000C0004000C0006000C0008000C000A000C000C000C000E000C0200000C0202000C0204000C0206000C0208000C020A000C020C000C020E000C0400000C0402000C0404000C0406000C0
310
408000C040A000C040C000C040E000C0600000C0602000C0604000C0606000C0608000C060A000C060C000C060E000C0800000C0802000C0804000C0806000C0808000C080A000C080C000C080E000C0A00000C0A02000C0A04000C0A06000C0A08000C0A0A000C0A0C000C0A0E000C0C00000C0C02000C0C04000C0C06000
310
C0C08000C0C0A000F0FBFF00A4A0A000808080000000FF0000FF000000FFFF00FF000000FF00FF00FFFF0000FFFFFF0000000000000000000000000000000000000000000000000000000000000000000000000000000000000000000000000000000000000000000000000000000000000000000000000000000000000000
310
0000000000000000000000000000000000000000FFFFFFFF00000000FFFFFF00000000FFFFFF00000000FFFFFF00000000000000FF0000FF00000000FF0000FF000000FF0000FF000000FF0000FF000000000000FF0000FF000000FF000000FF0000FF000000FF000000FF0000FF000000000000FF0000FF000000FF000000
310
FF0000FF000000FF000000FF0000FF000000000000FF0000FF000000FF000000FF0000FF000000FF000000FF0000FF000000000000FF0000FF000000FF000000FF0000FF000000FF000000FF0000FF000000000000FF0000FF000000FF000000FF0000FF000000FF000000FF0000FF000000000000FF0000FF000000FF0000
310
00FF0000FF000000FF000000FF0000FF000000000000FF0000FF000000FF000000FF0000FF000000FF000000FF0000FF000000000000FFFFFFFF000000FFFFFFFFFF0000FFFFFFFFFF000000FFFFFFFF000000000000FFFFFFFFFF0000FFFFFFFFFF0000FFFFFFFFFF0000FFFFFFFFFF000000000000FF000000FF0000FF00
310
0000FF0000FF000000FF0000FF000000FF0000000000FFFF000000FF00FFFF000000FF0000FF000000FFFF00FF000000FFFF00000000FF00000000FF00FF00000000FF0000FF00000000FF00FF00000000FF00000000FF00000000FF00FF00000000FF0000FF00000000FF00FF00000000FF00000000FFFFFFFFFFFF00FF00
310
FFFFFFFF0000FFFFFFFF00FF00FFFFFFFFFFFF00000000FFFF0000FFFF00FF00FF00FFFF0000FFFF00FF00FF00FFFF0000FFFF00000000FFFFFFFFFFFF00FF00FFFFFFFF0000FFFFFFFF00FF00FFFFFFFFFFFF00000000FF00000000FF00FF00000000FF0000FF00000000FF00FF00000000FF000000FFFF00000000FFFFFF
310
00000000FFFFFFFF00000000FFFFFF00000000FFFF0000FF00000000000000000000000000000000000000000000000000000000FF0000FF00000000000000000000000000000000000000000000000000000000FF0000FF00000000000000000000000000000000000000000000000000000000FF0000FF00000000000000
310
000000000000000000000000000000000000000000FF0000FFFFFFFFFFFFFFFFFFFFFFFFFFFFFFFFFFFFFFFFFFFFFFFFFFFFFFFFFFFF0000FFFFFFFFFFFFFFFFFFFFFFFFFFFFFFFFFFFFFFFFFFFFFFFFFFFFFFFFFFFF0000000000000000000000000000000000000000000000000000000000000000000000000000000000
310
0000000000000000000000000000000000000000000000000000000000000000000000000000000000000000000000000000000000000000
102
{BLKREFS
331
5E8
102
}
1001
ACAD
1000
DesignCenter Data
1002
{
1070
     1
1070
     4
1002
}
  0
BLOCK_RECORD
  5
5E9
330
1
100
AcDbSymbolTableRecord
100
AcDbBlockTableRecord
  2
2
340
0
310
2800000020000000200000000100080000000000000400000000000000000000000000000000000000000000000080000080000000808000800000008000800080800000C0C0C000C0DCC000F0CAA6000020400000206000002080000020A0000020C0000020E00000400000004020000040400000406000004080000040A0
310
000040C0000040E00000600000006020000060400000606000006080000060A0000060C0000060E00000800000008020000080400000806000008080000080A0000080C0000080E00000A0000000A0200000A0400000A0600000A0800000A0A00000A0C00000A0E00000C0000000C0200000C0400000C0600000C0800000C0
310
A00000C0C00000C0E00000E0000000E0200000E0400000E0600000E0800000E0A00000E0C00000E0E00040000000400020004000400040006000400080004000A0004000C0004000E00040200000402020004020400040206000402080004020A0004020C0004020E000404000004040200040404000404060004040800040
310
40A0004040C0004040E00040600000406020004060400040606000406080004060A0004060C0004060E00040800000408020004080400040806000408080004080A0004080C0004080E00040A0000040A0200040A0400040A0600040A0800040A0A00040A0C00040A0E00040C0000040C0200040C0400040C0600040C08000
310
40C0A00040C0C00040C0E00040E0000040E0200040E0400040E0600040E0800040E0A00040E0C00040E0E00080000000800020008000400080006000800080008000A0008000C0008000E00080200000802020008020400080206000802080008020A0008020C0008020E00080400000804020008040400080406000804080
310
008040A0008040C0008040E00080600000806020008060400080606000806080008060A0008060C0008060E00080800000808020008080400080806000808080008080A0008080C0008080E00080A0000080A0200080A0400080A0600080A0800080A0A00080A0C00080A0E00080C0000080C0200080C0400080C0600080C0
310
800080C0A00080C0C00080C0E00080E0000080E0200080E0400080E0600080E0800080E0A00080E0C00080E0E000C0000000C0002000C0004000C0006000C0008000C000A000C000C000C000E000C0200000C0202000C0204000C0206000C0208000C020A000C020C000C020E000C0400000C0402000C0404000C0406000C0
310
408000C040A000C040C000C040E000C0600000C0602000C0604000C0606000C0608000C060A000C060C000C060E000C0800000C0802000C0804000C0806000C0808000C080A000C080C000C080E000C0A00000C0A02000C0A04000C0A06000C0A08000C0A0A000C0A0C000C0A0E000C0C00000C0C02000C0C04000C0C06000
310
C0C08000C0C0A000F0FBFF00A4A0A000808080000000FF0000FF000000FFFF00FF000000FF00FF00FFFF0000FFFFFF0000000000000000000000000000000000000000000000000000000000000000000000000000000000000000000000FFFFFFFF00000000000000000000000000000000000000000000000000000000FF
310
FFFFFF00000000000000000000000000000000000000000000000000000000FF0000FF00000000000000000000000000000000000000000000000000000000FFFFFFFF00000000000000000000000000000000000000000000000000000000FF0000FF00000000000000000000000000000000000000000000000000000000
310
FF0000FF00000000000000000000000000000000000000000000000000000000FF0000FF00000000000000000000000000000000000000000000000000000000FF0000FF00000000000000000000000000000000000000000000000000000000FF0000FF000000000000000000000000000000000000000000000000000000
310
00FF0000FF00000000000000000000000000000000000000000000000000000000FFFFFFFF0000000000000000000000000000000000000000000000000000000000FFFF0000000000000000000000000000000000000000000000000000000000FFFFFFFF0000000000000000000000000000000000000000000000000000
310
0000FFFFFFFF00000000000000000000000000000000000000000000000000000000FFFFFFFF00000000000000000000000000000000000000000000000000000000FF0000FF00000000000000000000000000000000000000000000000000000000FF0000FF00000000000000000000000000000000000000000000000000
310
000000FF0000FF00000000000000000000000000000000000000000000000000000000FF0000FF00000000000000000000000000000000000000000000000000000000FF0000FF00000000000000000000000000000000000000000000000000000000FF0000FF000000000000000000000000000000000000000000000000
310
00000000FF0000FF00000000000000000000000000000000000000000000000000000000FFFFFFFF00000000000000000000000000000000000000000000000000000000FF0000FF00000000000000000000000000000000000000000000000000000000FF0000FF0000000000000000000000000000000000000000000000
310
0000000000FF0000FF00000000000000000000000000000000000000000000000000000000FF0000FF000000000000000000000000000000000000000000000000000000FFFF0000FFFF0000000000000000000000000000000000000000000000000000FF00000000FF000000000000000000000000000000000000000000
310
0000000000FFFFFFFFFFFF000000000000000000000000000000000000000000000000000000000000000000000000000000000000000000
102
{BLKREFS
331
617
102
}
1001
ACAD
1000
DesignCenter Data
1002
{
1070
     1
1070
     4
1002
}
  0
BLOCK_RECORD
  5
618
330
1
100
AcDbSymbolTableRecord
100
AcDbBlockTableRecord
  2
3
340
0
310
2800000020000000200000000100080000000000000400000000000000000000000000000000000000000000000080000080000000808000800000008000800080800000C0C0C000C0DCC000F0CAA6000020400000206000002080000020A0000020C0000020E00000400000004020000040400000406000004080000040A0
310
000040C0000040E00000600000006020000060400000606000006080000060A0000060C0000060E00000800000008020000080400000806000008080000080A0000080C0000080E00000A0000000A0200000A0400000A0600000A0800000A0A00000A0C00000A0E00000C0000000C0200000C0400000C0600000C0800000C0
310
A00000C0C00000C0E00000E0000000E0200000E0400000E0600000E0800000E0A00000E0C00000E0E00040000000400020004000400040006000400080004000A0004000C0004000E00040200000402020004020400040206000402080004020A0004020C0004020E000404000004040200040404000404060004040800040
310
40A0004040C0004040E00040600000406020004060400040606000406080004060A0004060C0004060E00040800000408020004080400040806000408080004080A0004080C0004080E00040A0000040A0200040A0400040A0600040A0800040A0A00040A0C00040A0E00040C0000040C0200040C0400040C0600040C08000
310
40C0A00040C0C00040C0E00040E0000040E0200040E0400040E0600040E0800040E0A00040E0C00040E0E00080000000800020008000400080006000800080008000A0008000C0008000E00080200000802020008020400080206000802080008020A0008020C0008020E00080400000804020008040400080406000804080
310
008040A0008040C0008040E00080600000806020008060400080606000806080008060A0008060C0008060E00080800000808020008080400080806000808080008080A0008080C0008080E00080A0000080A0200080A0400080A0600080A0800080A0A00080A0C00080A0E00080C0000080C0200080C0400080C0600080C0
310
800080C0A00080C0C00080C0E00080E0000080E0200080E0400080E0600080E0800080E0A00080E0C00080E0E000C0000000C0002000C0004000C0006000C0008000C000A000C000C000C000E000C0200000C0202000C0204000C0206000C0208000C020A000C020C000C020E000C0400000C0402000C0404000C0406000C0
310
408000C040A000C040C000C040E000C0600000C0602000C0604000C0606000C0608000C060A000C060C000C060E000C0800000C0802000C0804000C0806000C0808000C080A000C080C000C080E000C0A00000C0A02000C0A04000C0A06000C0A08000C0A0A000C0A0C000C0A0E000C0C00000C0C02000C0C04000C0C06000
310
C0C08000C0C0A000F0FBFF00A4A0A000808080000000FF0000FF000000FFFF00FF000000FF00FF00FFFF0000FFFFFF0000000000000000000000000000000000000000000000000000000000000000000000000000000000000000000000000000000000000000000000000000000000000000000000000000000000000000
310
00000000000000000000000000000000000000000000000000000000000000000000000000000000000000000000000000000000000000000000000000000000000000000000000000000000000000000000000000000000000000000000000000000000000000000000000000000000000000000000000000000000000000
310
00000000000000000000000000000000000000000000000000000000000000000000000000000000000000000000000000000000000000000000000000000000000000000000000000000000000000000000000000000000000000000000000000000000000000000000000000000000000000000000000000000000000000
310
000000000000000000000000000000000000000000000000000000000000000000000000000000000000000000000000000000000000000000000000000000000000000000000000000000000000000000000000FFFFFFFFFFFFFFFFFFFFFFFFFFFFFFFFFFFFFFFFFFFFFFFFFFFFFFFFFFFF0000FF00000000000000000000
310
000000000000000000000000000000000000FF0000FF00000000000000000000000000000000000000000000000000000000FF0000FF00000000000000000000000000000000000000000000000000000000FF0000FF00000000000000000000000000000000000000000000000000000000FF0000FFFFFFFFFFFFFFFFFFFF
310
FFFFFFFFFFFFFFFFFFFFFFFFFFFFFFFFFFFFFFFF0000000000000000000000000000000000000000000000000000000000000000000000000000000000000000000000000000000000000000000000000000000000000000000000000000000000000000000000000000000000000000000000000000000000000000000000
310
00000000000000000000000000000000000000000000000000000000000000000000000000000000000000000000000000000000000000000000000000000000000000000000000000000000000000000000000000000000000000000000000000000000000000000000000000000000000000000000000000000000000000
310
00000000000000000000000000000000000000000000000000000000000000000000000000000000000000000000000000000000000000000000000000000000000000000000000000000000000000000000000000000000000000000000000000000000000000000000000000000000000000000000000000000000000000
310
0000000000000000000000000000000000000000000000000000000000000000000000000000000000000000000000000000000000000000
102
{BLKREFS
331
61F
102
}
1001
ACAD
1000
DesignCenter Data
1002
{
1070
     1
1070
     4
1002
}
  0
BLOCK_RECORD
  5
620
330
1
100
AcDbSymbolTableRecord
100
AcDbBlockTableRecord
  2
4
340
0
310
2800000020000000200000000100080000000000000400000000000000000000000000000000000000000000000080000080000000808000800000008000800080800000C0C0C000C0DCC000F0CAA6000020400000206000002080000020A0000020C0000020E00000400000004020000040400000406000004080000040A0
310
000040C0000040E00000600000006020000060400000606000006080000060A0000060C0000060E00000800000008020000080400000806000008080000080A0000080C0000080E00000A0000000A0200000A0400000A0600000A0800000A0A00000A0C00000A0E00000C0000000C0200000C0400000C0600000C0800000C0
310
A00000C0C00000C0E00000E0000000E0200000E0400000E0600000E0800000E0A00000E0C00000E0E00040000000400020004000400040006000400080004000A0004000C0004000E00040200000402020004020400040206000402080004020A0004020C0004020E000404000004040200040404000404060004040800040
310
40A0004040C0004040E00040600000406020004060400040606000406080004060A0004060C0004060E00040800000408020004080400040806000408080004080A0004080C0004080E00040A0000040A0200040A0400040A0600040A0800040A0A00040A0C00040A0E00040C0000040C0200040C0400040C0600040C08000
310
40C0A00040C0C00040C0E00040E0000040E0200040E0400040E0600040E0800040E0A00040E0C00040E0E00080000000800020008000400080006000800080008000A0008000C0008000E00080200000802020008020400080206000802080008020A0008020C0008020E00080400000804020008040400080406000804080
310
008040A0008040C0008040E00080600000806020008060400080606000806080008060A0008060C0008060E00080800000808020008080400080806000808080008080A0008080C0008080E00080A0000080A0200080A0400080A0600080A0800080A0A00080A0C00080A0E00080C0000080C0200080C0400080C0600080C0
310
800080C0A00080C0C00080C0E00080E0000080E0200080E0400080E0600080E0800080E0A00080E0C00080E0E000C0000000C0002000C0004000C0006000C0008000C000A000C000C000C000E000C0200000C0202000C0204000C0206000C0208000C020A000C020C000C020E000C0400000C0402000C0404000C0406000C0
310
408000C040A000C040C000C040E000C0600000C0602000C0604000C0606000C0608000C060A000C060C000C060E000C0800000C0802000C0804000C0806000C0808000C080A000C080C000C080E000C0A00000C0A02000C0A04000C0A06000C0A08000C0A0A000C0A0C000C0A0E000C0C00000C0C02000C0C04000C0C06000
310
C0C08000C0C0A000F0FBFF00A4A0A000808080000000FF0000FF000000FFFF00FF000000FF00FF00FFFF0000FFFFFF000000000000000000000000000000000000000000000000000000000000000000000000000000000000FF0000000000000000000000000000000000000000000000000000000000FFFFFFFFFF000000
310
000000000000000000000000000000000000000000000000FFFFFF00FF000000000000000000000000000000000000000000000000000000FFFFFF00FF00FFFF000000000000000000000000000000000000000000000000FF00FF00FFFFFF00FF0000000000000000000000000000000000000000000000FF00FF00FFFFFF
310
00FF0000FF0000000000000000000000000000000000000000FF00FF00FF00FF00FFFFFFFFFF00000000000000000000000000000000000000FFFFFFFFFF00FF00FFFFFFFF00FF000000000000000000000000000000000000FFFFFFFFFF00FF00FFFFFFFF00FF00FF00000000000000000000000000000000FFFF0000FF00
310
FF00FFFF00FF00FFFFFFFFFF0000000000000000000000000000FFFF0000FFFFFFFFFFFF00FF00FFFFFF00FF0000000000000000000000000000FFFFFF00FFFFFFFFFFFF00FF00FF00FF00FF0000000000000000000000000000FFFFFFFFFFFFFF00FFFFFF00FFFF00FF00FF0000000000000000000000000000FFFF00FFFF
310
00FF0000FFFFFFFFFF00FF00FF00000000000000000000000000FFFFFF0000FF00FF0000FFFF00FFFF00FF00FF00000000000000000000000000FF00FF0000FF00FFFFFFFFFF0000FFFFFFFFFF00000000000000000000000000FF00FF000000FFFFFFFFFFFFFF00FFFFFFFFFF00000000000000000000000000FF00FFFFFF
310
0000000000FFFFFFFFFFFF0000FF00000000000000000000000000FFFF00FFFFFFFF000000FFFF00FFFFFF0000FF00000000000000000000000000FF00000000FFFFFF000000000000FFFFFF00FF0000000000000000000000000000FFFF00000000FFFFFF00000000FFFFFFFFFF00000000000000000000000000000000FF
310
FF000000FFFFFFFF000000FF00FFFF000000000000000000000000000000000000FF00000000FFFFFFFF00000000FF00000000000000000000000000000000000000FFFF00000000FFFFFF000000FFFF0000000000000000000000000000000000000000FFFF00000000FFFFFF0000FF000000000000000000000000000000
310
00000000000000FFFF000000FFFFFFFFFF000000000000000000000000000000000000000000000000FF00000000FFFFFF00000000000000000000000000000000000000000000000000FFFF00000000FF000000000000000000000000000000000000000000000000000000FFFF00FF000000000000000000000000000000
310
000000000000000000000000000000FF00000000000000000000000000000000000000000000000000000000000000000000000000000000
102
{BLKREFS
331
71E
102
}
1001
ACAD
1000
DesignCenter Data
1002
{
1070
     1
1070
     4
1002
}
  0
ENDTAB
  0
ENDSEC
  0
SECTION
  2
BLOCKS
  0
BLOCK
  5
20
330
1F
100
AcDbEntity
  8
0
100
AcDbBlockBegin
  2
*Model_Space
 70
     0
 10
0.0
 20
0.0
 30
0.0
  3
*Model_Space
  1

  0
ENDBLK
  5
21
330
1F
100
AcDbEntity
  8
0
100
AcDbBlockEnd
  0
BLOCK
  5
D4
330
D2
100
AcDbEntity
 67
     1
  8
0
100
AcDbBlockBegin
  2
*Paper_Space
 70
     0
 10
0.0
 20
0.0
 30
0.0
  3
*Paper_Space
  1

  0
ENDBLK
  5
D5
330
D2
100
AcDbEntity
 67
     1
  8
0
100
AcDbBlockEnd
  0
BLOCK
  5
D8
330
D6
100
AcDbEntity
 67
     1
  8
0
100
AcDbBlockBegin
  2
*Paper_Space0
 70
     0
 10
0.0
 20
0.0
 30
0.0
  3
*Paper_Space0
  1

  0
ENDBLK
  5
D9
330
D6
100
AcDbEntity
 67
     1
  8
0
100
AcDbBlockEnd
  0
BLOCK
  5
546
330
545
100
AcDbEntity
  8
0
100
AcDbBlockBegin
  2
1
 70
     0
 10
0.0
 20
0.0
 30
0.0
  3
1
  1

  0
LINE
  5
548
330
545
100
AcDbEntity
  8
0
  6
Continuous
 62
     7
370
    15
100
AcDbLine
 10
2283.32246455724
 20
814.0711809566134
 30
0.0
 11
2283.32246455724
 21
812.7711809566694
 31
0.0
  0
LINE
  5
549
330
545
100
AcDbEntity
  8
0
  6
Continuous
 62
     7
370
    15
100
AcDbLine
 10
2309.622464557186
 20
814.0711809566093
 30
0.0
 11
2283.32246455724
 21
814.0711809566134
 31
0.0
  0
LINE
  5
54A
330
545
100
AcDbEntity
  8
0
  6
Continuous
 62
     7
370
    15
100
AcDbLine
 10
2283.32246455724
 20
812.7711809566694
 30
0.0
 11
2309.622464557186
 21
812.7711809566669
 31
0.0
  0
LINE
  5
54B
330
545
100
AcDbEntity
  8
0
  6
Continuous
 62
     7
370
    15
100
AcDbLine
 10
2309.622464557186
 20
812.7711809566669
 30
0.0
 11
2309.622464557186
 21
814.0711809566093
 31
0.0
  0
LINE
  5
54C
330
545
100
AcDbEntity
  8
0
  6
Continuous
 62
     7
370
    15
100
AcDbLine
 10
2283.32246455724
 20
814.0712207888082
 30
0.0
 11
2309.622464557186
 21
814.0712207888052
 31
0.0
  0
LINE
  5
54D
330
545
100
AcDbEntity
  8
0
  6
Continuous
 62
     7
370
    15
100
AcDbLine
 10
2283.32246455724
 20
814.0712207888082
 30
0.0
 11
2283.32246455724
 21
814.0711809566134
 31
0.0
  0
LINE
  5
54E
330
545
100
AcDbEntity
  8
0
  6
Continuous
 62
     7
370
    15
100
AcDbLine
 10
2294.372464557243
 20
806.1211809566136
 30
0.0
 11
2291.872464557243
 21
806.1211809566136
 31
0.0
  0
LINE
  5
54F
330
545
100
AcDbEntity
  8
0
  6
Continuous
 62
     7
370
    15
100
AcDbLine
 10
2294.372464557243
 20
804.8211809566724
 30
0.0
 11
2294.372464557243
 21
806.1211809566136
 31
0.0
  0
LINE
  5
550
330
545
100
AcDbEntity
  8
0
  6
Continuous
 62
     7
370
    15
100
AcDbLine
 10
2294.372464557243
 20
804.8211809566724
 30
0.0
 11
2291.872464557243
 21
804.8211809566724
 31
0.0
  0
LINE
  5
551
330
545
100
AcDbEntity
  8
0
  6
Continuous
 62
     7
370
    15
100
AcDbLine
 10
2291.872464557243
 20
804.8211809566724
 30
0.0
 11
2291.872464557243
 21
806.1211809566136
 31
0.0
  0
LINE
  5
552
330
545
100
AcDbEntity
  8
0
  6
Continuous
 62
     7
370
    15
100
AcDbLine
 10
2287.672464557243
 20
804.8211809566724
 30
0.0
 11
2285.172464557243
 21
804.8211809566724
 31
0.0
  0
LINE
  5
553
330
545
100
AcDbEntity
  8
0
  6
Continuous
 62
     7
370
    15
100
AcDbLine
 10
2285.172464557243
 20
804.8211809566724
 30
0.0
 11
2285.172464557243
 21
806.1211809566136
 31
0.0
  0
LINE
  5
554
330
545
100
AcDbEntity
  8
0
  6
Continuous
 62
     7
370
    15
100
AcDbLine
 10
2287.672464557243
 20
804.8211809566724
 30
0.0
 11
2287.672464557243
 21
806.1211809566136
 31
0.0
  0
LINE
  5
555
330
545
100
AcDbEntity
  8
0
  6
Continuous
 62
     7
370
    15
100
AcDbLine
 10
2287.672464557243
 20
806.1211809566136
 30
0.0
 11
2285.172464557243
 21
806.1211809566136
 31
0.0
  0
LINE
  5
556
330
545
100
AcDbEntity
  8
0
  6
Continuous
 62
     7
370
    15
100
AcDbLine
 10
2307.772464557244
 20
806.1211809566094
 30
0.0
 11
2305.272464557244
 21
806.1211809566094
 31
0.0
  0
LINE
  5
557
330
545
100
AcDbEntity
  8
0
  6
Continuous
 62
     7
370
    15
100
AcDbLine
 10
2307.772464557244
 20
804.8211809566682
 30
0.0
 11
2305.272464557244
 21
804.8211809566682
 31
0.0
  0
LINE
  5
558
330
545
100
AcDbEntity
  8
0
  6
Continuous
 62
     7
370
    15
100
AcDbLine
 10
2305.272464557244
 20
804.8211809566682
 30
0.0
 11
2305.272464557244
 21
806.1211809566094
 31
0.0
  0
LINE
  5
559
330
545
100
AcDbEntity
  8
0
  6
Continuous
 62
     7
370
    15
100
AcDbLine
 10
2307.772464557244
 20
804.8211809566682
 30
0.0
 11
2307.772464557244
 21
806.1211809566094
 31
0.0
  0
LINE
  5
55A
330
545
100
AcDbEntity
  8
0
  6
Continuous
 62
     7
370
    15
100
AcDbLine
 10
2301.072464557243
 20
804.8211809566701
 30
0.0
 11
2298.572464557243
 21
804.8211809566701
 31
0.0
  0
LINE
  5
55B
330
545
100
AcDbEntity
  8
0
  6
Continuous
 62
     7
370
    15
100
AcDbLine
 10
2298.572464557243
 20
804.8211809566701
 30
0.0
 11
2298.572464557243
 21
806.1211809566115
 31
0.0
  0
LINE
  5
55C
330
545
100
AcDbEntity
  8
0
  6
Continuous
 62
     7
370
    15
100
AcDbLine
 10
2301.072464557243
 20
804.8211809566701
 30
0.0
 11
2301.072464557243
 21
806.1211809566115
 31
0.0
  0
LINE
  5
55D
330
545
100
AcDbEntity
  8
0
  6
Continuous
 62
     7
370
    15
100
AcDbLine
 10
2301.072464557243
 20
806.1211809566115
 30
0.0
 11
2298.572464557243
 21
806.1211809566115
 31
0.0
  0
LINE
  5
55E
330
545
100
AcDbEntity
  8
0
  6
Continuous
 62
     7
370
    15
100
AcDbLine
 10
2291.622464557103
 20
798.4344633790169
 30
0.0
 11
2294.622464557091
 21
798.4344633790169
 31
0.0
  0
LINE
  5
55F
330
545
100
AcDbEntity
  8
0
  6
Continuous
 62
     7
370
    15
100
AcDbLine
 10
2291.622464557103
 20
798.4344633790169
 30
0.0
 11
2291.622464557103
 21
798.634464327398
 31
0.0
  0
LINE
  5
560
330
545
100
AcDbEntity
  8
0
  6
Continuous
 62
     7
370
    15
100
AcDbLine
 10
2294.62246455709
 20
798.6344647913202
 30
0.0
 11
2291.622464557103
 21
798.634464327398
 31
0.0
  0
LINE
  5
561
330
545
100
AcDbEntity
  8
0
  6
Continuous
 62
     7
370
    15
100
AcDbLine
 10
2294.62246455709
 20
798.6344647913202
 30
0.0
 11
2294.622464557091
 21
798.4344633790169
 31
0.0
  0
LINE
  5
562
330
545
100
AcDbEntity
  8
0
  6
Continuous
 62
     7
370
    15
100
AcDbLine
 10
2284.922464557103
 20
798.4344633790169
 30
0.0
 11
2287.92246455709
 21
798.4344633790169
 31
0.0
  0
LINE
  5
563
330
545
100
AcDbEntity
  8
0
  6
Continuous
 62
     7
370
    15
100
AcDbLine
 10
2287.92246455709
 20
798.6344647913202
 30
0.0
 11
2284.922464557103
 21
798.634464327398
 31
0.0
  0
LINE
  5
564
330
545
100
AcDbEntity
  8
0
  6
Continuous
 62
     7
370
    15
100
AcDbLine
 10
2287.92246455709
 20
798.6344647913202
 30
0.0
 11
2287.92246455709
 21
798.4344633790169
 31
0.0
  0
LINE
  5
565
330
545
100
AcDbEntity
  8
0
  6
Continuous
 62
     7
370
    15
100
AcDbLine
 10
2284.922464557103
 20
798.4344633790169
 30
0.0
 11
2284.922464557103
 21
798.634464327398
 31
0.0
  0
LINE
  5
566
330
545
100
AcDbEntity
  8
0
  6
Continuous
 62
     7
370
    15
100
AcDbLine
 10
2298.322464557103
 20
798.4344633790146
 30
0.0
 11
2301.322464557091
 21
798.4344633790146
 31
0.0
  0
LINE
  5
567
330
545
100
AcDbEntity
  8
0
  6
Continuous
 62
     7
370
    15
100
AcDbLine
 10
2301.32246455709
 20
798.6344647913181
 30
0.0
 11
2298.322464557103
 21
798.6344643273958
 31
0.0
  0
LINE
  5
568
330
545
100
AcDbEntity
  8
0
  6
Continuous
 62
     7
370
    15
100
AcDbLine
 10
2301.32246455709
 20
798.6344647913181
 30
0.0
 11
2301.322464557091
 21
798.4344633790146
 31
0.0
  0
LINE
  5
569
330
545
100
AcDbEntity
  8
0
  6
Continuous
 62
     7
370
    15
100
AcDbLine
 10
2298.322464557103
 20
798.4344633790146
 30
0.0
 11
2298.322464557103
 21
798.6344643273958
 31
0.0
  0
LINE
  5
56A
330
545
100
AcDbEntity
  8
0
  6
Continuous
 62
     7
370
    15
100
AcDbLine
 10
2305.022464557103
 20
798.4344633790128
 30
0.0
 11
2308.022464557091
 21
798.4344633790128
 31
0.0
  0
LINE
  5
56B
330
545
100
AcDbEntity
  8
0
  6
Continuous
 62
     7
370
    15
100
AcDbLine
 10
2308.02246455709
 20
798.6344647913161
 30
0.0
 11
2305.022464557103
 21
798.6344643273938
 31
0.0
  0
LINE
  5
56C
330
545
100
AcDbEntity
  8
0
  6
Continuous
 62
     7
370
    15
100
AcDbLine
 10
2308.02246455709
 20
798.6344647913161
 30
0.0
 11
2308.022464557091
 21
798.4344633790128
 31
0.0
  0
LINE
  5
56D
330
545
100
AcDbEntity
  8
0
  6
Continuous
 62
     7
370
    15
100
AcDbLine
 10
2305.022464557103
 20
798.4344633790128
 30
0.0
 11
2305.022464557103
 21
798.6344643273938
 31
0.0
  0
LINE
  5
56E
330
545
100
AcDbEntity
  8
0
  6
Continuous
 62
     7
370
    15
100
AcDbLine
 10
2294.214332336093
 20
790.358353539128
 30
0.0
 11
2294.62246455709
 21
792.6729840130036
 31
0.0
  0
ARC
  5
56F
330
545
100
AcDbEntity
  8
0
  6
Continuous
 62
     7
370
    15
100
AcDbCircle
 10
2293.869649622538
 20
790.4191304013092
 30
0.0
 40
0.3500000000004862
100
AcDbArc
 50
270.0
 51
349.999999999921
  0
LINE
  5
570
330
545
100
AcDbEntity
  8
0
  6
Continuous
 62
     7
370
    15
100
AcDbLine
 10
2292.254786570603
 20
790.0691304013242
 30
0.0
 11
2293.869649622538
 21
790.0691304013244
 31
0.0
  0
ARC
  5
571
330
545
100
AcDbEntity
  8
0
  6
Continuous
 62
     7
370
    15
100
AcDbCircle
 10
2292.254786570603
 20
790.4191304013092
 30
0.0
 40
0.3500000000007136
100
AcDbArc
 50
190.0000000001174
 51
270.0
  0
LINE
  5
572
330
545
100
AcDbEntity
  8
0
  6
Continuous
 62
     7
370
    15
100
AcDbLine
 10
2291.622464557105
 20
791.9896370714496
 30
0.0
 11
2291.91010385705
 21
790.3583535391277
 31
0.0
  0
LINE
  5
573
330
545
100
AcDbEntity
  8
0
  6
Continuous
 62
     7
370
    15
100
AcDbLine
 10
2291.622464557103
 20
798.4344633790169
 30
0.0
 11
2291.622464557105
 21
791.9896370714496
 31
0.0
  0
LINE
  5
574
330
545
100
AcDbEntity
  8
0
  6
Continuous
 62
     7
370
    15
100
AcDbLine
 10
2294.62246455709
 20
792.6729840130036
 30
0.0
 11
2294.622464557091
 21
798.4344633790169
 31
0.0
  0
LINE
  5
575
330
545
100
AcDbEntity
  8
0
  6
Continuous
 62
     7
370
    15
100
AcDbLine
 10
2307.614332336092
 20
790.3583535391237
 30
0.0
 11
2308.02246455709
 21
792.6729840129994
 31
0.0
  0
ARC
  5
576
330
545
100
AcDbEntity
  8
0
  6
Continuous
 62
     7
370
    15
100
AcDbCircle
 10
2307.269649622538
 20
790.419130401305
 30
0.0
 40
0.3500000000004862
100
AcDbArc
 50
270.0
 51
349.999999999921
  0
LINE
  5
577
330
545
100
AcDbEntity
  8
0
  6
Continuous
 62
     7
370
    15
100
AcDbLine
 10
2305.654786570604
 20
790.0691304013199
 30
0.0
 11
2307.269649622538
 21
790.0691304013202
 31
0.0
  0
ARC
  5
578
330
545
100
AcDbEntity
  8
0
  6
Continuous
 62
     7
370
    15
100
AcDbCircle
 10
2305.654786570604
 20
790.419130401305
 30
0.0
 40
0.3500000000007136
100
AcDbArc
 50
190.0000000001174
 51
270.0
  0
LINE
  5
579
330
545
100
AcDbEntity
  8
0
  6
Continuous
 62
     7
370
    15
100
AcDbLine
 10
2305.022464557106
 20
791.9896370714454
 30
0.0
 11
2305.31010385705
 21
790.3583535391235
 31
0.0
  0
LINE
  5
57A
330
545
100
AcDbEntity
  8
0
  6
Continuous
 62
     7
370
    15
100
AcDbLine
 10
2308.02246455709
 20
792.6729840129994
 30
0.0
 11
2308.022464557091
 21
798.4344633790128
 31
0.0
  0
LINE
  5
57B
330
545
100
AcDbEntity
  8
0
  6
Continuous
 62
     7
370
    15
100
AcDbLine
 10
2305.022464557103
 20
798.4344633790128
 30
0.0
 11
2305.022464557106
 21
791.9896370714454
 31
0.0
  0
LINE
  5
57C
330
545
100
AcDbEntity
  8
0
  6
Continuous
 62
     7
370
    15
100
AcDbLine
 10
2287.514332336093
 20
790.3583535391281
 30
0.0
 11
2287.922464557098
 21
792.6729840130032
 31
0.0
  0
ARC
  5
57D
330
545
100
AcDbEntity
  8
0
  6
Continuous
 62
     7
370
    15
100
AcDbCircle
 10
2287.169649622538
 20
790.4191304013092
 30
0.0
 40
0.3500000000004862
100
AcDbArc
 50
270.0
 51
349.9999999999595
  0
LINE
  5
57E
330
545
100
AcDbEntity
  8
0
  6
Continuous
 62
     7
370
    15
100
AcDbLine
 10
2285.554786570604
 20
790.0691304013246
 30
0.0
 11
2287.169649622538
 21
790.0691304013244
 31
0.0
  0
ARC
  5
57F
330
545
100
AcDbEntity
  8
0
  6
Continuous
 62
     7
370
    15
100
AcDbCircle
 10
2285.554786570604
 20
790.4191304013092
 30
0.0
 40
0.350000000000273
100
AcDbArc
 50
190.0000000001174
 51
270.0
  0
LINE
  5
580
330
545
100
AcDbEntity
  8
0
  6
Continuous
 62
     7
370
    15
100
AcDbLine
 10
2284.922464557106
 20
791.9896370714496
 30
0.0
 11
2285.21010385705
 21
790.3583535391277
 31
0.0
  0
LINE
  5
581
330
545
100
AcDbEntity
  8
0
  6
Continuous
 62
     7
370
    15
100
AcDbLine
 10
2287.922464557098
 20
792.6729840130032
 30
0.0
 11
2287.92246455709
 21
798.4344633790169
 31
0.0
  0
LINE
  5
582
330
545
100
AcDbEntity
  8
0
  6
Continuous
 62
     7
370
    15
100
AcDbLine
 10
2284.922464557103
 20
798.4344633790169
 30
0.0
 11
2284.922464557106
 21
791.9896370714496
 31
0.0
  0
LINE
  5
583
330
545
100
AcDbEntity
  8
0
  6
Continuous
 62
     7
370
    15
100
AcDbLine
 10
2300.914332336093
 20
790.3583535391257
 30
0.0
 11
2301.32246455709
 21
792.6729840130015
 31
0.0
  0
ARC
  5
584
330
545
100
AcDbEntity
  8
0
  6
Continuous
 62
     7
370
    15
100
AcDbCircle
 10
2300.569649622538
 20
790.419130401307
 30
0.0
 40
0.3500000000005004
100
AcDbArc
 50
270.0
 51
349.999999999921
  0
LINE
  5
585
330
545
100
AcDbEntity
  8
0
  6
Continuous
 62
     7
370
    15
100
AcDbLine
 10
2298.954786570604
 20
790.069130401322
 30
0.0
 11
2300.569649622538
 21
790.0691304013222
 31
0.0
  0
ARC
  5
586
330
545
100
AcDbEntity
  8
0
  6
Continuous
 62
     7
370
    15
100
AcDbCircle
 10
2298.954786570604
 20
790.419130401307
 30
0.0
 40
0.3500000000007136
100
AcDbArc
 50
190.0000000001174
 51
270.0
  0
LINE
  5
587
330
545
100
AcDbEntity
  8
0
  6
Continuous
 62
     7
370
    15
100
AcDbLine
 10
2298.322464557105
 20
791.9896370714472
 30
0.0
 11
2298.61010385705
 21
790.3583535391256
 31
0.0
  0
LINE
  5
588
330
545
100
AcDbEntity
  8
0
  6
Continuous
 62
     7
370
    15
100
AcDbLine
 10
2301.32246455709
 20
792.6729840130015
 30
0.0
 11
2301.322464557091
 21
798.4344633790146
 31
0.0
  0
LINE
  5
589
330
545
100
AcDbEntity
  8
0
  6
Continuous
 62
     7
370
    15
100
AcDbLine
 10
2298.322464557103
 20
798.4344633790146
 30
0.0
 11
2298.322464557105
 21
791.9896370714472
 31
0.0
  0
LINE
  5
58A
330
545
100
AcDbEntity
  8
0
  6
Continuous
 62
     7
370
    15
100
AcDbLine
 10
2301.772464557274
 20
801.1931885443027
 30
0.0
 11
2302.172464557241
 21
801.5931885442512
 31
0.0
  0
LINE
  5
58B
330
545
100
AcDbEntity
  8
0
  6
Continuous
 62
     7
370
    15
100
AcDbLine
 10
2301.772464557274
 20
801.1931885443027
 30
0.0
 11
2301.772464557274
 21
799.9911885443257
 31
0.0
  0
LINE
  5
58C
330
545
100
AcDbEntity
  8
0
  6
Continuous
 62
     7
370
    15
100
AcDbLine
 10
2297.872464557208
 20
799.9911885443257
 30
0.0
 11
2301.772464557274
 21
799.9911885443257
 31
0.0
  0
LINE
  5
58D
330
545
100
AcDbEntity
  8
0
  6
Continuous
 62
     7
370
    15
100
AcDbLine
 10
2297.872464557208
 20
799.9911885443257
 30
0.0
 11
2297.872464557208
 21
801.1931885443027
 31
0.0
  0
LINE
  5
58E
330
545
100
AcDbEntity
  8
0
  6
Continuous
 62
     7
370
    15
100
AcDbLine
 10
2297.472464557241
 20
801.5931885442514
 30
0.0
 11
2297.872464557208
 21
801.1931885443027
 31
0.0
  0
LINE
  5
58F
330
545
100
AcDbEntity
  8
0
  6
Continuous
 62
     7
370
    15
100
AcDbLine
 10
2297.472464557241
 20
801.5931885442514
 30
0.0
 11
2297.472464557241
 21
808.2232132009222
 31
0.0
  0
LINE
  5
590
330
545
100
AcDbEntity
  8
0
  6
Continuous
 62
     7
370
    15
100
AcDbLine
 10
2295.47246455724
 20
808.2232132009362
 30
0.0
 11
2297.472464557241
 21
808.2232132009222
 31
0.0
  0
LINE
  5
591
330
545
100
AcDbEntity
  8
0
  6
Continuous
 62
     7
370
    15
100
AcDbLine
 10
2295.47246455724
 20
808.2232132009362
 30
0.0
 11
2295.47246455724
 21
801.5931885442535
 31
0.0
  0
LINE
  5
592
330
545
100
AcDbEntity
  8
0
  6
Continuous
 62
     7
370
    15
100
AcDbLine
 10
2295.072464557274
 20
801.1931885443051
 30
0.0
 11
2295.47246455724
 21
801.5931885442535
 31
0.0
  0
LINE
  5
593
330
545
100
AcDbEntity
  8
0
  6
Continuous
 62
     7
370
    15
100
AcDbLine
 10
2295.072464557274
 20
801.1931885443051
 30
0.0
 11
2295.072464557274
 21
799.991188544328
 31
0.0
  0
LINE
  5
594
330
545
100
AcDbEntity
  8
0
  6
Continuous
 62
     7
370
    15
100
AcDbLine
 10
2291.172464557208
 20
799.991188544328
 30
0.0
 11
2295.072464557274
 21
799.991188544328
 31
0.0
  0
LINE
  5
595
330
545
100
AcDbEntity
  8
0
  6
Continuous
 62
     7
370
    15
100
AcDbLine
 10
2291.172464557208
 20
799.991188544328
 30
0.0
 11
2291.172464557208
 21
801.1931885443051
 31
0.0
  0
LINE
  5
596
330
545
100
AcDbEntity
  8
0
  6
Continuous
 62
     7
370
    15
100
AcDbLine
 10
2290.772464557241
 20
801.5931885442537
 30
0.0
 11
2291.172464557208
 21
801.1931885443051
 31
0.0
  0
LINE
  5
597
330
545
100
AcDbEntity
  8
0
  6
Continuous
 62
     7
370
    15
100
AcDbLine
 10
2290.772464557241
 20
801.5931885442537
 30
0.0
 11
2290.772464557241
 21
808.2232132009245
 31
0.0
  0
LINE
  5
598
330
545
100
AcDbEntity
  8
0
  6
Continuous
 62
     7
370
    15
100
AcDbLine
 10
2290.772464557241
 20
808.2232132009245
 30
0.0
 11
2288.772464557241
 21
808.2232132323762
 31
0.0
  0
LINE
  5
599
330
545
100
AcDbEntity
  8
0
  6
Continuous
 62
     7
370
    15
100
AcDbLine
 10
2288.772464557241
 20
808.2232132323762
 30
0.0
 11
2288.772464557241
 21
801.5931885442535
 31
0.0
  0
LINE
  5
59A
330
545
100
AcDbEntity
  8
0
  6
Continuous
 62
     7
370
    15
100
AcDbLine
 10
2288.772464557241
 20
801.5931885442535
 30
0.0
 11
2288.372464557274
 21
801.1931885443051
 31
0.0
  0
LINE
  5
59B
330
545
100
AcDbEntity
  8
0
  6
Continuous
 62
     7
370
    15
100
AcDbLine
 10
2288.372464557273
 20
799.991188544328
 30
0.0
 11
2288.372464557274
 21
801.1931885443051
 31
0.0
  0
LINE
  5
59C
330
545
100
AcDbEntity
  8
0
  6
Continuous
 62
     7
370
    15
100
AcDbLine
 10
2284.472464557207
 20
799.991188544328
 30
0.0
 11
2288.372464557273
 21
799.991188544328
 31
0.0
  0
LINE
  5
59D
330
545
100
AcDbEntity
  8
0
  6
Continuous
 62
     7
370
    15
100
AcDbLine
 10
2284.472464557207
 20
799.991188544328
 30
0.0
 11
2284.472464557207
 21
801.1931885443051
 31
0.0
  0
LINE
  5
59E
330
545
100
AcDbEntity
  8
0
  6
Continuous
 62
     7
370
    15
100
AcDbLine
 10
2284.07246455724
 20
801.5931885442537
 30
0.0
 11
2284.472464557207
 21
801.1931885443051
 31
0.0
  0
LINE
  5
59F
330
545
100
AcDbEntity
  8
0
  6
Continuous
 62
     7
370
    15
100
AcDbLine
 10
2284.07246455724
 20
801.5931885442537
 30
0.0
 11
2284.07246455724
 21
808.2232132009249
 31
0.0
  0
LINE
  5
5A0
330
545
100
AcDbEntity
  8
0
  6
Continuous
 62
     7
370
    15
100
AcDbLine
 10
2284.07246455724
 20
808.2232132009249
 30
0.0
 11
2283.32246455724
 21
808.2232132009222
 31
0.0
  0
LINE
  5
5A1
330
545
100
AcDbEntity
  8
0
  6
Continuous
 62
     7
370
    15
100
AcDbLine
 10
2308.872464557241
 20
808.223213200932
 30
0.0
 11
2309.622464557186
 21
808.223213200932
 31
0.0
  0
LINE
  5
5A2
330
545
100
AcDbEntity
  8
0
  6
Continuous
 62
     7
370
    15
100
AcDbLine
 10
2308.872464557241
 20
808.223213200932
 30
0.0
 11
2308.872464557241
 21
801.5931885442492
 31
0.0
  0
LINE
  5
5A3
330
545
100
AcDbEntity
  8
0
  6
Continuous
 62
     7
370
    15
100
AcDbLine
 10
2308.472464557274
 20
801.1931885443008
 30
0.0
 11
2308.872464557241
 21
801.5931885442492
 31
0.0
  0
LINE
  5
5A4
330
545
100
AcDbEntity
  8
0
  6
Continuous
 62
     7
370
    15
100
AcDbLine
 10
2308.472464557274
 20
801.1931885443008
 30
0.0
 11
2308.472464557274
 21
799.9911885443236
 31
0.0
  0
LINE
  5
5A5
330
545
100
AcDbEntity
  8
0
  6
Continuous
 62
     7
370
    15
100
AcDbLine
 10
2304.572464557207
 20
799.9911885443236
 30
0.0
 11
2308.472464557274
 21
799.9911885443236
 31
0.0
  0
LINE
  5
5A6
330
545
100
AcDbEntity
  8
0
  6
Continuous
 62
     7
370
    15
100
AcDbLine
 10
2304.572464557207
 20
799.9911885443236
 30
0.0
 11
2304.572464557208
 21
801.1931885443008
 31
0.0
  0
LINE
  5
5A7
330
545
100
AcDbEntity
  8
0
  6
Continuous
 62
     7
370
    15
100
AcDbLine
 10
2304.172464557241
 20
801.5931885442494
 30
0.0
 11
2304.572464557208
 21
801.1931885443008
 31
0.0
  0
LINE
  5
5A8
330
545
100
AcDbEntity
  8
0
  6
Continuous
 62
     7
370
    15
100
AcDbLine
 10
2304.172464557241
 20
801.5931885442494
 30
0.0
 11
2304.172464557241
 21
808.2232132009202
 31
0.0
  0
LINE
  5
5A9
330
545
100
AcDbEntity
  8
0
  6
Continuous
 62
     7
370
    15
100
AcDbLine
 10
2302.172464557241
 20
808.2232132009341
 30
0.0
 11
2304.172464557241
 21
808.2232132009202
 31
0.0
  0
LINE
  5
5AA
330
545
100
AcDbEntity
  8
0
  6
Continuous
 62
     7
370
    15
100
AcDbLine
 10
2302.172464557241
 20
808.2232132009341
 30
0.0
 11
2302.172464557241
 21
801.5931885442512
 31
0.0
  0
LINE
  5
5AB
330
545
100
AcDbEntity
  8
0
  6
Continuous
 62
     7
370
    15
100
AcDbLine
 10
2283.32246455724
 20
812.7711885437539
 30
0.0
 11
2283.32246455724
 21
808.2232132009222
 31
0.0
  0
LINE
  5
5AC
330
545
100
AcDbEntity
  8
0
  6
Continuous
 62
     7
370
    15
100
AcDbLine
 10
2309.622464557186
 20
808.223213200932
 30
0.0
 11
2309.622464557186
 21
812.7711885437516
 31
0.0
  0
LINE
  5
5AD
330
545
100
AcDbEntity
  8
0
  6
Continuous
 62
     7
370
    15
100
AcDbLine
 10
2290.772464557241
 20
808.223188543956
 30
0.0
 11
2288.772464557241
 21
808.2231885439561
 31
0.0
  0
LINE
  5
5AE
330
545
100
AcDbEntity
  8
0
  6
Continuous
 62
     7
370
    15
100
AcDbLine
 10
2284.07246455724
 20
808.2231885439565
 30
0.0
 11
2283.32246455724
 21
808.223188543954
 31
0.0
  0
LINE
  5
5AF
330
545
100
AcDbEntity
  8
0
  6
Continuous
 62
     7
370
    15
100
AcDbLine
 10
2283.32246455724
 20
808.2232132009222
 30
0.0
 11
2283.32246455724
 21
808.223188543954
 31
0.0
  0
LINE
  5
5B0
330
545
100
AcDbEntity
  8
0
  6
Continuous
 62
     7
370
    15
100
AcDbLine
 10
2309.622464557186
 20
808.2231885439595
 30
0.0
 11
2308.872464557241
 21
808.2231885439595
 31
0.0
  0
LINE
  5
5B1
330
545
100
AcDbEntity
  8
0
  6
Continuous
 62
     7
370
    15
100
AcDbLine
 10
2309.622464557186
 20
808.2231885439595
 30
0.0
 11
2309.622464557186
 21
808.223213200932
 31
0.0
  0
LINE
  5
5B2
330
545
100
AcDbEntity
  8
0
  6
Continuous
 62
     7
370
    15
100
AcDbLine
 10
2304.172464557241
 20
808.2231885439517
 30
0.0
 11
2302.172464557241
 21
808.2231885439615
 31
0.0
  0
LINE
  5
5B3
330
545
100
AcDbEntity
  8
0
  6
Continuous
 62
     7
370
    15
100
AcDbLine
 10
2297.472464557241
 20
808.2231885439538
 30
0.0
 11
2295.47246455724
 21
808.2231885439638
 31
0.0
  0
LINE
  5
5B4
330
545
100
AcDbEntity
  8
0
  6
Continuous
 62
     7
370
    15
100
AcDbLine
 10
2294.772464557257
 20
799.5911923379114
 30
0.0
 11
2295.072464557274
 21
799.8911894927504
 31
0.0
  0
LINE
  5
5B5
330
545
100
AcDbEntity
  8
0
  6
Continuous
 62
     7
370
    15
100
AcDbLine
 10
2294.772464557257
 20
799.5911923379114
 30
0.0
 11
2291.472464557211
 21
799.5911923379143
 31
0.0
  0
LINE
  5
5B6
330
545
100
AcDbEntity
  8
0
  6
Continuous
 62
     7
370
    15
100
AcDbLine
 10
2291.172464557208
 20
799.8911894927506
 30
0.0
 11
2291.472464557211
 21
799.5911923379143
 31
0.0
  0
LINE
  5
5B7
330
545
100
AcDbEntity
  8
0
  6
Continuous
 62
     7
370
    15
100
AcDbLine
 10
2295.072464557274
 20
799.8911894927504
 30
0.0
 11
2295.072464557274
 21
799.991188544328
 31
0.0
  0
LINE
  5
5B8
330
545
100
AcDbEntity
  8
0
  6
Continuous
 62
     7
370
    15
100
AcDbLine
 10
2291.172464557208
 20
799.991188544328
 30
0.0
 11
2291.172464557208
 21
799.8911894927506
 31
0.0
  0
LINE
  5
5B9
330
545
100
AcDbEntity
  8
0
  6
Continuous
 62
     7
370
    15
100
AcDbLine
 10
2301.472464557257
 20
799.5911923379091
 30
0.0
 11
2301.772464557274
 21
799.8911894927482
 31
0.0
  0
LINE
  5
5BA
330
545
100
AcDbEntity
  8
0
  6
Continuous
 62
     7
370
    15
100
AcDbLine
 10
2301.472464557257
 20
799.5911923379091
 30
0.0
 11
2298.172464557211
 21
799.5911923379122
 31
0.0
  0
LINE
  5
5BB
330
545
100
AcDbEntity
  8
0
  6
Continuous
 62
     7
370
    15
100
AcDbLine
 10
2297.872464557208
 20
799.8911894927483
 30
0.0
 11
2298.172464557211
 21
799.5911923379122
 31
0.0
  0
LINE
  5
5BC
330
545
100
AcDbEntity
  8
0
  6
Continuous
 62
     7
370
    15
100
AcDbLine
 10
2297.872464557208
 20
799.9911885443257
 30
0.0
 11
2297.872464557208
 21
799.8911894927483
 31
0.0
  0
LINE
  5
5BD
330
545
100
AcDbEntity
  8
0
  6
Continuous
 62
     7
370
    15
100
AcDbLine
 10
2301.772464557274
 20
799.8911894927482
 30
0.0
 11
2301.772464557274
 21
799.9911885443257
 31
0.0
  0
LINE
  5
5BE
330
545
100
AcDbEntity
  8
0
  6
Continuous
 62
     7
370
    15
100
AcDbLine
 10
2308.172464557257
 20
799.5911923379071
 30
0.0
 11
2308.472464557274
 21
799.8911894927462
 31
0.0
  0
LINE
  5
5BF
330
545
100
AcDbEntity
  8
0
  6
Continuous
 62
     7
370
    15
100
AcDbLine
 10
2308.172464557257
 20
799.5911923379071
 30
0.0
 11
2304.872464557211
 21
799.5911923379101
 31
0.0
  0
LINE
  5
5C0
330
545
100
AcDbEntity
  8
0
  6
Continuous
 62
     7
370
    15
100
AcDbLine
 10
2304.572464557208
 20
799.8911894927464
 30
0.0
 11
2304.872464557211
 21
799.5911923379101
 31
0.0
  0
LINE
  5
5C1
330
545
100
AcDbEntity
  8
0
  6
Continuous
 62
     7
370
    15
100
AcDbLine
 10
2304.572464557207
 20
799.9911885443236
 30
0.0
 11
2304.572464557208
 21
799.8911894927464
 31
0.0
  0
LINE
  5
5C2
330
545
100
AcDbEntity
  8
0
  6
Continuous
 62
     7
370
    15
100
AcDbLine
 10
2308.472464557274
 20
799.8911894927462
 30
0.0
 11
2308.472464557274
 21
799.9911885443236
 31
0.0
  0
LINE
  5
5C3
330
545
100
AcDbEntity
  8
0
  6
Continuous
 62
     7
370
    15
100
AcDbLine
 10
2288.072464557257
 20
799.5911923379114
 30
0.0
 11
2288.372464557273
 21
799.8911894927506
 31
0.0
  0
LINE
  5
5C4
330
545
100
AcDbEntity
  8
0
  6
Continuous
 62
     7
370
    15
100
AcDbLine
 10
2288.072464557257
 20
799.5911923379114
 30
0.0
 11
2284.77246455721
 21
799.5911923379143
 31
0.0
  0
LINE
  5
5C5
330
545
100
AcDbEntity
  8
0
  6
Continuous
 62
     7
370
    15
100
AcDbLine
 10
2284.472464557208
 20
799.8911894927506
 30
0.0
 11
2284.77246455721
 21
799.5911923379143
 31
0.0
  0
LINE
  5
5C6
330
545
100
AcDbEntity
  8
0
  6
Continuous
 62
     7
370
    15
100
AcDbLine
 10
2288.372464557273
 20
799.8911894927506
 30
0.0
 11
2288.372464557273
 21
799.991188544328
 31
0.0
  0
LINE
  5
5C7
330
545
100
AcDbEntity
  8
0
  6
Continuous
 62
     7
370
    15
100
AcDbLine
 10
2284.472464557207
 20
799.991188544328
 30
0.0
 11
2284.472464557208
 21
799.8911894927506
 31
0.0
  0
LINE
  5
5C8
330
545
100
AcDbEntity
  8
0
  6
Continuous
 62
     7
370
    15
100
AcDbLine
 10
2301.322464557129
 20
798.6344652552292
 30
0.0
 11
2298.322464557103
 21
798.63446479131
 31
0.0
  0
LINE
  5
5C9
330
545
100
AcDbEntity
  8
0
  6
Continuous
 62
     7
370
    15
100
AcDbLine
 10
2301.322464557129
 20
798.6344652552292
 30
0.0
 11
2301.32246455709
 21
798.6344647913181
 31
0.0
  0
LINE
  5
5CA
330
545
100
AcDbEntity
  8
0
  6
Continuous
 62
     7
370
    15
100
AcDbLine
 10
2298.322464557103
 20
798.6344643273958
 30
0.0
 11
2298.322464557103
 21
798.63446479131
 31
0.0
  0
LINE
  5
5CB
330
545
100
AcDbEntity
  8
0
  6
Continuous
 62
     7
370
    15
100
AcDbLine
 10
2308.02246455713
 20
798.6344652552271
 30
0.0
 11
2305.022464557103
 21
798.6344647913081
 31
0.0
  0
LINE
  5
5CC
330
545
100
AcDbEntity
  8
0
  6
Continuous
 62
     7
370
    15
100
AcDbLine
 10
2308.02246455713
 20
798.6344652552271
 30
0.0
 11
2308.02246455709
 21
798.6344647913161
 31
0.0
  0
LINE
  5
5CD
330
545
100
AcDbEntity
  8
0
  6
Continuous
 62
     7
370
    15
100
AcDbLine
 10
2305.022464557103
 20
798.6344643273938
 30
0.0
 11
2305.022464557103
 21
798.6344647913081
 31
0.0
  0
LINE
  5
5CE
330
545
100
AcDbEntity
  8
0
  6
Continuous
 62
     7
370
    15
100
AcDbLine
 10
2287.922464557125
 20
798.6344652552313
 30
0.0
 11
2284.922464557103
 21
798.6344647913123
 31
0.0
  0
LINE
  5
5CF
330
545
100
AcDbEntity
  8
0
  6
Continuous
 62
     7
370
    15
100
AcDbLine
 10
2287.922464557125
 20
798.6344652552313
 30
0.0
 11
2287.92246455709
 21
798.6344647913202
 31
0.0
  0
LINE
  5
5D0
330
545
100
AcDbEntity
  8
0
  6
Continuous
 62
     7
370
    15
100
AcDbLine
 10
2284.922464557103
 20
798.634464327398
 30
0.0
 11
2284.922464557103
 21
798.6344647913123
 31
0.0
  0
LINE
  5
5D1
330
545
100
AcDbEntity
  8
0
  6
Continuous
 62
     7
370
    15
100
AcDbLine
 10
2294.62246455713
 20
798.6344652552313
 30
0.0
 11
2291.622464557103
 21
798.6344647913123
 31
0.0
  0
LINE
  5
5D2
330
545
100
AcDbEntity
  8
0
  6
Continuous
 62
     7
370
    15
100
AcDbLine
 10
2291.622464557103
 20
798.634464327398
 30
0.0
 11
2291.622464557103
 21
798.6344647913123
 31
0.0
  0
LINE
  5
5D3
330
545
100
AcDbEntity
  8
0
  6
Continuous
 62
     7
370
    15
100
AcDbLine
 10
2294.62246455713
 20
798.6344652552313
 30
0.0
 11
2294.62246455709
 21
798.6344647913202
 31
0.0
  0
LINE
  5
5D4
330
545
100
AcDbEntity
  8
0
  6
Continuous
 62
     7
370
    15
100
AcDbLine
 10
2301.32246455717
 20
798.8344657294334
 30
0.0
 11
2298.322464557103
 21
798.834466677819
 31
0.0
  0
LINE
  5
5D5
330
545
100
AcDbEntity
  8
0
  6
Continuous
 62
     7
370
    15
100
AcDbLine
 10
2301.32246455717
 20
798.8344657294334
 30
0.0
 11
2301.322464557129
 21
798.6344652552292
 31
0.0
  0
LINE
  5
5D6
330
545
100
AcDbEntity
  8
0
  6
Continuous
 62
     7
370
    15
100
AcDbLine
 10
2298.322464557103
 20
798.63446479131
 30
0.0
 11
2298.322464557103
 21
798.834466677819
 31
0.0
  0
LINE
  5
5D7
330
545
100
AcDbEntity
  8
0
  6
Continuous
 62
     7
370
    15
100
AcDbLine
 10
2308.022464557169
 20
798.8344657294313
 30
0.0
 11
2305.022464557103
 21
798.834466677817
 31
0.0
  0
LINE
  5
5D8
330
545
100
AcDbEntity
  8
0
  6
Continuous
 62
     7
370
    15
100
AcDbLine
 10
2308.022464557169
 20
798.8344657294313
 30
0.0
 11
2308.02246455713
 21
798.6344652552271
 31
0.0
  0
LINE
  5
5D9
330
545
100
AcDbEntity
  8
0
  6
Continuous
 62
     7
370
    15
100
AcDbLine
 10
2305.022464557103
 20
798.6344647913081
 30
0.0
 11
2305.022464557103
 21
798.834466677817
 31
0.0
  0
LINE
  5
5DA
330
545
100
AcDbEntity
  8
0
  6
Continuous
 62
     7
370
    15
100
AcDbLine
 10
2294.62246455717
 20
798.8344657294356
 30
0.0
 11
2291.622464557103
 21
798.8344666778211
 31
0.0
  0
LINE
  5
5DB
330
545
100
AcDbEntity
  8
0
  6
Continuous
 62
     7
370
    15
100
AcDbLine
 10
2291.622464557103
 20
798.6344647913123
 30
0.0
 11
2291.622464557103
 21
798.8344666778211
 31
0.0
  0
LINE
  5
5DC
330
545
100
AcDbEntity
  8
0
  6
Continuous
 62
     7
370
    15
100
AcDbLine
 10
2294.62246455717
 20
798.8344657294356
 30
0.0
 11
2294.62246455713
 21
798.6344652552313
 31
0.0
  0
LINE
  5
5DD
330
545
100
AcDbEntity
  8
0
  6
Continuous
 62
     7
370
    15
100
AcDbLine
 10
2287.922464557159
 20
798.8344657294356
 30
0.0
 11
2284.922464557103
 21
798.8344666778211
 31
0.0
  0
LINE
  5
5DE
330
545
100
AcDbEntity
  8
0
  6
Continuous
 62
     7
370
    15
100
AcDbLine
 10
2287.922464557159
 20
798.8344657294356
 30
0.0
 11
2287.922464557125
 21
798.6344652552313
 31
0.0
  0
LINE
  5
5DF
330
545
100
AcDbEntity
  8
0
  6
Continuous
 62
     7
370
    15
100
AcDbLine
 10
2284.922464557103
 20
798.6344647913123
 30
0.0
 11
2284.922464557103
 21
798.8344666778211
 31
0.0
  0
LINE
  5
5E0
330
545
100
AcDbEntity
  8
0
  6
Continuous
 62
     7
370
    15
100
AcDbLine
 10
2291.622464557103
 20
798.8344666778211
 30
0.0
 11
2291.622464557102
 21
799.5911951830771
 31
0.0
  0
LINE
  5
5E1
330
545
100
AcDbEntity
  8
0
  6
Continuous
 62
     7
370
    15
100
AcDbLine
 10
2294.622464557088
 20
799.5911951830771
 30
0.0
 11
2294.62246455717
 21
798.8344657294356
 31
0.0
  0
LINE
  5
5E2
330
545
100
AcDbEntity
  8
0
  6
Continuous
 62
     7
370
    15
100
AcDbLine
 10
2287.922464557089
 20
799.5911951830771
 30
0.0
 11
2287.922464557159
 21
798.8344657294356
 31
0.0
  0
LINE
  5
5E3
330
545
100
AcDbEntity
  8
0
  6
Continuous
 62
     7
370
    15
100
AcDbLine
 10
2284.922464557103
 20
798.8344666778211
 30
0.0
 11
2284.922464557102
 21
799.5911951830771
 31
0.0
  0
LINE
  5
5E4
330
545
100
AcDbEntity
  8
0
  6
Continuous
 62
     7
370
    15
100
AcDbLine
 10
2301.322464557088
 20
799.5911951830748
 30
0.0
 11
2301.32246455717
 21
798.8344657294334
 31
0.0
  0
LINE
  5
5E5
330
545
100
AcDbEntity
  8
0
  6
Continuous
 62
     7
370
    15
100
AcDbLine
 10
2298.322464557103
 20
798.834466677819
 30
0.0
 11
2298.322464557101
 21
799.5911951830748
 31
0.0
  0
LINE
  5
5E6
330
545
100
AcDbEntity
  8
0
  6
Continuous
 62
     7
370
    15
100
AcDbLine
 10
2308.022464557089
 20
799.5911951830728
 30
0.0
 11
2308.022464557169
 21
798.8344657294313
 31
0.0
  0
LINE
  5
5E7
330
545
100
AcDbEntity
  8
0
  6
Continuous
 62
     7
370
    15
100
AcDbLine
 10
2305.022464557103
 20
798.834466677817
 30
0.0
 11
2305.022464557102
 21
799.5911951830728
 31
0.0
  0
ENDBLK
  5
547
330
545
100
AcDbEntity
  8
0
100
AcDbBlockEnd
  0
BLOCK
  5
5EA
330
5E9
100
AcDbEntity
  8
0
100
AcDbBlockBegin
  2
2
 70
     0
 10
0.0
 20
0.0
 30
0.0
  3
2
  1

  0
LINE
  5
5EC
330
5E9
100
AcDbEntity
  8
0
  6
Continuous
 62
     7
370
    15
100
AcDbLine
 10
2270.770771966054
 20
808.2231885439595
 30
0.0
 11
2268.170882889112
 21
808.223213200932
 31
0.0
  0
LINE
  5
5ED
330
5E9
100
AcDbEntity
  8
0
  6
Continuous
 62
     7
370
    15
100
AcDbLine
 10
2268.170882889112
 20
808.223213200932
 30
0.0
 11
2268.170839756771
 21
812.7711885437516
 31
0.0
  0
LINE
  5
5EE
330
5E9
100
AcDbEntity
  8
0
  6
Continuous
 62
     7
370
    15
100
AcDbLine
 10
2267.370839756805
 20
812.7711809566671
 30
0.0
 11
2268.170839756771
 21
812.7711885437516
 31
0.0
  0
LINE
  5
5EF
330
5E9
100
AcDbEntity
  8
0
  6
Continuous
 62
     7
370
    15
100
AcDbLine
 10
2267.370839756805
 20
812.7711809566671
 30
0.0
 11
2267.370827427794
 21
814.0711809566093
 31
0.0
  0
LINE
  5
5F0
330
5E9
100
AcDbEntity
  8
0
  6
Continuous
 62
     7
370
    15
100
AcDbLine
 10
2267.370827427794
 20
814.0711809566093
 30
0.0
 11
2271.570827427983
 21
814.0712207888052
 31
0.0
  0
LINE
  5
5F1
330
5E9
100
AcDbEntity
  8
0
  6
Continuous
 62
     7
370
    15
100
AcDbLine
 10
2271.570827427983
 20
814.0712207888052
 30
0.0
 11
2271.570815098593
 21
812.7711809566671
 31
0.0
  0
LINE
  5
5F2
330
5E9
100
AcDbEntity
  8
0
  6
Continuous
 62
     7
370
    15
100
AcDbLine
 10
2271.570815098593
 20
812.7711809566671
 30
0.0
 11
2270.770815098629
 21
812.7711885437516
 31
0.0
  0
LINE
  5
5F3
330
5E9
100
AcDbEntity
  8
0
  6
Continuous
 62
     7
370
    15
100
AcDbLine
 10
2270.770815098629
 20
812.7711885437516
 30
0.0
 11
2270.770771966054
 21
808.2231885439595
 31
0.0
  0
LINE
  5
5F4
330
5E9
100
AcDbEntity
  8
0
  6
Continuous
 62
     7
370
    15
100
AcDbLine
 10
2268.170944534408
 20
801.5931885442492
 30
0.0
 11
2270.770710321227
 21
801.5932132000527
 31
0.0
  0
LINE
  5
5F5
330
5E9
100
AcDbEntity
  8
0
  6
Continuous
 62
     7
370
    15
100
AcDbLine
 10
2268.170882889112
 20
808.223213200932
 30
0.0
 11
2268.170944534408
 21
801.5931885442492
 31
0.0
  0
LINE
  5
5F6
330
5E9
100
AcDbEntity
  8
0
  6
Continuous
 62
     7
370
    15
100
AcDbLine
 10
2270.770771966054
 20
808.2231885439595
 30
0.0
 11
2270.770710321227
 21
801.5932132000527
 31
0.0
  0
LINE
  5
5F7
330
5E9
100
AcDbEntity
  8
0
  6
Continuous
 62
     7
370
    15
100
AcDbLine
 10
2268.17094832795
 20
801.1931885443008
 30
0.0
 11
2270.770706527684
 21
801.1932132000319
 31
0.0
  0
LINE
  5
5F8
330
5E9
100
AcDbEntity
  8
0
  6
Continuous
 62
     7
370
    15
100
AcDbLine
 10
2268.17094832795
 20
801.1931885443008
 30
0.0
 11
2268.170944534408
 21
801.5931885442492
 31
0.0
  0
LINE
  5
5F9
330
5E9
100
AcDbEntity
  8
0
  6
Continuous
 62
     7
370
    15
100
AcDbLine
 10
2270.770706527684
 20
801.1932132000319
 30
0.0
 11
2270.770710321227
 21
801.5932132000527
 31
0.0
  0
LINE
  5
5FA
330
5E9
100
AcDbEntity
  8
0
  6
Continuous
 62
     7
370
    15
100
AcDbLine
 10
2270.670716938883
 20
799.891212251689
 30
0.0
 11
2268.270960675893
 21
799.8911894927462
 31
0.0
  0
LINE
  5
5FB
330
5E9
100
AcDbEntity
  8
0
  6
Continuous
 62
     7
370
    15
100
AcDbLine
 10
2268.270960675893
 20
799.8911894927462
 30
0.0
 11
2268.170959727545
 21
799.9911885443237
 31
0.0
  0
LINE
  5
5FC
330
5E9
100
AcDbEntity
  8
0
  6
Continuous
 62
     7
370
    15
100
AcDbLine
 10
2270.670716938883
 20
799.891212251689
 30
0.0
 11
2270.770695127856
 21
799.9911885443228
 31
0.0
  0
LINE
  5
5FD
330
5E9
100
AcDbEntity
  8
0
  6
Continuous
 62
     7
370
    15
100
AcDbLine
 10
2268.17094832795
 20
801.1931885443008
 30
0.0
 11
2268.170959727545
 21
799.9911885443237
 31
0.0
  0
LINE
  5
5FE
330
5E9
100
AcDbEntity
  8
0
  6
Continuous
 62
     7
370
    15
100
AcDbLine
 10
2270.770695127856
 20
799.9911885443228
 30
0.0
 11
2270.770706527684
 21
801.1932132000319
 31
0.0
  0
LINE
  5
5FF
330
5E9
100
AcDbEntity
  8
0
  6
Continuous
 62
     7
370
    15
100
AcDbLine
 10
2270.37070840318
 20
799.5912094064172
 30
0.0
 11
2268.570963521059
 21
799.5911923379073
 31
0.0
  0
LINE
  5
600
330
5E9
100
AcDbEntity
  8
0
  6
Continuous
 62
     7
370
    15
100
AcDbLine
 10
2268.570963521059
 20
799.5911923379073
 30
0.0
 11
2268.270960675893
 21
799.8911894927462
 31
0.0
  0
LINE
  5
601
330
5E9
100
AcDbEntity
  8
0
  6
Continuous
 62
     7
370
    15
100
AcDbLine
 10
2270.37070840318
 20
799.5912094064172
 30
0.0
 11
2270.670716938883
 21
799.891212251689
 31
0.0
  0
LINE
  5
602
330
5E9
100
AcDbEntity
  8
0
  6
Continuous
 62
     7
370
    15
100
AcDbLine
 10
2270.070970697695
 20
798.8344790068294
 30
0.0
 11
2270.070963521
 21
799.5912065636995
 31
0.0
  0
ARC
  5
603
330
5E9
100
AcDbEntity
  8
0
  6
Continuous
 62
     7
370
    15
100
AcDbCircle
 10
2270.270970697691
 20
798.8344804293907
 30
0.0
 40
0.2000000000005856
100
AcDbArc
 50
180.0004075337628
 51
270.0000679232589
  0
LINE
  5
604
330
5E9
100
AcDbEntity
  8
0
  6
Continuous
 62
     7
370
    15
100
AcDbLine
 10
2270.618808281473
 20
798.6344813572458
 30
0.0
 11
2270.270970934787
 21
798.6344808933185
 31
0.0
  0
ARC
  5
605
330
5E9
100
AcDbEntity
  8
0
  6
Continuous
 62
     7
370
    15
100
AcDbCircle
 10
2270.618808281473
 20
798.4344813572501
 30
0.0
 40
0.1999999999998596
100
AcDbArc
 50
0.0005433847882304
 51
90.0
  0
LINE
  5
606
330
5E9
100
AcDbEntity
  8
0
  6
Continuous
 62
     7
370
    15
100
AcDbLine
 10
2270.818808281464
 20
798.4344832540208
 30
0.0
 11
2270.818862922434
 21
792.6730095783214
 31
0.0
  0
LINE
  5
607
330
5E9
100
AcDbEntity
  8
0
  6
Continuous
 62
     7
370
    15
100
AcDbLine
 10
2268.12319534212
 20
792.6729840129994
 30
0.0
 11
2270.818862922434
 21
792.6730095783214
 31
0.0
  0
LINE
  5
608
330
5E9
100
AcDbEntity
  8
0
  6
Continuous
 62
     7
370
    15
100
AcDbLine
 10
2268.12319534212
 20
792.6729840129994
 30
0.0
 11
2268.123140701069
 21
798.4344633790128
 31
0.0
  0
ARC
  5
609
330
5E9
100
AcDbEntity
  8
0
  6
Continuous
 62
     7
370
    15
100
AcDbCircle
 10
2268.323140701067
 20
798.4344643273986
 30
0.0
 40
0.2000004639176877
100
AcDbArc
 50
90.00006792198224
 51
180.0002716925211
  0
LINE
  5
60A
330
5E9
100
AcDbEntity
  8
0
  6
Continuous
 62
     7
370
    15
100
AcDbLine
 10
2268.670970934861
 20
798.6344652552272
 30
0.0
 11
2268.323140463974
 21
798.6344647913161
 31
0.0
  0
ARC
  5
60B
330
5E9
100
AcDbEntity
  8
0
  6
Continuous
 62
     7
370
    15
100
AcDbCircle
 10
2268.670970697764
 20
798.8344652552216
 30
0.0
 40
0.1999999999945727
100
AcDbArc
 50
270.0000679231026
 51
0.0001358535331959
  0
LINE
  5
60C
330
5E9
100
AcDbEntity
  8
0
  6
Continuous
 62
     7
370
    15
100
AcDbLine
 10
2268.870963521054
 20
799.5911951830729
 30
0.0
 11
2268.87096710941
 21
798.8344657294314
 31
0.0
  0
LINE
  5
60D
330
5E9
100
AcDbEntity
  8
0
  6
Continuous
 62
     7
370
    15
100
AcDbLine
 10
2270.818862922434
 20
792.6730095783214
 30
0.0
 11
2270.818884874094
 21
790.3583743625179
 31
0.0
  0
LINE
  5
60E
330
5E9
100
AcDbEntity
  8
0
  6
Continuous
 62
     7
370
    15
100
AcDbLine
 10
2270.818884874094
 20
790.3583743625179
 30
0.0
 11
2268.123217293747
 21
790.3583535391237
 31
0.0
  0
LINE
  5
60F
330
5E9
100
AcDbEntity
  8
0
  6
Continuous
 62
     7
370
    15
100
AcDbLine
 10
2268.123217293747
 20
790.3583535391237
 30
0.0
 11
2268.12319534212
 21
792.6729840129994
 31
0.0
  0
LINE
  5
610
330
5E9
100
AcDbEntity
  8
0
  6
Continuous
 62
     7
370
    15
100
AcDbLine
 10
2270.770752030684
 20
806.1211809566094
 30
0.0
 11
2271.020827427583
 21
806.1211809566094
 31
0.0
  0
LINE
  5
611
330
5E9
100
AcDbEntity
  8
0
  6
Continuous
 62
     7
370
    15
100
AcDbLine
 10
2271.020827427583
 20
806.1211809566094
 30
0.0
 11
2270.770739701672
 21
804.821180956668
 31
0.0
  0
LINE
  5
612
330
5E9
100
AcDbEntity
  8
0
  6
Continuous
 62
     7
370
    15
100
AcDbLine
 10
2267.920827427583
 20
806.1211809566094
 30
0.0
 11
2268.170902824483
 21
806.1211809566094
 31
0.0
  0
LINE
  5
613
330
5E9
100
AcDbEntity
  8
0
  6
Continuous
 62
     7
370
    15
100
AcDbLine
 10
2268.170915153495
 20
804.8211809566682
 30
0.0
 11
2267.920827427583
 21
806.1211809566094
 31
0.0
  0
LINE
  5
614
330
5E9
100
AcDbEntity
  8
0
  6
Continuous
 62
     7
370
    15
100
AcDbLine
 10
2268.123220036698
 20
790.0691304013203
 30
0.0
 11
2270.818887617044
 21
790.0691512247146
 31
0.0
  0
LINE
  5
615
330
5E9
100
AcDbEntity
  8
0
  6
Continuous
 62
     7
370
    15
100
AcDbLine
 10
2270.818887617044
 20
790.0691512247146
 30
0.0
 11
2270.818884874094
 21
790.3583743625179
 31
0.0
  0
LINE
  5
616
330
5E9
100
AcDbEntity
  8
0
  6
Continuous
 62
     7
370
    15
100
AcDbLine
 10
2268.123217293747
 20
790.3583535391237
 30
0.0
 11
2268.123220036698
 21
790.0691304013203
 31
0.0
  0
ENDBLK
  5
5EB
330
5E9
100
AcDbEntity
  8
0
100
AcDbBlockEnd
  0
BLOCK
  5
619
330
618
100
AcDbEntity
  8
0
100
AcDbBlockBegin
  2
3
 70
     0
 10
0.0
 20
0.0
 30
0.0
  3
3
  1

  0
LINE
  5
61B
330
618
100
AcDbEntity
  8
0
  6
Continuous
 62
     7
370
    15
100
AcDbLine
 10
2283.322464557241
 20
776.7218034285035
 30
0.0
 11
2309.622464557186
 21
776.7218034285035
 31
0.0
  0
LINE
  5
61C
330
618
100
AcDbEntity
  8
0
  6
Continuous
 62
     7
370
    15
100
AcDbLine
 10
2309.622464557186
 20
772.5218034283138
 30
0.0
 11
2309.622464557186
 21
776.7218034285035
 31
0.0
  0
LINE
  5
61D
330
618
100
AcDbEntity
  8
0
  6
Continuous
 62
     7
370
    15
100
AcDbLine
 10
2309.622464557186
 20
772.5218034283138
 30
0.0
 11
2283.322464557241
 21
772.5218034283138
 31
0.0
  0
LINE
  5
61E
330
618
100
AcDbEntity
  8
0
  6
Continuous
 62
     7
370
    15
100
AcDbLine
 10
2283.322464557241
 20
776.7218034285035
 30
0.0
 11
2283.322464557241
 21
772.5218034283138
 31
0.0
  0
ENDBLK
  5
61A
330
618
100
AcDbEntity
  8
0
100
AcDbBlockEnd
  0
BLOCK
  5
621
330
620
100
AcDbEntity
  8
0
100
AcDbBlockBegin
  2
4
 70
     0
 10
0.0
 20
0.0
 30
0.0
  3
4
  1

  0
LINE
  5
623
330
620
100
AcDbEntity
  8
0
  6
Continuous
 62
     7
370
    15
100
AcDbLine
 10
2329.174431717111
 20
798.1768498847486
 30
0.0
 11
2328.687056192283
 21
797.8954939830945
 31
0.0
  0
LINE
  5
624
330
620
100
AcDbEntity
  8
0
  6
Continuous
 62
     7
370
    15
100
AcDbLine
 10
2328.917703035063
 20
791.2141131079761
 30
0.0
 11
2330.823829537459
 21
790.1137126972926
 31
0.0
  0
LINE
  5
625
330
620
100
AcDbEntity
  8
0
  6
Continuous
 62
     7
370
    15
100
AcDbLine
 10
2333.91204715106
 20
800.9118170593549
 30
0.0
 11
2333.424671626233
 21
800.6304611577006
 31
0.0
  0
LINE
  5
626
330
620
100
AcDbEntity
  8
0
  6
Continuous
 62
     7
370
    15
100
AcDbLine
 10
2333.655318469013
 20
793.9490802825821
 30
0.0
 11
2335.561444971409
 21
792.8486798718986
 31
0.0
  0
LINE
  5
627
330
620
100
AcDbEntity
  8
0
  6
Continuous
 62
     7
370
    15
100
AcDbLine
 10
2338.649662585011
 20
803.6467842339591
 30
0.0
 11
2338.162287060183
 21
803.3654283323048
 31
0.0
  0
LINE
  5
628
330
620
100
AcDbEntity
  8
0
  6
Continuous
 62
     7
370
    15
100
AcDbLine
 10
2338.392933902963
 20
796.6840474571864
 30
0.0
 11
2340.299060405359
 21
795.583647046503
 31
0.0
  0
LINE
  5
629
330
620
100
AcDbEntity
  8
0
  6
Continuous
 62
     7
370
    15
100
AcDbLine
 10
2343.38727801896
 20
806.3817514085634
 30
0.0
 11
2342.899902494132
 21
806.1003955069093
 31
0.0
  0
LINE
  5
62A
330
620
100
AcDbEntity
  8
0
  6
Continuous
 62
     7
370
    15
100
AcDbLine
 10
2343.130549336913
 20
799.4190146317909
 30
0.0
 11
2345.036675839309
 21
798.3186142211073
 31
0.0
  0
LINE
  5
62B
330
620
100
AcDbEntity
  8
0
  6
Continuous
 62
     7
370
    15
100
AcDbLine
 10
2326.982498021428
 20
810.2258117088135
 30
0.0
 11
2345.579406366594
 21
820.9615783792569
 31
0.0
  0
LINE
  5
62C
330
620
100
AcDbEntity
  8
0
  6
Continuous
 62
     7
370
    15
100
AcDbLine
 10
2348.549254847712
 20
819.2470888197386
 30
0.0
 11
2345.579406366594
 21
820.9615783792569
 31
0.0
  0
LINE
  5
62D
330
620
100
AcDbEntity
  8
0
  6
Continuous
 62
     7
370
    15
100
AcDbLine
 10
2348.549254847712
 20
819.2470888197386
 30
0.0
 11
2329.952346502545
 21
808.5113221492957
 31
0.0
  0
LINE
  5
62E
330
620
100
AcDbEntity
  8
0
  6
Continuous
 62
     7
370
    15
100
AcDbLine
 10
2326.982498021428
 20
810.2258117088135
 30
0.0
 11
2329.952346502545
 21
808.5113221492957
 31
0.0
  0
LINE
  5
62F
330
620
100
AcDbEntity
  8
0
  6
Continuous
 62
     7
370
    15
100
AcDbLine
 10
2329.952337784617
 20
807.4498241266427
 30
0.0
 11
2329.386652359692
 21
807.7763935665217
 31
0.0
  0
LINE
  5
630
330
620
100
AcDbEntity
  8
0
  6
Continuous
 62
     7
370
    15
100
AcDbLine
 10
2329.386652359692
 20
807.7763935665217
 30
0.0
 11
2329.386621860521
 21
804.0628036944465
 31
0.0
  0
LINE
  5
631
330
620
100
AcDbEntity
  8
0
  6
Continuous
 62
     7
370
    15
100
AcDbLine
 10
2329.386621860521
 20
804.0628036944465
 30
0.0
 11
2327.548222663883
 21
805.1240688271526
 31
0.0
  0
LINE
  5
632
330
620
100
AcDbEntity
  8
0
  6
Continuous
 62
     7
370
    15
100
AcDbLine
 10
2327.548222663883
 20
805.1240688271526
 30
0.0
 11
2327.548192164547
 21
808.8377140463379
 31
0.0
  0
LINE
  5
633
330
620
100
AcDbEntity
  8
0
  6
Continuous
 62
     7
370
    15
100
AcDbLine
 10
2327.548192164547
 20
808.8377140463379
 30
0.0
 11
2326.982506739623
 21
809.1642710958879
 31
0.0
  0
LINE
  5
634
330
620
100
AcDbEntity
  8
0
  6
Continuous
 62
     7
370
    15
100
AcDbLine
 10
2326.982506739623
 20
809.1642710958879
 30
0.0
 11
2326.982498021428
 21
810.2258117088135
 31
0.0
  0
LINE
  5
635
330
620
100
AcDbEntity
  8
0
  6
Continuous
 62
     7
370
    15
100
AcDbLine
 10
2329.952346502545
 20
808.5113221492957
 30
0.0
 11
2329.952337784617
 21
807.4498241266427
 31
0.0
  0
LINE
  5
636
330
620
100
AcDbEntity
  8
0
  6
Continuous
 62
     7
370
    15
100
AcDbLine
 10
2348.549246129784
 20
818.1855907970868
 30
0.0
 11
2348.549254847712
 21
819.2470888197386
 31
0.0
  0
LINE
  5
637
330
620
100
AcDbEntity
  8
0
  6
Continuous
 62
     7
370
    15
100
AcDbLine
 10
2329.952337784617
 20
807.4498241266427
 30
0.0
 11
2348.549246129784
 21
818.1855907970868
 31
0.0
  0
LINE
  5
638
330
620
100
AcDbEntity
  8
0
  6
Continuous
 62
     7
370
    15
100
AcDbLine
 10
2346.675368564099
 20
812.3270058837977
 30
0.0
 11
2344.907601611132
 21
811.3064957440194
 31
0.0
  0
LINE
  5
639
330
620
100
AcDbEntity
  8
0
  6
Continuous
 62
     7
370
    15
100
AcDbLine
 10
2344.907601611132
 20
811.3064957440194
 30
0.0
 11
2344.907592893204
 21
810.2449977213687
 31
0.0
  0
LINE
  5
63A
330
620
100
AcDbEntity
  8
0
  6
Continuous
 62
     7
370
    15
100
AcDbLine
 10
2346.67535984617
 20
811.2655078611471
 30
0.0
 11
2344.907592893204
 21
810.2449977213687
 31
0.0
  0
LINE
  5
63B
330
620
100
AcDbEntity
  8
0
  6
Continuous
 62
     7
370
    15
100
AcDbLine
 10
2332.462522262249
 20
804.1221043599829
 30
0.0
 11
2330.694755309283
 21
803.1015942202046
 31
0.0
  0
LINE
  5
63C
330
620
100
AcDbEntity
  8
0
  6
Continuous
 62
     7
370
    15
100
AcDbLine
 10
2330.694755309283
 20
803.1015942202046
 30
0.0
 11
2330.694746591355
 21
802.0400961975539
 31
0.0
  0
LINE
  5
63D
330
620
100
AcDbEntity
  8
0
  6
Continuous
 62
     7
370
    15
100
AcDbLine
 10
2332.462513544321
 20
803.0606063373323
 30
0.0
 11
2330.694746591355
 21
802.0400961975539
 31
0.0
  0
LINE
  5
63E
330
620
100
AcDbEntity
  8
0
  6
Continuous
 62
     7
370
    15
100
AcDbLine
 10
2337.200137696199
 20
806.857071534589
 30
0.0
 11
2335.432370743232
 21
805.8365613948106
 31
0.0
  0
LINE
  5
63F
330
620
100
AcDbEntity
  8
0
  6
Continuous
 62
     7
370
    15
100
AcDbLine
 10
2335.432370743232
 20
805.8365613948106
 30
0.0
 11
2335.432362025304
 21
804.77506337216
 31
0.0
  0
LINE
  5
640
330
620
100
AcDbEntity
  8
0
  6
Continuous
 62
     7
370
    15
100
AcDbLine
 10
2337.20012897827
 20
805.7955735119383
 30
0.0
 11
2335.432362025304
 21
804.77506337216
 31
0.0
  0
LINE
  5
641
330
620
100
AcDbEntity
  8
0
  6
Continuous
 62
     7
370
    15
100
AcDbLine
 10
2341.937753130149
 20
809.5920387091933
 30
0.0
 11
2340.169986177182
 21
808.5715285694149
 31
0.0
  0
LINE
  5
642
330
620
100
AcDbEntity
  8
0
  6
Continuous
 62
     7
370
    15
100
AcDbLine
 10
2340.169986177182
 20
808.5715285694149
 30
0.0
 11
2340.169977459254
 21
807.5100305467643
 31
0.0
  0
LINE
  5
643
330
620
100
AcDbEntity
  8
0
  6
Continuous
 62
     7
370
    15
100
AcDbLine
 10
2341.93774441222
 20
808.5305406865426
 30
0.0
 11
2340.169977459254
 21
807.5100305467643
 31
0.0
  0
LINE
  5
644
330
620
100
AcDbEntity
  8
0
  6
Continuous
 62
     7
370
    15
100
AcDbLine
 10
2342.432695701191
 20
805.8538931977304
 30
0.0
 11
2342.715541096081
 21
806.3437895962541
 31
0.0
  0
LINE
  5
645
330
620
100
AcDbEntity
  8
0
  6
Continuous
 62
     7
370
    15
100
AcDbLine
 10
2342.432695701191
 20
805.8538931977304
 30
0.0
 11
2342.43268764046
 21
804.8724157952229
 31
0.0
  0
LINE
  5
646
330
620
100
AcDbEntity
  8
0
  6
Continuous
 62
     7
370
    15
100
AcDbLine
 10
2339.674971193785
 20
803.2804199771417
 30
0.0
 11
2342.43268764046
 21
804.8724157952229
 31
0.0
  0
LINE
  5
647
330
620
100
AcDbEntity
  8
0
  6
Continuous
 62
     7
370
    15
100
AcDbLine
 10
2339.674971193785
 20
803.2804199771417
 30
0.0
 11
2339.674979254516
 21
804.2618973796489
 31
0.0
  0
LINE
  5
648
330
620
100
AcDbEntity
  8
0
  6
Continuous
 62
     7
370
    15
100
AcDbLine
 10
2339.392139224505
 20
804.4252305334708
 30
0.0
 11
2339.674979254516
 21
804.2618973796489
 31
0.0
  0
LINE
  5
649
330
620
100
AcDbEntity
  8
0
  6
Continuous
 62
     7
370
    15
100
AcDbLine
 10
2339.392139224505
 20
804.4252305334708
 30
0.0
 11
2339.392182814311
 21
809.838891085592
 31
0.0
  0
LINE
  5
64A
330
620
100
AcDbEntity
  8
0
  6
Continuous
 62
     7
370
    15
100
AcDbLine
 10
2337.977969251938
 20
809.0224829737806
 30
0.0
 11
2339.392182814311
 21
809.838891085592
 31
0.0
  0
LINE
  5
64B
330
620
100
AcDbEntity
  8
0
  6
Continuous
 62
     7
370
    15
100
AcDbLine
 10
2337.977969251938
 20
809.0224829737806
 30
0.0
 11
2337.977925662132
 21
803.6088224216499
 31
0.0
  0
LINE
  5
64C
330
620
100
AcDbEntity
  8
0
  6
Continuous
 62
     7
370
    15
100
AcDbLine
 10
2337.695080267241
 20
803.118926023126
 30
0.0
 11
2337.977925662132
 21
803.6088224216499
 31
0.0
  0
LINE
  5
64D
330
620
100
AcDbEntity
  8
0
  6
Continuous
 62
     7
370
    15
100
AcDbLine
 10
2337.695080267241
 20
803.118926023126
 30
0.0
 11
2337.695072206511
 21
802.1374486206187
 31
0.0
  0
LINE
  5
64E
330
620
100
AcDbEntity
  8
0
  6
Continuous
 62
     7
370
    15
100
AcDbLine
 10
2334.937355759836
 20
800.5454528025374
 30
0.0
 11
2337.695072206511
 21
802.1374486206187
 31
0.0
  0
LINE
  5
64F
330
620
100
AcDbEntity
  8
0
  6
Continuous
 62
     7
370
    15
100
AcDbLine
 10
2334.937355759836
 20
800.5454528025374
 30
0.0
 11
2334.937363820567
 21
801.5269302050448
 31
0.0
  0
LINE
  5
650
330
620
100
AcDbEntity
  8
0
  6
Continuous
 62
     7
370
    15
100
AcDbLine
 10
2334.654523790555
 20
801.6902633588667
 30
0.0
 11
2334.937363820567
 21
801.5269302050448
 31
0.0
  0
LINE
  5
651
330
620
100
AcDbEntity
  8
0
  6
Continuous
 62
     7
370
    15
100
AcDbLine
 10
2334.654523790555
 20
801.6902633588667
 30
0.0
 11
2334.654567380361
 21
807.1039239109879
 31
0.0
  0
LINE
  5
652
330
620
100
AcDbEntity
  8
0
  6
Continuous
 62
     7
370
    15
100
AcDbLine
 10
2334.654567380361
 20
807.1039239109879
 30
0.0
 11
2333.240353817988
 21
806.2875158248466
 31
0.0
  0
LINE
  5
653
330
620
100
AcDbEntity
  8
0
  6
Continuous
 62
     7
370
    15
100
AcDbLine
 10
2333.240353817988
 20
806.2875158248466
 30
0.0
 11
2333.240310228182
 21
800.8738552470438
 31
0.0
  0
LINE
  5
654
330
620
100
AcDbEntity
  8
0
  6
Continuous
 62
     7
370
    15
100
AcDbLine
 10
2333.240310228182
 20
800.8738552470438
 30
0.0
 11
2332.957464833291
 21
800.3839588485201
 31
0.0
  0
LINE
  5
655
330
620
100
AcDbEntity
  8
0
  6
Continuous
 62
     7
370
    15
100
AcDbLine
 10
2332.957456772561
 20
799.4024814460127
 30
0.0
 11
2332.957464833291
 21
800.3839588485201
 31
0.0
  0
LINE
  5
656
330
620
100
AcDbEntity
  8
0
  6
Continuous
 62
     7
370
    15
100
AcDbLine
 10
2330.199740325886
 20
797.8104856279315
 30
0.0
 11
2332.957456772561
 21
799.4024814460127
 31
0.0
  0
LINE
  5
657
330
620
100
AcDbEntity
  8
0
  6
Continuous
 62
     7
370
    15
100
AcDbLine
 10
2330.199740325886
 20
797.8104856279315
 30
0.0
 11
2330.199748386617
 21
798.7919630304386
 31
0.0
  0
LINE
  5
658
330
620
100
AcDbEntity
  8
0
  6
Continuous
 62
     7
370
    15
100
AcDbLine
 10
2329.916908356605
 20
798.9552961842606
 30
0.0
 11
2330.199748386617
 21
798.7919630304386
 31
0.0
  0
LINE
  5
659
330
620
100
AcDbEntity
  8
0
  6
Continuous
 62
     7
370
    15
100
AcDbLine
 10
2329.916908356605
 20
798.9552961842606
 30
0.0
 11
2329.916951946411
 21
804.3689567363822
 31
0.0
  0
LINE
  5
65A
330
620
100
AcDbEntity
  8
0
  6
Continuous
 62
     7
370
    15
100
AcDbLine
 10
2329.916951946411
 20
804.3689567363822
 30
0.0
 11
2329.386621860521
 21
804.0628036944465
 31
0.0
  0
LINE
  5
65B
330
620
100
AcDbEntity
  8
0
  6
Continuous
 62
     7
370
    15
100
AcDbLine
 10
2347.983530205689
 20
814.7985703649004
 30
0.0
 11
2347.983555340751
 21
817.859024455738
 31
0.0
  0
LINE
  5
65C
330
620
100
AcDbEntity
  8
0
  6
Continuous
 62
     7
370
    15
100
AcDbLine
 10
2347.453200119838
 20
814.4924173229894
 30
0.0
 11
2347.983530205689
 21
814.7985703649004
 31
0.0
  0
LINE
  5
65D
330
620
100
AcDbEntity
  8
0
  6
Continuous
 62
     7
370
    15
100
AcDbLine
 10
2347.453200119838
 20
814.4924173229894
 30
0.0
 11
2347.453156530031
 21
809.0787567708586
 31
0.0
  0
LINE
  5
65E
330
620
100
AcDbEntity
  8
0
  6
Continuous
 62
     7
370
    15
100
AcDbLine
 10
2347.17031113514
 20
808.5888603723347
 30
0.0
 11
2347.453156530031
 21
809.0787567708586
 31
0.0
  0
LINE
  5
65F
330
620
100
AcDbEntity
  8
0
  6
Continuous
 62
     7
370
    15
100
AcDbLine
 10
2347.17031113514
 20
808.5888603723347
 30
0.0
 11
2347.17030307441
 21
807.6073829698273
 31
0.0
  0
LINE
  5
660
330
620
100
AcDbEntity
  8
0
  6
Continuous
 62
     7
370
    15
100
AcDbLine
 10
2344.412586627735
 20
806.0153871517462
 30
0.0
 11
2347.17030307441
 21
807.6073829698273
 31
0.0
  0
LINE
  5
661
330
620
100
AcDbEntity
  8
0
  6
Continuous
 62
     7
370
    15
100
AcDbLine
 10
2344.412586627735
 20
806.0153871517462
 30
0.0
 11
2344.412594688466
 21
806.9968645542534
 31
0.0
  0
LINE
  5
662
330
620
100
AcDbEntity
  8
0
  6
Continuous
 62
     7
370
    15
100
AcDbLine
 10
2344.129754658455
 20
807.1601977080755
 30
0.0
 11
2344.412594688466
 21
806.9968645542534
 31
0.0
  0
LINE
  5
663
330
620
100
AcDbEntity
  8
0
  6
Continuous
 62
     7
370
    15
100
AcDbLine
 10
2344.129754658455
 20
807.1601977080755
 30
0.0
 11
2344.12979824826
 21
812.5738582601965
 31
0.0
  0
LINE
  5
664
330
620
100
AcDbEntity
  8
0
  6
Continuous
 62
     7
370
    15
100
AcDbLine
 10
2342.715584685888
 20
811.7574501483851
 30
0.0
 11
2344.12979824826
 21
812.5738582601965
 31
0.0
  0
LINE
  5
665
330
620
100
AcDbEntity
  8
0
  6
Continuous
 62
     7
370
    15
100
AcDbLine
 10
2342.715584685888
 20
811.7574501483851
 30
0.0
 11
2342.715541096081
 21
806.3437895962541
 31
0.0
  0
LINE
  5
666
330
620
100
AcDbEntity
  8
0
  6
Continuous
 62
     7
370
    15
100
AcDbLine
 10
2328.078596339248
 20
800.0165512553291
 30
0.0
 11
2329.916908356605
 21
798.9552961842606
 31
0.0
  0
LINE
  5
667
330
620
100
AcDbEntity
  8
0
  6
Continuous
 62
     7
370
    15
100
AcDbLine
 10
2328.078596339248
 20
800.0165512553291
 30
0.0
 11
2328.078557679879
 21
804.8179187471486
 31
0.0
  0
LINE
  5
668
330
620
100
AcDbEntity
  8
0
  6
Continuous
 62
     7
370
    15
100
AcDbLine
 10
2332.639352271204
 20
804.020022568685
 30
0.0
 11
2330.871585318238
 21
802.9995124289067
 31
0.0
  0
LINE
  5
669
330
620
100
AcDbEntity
  8
0
  6
Continuous
 62
     7
370
    15
100
AcDbLine
 10
2332.462513544321
 20
803.0606063373323
 30
0.0
 11
2332.639352271204
 21
804.020022568685
 31
0.0
  0
LINE
  5
66A
330
620
100
AcDbEntity
  8
0
  6
Continuous
 62
     7
370
    15
100
AcDbLine
 10
2330.694746591355
 20
802.0400961975539
 30
0.0
 11
2330.871585318238
 21
802.9995124289067
 31
0.0
  0
LINE
  5
66B
330
620
100
AcDbEntity
  8
0
  6
Continuous
 62
     7
370
    15
100
AcDbLine
 10
2332.639352271204
 20
804.020022568685
 30
0.0
 11
2332.462522262249
 21
804.1221043599829
 31
0.0
  0
LINE
  5
66C
330
620
100
AcDbEntity
  8
0
  6
Continuous
 62
     7
370
    15
100
AcDbLine
 10
2330.871585318238
 20
802.9995124289067
 30
0.0
 11
2330.694755309283
 21
803.1015942202046
 31
0.0
  0
LINE
  5
66D
330
620
100
AcDbEntity
  8
0
  6
Continuous
 62
     7
370
    15
100
AcDbLine
 10
2328.361441734136
 20
799.8532150043719
 30
0.0
 11
2330.199748386617
 21
798.7919630304386
 31
0.0
  0
LINE
  5
66E
330
620
100
AcDbEntity
  8
0
  6
Continuous
 62
     7
370
    15
100
AcDbLine
 10
2328.078596339248
 20
800.0165512553291
 30
0.0
 11
2328.361441734136
 21
799.8532150043719
 31
0.0
  0
LINE
  5
66F
330
620
100
AcDbEntity
  8
0
  6
Continuous
 62
     7
370
    15
100
AcDbLine
 10
2333.240323375383
 20
802.5066793687374
 30
0.0
 11
2334.654523790555
 21
801.6902633588667
 31
0.0
  0
LINE
  5
670
330
620
100
AcDbEntity
  8
0
  6
Continuous
 62
     7
370
    15
100
AcDbLine
 10
2330.129028977184
 20
797.7696531138797
 30
0.0
 11
2328.432145050428
 21
798.7492619372361
 31
0.0
  0
LINE
  5
671
330
620
100
AcDbEntity
  8
0
  6
Continuous
 62
     7
370
    15
100
AcDbLine
 10
2328.361449795034
 20
798.871708162634
 30
0.0
 11
2328.432145050428
 21
798.7492619372361
 31
0.0
  0
LINE
  5
672
330
620
100
AcDbEntity
  8
0
  6
Continuous
 62
     7
370
    15
100
AcDbLine
 10
2330.199740325886
 20
797.8104856279315
 30
0.0
 11
2330.129028977184
 21
797.7696531138797
 31
0.0
  0
LINE
  5
673
330
620
100
AcDbEntity
  8
0
  6
Continuous
 62
     7
370
    15
100
AcDbLine
 10
2328.361441734136
 20
799.8532150043719
 30
0.0
 11
2328.361449795034
 21
798.871708162634
 31
0.0
  0
LINE
  5
674
330
620
100
AcDbEntity
  8
0
  6
Continuous
 62
     7
370
    15
100
AcDbLine
 10
2332.886745423857
 20
799.3616489319609
 30
0.0
 11
2332.957456772561
 21
799.4024814460127
 31
0.0
  0
LINE
  5
675
330
620
100
AcDbEntity
  8
0
  6
Continuous
 62
     7
370
    15
100
AcDbLine
 10
2332.462479343298
 20
799.1166901729867
 30
0.0
 11
2332.886745423857
 21
799.3616489319609
 31
0.0
  0
LINE
  5
676
330
620
100
AcDbEntity
  8
0
  6
Continuous
 62
     7
370
    15
100
AcDbLine
 10
2332.462479343298
 20
799.1166901729867
 30
0.0
 11
2330.129026965351
 21
797.7696167884618
 31
0.0
  0
LINE
  5
677
330
620
100
AcDbEntity
  8
0
  6
Continuous
 62
     7
370
    15
100
AcDbLine
 10
2330.129028977184
 20
797.7696531138797
 30
0.0
 11
2330.129026965351
 21
797.7696167884618
 31
0.0
  0
LINE
  5
678
330
620
100
AcDbEntity
  8
0
  6
Continuous
 62
     7
370
    15
100
AcDbLine
 10
2328.432145050428
 20
798.7492619372361
 30
0.0
 11
2328.856415154805
 21
798.5042938860901
 31
0.0
  0
LINE
  5
679
330
620
100
AcDbEntity
  8
0
  6
Continuous
 62
     7
370
    15
100
AcDbLine
 10
2330.129026965351
 20
797.7696167884618
 30
0.0
 11
2328.856415154805
 21
798.5042938860901
 31
0.0
  0
LINE
  5
67A
330
620
100
AcDbEntity
  8
0
  6
Continuous
 62
     7
370
    15
100
AcDbLine
 10
2330.022955873401
 20
797.3354141582698
 30
0.0
 11
2330.022959942336
 21
797.8308491391098
 31
0.0
  0
ARC
  5
67B
330
620
100
AcDbEntity
  8
0
  6
Continuous
 62
     7
370
    15
100
AcDbCircle
 10
2330.329997889653
 20
797.3493839942578
 30
0.0
 40
0.3073596526245357
100
AcDbArc
 50
182.605053964422
 51
237.3945949214394
  0
LINE
  5
67C
330
620
100
AcDbEntity
  8
0
  6
Continuous
 62
     7
370
    15
100
AcDbLine
 10
2330.410330179001
 20
796.948477650076
 30
0.0
 11
2330.164377061983
 21
797.0904637410844
 31
0.0
  0
ARC
  5
67D
330
620
100
AcDbEntity
  8
0
  6
Continuous
 62
     7
370
    15
100
AcDbCircle
 10
2330.244708493629
 20
796.6895566533885
 30
0.0
 40
0.3073607411353602
100
AcDbArc
 50
2.605308358403744
 51
57.39453491774766
  0
LINE
  5
67E
330
620
100
AcDbEntity
  8
0
  6
Continuous
 62
     7
370
    15
100
AcDbLine
 10
2330.551751535236
 20
796.7035279021256
 30
0.0
 11
2330.551708315588
 21
791.4410891466563
 31
0.0
  0
LINE
  5
67F
330
620
100
AcDbEntity
  8
0
  6
Continuous
 62
     7
370
    15
100
AcDbLine
 10
2328.645583489695
 20
792.5414885894886
 30
0.0
 11
2330.551708315588
 21
791.4410891466563
 31
0.0
  0
LINE
  5
680
330
620
100
AcDbEntity
  8
0
  6
Continuous
 62
     7
370
    15
100
AcDbLine
 10
2328.645583489695
 20
792.5414885894886
 30
0.0
 11
2328.645626709317
 21
797.8039265705882
 31
0.0
  0
ARC
  5
681
330
620
100
AcDbEntity
  8
0
  6
Continuous
 62
     7
370
    15
100
AcDbCircle
 10
2328.731841724189
 20
797.8179102007287
 30
0.0
 40
0.0873416893659031
100
AcDbArc
 50
50.79661220713078
 51
189.2128505995701
  0
LINE
  5
682
330
620
100
AcDbEntity
  8
0
  6
Continuous
 62
     7
370
    15
100
AcDbLine
 10
2329.033006212137
 20
797.7436029996476
 30
0.0
 11
2328.787048233202
 21
797.885591897397
 31
0.0
  0
ARC
  5
683
330
620
100
AcDbEntity
  8
0
  6
Continuous
 62
     7
370
    15
100
AcDbCircle
 10
2329.088215926951
 20
797.8112818363642
 30
0.0
 40
0.0873414995821983
100
AcDbArc
 50
230.7937967307172
 51
9.214821702968382
  0
LINE
  5
684
330
620
100
AcDbEntity
  8
0
  6
Continuous
 62
     7
370
    15
100
AcDbLine
 10
2329.174432307832
 20
798.3207030086163
 30
0.0
 11
2329.17443027337
 21
797.8252684020953
 31
0.0
  0
LINE
  5
685
330
620
100
AcDbEntity
  8
0
  6
Continuous
 62
     7
370
    15
100
AcDbLine
 10
2337.376967705154
 20
806.7549897432911
 30
0.0
 11
2335.609200752188
 21
805.7344796035128
 31
0.0
  0
LINE
  5
686
330
620
100
AcDbEntity
  8
0
  6
Continuous
 62
     7
370
    15
100
AcDbLine
 10
2337.20012897827
 20
805.7955735119383
 30
0.0
 11
2337.376967705154
 21
806.7549897432911
 31
0.0
  0
LINE
  5
687
330
620
100
AcDbEntity
  8
0
  6
Continuous
 62
     7
370
    15
100
AcDbLine
 10
2335.432362025304
 20
804.77506337216
 30
0.0
 11
2335.609200752188
 21
805.7344796035128
 31
0.0
  0
LINE
  5
688
330
620
100
AcDbEntity
  8
0
  6
Continuous
 62
     7
370
    15
100
AcDbLine
 10
2337.376967705154
 20
806.7549897432911
 30
0.0
 11
2337.200137696199
 21
806.857071534589
 31
0.0
  0
LINE
  5
689
330
620
100
AcDbEntity
  8
0
  6
Continuous
 62
     7
370
    15
100
AcDbLine
 10
2335.609200752188
 20
805.7344796035128
 30
0.0
 11
2335.432370743232
 21
805.8365613948106
 31
0.0
  0
LINE
  5
68A
330
620
100
AcDbEntity
  8
0
  6
Continuous
 62
     7
370
    15
100
AcDbLine
 10
2332.144280285903
 20
798.9329977671554
 30
0.0
 11
2332.144278754348
 21
798.5600240868523
 31
0.0
  0
LINE
  5
68B
330
620
100
AcDbEntity
  8
0
  6
Continuous
 62
     7
370
    15
100
AcDbLine
 10
2332.144278754348
 20
798.5600240868523
 30
0.0
 11
2330.022955873401
 21
797.3354141582698
 31
0.0
  0
LINE
  5
68C
330
620
100
AcDbEntity
  8
0
  6
Continuous
 62
     7
370
    15
100
AcDbLine
 10
2330.551751535236
 20
796.7035279021256
 30
0.0
 11
2332.673071878787
 21
797.9281400698543
 31
0.0
  0
LINE
  5
68D
330
620
100
AcDbEntity
  8
0
  6
Continuous
 62
     7
370
    15
100
AcDbLine
 10
2332.531650690201
 20
798.1730900998338
 30
0.0
 11
2330.410330179001
 21
796.948477650076
 31
0.0
  0
ARC
  5
68E
330
620
100
AcDbEntity
  8
0
  6
Continuous
 62
     7
370
    15
100
AcDbCircle
 10
2332.36602977322
 20
797.9141697730089
 30
0.0
 40
0.3073597627939328
100
AcDbArc
 50
2.605139028606397
 51
57.39458829469319
  0
LINE
  5
68F
330
620
100
AcDbEntity
  8
0
  6
Continuous
 62
     7
370
    15
100
AcDbLine
 10
2332.673033241735
 20
793.2236793353686
 30
0.0
 11
2332.673071878787
 21
797.9281400698543
 31
0.0
  0
LINE
  5
690
330
620
100
AcDbEntity
  8
0
  6
Continuous
 62
     7
370
    15
100
AcDbLine
 10
2332.384424658497
 20
791.1670968217959
 30
0.0
 11
2332.673033241735
 21
793.2236793353686
 31
0.0
  0
ARC
  5
691
330
620
100
AcDbEntity
  8
0
  6
Continuous
 62
     7
370
    15
100
AcDbCircle
 10
2331.843304912563
 20
791.2498119425931
 30
0.0
 40
0.5474051247920137
100
AcDbArc
 50
302.9067125961987
 51
351.3090878343827
  0
LINE
  5
692
330
620
100
AcDbEntity
  8
0
  6
Continuous
 62
     7
370
    15
100
AcDbLine
 10
2330.998814620115
 20
790.131040916505
 30
0.0
 11
2332.140695234826
 21
790.7902345640455
 31
0.0
  0
LWPOLYLINE
  5
693
330
620
100
AcDbEntity
  8
0
  6
Continuous
 62
     7
370
    15
100
AcDbPolyline
 90
        9
 70
   128
 43
0.0
 10
2330.998814620115
 20
790.131040916505
 10
2330.955838924384
 20
790.1105733156621
 10
2330.914169094738
 20
790.0994111341264
 10
2330.875071247864
 20
790.097893529135
 10
2330.839733352055
 20
790.1060666123476
 10
2330.809229131394
 20
790.1236820487667
 10
2330.784485441188
 20
790.150204602271
 10
2330.766254105947
 20
790.1848283984922
 10
2330.755089075562
 20
790.2265014109039
  0
LINE
  5
694
330
620
100
AcDbEntity
  8
0
  6
Continuous
 62
     7
370
    15
100
AcDbLine
 10
2330.551708315588
 20
791.4410891466563
 30
0.0
 11
2330.755089075562
 21
790.2265014109039
 31
0.0
  0
LINE
  5
695
330
620
100
AcDbEntity
  8
0
  6
Continuous
 62
     7
370
    15
100
AcDbLine
 10
2332.285697405559
 20
798.3150762876363
 30
0.0
 11
2330.164377061983
 21
797.0904637410844
 31
0.0
  0
LINE
  5
696
330
620
100
AcDbEntity
  8
0
  6
Continuous
 62
     7
370
    15
100
AcDbLine
 10
2332.285697405559
 20
798.3150762876363
 30
0.0
 11
2332.531650690201
 21
798.1730900998338
 31
0.0
  0
ARC
  5
697
330
620
100
AcDbEntity
  8
0
  6
Continuous
 62
     7
370
    15
100
AcDbCircle
 10
2332.451329746005
 20
798.5740001563591
 30
0.0
 40
0.3073689021292471
100
AcDbArc
 50
182.6061386931091
 51
237.3931502392385
  0
LINE
  5
698
330
620
100
AcDbEntity
  8
0
  6
Continuous
 62
     7
370
    15
100
AcDbLine
 10
2333.240323374981
 20
802.5066293865126
 30
0.0
 11
2334.937363820567
 21
801.5269302050448
 31
0.0
  0
LINE
  5
699
330
620
100
AcDbEntity
  8
0
  6
Continuous
 62
     7
370
    15
100
AcDbLine
 10
2337.977938809334
 20
805.2416465433418
 30
0.0
 11
2339.392139224505
 21
804.4252305334708
 31
0.0
  0
LINE
  5
69A
330
620
100
AcDbEntity
  8
0
  6
Continuous
 62
     7
370
    15
100
AcDbLine
 10
2333.240314814842
 20
801.4434981911474
 30
0.0
 11
2334.866644411134
 21
800.5046202884857
 31
0.0
  0
LINE
  5
69B
330
620
100
AcDbEntity
  8
0
  6
Continuous
 62
     7
370
    15
100
AcDbLine
 10
2334.937355759836
 20
800.5454528025374
 30
0.0
 11
2334.866644411134
 21
800.5046202884857
 31
0.0
  0
LINE
  5
69C
330
620
100
AcDbEntity
  8
0
  6
Continuous
 62
     7
370
    15
100
AcDbLine
 10
2337.624360857808
 20
802.0966161065667
 30
0.0
 11
2337.695072206511
 21
802.1374486206187
 31
0.0
  0
LINE
  5
69D
330
620
100
AcDbEntity
  8
0
  6
Continuous
 62
     7
370
    15
100
AcDbLine
 10
2337.200094777248
 20
801.8516573475928
 30
0.0
 11
2337.624360857808
 21
802.0966161065667
 31
0.0
  0
LINE
  5
69E
330
620
100
AcDbEntity
  8
0
  6
Continuous
 62
     7
370
    15
100
AcDbLine
 10
2337.200094777248
 20
801.8516573475928
 30
0.0
 11
2334.866642399301
 21
800.5045839630678
 31
0.0
  0
LINE
  5
69F
330
620
100
AcDbEntity
  8
0
  6
Continuous
 62
     7
370
    15
100
AcDbLine
 10
2334.866644411134
 20
800.5046202884857
 30
0.0
 11
2334.866642399301
 21
800.5045839630678
 31
0.0
  0
LINE
  5
6A0
330
620
100
AcDbEntity
  8
0
  6
Continuous
 62
     7
370
    15
100
AcDbLine
 10
2333.240314814792
 20
801.4434919572719
 30
0.0
 11
2333.594030588754
 21
801.2392610606962
 31
0.0
  0
LINE
  5
6A1
330
620
100
AcDbEntity
  8
0
  6
Continuous
 62
     7
370
    15
100
AcDbLine
 10
2334.866642399301
 20
800.5045839630678
 30
0.0
 11
2333.594030588754
 21
801.2392610606962
 31
0.0
  0
ARC
  5
6A2
330
620
100
AcDbEntity
  8
0
  6
Continuous
 62
     7
370
    15
100
AcDbCircle
 10
2334.982323927578
 20
799.4245238279945
 30
0.0
 40
0.3073607411354271
100
AcDbArc
 50
2.605308358416758
 51
57.39453491774766
  0
LINE
  5
6A3
330
620
100
AcDbEntity
  8
0
  6
Continuous
 62
     7
370
    15
100
AcDbLine
 10
2335.289366969186
 20
799.4384950767318
 30
0.0
 11
2335.289323749538
 21
794.1760563212625
 31
0.0
  0
LINE
  5
6A4
330
620
100
AcDbEntity
  8
0
  6
Continuous
 62
     7
370
    15
100
AcDbLine
 10
2333.383198923645
 20
795.2764557640947
 30
0.0
 11
2335.289323749538
 21
794.1760563212625
 31
0.0
  0
LINE
  5
6A5
330
620
100
AcDbEntity
  8
0
  6
Continuous
 62
     7
370
    15
100
AcDbLine
 10
2333.383198923645
 20
795.2764557640947
 30
0.0
 11
2333.383242143266
 21
800.5388937451943
 31
0.0
  0
ARC
  5
6A6
330
620
100
AcDbEntity
  8
0
  6
Continuous
 62
     7
370
    15
100
AcDbCircle
 10
2333.469457158139
 20
800.5528773753347
 30
0.0
 40
0.0873416893659421
100
AcDbArc
 50
50.7966122071551
 51
189.2128505995187
  0
LINE
  5
6A7
330
620
100
AcDbEntity
  8
0
  6
Continuous
 62
     7
370
    15
100
AcDbLine
 10
2333.770621646086
 20
800.4785701742534
 30
0.0
 11
2333.524663667152
 21
800.620559072003
 31
0.0
  0
ARC
  5
6A8
330
620
100
AcDbEntity
  8
0
  6
Continuous
 62
     7
370
    15
100
AcDbCircle
 10
2333.825831360901
 20
800.5462490109703
 30
0.0
 40
0.0873414995821983
100
AcDbArc
 50
230.7937967307132
 51
9.214821702968382
  0
LINE
  5
6A9
330
620
100
AcDbEntity
  8
0
  6
Continuous
 62
     7
370
    15
100
AcDbLine
 10
2333.912047741781
 20
801.0556701832225
 30
0.0
 11
2333.91204570732
 21
800.5602355767011
 31
0.0
  0
LINE
  5
6AA
330
620
100
AcDbEntity
  8
0
  6
Continuous
 62
     7
370
    15
100
AcDbLine
 10
2334.760571307351
 20
800.0703813328758
 30
0.0
 11
2334.760575376286
 21
800.5658163137161
 31
0.0
  0
ARC
  5
6AB
330
620
100
AcDbEntity
  8
0
  6
Continuous
 62
     7
370
    15
100
AcDbCircle
 10
2335.067613323603
 20
800.0843511688643
 30
0.0
 40
0.30735965262515
100
AcDbArc
 50
182.6050539644947
 51
237.3945949214104
  0
LINE
  5
6AC
330
620
100
AcDbEntity
  8
0
  6
Continuous
 62
     7
370
    15
100
AcDbLine
 10
2335.147945612951
 20
799.6834448246821
 30
0.0
 11
2334.901992495933
 21
799.8254309156903
 31
0.0
  0
LINE
  5
6AD
330
620
100
AcDbEntity
  8
0
  6
Continuous
 62
     7
370
    15
100
AcDbLine
 10
2340.346816186138
 20
808.469446778117
 30
0.0
 11
2340.169986177182
 21
808.5715285694149
 31
0.0
  0
LINE
  5
6AE
330
620
100
AcDbEntity
  8
0
  6
Continuous
 62
     7
370
    15
100
AcDbLine
 10
2340.169977459254
 20
807.5100305467643
 30
0.0
 11
2340.346816186138
 21
808.469446778117
 31
0.0
  0
LINE
  5
6AF
330
620
100
AcDbEntity
  8
0
  6
Continuous
 62
     7
370
    15
100
AcDbLine
 10
2342.114583139104
 20
809.4899569178954
 30
0.0
 11
2341.937753130149
 21
809.5920387091933
 31
0.0
  0
LINE
  5
6B0
330
620
100
AcDbEntity
  8
0
  6
Continuous
 62
     7
370
    15
100
AcDbLine
 10
2342.114583139104
 20
809.4899569178954
 30
0.0
 11
2340.346816186138
 21
808.469446778117
 31
0.0
  0
LINE
  5
6B1
330
620
100
AcDbEntity
  8
0
  6
Continuous
 62
     7
370
    15
100
AcDbLine
 10
2341.93774441222
 20
808.5305406865426
 30
0.0
 11
2342.114583139104
 21
809.4899569178954
 31
0.0
  0
LINE
  5
6B2
330
620
100
AcDbEntity
  8
0
  6
Continuous
 62
     7
370
    15
100
AcDbLine
 10
2336.881895719856
 20
801.667964941763
 30
0.0
 11
2336.881894188305
 21
801.2949912614626
 31
0.0
  0
LINE
  5
6B3
330
620
100
AcDbEntity
  8
0
  6
Continuous
 62
     7
370
    15
100
AcDbLine
 10
2336.881894188305
 20
801.2949912614626
 30
0.0
 11
2334.760571307351
 21
800.0703813328758
 31
0.0
  0
LINE
  5
6B4
330
620
100
AcDbEntity
  8
0
  6
Continuous
 62
     7
370
    15
100
AcDbLine
 10
2330.755089075562
 20
790.2265014109039
 30
0.0
 11
2328.848964249675
 21
791.3269008537412
 31
0.0
  0
LINE
  5
6B5
330
620
100
AcDbEntity
  8
0
  6
Continuous
 62
     7
370
    15
100
AcDbLine
 10
2328.848964249675
 20
791.3269008537412
 30
0.0
 11
2328.645583489695
 21
792.5414885894886
 31
0.0
  0
LINE
  5
6B6
330
620
100
AcDbEntity
  8
0
  6
Continuous
 62
     7
370
    15
100
AcDbLine
 10
2335.289366969186
 20
799.4384950767318
 30
0.0
 11
2337.410687312738
 21
800.663107244461
 31
0.0
  0
LINE
  5
6B7
330
620
100
AcDbEntity
  8
0
  6
Continuous
 62
     7
370
    15
100
AcDbLine
 10
2337.269266124151
 20
800.90805727444
 30
0.0
 11
2335.147945612951
 21
799.6834448246821
 31
0.0
  0
ARC
  5
6B8
330
620
100
AcDbEntity
  8
0
  6
Continuous
 62
     7
370
    15
100
AcDbCircle
 10
2337.103645207166
 20
800.6491369476112
 30
0.0
 40
0.307359762799579
100
AcDbArc
 50
2.60513902938192
 51
57.39458829440791
  0
LINE
  5
6B9
330
620
100
AcDbEntity
  8
0
  6
Continuous
 62
     7
370
    15
100
AcDbLine
 10
2337.410648675679
 20
795.9586465099716
 30
0.0
 11
2337.410687312738
 21
800.663107244461
 31
0.0
  0
LINE
  5
6BA
330
620
100
AcDbEntity
  8
0
  6
Continuous
 62
     7
370
    15
100
AcDbLine
 10
2337.122040092447
 20
793.9020639964017
 30
0.0
 11
2337.410648675679
 21
795.9586465099716
 31
0.0
  0
ARC
  5
6BB
330
620
100
AcDbEntity
  8
0
  6
Continuous
 62
     7
370
    15
100
AcDbCircle
 10
2336.580920346513
 20
793.9847791171992
 30
0.0
 40
0.547405124791804
100
AcDbArc
 50
302.9067125961951
 51
351.3090878343698
  0
LINE
  5
6BC
330
620
100
AcDbEntity
  8
0
  6
Continuous
 62
     7
370
    15
100
AcDbLine
 10
2335.736430054065
 20
792.8660080911106
 30
0.0
 11
2336.878310668776
 21
793.5252017386516
 31
0.0
  0
LWPOLYLINE
  5
6BD
330
620
100
AcDbEntity
  8
0
  6
Continuous
 62
     7
370
    15
100
AcDbPolyline
 90
        9
 70
   128
 43
0.0
 10
2335.736430054065
 20
792.8660080911106
 10
2335.693454358334
 20
792.845540490268
 10
2335.651784528688
 20
792.8343783087321
 10
2335.612686681814
 20
792.8328607037407
 10
2335.577348786005
 20
792.8410337869534
 10
2335.546844565344
 20
792.8586492233725
 10
2335.522100875139
 20
792.8851717768767
 10
2335.503869539896
 20
792.919795573098
 10
2335.492704509512
 20
792.96146858551
  0
LINE
  5
6BE
330
620
100
AcDbEntity
  8
0
  6
Continuous
 62
     7
370
    15
100
AcDbLine
 10
2335.289323749538
 20
794.1760563212625
 30
0.0
 11
2335.492704509512
 21
792.96146858551
 31
0.0
  0
LINE
  5
6BF
330
620
100
AcDbEntity
  8
0
  6
Continuous
 62
     7
370
    15
100
AcDbLine
 10
2337.023312839512
 20
801.0500434622443
 30
0.0
 11
2337.269266124151
 21
800.90805727444
 31
0.0
  0
LINE
  5
6C0
330
620
100
AcDbEntity
  8
0
  6
Continuous
 62
     7
370
    15
100
AcDbLine
 10
2337.023312839512
 20
801.0500434622443
 30
0.0
 11
2334.901992495933
 21
799.8254309156903
 31
0.0
  0
ARC
  5
6C1
330
620
100
AcDbEntity
  8
0
  6
Continuous
 62
     7
370
    15
100
AcDbCircle
 10
2337.188945179982
 20
801.3089673309764
 30
0.0
 40
0.307368902149914
100
AcDbArc
 50
182.6061386942502
 51
237.3931502363873
  0
ARC
  5
6C2
330
620
100
AcDbEntity
  8
0
  6
Continuous
 62
     7
370
    15
100
AcDbCircle
 10
2328.999462738909
 20
791.341282161179
 30
0.0
 40
0.1511840509630862
100
AcDbArc
 50
185.4584856577145
 51
237.2621693261941
  0
LINE
  5
6C3
330
620
100
AcDbEntity
  8
0
  6
Continuous
 62
     7
370
    15
100
AcDbLine
 10
2337.977938808931
 20
805.2415965611167
 30
0.0
 11
2339.674979254516
 21
804.2618973796489
 31
0.0
  0
LINE
  5
6C4
330
620
100
AcDbEntity
  8
0
  6
Continuous
 62
     7
370
    15
100
AcDbLine
 10
2342.715554243283
 20
807.9766137179463
 30
0.0
 11
2344.129754658455
 21
807.1601977080755
 31
0.0
  0
LINE
  5
6C5
330
620
100
AcDbEntity
  8
0
  6
Continuous
 62
     7
370
    15
100
AcDbLine
 10
2337.977930248793
 20
804.1784653657517
 30
0.0
 11
2339.604259845083
 21
803.23958746309
 31
0.0
  0
LINE
  5
6C6
330
620
100
AcDbEntity
  8
0
  6
Continuous
 62
     7
370
    15
100
AcDbLine
 10
2339.674971193785
 20
803.2804199771417
 30
0.0
 11
2339.604259845083
 21
803.23958746309
 31
0.0
  0
LINE
  5
6C7
330
620
100
AcDbEntity
  8
0
  6
Continuous
 62
     7
370
    15
100
AcDbLine
 10
2342.361976291758
 20
804.8315832811708
 30
0.0
 11
2342.43268764046
 21
804.8724157952229
 31
0.0
  0
LINE
  5
6C8
330
620
100
AcDbEntity
  8
0
  6
Continuous
 62
     7
370
    15
100
AcDbLine
 10
2341.937710211198
 20
804.5866245221969
 30
0.0
 11
2342.361976291758
 21
804.8315832811708
 31
0.0
  0
LINE
  5
6C9
330
620
100
AcDbEntity
  8
0
  6
Continuous
 62
     7
370
    15
100
AcDbLine
 10
2341.937710211198
 20
804.5866245221969
 30
0.0
 11
2339.604257833251
 21
803.2395511376721
 31
0.0
  0
LINE
  5
6CA
330
620
100
AcDbEntity
  8
0
  6
Continuous
 62
     7
370
    15
100
AcDbLine
 10
2339.604259845083
 20
803.23958746309
 30
0.0
 11
2339.604257833251
 21
803.2395511376721
 31
0.0
  0
LINE
  5
6CB
330
620
100
AcDbEntity
  8
0
  6
Continuous
 62
     7
370
    15
100
AcDbLine
 10
2337.977930248742
 20
804.1784591318762
 30
0.0
 11
2338.331646022704
 21
803.9742282353007
 31
0.0
  0
LINE
  5
6CC
330
620
100
AcDbEntity
  8
0
  6
Continuous
 62
     7
370
    15
100
AcDbLine
 10
2339.604257833251
 20
803.2395511376721
 30
0.0
 11
2338.331646022704
 21
803.9742282353007
 31
0.0
  0
ARC
  5
6CD
330
620
100
AcDbEntity
  8
0
  6
Continuous
 62
     7
370
    15
100
AcDbCircle
 10
2339.719939361528
 20
802.1594910025989
 30
0.0
 40
0.307360741135535
100
AcDbArc
 50
2.605308358423266
 51
57.39453491774415
  0
LINE
  5
6CE
330
620
100
AcDbEntity
  8
0
  6
Continuous
 62
     7
370
    15
100
AcDbLine
 10
2340.026982403136
 20
802.173462251336
 30
0.0
 11
2340.026939183487
 21
796.9110234958667
 31
0.0
  0
LINE
  5
6CF
330
620
100
AcDbEntity
  8
0
  6
Continuous
 62
     7
370
    15
100
AcDbLine
 10
2338.120814357595
 20
798.0114229386989
 30
0.0
 11
2340.026939183487
 21
796.9110234958667
 31
0.0
  0
LINE
  5
6D0
330
620
100
AcDbEntity
  8
0
  6
Continuous
 62
     7
370
    15
100
AcDbLine
 10
2338.120814357595
 20
798.0114229386989
 30
0.0
 11
2338.120857577216
 21
803.2738609197984
 31
0.0
  0
ARC
  5
6D1
330
620
100
AcDbEntity
  8
0
  6
Continuous
 62
     7
370
    15
100
AcDbCircle
 10
2338.207072592089
 20
803.2878445499388
 30
0.0
 40
0.087341689366052
100
AcDbArc
 50
50.79661220722843
 51
189.2128505994994
  0
LINE
  5
6D2
330
620
100
AcDbEntity
  8
0
  6
Continuous
 62
     7
370
    15
100
AcDbLine
 10
2338.508237080036
 20
803.2135373488577
 30
0.0
 11
2338.262279101101
 21
803.3555262466073
 31
0.0
  0
ARC
  5
6D3
330
620
100
AcDbEntity
  8
0
  6
Continuous
 62
     7
370
    15
100
AcDbCircle
 10
2338.563446794851
 20
803.2812161855744
 30
0.0
 40
0.0873414995822441
100
AcDbArc
 50
230.7937967307906
 51
9.214821702936234
  0
LINE
  5
6D4
330
620
100
AcDbEntity
  8
0
  6
Continuous
 62
     7
370
    15
100
AcDbLine
 10
2338.649663175731
 20
803.7906373578264
 30
0.0
 11
2338.649661141269
 21
803.2952027513054
 31
0.0
  0
LINE
  5
6D5
330
620
100
AcDbEntity
  8
0
  6
Continuous
 62
     7
370
    15
100
AcDbLine
 10
2339.498186741301
 20
802.8053485074801
 30
0.0
 11
2339.498190810236
 21
803.3007834883203
 31
0.0
  0
ARC
  5
6D6
330
620
100
AcDbEntity
  8
0
  6
Continuous
 62
     7
370
    15
100
AcDbCircle
 10
2339.805228757553
 20
802.8193183434684
 30
0.0
 40
0.3073596526249797
100
AcDbArc
 50
182.6050539644947
 51
237.3945949214104
  0
LINE
  5
6D7
330
620
100
AcDbEntity
  8
0
  6
Continuous
 62
     7
370
    15
100
AcDbLine
 10
2339.885561046901
 20
802.4184119992865
 30
0.0
 11
2339.639607929883
 21
802.5603980902946
 31
0.0
  0
LINE
  5
6D8
330
620
100
AcDbEntity
  8
0
  6
Continuous
 62
     7
370
    15
100
AcDbLine
 10
2346.852198573054
 20
812.2249240924999
 30
0.0
 11
2345.084431620088
 21
811.2044139527215
 31
0.0
  0
LINE
  5
6D9
330
620
100
AcDbEntity
  8
0
  6
Continuous
 62
     7
370
    15
100
AcDbLine
 10
2346.67535984617
 20
811.2655078611471
 30
0.0
 11
2346.852198573054
 21
812.2249240924999
 31
0.0
  0
LINE
  5
6DA
330
620
100
AcDbEntity
  8
0
  6
Continuous
 62
     7
370
    15
100
AcDbLine
 10
2344.907592893204
 20
810.2449977213687
 30
0.0
 11
2345.084431620088
 21
811.2044139527215
 31
0.0
  0
LINE
  5
6DB
330
620
100
AcDbEntity
  8
0
  6
Continuous
 62
     7
370
    15
100
AcDbLine
 10
2346.852198573054
 20
812.2249240924999
 30
0.0
 11
2346.675368564099
 21
812.3270058837977
 31
0.0
  0
LINE
  5
6DC
330
620
100
AcDbEntity
  8
0
  6
Continuous
 62
     7
370
    15
100
AcDbLine
 10
2345.084431620088
 20
811.2044139527215
 30
0.0
 11
2344.907601611132
 21
811.3064957440194
 31
0.0
  0
LINE
  5
6DD
330
620
100
AcDbEntity
  8
0
  6
Continuous
 62
     7
370
    15
100
AcDbLine
 10
2341.619511153806
 20
804.4029321163673
 30
0.0
 11
2341.619509622255
 21
804.0299584360665
 31
0.0
  0
LINE
  5
6DE
330
620
100
AcDbEntity
  8
0
  6
Continuous
 62
     7
370
    15
100
AcDbLine
 10
2341.619509622255
 20
804.0299584360665
 30
0.0
 11
2339.498186741301
 21
802.8053485074801
 31
0.0
  0
LINE
  5
6DF
330
620
100
AcDbEntity
  8
0
  6
Continuous
 62
     7
370
    15
100
AcDbLine
 10
2335.492704509512
 20
792.96146858551
 30
0.0
 11
2333.586579683624
 21
794.0618680283472
 31
0.0
  0
LINE
  5
6E0
330
620
100
AcDbEntity
  8
0
  6
Continuous
 62
     7
370
    15
100
AcDbLine
 10
2333.586579683624
 20
794.0618680283472
 30
0.0
 11
2333.383198923645
 21
795.2764557640947
 31
0.0
  0
LINE
  5
6E1
330
620
100
AcDbEntity
  8
0
  6
Continuous
 62
     7
370
    15
100
AcDbLine
 10
2340.026982403136
 20
802.173462251336
 30
0.0
 11
2342.148302746688
 21
803.3980744190653
 31
0.0
  0
LINE
  5
6E2
330
620
100
AcDbEntity
  8
0
  6
Continuous
 62
     7
370
    15
100
AcDbLine
 10
2342.006881558101
 20
803.6430244490443
 30
0.0
 11
2339.885561046901
 21
802.4184119992865
 31
0.0
  0
ARC
  5
6E3
330
620
100
AcDbEntity
  8
0
  6
Continuous
 62
     7
370
    15
100
AcDbCircle
 10
2341.841260641115
 20
803.3841041222151
 30
0.0
 40
0.3073597628001759
100
AcDbArc
 50
2.60513902944699
 51
57.39458829434646
  0
LINE
  5
6E4
330
620
100
AcDbEntity
  8
0
  6
Continuous
 62
     7
370
    15
100
AcDbLine
 10
2342.148264109629
 20
798.6936136845758
 30
0.0
 11
2342.148302746688
 21
803.3980744190653
 31
0.0
  0
LINE
  5
6E5
330
620
100
AcDbEntity
  8
0
  6
Continuous
 62
     7
370
    15
100
AcDbLine
 10
2341.859655526397
 20
796.6370311710059
 30
0.0
 11
2342.148264109629
 21
798.6936136845758
 31
0.0
  0
ARC
  5
6E6
330
620
100
AcDbEntity
  8
0
  6
Continuous
 62
     7
370
    15
100
AcDbCircle
 10
2341.318535780462
 20
796.7197462918037
 30
0.0
 40
0.5474051247921863
100
AcDbArc
 50
302.9067125961987
 51
351.3090878343505
  0
LINE
  5
6E7
330
620
100
AcDbEntity
  8
0
  6
Continuous
 62
     7
370
    15
100
AcDbLine
 10
2340.474045488015
 20
795.6009752657149
 30
0.0
 11
2341.615926102726
 21
796.2601689132559
 31
0.0
  0
LWPOLYLINE
  5
6E8
330
620
100
AcDbEntity
  8
0
  6
Continuous
 62
     7
370
    15
100
AcDbPolyline
 90
        9
 70
   128
 43
0.0
 10
2340.474045488015
 20
795.6009752657149
 10
2340.431069792284
 20
795.5805076648723
 10
2340.389399962638
 20
795.5693454833363
 10
2340.350302115764
 20
795.5678278783449
 10
2340.314964219955
 20
795.5760009615576
 10
2340.284459999294
 20
795.5936163979767
 10
2340.259716309089
 20
795.620138951481
 10
2340.241484973846
 20
795.6547627477022
 10
2340.230319943462
 20
795.6964357601143
  0
LINE
  5
6E9
330
620
100
AcDbEntity
  8
0
  6
Continuous
 62
     7
370
    15
100
AcDbLine
 10
2340.026939183487
 20
796.9110234958667
 30
0.0
 11
2340.230319943462
 21
795.6964357601143
 31
0.0
  0
LINE
  5
6EA
330
620
100
AcDbEntity
  8
0
  6
Continuous
 62
     7
370
    15
100
AcDbLine
 10
2341.760928273462
 20
803.7850106368486
 30
0.0
 11
2342.006881558101
 21
803.6430244490443
 31
0.0
  0
LINE
  5
6EB
330
620
100
AcDbEntity
  8
0
  6
Continuous
 62
     7
370
    15
100
AcDbLine
 10
2341.760928273462
 20
803.7850106368486
 30
0.0
 11
2339.639607929883
 21
802.5603980902946
 31
0.0
  0
ARC
  5
6EC
330
620
100
AcDbEntity
  8
0
  6
Continuous
 62
     7
370
    15
100
AcDbCircle
 10
2341.926560613931
 20
804.0439345055803
 30
0.0
 40
0.3073689021492845
100
AcDbArc
 50
182.6061386942112
 51
237.3931502364812
  0
ARC
  5
6ED
330
620
100
AcDbEntity
  8
0
  6
Continuous
 62
     7
370
    15
100
AcDbCircle
 10
2333.737078172859
 20
794.076249335785
 30
0.0
 40
0.1511840509629803
100
AcDbArc
 50
185.4584856577015
 51
237.2621693262195
  0
LINE
  5
6EE
330
620
100
AcDbEntity
  8
0
  6
Continuous
 62
     7
370
    15
100
AcDbLine
 10
2342.715554242881
 20
807.9765637357212
 30
0.0
 11
2344.412594688466
 21
806.9968645542534
 31
0.0
  0
LINE
  5
6EF
330
620
100
AcDbEntity
  8
0
  6
Continuous
 62
     7
370
    15
100
AcDbLine
 10
2342.715545682742
 20
806.9134325403563
 30
0.0
 11
2344.341875279033
 21
805.9745546376944
 31
0.0
  0
LINE
  5
6F0
330
620
100
AcDbEntity
  8
0
  6
Continuous
 62
     7
370
    15
100
AcDbLine
 10
2344.412586627735
 20
806.0153871517462
 30
0.0
 11
2344.341875279033
 21
805.9745546376944
 31
0.0
  0
LINE
  5
6F1
330
620
100
AcDbEntity
  8
0
  6
Continuous
 62
     7
370
    15
100
AcDbLine
 10
2347.099591725707
 20
807.5665504557752
 30
0.0
 11
2347.17030307441
 21
807.6073829698273
 31
0.0
  0
LINE
  5
6F2
330
620
100
AcDbEntity
  8
0
  6
Continuous
 62
     7
370
    15
100
AcDbLine
 10
2346.675325645148
 20
807.3215916968015
 30
0.0
 11
2347.099591725707
 21
807.5665504557752
 31
0.0
  0
LINE
  5
6F3
330
620
100
AcDbEntity
  8
0
  6
Continuous
 62
     7
370
    15
100
AcDbLine
 10
2346.675325645148
 20
807.3215916968015
 30
0.0
 11
2344.3418732672
 21
805.9745183122766
 31
0.0
  0
LINE
  5
6F4
330
620
100
AcDbEntity
  8
0
  6
Continuous
 62
     7
370
    15
100
AcDbLine
 10
2344.341875279033
 20
805.9745546376944
 30
0.0
 11
2344.3418732672
 21
805.9745183122766
 31
0.0
  0
LINE
  5
6F5
330
620
100
AcDbEntity
  8
0
  6
Continuous
 62
     7
370
    15
100
AcDbLine
 10
2342.715545682692
 20
806.913426306481
 30
0.0
 11
2343.069261456654
 21
806.7091954099049
 31
0.0
  0
LINE
  5
6F6
330
620
100
AcDbEntity
  8
0
  6
Continuous
 62
     7
370
    15
100
AcDbLine
 10
2344.3418732672
 20
805.9745183122766
 30
0.0
 11
2343.069261456654
 21
806.7091954099049
 31
0.0
  0
ARC
  5
6F7
330
620
100
AcDbEntity
  8
0
  6
Continuous
 62
     7
370
    15
100
AcDbCircle
 10
2344.457554795478
 20
804.8944581772033
 30
0.0
 40
0.3073607411354466
100
AcDbArc
 50
2.605308358410251
 51
57.39453491774415
  0
LINE
  5
6F8
330
620
100
AcDbEntity
  8
0
  6
Continuous
 62
     7
370
    15
100
AcDbLine
 10
2344.764597837086
 20
804.9084294259404
 30
0.0
 11
2344.764554617437
 21
799.6459906704711
 31
0.0
  0
LINE
  5
6F9
330
620
100
AcDbEntity
  8
0
  6
Continuous
 62
     7
370
    15
100
AcDbLine
 10
2342.858429791545
 20
800.7463901133034
 30
0.0
 11
2344.764554617437
 21
799.6459906704711
 31
0.0
  0
LINE
  5
6FA
330
620
100
AcDbEntity
  8
0
  6
Continuous
 62
     7
370
    15
100
AcDbLine
 10
2342.858429791545
 20
800.7463901133034
 30
0.0
 11
2342.858473011166
 21
806.0088280944027
 31
0.0
  0
ARC
  5
6FB
330
620
100
AcDbEntity
  8
0
  6
Continuous
 62
     7
370
    15
100
AcDbCircle
 10
2342.944688026038
 20
806.0228117245433
 30
0.0
 40
0.0873416893660022
100
AcDbArc
 50
50.79661220719176
 51
189.2128505995187
  0
LINE
  5
6FC
330
620
100
AcDbEntity
  8
0
  6
Continuous
 62
     7
370
    15
100
AcDbLine
 10
2343.245852513986
 20
805.9485045234621
 30
0.0
 11
2342.999894535051
 21
806.0904934212118
 31
0.0
  0
ARC
  5
6FD
330
620
100
AcDbEntity
  8
0
  6
Continuous
 62
     7
370
    15
100
AcDbCircle
 10
2343.301062228801
 20
806.0161833601789
 30
0.0
 40
0.0873414995822499
100
AcDbArc
 50
230.7937967307172
 51
9.214821702942664
  0
LINE
  5
6FE
330
620
100
AcDbEntity
  8
0
  6
Continuous
 62
     7
370
    15
100
AcDbLine
 10
2343.387278609681
 20
806.5256045324311
 30
0.0
 11
2343.387276575219
 21
806.0301699259099
 31
0.0
  0
LINE
  5
6FF
330
620
100
AcDbEntity
  8
0
  6
Continuous
 62
     7
370
    15
100
AcDbLine
 10
2344.235802175251
 20
805.5403156820846
 30
0.0
 11
2344.235806244186
 21
806.0357506629248
 31
0.0
  0
ARC
  5
700
330
620
100
AcDbEntity
  8
0
  6
Continuous
 62
     7
370
    15
100
AcDbCircle
 10
2344.542844191503
 20
805.5542855180728
 30
0.0
 40
0.3073596526251092
100
AcDbArc
 50
182.6050539644882
 51
237.3945949214069
  0
LINE
  5
701
330
620
100
AcDbEntity
  8
0
  6
Continuous
 62
     7
370
    15
100
AcDbLine
 10
2344.623176480851
 20
805.1533791738908
 30
0.0
 11
2344.377223363833
 21
805.2953652648991
 31
0.0
  0
LINE
  5
702
330
620
100
AcDbEntity
  8
0
  6
Continuous
 62
     7
370
    15
100
AcDbLine
 10
2346.357126587755
 20
807.1378992909718
 30
0.0
 11
2346.357125056205
 21
806.7649256106712
 31
0.0
  0
LINE
  5
703
330
620
100
AcDbEntity
  8
0
  6
Continuous
 62
     7
370
    15
100
AcDbLine
 10
2346.357125056205
 20
806.7649256106712
 30
0.0
 11
2344.235802175251
 21
805.5403156820846
 31
0.0
  0
LINE
  5
704
330
620
100
AcDbEntity
  8
0
  6
Continuous
 62
     7
370
    15
100
AcDbLine
 10
2340.230319943462
 20
795.6964357601143
 30
0.0
 11
2338.324195117574
 21
796.7968352029515
 31
0.0
  0
LINE
  5
705
330
620
100
AcDbEntity
  8
0
  6
Continuous
 62
     7
370
    15
100
AcDbLine
 10
2338.324195117574
 20
796.7968352029515
 30
0.0
 11
2338.120814357595
 21
798.0114229386989
 31
0.0
  0
LINE
  5
706
330
620
100
AcDbEntity
  8
0
  6
Continuous
 62
     7
370
    15
100
AcDbLine
 10
2344.764597837086
 20
804.9084294259404
 30
0.0
 11
2346.885918180638
 21
806.1330415936698
 31
0.0
  0
LINE
  5
707
330
620
100
AcDbEntity
  8
0
  6
Continuous
 62
     7
370
    15
100
AcDbLine
 10
2346.744496992051
 20
806.3779916236486
 30
0.0
 11
2344.623176480851
 21
805.1533791738908
 31
0.0
  0
ARC
  5
708
330
620
100
AcDbEntity
  8
0
  6
Continuous
 62
     7
370
    15
100
AcDbCircle
 10
2346.578876075065
 20
806.1190712968199
 30
0.0
 40
0.3073597627995311
100
AcDbArc
 50
2.605139029368905
 51
57.39458829438595
  0
LINE
  5
709
330
620
100
AcDbEntity
  8
0
  6
Continuous
 62
     7
370
    15
100
AcDbLine
 10
2346.885879543579
 20
801.4285808591804
 30
0.0
 11
2346.885918180638
 21
806.1330415936698
 31
0.0
  0
LINE
  5
70A
330
620
100
AcDbEntity
  8
0
  6
Continuous
 62
     7
370
    15
100
AcDbLine
 10
2346.597270960347
 20
799.3719983456104
 30
0.0
 11
2346.885879543579
 21
801.4285808591804
 31
0.0
  0
ARC
  5
70B
330
620
100
AcDbEntity
  8
0
  6
Continuous
 62
     7
370
    15
100
AcDbCircle
 10
2346.056151214412
 20
799.454713466408
 30
0.0
 40
0.5474051247920999
100
AcDbArc
 50
302.9067125961987
 51
351.3090878343634
  0
LINE
  5
70C
330
620
100
AcDbEntity
  8
0
  6
Continuous
 62
     7
370
    15
100
AcDbLine
 10
2345.211660921965
 20
798.3359424403192
 30
0.0
 11
2346.353541536676
 21
798.9951360878603
 31
0.0
  0
LWPOLYLINE
  5
70D
330
620
100
AcDbEntity
  8
0
  6
Continuous
 62
     7
370
    15
100
AcDbPolyline
 90
        9
 70
   128
 43
0.0
 10
2345.211660921965
 20
798.3359424403192
 10
2345.168685226234
 20
798.3154748394767
 10
2345.127015396588
 20
798.3043126579408
 10
2345.087917549713
 20
798.3027950529494
 10
2345.052579653905
 20
798.310968136162
 10
2345.022075433243
 20
798.3285835725812
 10
2344.997331743038
 20
798.3551061260854
 10
2344.979100407796
 20
798.3897299223068
 10
2344.967935377412
 20
798.4314029347187
  0
LINE
  5
70E
330
620
100
AcDbEntity
  8
0
  6
Continuous
 62
     7
370
    15
100
AcDbLine
 10
2344.764554617437
 20
799.6459906704711
 30
0.0
 11
2344.967935377412
 21
798.4314029347187
 31
0.0
  0
LINE
  5
70F
330
620
100
AcDbEntity
  8
0
  6
Continuous
 62
     7
370
    15
100
AcDbLine
 10
2346.498543707411
 20
806.519977811453
 30
0.0
 11
2346.744496992051
 21
806.3779916236486
 31
0.0
  0
LINE
  5
710
330
620
100
AcDbEntity
  8
0
  6
Continuous
 62
     7
370
    15
100
AcDbLine
 10
2346.498543707411
 20
806.519977811453
 30
0.0
 11
2344.377223363833
 21
805.2953652648991
 31
0.0
  0
ARC
  5
711
330
620
100
AcDbEntity
  8
0
  6
Continuous
 62
     7
370
    15
100
AcDbCircle
 10
2346.664176047881
 20
806.7789016801848
 30
0.0
 40
0.3073689021492771
100
AcDbArc
 50
182.6061386942047
 51
237.3931502364558
  0
ARC
  5
712
330
620
100
AcDbEntity
  8
0
  6
Continuous
 62
     7
370
    15
100
AcDbCircle
 10
2338.474693606809
 20
796.8112165103896
 30
0.0
 40
0.1511840509632862
100
AcDbArc
 50
185.4584856577883
 51
237.262169326216
  0
LINE
  5
713
330
620
100
AcDbEntity
  8
0
  6
Continuous
 62
     7
370
    15
100
AcDbLine
 10
2344.967935377412
 20
798.4314029347187
 30
0.0
 11
2343.061810551524
 21
799.5318023775559
 31
0.0
  0
LINE
  5
714
330
620
100
AcDbEntity
  8
0
  6
Continuous
 62
     7
370
    15
100
AcDbLine
 10
2343.061810551524
 20
799.5318023775559
 30
0.0
 11
2342.858429791545
 21
800.7463901133034
 31
0.0
  0
ARC
  5
715
330
620
100
AcDbEntity
  8
0
  6
Continuous
 62
     7
370
    15
100
AcDbCircle
 10
2343.21230904076
 20
799.5461836849941
 30
0.0
 40
0.151184050963414
100
AcDbArc
 50
185.4584856577883
 51
237.2621693261256
  0
LINE
  5
716
330
620
100
AcDbEntity
  8
0
  6
Continuous
 62
     8
370
    15
100
AcDbLine
 10
2329.033006212137
 20
797.7436029996476
 30
0.0
 11
2329.174427734213
 21
797.8252441001318
 31
0.0
  0
LINE
  5
717
330
620
100
AcDbEntity
  8
0
  6
Continuous
 62
     8
370
    15
100
AcDbLine
 10
2328.787048233202
 20
797.885591897397
 30
0.0
 11
2329.174431439409
 21
798.1092235667333
 31
0.0
  0
LINE
  5
718
330
620
100
AcDbEntity
  8
0
  6
Continuous
 62
     8
370
    15
100
AcDbLine
 10
2333.770621646086
 20
800.4785701742534
 30
0.0
 11
2333.912043168162
 21
800.5602112747377
 31
0.0
  0
LINE
  5
719
330
620
100
AcDbEntity
  8
0
  6
Continuous
 62
     8
370
    15
100
AcDbLine
 10
2333.524663667152
 20
800.620559072003
 30
0.0
 11
2333.912046873358
 21
800.8441907413395
 31
0.0
  0
LINE
  5
71A
330
620
100
AcDbEntity
  8
0
  6
Continuous
 62
     8
370
    15
100
AcDbLine
 10
2338.508237080036
 20
803.2135373488577
 30
0.0
 11
2338.649658602112
 21
803.295178449342
 31
0.0
  0
LINE
  5
71B
330
620
100
AcDbEntity
  8
0
  6
Continuous
 62
     8
370
    15
100
AcDbLine
 10
2338.262279101101
 20
803.3555262466073
 30
0.0
 11
2338.649662307308
 21
803.5791579159438
 31
0.0
  0
LINE
  5
71C
330
620
100
AcDbEntity
  8
0
  6
Continuous
 62
     8
370
    15
100
AcDbLine
 10
2343.245852513986
 20
805.9485045234621
 30
0.0
 11
2343.387274036062
 21
806.0301456239464
 31
0.0
  0
LINE
  5
71D
330
620
100
AcDbEntity
  8
0
  6
Continuous
 62
     8
370
    15
100
AcDbLine
 10
2342.999894535051
 20
806.0904934212118
 30
0.0
 11
2343.387277741258
 21
806.3141250905484
 31
0.0
  0
ENDBLK
  5
622
330
620
100
AcDbEntity
  8
0
100
AcDbBlockEnd
  0
ENDSEC
  0
SECTION
  2
ENTITIES
  0
INSERT
  5
5E8
330
1F
100
AcDbEntity
  8
0
100
AcDbBlockReference
  2
1
 10
0.0
 20
0.0
 30
0.0
  0
INSERT
  5
617
330
1F
100
AcDbEntity
  8
0
100
AcDbBlockReference
  2
2
 10
0.0
 20
0.0
 30
0.0
  0
INSERT
  5
61F
330
1F
100
AcDbEntity
  8
0
100
AcDbBlockReference
  2
3
 10
0.0
 20
0.0
 30
0.0
  0
INSERT
  5
71E
330
1F
100
AcDbEntity
  8
0
100
AcDbBlockReference
  2
4
 10
0.0
 20
0.0
 30
0.0
  0
ENDSEC
  0
SECTION
  2
OBJECTS
  0
DICTIONARY
  5
C
330
0
100
AcDbDictionary
281
     1
  3
ACAD_COLOR
350
6B
  3
ACAD_GROUP
350
D
  3
ACAD_LAYOUT
350
1A
  3
ACAD_MATERIAL
350
6A
  3
ACAD_MLEADERSTYLE
350
12D
  3
ACAD_MLINESTYLE
350
17
  3
ACAD_PLOTSETTINGS
350
19
  3
ACAD_PLOTSTYLENAME
350
E
  3
ACAD_SCALELIST
350
10C
  3
ACAD_TABLESTYLE
350
7E
  3
ACAD_VISUALSTYLE
350
EF
  3
ACDB_RECOMPOSE_DATA
350
15D
  3
AcDbVariableDictionary
350
5E
  3
DWGPROPS
350
72C
  0
DICTIONARY
  5
13C
330
10
100
AcDbDictionary
280
     1
281
     1
  3
ADSK_XREC_LAYER_RECONCILED
360
71F
  0
DICTIONARY
  5
6B
102
{ACAD_REACTORS
330
C
102
}
330
C
100
AcDbDictionary
281
     1
  0
DICTIONARY
  5
D
102
{ACAD_REACTORS
330
C
102
}
330
C
100
AcDbDictionary
281
     1
  0
DICTIONARY
  5
1A
102
{ACAD_REACTORS
330
C
102
}
330
C
100
AcDbDictionary
281
     1
  3
Layout1
350
D3
  3
Layout2
350
D7
  3
Model
350
22
  0
DICTIONARY
  5
6A
102
{ACAD_REACTORS
330
C
102
}
330
C
100
AcDbDictionary
281
     1
  3
ByBlock
350
ED
  3
ByLayer
350
EC
  3
Global
350
EE
  0
DICTIONARY
  5
12D
102
{ACAD_REACTORS
330
C
102
}
330
C
100
AcDbDictionary
281
     1
  3
Annotative
350
13B
  3
Standard
350
12E
  0
DICTIONARY
  5
17
102
{ACAD_REACTORS
330
C
102
}
330
C
100
AcDbDictionary
281
     1
  3
Standard
350
18
  0
DICTIONARY
  5
19
102
{ACAD_REACTORS
330
C
102
}
330
C
100
AcDbDictionary
281
     1
  0
ACDBDICTIONARYWDFLT
  5
E
102
{ACAD_REACTORS
330
C
102
}
330
C
100
AcDbDictionary
281
     1
  3
Normal
350
F
100
AcDbDictionaryWithDefault
340
F
  0
DICTIONARY
  5
10C
102
{ACAD_REACTORS
330
C
102
}
330
C
100
AcDbDictionary
281
     1
  3
A0
350
10D
  3
A1
350
188
  3
A2
350
189
  3
A3
350
18A
  3
A4
350
18B
  3
A5
350
18C
  3
A6
350
18D
  3
A7
350
18E
  3
A8
350
18F
  3
A9
350
190
  3
B0
350
191
  3
B1
350
192
  3
B2
350
193
  3
B3
350
194
  3
B4
350
195
  3
B5
350
196
  3
B6
350
197
  3
B7
350
198
  3
B8
350
199
  3
B9
350
19A
  3
C0
350
19B
  3
C1
350
19C
  3
C2
350
19D
  3
C3
350
19E
  3
C4
350
19F
  3
C5
350
1A0
  3
C6
350
1A1
  3
C7
350
1A2
  3
C8
350
1A3
  3
C9
350
1A4
  3
D0
350
1A5
  3
D1
350
1A6
  3
D2
350
1A7
  0
DICTIONARY
  5
7E
102
{ACAD_REACTORS
330
C
102
}
330
C
100
AcDbDictionary
281
     1
  3
Standard
350
7F
  0
DICTIONARY
  5
EF
102
{ACAD_REACTORS
330
C
102
}
330
C
100
AcDbDictionary
281
     1
  3
2dWireframe
350
F5
  3
3D Hidden
350
F7
  3
3dWireframe
350
F6
  3
Basic
350
F4
  3
Brighten
350
FB
  3
ColorChange
350
FF
  3
Conceptual
350
F8
  3
Dim
350
FA
  3
Facepattern
350
FE
  3
Flat
350
F0
  3
FlatWithEdges
350
F1
  3
Gouraud
350
F2
  3
GouraudWithEdges
350
F3
  3
Linepattern
350
FD
  3
Realistic
350
F9
  3
Thicken
350
FC
  0
XRECORD
  5
15D
102
{ACAD_REACTORS
330
C
102
}
330
C
100
AcDbXrecord
280
     1
 90
        1
330
7F
  0
DICTIONARY
  5
5E
102
{ACAD_REACTORS
330
C
102
}
330
C
100
AcDbDictionary
281
     1
  3
CANNOSCALE
350
146
  3
CMLEADERSTYLE
350
145
  3
CTABLESTYLE
350
84
  3
DIMASSOC
350
5F
  3
HIDETEXT
350
63
  3
INDEXCTL
350
728
  3
LIGHTINGUNITS
350
726
  3
MSLTSCALE
350
725
  3
PSOLHEIGHT
350
72A
  3
PSOLWIDTH
350
729
  3
SORTENTS
350
727
  0
XRECORD
  5
72C
102
{ACAD_REACTORS
330
C
102
}
330
C
100
AcDbXrecord
280
     1
  1
DWGPROPS COOKIE
  2

  3

  4

  6

  7

  8
orhan kara
  9

300
=
301
=
302
=
303
=
304
=
305
=
306
=
307
=
308
=
309
=
 40
0.0003886111111111
 41
2458932.586523206
 42
2458956.44087441
  1

 90
        0
  0
XRECORD
  5
71F
102
{ACAD_REACTORS
330
13C
102
}
330
13C
100
AcDbXrecord
280
     1
290
     1
  0
LAYOUT
  5
D3
102
{ACAD_XDICTIONARY
360
730
102
}
102
{ACAD_REACTORS
330
1A
102
}
330
1A
100
AcDbPlotSettings
  1

  2
C:\Documents and Settings\basas\Application Data\Autodesk\AutoCAD 2005\R16.1\enu\plotters\Default Windows System Printer.pc3
  4

  6

 40
0.0
 41
0.0
 42
0.0
 43
0.0
 44
0.0
 45
0.0
 46
0.0
 47
0.0
 48
0.0
 49
0.0
140
0.0
141
0.0
142
1.0
143
1.0
 70
   688
 72
     0
 73
     0
 74
     5
  7

 75
    16
147
1.0
148
0.0
149
0.0
100
AcDbLayout
  1
Layout1
 70
     1
 71
     1
 10
0.0
 20
0.0
 11
12.0
 21
9.0
 12
0.0
 22
0.0
 32
0.0
 14
0.0
 24
0.0
 34
0.0
 15
0.0
 25
0.0
 35
0.0
146
0.0
 13
0.0
 23
0.0
 33
0.0
 16
1.0
 26
0.0
 36
0.0
 17
0.0
 27
1.0
 37
0.0
 76
     0
330
D2
  0
LAYOUT
  5
D7
102
{ACAD_XDICTIONARY
360
732
102
}
102
{ACAD_REACTORS
330
1A
102
}
330
1A
100
AcDbPlotSettings
  1

  2
C:\Documents and Settings\basas\Application Data\Autodesk\AutoCAD 2005\R16.1\enu\plotters\Default Windows System Printer.pc3
  4

  6

 40
0.0
 41
0.0
 42
0.0
 43
0.0
 44
0.0
 45
0.0
 46
0.0
 47
0.0
 48
0.0
 49
0.0
140
0.0
141
0.0
142
1.0
143
1.0
 70
   688
 72
     0
 73
     0
 74
     5
  7

 75
    16
147
1.0
148
0.0
149
0.0
100
AcDbLayout
  1
Layout2
 70
     1
 71
     2
 10
0.0
 20
0.0
 11
12.0
 21
9.0
 12
0.0
 22
0.0
 32
0.0
 14
0.0
 24
0.0
 34
0.0
 15
0.0
 25
0.0
 35
0.0
146
0.0
 13
0.0
 23
0.0
 33
0.0
 16
1.0
 26
0.0
 36
0.0
 17
0.0
 27
1.0
 37
0.0
 76
     0
330
D6
  0
LAYOUT
  5
22
102
{ACAD_XDICTIONARY
360
72D
102
}
102
{ACAD_REACTORS
330
1A
102
}
330
1A
100
AcDbPlotSettings
  1

  2
none_device
  4
ISO_A4_(210.00_x_297.00_MM)
  6

 40
7.5
 41
20.0
 42
7.5
 43
20.0
 44
210.0
 45
297.0
 46
11.54999923706054
 47
-13.65000009536743
 48
0.0
 49
0.0
140
0.0
141
0.0
142
1.0
143
8.704084754739808
 70
 11952
 72
     1
 73
     0
 74
     0
  7

 75
     0
147
0.1148885871608098
148
0.0
149
0.0
100
AcDbLayout
  1
Model
 70
     1
 71
     0
 10
0.0
 20
0.0
 11
12.0
 21
9.0
 12
0.0
 22
0.0
 32
0.0
 14
0.0
 24
0.0
 34
0.0
 15
0.0
 25
0.0
 35
0.0
146
0.0
 13
0.0
 23
0.0
 33
0.0
 16
1.0
 26
0.0
 36
0.0
 17
0.0
 27
1.0
 37
0.0
 76
     0
330
1F
331
EA
1001
ACAD_PSEXT
1000
None
1000
None
1000
Not applicable
1000
The layout will not be plotted unless a new plotter configuration name is selected.
1070
     0
  0
MATERIAL
  5
ED
102
{ACAD_XDICTIONARY
360
736
102
}
102
{ACAD_REACTORS
330
6A
102
}
330
6A
100
AcDbMaterial
  1
ByBlock
  0
MATERIAL
  5
EC
102
{ACAD_XDICTIONARY
360
734
102
}
102
{ACAD_REACTORS
330
6A
102
}
330
6A
100
AcDbMaterial
  1
ByLayer
  0
MATERIAL
  5
EE
102
{ACAD_XDICTIONARY
360
173
102
}
102
{ACAD_REACTORS
330
6A
102
}
330
6A
100
AcDbMaterial
  1
Global
 43
0.0007999999797903
 43
0.0
 43
0.0
 43
0.0
 43
0.0
 43
0.0007999999797903
 43
0.0
 43
0.0
 43
0.0
 43
0.0
 43
1.0
 43
0.0
 43
0.0
 43
0.0
 43
0.0
 43
1.0
 49
0.0007999999797903
 49
0.0
 49
0.0
 49
0.0
 49
0.0
 49
0.0007999999797903
 49
0.0
 49
0.0
 49
0.0
 49
0.0
 49
1.0
 49
0.0
 49
0.0
 49
0.0
 49
0.0
 49
1.0
142
0.0007999999797903
142
0.0
142
0.0
142
0.0
142
0.0
142
0.0007999999797903
142
0.0
142
0.0
142
0.0
142
0.0
142
1.0
142
0.0
142
0.0
142
0.0
142
0.0
142
1.0
144
0.0007999999797903
144
0.0
144
0.0
144
0.0
144
0.0
144
0.0007999999797903
144
0.0
144
0.0
144
0.0
144
0.0
144
1.0
144
0.0
144
0.0
144
0.0
144
0.0
144
1.0
1001
ACAD
1070
    -1
1070
     3
1070
     0
1000

1071
        0
1070
     0
  0
MLEADERSTYLE
  5
13B
102
{ACAD_REACTORS
330
12D
102
}
330
12D
100
AcDbMLeaderStyle
170
     2
171
     1
172
     0
 90
        2
 40
0.0
 41
0.0
173
     1
 91
-1056964608
340
14
 92
       -2
290
     1
 42
2.0
291
     1
 43
8.0
  3
Standard
 44
4.0
300

342
11
174
     1
178
     1
175
     1
176
     0
 93
-1056964608
 45
4.0
292
     0
297
     0
 46
4.0
 94
-1056964608
 47
1.0
 49
1.0
140
1.0
293
     1
141
0.0
294
     1
177
     0
142
1.0
295
     0
296
     1
143
3.75
1001
ACAD_MLEADERVER
1070
     2
  0
MLEADERSTYLE
  5
12E
102
{ACAD_REACTORS
330
12D
102
}
330
12D
100
AcDbMLeaderStyle
170
     2
171
     1
172
     0
 90
        2
 40
0.0
 41
0.0
173
     1
 91
-1056964608
340
14
 92
       -2
290
     1
 42
2.0
291
     1
 43
8.0
  3
Standard
 44
4.0
300

342
11
174
     1
178
     1
175
     1
176
     0
 93
-1056964608
 45
4.0
292
     0
297
     0
 46
4.0
 94
-1056964608
 47
1.0
 49
1.0
140
1.0
293
     1
141
0.0
294
     1
177
     0
142
1.0
295
     0
296
     0
143
3.75
1001
ACAD_MLEADERVER
1070
     2
  0
MLINESTYLE
  5
18
102
{ACAD_REACTORS
330
17
102
}
330
17
100
AcDbMlineStyle
  2
STANDARD
 70
     0
  3

 62
   256
 51
90.0
 52
90.0
 71
     2
 49
0.5
 62
   256
  6
BYLAYER
 49
-0.5
 62
   256
  6
BYLAYER
  0
ACDBPLACEHOLDER
  5
F
102
{ACAD_REACTORS
330
E
102
}
330
E
  0
SCALE
  5
10D
102
{ACAD_REACTORS
330
10C
102
}
330
10C
100
AcDbScale
 70
     0
300
1:1
140
1.0
141
1.0
290
     1
  0
SCALE
  5
188
102
{ACAD_REACTORS
330
10C
102
}
330
10C
100
AcDbScale
 70
     0
300
1:2
140
1.0
141
2.0
290
     0
  0
SCALE
  5
189
102
{ACAD_REACTORS
330
10C
102
}
330
10C
100
AcDbScale
 70
     0
300
1:4
140
1.0
141
4.0
290
     0
  0
SCALE
  5
18A
102
{ACAD_REACTORS
330
10C
102
}
330
10C
100
AcDbScale
 70
     0
300
1:5
140
1.0
141
5.0
290
     0
  0
SCALE
  5
18B
102
{ACAD_REACTORS
330
10C
102
}
330
10C
100
AcDbScale
 70
     0
300
1:8
140
1.0
141
8.0
290
     0
  0
SCALE
  5
18C
102
{ACAD_REACTORS
330
10C
102
}
330
10C
100
AcDbScale
 70
     0
300
1:10
140
1.0
141
10.0
290
     0
  0
SCALE
  5
18D
102
{ACAD_REACTORS
330
10C
102
}
330
10C
100
AcDbScale
 70
     0
300
1:16
140
1.0
141
16.0
290
     0
  0
SCALE
  5
18E
102
{ACAD_REACTORS
330
10C
102
}
330
10C
100
AcDbScale
 70
     0
300
1:20
140
1.0
141
20.0
290
     0
  0
SCALE
  5
18F
102
{ACAD_REACTORS
330
10C
102
}
330
10C
100
AcDbScale
 70
     0
300
1:30
140
1.0
141
30.0
290
     0
  0
SCALE
  5
190
102
{ACAD_REACTORS
330
10C
102
}
330
10C
100
AcDbScale
 70
     0
300
1:40
140
1.0
141
40.0
290
     0
  0
SCALE
  5
191
102
{ACAD_REACTORS
330
10C
102
}
330
10C
100
AcDbScale
 70
     0
300
1:50
140
1.0
141
50.0
290
     0
  0
SCALE
  5
192
102
{ACAD_REACTORS
330
10C
102
}
330
10C
100
AcDbScale
 70
     0
300
1:100
140
1.0
141
100.0
290
     0
  0
SCALE
  5
193
102
{ACAD_REACTORS
330
10C
102
}
330
10C
100
AcDbScale
 70
     0
300
2:1
140
2.0
141
1.0
290
     0
  0
SCALE
  5
194
102
{ACAD_REACTORS
330
10C
102
}
330
10C
100
AcDbScale
 70
     0
300
4:1
140
4.0
141
1.0
290
     0
  0
SCALE
  5
195
102
{ACAD_REACTORS
330
10C
102
}
330
10C
100
AcDbScale
 70
     0
300
8:1
140
8.0
141
1.0
290
     0
  0
SCALE
  5
196
102
{ACAD_REACTORS
330
10C
102
}
330
10C
100
AcDbScale
 70
     0
300
10:1
140
10.0
141
1.0
290
     0
  0
SCALE
  5
197
102
{ACAD_REACTORS
330
10C
102
}
330
10C
100
AcDbScale
 70
     0
300
100:1
140
100.0
141
1.0
290
     0
  0
SCALE
  5
198
102
{ACAD_REACTORS
330
10C
102
}
330
10C
100
AcDbScale
 70
     0
300
1/128" = 1'-0"
140
0.0078125
141
12.0
290
     0
  0
SCALE
  5
199
102
{ACAD_REACTORS
330
10C
102
}
330
10C
100
AcDbScale
 70
     0
300
1/64" = 1'-0"
140
0.015625
141
12.0
290
     0
  0
SCALE
  5
19A
102
{ACAD_REACTORS
330
10C
102
}
330
10C
100
AcDbScale
 70
     0
300
1/32" = 1'-0"
140
0.03125
141
12.0
290
     0
  0
SCALE
  5
19B
102
{ACAD_REACTORS
330
10C
102
}
330
10C
100
AcDbScale
 70
     0
300
1/16" = 1'-0"
140
0.0625
141
12.0
290
     0
  0
SCALE
  5
19C
102
{ACAD_REACTORS
330
10C
102
}
330
10C
100
AcDbScale
 70
     0
300
3/32" = 1'-0"
140
0.09375
141
12.0
290
     0
  0
SCALE
  5
19D
102
{ACAD_REACTORS
330
10C
102
}
330
10C
100
AcDbScale
 70
     0
300
1/8" = 1'-0"
140
0.125
141
12.0
290
     0
  0
SCALE
  5
19E
102
{ACAD_REACTORS
330
10C
102
}
330
10C
100
AcDbScale
 70
     0
300
3/16" = 1'-0"
140
0.1875
141
12.0
290
     0
  0
SCALE
  5
19F
102
{ACAD_REACTORS
330
10C
102
}
330
10C
100
AcDbScale
 70
     0
300
1/4" = 1'-0"
140
0.25
141
12.0
290
     0
  0
SCALE
  5
1A0
102
{ACAD_REACTORS
330
10C
102
}
330
10C
100
AcDbScale
 70
     0
300
3/8" = 1'-0"
140
0.375
141
12.0
290
     0
  0
SCALE
  5
1A1
102
{ACAD_REACTORS
330
10C
102
}
330
10C
100
AcDbScale
 70
     0
300
1/2" = 1'-0"
140
0.5
141
12.0
290
     0
  0
SCALE
  5
1A2
102
{ACAD_REACTORS
330
10C
102
}
330
10C
100
AcDbScale
 70
     0
300
3/4" = 1'-0"
140
0.75
141
12.0
290
     0
  0
SCALE
  5
1A3
102
{ACAD_REACTORS
330
10C
102
}
330
10C
100
AcDbScale
 70
     0
300
1" = 1'-0"
140
1.0
141
12.0
290
     0
  0
SCALE
  5
1A4
102
{ACAD_REACTORS
330
10C
102
}
330
10C
100
AcDbScale
 70
     0
300
1-1/2" = 1'-0"
140
1.5
141
12.0
290
     0
  0
SCALE
  5
1A5
102
{ACAD_REACTORS
330
10C
102
}
330
10C
100
AcDbScale
 70
     0
300
3" = 1'-0"
140
3.0
141
12.0
290
     0
  0
SCALE
  5
1A6
102
{ACAD_REACTORS
330
10C
102
}
330
10C
100
AcDbScale
 70
     0
300
6" = 1'-0"
140
6.0
141
12.0
290
     0
  0
SCALE
  5
1A7
102
{ACAD_REACTORS
330
10C
102
}
330
10C
100
AcDbScale
 70
     0
300
1'-0" = 1'-0"
140
12.0
141
12.0
290
     0
  0
TABLESTYLE
  5
7F
102
{ACAD_XDICTIONARY
360
162
102
}
102
{ACAD_REACTORS
330
7E
102
}
330
7E
100
AcDbTableStyle
  3
Standard
 70
     0
 71
     0
 40
1.5
 41
1.5
280
     0
281
     0
  7
Standard
140
4.5
170
     2
 62
     0
 63
     7
283
     0
274
    -2
284
     1
 64
     0
275
    -2
285
     1
 65
     0
276
    -2
286
     1
 66
     0
277
    -2
287
     1
 67
     0
278
    -2
288
     1
 68
     0
279
    -2
289
     1
 69
     0
  7
Standard
140
6.0
170
     5
 62
     0
 63
     7
283
     0
274
    -2
284
     1
 64
     0
275
    -2
285
     1
 65
     0
276
    -2
286
     1
 66
     0
277
    -2
287
     1
 67
     0
278
    -2
288
     1
 68
     0
279
    -2
289
     1
 69
     0
  7
Standard
140
4.5
170
     5
 62
     0
 63
     7
283
     0
274
    -2
284
     1
 64
     0
275
    -2
285
     1
 65
     0
276
    -2
286
     1
 66
     0
277
    -2
287
     1
 67
     0
278
    -2
288
     1
 68
     0
279
    -2
289
     1
 69
     0
  0
VISUALSTYLE
  5
F5
102
{ACAD_REACTORS
330
EF
102
}
330
EF
100
AcDbVisualStyle
  2
2dWireframe
 70
     4
 71
     0
 72
     2
 73
     1
 90
        0
 40
-0.6
 41
-30.0
 62
     5
 63
     7
 74
     1
 91
        4
 64
     7
 65
   257
 75
     1
175
     1
 42
1.0
 92
        0
 66
   257
 43
1.0
 76
     1
 77
     6
 78
     2
 67
     7
 79
     5
170
     0
171
     0
290
     0
174
     0
 93
        1
 44
0.0
173
     0
291
     0
 45
0.0
1001
ACAD
1000
AcDbSavedByObjectVersion
1070
     0
  0
VISUALSTYLE
  5
F7
102
{ACAD_REACTORS
330
EF
102
}
330
EF
100
AcDbVisualStyle
  2
3D Hidden
 70
     6
 71
     1
 72
     2
 73
     2
 90
        0
 40
-0.6
 41
-30.0
 62
     5
 63
     7
 74
     2
 91
        2
 64
     7
 65
   257
 75
     2
175
     1
 42
40.0
 92
        0
 66
   257
 43
1.0
 76
     1
 77
     6
 78
     2
 67
     7
 79
     3
170
     0
171
     0
290
     0
174
     0
 93
        1
 44
0.0
173
     0
291
     0
 45
0.0
1001
ACAD
1000
AcDbSavedByObjectVersion
1070
     0
  0
VISUALSTYLE
  5
F6
102
{ACAD_REACTORS
330
EF
102
}
330
EF
100
AcDbVisualStyle
  2
3dWireframe
 70
     5
 71
     0
 72
     2
 73
     1
 90
        0
 40
-0.6
 41
-30.0
 62
     5
 63
     7
 74
     1
 91
        4
 64
     7
 65
   257
 75
     1
175
     1
 42
1.0
 92
        0
 66
   257
 43
1.0
 76
     1
 77
     6
 78
     2
 67
     7
 79
     5
170
     0
171
     0
290
     0
174
     0
 93
        1
 44
0.0
173
     0
291
     0
 45
0.0
1001
ACAD
1000
AcDbSavedByObjectVersion
1070
     0
  0
VISUALSTYLE
  5
F4
102
{ACAD_REACTORS
330
EF
102
}
330
EF
100
AcDbVisualStyle
  2
Basic
 70
     7
 71
     1
 72
     0
 73
     1
 90
        0
 40
-0.6
 41
-30.0
 62
     5
 63
     7
 74
     0
 91
        4
 64
     7
 65
   257
 75
     1
175
     1
 42
1.0
 92
        8
 66
     7
 43
1.0
 76
     1
 77
     6
 78
     2
 67
     7
 79
     5
170
     0
171
     0
290
     0
174
     0
 93
        1
 44
0.0
173
     0
291
     1
 45
0.0
1001
ACAD
1000
AcDbSavedByObjectVersion
1070
     0
  0
VISUALSTYLE
  5
FB
102
{ACAD_REACTORS
330
EF
102
}
330
EF
100
AcDbVisualStyle
  2
Brighten
 70
    12
 71
     2
 72
     2
 73
     1
 90
        0
 40
-0.6
 41
-30.0
 62
     5
 63
     7
 74
     1
 91
        4
 64
     7
 65
   257
 75
     1
175
     1
 42
1.0
 92
        8
 66
     7
 43
1.0
 76
     1
 77
     6
 78
     2
 67
     7
 79
     5
170
     0
171
     0
290
     0
174
     0
 93
        1
 44
50.0
173
     0
291
     1
 45
0.0
1001
ACAD
1000
AcDbSavedByObjectVersion
1070
     0
  0
VISUALSTYLE
  5
FF
102
{ACAD_REACTORS
330
EF
102
}
330
EF
100
AcDbVisualStyle
  2
ColorChange
 70
    16
 71
     2
 72
     2
 73
     3
 90
        0
 40
-0.6
 41
-30.0
 62
     5
 63
     8
 74
     1
 91
        4
 64
     7
 65
   257
 75
     1
175
     1
 42
1.0
 92
        8
 66
     8
 43
1.0
 76
     1
 77
     6
 78
     2
 67
     7
 79
     5
170
     0
171
     0
290
     0
174
     0
 93
        1
 44
0.0
173
     0
291
     1
 45
0.0
1001
ACAD
1000
AcDbSavedByObjectVersion
1070
     0
  0
VISUALSTYLE
  5
F8
102
{ACAD_REACTORS
330
EF
102
}
330
EF
100
AcDbVisualStyle
  2
Conceptual
 70
     9
 71
     3
 72
     2
 73
     1
 90
        0
 40
-0.6
 41
-30.0
 62
     5
 63
     7
 74
     2
 91
        2
 64
     7
 65
   257
 75
     1
175
     1
 42
40.0
 92
        8
 66
     7
 43
1.0
 76
     1
 77
     6
 78
     2
 67
     7
 79
     3
170
     0
171
     0
290
     0
174
     0
 93
        1
 44
0.0
173
     0
291
     0
 45
0.0
1001
ACAD
1000
AcDbSavedByObjectVersion
1070
     0
  0
VISUALSTYLE
  5
FA
102
{ACAD_REACTORS
330
EF
102
}
330
EF
100
AcDbVisualStyle
  2
Dim
 70
    11
 71
     2
 72
     2
 73
     1
 90
        0
 40
-0.6
 41
-30.0
 62
     5
 63
     7
 74
     1
 91
        4
 64
     7
 65
   257
 75
     1
175
     1
 42
1.0
 92
        8
 66
     7
 43
1.0
 76
     1
 77
     6
 78
     2
 67
     7
 79
     5
170
     0
171
     0
290
     0
174
     0
 93
        1
 44
-50.0
173
     0
291
     1
 45
0.0
1001
ACAD
1000
AcDbSavedByObjectVersion
1070
     0
  0
VISUALSTYLE
  5
FE
102
{ACAD_REACTORS
330
EF
102
}
330
EF
100
AcDbVisualStyle
  2
Facepattern
 70
    15
 71
     2
 72
     2
 73
     1
 90
        0
 40
-0.6
 41
-30.0
 62
     5
 63
     7
 74
     1
 91
        4
 64
     7
 65
   257
 75
     1
175
     1
 42
1.0
 92
        8
 66
     7
 43
1.0
 76
     1
 77
     6
 78
     2
 67
     7
 79
     5
170
     0
171
     0
290
     0
174
     0
 93
        1
 44
0.0
173
     0
291
     1
 45
0.0
1001
ACAD
1000
AcDbSavedByObjectVersion
1070
     0
  0
VISUALSTYLE
  5
F0
102
{ACAD_REACTORS
330
EF
102
}
330
EF
100
AcDbVisualStyle
  2
Flat
 70
     0
 71
     2
 72
     1
 73
     1
 90
        2
 40
-0.6
 41
30.0
 62
     5
 63
     7
 74
     0
 91
        4
 64
     7
 65
   257
 75
     1
175
     1
 42
1.0
 92
        8
 66
     7
 43
1.0
 76
     1
 77
     6
 78
     2
 67
     7
 79
     5
170
     0
171
     0
290
     0
174
     0
 93
        1
 44
0.0
173
     0
291
     1
 45
0.0
1001
ACAD
1000
AcDbSavedByObjectVersion
1070
     0
  0
VISUALSTYLE
  5
F1
102
{ACAD_REACTORS
330
EF
102
}
330
EF
100
AcDbVisualStyle
  2
FlatWithEdges
 70
     1
 71
     2
 72
     1
 73
     1
 90
        2
 40
-0.6
 41
30.0
 62
     5
 63
     7
 74
     1
 91
        4
 64
     7
 65
   257
 75
     1
175
     1
 42
1.0
 92
        0
 66
   257
 43
1.0
 76
     1
 77
     6
 78
     2
 67
     7
 79
     5
170
     0
171
     0
290
     0
174
     0
 93
        1
 44
0.0
173
     0
291
     1
 45
0.0
1001
ACAD
1000
AcDbSavedByObjectVersion
1070
     0
  0
VISUALSTYLE
  5
F2
102
{ACAD_REACTORS
330
EF
102
}
330
EF
100
AcDbVisualStyle
  2
Gouraud
 70
     2
 71
     2
 72
     2
 73
     1
 90
        2
 40
-0.6
 41
30.0
 62
     5
 63
     7
 74
     0
 91
        4
 64
     7
 65
   257
 75
     1
175
     1
 42
1.0
 92
        0
 66
     7
 43
1.0
 76
     1
 77
     6
 78
     2
 67
     7
 79
     5
170
     0
171
     0
290
     0
174
     0
 93
        1
 44
0.0
173
     0
291
     1
 45
0.0
1001
ACAD
1000
AcDbSavedByObjectVersion
1070
     0
  0
VISUALSTYLE
  5
F3
102
{ACAD_REACTORS
330
EF
102
}
330
EF
100
AcDbVisualStyle
  2
GouraudWithEdges
 70
     3
 71
     2
 72
     2
 73
     1
 90
        2
 40
-0.6
 41
30.0
 62
     5
 63
     7
 74
     1
 91
        4
 64
     7
 65
   257
 75
     1
175
     1
 42
1.0
 92
        0
 66
   257
 43
1.0
 76
     1
 77
     6
 78
     2
 67
     7
 79
     5
170
     0
171
     0
290
     0
174
     0
 93
        1
 44
0.0
173
     0
291
     1
 45
0.0
1001
ACAD
1000
AcDbSavedByObjectVersion
1070
     0
  0
VISUALSTYLE
  5
FD
102
{ACAD_REACTORS
330
EF
102
}
330
EF
100
AcDbVisualStyle
  2
Linepattern
 70
    14
 71
     2
 72
     2
 73
     1
 90
        0
 40
-0.6
 41
-30.0
 62
     5
 63
     7
 74
     1
 91
        4
 64
     7
 65
   257
 75
     7
175
     7
 42
1.0
 92
        8
 66
     7
 43
1.0
 76
     1
 77
     6
 78
     2
 67
     7
 79
     5
170
     0
171
     0
290
     0
174
     0
 93
        1
 44
0.0
173
     0
291
     1
 45
0.0
1001
ACAD
1000
AcDbSavedByObjectVersion
1070
     0
  0
VISUALSTYLE
  5
F9
102
{ACAD_REACTORS
330
EF
102
}
330
EF
100
AcDbVisualStyle
  2
Realistic
 70
     8
 71
     2
 72
     2
 73
     1
 90
        0
 40
-0.6
 41
-30.0
 62
     5
 63
     7
 74
     1
 91
        0
 64
     7
 65
   257
 75
     1
175
     1
 42
1.0
 92
        8
 66
     8
 43
1.0
 76
     1
 77
     6
 78
     2
 67
     7
 79
     5
170
     0
171
     0
290
     0
174
     0
 93
       13
 44
0.0
173
     0
291
     0
 45
0.0
1001
ACAD
1000
AcDbSavedByObjectVersion
1070
     0
  0
VISUALSTYLE
  5
FC
102
{ACAD_REACTORS
330
EF
102
}
330
EF
100
AcDbVisualStyle
  2
Thicken
 70
    13
 71
     2
 72
     2
 73
     1
 90
        0
 40
-0.6
 41
-30.0
 62
     5
 63
     7
 74
     1
 91
        4
 64
     7
 65
   257
 75
     1
175
     1
 42
1.0
 92
       12
 66
     7
 43
1.0
 76
     1
 77
     6
 78
     2
 67
     7
 79
     5
170
     0
171
     0
290
     0
174
     0
 93
        1
 44
0.0
173
     0
291
     1
 45
0.0
1001
ACAD
1000
AcDbSavedByObjectVersion
1070
     0
  0
DICTIONARYVAR
  5
146
102
{ACAD_REACTORS
330
5E
102
}
330
5E
100
DictionaryVariables
280
     0
  1
1:1
  0
DICTIONARYVAR
  5
145
102
{ACAD_REACTORS
330
5E
102
}
330
5E
100
DictionaryVariables
280
     0
  1
STANDARD
  0
DICTIONARYVAR
  5
84
102
{ACAD_REACTORS
330
5E
102
}
330
5E
100
DictionaryVariables
280
     0
  1
STANDARD
  0
DICTIONARYVAR
  5
5F
102
{ACAD_REACTORS
330
5E
102
}
330
5E
100
DictionaryVariables
280
     0
  1
2
  0
DICTIONARYVAR
  5
63
102
{ACAD_REACTORS
330
5E
102
}
330
5E
100
DictionaryVariables
280
     0
  1
1
  0
DICTIONARYVAR
  5
728
102
{ACAD_REACTORS
330
5E
102
}
330
5E
100
DictionaryVariables
280
     0
  1
0
  0
DICTIONARYVAR
  5
726
102
{ACAD_REACTORS
330
5E
102
}
330
5E
100
DictionaryVariables
280
     0
  1
2
  0
DICTIONARYVAR
  5
725
102
{ACAD_REACTORS
330
5E
102
}
330
5E
100
DictionaryVariables
280
     0
  1
1
  0
DICTIONARYVAR
  5
72A
102
{ACAD_REACTORS
330
5E
102
}
330
5E
100
DictionaryVariables
280
     0
  1
80.000000
  0
DICTIONARYVAR
  5
729
102
{ACAD_REACTORS
330
5E
102
}
330
5E
100
DictionaryVariables
280
     0
  1
5.000000
  0
DICTIONARYVAR
  5
727
102
{ACAD_REACTORS
330
5E
102
}
330
5E
100
DictionaryVariables
280
     0
  1
127
  0
DICTIONARY
  5
730
330
D3
100
AcDbDictionary
280
     1
281
     1
  3
ACAD_XREC_ROUNDTRIP
360
731
  0
DICTIONARY
  5
732
330
D7
100
AcDbDictionary
280
     1
281
     1
  3
ACAD_XREC_ROUNDTRIP
360
733
  0
DICTIONARY
  5
72D
330
22
100
AcDbDictionary
280
     1
281
     1
  3
ACAD_XREC_ROUNDTRIP
360
72E
  0
DICTIONARY
  5
736
330
ED
100
AcDbDictionary
280
     1
281
     1
  3
ACAD_XREC_ROUNDTRIP
360
737
  0
DICTIONARY
  5
734
330
EC
100
AcDbDictionary
280
     1
281
     1
  3
ACAD_XREC_ROUNDTRIP
360
735
  0
DICTIONARY
  5
173
330
EE
100
AcDbDictionary
280
     1
281
     1
  3
ACAD_XREC_ROUNDTRIP
360
738
  3
BUMPTILE
360
175
  3
DIFFUSETILE
360
174
  3
OPACITYTILE
360
176
  3
REFLECTIONTILE
360
177
  0
DICTIONARY
  5
162
330
7F
100
AcDbDictionary
280
     1
281
     1
  3
ACAD_ROUNDTRIP_2008_TABLESTYLE_CELLSTYLEMAP
360
72B
  3
ACAD_XREC_ROUNDTRIP
360
72F
  0
XRECORD
  5
731
102
{ACAD_REACTORS
330
730
102
}
330
730
100
AcDbXrecord
280
     1
102
SHADEPLOT
 70
     0
102
SHADEPLOTRESLEVEL
 70
     2
102
SHADEPLOTCUSTOMDPI
 70
   300
  0
XRECORD
  5
733
102
{ACAD_REACTORS
330
732
102
}
330
732
100
AcDbXrecord
280
     1
102
SHADEPLOT
 70
     0
102
SHADEPLOTRESLEVEL
 70
     2
102
SHADEPLOTCUSTOMDPI
 70
   300
  0
XRECORD
  5
72E
102
{ACAD_REACTORS
330
72D
102
}
330
72D
100
AcDbXrecord
280
     1
102
SHADEPLOT
 70
     0
102
SHADEPLOTRESLEVEL
 70
     2
102
SHADEPLOTCUSTOMDPI
 70
   300
  0
XRECORD
  5
737
102
{ACAD_REACTORS
330
736
102
}
330
736
100
AcDbXrecord
280
     1
102
MATERIAL
148
0.0
149
0.0
149
0.0
 93
        0
 94
       63
282
     0
 72
     1
 77
     1
171
     1
175
     1
179
     1
273
     0
  0
XRECORD
  5
735
102
{ACAD_REACTORS
330
734
102
}
330
734
100
AcDbXrecord
280
     1
102
MATERIAL
148
0.0
149
0.0
149
0.0
 93
        0
 94
       63
282
     0
 72
     1
 77
     1
171
     1
175
     1
179
     1
273
     0
  0
XRECORD
  5
738
102
{ACAD_REACTORS
330
173
102
}
330
173
100
AcDbXrecord
280
     1
102
MATERIAL
148
0.0
149
0.0
149
0.0
 93
        0
 94
       63
282
     0
 72
     1
 77
     1
171
     1
175
     1
179
     1
273
     0
  0
XRECORD
  5
175
102
{ACAD_REACTORS
330
173
102
}
330
173
100
AcDbXrecord
280
     1
270
     1
271
     1
  0
XRECORD
  5
174
102
{ACAD_REACTORS
330
173
102
}
330
173
100
AcDbXrecord
280
     1
270
     1
271
     1
  0
XRECORD
  5
176
102
{ACAD_REACTORS
330
173
102
}
330
173
100
AcDbXrecord
280
     1
270
     1
271
     1
  0
XRECORD
  5
177
102
{ACAD_REACTORS
330
173
102
}
330
173
100
AcDbXrecord
280
     1
270
     1
271
     1
  0
CELLSTYLEMAP
  5
72B
102
{ACAD_REACTORS
330
162
102
}
330
162
100
AcDbCellStyleMap
 90
        3
300
CELLSTYLE
  1
TABLEFORMAT_BEGIN
 90
        5
170
     1
 91
        0
 92
    32768
 62
   257
 93
        1
300
CONTENTFORMAT
  1
CONTENTFORMAT_BEGIN
 90
        0
 91
        0
 92
      512
 93
        0
300

 40
0.0
140
1.0
 94
        5
 62
     0
340
11
144
6.0
309
CONTENTFORMAT_END
171
     1
301
MARGIN
  1
CELLMARGIN_BEGIN
 40
1.5
 40
1.5
 40
1.5
 40
1.5
 40
4.5
 40
4.5
309
CELLMARGIN_END
 94
        6
 95
        1
302
GRIDFORMAT
  1
GRIDFORMAT_BEGIN
 90
        0
 91
        1
 62
     0
 92
       -2
340
14
 93
        0
 40
1.125
309
GRIDFORMAT_END
 95
        2
302
GRIDFORMAT
  1
GRIDFORMAT_BEGIN
 90
        0
 91
        1
 62
     0
 92
       -2
340
14
 93
        0
 40
1.125
309
GRIDFORMAT_END
 95
        4
302
GRIDFORMAT
  1
GRIDFORMAT_BEGIN
 90
        0
 91
        1
 62
     0
 92
       -2
340
14
 93
        0
 40
1.125
309
GRIDFORMAT_END
 95
        8
302
GRIDFORMAT
  1
GRIDFORMAT_BEGIN
 90
        0
 91
        1
 62
     0
 92
       -2
340
14
 93
        0
 40
1.125
309
GRIDFORMAT_END
 95
       16
302
GRIDFORMAT
  1
GRIDFORMAT_BEGIN
 90
        0
 91
        1
 62
     0
 92
       -2
340
14
 93
        0
 40
1.125
309
GRIDFORMAT_END
 95
       32
302
GRIDFORMAT
  1
GRIDFORMAT_BEGIN
 90
        0
 91
        1
 62
     0
 92
       -2
340
14
 93
        0
 40
1.125
309
GRIDFORMAT_END
309
TABLEFORMAT_END
  1
CELLSTYLE_BEGIN
 90
        1
 91
        1
300
_TITLE
309
CELLSTYLE_END
300
CELLSTYLE
  1
TABLEFORMAT_BEGIN
 90
        5
170
     1
 91
        0
 92
        0
 62
   257
 93
        1
300
CONTENTFORMAT
  1
CONTENTFORMAT_BEGIN
 90
        0
 91
        0
 92
      512
 93
        0
300

 40
0.0
140
1.0
 94
        5
 62
     0
340
11
144
4.5
309
CONTENTFORMAT_END
171
     1
301
MARGIN
  1
CELLMARGIN_BEGIN
 40
1.5
 40
1.5
 40
1.5
 40
1.5
 40
4.5
 40
4.5
309
CELLMARGIN_END
 94
        6
 95
        1
302
GRIDFORMAT
  1
GRIDFORMAT_BEGIN
 90
        0
 91
        1
 62
     0
 92
       -2
340
14
 93
        0
 40
1.125
309
GRIDFORMAT_END
 95
        2
302
GRIDFORMAT
  1
GRIDFORMAT_BEGIN
 90
        0
 91
        1
 62
     0
 92
       -2
340
14
 93
        0
 40
1.125
309
GRIDFORMAT_END
 95
        4
302
GRIDFORMAT
  1
GRIDFORMAT_BEGIN
 90
        0
 91
        1
 62
     0
 92
       -2
340
14
 93
        0
 40
1.125
309
GRIDFORMAT_END
 95
        8
302
GRIDFORMAT
  1
GRIDFORMAT_BEGIN
 90
        0
 91
        1
 62
     0
 92
       -2
340
14
 93
        0
 40
1.125
309
GRIDFORMAT_END
 95
       16
302
GRIDFORMAT
  1
GRIDFORMAT_BEGIN
 90
        0
 91
        1
 62
     0
 92
       -2
340
14
 93
        0
 40
1.125
309
GRIDFORMAT_END
 95
       32
302
GRIDFORMAT
  1
GRIDFORMAT_BEGIN
 90
        0
 91
        1
 62
     0
 92
       -2
340
14
 93
        0
 40
1.125
309
GRIDFORMAT_END
309
TABLEFORMAT_END
  1
CELLSTYLE_BEGIN
 90
        2
 91
        1
300
_HEADER
309
CELLSTYLE_END
300
CELLSTYLE
  1
TABLEFORMAT_BEGIN
 90
        5
170
     1
 91
        0
 92
        0
 62
   257
 93
        1
300
CONTENTFORMAT
  1
CONTENTFORMAT_BEGIN
 90
        0
 91
        0
 92
      512
 93
        0
300

 40
0.0
140
1.0
 94
        2
 62
     0
340
11
144
4.5
309
CONTENTFORMAT_END
171
     1
301
MARGIN
  1
CELLMARGIN_BEGIN
 40
1.5
 40
1.5
 40
1.5
 40
1.5
 40
4.5
 40
4.5
309
CELLMARGIN_END
 94
        6
 95
        1
302
GRIDFORMAT
  1
GRIDFORMAT_BEGIN
 90
        0
 91
        1
 62
     0
 92
       -2
340
14
 93
        0
 40
1.125
309
GRIDFORMAT_END
 95
        2
302
GRIDFORMAT
  1
GRIDFORMAT_BEGIN
 90
        0
 91
        1
 62
     0
 92
       -2
340
14
 93
        0
 40
1.125
309
GRIDFORMAT_END
 95
        4
302
GRIDFORMAT
  1
GRIDFORMAT_BEGIN
 90
        0
 91
        1
 62
     0
 92
       -2
340
14
 93
        0
 40
1.125
309
GRIDFORMAT_END
 95
        8
302
GRIDFORMAT
  1
GRIDFORMAT_BEGIN
 90
        0
 91
        1
 62
     0
 92
       -2
340
14
 93
        0
 40
1.125
309
GRIDFORMAT_END
 95
       16
302
GRIDFORMAT
  1
GRIDFORMAT_BEGIN
 90
        0
 91
        1
 62
     0
 92
       -2
340
14
 93
        0
 40
1.125
309
GRIDFORMAT_END
 95
       32
302
GRIDFORMAT
  1
GRIDFORMAT_BEGIN
 90
        0
 91
        1
 62
     0
 92
       -2
340
14
 93
        0
 40
1.125
309
GRIDFORMAT_END
309
TABLEFORMAT_END
  1
CELLSTYLE_BEGIN
 90
        3
 91
        2
300
_DATA
309
CELLSTYLE_END
  0
XRECORD
  5
72F
102
{ACAD_REACTORS
330
162
102
}
330
162
100
AcDbXrecord
280
     1
102
ACAD_ROUNDTRIP_PRE2007_TABLESTYLE
 90
      512
 91
        0
  1

 92
      512
 93
        0
  2

 94
      512
 95
        0
  3

  0
ENDSEC
  0
EOF
