  0
SECTION
  2
HEADER
  9
$ACADVER
  1
AC1015
  9
$ACADMAINTVER
 70
    20
  9
$DWGCODEPAGE
  3
ANSI_1254
  9
$INSBASE
 10
0.0
 20
0.0
 30
0.0
  9
$EXTMIN
 10
1880.000000082374
 20
779.9999997396175
 30
0.0
  9
$EXTMAX
 10
1940.023180517125
 20
825.5620455024674
 30
0.0
  9
$LIMMIN
 10
0.0
 20
0.0
  9
$LIMMAX
 10
420.0
 20
297.0
  9
$ORTHOMODE
 70
     0
  9
$REGENMODE
 70
     1
  9
$FILLMODE
 70
     1
  9
$QTEXTMODE
 70
     0
  9
$MIRRTEXT
 70
     0
  9
$LTSCALE
 40
1.0
  9
$ATTMODE
 70
     1
  9
$TEXTSIZE
 40
2.5
  9
$TRACEWID
 40
1.0
  9
$TEXTSTYLE
  7
Standard
  9
$CLAYER
  8
0
  9
$CELTYPE
  6
ByLayer
  9
$CECOLOR
 62
   256
  9
$CELTSCALE
 40
1.0
  9
$DISPSILH
 70
     0
  9
$DIMSCALE
 40
1.0
  9
$DIMASZ
 40
2.5
  9
$DIMEXO
 40
0.625
  9
$DIMDLI
 40
3.75
  9
$DIMRND
 40
0.0
  9
$DIMDLE
 40
0.0
  9
$DIMEXE
 40
1.25
  9
$DIMTP
 40
0.0
  9
$DIMTM
 40
0.0
  9
$DIMTXT
 40
2.5
  9
$DIMCEN
 40
2.5
  9
$DIMTSZ
 40
0.0
  9
$DIMTOL
 70
     0
  9
$DIMLIM
 70
     0
  9
$DIMTIH
 70
     0
  9
$DIMTOH
 70
     0
  9
$DIMSE1
 70
     0
  9
$DIMSE2
 70
     0
  9
$DIMTAD
 70
     1
  9
$DIMZIN
 70
     8
  9
$DIMBLK
  1

  9
$DIMASO
 70
     1
  9
$DIMSHO
 70
     1
  9
$DIMPOST
  1

  9
$DIMAPOST
  1

  9
$DIMALT
 70
     0
  9
$DIMALTD
 70
     3
  9
$DIMALTF
 40
0.03937007874016
  9
$DIMLFAC
 40
1.0
  9
$DIMTOFL
 70
     1
  9
$DIMTVP
 40
0.0
  9
$DIMTIX
 70
     0
  9
$DIMSOXD
 70
     0
  9
$DIMSAH
 70
     0
  9
$DIMBLK1
  1

  9
$DIMBLK2
  1

  9
$DIMSTYLE
  2
ISO-25
  9
$DIMCLRD
 70
     0
  9
$DIMCLRE
 70
     0
  9
$DIMCLRT
 70
     0
  9
$DIMTFAC
 40
1.0
  9
$DIMGAP
 40
0.625
  9
$DIMJUST
 70
     0
  9
$DIMSD1
 70
     0
  9
$DIMSD2
 70
     0
  9
$DIMTOLJ
 70
     0
  9
$DIMTZIN
 70
     8
  9
$DIMALTZ
 70
     0
  9
$DIMALTTZ
 70
     0
  9
$DIMUPT
 70
     0
  9
$DIMDEC
 70
     2
  9
$DIMTDEC
 70
     2
  9
$DIMALTU
 70
     2
  9
$DIMALTTD
 70
     3
  9
$DIMTXSTY
  7
Standard
  9
$DIMAUNIT
 70
     0
  9
$DIMADEC
 70
     0
  9
$DIMALTRND
 40
0.0
  9
$DIMAZIN
 70
     0
  9
$DIMDSEP
 70
    44
  9
$DIMATFIT
 70
     3
  9
$DIMFRAC
 70
     0
  9
$DIMLDRBLK
  1

  9
$DIMLUNIT
 70
     2
  9
$DIMLWD
 70
    -2
  9
$DIMLWE
 70
    -2
  9
$DIMTMOVE
 70
     0
  9
$LUNITS
 70
     2
  9
$LUPREC
 70
     4
  9
$SKETCHINC
 40
1.0
  9
$FILLETRAD
 40
0.0
  9
$AUNITS
 70
     0
  9
$AUPREC
 70
     0
  9
$MENU
  1
.
  9
$ELEVATION
 40
0.0
  9
$PELEVATION
 40
0.0
  9
$THICKNESS
 40
0.0
  9
$LIMCHECK
 70
     0
  9
$CHAMFERA
 40
0.0
  9
$CHAMFERB
 40
0.0
  9
$CHAMFERC
 40
0.0
  9
$CHAMFERD
 40
0.0
  9
$SKPOLY
 70
     0
  9
$TDCREATE
 40
2458932.581494086
  9
$TDUCREATE
 40
2458932.456494085
  9
$TDUPDATE
 40
2458956.440620856
  9
$TDUUPDATE
 40
2458956.315620856
  9
$TDINDWG
 40
0.0017701852
  9
$TDUSRTIMER
 40
0.0017701852
  9
$USRTIMER
 70
     1
  9
$ANGBASE
 50
0.0
  9
$ANGDIR
 70
     0
  9
$PDMODE
 70
     0
  9
$PDSIZE
 40
0.0
  9
$PLINEWID
 40
0.0
  9
$SPLFRAME
 70
     0
  9
$SPLINETYPE
 70
     6
  9
$SPLINESEGS
 70
     8
  9
$HANDSEED
  5
61E
  9
$SURFTAB1
 70
     6
  9
$SURFTAB2
 70
     6
  9
$SURFTYPE
 70
     6
  9
$SURFU
 70
     6
  9
$SURFV
 70
     6
  9
$UCSBASE
  2

  9
$UCSNAME
  2

  9
$UCSORG
 10
0.0
 20
0.0
 30
0.0
  9
$UCSXDIR
 10
1.0
 20
0.0
 30
0.0
  9
$UCSYDIR
 10
0.0
 20
1.0
 30
0.0
  9
$UCSORTHOREF
  2

  9
$UCSORTHOVIEW
 70
     0
  9
$UCSORGTOP
 10
0.0
 20
0.0
 30
0.0
  9
$UCSORGBOTTOM
 10
0.0
 20
0.0
 30
0.0
  9
$UCSORGLEFT
 10
0.0
 20
0.0
 30
0.0
  9
$UCSORGRIGHT
 10
0.0
 20
0.0
 30
0.0
  9
$UCSORGFRONT
 10
0.0
 20
0.0
 30
0.0
  9
$UCSORGBACK
 10
0.0
 20
0.0
 30
0.0
  9
$PUCSBASE
  2

  9
$PUCSNAME
  2

  9
$PUCSORG
 10
0.0
 20
0.0
 30
0.0
  9
$PUCSXDIR
 10
1.0
 20
0.0
 30
0.0
  9
$PUCSYDIR
 10
0.0
 20
1.0
 30
0.0
  9
$PUCSORTHOREF
  2

  9
$PUCSORTHOVIEW
 70
     0
  9
$PUCSORGTOP
 10
0.0
 20
0.0
 30
0.0
  9
$PUCSORGBOTTOM
 10
0.0
 20
0.0
 30
0.0
  9
$PUCSORGLEFT
 10
0.0
 20
0.0
 30
0.0
  9
$PUCSORGRIGHT
 10
0.0
 20
0.0
 30
0.0
  9
$PUCSORGFRONT
 10
0.0
 20
0.0
 30
0.0
  9
$PUCSORGBACK
 10
0.0
 20
0.0
 30
0.0
  9
$USERI1
 70
     0
  9
$USERI2
 70
     0
  9
$USERI3
 70
     0
  9
$USERI4
 70
     0
  9
$USERI5
 70
     0
  9
$USERR1
 40
0.0
  9
$USERR2
 40
0.0
  9
$USERR3
 40
0.0
  9
$USERR4
 40
0.0
  9
$USERR5
 40
0.0
  9
$WORLDVIEW
 70
     1
  9
$SHADEDGE
 70
     3
  9
$SHADEDIF
 70
    70
  9
$TILEMODE
 70
     1
  9
$MAXACTVP
 70
    64
  9
$PINSBASE
 10
0.0
 20
0.0
 30
0.0
  9
$PLIMCHECK
 70
     0
  9
$PEXTMIN
 10
0.0
 20
0.0
 30
0.0
  9
$PEXTMAX
 10
0.0
 20
0.0
 30
0.0
  9
$PLIMMIN
 10
0.0
 20
0.0
  9
$PLIMMAX
 10
12.0
 20
9.0
  9
$UNITMODE
 70
     0
  9
$VISRETAIN
 70
     1
  9
$PLINEGEN
 70
     0
  9
$PSLTSCALE
 70
     1
  9
$TREEDEPTH
 70
  3020
  9
$CMLSTYLE
  2
Standard
  9
$CMLJUST
 70
     0
  9
$CMLSCALE
 40
20.0
  9
$PROXYGRAPHICS
 70
     1
  9
$MEASUREMENT
 70
     1
  9
$CELWEIGHT
370
    -1
  9
$ENDCAPS
280
     0
  9
$JOINSTYLE
280
     0
  9
$LWDISPLAY
290
     0
  9
$INSUNITS
 70
     4
  9
$HYPERLINKBASE
  1

  9
$STYLESHEET
  1

  9
$XEDIT
290
     1
  9
$CEPSNTYPE
380
     0
  9
$PSTYLEMODE
290
     1
  9
$FINGERPRINTGUID
  2
{D375E484-360C-4CE3-B696-516ECF5A1922}
  9
$VERSIONGUID
  2
{70BB944D-A660-43A6-BD90-17C4AF8EC5E2}
  9
$EXTNAMES
290
     1
  9
$PSVPSCALE
 40
0.0
  9
$OLESTARTUP
290
     0
  0
ENDSEC
  0
SECTION
  2
CLASSES
  0
CLASS
  1
ACDBDICTIONARYWDFLT
  2
AcDbDictionaryWithDefault
  3
ObjectDBX Classes
 90
        0
280
     0
281
     0
  0
CLASS
  1
ACDBPLACEHOLDER
  2
AcDbPlaceHolder
  3
ObjectDBX Classes
 90
        0
280
     0
281
     0
  0
CLASS
  1
LAYOUT
  2
AcDbLayout
  3
ObjectDBX Classes
 90
        0
280
     0
281
     0
  0
CLASS
  1
DICTIONARYVAR
  2
AcDbDictionaryVar
  3
ObjectDBX Classes
 90
        0
280
     0
281
     0
  0
CLASS
  1
TABLESTYLE
  2
AcDbTableStyle
  3
ObjectDBX Classes
 90
     4095
280
     0
281
     0
  0
CLASS
  1
MATERIAL
  2
AcDbMaterial
  3
ObjectDBX Classes
 90
     1153
280
     0
281
     0
  0
CLASS
  1
VISUALSTYLE
  2
AcDbVisualStyle
  3
ObjectDBX Classes
 90
     4095
280
     0
281
     0
  0
CLASS
  1
SCALE
  2
AcDbScale
  3
ObjectDBX Classes
 90
     1153
280
     0
281
     0
  0
CLASS
  1
MLEADERSTYLE
  2
AcDbMLeaderStyle
  3
ACDB_MLEADERSTYLE_CLASS
 90
     4095
280
     0
281
     0
  0
CLASS
  1
CELLSTYLEMAP
  2
AcDbCellStyleMap
  3
ObjectDBX Classes
 90
     1152
280
     0
281
     0
  0
ENDSEC
  0
SECTION
  2
TABLES
  0
TABLE
  2
VPORT
  5
8
330
0
100
AcDbSymbolTable
 70
     1
  0
VPORT
  5
EA
330
8
100
AcDbSymbolTableRecord
100
AcDbViewportTableRecord
  2
*Active
 70
     0
 10
0.0
 20
0.0
 11
1.0
 21
1.0
 12
1910.035950382211
 22
805.3940645684802
 13
0.0
 23
0.0
 14
10.0
 24
10.0
 15
10.0
 25
10.0
 16
0.0
 26
0.0
 36
1.0
 17
0.0
 27
0.0
 37
0.0
 40
51.17898341506259
 41
1.903110047846889
 42
50.0
 43
0.0
 44
0.0
 50
0.0
 51
0.0
 71
     0
 72
  1000
 73
     1
 74
     3
 75
     0
 76
     0
 77
     0
 78
     0
281
     0
 65
     1
110
0.0
120
0.0
130
0.0
111
1.0
121
0.0
131
0.0
112
0.0
122
1.0
132
0.0
 79
     0
146
0.0
  0
ENDTAB
  0
TABLE
  2
LTYPE
  5
5
330
0
100
AcDbSymbolTable
 70
     1
  0
LTYPE
  5
14
330
5
100
AcDbSymbolTableRecord
100
AcDbLinetypeTableRecord
  2
ByBlock
 70
     0
  3

 72
    65
 73
     0
 40
0.0
  0
LTYPE
  5
15
330
5
100
AcDbSymbolTableRecord
100
AcDbLinetypeTableRecord
  2
ByLayer
 70
     0
  3

 72
    65
 73
     0
 40
0.0
  0
LTYPE
  5
16
330
5
100
AcDbSymbolTableRecord
100
AcDbLinetypeTableRecord
  2
Continuous
 70
     0
  3
Solid line
 72
    65
 73
     0
 40
0.0
  0
ENDTAB
  0
TABLE
  2
LAYER
  5
2
330
0
100
AcDbSymbolTable
 70
     1
  0
LAYER
  5
10
102
{ACAD_XDICTIONARY
360
13C
102
}
330
2
100
AcDbSymbolTableRecord
100
AcDbLayerTableRecord
  2
0
 70
     0
 62
     7
  6
Continuous
370
    -3
390
F
  0
ENDTAB
  0
TABLE
  2
STYLE
  5
3
330
0
100
AcDbSymbolTable
 70
     2
  0
STYLE
  5
11
330
3
100
AcDbSymbolTableRecord
100
AcDbTextStyleTableRecord
  2
Standard
 70
     0
 40
0.0
 41
1.0
 50
0.0
 71
     0
 42
2.5
  3
txt
  4

  0
STYLE
  5
132
330
3
100
AcDbSymbolTableRecord
100
AcDbTextStyleTableRecord
  2
Annotative
 70
     0
 40
0.0
 41
1.0
 50
0.0
 71
     0
 42
2.5
  3
txt.shx
  4

1001
AcadAnnotative
1000
AnnotativeData
1002
{
1070
     1
1070
     1
1002
}
  0
ENDTAB
  0
TABLE
  2
VIEW
  5
6
330
0
100
AcDbSymbolTable
 70
     0
  0
ENDTAB
  0
TABLE
  2
UCS
  5
7
330
0
100
AcDbSymbolTable
 70
     0
  0
ENDTAB
  0
TABLE
  2
APPID
  5
9
330
0
100
AcDbSymbolTable
 70
     7
  0
APPID
  5
12
330
9
100
AcDbSymbolTableRecord
100
AcDbRegAppTableRecord
  2
ACAD
 70
     0
  0
APPID
  5
9E
330
9
100
AcDbSymbolTableRecord
100
AcDbRegAppTableRecord
  2
ACAD_PSEXT
 70
     0
  0
APPID
  5
133
330
9
100
AcDbSymbolTableRecord
100
AcDbRegAppTableRecord
  2
AcadAnnoPO
 70
     0
  0
APPID
  5
134
330
9
100
AcDbSymbolTableRecord
100
AcDbRegAppTableRecord
  2
AcadAnnotative
 70
     0
  0
APPID
  5
135
330
9
100
AcDbSymbolTableRecord
100
AcDbRegAppTableRecord
  2
ACAD_DSTYLE_DIMJAG
 70
     0
  0
APPID
  5
136
330
9
100
AcDbSymbolTableRecord
100
AcDbRegAppTableRecord
  2
ACAD_DSTYLE_DIMTALN
 70
     0
  0
APPID
  5
165
330
9
100
AcDbSymbolTableRecord
100
AcDbRegAppTableRecord
  2
ACAD_MLEADERVER
 70
     0
  0
ENDTAB
  0
TABLE
  2
DIMSTYLE
  5
A
330
0
100
AcDbSymbolTable
 70
     2
100
AcDbDimStyleTable
 71
     2
340
27
340
137
  0
DIMSTYLE
105
27
330
A
100
AcDbSymbolTableRecord
100
AcDbDimStyleTableRecord
  2
ISO-25
 70
     0
 41
2.5
 42
0.625
 43
3.75
 44
1.25
 73
     0
 74
     0
 77
     1
 78
     8
140
2.5
141
2.5
143
0.03937007874016
147
0.625
171
     3
172
     1
271
     2
272
     2
274
     3
278
    44
283
     0
284
     8
340
11
  0
DIMSTYLE
105
137
330
A
100
AcDbSymbolTableRecord
100
AcDbDimStyleTableRecord
  2
Annotative
 70
     0
 40
0.0
 41
2.5
 42
0.625
 43
3.75
 44
1.25
 73
     0
 74
     0
 77
     1
 78
     8
140
2.5
141
2.5
143
0.03937007874016
147
0.625
171
     3
172
     1
271
     2
272
     2
274
     3
278
    44
283
     0
284
     8
340
11
1001
AcadAnnotative
1000
AnnotativeData
1002
{
1070
     1
1070
     1
1002
}
1001
ACAD_DSTYLE_DIMJAG
1070
   388
1040
1.5
1001
ACAD_DSTYLE_DIMTALN
1070
   392
1070
     0
  0
ENDTAB
  0
TABLE
  2
BLOCK_RECORD
  5
1
330
0
100
AcDbSymbolTable
 70
     5
  0
BLOCK_RECORD
  5
1F
330
1
100
AcDbSymbolTableRecord
100
AcDbBlockTableRecord
  2
*Model_Space
340
22
  0
BLOCK_RECORD
  5
D2
330
1
100
AcDbSymbolTableRecord
100
AcDbBlockTableRecord
  2
*Paper_Space
340
D3
  0
BLOCK_RECORD
  5
D6
330
1
100
AcDbSymbolTableRecord
100
AcDbBlockTableRecord
  2
*Paper_Space0
340
D7
  0
BLOCK_RECORD
  5
487
330
1
100
AcDbSymbolTableRecord
100
AcDbBlockTableRecord
  2
1
340
0
310
2800000020000000200000000100080000000000000400000000000000000000000000000000000000000000000080000080000000808000800000008000800080800000C0C0C000C0DCC000F0CAA6000020400000206000002080000020A0000020C0000020E00000400000004020000040400000406000004080000040A0
310
000040C0000040E00000600000006020000060400000606000006080000060A0000060C0000060E00000800000008020000080400000806000008080000080A0000080C0000080E00000A0000000A0200000A0400000A0600000A0800000A0A00000A0C00000A0E00000C0000000C0200000C0400000C0600000C0800000C0
310
A00000C0C00000C0E00000E0000000E0200000E0400000E0600000E0800000E0A00000E0C00000E0E00040000000400020004000400040006000400080004000A0004000C0004000E00040200000402020004020400040206000402080004020A0004020C0004020E000404000004040200040404000404060004040800040
310
40A0004040C0004040E00040600000406020004060400040606000406080004060A0004060C0004060E00040800000408020004080400040806000408080004080A0004080C0004080E00040A0000040A0200040A0400040A0600040A0800040A0A00040A0C00040A0E00040C0000040C0200040C0400040C0600040C08000
310
40C0A00040C0C00040C0E00040E0000040E0200040E0400040E0600040E0800040E0A00040E0C00040E0E00080000000800020008000400080006000800080008000A0008000C0008000E00080200000802020008020400080206000802080008020A0008020C0008020E00080400000804020008040400080406000804080
310
008040A0008040C0008040E00080600000806020008060400080606000806080008060A0008060C0008060E00080800000808020008080400080806000808080008080A0008080C0008080E00080A0000080A0200080A0400080A0600080A0800080A0A00080A0C00080A0E00080C0000080C0200080C0400080C0600080C0
310
800080C0A00080C0C00080C0E00080E0000080E0200080E0400080E0600080E0800080E0A00080E0C00080E0E000C0000000C0002000C0004000C0006000C0008000C000A000C000C000C000E000C0200000C0202000C0204000C0206000C0208000C020A000C020C000C020E000C0400000C0402000C0404000C0406000C0
310
408000C040A000C040C000C040E000C0600000C0602000C0604000C0606000C0608000C060A000C060C000C060E000C0800000C0802000C0804000C0806000C0808000C080A000C080C000C080E000C0A00000C0A02000C0A04000C0A06000C0A08000C0A0A000C0A0C000C0A0E000C0C00000C0C02000C0C04000C0C06000
310
C0C08000C0C0A000F0FBFF00A4A0A000808080000000FF0000FF000000FFFF00FF000000FF00FF00FFFF0000FFFFFF00000000000000000000000000000000000000000000000000000000000000000000000000000000FFFFFF00000000FFFFFF0000000000FFFFFF00000000000000000000000000FF0000FF00000000FF
310
0000FF00000000FF0000FF000000000000000000000000FF0000FF00000000FF0000FF00000000FF0000FF000000000000000000000000FF0000FF00000000FF0000FF00000000FF0000FF000000000000000000000000FF0000FF00000000FF0000FF00000000FF0000FF000000000000000000000000FF0000FF00000000
310
FF0000FF00000000FF0000FF000000000000000000000000FF0000FF00000000FF0000FF00000000FF0000FF000000000000000000000000FF0000FF00000000FF0000FF00000000FF0000FF000000000000000000000000FF0000FF00000000FF0000FF00000000FF0000FF000000000000000000000000FF0000FF000000
310
00FF0000FF00000000FF0000FF000000000000000000000000FFFFFFFF00000000FFFFFFFF00000000FFFFFFFF000000000000000000000000FFFFFFFF00000000FFFFFFFF00000000FFFFFFFF0000000000000000000000FFFFFFFFFFFF0000FFFFFFFFFFFF0000FFFFFFFFFFFF00000000000000000000FF00000000FF00
310
00FF00000000FF0000FF00000000FF00000000000000000000FF00000000FF0000FF00000000FF0000FF00000000FF00000000000000000000FF00000000FF0000FF00000000FF0000FF00000000FF00000000000000000000FF00000000FF0000FF00000000FF0000FF00000000FF00000000000000000000FF00000000FF
310
0000FF00000000FF0000FF00000000FF00000000000000000000FFFFFFFFFFFF0000FFFFFFFFFFFF0000FFFFFFFFFFFF00000000000000000000FFFFFFFFFFFF0000FFFFFFFFFFFF0000FFFFFFFFFFFF00000000000000000000FF00000000FF0000FF00000000FF0000FF00000000FF00000000000000000000FF00000000
310
FF0000FF00000000FF0000FF00000000FF000000000000000000FFFF00000000FFFFFFFF00000000FFFFFFFF00000000FFFF0000000000000000FF00000000000000000000000000000000000000000000FF0000000000000000FF00000000000000000000000000000000000000000000FF0000000000000000FF00000000
310
000000000000000000000000000000000000FF0000000000000000FF00000000000000000000000000000000000000000000FF0000000000000000FFFFFFFFFFFFFFFFFFFFFFFFFFFFFFFFFFFFFFFFFFFFFFFF0000000000000000FF00000000000000000000000000000000000000000000FF0000000000000000FFFFFFFF
310
FFFFFFFFFFFFFFFFFFFFFFFFFFFFFFFFFFFFFFFF000000000000000000000000000000000000000000000000000000000000000000000000
102
{BLKREFS
331
505
102
}
1001
ACAD
1000
DesignCenter Data
1002
{
1070
     1
1070
     4
1002
}
  0
BLOCK_RECORD
  5
506
330
1
100
AcDbSymbolTableRecord
100
AcDbBlockTableRecord
  2
2
340
0
310
2800000020000000200000000100080000000000000400000000000000000000000000000000000000000000000080000080000000808000800000008000800080800000C0C0C000C0DCC000F0CAA6000020400000206000002080000020A0000020C0000020E00000400000004020000040400000406000004080000040A0
310
000040C0000040E00000600000006020000060400000606000006080000060A0000060C0000060E00000800000008020000080400000806000008080000080A0000080C0000080E00000A0000000A0200000A0400000A0600000A0800000A0A00000A0C00000A0E00000C0000000C0200000C0400000C0600000C0800000C0
310
A00000C0C00000C0E00000E0000000E0200000E0400000E0600000E0800000E0A00000E0C00000E0E00040000000400020004000400040006000400080004000A0004000C0004000E00040200000402020004020400040206000402080004020A0004020C0004020E000404000004040200040404000404060004040800040
310
40A0004040C0004040E00040600000406020004060400040606000406080004060A0004060C0004060E00040800000408020004080400040806000408080004080A0004080C0004080E00040A0000040A0200040A0400040A0600040A0800040A0A00040A0C00040A0E00040C0000040C0200040C0400040C0600040C08000
310
40C0A00040C0C00040C0E00040E0000040E0200040E0400040E0600040E0800040E0A00040E0C00040E0E00080000000800020008000400080006000800080008000A0008000C0008000E00080200000802020008020400080206000802080008020A0008020C0008020E00080400000804020008040400080406000804080
310
008040A0008040C0008040E00080600000806020008060400080606000806080008060A0008060C0008060E00080800000808020008080400080806000808080008080A0008080C0008080E00080A0000080A0200080A0400080A0600080A0800080A0A00080A0C00080A0E00080C0000080C0200080C0400080C0600080C0
310
800080C0A00080C0C00080C0E00080E0000080E0200080E0400080E0600080E0800080E0A00080E0C00080E0E000C0000000C0002000C0004000C0006000C0008000C000A000C000C000C000E000C0200000C0202000C0204000C0206000C0208000C020A000C020C000C020E000C0400000C0402000C0404000C0406000C0
310
408000C040A000C040C000C040E000C0600000C0602000C0604000C0606000C0608000C060A000C060C000C060E000C0800000C0802000C0804000C0806000C0808000C080A000C080C000C080E000C0A00000C0A02000C0A04000C0A06000C0A08000C0A0A000C0A0C000C0A0E000C0C00000C0C02000C0C04000C0C06000
310
C0C08000C0C0A000F0FBFF00A4A0A000808080000000FF0000FF000000FFFF00FF000000FF00FF00FFFF0000FFFFFF0000000000000000000000000000000000000000000000000000000000000000000000000000000000000000000000FFFFFFFF00000000000000000000000000000000000000000000000000000000FF
310
FFFFFF00000000000000000000000000000000000000000000000000000000FF0000FF00000000000000000000000000000000000000000000000000000000FFFFFFFF00000000000000000000000000000000000000000000000000000000FF0000FF00000000000000000000000000000000000000000000000000000000
310
FF0000FF00000000000000000000000000000000000000000000000000000000FF0000FF00000000000000000000000000000000000000000000000000000000FF0000FF00000000000000000000000000000000000000000000000000000000FF0000FF000000000000000000000000000000000000000000000000000000
310
00FF0000FF00000000000000000000000000000000000000000000000000000000FFFFFFFF0000000000000000000000000000000000000000000000000000000000FFFF0000000000000000000000000000000000000000000000000000000000FFFFFFFF0000000000000000000000000000000000000000000000000000
310
0000FFFFFFFF00000000000000000000000000000000000000000000000000000000FFFFFFFF00000000000000000000000000000000000000000000000000000000FF0000FF00000000000000000000000000000000000000000000000000000000FF0000FF00000000000000000000000000000000000000000000000000
310
000000FF0000FF00000000000000000000000000000000000000000000000000000000FF0000FF00000000000000000000000000000000000000000000000000000000FF0000FF00000000000000000000000000000000000000000000000000000000FF0000FF000000000000000000000000000000000000000000000000
310
00000000FF0000FF00000000000000000000000000000000000000000000000000000000FFFFFFFF00000000000000000000000000000000000000000000000000000000FF0000FF00000000000000000000000000000000000000000000000000000000FF0000FF0000000000000000000000000000000000000000000000
310
0000000000FF0000FF00000000000000000000000000000000000000000000000000000000FF0000FF000000000000000000000000000000000000000000000000000000FFFF0000FFFF0000000000000000000000000000000000000000000000000000FF00000000FF000000000000000000000000000000000000000000
310
0000000000FFFFFFFFFFFF000000000000000000000000000000000000000000000000000000000000000000000000000000000000000000
102
{BLKREFS
331
534
102
}
1001
ACAD
1000
DesignCenter Data
1002
{
1070
     1
1070
     4
1002
}
  0
BLOCK_RECORD
  5
535
330
1
100
AcDbSymbolTableRecord
100
AcDbBlockTableRecord
  2
3
340
0
310
2800000020000000200000000100080000000000000400000000000000000000000000000000000000000000000080000080000000808000800000008000800080800000C0C0C000C0DCC000F0CAA6000020400000206000002080000020A0000020C0000020E00000400000004020000040400000406000004080000040A0
310
000040C0000040E00000600000006020000060400000606000006080000060A0000060C0000060E00000800000008020000080400000806000008080000080A0000080C0000080E00000A0000000A0200000A0400000A0600000A0800000A0A00000A0C00000A0E00000C0000000C0200000C0400000C0600000C0800000C0
310
A00000C0C00000C0E00000E0000000E0200000E0400000E0600000E0800000E0A00000E0C00000E0E00040000000400020004000400040006000400080004000A0004000C0004000E00040200000402020004020400040206000402080004020A0004020C0004020E000404000004040200040404000404060004040800040
310
40A0004040C0004040E00040600000406020004060400040606000406080004060A0004060C0004060E00040800000408020004080400040806000408080004080A0004080C0004080E00040A0000040A0200040A0400040A0600040A0800040A0A00040A0C00040A0E00040C0000040C0200040C0400040C0600040C08000
310
40C0A00040C0C00040C0E00040E0000040E0200040E0400040E0600040E0800040E0A00040E0C00040E0E00080000000800020008000400080006000800080008000A0008000C0008000E00080200000802020008020400080206000802080008020A0008020C0008020E00080400000804020008040400080406000804080
310
008040A0008040C0008040E00080600000806020008060400080606000806080008060A0008060C0008060E00080800000808020008080400080806000808080008080A0008080C0008080E00080A0000080A0200080A0400080A0600080A0800080A0A00080A0C00080A0E00080C0000080C0200080C0400080C0600080C0
310
800080C0A00080C0C00080C0E00080E0000080E0200080E0400080E0600080E0800080E0A00080E0C00080E0E000C0000000C0002000C0004000C0006000C0008000C000A000C000C000C000E000C0200000C0202000C0204000C0206000C0208000C020A000C020C000C020E000C0400000C0402000C0404000C0406000C0
310
408000C040A000C040C000C040E000C0600000C0602000C0604000C0606000C0608000C060A000C060C000C060E000C0800000C0802000C0804000C0806000C0808000C080A000C080C000C080E000C0A00000C0A02000C0A04000C0A06000C0A08000C0A0A000C0A0C000C0A0E000C0C00000C0C02000C0C04000C0C06000
310
C0C08000C0C0A000F0FBFF00A4A0A000808080000000FF0000FF000000FFFF00FF000000FF00FF00FFFF0000FFFFFF0000000000000000000000000000000000000000000000000000000000000000000000000000000000000000000000000000000000000000000000000000000000000000000000000000000000000000
310
00000000000000000000000000000000000000000000000000000000000000000000000000000000000000000000000000000000000000000000000000000000000000000000000000000000000000000000000000000000000000000000000000000000000000000000000000000000000000000000000000000000000000
310
00000000000000000000000000000000000000000000000000000000000000000000000000000000000000000000000000000000000000000000000000000000000000000000000000000000000000000000000000000000000000000000000000000000000000000000000000000000000000000000000000000000000000
310
00000000000000000000000000000000000000000000000000000000000000000000000000000000000000000000000000000000FFFFFFFFFFFFFFFFFFFFFFFFFFFFFFFFFFFFFFFFFFFFFFFFFFFFFFFFFFFF0000FF00000000000000000000000000000000000000000000000000000000FF0000FF00000000000000000000
310
000000000000000000000000000000000000FF0000FF00000000000000000000000000000000000000000000000000000000FF0000FF00000000000000000000000000000000000000000000000000000000FF0000FF00000000000000000000000000000000000000000000000000000000FF0000FF000000000000000000
310
00000000000000000000000000000000000000FF0000FFFFFFFFFFFFFFFFFFFFFFFFFFFFFFFFFFFFFFFFFFFFFFFFFFFFFFFFFFFF000000000000000000000000000000000000000000000000000000000000000000000000000000000000000000000000000000000000000000000000000000000000000000000000000000
310
00000000000000000000000000000000000000000000000000000000000000000000000000000000000000000000000000000000000000000000000000000000000000000000000000000000000000000000000000000000000000000000000000000000000000000000000000000000000000000000000000000000000000
310
00000000000000000000000000000000000000000000000000000000000000000000000000000000000000000000000000000000000000000000000000000000000000000000000000000000000000000000000000000000000000000000000000000000000000000000000000000000000000000000000000000000000000
310
0000000000000000000000000000000000000000000000000000000000000000000000000000000000000000000000000000000000000000
102
{BLKREFS
331
53C
102
}
1001
ACAD
1000
DesignCenter Data
1002
{
1070
     1
1070
     4
1002
}
  0
BLOCK_RECORD
  5
53D
330
1
100
AcDbSymbolTableRecord
100
AcDbBlockTableRecord
  2
4
340
0
310
2800000020000000200000000100080000000000000400000000000000000000000000000000000000000000000080000080000000808000800000008000800080800000C0C0C000C0DCC000F0CAA6000020400000206000002080000020A0000020C0000020E00000400000004020000040400000406000004080000040A0
310
000040C0000040E00000600000006020000060400000606000006080000060A0000060C0000060E00000800000008020000080400000806000008080000080A0000080C0000080E00000A0000000A0200000A0400000A0600000A0800000A0A00000A0C00000A0E00000C0000000C0200000C0400000C0600000C0800000C0
310
A00000C0C00000C0E00000E0000000E0200000E0400000E0600000E0800000E0A00000E0C00000E0E00040000000400020004000400040006000400080004000A0004000C0004000E00040200000402020004020400040206000402080004020A0004020C0004020E000404000004040200040404000404060004040800040
310
40A0004040C0004040E00040600000406020004060400040606000406080004060A0004060C0004060E00040800000408020004080400040806000408080004080A0004080C0004080E00040A0000040A0200040A0400040A0600040A0800040A0A00040A0C00040A0E00040C0000040C0200040C0400040C0600040C08000
310
40C0A00040C0C00040C0E00040E0000040E0200040E0400040E0600040E0800040E0A00040E0C00040E0E00080000000800020008000400080006000800080008000A0008000C0008000E00080200000802020008020400080206000802080008020A0008020C0008020E00080400000804020008040400080406000804080
310
008040A0008040C0008040E00080600000806020008060400080606000806080008060A0008060C0008060E00080800000808020008080400080806000808080008080A0008080C0008080E00080A0000080A0200080A0400080A0600080A0800080A0A00080A0C00080A0E00080C0000080C0200080C0400080C0600080C0
310
800080C0A00080C0C00080C0E00080E0000080E0200080E0400080E0600080E0800080E0A00080E0C00080E0E000C0000000C0002000C0004000C0006000C0008000C000A000C000C000C000E000C0200000C0202000C0204000C0206000C0208000C020A000C020C000C020E000C0400000C0402000C0404000C0406000C0
310
408000C040A000C040C000C040E000C0600000C0602000C0604000C0606000C0608000C060A000C060C000C060E000C0800000C0802000C0804000C0806000C0808000C080A000C080C000C080E000C0A00000C0A02000C0A04000C0A06000C0A08000C0A0A000C0A0C000C0A0E000C0C00000C0C02000C0C04000C0C06000
310
C0C08000C0C0A000F0FBFF00A4A0A000808080000000FF0000FF000000FFFF00FF000000FF00FF00FFFF0000FFFFFF0000000000000000000000000000000000000000000000000000000000000000000000000000000000000000FF000000000000000000000000000000000000000000000000000000000000FFFFFF0000
310
0000000000000000000000000000000000000000000000000000FFFFFFFF00000000000000000000000000000000000000000000000000000000FFFFFF00FF0000FF000000000000000000000000000000000000000000000000FF00FF00FFFFFF00FF0000000000000000000000000000000000000000000000FF00FF00FF
310
FFFF0000FF00000000000000000000000000000000000000000000FF00FF00FF00FF0000FF00FFFF00000000000000000000000000000000000000FFFFFF00FF00FF0000FFFFFF00FF000000000000000000000000000000000000FFFFFFFFFF00FF0000FFFFFF00FF0000000000000000000000000000000000FFFFFFFFFF
310
FF00FF0000FF00FF00FF0000000000000000000000000000000000FFFFFF0000FF00FFFF00FF00FF00FF0000000000000000000000000000000000FF00FF0000FFFFFFFFFFFF00FF00FF0000000000000000000000000000000000FF00FFFF00FFFFFFFFFFFF00FF00FF0000000000000000000000000000000000FF00FFFF
310
FFFFFFFF0000FF00FF00FF0000000000000000000000000000000000FFFFFF00FFFF00FF0000FFFFFFFFFF0000000000000000000000000000000000FFFFFF0000FF00FFFF00FFFFFFFFFFFF00000000000000000000000000000000FFFF000000FF00FFFFFFFFFFFF0000FF00000000000000000000000000000000FFFF00
310
0000FFFFFF00FFFF00FF0000FF00000000000000000000000000000000FFFFFF00000000000000FF00FF0000FF00000000000000000000000000000000FF00FFFFFF0000000000FF00FFFFFFFF000000000000000000000000000000FFFFFF00FFFFFFFF00000000FFFFFFFFFF000000000000000000000000000000FF0000
310
000000FFFFFFFF000000000000FF00000000000000000000000000000000FFFF0000000000FFFFFF0000000000FF000000000000000000000000000000000000FFFF0000000000FFFFFF000000FF0000000000000000000000000000000000000000FFFF00000000FFFFFFFF00FF0000000000000000000000000000000000
310
0000000000FF0000000000FFFFFFFF0000000000000000000000000000000000000000000000FFFF0000000000FFFFFF000000000000000000000000000000000000000000000000FFFF0000000000FF0000000000000000000000000000000000000000000000000000FFFF00FFFF00000000000000000000000000000000
310
00000000000000000000000000FF000000000000000000000000000000000000000000000000000000000000000000000000000000000000
102
{BLKREFS
331
601
102
}
1001
ACAD
1000
DesignCenter Data
1002
{
1070
     1
1070
     4
1002
}
  0
ENDTAB
  0
ENDSEC
  0
SECTION
  2
BLOCKS
  0
BLOCK
  5
20
330
1F
100
AcDbEntity
  8
0
100
AcDbBlockBegin
  2
*Model_Space
 70
     0
 10
0.0
 20
0.0
 30
0.0
  3
*Model_Space
  1

  0
ENDBLK
  5
21
330
1F
100
AcDbEntity
  8
0
100
AcDbBlockEnd
  0
BLOCK
  5
D4
330
D2
100
AcDbEntity
 67
     1
  8
0
100
AcDbBlockBegin
  2
*Paper_Space
 70
     0
 10
0.0
 20
0.0
 30
0.0
  3
*Paper_Space
  1

  0
ENDBLK
  5
D5
330
D2
100
AcDbEntity
 67
     1
  8
0
100
AcDbBlockEnd
  0
BLOCK
  5
D8
330
D6
100
AcDbEntity
 67
     1
  8
0
100
AcDbBlockBegin
  2
*Paper_Space0
 70
     0
 10
0.0
 20
0.0
 30
0.0
  3
*Paper_Space0
  1

  0
ENDBLK
  5
D9
330
D6
100
AcDbEntity
 67
     1
  8
0
100
AcDbBlockEnd
  0
BLOCK
  5
488
330
487
100
AcDbEntity
  8
0
100
AcDbBlockBegin
  2
1
 70
     0
 10
0.0
 20
0.0
 30
0.0
  3
1
  1

  0
LINE
  5
48A
330
487
100
AcDbEntity
  8
0
  6
Continuous
 62
     7
370
    15
100
AcDbLine
 10
1895.951637211821
 20
821.5494171001118
 30
0.0
 11
1915.551637211766
 21
821.5494171001108
 31
0.0
  0
LINE
  5
48B
330
487
100
AcDbEntity
  8
0
  6
Continuous
 62
     7
370
    15
100
AcDbLine
 10
1915.551637211766
 20
821.5493772679149
 30
0.0
 11
1895.951637211821
 21
821.549377267917
 31
0.0
  0
LINE
  5
48C
330
487
100
AcDbEntity
  8
0
  6
Continuous
 62
     7
370
    15
100
AcDbLine
 10
1895.951637211821
 20
821.5494171001118
 30
0.0
 11
1895.951637211821
 21
821.549377267917
 31
0.0
  0
LINE
  5
48D
330
487
100
AcDbEntity
  8
0
  6
Continuous
 62
     7
370
    15
100
AcDbLine
 10
1895.951637211821
 20
820.2493772679732
 30
0.0
 11
1915.551637211766
 21
820.2493772679726
 31
0.0
  0
LINE
  5
48E
330
487
100
AcDbEntity
  8
0
  6
Continuous
 62
     7
370
    15
100
AcDbLine
 10
1895.951637211821
 20
821.549377267917
 30
0.0
 11
1895.951637211821
 21
820.2493772679732
 31
0.0
  0
LINE
  5
48F
330
487
100
AcDbEntity
  8
0
  6
Continuous
 62
     7
370
    15
100
AcDbLine
 10
1915.551637211766
 20
820.2493772679726
 30
0.0
 11
1915.551637211766
 21
821.5493772679149
 31
0.0
  0
LINE
  5
490
330
487
100
AcDbEntity
  8
0
  6
Continuous
 62
     7
370
    15
100
AcDbLine
 10
1913.701637211823
 20
813.5993772679151
 30
0.0
 11
1911.201637211824
 21
813.5993772679151
 31
0.0
  0
LINE
  5
491
330
487
100
AcDbEntity
  8
0
  6
Continuous
 62
     7
370
    15
100
AcDbLine
 10
1913.701637211823
 20
812.2993772679739
 30
0.0
 11
1913.701637211823
 21
813.5993772679151
 31
0.0
  0
LINE
  5
492
330
487
100
AcDbEntity
  8
0
  6
Continuous
 62
     7
370
    15
100
AcDbLine
 10
1913.701637211823
 20
812.2993772679739
 30
0.0
 11
1911.201637211824
 21
812.2993772679739
 31
0.0
  0
LINE
  5
493
330
487
100
AcDbEntity
  8
0
  6
Continuous
 62
     7
370
    15
100
AcDbLine
 10
1911.201637211824
 20
812.2993772679739
 30
0.0
 11
1911.201637211824
 21
813.5993772679151
 31
0.0
  0
LINE
  5
494
330
487
100
AcDbEntity
  8
0
  6
Continuous
 62
     7
370
    15
100
AcDbLine
 10
1907.001637211824
 20
812.2993772679761
 30
0.0
 11
1904.501637211824
 21
812.2993772679761
 31
0.0
  0
LINE
  5
495
330
487
100
AcDbEntity
  8
0
  6
Continuous
 62
     7
370
    15
100
AcDbLine
 10
1904.501637211824
 20
812.2993772679761
 30
0.0
 11
1904.501637211824
 21
813.5993772679173
 31
0.0
  0
LINE
  5
496
330
487
100
AcDbEntity
  8
0
  6
Continuous
 62
     7
370
    15
100
AcDbLine
 10
1907.001637211824
 20
812.2993772679761
 30
0.0
 11
1907.001637211824
 21
813.5993772679173
 31
0.0
  0
LINE
  5
497
330
487
100
AcDbEntity
  8
0
  6
Continuous
 62
     7
370
    15
100
AcDbLine
 10
1907.001637211824
 20
813.5993772679173
 30
0.0
 11
1904.501637211824
 21
813.5993772679173
 31
0.0
  0
LINE
  5
498
330
487
100
AcDbEntity
  8
0
  6
Continuous
 62
     7
370
    15
100
AcDbLine
 10
1900.301637211824
 20
812.2993772679761
 30
0.0
 11
1900.301637211824
 21
813.5993772679173
 31
0.0
  0
LINE
  5
499
330
487
100
AcDbEntity
  8
0
  6
Continuous
 62
     7
370
    15
100
AcDbLine
 10
1900.301637211824
 20
812.2993772679761
 30
0.0
 11
1897.801637211824
 21
812.2993772679761
 31
0.0
  0
LINE
  5
49A
330
487
100
AcDbEntity
  8
0
  6
Continuous
 62
     7
370
    15
100
AcDbLine
 10
1897.801637211824
 20
812.2993772679761
 30
0.0
 11
1897.801637211824
 21
813.5993772679173
 31
0.0
  0
LINE
  5
49B
330
487
100
AcDbEntity
  8
0
  6
Continuous
 62
     7
370
    15
100
AcDbLine
 10
1900.301637211824
 20
813.5993772679173
 30
0.0
 11
1897.801637211824
 21
813.5993772679173
 31
0.0
  0
LINE
  5
49C
330
487
100
AcDbEntity
  8
0
  6
Continuous
 62
     7
370
    15
100
AcDbLine
 10
1904.251637211683
 20
805.9126596903206
 30
0.0
 11
1907.251637211671
 21
805.9126596903206
 31
0.0
  0
LINE
  5
49D
330
487
100
AcDbEntity
  8
0
  6
Continuous
 62
     7
370
    15
100
AcDbLine
 10
1907.25163721167
 20
806.1126611026239
 30
0.0
 11
1904.251637211683
 21
806.1126606387016
 31
0.0
  0
LINE
  5
49E
330
487
100
AcDbEntity
  8
0
  6
Continuous
 62
     7
370
    15
100
AcDbLine
 10
1907.25163721167
 20
806.1126611026239
 30
0.0
 11
1907.251637211671
 21
805.9126596903206
 31
0.0
  0
LINE
  5
49F
330
487
100
AcDbEntity
  8
0
  6
Continuous
 62
     7
370
    15
100
AcDbLine
 10
1904.251637211683
 20
805.9126596903206
 30
0.0
 11
1904.251637211683
 21
806.1126606387016
 31
0.0
  0
LINE
  5
4A0
330
487
100
AcDbEntity
  8
0
  6
Continuous
 62
     7
370
    15
100
AcDbLine
 10
1910.951637211683
 20
805.9126596903183
 30
0.0
 11
1913.951637211672
 21
805.9126596903183
 31
0.0
  0
LINE
  5
4A1
330
487
100
AcDbEntity
  8
0
  6
Continuous
 62
     7
370
    15
100
AcDbLine
 10
1913.95163721167
 20
806.1126611026217
 30
0.0
 11
1910.951637211683
 21
806.1126606386995
 31
0.0
  0
LINE
  5
4A2
330
487
100
AcDbEntity
  8
0
  6
Continuous
 62
     7
370
    15
100
AcDbLine
 10
1913.95163721167
 20
806.1126611026217
 30
0.0
 11
1913.951637211672
 21
805.9126596903183
 31
0.0
  0
LINE
  5
4A3
330
487
100
AcDbEntity
  8
0
  6
Continuous
 62
     7
370
    15
100
AcDbLine
 10
1910.951637211683
 20
805.9126596903183
 30
0.0
 11
1910.951637211683
 21
806.1126606386995
 31
0.0
  0
LINE
  5
4A4
330
487
100
AcDbEntity
  8
0
  6
Continuous
 62
     7
370
    15
100
AcDbLine
 10
1897.551637211683
 20
805.9126596903206
 30
0.0
 11
1900.55163721167
 21
805.9126596903206
 31
0.0
  0
LINE
  5
4A5
330
487
100
AcDbEntity
  8
0
  6
Continuous
 62
     7
370
    15
100
AcDbLine
 10
1900.55163721167
 20
806.1126611026239
 30
0.0
 11
1897.551637211683
 21
806.1126606387016
 31
0.0
  0
LINE
  5
4A6
330
487
100
AcDbEntity
  8
0
  6
Continuous
 62
     7
370
    15
100
AcDbLine
 10
1897.551637211683
 20
805.9126596903206
 30
0.0
 11
1897.551637211683
 21
806.1126606387016
 31
0.0
  0
LINE
  5
4A7
330
487
100
AcDbEntity
  8
0
  6
Continuous
 62
     7
370
    15
100
AcDbLine
 10
1900.55163721167
 20
806.1126611026239
 30
0.0
 11
1900.55163721167
 21
805.9126596903206
 31
0.0
  0
LINE
  5
4A8
330
487
100
AcDbEntity
  8
0
  6
Continuous
 62
     7
370
    15
100
AcDbLine
 10
1900.143504990673
 20
797.8365498504318
 30
0.0
 11
1900.551637211679
 21
800.1511803243069
 31
0.0
  0
ARC
  5
4A9
330
487
100
AcDbEntity
  8
0
  6
Continuous
 62
     7
370
    15
100
AcDbCircle
 10
1899.798822277119
 20
797.8973267126129
 30
0.0
 40
0.3500000000004862
100
AcDbArc
 50
270.0
 51
349.9999999999618
  0
LINE
  5
4AA
330
487
100
AcDbEntity
  8
0
  6
Continuous
 62
     7
370
    15
100
AcDbLine
 10
1898.183959225184
 20
797.5473267126283
 30
0.0
 11
1899.798822277119
 21
797.5473267126281
 31
0.0
  0
ARC
  5
4AB
330
487
100
AcDbEntity
  8
0
  6
Continuous
 62
     7
370
    15
100
AcDbCircle
 10
1898.183959225184
 20
797.8973267126129
 30
0.0
 40
0.350000000000273
100
AcDbArc
 50
190.0000000001174
 51
270.0
  0
LINE
  5
4AC
330
487
100
AcDbEntity
  8
0
  6
Continuous
 62
     7
370
    15
100
AcDbLine
 10
1897.551637211686
 20
799.4678333827533
 30
0.0
 11
1897.83927651163
 21
797.8365498504314
 31
0.0
  0
LINE
  5
4AD
330
487
100
AcDbEntity
  8
0
  6
Continuous
 62
     7
370
    15
100
AcDbLine
 10
1897.551637211683
 20
805.9126596903206
 30
0.0
 11
1897.551637211686
 21
799.4678333827533
 31
0.0
  0
LINE
  5
4AE
330
487
100
AcDbEntity
  8
0
  6
Continuous
 62
     7
370
    15
100
AcDbLine
 10
1900.551637211679
 20
800.1511803243069
 30
0.0
 11
1900.55163721167
 21
805.9126596903206
 31
0.0
  0
LINE
  5
4AF
330
487
100
AcDbEntity
  8
0
  6
Continuous
 62
     7
370
    15
100
AcDbLine
 10
1906.843504990673
 20
797.8365498504317
 30
0.0
 11
1907.25163721167
 21
800.1511803243072
 31
0.0
  0
ARC
  5
4B0
330
487
100
AcDbEntity
  8
0
  6
Continuous
 62
     7
370
    15
100
AcDbCircle
 10
1906.498822277119
 20
797.8973267126129
 30
0.0
 40
0.3500000000004862
100
AcDbArc
 50
270.0
 51
349.999999999921
  0
LINE
  5
4B1
330
487
100
AcDbEntity
  8
0
  6
Continuous
 62
     7
370
    15
100
AcDbLine
 10
1904.883959225184
 20
797.5473267126278
 30
0.0
 11
1906.498822277119
 21
797.5473267126281
 31
0.0
  0
ARC
  5
4B2
330
487
100
AcDbEntity
  8
0
  6
Continuous
 62
     7
370
    15
100
AcDbCircle
 10
1904.883959225184
 20
797.8973267126129
 30
0.0
 40
0.3500000000007136
100
AcDbArc
 50
190.0000000001174
 51
270.0
  0
LINE
  5
4B3
330
487
100
AcDbEntity
  8
0
  6
Continuous
 62
     7
370
    15
100
AcDbLine
 10
1904.251637211686
 20
799.4678333827533
 30
0.0
 11
1904.53927651163
 21
797.8365498504314
 31
0.0
  0
LINE
  5
4B4
330
487
100
AcDbEntity
  8
0
  6
Continuous
 62
     7
370
    15
100
AcDbLine
 10
1907.25163721167
 20
800.1511803243072
 30
0.0
 11
1907.251637211671
 21
805.9126596903206
 31
0.0
  0
LINE
  5
4B5
330
487
100
AcDbEntity
  8
0
  6
Continuous
 62
     7
370
    15
100
AcDbLine
 10
1904.251637211683
 20
805.9126596903206
 30
0.0
 11
1904.251637211686
 21
799.4678333827533
 31
0.0
  0
LINE
  5
4B6
330
487
100
AcDbEntity
  8
0
  6
Continuous
 62
     7
370
    15
100
AcDbLine
 10
1913.543504990673
 20
797.8365498504294
 30
0.0
 11
1913.95163721167
 21
800.1511803243051
 31
0.0
  0
ARC
  5
4B7
330
487
100
AcDbEntity
  8
0
  6
Continuous
 62
     7
370
    15
100
AcDbCircle
 10
1913.198822277118
 20
797.8973267126107
 30
0.0
 40
0.3500000000005004
100
AcDbArc
 50
270.0
 51
349.999999999921
  0
LINE
  5
4B8
330
487
100
AcDbEntity
  8
0
  6
Continuous
 62
     7
370
    15
100
AcDbLine
 10
1911.583959225184
 20
797.5473267126257
 30
0.0
 11
1913.198822277118
 21
797.5473267126259
 31
0.0
  0
ARC
  5
4B9
330
487
100
AcDbEntity
  8
0
  6
Continuous
 62
     7
370
    15
100
AcDbCircle
 10
1911.583959225184
 20
797.8973267126107
 30
0.0
 40
0.3500000000007136
100
AcDbArc
 50
190.0000000001174
 51
270.0
  0
LINE
  5
4BA
330
487
100
AcDbEntity
  8
0
  6
Continuous
 62
     7
370
    15
100
AcDbLine
 10
1910.951637211686
 20
799.467833382751
 30
0.0
 11
1911.23927651163
 21
797.8365498504293
 31
0.0
  0
LINE
  5
4BB
330
487
100
AcDbEntity
  8
0
  6
Continuous
 62
     7
370
    15
100
AcDbLine
 10
1913.95163721167
 20
800.1511803243051
 30
0.0
 11
1913.951637211672
 21
805.9126596903183
 31
0.0
  0
LINE
  5
4BC
330
487
100
AcDbEntity
  8
0
  6
Continuous
 62
     7
370
    15
100
AcDbLine
 10
1910.951637211683
 20
805.9126596903183
 30
0.0
 11
1910.951637211686
 21
799.467833382751
 31
0.0
  0
LINE
  5
4BD
330
487
100
AcDbEntity
  8
0
  6
Continuous
 62
     7
370
    15
100
AcDbLine
 10
1901.401637211821
 20
809.0713848555571
 30
0.0
 11
1901.001637211854
 21
808.6713848556087
 31
0.0
  0
LINE
  5
4BE
330
487
100
AcDbEntity
  8
0
  6
Continuous
 62
     7
370
    15
100
AcDbLine
 10
1901.001637211854
 20
807.4693848556316
 30
0.0
 11
1901.001637211854
 21
808.6713848556087
 31
0.0
  0
LINE
  5
4BF
330
487
100
AcDbEntity
  8
0
  6
Continuous
 62
     7
370
    15
100
AcDbLine
 10
1897.101637211788
 20
807.4693848556316
 30
0.0
 11
1901.001637211854
 21
807.4693848556316
 31
0.0
  0
LINE
  5
4C0
330
487
100
AcDbEntity
  8
0
  6
Continuous
 62
     7
370
    15
100
AcDbLine
 10
1897.101637211788
 20
807.4693848556316
 30
0.0
 11
1897.101637211788
 21
808.6713848556087
 31
0.0
  0
LINE
  5
4C1
330
487
100
AcDbEntity
  8
0
  6
Continuous
 62
     7
370
    15
100
AcDbLine
 10
1896.701637211821
 20
809.0713848555573
 30
0.0
 11
1897.101637211788
 21
808.6713848556087
 31
0.0
  0
LINE
  5
4C2
330
487
100
AcDbEntity
  8
0
  6
Continuous
 62
     7
370
    15
100
AcDbLine
 10
1896.701637211821
 20
809.0713848555573
 30
0.0
 11
1896.701637211821
 21
815.7014095122287
 31
0.0
  0
LINE
  5
4C3
330
487
100
AcDbEntity
  8
0
  6
Continuous
 62
     7
370
    15
100
AcDbLine
 10
1896.701637211821
 20
815.7014095122287
 30
0.0
 11
1895.951637211821
 21
815.701409512226
 31
0.0
  0
LINE
  5
4C4
330
487
100
AcDbEntity
  8
0
  6
Continuous
 62
     7
370
    15
100
AcDbLine
 10
1914.801637211821
 20
815.7014095122377
 30
0.0
 11
1915.551637211766
 21
815.7014095122377
 31
0.0
  0
LINE
  5
4C5
330
487
100
AcDbEntity
  8
0
  6
Continuous
 62
     7
370
    15
100
AcDbLine
 10
1914.801637211821
 20
815.7014095122377
 30
0.0
 11
1914.801637211821
 21
809.0713848555548
 31
0.0
  0
LINE
  5
4C6
330
487
100
AcDbEntity
  8
0
  6
Continuous
 62
     7
370
    15
100
AcDbLine
 10
1914.401637211854
 20
808.6713848556064
 30
0.0
 11
1914.801637211821
 21
809.0713848555548
 31
0.0
  0
LINE
  5
4C7
330
487
100
AcDbEntity
  8
0
  6
Continuous
 62
     7
370
    15
100
AcDbLine
 10
1914.401637211854
 20
808.6713848556064
 30
0.0
 11
1914.401637211854
 21
807.4693848556293
 31
0.0
  0
LINE
  5
4C8
330
487
100
AcDbEntity
  8
0
  6
Continuous
 62
     7
370
    15
100
AcDbLine
 10
1910.501637211788
 20
807.4693848556293
 30
0.0
 11
1914.401637211854
 21
807.4693848556293
 31
0.0
  0
LINE
  5
4C9
330
487
100
AcDbEntity
  8
0
  6
Continuous
 62
     7
370
    15
100
AcDbLine
 10
1910.501637211788
 20
807.4693848556293
 30
0.0
 11
1910.501637211788
 21
808.6713848556064
 31
0.0
  0
LINE
  5
4CA
330
487
100
AcDbEntity
  8
0
  6
Continuous
 62
     7
370
    15
100
AcDbLine
 10
1910.101637211821
 20
809.0713848555552
 30
0.0
 11
1910.501637211788
 21
808.6713848556064
 31
0.0
  0
LINE
  5
4CB
330
487
100
AcDbEntity
  8
0
  6
Continuous
 62
     7
370
    15
100
AcDbLine
 10
1910.101637211821
 20
809.0713848555552
 30
0.0
 11
1910.101637211821
 21
815.701409512226
 31
0.0
  0
LINE
  5
4CC
330
487
100
AcDbEntity
  8
0
  6
Continuous
 62
     7
370
    15
100
AcDbLine
 10
1908.101637211821
 20
815.7014095122399
 30
0.0
 11
1910.101637211821
 21
815.701409512226
 31
0.0
  0
LINE
  5
4CD
330
487
100
AcDbEntity
  8
0
  6
Continuous
 62
     7
370
    15
100
AcDbLine
 10
1908.101637211821
 20
815.7014095122399
 30
0.0
 11
1908.101637211821
 21
809.0713848555571
 31
0.0
  0
LINE
  5
4CE
330
487
100
AcDbEntity
  8
0
  6
Continuous
 62
     7
370
    15
100
AcDbLine
 10
1907.701637211854
 20
808.6713848556087
 30
0.0
 11
1908.101637211821
 21
809.0713848555571
 31
0.0
  0
LINE
  5
4CF
330
487
100
AcDbEntity
  8
0
  6
Continuous
 62
     7
370
    15
100
AcDbLine
 10
1907.701637211854
 20
808.6713848556087
 30
0.0
 11
1907.701637211854
 21
807.4693848556316
 31
0.0
  0
LINE
  5
4D0
330
487
100
AcDbEntity
  8
0
  6
Continuous
 62
     7
370
    15
100
AcDbLine
 10
1903.801637211788
 20
807.4693848556316
 30
0.0
 11
1907.701637211854
 21
807.4693848556316
 31
0.0
  0
LINE
  5
4D1
330
487
100
AcDbEntity
  8
0
  6
Continuous
 62
     7
370
    15
100
AcDbLine
 10
1903.801637211788
 20
807.4693848556316
 30
0.0
 11
1903.801637211788
 21
808.6713848556087
 31
0.0
  0
LINE
  5
4D2
330
487
100
AcDbEntity
  8
0
  6
Continuous
 62
     7
370
    15
100
AcDbLine
 10
1903.401637211821
 20
809.0713848555573
 30
0.0
 11
1903.801637211788
 21
808.6713848556087
 31
0.0
  0
LINE
  5
4D3
330
487
100
AcDbEntity
  8
0
  6
Continuous
 62
     7
370
    15
100
AcDbLine
 10
1903.401637211821
 20
809.0713848555573
 30
0.0
 11
1903.401637211821
 21
815.7014095122281
 31
0.0
  0
LINE
  5
4D4
330
487
100
AcDbEntity
  8
0
  6
Continuous
 62
     7
370
    15
100
AcDbLine
 10
1903.401637211821
 20
815.7014095122281
 30
0.0
 11
1901.401637211821
 21
815.70140954368
 31
0.0
  0
LINE
  5
4D5
330
487
100
AcDbEntity
  8
0
  6
Continuous
 62
     7
370
    15
100
AcDbLine
 10
1901.401637211821
 20
815.70140954368
 30
0.0
 11
1901.401637211821
 21
809.0713848555571
 31
0.0
  0
LINE
  5
4D6
330
487
100
AcDbEntity
  8
0
  6
Continuous
 62
     7
370
    15
100
AcDbLine
 10
1895.951637211821
 20
820.2493848550576
 30
0.0
 11
1895.951637211821
 21
815.701409512226
 31
0.0
  0
LINE
  5
4D7
330
487
100
AcDbEntity
  8
0
  6
Continuous
 62
     7
370
    15
100
AcDbLine
 10
1915.551637211766
 20
815.7014095122377
 30
0.0
 11
1915.551637211766
 21
820.2493848550572
 31
0.0
  0
LINE
  5
4D8
330
487
100
AcDbEntity
  8
0
  6
Continuous
 62
     7
370
    15
100
AcDbLine
 10
1903.401637211821
 20
815.7013848552596
 30
0.0
 11
1901.401637211821
 21
815.7013848552599
 31
0.0
  0
LINE
  5
4D9
330
487
100
AcDbEntity
  8
0
  6
Continuous
 62
     7
370
    15
100
AcDbLine
 10
1896.701637211821
 20
815.7013848552601
 30
0.0
 11
1895.951637211821
 21
815.7013848552576
 31
0.0
  0
LINE
  5
4DA
330
487
100
AcDbEntity
  8
0
  6
Continuous
 62
     7
370
    15
100
AcDbLine
 10
1895.951637211821
 20
815.701409512226
 30
0.0
 11
1895.951637211821
 21
815.7013848552576
 31
0.0
  0
LINE
  5
4DB
330
487
100
AcDbEntity
  8
0
  6
Continuous
 62
     7
370
    15
100
AcDbLine
 10
1910.101637211821
 20
815.7013848552574
 30
0.0
 11
1908.101637211821
 21
815.7013848552676
 31
0.0
  0
LINE
  5
4DC
330
487
100
AcDbEntity
  8
0
  6
Continuous
 62
     7
370
    15
100
AcDbLine
 10
1915.551637211766
 20
815.7013848552653
 30
0.0
 11
1914.801637211821
 21
815.7013848552653
 31
0.0
  0
LINE
  5
4DD
330
487
100
AcDbEntity
  8
0
  6
Continuous
 62
     7
370
    15
100
AcDbLine
 10
1915.551637211766
 20
815.7013848552653
 30
0.0
 11
1915.551637211766
 21
815.7014095122377
 31
0.0
  0
LINE
  5
4DE
330
487
100
AcDbEntity
  8
0
  6
Continuous
 62
     7
370
    15
100
AcDbLine
 10
1907.401637211837
 20
807.0693886492151
 30
0.0
 11
1907.701637211854
 21
807.369385804054
 31
0.0
  0
LINE
  5
4DF
330
487
100
AcDbEntity
  8
0
  6
Continuous
 62
     7
370
    15
100
AcDbLine
 10
1907.401637211837
 20
807.0693886492151
 30
0.0
 11
1904.101637211791
 21
807.0693886492179
 31
0.0
  0
LINE
  5
4E0
330
487
100
AcDbEntity
  8
0
  6
Continuous
 62
     7
370
    15
100
AcDbLine
 10
1903.801637211788
 20
807.3693858040543
 30
0.0
 11
1904.101637211791
 21
807.0693886492179
 31
0.0
  0
LINE
  5
4E1
330
487
100
AcDbEntity
  8
0
  6
Continuous
 62
     7
370
    15
100
AcDbLine
 10
1907.701637211854
 20
807.369385804054
 30
0.0
 11
1907.701637211854
 21
807.4693848556316
 31
0.0
  0
LINE
  5
4E2
330
487
100
AcDbEntity
  8
0
  6
Continuous
 62
     7
370
    15
100
AcDbLine
 10
1903.801637211788
 20
807.4693848556316
 30
0.0
 11
1903.801637211788
 21
807.3693858040543
 31
0.0
  0
LINE
  5
4E3
330
487
100
AcDbEntity
  8
0
  6
Continuous
 62
     7
370
    15
100
AcDbLine
 10
1914.101637211837
 20
807.0693886492129
 30
0.0
 11
1914.401637211854
 21
807.3693858040519
 31
0.0
  0
LINE
  5
4E4
330
487
100
AcDbEntity
  8
0
  6
Continuous
 62
     7
370
    15
100
AcDbLine
 10
1914.101637211837
 20
807.0693886492129
 30
0.0
 11
1910.801637211791
 21
807.0693886492158
 31
0.0
  0
LINE
  5
4E5
330
487
100
AcDbEntity
  8
0
  6
Continuous
 62
     7
370
    15
100
AcDbLine
 10
1910.501637211788
 20
807.369385804052
 30
0.0
 11
1910.801637211791
 21
807.0693886492158
 31
0.0
  0
LINE
  5
4E6
330
487
100
AcDbEntity
  8
0
  6
Continuous
 62
     7
370
    15
100
AcDbLine
 10
1914.401637211854
 20
807.3693858040519
 30
0.0
 11
1914.401637211854
 21
807.4693848556293
 31
0.0
  0
LINE
  5
4E7
330
487
100
AcDbEntity
  8
0
  6
Continuous
 62
     7
370
    15
100
AcDbLine
 10
1910.501637211788
 20
807.4693848556293
 30
0.0
 11
1910.501637211788
 21
807.369385804052
 31
0.0
  0
LINE
  5
4E8
330
487
100
AcDbEntity
  8
0
  6
Continuous
 62
     7
370
    15
100
AcDbLine
 10
1900.701637211837
 20
807.0693886492151
 30
0.0
 11
1901.001637211854
 21
807.3693858040543
 31
0.0
  0
LINE
  5
4E9
330
487
100
AcDbEntity
  8
0
  6
Continuous
 62
     7
370
    15
100
AcDbLine
 10
1900.701637211837
 20
807.0693886492151
 30
0.0
 11
1897.401637211791
 21
807.0693886492179
 31
0.0
  0
LINE
  5
4EA
330
487
100
AcDbEntity
  8
0
  6
Continuous
 62
     7
370
    15
100
AcDbLine
 10
1897.101637211788
 20
807.3693858040543
 30
0.0
 11
1897.401637211791
 21
807.0693886492179
 31
0.0
  0
LINE
  5
4EB
330
487
100
AcDbEntity
  8
0
  6
Continuous
 62
     7
370
    15
100
AcDbLine
 10
1897.101637211788
 20
807.4693848556316
 30
0.0
 11
1897.101637211788
 21
807.3693858040543
 31
0.0
  0
LINE
  5
4EC
330
487
100
AcDbEntity
  8
0
  6
Continuous
 62
     7
370
    15
100
AcDbLine
 10
1901.001637211854
 20
807.3693858040543
 30
0.0
 11
1901.001637211854
 21
807.4693848556316
 31
0.0
  0
LINE
  5
4ED
330
487
100
AcDbEntity
  8
0
  6
Continuous
 62
     7
370
    15
100
AcDbLine
 10
1900.551637211705
 20
806.1126615665351
 30
0.0
 11
1897.551637211683
 21
806.1126611026161
 31
0.0
  0
LINE
  5
4EE
330
487
100
AcDbEntity
  8
0
  6
Continuous
 62
     7
370
    15
100
AcDbLine
 10
1897.551637211683
 20
806.1126606387016
 30
0.0
 11
1897.551637211683
 21
806.1126611026161
 31
0.0
  0
LINE
  5
4EF
330
487
100
AcDbEntity
  8
0
  6
Continuous
 62
     7
370
    15
100
AcDbLine
 10
1900.551637211705
 20
806.1126615665351
 30
0.0
 11
1900.55163721167
 21
806.1126611026239
 31
0.0
  0
LINE
  5
4F0
330
487
100
AcDbEntity
  8
0
  6
Continuous
 62
     7
370
    15
100
AcDbLine
 10
1913.95163721171
 20
806.1126615665328
 30
0.0
 11
1910.951637211683
 21
806.1126611026137
 31
0.0
  0
LINE
  5
4F1
330
487
100
AcDbEntity
  8
0
  6
Continuous
 62
     7
370
    15
100
AcDbLine
 10
1913.95163721171
 20
806.1126615665328
 30
0.0
 11
1913.95163721167
 21
806.1126611026217
 31
0.0
  0
LINE
  5
4F2
330
487
100
AcDbEntity
  8
0
  6
Continuous
 62
     7
370
    15
100
AcDbLine
 10
1910.951637211683
 20
806.1126606386995
 30
0.0
 11
1910.951637211683
 21
806.1126611026137
 31
0.0
  0
LINE
  5
4F3
330
487
100
AcDbEntity
  8
0
  6
Continuous
 62
     7
370
    15
100
AcDbLine
 10
1907.25163721171
 20
806.1126615665351
 30
0.0
 11
1904.251637211683
 21
806.1126611026161
 31
0.0
  0
LINE
  5
4F4
330
487
100
AcDbEntity
  8
0
  6
Continuous
 62
     7
370
    15
100
AcDbLine
 10
1907.25163721171
 20
806.1126615665351
 30
0.0
 11
1907.25163721167
 21
806.1126611026239
 31
0.0
  0
LINE
  5
4F5
330
487
100
AcDbEntity
  8
0
  6
Continuous
 62
     7
370
    15
100
AcDbLine
 10
1904.251637211683
 20
806.1126606387016
 30
0.0
 11
1904.251637211683
 21
806.1126611026161
 31
0.0
  0
LINE
  5
4F6
330
487
100
AcDbEntity
  8
0
  6
Continuous
 62
     7
370
    15
100
AcDbLine
 10
1900.55163721174
 20
806.3126620407393
 30
0.0
 11
1897.551637211683
 21
806.3126629891248
 31
0.0
  0
LINE
  5
4F7
330
487
100
AcDbEntity
  8
0
  6
Continuous
 62
     7
370
    15
100
AcDbLine
 10
1897.551637211683
 20
806.1126611026161
 30
0.0
 11
1897.551637211683
 21
806.3126629891248
 31
0.0
  0
LINE
  5
4F8
330
487
100
AcDbEntity
  8
0
  6
Continuous
 62
     7
370
    15
100
AcDbLine
 10
1900.55163721174
 20
806.3126620407393
 30
0.0
 11
1900.551637211705
 21
806.1126615665351
 31
0.0
  0
LINE
  5
4F9
330
487
100
AcDbEntity
  8
0
  6
Continuous
 62
     7
370
    15
100
AcDbLine
 10
1907.25163721175
 20
806.3126620407393
 30
0.0
 11
1904.251637211683
 21
806.3126629891248
 31
0.0
  0
LINE
  5
4FA
330
487
100
AcDbEntity
  8
0
  6
Continuous
 62
     7
370
    15
100
AcDbLine
 10
1907.25163721175
 20
806.3126620407393
 30
0.0
 11
1907.25163721171
 21
806.1126615665351
 31
0.0
  0
LINE
  5
4FB
330
487
100
AcDbEntity
  8
0
  6
Continuous
 62
     7
370
    15
100
AcDbLine
 10
1904.251637211683
 20
806.1126611026161
 30
0.0
 11
1904.251637211683
 21
806.3126629891248
 31
0.0
  0
LINE
  5
4FC
330
487
100
AcDbEntity
  8
0
  6
Continuous
 62
     7
370
    15
100
AcDbLine
 10
1913.95163721175
 20
806.312662040737
 30
0.0
 11
1910.951637211683
 21
806.3126629891227
 31
0.0
  0
LINE
  5
4FD
330
487
100
AcDbEntity
  8
0
  6
Continuous
 62
     7
370
    15
100
AcDbLine
 10
1913.95163721175
 20
806.312662040737
 30
0.0
 11
1913.95163721171
 21
806.1126615665328
 31
0.0
  0
LINE
  5
4FE
330
487
100
AcDbEntity
  8
0
  6
Continuous
 62
     7
370
    15
100
AcDbLine
 10
1910.951637211683
 20
806.1126611026137
 30
0.0
 11
1910.951637211683
 21
806.3126629891227
 31
0.0
  0
LINE
  5
4FF
330
487
100
AcDbEntity
  8
0
  6
Continuous
 62
     7
370
    15
100
AcDbLine
 10
1897.551637211683
 20
806.3126629891248
 30
0.0
 11
1897.551637211682
 21
807.0693914943808
 31
0.0
  0
LINE
  5
500
330
487
100
AcDbEntity
  8
0
  6
Continuous
 62
     7
370
    15
100
AcDbLine
 10
1900.551637211669
 20
807.0693914943808
 30
0.0
 11
1900.55163721174
 21
806.3126620407393
 31
0.0
  0
LINE
  5
501
330
487
100
AcDbEntity
  8
0
  6
Continuous
 62
     7
370
    15
100
AcDbLine
 10
1907.251637211668
 20
807.0693914943808
 30
0.0
 11
1907.25163721175
 21
806.3126620407393
 31
0.0
  0
LINE
  5
502
330
487
100
AcDbEntity
  8
0
  6
Continuous
 62
     7
370
    15
100
AcDbLine
 10
1904.251637211683
 20
806.3126629891248
 30
0.0
 11
1904.251637211682
 21
807.0693914943808
 31
0.0
  0
LINE
  5
503
330
487
100
AcDbEntity
  8
0
  6
Continuous
 62
     7
370
    15
100
AcDbLine
 10
1913.951637211669
 20
807.0693914943785
 30
0.0
 11
1913.95163721175
 21
806.312662040737
 31
0.0
  0
LINE
  5
504
330
487
100
AcDbEntity
  8
0
  6
Continuous
 62
     7
370
    15
100
AcDbLine
 10
1910.951637211683
 20
806.3126629891227
 30
0.0
 11
1910.951637211682
 21
807.0693914943785
 31
0.0
  0
ENDBLK
  5
489
330
487
100
AcDbEntity
  8
0
100
AcDbBlockEnd
  0
BLOCK
  5
507
330
506
100
AcDbEntity
  8
0
100
AcDbBlockBegin
  2
2
 70
     0
 10
0.0
 20
0.0
 30
0.0
  3
2
  1

  0
LINE
  5
509
330
506
100
AcDbEntity
  8
0
  6
Continuous
 62
     7
370
    15
100
AcDbLine
 10
1883.399944620635
 20
815.7013848552653
 30
0.0
 11
1880.800055543693
 21
815.7014095122377
 31
0.0
  0
LINE
  5
50A
330
506
100
AcDbEntity
  8
0
  6
Continuous
 62
     7
370
    15
100
AcDbLine
 10
1880.800055543693
 20
815.7014095122377
 30
0.0
 11
1880.800012411351
 21
820.2493848550572
 31
0.0
  0
LINE
  5
50B
330
506
100
AcDbEntity
  8
0
  6
Continuous
 62
     7
370
    15
100
AcDbLine
 10
1880.000012411386
 20
820.2493772679726
 30
0.0
 11
1880.800012411351
 21
820.2493848550572
 31
0.0
  0
LINE
  5
50C
330
506
100
AcDbEntity
  8
0
  6
Continuous
 62
     7
370
    15
100
AcDbLine
 10
1880.000012411386
 20
820.2493772679726
 30
0.0
 11
1880.000000082374
 21
821.5493772679151
 31
0.0
  0
LINE
  5
50D
330
506
100
AcDbEntity
  8
0
  6
Continuous
 62
     7
370
    15
100
AcDbLine
 10
1880.000000082374
 20
821.5493772679151
 30
0.0
 11
1884.200000082564
 21
821.5494171001108
 31
0.0
  0
LINE
  5
50E
330
506
100
AcDbEntity
  8
0
  6
Continuous
 62
     7
370
    15
100
AcDbLine
 10
1884.200000082564
 20
821.5494171001108
 30
0.0
 11
1884.199987753174
 21
820.2493772679726
 31
0.0
  0
LINE
  5
50F
330
506
100
AcDbEntity
  8
0
  6
Continuous
 62
     7
370
    15
100
AcDbLine
 10
1884.199987753174
 20
820.2493772679726
 30
0.0
 11
1883.39998775321
 21
820.2493848550572
 31
0.0
  0
LINE
  5
510
330
506
100
AcDbEntity
  8
0
  6
Continuous
 62
     7
370
    15
100
AcDbLine
 10
1883.39998775321
 20
820.2493848550572
 30
0.0
 11
1883.399944620635
 21
815.7013848552653
 31
0.0
  0
LINE
  5
511
330
506
100
AcDbEntity
  8
0
  6
Continuous
 62
     7
370
    15
100
AcDbLine
 10
1880.800117188988
 20
809.0713848555548
 30
0.0
 11
1883.399882975807
 21
809.0714095113582
 31
0.0
  0
LINE
  5
512
330
506
100
AcDbEntity
  8
0
  6
Continuous
 62
     7
370
    15
100
AcDbLine
 10
1880.800055543693
 20
815.7014095122377
 30
0.0
 11
1880.800117188988
 21
809.0713848555548
 31
0.0
  0
LINE
  5
513
330
506
100
AcDbEntity
  8
0
  6
Continuous
 62
     7
370
    15
100
AcDbLine
 10
1883.399944620635
 20
815.7013848552653
 30
0.0
 11
1883.399882975807
 21
809.0714095113582
 31
0.0
  0
LINE
  5
514
330
506
100
AcDbEntity
  8
0
  6
Continuous
 62
     7
370
    15
100
AcDbLine
 10
1880.80012098253
 20
808.6713848556064
 30
0.0
 11
1883.399879182265
 21
808.6714095113377
 31
0.0
  0
LINE
  5
515
330
506
100
AcDbEntity
  8
0
  6
Continuous
 62
     7
370
    15
100
AcDbLine
 10
1880.80012098253
 20
808.6713848556064
 30
0.0
 11
1880.800117188988
 21
809.0713848555548
 31
0.0
  0
LINE
  5
516
330
506
100
AcDbEntity
  8
0
  6
Continuous
 62
     7
370
    15
100
AcDbLine
 10
1883.399879182265
 20
808.6714095113377
 30
0.0
 11
1883.399882975807
 21
809.0714095113582
 31
0.0
  0
LINE
  5
517
330
506
100
AcDbEntity
  8
0
  6
Continuous
 62
     7
370
    15
100
AcDbLine
 10
1883.299889593464
 20
807.3694085629947
 30
0.0
 11
1880.900133330473
 21
807.3693858040519
 31
0.0
  0
LINE
  5
518
330
506
100
AcDbEntity
  8
0
  6
Continuous
 62
     7
370
    15
100
AcDbLine
 10
1880.900133330473
 20
807.3693858040519
 30
0.0
 11
1880.800132382125
 21
807.4693848556293
 31
0.0
  0
LINE
  5
519
330
506
100
AcDbEntity
  8
0
  6
Continuous
 62
     7
370
    15
100
AcDbLine
 10
1883.299889593464
 20
807.3694085629947
 30
0.0
 11
1883.399867782437
 21
807.4693848556284
 31
0.0
  0
LINE
  5
51A
330
506
100
AcDbEntity
  8
0
  6
Continuous
 62
     7
370
    15
100
AcDbLine
 10
1880.80012098253
 20
808.6713848556064
 30
0.0
 11
1880.800132382125
 21
807.4693848556293
 31
0.0
  0
LINE
  5
51B
330
506
100
AcDbEntity
  8
0
  6
Continuous
 62
     7
370
    15
100
AcDbLine
 10
1883.399867782437
 20
807.4693848556284
 30
0.0
 11
1883.399879182265
 21
808.6714095113377
 31
0.0
  0
LINE
  5
51C
330
506
100
AcDbEntity
  8
0
  6
Continuous
 62
     7
370
    15
100
AcDbLine
 10
1882.99988105776
 20
807.0694057177229
 30
0.0
 11
1881.20013617564
 21
807.0693886492129
 31
0.0
  0
LINE
  5
51D
330
506
100
AcDbEntity
  8
0
  6
Continuous
 62
     7
370
    15
100
AcDbLine
 10
1881.20013617564
 20
807.0693886492129
 30
0.0
 11
1880.900133330473
 21
807.3693858040519
 31
0.0
  0
LINE
  5
51E
330
506
100
AcDbEntity
  8
0
  6
Continuous
 62
     7
370
    15
100
AcDbLine
 10
1882.99988105776
 20
807.0694057177229
 30
0.0
 11
1883.299889593464
 21
807.3694085629947
 31
0.0
  0
LINE
  5
51F
330
506
100
AcDbEntity
  8
0
  6
Continuous
 62
     7
370
    15
100
AcDbLine
 10
1882.700143352275
 20
806.3126753181352
 30
0.0
 11
1882.70013617558
 21
807.0694028750052
 31
0.0
  0
ARC
  5
520
330
506
100
AcDbEntity
  8
0
  6
Continuous
 62
     7
370
    15
100
AcDbCircle
 10
1882.900143352271
 20
806.3126767406963
 30
0.0
 40
0.2000000000005856
100
AcDbArc
 50
180.0004075337628
 51
270.0000679232589
  0
LINE
  5
521
330
506
100
AcDbEntity
  8
0
  6
Continuous
 62
     7
370
    15
100
AcDbLine
 10
1883.247980936053
 20
806.1126776685515
 30
0.0
 11
1882.900143589367
 21
806.1126772046241
 31
0.0
  0
ARC
  5
522
330
506
100
AcDbEntity
  8
0
  6
Continuous
 62
     7
370
    15
100
AcDbCircle
 10
1883.247980936053
 20
805.9126776685557
 30
0.0
 40
0.1999999999998596
100
AcDbArc
 50
0.0005433847882304
 51
90.0
  0
LINE
  5
523
330
506
100
AcDbEntity
  8
0
  6
Continuous
 62
     7
370
    15
100
AcDbLine
 10
1883.447980936044
 20
805.9126795653265
 30
0.0
 11
1883.448035577014
 21
800.151205889627
 31
0.0
  0
LINE
  5
524
330
506
100
AcDbEntity
  8
0
  6
Continuous
 62
     7
370
    15
100
AcDbLine
 10
1880.7523679967
 20
800.1511803243051
 30
0.0
 11
1883.448035577014
 21
800.151205889627
 31
0.0
  0
LINE
  5
525
330
506
100
AcDbEntity
  8
0
  6
Continuous
 62
     7
370
    15
100
AcDbLine
 10
1880.7523679967
 20
800.1511803243051
 30
0.0
 11
1880.752313355649
 21
805.9126596903183
 31
0.0
  0
ARC
  5
526
330
506
100
AcDbEntity
  8
0
  6
Continuous
 62
     7
370
    15
100
AcDbCircle
 10
1880.952313355647
 20
805.9126606387042
 30
0.0
 40
0.2000004639176877
100
AcDbArc
 50
90.00006792198224
 51
180.0002716925211
  0
LINE
  5
527
330
506
100
AcDbEntity
  8
0
  6
Continuous
 62
     7
370
    15
100
AcDbLine
 10
1881.300143589441
 20
806.1126615665328
 30
0.0
 11
1880.952313118554
 21
806.1126611026217
 31
0.0
  0
ARC
  5
528
330
506
100
AcDbEntity
  8
0
  6
Continuous
 62
     7
370
    15
100
AcDbCircle
 10
1881.300143352345
 20
806.3126615665273
 30
0.0
 40
0.1999999999945585
100
AcDbArc
 50
270.0000679231026
 51
0.0001358535331959
  0
LINE
  5
529
330
506
100
AcDbEntity
  8
0
  6
Continuous
 62
     7
370
    15
100
AcDbLine
 10
1881.500136175635
 20
807.0693914943785
 30
0.0
 11
1881.50013976399
 21
806.312662040737
 31
0.0
  0
LINE
  5
52A
330
506
100
AcDbEntity
  8
0
  6
Continuous
 62
     7
370
    15
100
AcDbLine
 10
1883.448035577014
 20
800.151205889627
 30
0.0
 11
1883.448057528674
 21
797.8365706738236
 31
0.0
  0
LINE
  5
52B
330
506
100
AcDbEntity
  8
0
  6
Continuous
 62
     7
370
    15
100
AcDbLine
 10
1883.448057528674
 20
797.8365706738236
 30
0.0
 11
1880.752389948327
 21
797.8365498504294
 31
0.0
  0
LINE
  5
52C
330
506
100
AcDbEntity
  8
0
  6
Continuous
 62
     7
370
    15
100
AcDbLine
 10
1880.752389948327
 20
797.8365498504294
 30
0.0
 11
1880.7523679967
 21
800.1511803243051
 31
0.0
  0
LINE
  5
52D
330
506
100
AcDbEntity
  8
0
  6
Continuous
 62
     7
370
    15
100
AcDbLine
 10
1883.399924685264
 20
813.5993772679151
 30
0.0
 11
1883.650000082164
 21
813.5993772679151
 31
0.0
  0
LINE
  5
52E
330
506
100
AcDbEntity
  8
0
  6
Continuous
 62
     7
370
    15
100
AcDbLine
 10
1883.650000082164
 20
813.5993772679151
 30
0.0
 11
1883.399912356252
 21
812.2993772679736
 31
0.0
  0
LINE
  5
52F
330
506
100
AcDbEntity
  8
0
  6
Continuous
 62
     7
370
    15
100
AcDbLine
 10
1880.800087808075
 20
812.2993772679739
 30
0.0
 11
1880.550000082164
 21
813.5993772679151
 31
0.0
  0
LINE
  5
530
330
506
100
AcDbEntity
  8
0
  6
Continuous
 62
     7
370
    15
100
AcDbLine
 10
1880.550000082164
 20
813.5993772679151
 30
0.0
 11
1880.800075479063
 21
813.5993772679151
 31
0.0
  0
LINE
  5
531
330
506
100
AcDbEntity
  8
0
  6
Continuous
 62
     7
370
    15
100
AcDbLine
 10
1880.752392691278
 20
797.5473267126259
 30
0.0
 11
1883.448060271624
 21
797.5473475360203
 31
0.0
  0
LINE
  5
532
330
506
100
AcDbEntity
  8
0
  6
Continuous
 62
     7
370
    15
100
AcDbLine
 10
1883.448060271624
 20
797.5473475360203
 30
0.0
 11
1883.448057528674
 21
797.8365706738236
 31
0.0
  0
LINE
  5
533
330
506
100
AcDbEntity
  8
0
  6
Continuous
 62
     7
370
    15
100
AcDbLine
 10
1880.752389948327
 20
797.8365498504294
 30
0.0
 11
1880.752392691278
 21
797.5473267126259
 31
0.0
  0
ENDBLK
  5
508
330
506
100
AcDbEntity
  8
0
100
AcDbBlockEnd
  0
BLOCK
  5
536
330
535
100
AcDbEntity
  8
0
100
AcDbBlockBegin
  2
3
 70
     0
 10
0.0
 20
0.0
 30
0.0
  3
3
  1

  0
LINE
  5
538
330
535
100
AcDbEntity
  8
0
  6
Continuous
 62
     7
370
    15
100
AcDbLine
 10
1895.951637211821
 20
784.1999997398072
 30
0.0
 11
1915.551637211766
 21
784.1999997398072
 31
0.0
  0
LINE
  5
539
330
535
100
AcDbEntity
  8
0
  6
Continuous
 62
     7
370
    15
100
AcDbLine
 10
1915.551637211766
 20
779.9999997396175
 30
0.0
 11
1915.551637211766
 21
784.1999997398072
 31
0.0
  0
LINE
  5
53A
330
535
100
AcDbEntity
  8
0
  6
Continuous
 62
     7
370
    15
100
AcDbLine
 10
1915.551637211766
 20
779.9999997396175
 30
0.0
 11
1895.951637211821
 21
779.9999997396175
 31
0.0
  0
LINE
  5
53B
330
535
100
AcDbEntity
  8
0
  6
Continuous
 62
     7
370
    15
100
AcDbLine
 10
1895.951637211821
 20
784.1999997398072
 30
0.0
 11
1895.951637211821
 21
779.9999997396175
 31
0.0
  0
ENDBLK
  5
537
330
535
100
AcDbEntity
  8
0
100
AcDbBlockEnd
  0
BLOCK
  5
53E
330
53D
100
AcDbEntity
  8
0
100
AcDbBlockBegin
  2
4
 70
     0
 10
0.0
 20
0.0
 30
0.0
  3
4
  1

  0
LINE
  5
540
330
53D
100
AcDbEntity
  8
0
  6
Continuous
 62
     7
370
    15
100
AcDbLine
 10
1925.385972820473
 20
805.5122841825633
 30
0.0
 11
1924.898597295646
 21
805.2309282809092
 31
0.0
  0
LINE
  5
541
330
53D
100
AcDbEntity
  8
0
  6
Continuous
 62
     7
370
    15
100
AcDbLine
 10
1925.129244138426
 20
798.5495474057909
 30
0.0
 11
1927.035370640822
 21
797.4491469951074
 31
0.0
  0
LINE
  5
542
330
53D
100
AcDbEntity
  8
0
  6
Continuous
 62
     7
370
    15
100
AcDbLine
 10
1930.123588254423
 20
808.2472513571694
 30
0.0
 11
1929.636212729596
 21
807.9658954555153
 31
0.0
  0
LINE
  5
543
330
53D
100
AcDbEntity
  8
0
  6
Continuous
 62
     7
370
    15
100
AcDbLine
 10
1929.866859572376
 20
801.284514580397
 30
0.0
 11
1931.772986074772
 21
800.1841141697134
 31
0.0
  0
LINE
  5
544
330
53D
100
AcDbEntity
  8
0
  6
Continuous
 62
     7
370
    15
100
AcDbLine
 10
1934.861203688373
 20
810.9822185317737
 30
0.0
 11
1934.373828163545
 21
810.7008626301196
 31
0.0
  0
LINE
  5
545
330
53D
100
AcDbEntity
  8
0
  6
Continuous
 62
     7
370
    15
100
AcDbLine
 10
1934.604475006326
 20
804.0194817550013
 30
0.0
 11
1936.510601508722
 21
802.9190813443177
 31
0.0
  0
LINE
  5
546
330
53D
100
AcDbEntity
  8
0
  6
Continuous
 62
     7
370
    15
100
AcDbLine
 10
1923.19403912479
 20
817.5612460066282
 30
0.0
 11
1937.053332036008
 21
825.5620455024674
 31
0.0
  0
LINE
  5
547
330
53D
100
AcDbEntity
  8
0
  6
Continuous
 62
     7
370
    15
100
AcDbLine
 10
1940.023180517125
 20
823.8475559429488
 30
0.0
 11
1937.053332036008
 21
825.5620455024674
 31
0.0
  0
LINE
  5
548
330
53D
100
AcDbEntity
  8
0
  6
Continuous
 62
     7
370
    15
100
AcDbLine
 10
1940.023180517125
 20
823.8475559429488
 30
0.0
 11
1926.163887605908
 21
815.8467564471104
 31
0.0
  0
LINE
  5
549
330
53D
100
AcDbEntity
  8
0
  6
Continuous
 62
     7
370
    15
100
AcDbLine
 10
1923.19403912479
 20
817.5612460066282
 30
0.0
 11
1926.163887605908
 21
815.8467564471104
 31
0.0
  0
LINE
  5
54A
330
53D
100
AcDbEntity
  8
0
  6
Continuous
 62
     7
370
    15
100
AcDbLine
 10
1926.16387888798
 20
814.7852584244574
 30
0.0
 11
1925.598193463055
 21
815.1118278643364
 31
0.0
  0
LINE
  5
54B
330
53D
100
AcDbEntity
  8
0
  6
Continuous
 62
     7
370
    15
100
AcDbLine
 10
1925.598193463055
 20
815.1118278643364
 30
0.0
 11
1925.598162963884
 21
811.398237992261
 31
0.0
  0
LINE
  5
54C
330
53D
100
AcDbEntity
  8
0
  6
Continuous
 62
     7
370
    15
100
AcDbLine
 10
1925.598162963884
 20
811.398237992261
 30
0.0
 11
1923.759763767246
 21
812.4595031249674
 31
0.0
  0
LINE
  5
54D
330
53D
100
AcDbEntity
  8
0
  6
Continuous
 62
     7
370
    15
100
AcDbLine
 10
1923.759763767246
 20
812.4595031249674
 30
0.0
 11
1923.759733267909
 21
816.1731483441526
 31
0.0
  0
LINE
  5
54E
330
53D
100
AcDbEntity
  8
0
  6
Continuous
 62
     7
370
    15
100
AcDbLine
 10
1923.759733267909
 20
816.1731483441526
 30
0.0
 11
1923.194047842985
 21
816.4997053937028
 31
0.0
  0
LINE
  5
54F
330
53D
100
AcDbEntity
  8
0
  6
Continuous
 62
     7
370
    15
100
AcDbLine
 10
1923.194047842985
 20
816.4997053937028
 30
0.0
 11
1923.19403912479
 21
817.5612460066282
 31
0.0
  0
LINE
  5
550
330
53D
100
AcDbEntity
  8
0
  6
Continuous
 62
     7
370
    15
100
AcDbLine
 10
1926.163887605908
 20
815.8467564471104
 30
0.0
 11
1926.16387888798
 21
814.7852584244574
 31
0.0
  0
LINE
  5
551
330
53D
100
AcDbEntity
  8
0
  6
Continuous
 62
     7
370
    15
100
AcDbLine
 10
1940.023171799197
 20
822.7860579202973
 30
0.0
 11
1940.023180517125
 21
823.8475559429488
 31
0.0
  0
LINE
  5
552
330
53D
100
AcDbEntity
  8
0
  6
Continuous
 62
     7
370
    15
100
AcDbLine
 10
1926.16387888798
 20
814.7852584244574
 30
0.0
 11
1940.023171799197
 21
822.7860579202973
 31
0.0
  0
LINE
  5
553
330
53D
100
AcDbEntity
  8
0
  6
Continuous
 62
     7
370
    15
100
AcDbLine
 10
1938.149294233512
 20
816.9274730070082
 30
0.0
 11
1936.381527280545
 21
815.9069628672298
 31
0.0
  0
LINE
  5
554
330
53D
100
AcDbEntity
  8
0
  6
Continuous
 62
     7
370
    15
100
AcDbLine
 10
1936.381527280545
 20
815.9069628672298
 30
0.0
 11
1936.381518562617
 21
814.845464844579
 31
0.0
  0
LINE
  5
555
330
53D
100
AcDbEntity
  8
0
  6
Continuous
 62
     7
370
    15
100
AcDbLine
 10
1938.149285515583
 20
815.8659749843574
 30
0.0
 11
1936.381518562617
 21
814.845464844579
 31
0.0
  0
LINE
  5
556
330
53D
100
AcDbEntity
  8
0
  6
Continuous
 62
     7
370
    15
100
AcDbLine
 10
1933.411678799562
 20
814.1925058324039
 30
0.0
 11
1931.643911846595
 21
813.1719956926255
 31
0.0
  0
LINE
  5
557
330
53D
100
AcDbEntity
  8
0
  6
Continuous
 62
     7
370
    15
100
AcDbLine
 10
1931.643911846595
 20
813.1719956926255
 30
0.0
 11
1931.643903128667
 21
812.1104976699749
 31
0.0
  0
LINE
  5
558
330
53D
100
AcDbEntity
  8
0
  6
Continuous
 62
     7
370
    15
100
AcDbLine
 10
1933.411670081634
 20
813.1310078097532
 30
0.0
 11
1931.643903128667
 21
812.1104976699749
 31
0.0
  0
LINE
  5
559
330
53D
100
AcDbEntity
  8
0
  6
Continuous
 62
     7
370
    15
100
AcDbLine
 10
1928.674063365612
 20
811.4575386577977
 30
0.0
 11
1926.906296412645
 21
810.4370285180195
 31
0.0
  0
LINE
  5
55A
330
53D
100
AcDbEntity
  8
0
  6
Continuous
 62
     7
370
    15
100
AcDbLine
 10
1926.906296412645
 20
810.4370285180195
 30
0.0
 11
1926.906287694717
 21
809.3755304953688
 31
0.0
  0
LINE
  5
55B
330
53D
100
AcDbEntity
  8
0
  6
Continuous
 62
     7
370
    15
100
AcDbLine
 10
1928.674054647684
 20
810.396040635147
 30
0.0
 11
1926.906287694717
 21
809.3755304953688
 31
0.0
  0
LINE
  5
55C
330
53D
100
AcDbEntity
  8
0
  6
Continuous
 62
     7
370
    15
100
AcDbLine
 10
1929.451851331545
 20
808.2092895448585
 30
0.0
 11
1929.169005936653
 21
807.7193931463348
 31
0.0
  0
LINE
  5
55D
330
53D
100
AcDbEntity
  8
0
  6
Continuous
 62
     7
370
    15
100
AcDbLine
 10
1929.168997875923
 20
806.7379157438274
 30
0.0
 11
1929.169005936653
 21
807.7193931463348
 31
0.0
  0
LINE
  5
55E
330
53D
100
AcDbEntity
  8
0
  6
Continuous
 62
     7
370
    15
100
AcDbLine
 10
1926.411281429249
 20
805.1459199257463
 30
0.0
 11
1929.168997875923
 21
806.7379157438274
 31
0.0
  0
LINE
  5
55F
330
53D
100
AcDbEntity
  8
0
  6
Continuous
 62
     7
370
    15
100
AcDbLine
 10
1926.411281429249
 20
805.1459199257463
 30
0.0
 11
1926.411289489979
 21
806.1273973282535
 31
0.0
  0
LINE
  5
560
330
53D
100
AcDbEntity
  8
0
  6
Continuous
 62
     7
370
    15
100
AcDbLine
 10
1926.128449459968
 20
806.2907304820754
 30
0.0
 11
1926.411289489979
 21
806.1273973282535
 31
0.0
  0
LINE
  5
561
330
53D
100
AcDbEntity
  8
0
  6
Continuous
 62
     7
370
    15
100
AcDbLine
 10
1926.128449459968
 20
806.2907304820754
 30
0.0
 11
1926.128493049774
 21
811.7043910341969
 31
0.0
  0
LINE
  5
562
330
53D
100
AcDbEntity
  8
0
  6
Continuous
 62
     7
370
    15
100
AcDbLine
 10
1926.128493049774
 20
811.7043910341969
 30
0.0
 11
1925.598162963884
 21
811.398237992261
 31
0.0
  0
LINE
  5
563
330
53D
100
AcDbEntity
  8
0
  6
Continuous
 62
     7
370
    15
100
AcDbLine
 10
1939.457455875101
 20
819.3990374881108
 30
0.0
 11
1939.457481010163
 21
822.4594915789483
 31
0.0
  0
LINE
  5
564
330
53D
100
AcDbEntity
  8
0
  6
Continuous
 62
     7
370
    15
100
AcDbLine
 10
1938.92712578925
 20
819.0928844461998
 30
0.0
 11
1939.457455875101
 21
819.3990374881108
 31
0.0
  0
LINE
  5
565
330
53D
100
AcDbEntity
  8
0
  6
Continuous
 62
     7
370
    15
100
AcDbLine
 10
1938.92712578925
 20
819.0928844461998
 30
0.0
 11
1938.927082199444
 21
813.6792238940689
 31
0.0
  0
LINE
  5
566
330
53D
100
AcDbEntity
  8
0
  6
Continuous
 62
     7
370
    15
100
AcDbLine
 10
1938.644236804553
 20
813.1893274955452
 30
0.0
 11
1938.927082199444
 21
813.6792238940689
 31
0.0
  0
LINE
  5
567
330
53D
100
AcDbEntity
  8
0
  6
Continuous
 62
     7
370
    15
100
AcDbLine
 10
1938.644236804553
 20
813.1893274955452
 30
0.0
 11
1938.644228743823
 21
812.2078500930376
 31
0.0
  0
LINE
  5
568
330
53D
100
AcDbEntity
  8
0
  6
Continuous
 62
     7
370
    15
100
AcDbLine
 10
1935.886512297148
 20
810.6158542749565
 30
0.0
 11
1938.644228743823
 21
812.2078500930376
 31
0.0
  0
LINE
  5
569
330
53D
100
AcDbEntity
  8
0
  6
Continuous
 62
     7
370
    15
100
AcDbLine
 10
1935.886512297148
 20
810.6158542749565
 30
0.0
 11
1935.886520357879
 21
811.5973316774638
 31
0.0
  0
LINE
  5
56A
330
53D
100
AcDbEntity
  8
0
  6
Continuous
 62
     7
370
    15
100
AcDbLine
 10
1935.603680327868
 20
811.7606648312856
 30
0.0
 11
1935.886520357879
 21
811.5973316774638
 31
0.0
  0
LINE
  5
56B
330
53D
100
AcDbEntity
  8
0
  6
Continuous
 62
     7
370
    15
100
AcDbLine
 10
1935.603680327868
 20
811.7606648312856
 30
0.0
 11
1935.603723917674
 21
817.1743253834069
 31
0.0
  0
LINE
  5
56C
330
53D
100
AcDbEntity
  8
0
  6
Continuous
 62
     7
370
    15
100
AcDbLine
 10
1934.189510355301
 20
816.3579172715955
 30
0.0
 11
1935.603723917674
 21
817.1743253834069
 31
0.0
  0
LINE
  5
56D
330
53D
100
AcDbEntity
  8
0
  6
Continuous
 62
     7
370
    15
100
AcDbLine
 10
1934.189510355301
 20
816.3579172715955
 30
0.0
 11
1934.189466765494
 21
810.9442567194646
 31
0.0
  0
LINE
  5
56E
330
53D
100
AcDbEntity
  8
0
  6
Continuous
 62
     7
370
    15
100
AcDbLine
 10
1933.906621370604
 20
810.4543603209409
 30
0.0
 11
1934.189466765494
 21
810.9442567194646
 31
0.0
  0
LINE
  5
56F
330
53D
100
AcDbEntity
  8
0
  6
Continuous
 62
     7
370
    15
100
AcDbLine
 10
1933.906621370604
 20
810.4543603209409
 30
0.0
 11
1933.906613309873
 21
809.4728829184335
 31
0.0
  0
LINE
  5
570
330
53D
100
AcDbEntity
  8
0
  6
Continuous
 62
     7
370
    15
100
AcDbLine
 10
1931.148896863199
 20
807.8808871003523
 30
0.0
 11
1933.906613309873
 21
809.4728829184335
 31
0.0
  0
LINE
  5
571
330
53D
100
AcDbEntity
  8
0
  6
Continuous
 62
     7
370
    15
100
AcDbLine
 10
1931.148896863199
 20
807.8808871003523
 30
0.0
 11
1931.148904923929
 21
808.8623645028595
 31
0.0
  0
LINE
  5
572
330
53D
100
AcDbEntity
  8
0
  6
Continuous
 62
     7
370
    15
100
AcDbLine
 10
1930.866064893917
 20
809.0256976566816
 30
0.0
 11
1931.148904923929
 21
808.8623645028595
 31
0.0
  0
LINE
  5
573
330
53D
100
AcDbEntity
  8
0
  6
Continuous
 62
     7
370
    15
100
AcDbLine
 10
1930.866064893917
 20
809.0256976566816
 30
0.0
 11
1930.866108483724
 21
814.4393582088026
 31
0.0
  0
LINE
  5
574
330
53D
100
AcDbEntity
  8
0
  6
Continuous
 62
     7
370
    15
100
AcDbLine
 10
1930.866108483724
 20
814.4393582088026
 30
0.0
 11
1929.451894921351
 21
813.6229501226614
 31
0.0
  0
LINE
  5
575
330
53D
100
AcDbEntity
  8
0
  6
Continuous
 62
     7
370
    15
100
AcDbLine
 10
1929.451894921351
 20
813.6229501226614
 30
0.0
 11
1929.451851331545
 21
808.2092895448585
 31
0.0
  0
LINE
  5
576
330
53D
100
AcDbEntity
  8
0
  6
Continuous
 62
     7
370
    15
100
AcDbLine
 10
1924.290137442611
 20
807.351985553144
 30
0.0
 11
1926.128449459968
 21
806.2907304820754
 31
0.0
  0
LINE
  5
577
330
53D
100
AcDbEntity
  8
0
  6
Continuous
 62
     7
370
    15
100
AcDbLine
 10
1924.290137442611
 20
807.351985553144
 30
0.0
 11
1924.290098783242
 21
812.1533530449633
 31
0.0
  0
LINE
  5
578
330
53D
100
AcDbEntity
  8
0
  6
Continuous
 62
     7
370
    15
100
AcDbLine
 10
1928.850893374567
 20
811.3554568665
 30
0.0
 11
1928.674063365612
 21
811.4575386577977
 31
0.0
  0
LINE
  5
579
330
53D
100
AcDbEntity
  8
0
  6
Continuous
 62
     7
370
    15
100
AcDbLine
 10
1928.850893374567
 20
811.3554568665
 30
0.0
 11
1927.083126421601
 21
810.3349467267216
 31
0.0
  0
LINE
  5
57A
330
53D
100
AcDbEntity
  8
0
  6
Continuous
 62
     7
370
    15
100
AcDbLine
 10
1927.083126421601
 20
810.3349467267216
 30
0.0
 11
1926.906296412645
 21
810.4370285180195
 31
0.0
  0
LINE
  5
57B
330
53D
100
AcDbEntity
  8
0
  6
Continuous
 62
     7
370
    15
100
AcDbLine
 10
1928.674054647684
 20
810.396040635147
 30
0.0
 11
1928.850893374567
 21
811.3554568665
 31
0.0
  0
LINE
  5
57C
330
53D
100
AcDbEntity
  8
0
  6
Continuous
 62
     7
370
    15
100
AcDbLine
 10
1926.906287694717
 20
809.3755304953688
 30
0.0
 11
1927.083126421601
 21
810.3349467267216
 31
0.0
  0
LINE
  5
57D
330
53D
100
AcDbEntity
  8
0
  6
Continuous
 62
     7
370
    15
100
AcDbLine
 10
1924.572982837499
 20
807.1886493021867
 30
0.0
 11
1926.411289489979
 21
806.1273973282535
 31
0.0
  0
LINE
  5
57E
330
53D
100
AcDbEntity
  8
0
  6
Continuous
 62
     7
370
    15
100
AcDbLine
 10
1924.290137442611
 20
807.351985553144
 30
0.0
 11
1924.572982837499
 21
807.1886493021867
 31
0.0
  0
LINE
  5
57F
330
53D
100
AcDbEntity
  8
0
  6
Continuous
 62
     7
370
    15
100
AcDbLine
 10
1929.451864478746
 20
809.8421136665521
 30
0.0
 11
1930.866064893917
 21
809.0256976566816
 31
0.0
  0
LINE
  5
580
330
53D
100
AcDbEntity
  8
0
  6
Continuous
 62
     7
370
    15
100
AcDbLine
 10
1926.340570080546
 20
805.1050874116945
 30
0.0
 11
1924.643686153791
 21
806.084696235051
 31
0.0
  0
LINE
  5
581
330
53D
100
AcDbEntity
  8
0
  6
Continuous
 62
     7
370
    15
100
AcDbLine
 10
1924.572990898397
 20
806.2071424604488
 30
0.0
 11
1924.643686153791
 21
806.084696235051
 31
0.0
  0
LINE
  5
582
330
53D
100
AcDbEntity
  8
0
  6
Continuous
 62
     7
370
    15
100
AcDbLine
 10
1926.411281429249
 20
805.1459199257463
 30
0.0
 11
1926.340570080546
 21
805.1050874116945
 31
0.0
  0
LINE
  5
583
330
53D
100
AcDbEntity
  8
0
  6
Continuous
 62
     7
370
    15
100
AcDbLine
 10
1924.572982837499
 20
807.1886493021867
 30
0.0
 11
1924.572990898397
 21
806.2071424604488
 31
0.0
  0
LINE
  5
584
330
53D
100
AcDbEntity
  8
0
  6
Continuous
 62
     7
370
    15
100
AcDbLine
 10
1929.09828652722
 20
806.6970832297757
 30
0.0
 11
1929.168997875923
 21
806.7379157438274
 31
0.0
  0
LINE
  5
585
330
53D
100
AcDbEntity
  8
0
  6
Continuous
 62
     7
370
    15
100
AcDbLine
 10
1928.674020446661
 20
806.4521244708014
 30
0.0
 11
1929.09828652722
 21
806.6970832297757
 31
0.0
  0
LINE
  5
586
330
53D
100
AcDbEntity
  8
0
  6
Continuous
 62
     7
370
    15
100
AcDbLine
 10
1928.674020446661
 20
806.4521244708014
 30
0.0
 11
1926.340568068713
 21
805.1050510862765
 31
0.0
  0
LINE
  5
587
330
53D
100
AcDbEntity
  8
0
  6
Continuous
 62
     7
370
    15
100
AcDbLine
 10
1926.340570080546
 20
805.1050874116945
 30
0.0
 11
1926.340568068713
 21
805.1050510862765
 31
0.0
  0
LINE
  5
588
330
53D
100
AcDbEntity
  8
0
  6
Continuous
 62
     7
370
    15
100
AcDbLine
 10
1924.643686153791
 20
806.084696235051
 30
0.0
 11
1925.067956258168
 21
805.8397281839049
 31
0.0
  0
LINE
  5
589
330
53D
100
AcDbEntity
  8
0
  6
Continuous
 62
     7
370
    15
100
AcDbLine
 10
1926.340568068713
 20
805.1050510862765
 30
0.0
 11
1925.067956258168
 21
805.8397281839049
 31
0.0
  0
LINE
  5
58A
330
53D
100
AcDbEntity
  8
0
  6
Continuous
 62
     7
370
    15
100
AcDbLine
 10
1926.234496976764
 20
804.6708484560847
 30
0.0
 11
1926.234501045699
 21
805.1662834369247
 31
0.0
  0
ARC
  5
58B
330
53D
100
AcDbEntity
  8
0
  6
Continuous
 62
     7
370
    15
100
AcDbCircle
 10
1926.541538993016
 20
804.6848182920726
 30
0.0
 40
0.3073596526245409
100
AcDbArc
 50
182.6050539644226
 51
237.3945949214394
  0
LINE
  5
58C
330
53D
100
AcDbEntity
  8
0
  6
Continuous
 62
     7
370
    15
100
AcDbLine
 10
1926.621871282364
 20
804.2839119478909
 30
0.0
 11
1926.375918165346
 21
804.425898038899
 31
0.0
  0
ARC
  5
58D
330
53D
100
AcDbEntity
  8
0
  6
Continuous
 62
     7
370
    15
100
AcDbCircle
 10
1926.456249596991
 20
804.0249909512032
 30
0.0
 40
0.3073607411353333
100
AcDbArc
 50
2.605308358403152
 51
57.39453491776215
  0
LINE
  5
58E
330
53D
100
AcDbEntity
  8
0
  6
Continuous
 62
     7
370
    15
100
AcDbLine
 10
1926.763292638599
 20
804.0389621999404
 30
0.0
 11
1926.76324941895
 21
798.7765234444712
 31
0.0
  0
LINE
  5
58F
330
53D
100
AcDbEntity
  8
0
  6
Continuous
 62
     7
370
    15
100
AcDbLine
 10
1924.857124593058
 20
799.8769228873034
 30
0.0
 11
1926.76324941895
 21
798.7765234444712
 31
0.0
  0
LINE
  5
590
330
53D
100
AcDbEntity
  8
0
  6
Continuous
 62
     7
370
    15
100
AcDbLine
 10
1924.857124593058
 20
799.8769228873034
 30
0.0
 11
1924.857167812679
 21
805.139360868403
 31
0.0
  0
ARC
  5
591
330
53D
100
AcDbEntity
  8
0
  6
Continuous
 62
     7
370
    15
100
AcDbCircle
 10
1924.943382827551
 20
805.1533444985436
 30
0.0
 40
0.0873416893659277
100
AcDbArc
 50
50.79661220715921
 51
189.2128505995701
  0
LINE
  5
592
330
53D
100
AcDbEntity
  8
0
  6
Continuous
 62
     7
370
    15
100
AcDbLine
 10
1925.244547315499
 20
805.0790372974624
 30
0.0
 11
1924.998589336564
 21
805.2210261952119
 31
0.0
  0
ARC
  5
593
330
53D
100
AcDbEntity
  8
0
  6
Continuous
 62
     7
370
    15
100
AcDbCircle
 10
1925.299757030314
 20
805.146716134179
 30
0.0
 40
0.0873414995821983
100
AcDbArc
 50
230.7937967307172
 51
9.214821702968382
  0
LINE
  5
594
330
53D
100
AcDbEntity
  8
0
  6
Continuous
 62
     7
370
    15
100
AcDbLine
 10
1925.385973411195
 20
805.656137306431
 30
0.0
 11
1925.385971376732
 21
805.16070269991
 31
0.0
  0
LINE
  5
595
330
53D
100
AcDbEntity
  8
0
  6
Continuous
 62
     7
370
    15
100
AcDbLine
 10
1933.588508808517
 20
814.0904240411058
 30
0.0
 11
1931.820741855551
 21
813.0699139013275
 31
0.0
  0
LINE
  5
596
330
53D
100
AcDbEntity
  8
0
  6
Continuous
 62
     7
370
    15
100
AcDbLine
 10
1933.411670081634
 20
813.1310078097532
 30
0.0
 11
1933.588508808517
 21
814.0904240411058
 31
0.0
  0
LINE
  5
597
330
53D
100
AcDbEntity
  8
0
  6
Continuous
 62
     7
370
    15
100
AcDbLine
 10
1931.643903128667
 20
812.1104976699749
 30
0.0
 11
1931.820741855551
 21
813.0699139013275
 31
0.0
  0
LINE
  5
598
330
53D
100
AcDbEntity
  8
0
  6
Continuous
 62
     7
370
    15
100
AcDbLine
 10
1931.820741855551
 20
813.0699139013275
 30
0.0
 11
1931.643911846595
 21
813.1719956926255
 31
0.0
  0
LINE
  5
599
330
53D
100
AcDbEntity
  8
0
  6
Continuous
 62
     7
370
    15
100
AcDbLine
 10
1933.588508808517
 20
814.0904240411058
 30
0.0
 11
1933.411678799562
 21
814.1925058324039
 31
0.0
  0
LINE
  5
59A
330
53D
100
AcDbEntity
  8
0
  6
Continuous
 62
     7
370
    15
100
AcDbLine
 10
1928.355821389265
 20
806.2684320649701
 30
0.0
 11
1928.355819857711
 21
805.895458384667
 31
0.0
  0
LINE
  5
59B
330
53D
100
AcDbEntity
  8
0
  6
Continuous
 62
     7
370
    15
100
AcDbLine
 10
1928.355819857711
 20
805.895458384667
 30
0.0
 11
1926.234496976764
 21
804.6708484560847
 31
0.0
  0
LINE
  5
59C
330
53D
100
AcDbEntity
  8
0
  6
Continuous
 62
     7
370
    15
100
AcDbLine
 10
1926.763292638599
 20
804.0389621999404
 30
0.0
 11
1928.88461298215
 21
805.2635743676692
 31
0.0
  0
LINE
  5
59D
330
53D
100
AcDbEntity
  8
0
  6
Continuous
 62
     7
370
    15
100
AcDbLine
 10
1928.743191793564
 20
805.5085243976487
 30
0.0
 11
1926.621871282364
 21
804.2839119478909
 31
0.0
  0
ARC
  5
59E
330
53D
100
AcDbEntity
  8
0
  6
Continuous
 62
     7
370
    15
100
AcDbCircle
 10
1928.577570876583
 20
805.2496040708236
 30
0.0
 40
0.3073597627940035
100
AcDbArc
 50
2.605139028612904
 51
57.39458829469319
  0
LINE
  5
59F
330
53D
100
AcDbEntity
  8
0
  6
Continuous
 62
     7
370
    15
100
AcDbLine
 10
1928.884574345098
 20
800.5591136331833
 30
0.0
 11
1928.88461298215
 21
805.2635743676692
 31
0.0
  0
LINE
  5
5A0
330
53D
100
AcDbEntity
  8
0
  6
Continuous
 62
     7
370
    15
100
AcDbLine
 10
1928.59596576186
 20
798.5025311196107
 30
0.0
 11
1928.884574345098
 21
800.5591136331833
 31
0.0
  0
ARC
  5
5A1
330
53D
100
AcDbEntity
  8
0
  6
Continuous
 62
     7
370
    15
100
AcDbCircle
 10
1928.054846015925
 20
798.5852462404079
 30
0.0
 40
0.5474051247920439
100
AcDbArc
 50
302.9067125962096
 51
351.3090878343827
  0
LINE
  5
5A2
330
53D
100
AcDbEntity
  8
0
  6
Continuous
 62
     7
370
    15
100
AcDbLine
 10
1927.210355723478
 20
797.4664752143199
 30
0.0
 11
1928.352236338189
 21
798.1256688618604
 31
0.0
  0
LWPOLYLINE
  5
5A3
330
53D
100
AcDbEntity
  8
0
  6
Continuous
 62
     7
370
    15
100
AcDbPolyline
 90
        9
 70
   128
 43
0.0
 10
1927.210355723478
 20
797.4664752143199
 10
1927.167380027747
 20
797.4460076134769
 10
1927.125710198101
 20
797.4348454319412
 10
1927.086612351227
 20
797.4333278269498
 10
1927.051274455418
 20
797.4415009101623
 10
1927.020770234757
 20
797.4591163465816
 10
1926.996026544552
 20
797.4856389000859
 10
1926.977795209309
 20
797.5202626963071
 10
1926.966630178925
 20
797.5619357087187
  0
LINE
  5
5A4
330
53D
100
AcDbEntity
  8
0
  6
Continuous
 62
     7
370
    15
100
AcDbLine
 10
1926.76324941895
 20
798.7765234444712
 30
0.0
 11
1926.966630178925
 21
797.5619357087187
 31
0.0
  0
LINE
  5
5A5
330
53D
100
AcDbEntity
  8
0
  6
Continuous
 62
     7
370
    15
100
AcDbLine
 10
1928.497238508921
 20
805.650510585451
 30
0.0
 11
1926.375918165346
 21
804.425898038899
 31
0.0
  0
LINE
  5
5A6
330
53D
100
AcDbEntity
  8
0
  6
Continuous
 62
     7
370
    15
100
AcDbLine
 10
1928.497238508921
 20
805.650510585451
 30
0.0
 11
1928.743191793564
 21
805.5085243976487
 31
0.0
  0
ARC
  5
5A7
330
53D
100
AcDbEntity
  8
0
  6
Continuous
 62
     7
370
    15
100
AcDbCircle
 10
1928.662870849368
 20
805.9094344541739
 30
0.0
 40
0.3073689021292471
100
AcDbArc
 50
182.6061386931091
 51
237.3931502392385
  0
LINE
  5
5A8
330
53D
100
AcDbEntity
  8
0
  6
Continuous
 62
     7
370
    15
100
AcDbLine
 10
1929.451864478344
 20
809.8420636843274
 30
0.0
 11
1931.148904923929
 21
808.8623645028595
 31
0.0
  0
LINE
  5
5A9
330
53D
100
AcDbEntity
  8
0
  6
Continuous
 62
     7
370
    15
100
AcDbLine
 10
1934.189479912696
 20
812.5770808411566
 30
0.0
 11
1935.603680327868
 21
811.7606648312856
 31
0.0
  0
LINE
  5
5AA
330
53D
100
AcDbEntity
  8
0
  6
Continuous
 62
     7
370
    15
100
AcDbLine
 10
1929.451855918205
 20
808.7789324889623
 30
0.0
 11
1931.078185514496
 21
807.8400545863004
 31
0.0
  0
LINE
  5
5AB
330
53D
100
AcDbEntity
  8
0
  6
Continuous
 62
     7
370
    15
100
AcDbLine
 10
1931.148896863199
 20
807.8808871003523
 30
0.0
 11
1931.078185514496
 21
807.8400545863004
 31
0.0
  0
LINE
  5
5AC
330
53D
100
AcDbEntity
  8
0
  6
Continuous
 62
     7
370
    15
100
AcDbLine
 10
1933.83590196117
 20
809.4320504043814
 30
0.0
 11
1933.906613309873
 21
809.4728829184335
 31
0.0
  0
LINE
  5
5AD
330
53D
100
AcDbEntity
  8
0
  6
Continuous
 62
     7
370
    15
100
AcDbLine
 10
1933.411635880611
 20
809.1870916454075
 30
0.0
 11
1933.83590196117
 21
809.4320504043814
 31
0.0
  0
LINE
  5
5AE
330
53D
100
AcDbEntity
  8
0
  6
Continuous
 62
     7
370
    15
100
AcDbLine
 10
1933.411635880611
 20
809.1870916454075
 30
0.0
 11
1931.078183502663
 21
807.8400182608826
 31
0.0
  0
LINE
  5
5AF
330
53D
100
AcDbEntity
  8
0
  6
Continuous
 62
     7
370
    15
100
AcDbLine
 10
1931.078185514496
 20
807.8400545863004
 30
0.0
 11
1931.078183502663
 21
807.8400182608826
 31
0.0
  0
LINE
  5
5B0
330
53D
100
AcDbEntity
  8
0
  6
Continuous
 62
     7
370
    15
100
AcDbLine
 10
1929.451855918155
 20
808.7789262550868
 30
0.0
 11
1929.805571692117
 21
808.5746953585111
 31
0.0
  0
LINE
  5
5B1
330
53D
100
AcDbEntity
  8
0
  6
Continuous
 62
     7
370
    15
100
AcDbLine
 10
1931.078183502663
 20
807.8400182608826
 30
0.0
 11
1929.805571692117
 21
808.5746953585111
 31
0.0
  0
ARC
  5
5B2
330
53D
100
AcDbEntity
  8
0
  6
Continuous
 62
     7
370
    15
100
AcDbCircle
 10
1931.193865030941
 20
806.7599581258095
 30
0.0
 40
0.3073607411353602
100
AcDbArc
 50
2.605308358403152
 51
57.39453491774766
  0
LINE
  5
5B3
330
53D
100
AcDbEntity
  8
0
  6
Continuous
 62
     7
370
    15
100
AcDbLine
 10
1931.500908072549
 20
806.7739293745466
 30
0.0
 11
1931.5008648529
 21
801.5114906190772
 31
0.0
  0
LINE
  5
5B4
330
53D
100
AcDbEntity
  8
0
  6
Continuous
 62
     7
370
    15
100
AcDbLine
 10
1929.594740027008
 20
802.6118900619096
 30
0.0
 11
1931.5008648529
 21
801.5114906190772
 31
0.0
  0
LINE
  5
5B5
330
53D
100
AcDbEntity
  8
0
  6
Continuous
 62
     7
370
    15
100
AcDbLine
 10
1929.594740027008
 20
802.6118900619096
 30
0.0
 11
1929.594783246629
 21
807.874328043009
 31
0.0
  0
ARC
  5
5B6
330
53D
100
AcDbEntity
  8
0
  6
Continuous
 62
     7
370
    15
100
AcDbCircle
 10
1929.680998261501
 20
807.8883116731496
 30
0.0
 40
0.0873416893658951
100
AcDbArc
 50
50.79661220712667
 51
189.2128505995573
  0
LINE
  5
5B7
330
53D
100
AcDbEntity
  8
0
  6
Continuous
 62
     7
370
    15
100
AcDbLine
 10
1929.982162749449
 20
807.8140044720683
 30
0.0
 11
1929.736204770514
 21
807.9559933698178
 31
0.0
  0
ARC
  5
5B8
330
53D
100
AcDbEntity
  8
0
  6
Continuous
 62
     7
370
    15
100
AcDbCircle
 10
1930.037372464264
 20
807.881683308785
 30
0.0
 40
0.0873414995821989
100
AcDbArc
 50
230.7937967306989
 51
9.214821702981241
  0
LINE
  5
5B9
330
53D
100
AcDbEntity
  8
0
  6
Continuous
 62
     7
370
    15
100
AcDbLine
 10
1930.123588845145
 20
808.3911044810372
 30
0.0
 11
1930.123586810682
 21
807.8956698745159
 31
0.0
  0
LINE
  5
5BA
330
53D
100
AcDbEntity
  8
0
  6
Continuous
 62
     7
370
    15
100
AcDbLine
 10
1930.972112410714
 20
807.4058156306906
 30
0.0
 11
1930.972116479649
 21
807.9012506115308
 31
0.0
  0
ARC
  5
5BB
330
53D
100
AcDbEntity
  8
0
  6
Continuous
 62
     7
370
    15
100
AcDbCircle
 10
1931.279154426966
 20
807.419785466679
 30
0.0
 40
0.307359652625152
100
AcDbArc
 50
182.6050539645006
 51
237.3945949214104
  0
LINE
  5
5BC
330
53D
100
AcDbEntity
  8
0
  6
Continuous
 62
     7
370
    15
100
AcDbLine
 10
1931.359486716313
 20
807.0188791224969
 30
0.0
 11
1931.113533599296
 21
807.1608652135051
 31
0.0
  0
LINE
  5
5BD
330
53D
100
AcDbEntity
  8
0
  6
Continuous
 62
     7
370
    15
100
AcDbLine
 10
1938.326124242467
 20
816.8253912157103
 30
0.0
 11
1936.558357289501
 21
815.804881075932
 31
0.0
  0
LINE
  5
5BE
330
53D
100
AcDbEntity
  8
0
  6
Continuous
 62
     7
370
    15
100
AcDbLine
 10
1938.149285515583
 20
815.8659749843574
 30
0.0
 11
1938.326124242467
 21
816.8253912157103
 31
0.0
  0
LINE
  5
5BF
330
53D
100
AcDbEntity
  8
0
  6
Continuous
 62
     7
370
    15
100
AcDbLine
 10
1936.381518562617
 20
814.845464844579
 30
0.0
 11
1936.558357289501
 21
815.804881075932
 31
0.0
  0
LINE
  5
5C0
330
53D
100
AcDbEntity
  8
0
  6
Continuous
 62
     7
370
    15
100
AcDbLine
 10
1936.558357289501
 20
815.804881075932
 30
0.0
 11
1936.381527280545
 21
815.9069628672298
 31
0.0
  0
LINE
  5
5C1
330
53D
100
AcDbEntity
  8
0
  6
Continuous
 62
     7
370
    15
100
AcDbLine
 10
1938.326124242467
 20
816.8253912157103
 30
0.0
 11
1938.149294233512
 21
816.9274730070082
 31
0.0
  0
LINE
  5
5C2
330
53D
100
AcDbEntity
  8
0
  6
Continuous
 62
     7
370
    15
100
AcDbLine
 10
1933.093436823218
 20
809.0033992395778
 30
0.0
 11
1933.093435291668
 21
808.6304255592773
 31
0.0
  0
LINE
  5
5C3
330
53D
100
AcDbEntity
  8
0
  6
Continuous
 62
     7
370
    15
100
AcDbLine
 10
1933.093435291668
 20
808.6304255592773
 30
0.0
 11
1930.972112410714
 21
807.4058156306906
 31
0.0
  0
LINE
  5
5C4
330
53D
100
AcDbEntity
  8
0
  6
Continuous
 62
     7
370
    15
100
AcDbLine
 10
1926.966630178925
 20
797.5619357087187
 30
0.0
 11
1925.060505353037
 21
798.6623351515559
 31
0.0
  0
LINE
  5
5C5
330
53D
100
AcDbEntity
  8
0
  6
Continuous
 62
     7
370
    15
100
AcDbLine
 10
1925.060505353037
 20
798.6623351515559
 30
0.0
 11
1924.857124593058
 21
799.8769228873034
 31
0.0
  0
LINE
  5
5C6
330
53D
100
AcDbEntity
  8
0
  6
Continuous
 62
     7
370
    15
100
AcDbLine
 10
1931.500908072549
 20
806.7739293745466
 30
0.0
 11
1933.622228416101
 21
807.9985415422758
 31
0.0
  0
LINE
  5
5C7
330
53D
100
AcDbEntity
  8
0
  6
Continuous
 62
     7
370
    15
100
AcDbLine
 10
1933.480807227514
 20
808.2434915722547
 30
0.0
 11
1931.359486716313
 21
807.0188791224969
 31
0.0
  0
ARC
  5
5C8
330
53D
100
AcDbEntity
  8
0
  6
Continuous
 62
     7
370
    15
100
AcDbCircle
 10
1933.315186310528
 20
807.9845712454261
 30
0.0
 40
0.3073597627995311
100
AcDbArc
 50
2.605139029375413
 51
57.39458829439693
  0
LINE
  5
5C9
330
53D
100
AcDbEntity
  8
0
  6
Continuous
 62
     7
370
    15
100
AcDbLine
 10
1933.622189779042
 20
803.2940808077864
 30
0.0
 11
1933.622228416101
 21
807.9985415422758
 31
0.0
  0
LINE
  5
5CA
330
53D
100
AcDbEntity
  8
0
  6
Continuous
 62
     7
370
    15
100
AcDbLine
 10
1933.33358119581
 20
801.2374982942166
 30
0.0
 11
1933.622189779042
 21
803.2940808077864
 31
0.0
  0
ARC
  5
5CB
330
53D
100
AcDbEntity
  8
0
  6
Continuous
 62
     7
370
    15
100
AcDbCircle
 10
1932.792461449876
 20
801.3202134150139
 30
0.0
 40
0.5474051247916925
100
AcDbArc
 50
302.9067125961806
 51
351.3090878343762
  0
LINE
  5
5CC
330
53D
100
AcDbEntity
  8
0
  6
Continuous
 62
     7
370
    15
100
AcDbLine
 10
1931.947971157428
 20
800.2014423889255
 30
0.0
 11
1933.089851772139
 21
800.8606360364664
 31
0.0
  0
LWPOLYLINE
  5
5CD
330
53D
100
AcDbEntity
  8
0
  6
Continuous
 62
     7
370
    15
100
AcDbPolyline
 90
        9
 70
   128
 43
0.0
 10
1931.947971157428
 20
800.2014423889255
 10
1931.904995461697
 20
800.1809747880828
 10
1931.863325632051
 20
800.1698126065468
 10
1931.824227785176
 20
800.1682950015554
 10
1931.788889889368
 20
800.1764680847681
 10
1931.758385668706
 20
800.1940835211874
 10
1931.733641978501
 20
800.2206060746916
 10
1931.715410643259
 20
800.2552298709129
 10
1931.704245612875
 20
800.2969028833248
  0
LINE
  5
5CE
330
53D
100
AcDbEntity
  8
0
  6
Continuous
 62
     7
370
    15
100
AcDbLine
 10
1931.5008648529
 20
801.5114906190772
 30
0.0
 11
1931.704245612875
 21
800.2969028833248
 31
0.0
  0
LINE
  5
5CF
330
53D
100
AcDbEntity
  8
0
  6
Continuous
 62
     7
370
    15
100
AcDbLine
 10
1933.234853942875
 20
808.3854777600592
 30
0.0
 11
1933.480807227514
 21
808.2434915722547
 31
0.0
  0
LINE
  5
5D0
330
53D
100
AcDbEntity
  8
0
  6
Continuous
 62
     7
370
    15
100
AcDbLine
 10
1933.234853942875
 20
808.3854777600592
 30
0.0
 11
1931.113533599296
 21
807.1608652135051
 31
0.0
  0
ARC
  5
5D1
330
53D
100
AcDbEntity
  8
0
  6
Continuous
 62
     7
370
    15
100
AcDbCircle
 10
1933.400486283345
 20
808.6444016287911
 30
0.0
 40
0.3073689021498249
100
AcDbArc
 50
182.6061386942372
 51
237.3931502363908
  0
ARC
  5
5D2
330
53D
100
AcDbEntity
  8
0
  6
Continuous
 62
     7
370
    15
100
AcDbCircle
 10
1925.211003842272
 20
798.6767164589938
 30
0.0
 40
0.1511840509629529
100
AcDbArc
 50
185.4584856577028
 51
237.2621693262195
  0
LINE
  5
5D3
330
53D
100
AcDbEntity
  8
0
  6
Continuous
 62
     7
370
    15
100
AcDbLine
 10
1934.189479912294
 20
812.5770308589316
 30
0.0
 11
1935.886520357879
 21
811.5973316774638
 31
0.0
  0
LINE
  5
5D4
330
53D
100
AcDbEntity
  8
0
  6
Continuous
 62
     7
370
    15
100
AcDbLine
 10
1934.189471352155
 20
811.5138996635664
 30
0.0
 11
1935.815800948446
 21
810.5750217609049
 31
0.0
  0
LINE
  5
5D5
330
53D
100
AcDbEntity
  8
0
  6
Continuous
 62
     7
370
    15
100
AcDbLine
 10
1935.886512297148
 20
810.6158542749565
 30
0.0
 11
1935.815800948446
 21
810.5750217609049
 31
0.0
  0
LINE
  5
5D6
330
53D
100
AcDbEntity
  8
0
  6
Continuous
 62
     7
370
    15
100
AcDbLine
 10
1938.57351739512
 20
812.1670175789857
 30
0.0
 11
1938.644228743823
 21
812.2078500930376
 31
0.0
  0
LINE
  5
5D7
330
53D
100
AcDbEntity
  8
0
  6
Continuous
 62
     7
370
    15
100
AcDbLine
 10
1938.14925131456
 20
811.9220588200118
 30
0.0
 11
1938.57351739512
 21
812.1670175789857
 31
0.0
  0
LINE
  5
5D8
330
53D
100
AcDbEntity
  8
0
  6
Continuous
 62
     7
370
    15
100
AcDbLine
 10
1938.14925131456
 20
811.9220588200118
 30
0.0
 11
1935.815798936613
 21
810.5749854354868
 31
0.0
  0
LINE
  5
5D9
330
53D
100
AcDbEntity
  8
0
  6
Continuous
 62
     7
370
    15
100
AcDbLine
 10
1935.815800948446
 20
810.5750217609049
 30
0.0
 11
1935.815798936613
 21
810.5749854354868
 31
0.0
  0
LINE
  5
5DA
330
53D
100
AcDbEntity
  8
0
  6
Continuous
 62
     7
370
    15
100
AcDbLine
 10
1934.189471352105
 20
811.513893429691
 30
0.0
 11
1934.543187126067
 21
811.3096625331154
 31
0.0
  0
LINE
  5
5DB
330
53D
100
AcDbEntity
  8
0
  6
Continuous
 62
     7
370
    15
100
AcDbLine
 10
1935.815798936613
 20
810.5749854354868
 30
0.0
 11
1934.543187126067
 21
811.3096625331154
 31
0.0
  0
ARC
  5
5DC
330
53D
100
AcDbEntity
  8
0
  6
Continuous
 62
     7
370
    15
100
AcDbCircle
 10
1935.931480464891
 20
809.4949253004136
 30
0.0
 40
0.3073607411354479
100
AcDbArc
 50
2.605308358409659
 51
57.39453491774766
  0
LINE
  5
5DD
330
53D
100
AcDbEntity
  8
0
  6
Continuous
 62
     7
370
    15
100
AcDbLine
 10
1936.238523506499
 20
809.5088965491509
 30
0.0
 11
1936.23848028685
 21
804.2464577936815
 31
0.0
  0
LINE
  5
5DE
330
53D
100
AcDbEntity
  8
0
  6
Continuous
 62
     7
370
    15
100
AcDbLine
 10
1934.332355460957
 20
805.3468572365137
 30
0.0
 11
1936.23848028685
 21
804.2464577936815
 31
0.0
  0
LINE
  5
5DF
330
53D
100
AcDbEntity
  8
0
  6
Continuous
 62
     7
370
    15
100
AcDbLine
 10
1934.332355460957
 20
805.3468572365137
 30
0.0
 11
1934.332398680579
 21
810.6092952176133
 31
0.0
  0
ARC
  5
5E0
330
53D
100
AcDbEntity
  8
0
  6
Continuous
 62
     7
370
    15
100
AcDbCircle
 10
1934.418613695451
 20
810.6232788477537
 30
0.0
 40
0.0873416893660733
100
AcDbArc
 50
50.79661220722843
 51
189.2128505994651
  0
LINE
  5
5E1
330
53D
100
AcDbEntity
  8
0
  6
Continuous
 62
     7
370
    15
100
AcDbLine
 10
1934.719778183399
 20
810.5489716466724
 30
0.0
 11
1934.473820204464
 21
810.6909605444222
 31
0.0
  0
ARC
  5
5E2
330
53D
100
AcDbEntity
  8
0
  6
Continuous
 62
     7
370
    15
100
AcDbCircle
 10
1934.774987898214
 20
810.6166504833893
 30
0.0
 40
0.0873414995822454
100
AcDbArc
 50
230.7937967307864
 51
9.214821702921289
  0
LINE
  5
5E3
330
53D
100
AcDbEntity
  8
0
  6
Continuous
 62
     7
370
    15
100
AcDbLine
 10
1934.861204279094
 20
811.1260716556413
 30
0.0
 11
1934.861202244632
 21
810.6306370491203
 31
0.0
  0
LINE
  5
5E4
330
53D
100
AcDbEntity
  8
0
  6
Continuous
 62
     7
370
    15
100
AcDbLine
 10
1935.709727844664
 20
810.1407828052948
 30
0.0
 11
1935.709731913599
 21
810.6362177861351
 31
0.0
  0
ARC
  5
5E5
330
53D
100
AcDbEntity
  8
0
  6
Continuous
 62
     7
370
    15
100
AcDbCircle
 10
1936.016769860916
 20
810.1547526412833
 30
0.0
 40
0.3073596526249242
100
AcDbArc
 50
182.6050539645006
 51
237.3945949214284
  0
LINE
  5
5E6
330
53D
100
AcDbEntity
  8
0
  6
Continuous
 62
     7
370
    15
100
AcDbLine
 10
1936.097102150263
 20
809.7538462971012
 30
0.0
 11
1935.851149033246
 21
809.8958323881095
 31
0.0
  0
LINE
  5
5E7
330
53D
100
AcDbEntity
  8
0
  6
Continuous
 62
     7
370
    15
100
AcDbLine
 10
1937.831052257168
 20
811.7383664141822
 30
0.0
 11
1937.831050725618
 21
811.3653927338814
 31
0.0
  0
LINE
  5
5E8
330
53D
100
AcDbEntity
  8
0
  6
Continuous
 62
     7
370
    15
100
AcDbLine
 10
1937.831050725618
 20
811.3653927338814
 30
0.0
 11
1935.709727844664
 21
810.1407828052948
 31
0.0
  0
LINE
  5
5E9
330
53D
100
AcDbEntity
  8
0
  6
Continuous
 62
     7
370
    15
100
AcDbLine
 10
1931.704245612875
 20
800.2969028833248
 30
0.0
 11
1929.798120786987
 21
801.397302326162
 31
0.0
  0
LINE
  5
5EA
330
53D
100
AcDbEntity
  8
0
  6
Continuous
 62
     7
370
    15
100
AcDbLine
 10
1929.798120786987
 20
801.397302326162
 30
0.0
 11
1929.594740027008
 21
802.6118900619096
 31
0.0
  0
LINE
  5
5EB
330
53D
100
AcDbEntity
  8
0
  6
Continuous
 62
     7
370
    15
100
AcDbLine
 10
1936.238523506499
 20
809.5088965491509
 30
0.0
 11
1938.35984385005
 21
810.7335087168801
 31
0.0
  0
LINE
  5
5EC
330
53D
100
AcDbEntity
  8
0
  6
Continuous
 62
     7
370
    15
100
AcDbLine
 10
1938.218422661464
 20
810.978458746859
 30
0.0
 11
1936.097102150263
 21
809.7538462971012
 31
0.0
  0
ARC
  5
5ED
330
53D
100
AcDbEntity
  8
0
  6
Continuous
 62
     7
370
    15
100
AcDbCircle
 10
1938.052801744478
 20
810.7195384200299
 30
0.0
 40
0.3073597628000825
100
AcDbArc
 50
2.605139029440483
 51
57.39458829434997
  0
LINE
  5
5EE
330
53D
100
AcDbEntity
  8
0
  6
Continuous
 62
     7
370
    15
100
AcDbLine
 10
1938.359805212992
 20
806.0290479823907
 30
0.0
 11
1938.35984385005
 21
810.7335087168801
 31
0.0
  0
LINE
  5
5EF
330
53D
100
AcDbEntity
  8
0
  6
Continuous
 62
     7
370
    15
100
AcDbLine
 10
1938.071196629759
 20
803.9724654688207
 30
0.0
 11
1938.359805212992
 21
806.0290479823907
 31
0.0
  0
ARC
  5
5F0
330
53D
100
AcDbEntity
  8
0
  6
Continuous
 62
     7
370
    15
100
AcDbCircle
 10
1937.530076883825
 20
804.0551805896186
 30
0.0
 40
0.5474051247923937
100
AcDbArc
 50
302.9067125962131
 51
351.3090878343421
  0
LINE
  5
5F1
330
53D
100
AcDbEntity
  8
0
  6
Continuous
 62
     7
370
    15
100
AcDbLine
 10
1936.685586591378
 20
802.9364095635298
 30
0.0
 11
1937.827467206088
 21
803.5956032110707
 31
0.0
  0
LWPOLYLINE
  5
5F2
330
53D
100
AcDbEntity
  8
0
  6
Continuous
 62
     7
370
    15
100
AcDbPolyline
 90
        9
 70
   128
 43
0.0
 10
1936.685586591378
 20
802.9364095635298
 10
1936.642610895647
 20
802.9159419626871
 10
1936.600941066
 20
802.9047797811511
 10
1936.561843219126
 20
802.9032621761597
 10
1936.526505323318
 20
802.9114352593724
 10
1936.496001102656
 20
802.9290506957917
 10
1936.471257412451
 20
802.9555732492958
 10
1936.453026077209
 20
802.9901970455171
 10
1936.441861046825
 20
803.0318700579291
  0
LINE
  5
5F3
330
53D
100
AcDbEntity
  8
0
  6
Continuous
 62
     7
370
    15
100
AcDbLine
 10
1936.23848028685
 20
804.2464577936815
 30
0.0
 11
1936.441861046825
 21
803.0318700579291
 31
0.0
  0
LINE
  5
5F4
330
53D
100
AcDbEntity
  8
0
  6
Continuous
 62
     7
370
    15
100
AcDbLine
 10
1937.972469376824
 20
811.1204449346633
 30
0.0
 11
1938.218422661464
 21
810.978458746859
 31
0.0
  0
LINE
  5
5F5
330
53D
100
AcDbEntity
  8
0
  6
Continuous
 62
     7
370
    15
100
AcDbLine
 10
1937.972469376824
 20
811.1204449346633
 30
0.0
 11
1935.851149033246
 21
809.8958323881095
 31
0.0
  0
ARC
  5
5F6
330
53D
100
AcDbEntity
  8
0
  6
Continuous
 62
     7
370
    15
100
AcDbCircle
 10
1938.138101717294
 20
811.3793688033952
 30
0.0
 40
0.3073689021494243
100
AcDbArc
 50
182.6061386942242
 51
237.3931502364558
  0
ARC
  5
5F7
330
53D
100
AcDbEntity
  8
0
  6
Continuous
 62
     7
370
    15
100
AcDbCircle
 10
1929.948619276222
 20
801.4116836335999
 30
0.0
 40
0.1511840509630981
100
AcDbArc
 50
185.4584856577352
 51
237.262169326205
  0
LINE
  5
5F8
330
53D
100
AcDbEntity
  8
0
  6
Continuous
 62
     7
370
    15
100
AcDbLine
 10
1936.441861046825
 20
803.0318700579291
 30
0.0
 11
1934.535736220937
 21
804.1322695007663
 31
0.0
  0
LINE
  5
5F9
330
53D
100
AcDbEntity
  8
0
  6
Continuous
 62
     7
370
    15
100
AcDbLine
 10
1934.535736220937
 20
804.1322695007663
 30
0.0
 11
1934.332355460957
 21
805.3468572365137
 31
0.0
  0
ARC
  5
5FA
330
53D
100
AcDbEntity
  8
0
  6
Continuous
 62
     7
370
    15
100
AcDbCircle
 10
1934.686234710172
 20
804.1466508082045
 30
0.0
 40
0.1511840509634362
100
AcDbArc
 50
185.4584856578142
 51
237.262169326187
  0
LINE
  5
5FB
330
53D
100
AcDbEntity
  8
0
  6
Continuous
 62
     8
370
    15
100
AcDbLine
 10
1925.244547315499
 20
805.0790372974624
 30
0.0
 11
1925.385968837575
 21
805.1606783979465
 31
0.0
  0
LINE
  5
5FC
330
53D
100
AcDbEntity
  8
0
  6
Continuous
 62
     8
370
    15
100
AcDbLine
 10
1924.998589336564
 20
805.2210261952119
 30
0.0
 11
1925.385972542771
 21
805.4446578645482
 31
0.0
  0
LINE
  5
5FD
330
53D
100
AcDbEntity
  8
0
  6
Continuous
 62
     8
370
    15
100
AcDbLine
 10
1929.982162749449
 20
807.8140044720683
 30
0.0
 11
1930.123584271525
 21
807.8956455725526
 31
0.0
  0
LINE
  5
5FE
330
53D
100
AcDbEntity
  8
0
  6
Continuous
 62
     8
370
    15
100
AcDbLine
 10
1929.736204770514
 20
807.9559933698178
 30
0.0
 11
1930.123587976721
 21
808.1796250391542
 31
0.0
  0
LINE
  5
5FF
330
53D
100
AcDbEntity
  8
0
  6
Continuous
 62
     8
370
    15
100
AcDbLine
 10
1934.719778183399
 20
810.5489716466724
 30
0.0
 11
1934.861199705475
 21
810.6306127471567
 31
0.0
  0
LINE
  5
600
330
53D
100
AcDbEntity
  8
0
  6
Continuous
 62
     8
370
    15
100
AcDbLine
 10
1934.473820204464
 20
810.6909605444222
 30
0.0
 11
1934.861203410671
 21
810.9145922137585
 31
0.0
  0
ENDBLK
  5
53F
330
53D
100
AcDbEntity
  8
0
100
AcDbBlockEnd
  0
ENDSEC
  0
SECTION
  2
ENTITIES
  0
INSERT
  5
505
330
1F
100
AcDbEntity
  8
0
100
AcDbBlockReference
  2
1
 10
0.0
 20
0.0
 30
0.0
  0
INSERT
  5
534
330
1F
100
AcDbEntity
  8
0
100
AcDbBlockReference
  2
2
 10
0.0
 20
0.0
 30
0.0
  0
INSERT
  5
53C
330
1F
100
AcDbEntity
  8
0
100
AcDbBlockReference
  2
3
 10
0.0
 20
0.0
 30
0.0
  0
INSERT
  5
601
330
1F
100
AcDbEntity
  8
0
100
AcDbBlockReference
  2
4
 10
0.0
 20
0.0
 30
0.0
  0
ENDSEC
  0
SECTION
  2
OBJECTS
  0
DICTIONARY
  5
C
330
0
100
AcDbDictionary
281
     1
  3
ACAD_COLOR
350
6B
  3
ACAD_GROUP
350
D
  3
ACAD_LAYOUT
350
1A
  3
ACAD_MATERIAL
350
6A
  3
ACAD_MLEADERSTYLE
350
12D
  3
ACAD_MLINESTYLE
350
17
  3
ACAD_PLOTSETTINGS
350
19
  3
ACAD_PLOTSTYLENAME
350
E
  3
ACAD_SCALELIST
350
10C
  3
ACAD_TABLESTYLE
350
7E
  3
ACAD_VISUALSTYLE
350
EF
  3
ACDB_RECOMPOSE_DATA
350
15D
  3
AcDbVariableDictionary
350
5E
  3
DWGPROPS
350
611
  0
DICTIONARY
  5
13C
330
10
100
AcDbDictionary
280
     1
281
     1
  3
ADSK_XREC_LAYER_RECONCILED
360
602
  0
DICTIONARY
  5
6B
102
{ACAD_REACTORS
330
C
102
}
330
C
100
AcDbDictionary
281
     1
  0
DICTIONARY
  5
D
102
{ACAD_REACTORS
330
C
102
}
330
C
100
AcDbDictionary
281
     1
  0
DICTIONARY
  5
1A
102
{ACAD_REACTORS
330
C
102
}
330
C
100
AcDbDictionary
281
     1
  3
Layout1
350
D3
  3
Layout2
350
D7
  3
Model
350
22
  0
DICTIONARY
  5
6A
102
{ACAD_REACTORS
330
C
102
}
330
C
100
AcDbDictionary
281
     1
  3
ByBlock
350
ED
  3
ByLayer
350
EC
  3
Global
350
EE
  0
DICTIONARY
  5
12D
102
{ACAD_REACTORS
330
C
102
}
330
C
100
AcDbDictionary
281
     1
  3
Annotative
350
13B
  3
Standard
350
12E
  0
DICTIONARY
  5
17
102
{ACAD_REACTORS
330
C
102
}
330
C
100
AcDbDictionary
281
     1
  3
Standard
350
18
  0
DICTIONARY
  5
19
102
{ACAD_REACTORS
330
C
102
}
330
C
100
AcDbDictionary
281
     1
  0
ACDBDICTIONARYWDFLT
  5
E
102
{ACAD_REACTORS
330
C
102
}
330
C
100
AcDbDictionary
281
     1
  3
Normal
350
F
100
AcDbDictionaryWithDefault
340
F
  0
DICTIONARY
  5
10C
102
{ACAD_REACTORS
330
C
102
}
330
C
100
AcDbDictionary
281
     1
  3
A0
350
10D
  3
A1
350
188
  3
A2
350
189
  3
A3
350
18A
  3
A4
350
18B
  3
A5
350
18C
  3
A6
350
18D
  3
A7
350
18E
  3
A8
350
18F
  3
A9
350
190
  3
B0
350
191
  3
B1
350
192
  3
B2
350
193
  3
B3
350
194
  3
B4
350
195
  3
B5
350
196
  3
B6
350
197
  3
B7
350
198
  3
B8
350
199
  3
B9
350
19A
  3
C0
350
19B
  3
C1
350
19C
  3
C2
350
19D
  3
C3
350
19E
  3
C4
350
19F
  3
C5
350
1A0
  3
C6
350
1A1
  3
C7
350
1A2
  3
C8
350
1A3
  3
C9
350
1A4
  3
D0
350
1A5
  3
D1
350
1A6
  3
D2
350
1A7
  0
DICTIONARY
  5
7E
102
{ACAD_REACTORS
330
C
102
}
330
C
100
AcDbDictionary
281
     1
  3
Standard
350
7F
  0
DICTIONARY
  5
EF
102
{ACAD_REACTORS
330
C
102
}
330
C
100
AcDbDictionary
281
     1
  3
2dWireframe
350
F5
  3
3D Hidden
350
F7
  3
3dWireframe
350
F6
  3
Basic
350
F4
  3
Brighten
350
FB
  3
ColorChange
350
FF
  3
Conceptual
350
F8
  3
Dim
350
FA
  3
Facepattern
350
FE
  3
Flat
350
F0
  3
FlatWithEdges
350
F1
  3
Gouraud
350
F2
  3
GouraudWithEdges
350
F3
  3
Linepattern
350
FD
  3
Realistic
350
F9
  3
Thicken
350
FC
  0
XRECORD
  5
15D
102
{ACAD_REACTORS
330
C
102
}
330
C
100
AcDbXrecord
280
     1
 90
        1
330
7F
  0
DICTIONARY
  5
5E
102
{ACAD_REACTORS
330
C
102
}
330
C
100
AcDbDictionary
281
     1
  3
CANNOSCALE
350
146
  3
CMLEADERSTYLE
350
145
  3
CTABLESTYLE
350
84
  3
DIMASSOC
350
5F
  3
HIDETEXT
350
63
  3
INDEXCTL
350
60D
  3
LIGHTINGUNITS
350
60B
  3
MSLTSCALE
350
60A
  3
PSOLHEIGHT
350
60F
  3
PSOLWIDTH
350
60E
  3
SORTENTS
350
60C
  0
XRECORD
  5
611
102
{ACAD_REACTORS
330
C
102
}
330
C
100
AcDbXrecord
280
     1
  1
DWGPROPS COOKIE
  2

  3

  4

  6

  7

  8
orhan kara
  9

300
=
301
=
302
=
303
=
304
=
305
=
306
=
307
=
308
=
309
=
 40
0.0017701851851852
 41
2458932.581494086
 42
2458956.440620856
  1

 90
        0
  0
XRECORD
  5
602
102
{ACAD_REACTORS
330
13C
102
}
330
13C
100
AcDbXrecord
280
     1
290
     1
  0
LAYOUT
  5
D3
102
{ACAD_XDICTIONARY
360
615
102
}
102
{ACAD_REACTORS
330
1A
102
}
330
1A
100
AcDbPlotSettings
  1

  2
C:\Documents and Settings\basas\Application Data\Autodesk\AutoCAD 2005\R16.1\enu\plotters\Default Windows System Printer.pc3
  4

  6

 40
0.0
 41
0.0
 42
0.0
 43
0.0
 44
0.0
 45
0.0
 46
0.0
 47
0.0
 48
0.0
 49
0.0
140
0.0
141
0.0
142
1.0
143
1.0
 70
   688
 72
     0
 73
     0
 74
     5
  7

 75
    16
147
1.0
148
0.0
149
0.0
100
AcDbLayout
  1
Layout1
 70
     1
 71
     1
 10
0.0
 20
0.0
 11
12.0
 21
9.0
 12
0.0
 22
0.0
 32
0.0
 14
0.0
 24
0.0
 34
0.0
 15
0.0
 25
0.0
 35
0.0
146
0.0
 13
0.0
 23
0.0
 33
0.0
 16
1.0
 26
0.0
 36
0.0
 17
0.0
 27
1.0
 37
0.0
 76
     0
330
D2
  0
LAYOUT
  5
D7
102
{ACAD_XDICTIONARY
360
617
102
}
102
{ACAD_REACTORS
330
1A
102
}
330
1A
100
AcDbPlotSettings
  1

  2
C:\Documents and Settings\basas\Application Data\Autodesk\AutoCAD 2005\R16.1\enu\plotters\Default Windows System Printer.pc3
  4

  6

 40
0.0
 41
0.0
 42
0.0
 43
0.0
 44
0.0
 45
0.0
 46
0.0
 47
0.0
 48
0.0
 49
0.0
140
0.0
141
0.0
142
1.0
143
1.0
 70
   688
 72
     0
 73
     0
 74
     5
  7

 75
    16
147
1.0
148
0.0
149
0.0
100
AcDbLayout
  1
Layout2
 70
     1
 71
     2
 10
0.0
 20
0.0
 11
12.0
 21
9.0
 12
0.0
 22
0.0
 32
0.0
 14
0.0
 24
0.0
 34
0.0
 15
0.0
 25
0.0
 35
0.0
146
0.0
 13
0.0
 23
0.0
 33
0.0
 16
1.0
 26
0.0
 36
0.0
 17
0.0
 27
1.0
 37
0.0
 76
     0
330
D6
  0
LAYOUT
  5
22
102
{ACAD_XDICTIONARY
360
612
102
}
102
{ACAD_REACTORS
330
1A
102
}
330
1A
100
AcDbPlotSettings
  1

  2
none_device
  4
ISO_A4_(210.00_x_297.00_MM)
  6

 40
7.5
 41
20.0
 42
7.5
 43
20.0
 44
210.0
 45
297.0
 46
11.54999923706054
 47
-13.65000009536743
 48
0.0
 49
0.0
140
0.0
141
0.0
142
1.0
143
8.704084754739808
 70
 11952
 72
     1
 73
     0
 74
     0
  7

 75
     0
147
0.1148885871608098
148
0.0
149
0.0
100
AcDbLayout
  1
Model
 70
     1
 71
     0
 10
0.0
 20
0.0
 11
12.0
 21
9.0
 12
0.0
 22
0.0
 32
0.0
 14
0.0
 24
0.0
 34
0.0
 15
0.0
 25
0.0
 35
0.0
146
0.0
 13
0.0
 23
0.0
 33
0.0
 16
1.0
 26
0.0
 36
0.0
 17
0.0
 27
1.0
 37
0.0
 76
     0
330
1F
331
EA
1001
ACAD_PSEXT
1000
None
1000
None
1000
Not applicable
1000
The layout will not be plotted unless a new plotter configuration name is selected.
1070
     0
  0
MATERIAL
  5
ED
102
{ACAD_XDICTIONARY
360
61B
102
}
102
{ACAD_REACTORS
330
6A
102
}
330
6A
100
AcDbMaterial
  1
ByBlock
  0
MATERIAL
  5
EC
102
{ACAD_XDICTIONARY
360
619
102
}
102
{ACAD_REACTORS
330
6A
102
}
330
6A
100
AcDbMaterial
  1
ByLayer
  0
MATERIAL
  5
EE
102
{ACAD_XDICTIONARY
360
173
102
}
102
{ACAD_REACTORS
330
6A
102
}
330
6A
100
AcDbMaterial
  1
Global
 43
0.0007999999797903
 43
0.0
 43
0.0
 43
0.0
 43
0.0
 43
0.0007999999797903
 43
0.0
 43
0.0
 43
0.0
 43
0.0
 43
1.0
 43
0.0
 43
0.0
 43
0.0
 43
0.0
 43
1.0
 49
0.0007999999797903
 49
0.0
 49
0.0
 49
0.0
 49
0.0
 49
0.0007999999797903
 49
0.0
 49
0.0
 49
0.0
 49
0.0
 49
1.0
 49
0.0
 49
0.0
 49
0.0
 49
0.0
 49
1.0
142
0.0007999999797903
142
0.0
142
0.0
142
0.0
142
0.0
142
0.0007999999797903
142
0.0
142
0.0
142
0.0
142
0.0
142
1.0
142
0.0
142
0.0
142
0.0
142
0.0
142
1.0
144
0.0007999999797903
144
0.0
144
0.0
144
0.0
144
0.0
144
0.0007999999797903
144
0.0
144
0.0
144
0.0
144
0.0
144
1.0
144
0.0
144
0.0
144
0.0
144
0.0
144
1.0
1001
ACAD
1070
    -1
1070
     3
1070
     0
1000

1071
        0
1070
     0
  0
MLEADERSTYLE
  5
13B
102
{ACAD_REACTORS
330
12D
102
}
330
12D
100
AcDbMLeaderStyle
170
     2
171
     1
172
     0
 90
        2
 40
0.0
 41
0.0
173
     1
 91
-1056964608
340
14
 92
       -2
290
     1
 42
2.0
291
     1
 43
8.0
  3
Standard
 44
4.0
300

342
11
174
     1
178
     1
175
     1
176
     0
 93
-1056964608
 45
4.0
292
     0
297
     0
 46
4.0
 94
-1056964608
 47
1.0
 49
1.0
140
1.0
293
     1
141
0.0
294
     1
177
     0
142
1.0
295
     0
296
     1
143
3.75
1001
ACAD_MLEADERVER
1070
     2
  0
MLEADERSTYLE
  5
12E
102
{ACAD_REACTORS
330
12D
102
}
330
12D
100
AcDbMLeaderStyle
170
     2
171
     1
172
     0
 90
        2
 40
0.0
 41
0.0
173
     1
 91
-1056964608
340
14
 92
       -2
290
     1
 42
2.0
291
     1
 43
8.0
  3
Standard
 44
4.0
300

342
11
174
     1
178
     1
175
     1
176
     0
 93
-1056964608
 45
4.0
292
     0
297
     0
 46
4.0
 94
-1056964608
 47
1.0
 49
1.0
140
1.0
293
     1
141
0.0
294
     1
177
     0
142
1.0
295
     0
296
     0
143
3.75
1001
ACAD_MLEADERVER
1070
     2
  0
MLINESTYLE
  5
18
102
{ACAD_REACTORS
330
17
102
}
330
17
100
AcDbMlineStyle
  2
STANDARD
 70
     0
  3

 62
   256
 51
90.0
 52
90.0
 71
     2
 49
0.5
 62
   256
  6
BYLAYER
 49
-0.5
 62
   256
  6
BYLAYER
  0
ACDBPLACEHOLDER
  5
F
102
{ACAD_REACTORS
330
E
102
}
330
E
  0
SCALE
  5
10D
102
{ACAD_REACTORS
330
10C
102
}
330
10C
100
AcDbScale
 70
     0
300
1:1
140
1.0
141
1.0
290
     1
  0
SCALE
  5
188
102
{ACAD_REACTORS
330
10C
102
}
330
10C
100
AcDbScale
 70
     0
300
1:2
140
1.0
141
2.0
290
     0
  0
SCALE
  5
189
102
{ACAD_REACTORS
330
10C
102
}
330
10C
100
AcDbScale
 70
     0
300
1:4
140
1.0
141
4.0
290
     0
  0
SCALE
  5
18A
102
{ACAD_REACTORS
330
10C
102
}
330
10C
100
AcDbScale
 70
     0
300
1:5
140
1.0
141
5.0
290
     0
  0
SCALE
  5
18B
102
{ACAD_REACTORS
330
10C
102
}
330
10C
100
AcDbScale
 70
     0
300
1:8
140
1.0
141
8.0
290
     0
  0
SCALE
  5
18C
102
{ACAD_REACTORS
330
10C
102
}
330
10C
100
AcDbScale
 70
     0
300
1:10
140
1.0
141
10.0
290
     0
  0
SCALE
  5
18D
102
{ACAD_REACTORS
330
10C
102
}
330
10C
100
AcDbScale
 70
     0
300
1:16
140
1.0
141
16.0
290
     0
  0
SCALE
  5
18E
102
{ACAD_REACTORS
330
10C
102
}
330
10C
100
AcDbScale
 70
     0
300
1:20
140
1.0
141
20.0
290
     0
  0
SCALE
  5
18F
102
{ACAD_REACTORS
330
10C
102
}
330
10C
100
AcDbScale
 70
     0
300
1:30
140
1.0
141
30.0
290
     0
  0
SCALE
  5
190
102
{ACAD_REACTORS
330
10C
102
}
330
10C
100
AcDbScale
 70
     0
300
1:40
140
1.0
141
40.0
290
     0
  0
SCALE
  5
191
102
{ACAD_REACTORS
330
10C
102
}
330
10C
100
AcDbScale
 70
     0
300
1:50
140
1.0
141
50.0
290
     0
  0
SCALE
  5
192
102
{ACAD_REACTORS
330
10C
102
}
330
10C
100
AcDbScale
 70
     0
300
1:100
140
1.0
141
100.0
290
     0
  0
SCALE
  5
193
102
{ACAD_REACTORS
330
10C
102
}
330
10C
100
AcDbScale
 70
     0
300
2:1
140
2.0
141
1.0
290
     0
  0
SCALE
  5
194
102
{ACAD_REACTORS
330
10C
102
}
330
10C
100
AcDbScale
 70
     0
300
4:1
140
4.0
141
1.0
290
     0
  0
SCALE
  5
195
102
{ACAD_REACTORS
330
10C
102
}
330
10C
100
AcDbScale
 70
     0
300
8:1
140
8.0
141
1.0
290
     0
  0
SCALE
  5
196
102
{ACAD_REACTORS
330
10C
102
}
330
10C
100
AcDbScale
 70
     0
300
10:1
140
10.0
141
1.0
290
     0
  0
SCALE
  5
197
102
{ACAD_REACTORS
330
10C
102
}
330
10C
100
AcDbScale
 70
     0
300
100:1
140
100.0
141
1.0
290
     0
  0
SCALE
  5
198
102
{ACAD_REACTORS
330
10C
102
}
330
10C
100
AcDbScale
 70
     0
300
1/128" = 1'-0"
140
0.0078125
141
12.0
290
     0
  0
SCALE
  5
199
102
{ACAD_REACTORS
330
10C
102
}
330
10C
100
AcDbScale
 70
     0
300
1/64" = 1'-0"
140
0.015625
141
12.0
290
     0
  0
SCALE
  5
19A
102
{ACAD_REACTORS
330
10C
102
}
330
10C
100
AcDbScale
 70
     0
300
1/32" = 1'-0"
140
0.03125
141
12.0
290
     0
  0
SCALE
  5
19B
102
{ACAD_REACTORS
330
10C
102
}
330
10C
100
AcDbScale
 70
     0
300
1/16" = 1'-0"
140
0.0625
141
12.0
290
     0
  0
SCALE
  5
19C
102
{ACAD_REACTORS
330
10C
102
}
330
10C
100
AcDbScale
 70
     0
300
3/32" = 1'-0"
140
0.09375
141
12.0
290
     0
  0
SCALE
  5
19D
102
{ACAD_REACTORS
330
10C
102
}
330
10C
100
AcDbScale
 70
     0
300
1/8" = 1'-0"
140
0.125
141
12.0
290
     0
  0
SCALE
  5
19E
102
{ACAD_REACTORS
330
10C
102
}
330
10C
100
AcDbScale
 70
     0
300
3/16" = 1'-0"
140
0.1875
141
12.0
290
     0
  0
SCALE
  5
19F
102
{ACAD_REACTORS
330
10C
102
}
330
10C
100
AcDbScale
 70
     0
300
1/4" = 1'-0"
140
0.25
141
12.0
290
     0
  0
SCALE
  5
1A0
102
{ACAD_REACTORS
330
10C
102
}
330
10C
100
AcDbScale
 70
     0
300
3/8" = 1'-0"
140
0.375
141
12.0
290
     0
  0
SCALE
  5
1A1
102
{ACAD_REACTORS
330
10C
102
}
330
10C
100
AcDbScale
 70
     0
300
1/2" = 1'-0"
140
0.5
141
12.0
290
     0
  0
SCALE
  5
1A2
102
{ACAD_REACTORS
330
10C
102
}
330
10C
100
AcDbScale
 70
     0
300
3/4" = 1'-0"
140
0.75
141
12.0
290
     0
  0
SCALE
  5
1A3
102
{ACAD_REACTORS
330
10C
102
}
330
10C
100
AcDbScale
 70
     0
300
1" = 1'-0"
140
1.0
141
12.0
290
     0
  0
SCALE
  5
1A4
102
{ACAD_REACTORS
330
10C
102
}
330
10C
100
AcDbScale
 70
     0
300
1-1/2" = 1'-0"
140
1.5
141
12.0
290
     0
  0
SCALE
  5
1A5
102
{ACAD_REACTORS
330
10C
102
}
330
10C
100
AcDbScale
 70
     0
300
3" = 1'-0"
140
3.0
141
12.0
290
     0
  0
SCALE
  5
1A6
102
{ACAD_REACTORS
330
10C
102
}
330
10C
100
AcDbScale
 70
     0
300
6" = 1'-0"
140
6.0
141
12.0
290
     0
  0
SCALE
  5
1A7
102
{ACAD_REACTORS
330
10C
102
}
330
10C
100
AcDbScale
 70
     0
300
1'-0" = 1'-0"
140
12.0
141
12.0
290
     0
  0
TABLESTYLE
  5
7F
102
{ACAD_XDICTIONARY
360
162
102
}
102
{ACAD_REACTORS
330
7E
102
}
330
7E
100
AcDbTableStyle
  3
Standard
 70
     0
 71
     0
 40
1.5
 41
1.5
280
     0
281
     0
  7
Standard
140
4.5
170
     2
 62
     0
 63
     7
283
     0
274
    -2
284
     1
 64
     0
275
    -2
285
     1
 65
     0
276
    -2
286
     1
 66
     0
277
    -2
287
     1
 67
     0
278
    -2
288
     1
 68
     0
279
    -2
289
     1
 69
     0
  7
Standard
140
6.0
170
     5
 62
     0
 63
     7
283
     0
274
    -2
284
     1
 64
     0
275
    -2
285
     1
 65
     0
276
    -2
286
     1
 66
     0
277
    -2
287
     1
 67
     0
278
    -2
288
     1
 68
     0
279
    -2
289
     1
 69
     0
  7
Standard
140
4.5
170
     5
 62
     0
 63
     7
283
     0
274
    -2
284
     1
 64
     0
275
    -2
285
     1
 65
     0
276
    -2
286
     1
 66
     0
277
    -2
287
     1
 67
     0
278
    -2
288
     1
 68
     0
279
    -2
289
     1
 69
     0
  0
VISUALSTYLE
  5
F5
102
{ACAD_REACTORS
330
EF
102
}
330
EF
100
AcDbVisualStyle
  2
2dWireframe
 70
     4
 71
     0
 72
     2
 73
     1
 90
        0
 40
-0.6
 41
-30.0
 62
     5
 63
     7
 74
     1
 91
        4
 64
     7
 65
   257
 75
     1
175
     1
 42
1.0
 92
        0
 66
   257
 43
1.0
 76
     1
 77
     6
 78
     2
 67
     7
 79
     5
170
     0
171
     0
290
     0
174
     0
 93
        1
 44
0.0
173
     0
291
     0
 45
0.0
1001
ACAD
1000
AcDbSavedByObjectVersion
1070
     0
  0
VISUALSTYLE
  5
F7
102
{ACAD_REACTORS
330
EF
102
}
330
EF
100
AcDbVisualStyle
  2
3D Hidden
 70
     6
 71
     1
 72
     2
 73
     2
 90
        0
 40
-0.6
 41
-30.0
 62
     5
 63
     7
 74
     2
 91
        2
 64
     7
 65
   257
 75
     2
175
     1
 42
40.0
 92
        0
 66
   257
 43
1.0
 76
     1
 77
     6
 78
     2
 67
     7
 79
     3
170
     0
171
     0
290
     0
174
     0
 93
        1
 44
0.0
173
     0
291
     0
 45
0.0
1001
ACAD
1000
AcDbSavedByObjectVersion
1070
     0
  0
VISUALSTYLE
  5
F6
102
{ACAD_REACTORS
330
EF
102
}
330
EF
100
AcDbVisualStyle
  2
3dWireframe
 70
     5
 71
     0
 72
     2
 73
     1
 90
        0
 40
-0.6
 41
-30.0
 62
     5
 63
     7
 74
     1
 91
        4
 64
     7
 65
   257
 75
     1
175
     1
 42
1.0
 92
        0
 66
   257
 43
1.0
 76
     1
 77
     6
 78
     2
 67
     7
 79
     5
170
     0
171
     0
290
     0
174
     0
 93
        1
 44
0.0
173
     0
291
     0
 45
0.0
1001
ACAD
1000
AcDbSavedByObjectVersion
1070
     0
  0
VISUALSTYLE
  5
F4
102
{ACAD_REACTORS
330
EF
102
}
330
EF
100
AcDbVisualStyle
  2
Basic
 70
     7
 71
     1
 72
     0
 73
     1
 90
        0
 40
-0.6
 41
-30.0
 62
     5
 63
     7
 74
     0
 91
        4
 64
     7
 65
   257
 75
     1
175
     1
 42
1.0
 92
        8
 66
     7
 43
1.0
 76
     1
 77
     6
 78
     2
 67
     7
 79
     5
170
     0
171
     0
290
     0
174
     0
 93
        1
 44
0.0
173
     0
291
     1
 45
0.0
1001
ACAD
1000
AcDbSavedByObjectVersion
1070
     0
  0
VISUALSTYLE
  5
FB
102
{ACAD_REACTORS
330
EF
102
}
330
EF
100
AcDbVisualStyle
  2
Brighten
 70
    12
 71
     2
 72
     2
 73
     1
 90
        0
 40
-0.6
 41
-30.0
 62
     5
 63
     7
 74
     1
 91
        4
 64
     7
 65
   257
 75
     1
175
     1
 42
1.0
 92
        8
 66
     7
 43
1.0
 76
     1
 77
     6
 78
     2
 67
     7
 79
     5
170
     0
171
     0
290
     0
174
     0
 93
        1
 44
50.0
173
     0
291
     1
 45
0.0
1001
ACAD
1000
AcDbSavedByObjectVersion
1070
     0
  0
VISUALSTYLE
  5
FF
102
{ACAD_REACTORS
330
EF
102
}
330
EF
100
AcDbVisualStyle
  2
ColorChange
 70
    16
 71
     2
 72
     2
 73
     3
 90
        0
 40
-0.6
 41
-30.0
 62
     5
 63
     8
 74
     1
 91
        4
 64
     7
 65
   257
 75
     1
175
     1
 42
1.0
 92
        8
 66
     8
 43
1.0
 76
     1
 77
     6
 78
     2
 67
     7
 79
     5
170
     0
171
     0
290
     0
174
     0
 93
        1
 44
0.0
173
     0
291
     1
 45
0.0
1001
ACAD
1000
AcDbSavedByObjectVersion
1070
     0
  0
VISUALSTYLE
  5
F8
102
{ACAD_REACTORS
330
EF
102
}
330
EF
100
AcDbVisualStyle
  2
Conceptual
 70
     9
 71
     3
 72
     2
 73
     1
 90
        0
 40
-0.6
 41
-30.0
 62
     5
 63
     7
 74
     2
 91
        2
 64
     7
 65
   257
 75
     1
175
     1
 42
40.0
 92
        8
 66
     7
 43
1.0
 76
     1
 77
     6
 78
     2
 67
     7
 79
     3
170
     0
171
     0
290
     0
174
     0
 93
        1
 44
0.0
173
     0
291
     0
 45
0.0
1001
ACAD
1000
AcDbSavedByObjectVersion
1070
     0
  0
VISUALSTYLE
  5
FA
102
{ACAD_REACTORS
330
EF
102
}
330
EF
100
AcDbVisualStyle
  2
Dim
 70
    11
 71
     2
 72
     2
 73
     1
 90
        0
 40
-0.6
 41
-30.0
 62
     5
 63
     7
 74
     1
 91
        4
 64
     7
 65
   257
 75
     1
175
     1
 42
1.0
 92
        8
 66
     7
 43
1.0
 76
     1
 77
     6
 78
     2
 67
     7
 79
     5
170
     0
171
     0
290
     0
174
     0
 93
        1
 44
-50.0
173
     0
291
     1
 45
0.0
1001
ACAD
1000
AcDbSavedByObjectVersion
1070
     0
  0
VISUALSTYLE
  5
FE
102
{ACAD_REACTORS
330
EF
102
}
330
EF
100
AcDbVisualStyle
  2
Facepattern
 70
    15
 71
     2
 72
     2
 73
     1
 90
        0
 40
-0.6
 41
-30.0
 62
     5
 63
     7
 74
     1
 91
        4
 64
     7
 65
   257
 75
     1
175
     1
 42
1.0
 92
        8
 66
     7
 43
1.0
 76
     1
 77
     6
 78
     2
 67
     7
 79
     5
170
     0
171
     0
290
     0
174
     0
 93
        1
 44
0.0
173
     0
291
     1
 45
0.0
1001
ACAD
1000
AcDbSavedByObjectVersion
1070
     0
  0
VISUALSTYLE
  5
F0
102
{ACAD_REACTORS
330
EF
102
}
330
EF
100
AcDbVisualStyle
  2
Flat
 70
     0
 71
     2
 72
     1
 73
     1
 90
        2
 40
-0.6
 41
30.0
 62
     5
 63
     7
 74
     0
 91
        4
 64
     7
 65
   257
 75
     1
175
     1
 42
1.0
 92
        8
 66
     7
 43
1.0
 76
     1
 77
     6
 78
     2
 67
     7
 79
     5
170
     0
171
     0
290
     0
174
     0
 93
        1
 44
0.0
173
     0
291
     1
 45
0.0
1001
ACAD
1000
AcDbSavedByObjectVersion
1070
     0
  0
VISUALSTYLE
  5
F1
102
{ACAD_REACTORS
330
EF
102
}
330
EF
100
AcDbVisualStyle
  2
FlatWithEdges
 70
     1
 71
     2
 72
     1
 73
     1
 90
        2
 40
-0.6
 41
30.0
 62
     5
 63
     7
 74
     1
 91
        4
 64
     7
 65
   257
 75
     1
175
     1
 42
1.0
 92
        0
 66
   257
 43
1.0
 76
     1
 77
     6
 78
     2
 67
     7
 79
     5
170
     0
171
     0
290
     0
174
     0
 93
        1
 44
0.0
173
     0
291
     1
 45
0.0
1001
ACAD
1000
AcDbSavedByObjectVersion
1070
     0
  0
VISUALSTYLE
  5
F2
102
{ACAD_REACTORS
330
EF
102
}
330
EF
100
AcDbVisualStyle
  2
Gouraud
 70
     2
 71
     2
 72
     2
 73
     1
 90
        2
 40
-0.6
 41
30.0
 62
     5
 63
     7
 74
     0
 91
        4
 64
     7
 65
   257
 75
     1
175
     1
 42
1.0
 92
        0
 66
     7
 43
1.0
 76
     1
 77
     6
 78
     2
 67
     7
 79
     5
170
     0
171
     0
290
     0
174
     0
 93
        1
 44
0.0
173
     0
291
     1
 45
0.0
1001
ACAD
1000
AcDbSavedByObjectVersion
1070
     0
  0
VISUALSTYLE
  5
F3
102
{ACAD_REACTORS
330
EF
102
}
330
EF
100
AcDbVisualStyle
  2
GouraudWithEdges
 70
     3
 71
     2
 72
     2
 73
     1
 90
        2
 40
-0.6
 41
30.0
 62
     5
 63
     7
 74
     1
 91
        4
 64
     7
 65
   257
 75
     1
175
     1
 42
1.0
 92
        0
 66
   257
 43
1.0
 76
     1
 77
     6
 78
     2
 67
     7
 79
     5
170
     0
171
     0
290
     0
174
     0
 93
        1
 44
0.0
173
     0
291
     1
 45
0.0
1001
ACAD
1000
AcDbSavedByObjectVersion
1070
     0
  0
VISUALSTYLE
  5
FD
102
{ACAD_REACTORS
330
EF
102
}
330
EF
100
AcDbVisualStyle
  2
Linepattern
 70
    14
 71
     2
 72
     2
 73
     1
 90
        0
 40
-0.6
 41
-30.0
 62
     5
 63
     7
 74
     1
 91
        4
 64
     7
 65
   257
 75
     7
175
     7
 42
1.0
 92
        8
 66
     7
 43
1.0
 76
     1
 77
     6
 78
     2
 67
     7
 79
     5
170
     0
171
     0
290
     0
174
     0
 93
        1
 44
0.0
173
     0
291
     1
 45
0.0
1001
ACAD
1000
AcDbSavedByObjectVersion
1070
     0
  0
VISUALSTYLE
  5
F9
102
{ACAD_REACTORS
330
EF
102
}
330
EF
100
AcDbVisualStyle
  2
Realistic
 70
     8
 71
     2
 72
     2
 73
     1
 90
        0
 40
-0.6
 41
-30.0
 62
     5
 63
     7
 74
     1
 91
        0
 64
     7
 65
   257
 75
     1
175
     1
 42
1.0
 92
        8
 66
     8
 43
1.0
 76
     1
 77
     6
 78
     2
 67
     7
 79
     5
170
     0
171
     0
290
     0
174
     0
 93
       13
 44
0.0
173
     0
291
     0
 45
0.0
1001
ACAD
1000
AcDbSavedByObjectVersion
1070
     0
  0
VISUALSTYLE
  5
FC
102
{ACAD_REACTORS
330
EF
102
}
330
EF
100
AcDbVisualStyle
  2
Thicken
 70
    13
 71
     2
 72
     2
 73
     1
 90
        0
 40
-0.6
 41
-30.0
 62
     5
 63
     7
 74
     1
 91
        4
 64
     7
 65
   257
 75
     1
175
     1
 42
1.0
 92
       12
 66
     7
 43
1.0
 76
     1
 77
     6
 78
     2
 67
     7
 79
     5
170
     0
171
     0
290
     0
174
     0
 93
        1
 44
0.0
173
     0
291
     1
 45
0.0
1001
ACAD
1000
AcDbSavedByObjectVersion
1070
     0
  0
DICTIONARYVAR
  5
146
102
{ACAD_REACTORS
330
5E
102
}
330
5E
100
DictionaryVariables
280
     0
  1
1:1
  0
DICTIONARYVAR
  5
145
102
{ACAD_REACTORS
330
5E
102
}
330
5E
100
DictionaryVariables
280
     0
  1
STANDARD
  0
DICTIONARYVAR
  5
84
102
{ACAD_REACTORS
330
5E
102
}
330
5E
100
DictionaryVariables
280
     0
  1
STANDARD
  0
DICTIONARYVAR
  5
5F
102
{ACAD_REACTORS
330
5E
102
}
330
5E
100
DictionaryVariables
280
     0
  1
2
  0
DICTIONARYVAR
  5
63
102
{ACAD_REACTORS
330
5E
102
}
330
5E
100
DictionaryVariables
280
     0
  1
1
  0
DICTIONARYVAR
  5
60D
102
{ACAD_REACTORS
330
5E
102
}
330
5E
100
DictionaryVariables
280
     0
  1
0
  0
DICTIONARYVAR
  5
60B
102
{ACAD_REACTORS
330
5E
102
}
330
5E
100
DictionaryVariables
280
     0
  1
2
  0
DICTIONARYVAR
  5
60A
102
{ACAD_REACTORS
330
5E
102
}
330
5E
100
DictionaryVariables
280
     0
  1
1
  0
DICTIONARYVAR
  5
60F
102
{ACAD_REACTORS
330
5E
102
}
330
5E
100
DictionaryVariables
280
     0
  1
80.000000
  0
DICTIONARYVAR
  5
60E
102
{ACAD_REACTORS
330
5E
102
}
330
5E
100
DictionaryVariables
280
     0
  1
5.000000
  0
DICTIONARYVAR
  5
60C
102
{ACAD_REACTORS
330
5E
102
}
330
5E
100
DictionaryVariables
280
     0
  1
127
  0
DICTIONARY
  5
615
330
D3
100
AcDbDictionary
280
     1
281
     1
  3
ACAD_XREC_ROUNDTRIP
360
616
  0
DICTIONARY
  5
617
330
D7
100
AcDbDictionary
280
     1
281
     1
  3
ACAD_XREC_ROUNDTRIP
360
618
  0
DICTIONARY
  5
612
330
22
100
AcDbDictionary
280
     1
281
     1
  3
ACAD_XREC_ROUNDTRIP
360
613
  0
DICTIONARY
  5
61B
330
ED
100
AcDbDictionary
280
     1
281
     1
  3
ACAD_XREC_ROUNDTRIP
360
61C
  0
DICTIONARY
  5
619
330
EC
100
AcDbDictionary
280
     1
281
     1
  3
ACAD_XREC_ROUNDTRIP
360
61A
  0
DICTIONARY
  5
173
330
EE
100
AcDbDictionary
280
     1
281
     1
  3
ACAD_XREC_ROUNDTRIP
360
61D
  3
BUMPTILE
360
175
  3
DIFFUSETILE
360
174
  3
OPACITYTILE
360
176
  3
REFLECTIONTILE
360
177
  0
DICTIONARY
  5
162
330
7F
100
AcDbDictionary
280
     1
281
     1
  3
ACAD_ROUNDTRIP_2008_TABLESTYLE_CELLSTYLEMAP
360
610
  3
ACAD_XREC_ROUNDTRIP
360
614
  0
XRECORD
  5
616
102
{ACAD_REACTORS
330
615
102
}
330
615
100
AcDbXrecord
280
     1
102
SHADEPLOT
 70
     0
102
SHADEPLOTRESLEVEL
 70
     2
102
SHADEPLOTCUSTOMDPI
 70
   300
  0
XRECORD
  5
618
102
{ACAD_REACTORS
330
617
102
}
330
617
100
AcDbXrecord
280
     1
102
SHADEPLOT
 70
     0
102
SHADEPLOTRESLEVEL
 70
     2
102
SHADEPLOTCUSTOMDPI
 70
   300
  0
XRECORD
  5
613
102
{ACAD_REACTORS
330
612
102
}
330
612
100
AcDbXrecord
280
     1
102
SHADEPLOT
 70
     0
102
SHADEPLOTRESLEVEL
 70
     2
102
SHADEPLOTCUSTOMDPI
 70
   300
  0
XRECORD
  5
61C
102
{ACAD_REACTORS
330
61B
102
}
330
61B
100
AcDbXrecord
280
     1
102
MATERIAL
148
0.0
149
0.0
149
0.0
 93
        0
 94
       63
282
     0
 72
     1
 77
     1
171
     1
175
     1
179
     1
273
     0
  0
XRECORD
  5
61A
102
{ACAD_REACTORS
330
619
102
}
330
619
100
AcDbXrecord
280
     1
102
MATERIAL
148
0.0
149
0.0
149
0.0
 93
        0
 94
       63
282
     0
 72
     1
 77
     1
171
     1
175
     1
179
     1
273
     0
  0
XRECORD
  5
61D
102
{ACAD_REACTORS
330
173
102
}
330
173
100
AcDbXrecord
280
     1
102
MATERIAL
148
0.0
149
0.0
149
0.0
 93
        0
 94
       63
282
     0
 72
     1
 77
     1
171
     1
175
     1
179
     1
273
     0
  0
XRECORD
  5
175
102
{ACAD_REACTORS
330
173
102
}
330
173
100
AcDbXrecord
280
     1
270
     1
271
     1
  0
XRECORD
  5
174
102
{ACAD_REACTORS
330
173
102
}
330
173
100
AcDbXrecord
280
     1
270
     1
271
     1
  0
XRECORD
  5
176
102
{ACAD_REACTORS
330
173
102
}
330
173
100
AcDbXrecord
280
     1
270
     1
271
     1
  0
XRECORD
  5
177
102
{ACAD_REACTORS
330
173
102
}
330
173
100
AcDbXrecord
280
     1
270
     1
271
     1
  0
CELLSTYLEMAP
  5
610
102
{ACAD_REACTORS
330
162
102
}
330
162
100
AcDbCellStyleMap
 90
        3
300
CELLSTYLE
  1
TABLEFORMAT_BEGIN
 90
        5
170
     1
 91
        0
 92
    32768
 62
   257
 93
        1
300
CONTENTFORMAT
  1
CONTENTFORMAT_BEGIN
 90
        0
 91
        0
 92
      512
 93
        0
300

 40
0.0
140
1.0
 94
        5
 62
     0
340
11
144
6.0
309
CONTENTFORMAT_END
171
     1
301
MARGIN
  1
CELLMARGIN_BEGIN
 40
1.5
 40
1.5
 40
1.5
 40
1.5
 40
4.5
 40
4.5
309
CELLMARGIN_END
 94
        6
 95
        1
302
GRIDFORMAT
  1
GRIDFORMAT_BEGIN
 90
        0
 91
        1
 62
     0
 92
       -2
340
14
 93
        0
 40
1.125
309
GRIDFORMAT_END
 95
        2
302
GRIDFORMAT
  1
GRIDFORMAT_BEGIN
 90
        0
 91
        1
 62
     0
 92
       -2
340
14
 93
        0
 40
1.125
309
GRIDFORMAT_END
 95
        4
302
GRIDFORMAT
  1
GRIDFORMAT_BEGIN
 90
        0
 91
        1
 62
     0
 92
       -2
340
14
 93
        0
 40
1.125
309
GRIDFORMAT_END
 95
        8
302
GRIDFORMAT
  1
GRIDFORMAT_BEGIN
 90
        0
 91
        1
 62
     0
 92
       -2
340
14
 93
        0
 40
1.125
309
GRIDFORMAT_END
 95
       16
302
GRIDFORMAT
  1
GRIDFORMAT_BEGIN
 90
        0
 91
        1
 62
     0
 92
       -2
340
14
 93
        0
 40
1.125
309
GRIDFORMAT_END
 95
       32
302
GRIDFORMAT
  1
GRIDFORMAT_BEGIN
 90
        0
 91
        1
 62
     0
 92
       -2
340
14
 93
        0
 40
1.125
309
GRIDFORMAT_END
309
TABLEFORMAT_END
  1
CELLSTYLE_BEGIN
 90
        1
 91
        1
300
_TITLE
309
CELLSTYLE_END
300
CELLSTYLE
  1
TABLEFORMAT_BEGIN
 90
        5
170
     1
 91
        0
 92
        0
 62
   257
 93
        1
300
CONTENTFORMAT
  1
CONTENTFORMAT_BEGIN
 90
        0
 91
        0
 92
      512
 93
        0
300

 40
0.0
140
1.0
 94
        5
 62
     0
340
11
144
4.5
309
CONTENTFORMAT_END
171
     1
301
MARGIN
  1
CELLMARGIN_BEGIN
 40
1.5
 40
1.5
 40
1.5
 40
1.5
 40
4.5
 40
4.5
309
CELLMARGIN_END
 94
        6
 95
        1
302
GRIDFORMAT
  1
GRIDFORMAT_BEGIN
 90
        0
 91
        1
 62
     0
 92
       -2
340
14
 93
        0
 40
1.125
309
GRIDFORMAT_END
 95
        2
302
GRIDFORMAT
  1
GRIDFORMAT_BEGIN
 90
        0
 91
        1
 62
     0
 92
       -2
340
14
 93
        0
 40
1.125
309
GRIDFORMAT_END
 95
        4
302
GRIDFORMAT
  1
GRIDFORMAT_BEGIN
 90
        0
 91
        1
 62
     0
 92
       -2
340
14
 93
        0
 40
1.125
309
GRIDFORMAT_END
 95
        8
302
GRIDFORMAT
  1
GRIDFORMAT_BEGIN
 90
        0
 91
        1
 62
     0
 92
       -2
340
14
 93
        0
 40
1.125
309
GRIDFORMAT_END
 95
       16
302
GRIDFORMAT
  1
GRIDFORMAT_BEGIN
 90
        0
 91
        1
 62
     0
 92
       -2
340
14
 93
        0
 40
1.125
309
GRIDFORMAT_END
 95
       32
302
GRIDFORMAT
  1
GRIDFORMAT_BEGIN
 90
        0
 91
        1
 62
     0
 92
       -2
340
14
 93
        0
 40
1.125
309
GRIDFORMAT_END
309
TABLEFORMAT_END
  1
CELLSTYLE_BEGIN
 90
        2
 91
        1
300
_HEADER
309
CELLSTYLE_END
300
CELLSTYLE
  1
TABLEFORMAT_BEGIN
 90
        5
170
     1
 91
        0
 92
        0
 62
   257
 93
        1
300
CONTENTFORMAT
  1
CONTENTFORMAT_BEGIN
 90
        0
 91
        0
 92
      512
 93
        0
300

 40
0.0
140
1.0
 94
        2
 62
     0
340
11
144
4.5
309
CONTENTFORMAT_END
171
     1
301
MARGIN
  1
CELLMARGIN_BEGIN
 40
1.5
 40
1.5
 40
1.5
 40
1.5
 40
4.5
 40
4.5
309
CELLMARGIN_END
 94
        6
 95
        1
302
GRIDFORMAT
  1
GRIDFORMAT_BEGIN
 90
        0
 91
        1
 62
     0
 92
       -2
340
14
 93
        0
 40
1.125
309
GRIDFORMAT_END
 95
        2
302
GRIDFORMAT
  1
GRIDFORMAT_BEGIN
 90
        0
 91
        1
 62
     0
 92
       -2
340
14
 93
        0
 40
1.125
309
GRIDFORMAT_END
 95
        4
302
GRIDFORMAT
  1
GRIDFORMAT_BEGIN
 90
        0
 91
        1
 62
     0
 92
       -2
340
14
 93
        0
 40
1.125
309
GRIDFORMAT_END
 95
        8
302
GRIDFORMAT
  1
GRIDFORMAT_BEGIN
 90
        0
 91
        1
 62
     0
 92
       -2
340
14
 93
        0
 40
1.125
309
GRIDFORMAT_END
 95
       16
302
GRIDFORMAT
  1
GRIDFORMAT_BEGIN
 90
        0
 91
        1
 62
     0
 92
       -2
340
14
 93
        0
 40
1.125
309
GRIDFORMAT_END
 95
       32
302
GRIDFORMAT
  1
GRIDFORMAT_BEGIN
 90
        0
 91
        1
 62
     0
 92
       -2
340
14
 93
        0
 40
1.125
309
GRIDFORMAT_END
309
TABLEFORMAT_END
  1
CELLSTYLE_BEGIN
 90
        3
 91
        2
300
_DATA
309
CELLSTYLE_END
  0
XRECORD
  5
614
102
{ACAD_REACTORS
330
162
102
}
330
162
100
AcDbXrecord
280
     1
102
ACAD_ROUNDTRIP_PRE2007_TABLESTYLE
 90
      512
 91
        0
  1

 92
      512
 93
        0
  2

 94
      512
 95
        0
  3

  0
ENDSEC
  0
EOF
