  0
SECTION
  2
HEADER
  9
$ACADVER
  1
AC1015
  9
$ACADMAINTVER
 70
    20
  9
$DWGCODEPAGE
  3
ANSI_1254
  9
$INSBASE
 10
0.0
 20
0.0
 30
0.0
  9
$EXTMIN
 10
2063.387484153494
 20
736.1659772624473
 30
0.0
  9
$EXTMAX
 10
2211.950313464511
 20
802.3014400723218
 30
0.0
  9
$LIMMIN
 10
0.0
 20
0.0
  9
$LIMMAX
 10
420.0
 20
297.0
  9
$ORTHOMODE
 70
     0
  9
$REGENMODE
 70
     1
  9
$FILLMODE
 70
     1
  9
$QTEXTMODE
 70
     0
  9
$MIRRTEXT
 70
     0
  9
$LTSCALE
 40
1.0
  9
$ATTMODE
 70
     1
  9
$TEXTSIZE
 40
2.5
  9
$TRACEWID
 40
1.0
  9
$TEXTSTYLE
  7
Standard
  9
$CLAYER
  8
0
  9
$CELTYPE
  6
ByLayer
  9
$CECOLOR
 62
   256
  9
$CELTSCALE
 40
1.0
  9
$DISPSILH
 70
     0
  9
$DIMSCALE
 40
1.0
  9
$DIMASZ
 40
2.5
  9
$DIMEXO
 40
0.625
  9
$DIMDLI
 40
3.75
  9
$DIMRND
 40
0.0
  9
$DIMDLE
 40
0.0
  9
$DIMEXE
 40
1.25
  9
$DIMTP
 40
0.0
  9
$DIMTM
 40
0.0
  9
$DIMTXT
 40
2.5
  9
$DIMCEN
 40
2.5
  9
$DIMTSZ
 40
0.0
  9
$DIMTOL
 70
     0
  9
$DIMLIM
 70
     0
  9
$DIMTIH
 70
     0
  9
$DIMTOH
 70
     0
  9
$DIMSE1
 70
     0
  9
$DIMSE2
 70
     0
  9
$DIMTAD
 70
     1
  9
$DIMZIN
 70
     8
  9
$DIMBLK
  1

  9
$DIMASO
 70
     1
  9
$DIMSHO
 70
     1
  9
$DIMPOST
  1

  9
$DIMAPOST
  1

  9
$DIMALT
 70
     0
  9
$DIMALTD
 70
     3
  9
$DIMALTF
 40
0.03937007874016
  9
$DIMLFAC
 40
1.0
  9
$DIMTOFL
 70
     1
  9
$DIMTVP
 40
0.0
  9
$DIMTIX
 70
     0
  9
$DIMSOXD
 70
     0
  9
$DIMSAH
 70
     0
  9
$DIMBLK1
  1

  9
$DIMBLK2
  1

  9
$DIMSTYLE
  2
ISO-25
  9
$DIMCLRD
 70
     0
  9
$DIMCLRE
 70
     0
  9
$DIMCLRT
 70
     0
  9
$DIMTFAC
 40
1.0
  9
$DIMGAP
 40
0.625
  9
$DIMJUST
 70
     0
  9
$DIMSD1
 70
     0
  9
$DIMSD2
 70
     0
  9
$DIMTOLJ
 70
     0
  9
$DIMTZIN
 70
     8
  9
$DIMALTZ
 70
     0
  9
$DIMALTTZ
 70
     0
  9
$DIMUPT
 70
     0
  9
$DIMDEC
 70
     2
  9
$DIMTDEC
 70
     2
  9
$DIMALTU
 70
     2
  9
$DIMALTTD
 70
     3
  9
$DIMTXSTY
  7
Standard
  9
$DIMAUNIT
 70
     0
  9
$DIMADEC
 70
     0
  9
$DIMALTRND
 40
0.0
  9
$DIMAZIN
 70
     0
  9
$DIMDSEP
 70
    44
  9
$DIMATFIT
 70
     3
  9
$DIMFRAC
 70
     0
  9
$DIMLDRBLK
  1

  9
$DIMLUNIT
 70
     2
  9
$DIMLWD
 70
    -2
  9
$DIMLWE
 70
    -2
  9
$DIMTMOVE
 70
     0
  9
$LUNITS
 70
     2
  9
$LUPREC
 70
     4
  9
$SKETCHINC
 40
1.0
  9
$FILLETRAD
 40
0.0
  9
$AUNITS
 70
     0
  9
$AUPREC
 70
     0
  9
$MENU
  1
.
  9
$ELEVATION
 40
0.0
  9
$PELEVATION
 40
0.0
  9
$THICKNESS
 40
0.0
  9
$LIMCHECK
 70
     0
  9
$CHAMFERA
 40
0.0
  9
$CHAMFERB
 40
0.0
  9
$CHAMFERC
 40
0.0
  9
$CHAMFERD
 40
0.0
  9
$SKPOLY
 70
     0
  9
$TDCREATE
 40
2458929.678214687
  9
$TDUCREATE
 40
2458929.553214687
  9
$TDUPDATE
 40
2458956.439278194
  9
$TDUUPDATE
 40
2458956.314278194
  9
$TDINDWG
 40
0.0004952431
  9
$TDUSRTIMER
 40
0.0004950579
  9
$USRTIMER
 70
     1
  9
$ANGBASE
 50
0.0
  9
$ANGDIR
 70
     0
  9
$PDMODE
 70
     0
  9
$PDSIZE
 40
0.0
  9
$PLINEWID
 40
0.0
  9
$SPLFRAME
 70
     0
  9
$SPLINETYPE
 70
     6
  9
$SPLINESEGS
 70
     8
  9
$HANDSEED
  5
CF6
  9
$SURFTAB1
 70
     6
  9
$SURFTAB2
 70
     6
  9
$SURFTYPE
 70
     6
  9
$SURFU
 70
     6
  9
$SURFV
 70
     6
  9
$UCSBASE
  2

  9
$UCSNAME
  2

  9
$UCSORG
 10
0.0
 20
0.0
 30
0.0
  9
$UCSXDIR
 10
1.0
 20
0.0
 30
0.0
  9
$UCSYDIR
 10
0.0
 20
1.0
 30
0.0
  9
$UCSORTHOREF
  2

  9
$UCSORTHOVIEW
 70
     0
  9
$UCSORGTOP
 10
0.0
 20
0.0
 30
0.0
  9
$UCSORGBOTTOM
 10
0.0
 20
0.0
 30
0.0
  9
$UCSORGLEFT
 10
0.0
 20
0.0
 30
0.0
  9
$UCSORGRIGHT
 10
0.0
 20
0.0
 30
0.0
  9
$UCSORGFRONT
 10
0.0
 20
0.0
 30
0.0
  9
$UCSORGBACK
 10
0.0
 20
0.0
 30
0.0
  9
$PUCSBASE
  2

  9
$PUCSNAME
  2

  9
$PUCSORG
 10
0.0
 20
0.0
 30
0.0
  9
$PUCSXDIR
 10
1.0
 20
0.0
 30
0.0
  9
$PUCSYDIR
 10
0.0
 20
1.0
 30
0.0
  9
$PUCSORTHOREF
  2

  9
$PUCSORTHOVIEW
 70
     0
  9
$PUCSORGTOP
 10
0.0
 20
0.0
 30
0.0
  9
$PUCSORGBOTTOM
 10
0.0
 20
0.0
 30
0.0
  9
$PUCSORGLEFT
 10
0.0
 20
0.0
 30
0.0
  9
$PUCSORGRIGHT
 10
0.0
 20
0.0
 30
0.0
  9
$PUCSORGFRONT
 10
0.0
 20
0.0
 30
0.0
  9
$PUCSORGBACK
 10
0.0
 20
0.0
 30
0.0
  9
$USERI1
 70
     0
  9
$USERI2
 70
     0
  9
$USERI3
 70
     0
  9
$USERI4
 70
     0
  9
$USERI5
 70
     0
  9
$USERR1
 40
0.0
  9
$USERR2
 40
0.0
  9
$USERR3
 40
0.0
  9
$USERR4
 40
0.0
  9
$USERR5
 40
0.0
  9
$WORLDVIEW
 70
     1
  9
$SHADEDGE
 70
     3
  9
$SHADEDIF
 70
    70
  9
$TILEMODE
 70
     1
  9
$MAXACTVP
 70
    64
  9
$PINSBASE
 10
0.0
 20
0.0
 30
0.0
  9
$PLIMCHECK
 70
     0
  9
$PEXTMIN
 10
0.0
 20
0.0
 30
0.0
  9
$PEXTMAX
 10
0.0
 20
0.0
 30
0.0
  9
$PLIMMIN
 10
0.0
 20
0.0
  9
$PLIMMAX
 10
12.0
 20
9.0
  9
$UNITMODE
 70
     0
  9
$VISRETAIN
 70
     1
  9
$PLINEGEN
 70
     0
  9
$PSLTSCALE
 70
     1
  9
$TREEDEPTH
 70
  3020
  9
$CMLSTYLE
  2
Standard
  9
$CMLJUST
 70
     0
  9
$CMLSCALE
 40
20.0
  9
$PROXYGRAPHICS
 70
     1
  9
$MEASUREMENT
 70
     1
  9
$CELWEIGHT
370
    -1
  9
$ENDCAPS
280
     0
  9
$JOINSTYLE
280
     0
  9
$LWDISPLAY
290
     0
  9
$INSUNITS
 70
     4
  9
$HYPERLINKBASE
  1

  9
$STYLESHEET
  1

  9
$XEDIT
290
     1
  9
$CEPSNTYPE
380
     0
  9
$PSTYLEMODE
290
     1
  9
$FINGERPRINTGUID
  2
{A2F5A352-0362-431C-B2D8-3855513EA748}
  9
$VERSIONGUID
  2
{A202B6B1-C78A-4DA4-81F9-3E721F16CDAF}
  9
$EXTNAMES
290
     1
  9
$PSVPSCALE
 40
0.0
  9
$OLESTARTUP
290
     0
  0
ENDSEC
  0
SECTION
  2
CLASSES
  0
CLASS
  1
ACDBDICTIONARYWDFLT
  2
AcDbDictionaryWithDefault
  3
ObjectDBX Classes
 90
        0
280
     0
281
     0
  0
CLASS
  1
ACDBPLACEHOLDER
  2
AcDbPlaceHolder
  3
ObjectDBX Classes
 90
        0
280
     0
281
     0
  0
CLASS
  1
LAYOUT
  2
AcDbLayout
  3
ObjectDBX Classes
 90
        0
280
     0
281
     0
  0
CLASS
  1
DICTIONARYVAR
  2
AcDbDictionaryVar
  3
ObjectDBX Classes
 90
        0
280
     0
281
     0
  0
CLASS
  1
TABLESTYLE
  2
AcDbTableStyle
  3
ObjectDBX Classes
 90
     4095
280
     0
281
     0
  0
CLASS
  1
MATERIAL
  2
AcDbMaterial
  3
ObjectDBX Classes
 90
     1153
280
     0
281
     0
  0
CLASS
  1
VISUALSTYLE
  2
AcDbVisualStyle
  3
ObjectDBX Classes
 90
     4095
280
     0
281
     0
  0
CLASS
  1
SCALE
  2
AcDbScale
  3
ObjectDBX Classes
 90
     1153
280
     0
281
     0
  0
CLASS
  1
MLEADERSTYLE
  2
AcDbMLeaderStyle
  3
ACDB_MLEADERSTYLE_CLASS
 90
     4095
280
     0
281
     0
  0
CLASS
  1
CELLSTYLEMAP
  2
AcDbCellStyleMap
  3
ObjectDBX Classes
 90
     1152
280
     0
281
     0
  0
ENDSEC
  0
SECTION
  2
TABLES
  0
TABLE
  2
VPORT
  5
8
330
0
100
AcDbSymbolTable
 70
     1
  0
VPORT
  5
EA
330
8
100
AcDbSymbolTableRecord
100
AcDbViewportTableRecord
  2
*Active
 70
     0
 10
0.0
 20
0.0
 11
1.0
 21
1.0
 12
2137.473609009402
 22
773.8478731180594
 13
0.0
 23
0.0
 14
10.0
 24
10.0
 15
10.0
 25
10.0
 16
0.0
 26
0.0
 36
1.0
 17
0.0
 27
0.0
 37
0.0
 40
93.34251048540592
 41
1.903110047846889
 42
50.0
 43
0.0
 44
0.0
 50
0.0
 51
0.0
 71
     0
 72
  1000
 73
     1
 74
     3
 75
     0
 76
     0
 77
     0
 78
     0
281
     0
 65
     1
110
0.0
120
0.0
130
0.0
111
1.0
121
0.0
131
0.0
112
0.0
122
1.0
132
0.0
 79
     0
146
0.0
  0
ENDTAB
  0
TABLE
  2
LTYPE
  5
5
330
0
100
AcDbSymbolTable
 70
     1
  0
LTYPE
  5
14
330
5
100
AcDbSymbolTableRecord
100
AcDbLinetypeTableRecord
  2
ByBlock
 70
     0
  3

 72
    65
 73
     0
 40
0.0
  0
LTYPE
  5
15
330
5
100
AcDbSymbolTableRecord
100
AcDbLinetypeTableRecord
  2
ByLayer
 70
     0
  3

 72
    65
 73
     0
 40
0.0
  0
LTYPE
  5
16
330
5
100
AcDbSymbolTableRecord
100
AcDbLinetypeTableRecord
  2
Continuous
 70
     0
  3
Solid line
 72
    65
 73
     0
 40
0.0
  0
ENDTAB
  0
TABLE
  2
LAYER
  5
2
330
0
100
AcDbSymbolTable
 70
     1
  0
LAYER
  5
10
102
{ACAD_XDICTIONARY
360
13C
102
}
330
2
100
AcDbSymbolTableRecord
100
AcDbLayerTableRecord
  2
0
 70
     0
 62
     7
  6
Continuous
370
    -3
390
F
  0
ENDTAB
  0
TABLE
  2
STYLE
  5
3
330
0
100
AcDbSymbolTable
 70
     2
  0
STYLE
  5
11
330
3
100
AcDbSymbolTableRecord
100
AcDbTextStyleTableRecord
  2
Standard
 70
     0
 40
0.0
 41
1.0
 50
0.0
 71
     0
 42
2.5
  3
txt
  4

  0
STYLE
  5
132
330
3
100
AcDbSymbolTableRecord
100
AcDbTextStyleTableRecord
  2
Annotative
 70
     0
 40
0.0
 41
1.0
 50
0.0
 71
     0
 42
2.5
  3
txt.shx
  4

1001
AcadAnnotative
1000
AnnotativeData
1002
{
1070
     1
1070
     1
1002
}
  0
ENDTAB
  0
TABLE
  2
VIEW
  5
6
330
0
100
AcDbSymbolTable
 70
     0
  0
ENDTAB
  0
TABLE
  2
UCS
  5
7
330
0
100
AcDbSymbolTable
 70
     0
  0
ENDTAB
  0
TABLE
  2
APPID
  5
9
330
0
100
AcDbSymbolTable
 70
     7
  0
APPID
  5
12
330
9
100
AcDbSymbolTableRecord
100
AcDbRegAppTableRecord
  2
ACAD
 70
     0
  0
APPID
  5
9E
330
9
100
AcDbSymbolTableRecord
100
AcDbRegAppTableRecord
  2
ACAD_PSEXT
 70
     0
  0
APPID
  5
133
330
9
100
AcDbSymbolTableRecord
100
AcDbRegAppTableRecord
  2
AcadAnnoPO
 70
     0
  0
APPID
  5
134
330
9
100
AcDbSymbolTableRecord
100
AcDbRegAppTableRecord
  2
AcadAnnotative
 70
     0
  0
APPID
  5
135
330
9
100
AcDbSymbolTableRecord
100
AcDbRegAppTableRecord
  2
ACAD_DSTYLE_DIMJAG
 70
     0
  0
APPID
  5
136
330
9
100
AcDbSymbolTableRecord
100
AcDbRegAppTableRecord
  2
ACAD_DSTYLE_DIMTALN
 70
     0
  0
APPID
  5
165
330
9
100
AcDbSymbolTableRecord
100
AcDbRegAppTableRecord
  2
ACAD_MLEADERVER
 70
     0
  0
ENDTAB
  0
TABLE
  2
DIMSTYLE
  5
A
330
0
100
AcDbSymbolTable
 70
     2
100
AcDbDimStyleTable
 71
     2
340
27
340
137
  0
DIMSTYLE
105
27
330
A
100
AcDbSymbolTableRecord
100
AcDbDimStyleTableRecord
  2
ISO-25
 70
     0
 41
2.5
 42
0.625
 43
3.75
 44
1.25
 73
     0
 74
     0
 77
     1
 78
     8
140
2.5
141
2.5
143
0.03937007874016
147
0.625
171
     3
172
     1
271
     2
272
     2
274
     3
278
    44
283
     0
284
     8
340
11
  0
DIMSTYLE
105
137
330
A
100
AcDbSymbolTableRecord
100
AcDbDimStyleTableRecord
  2
Annotative
 70
     0
 40
0.0
 41
2.5
 42
0.625
 43
3.75
 44
1.25
 73
     0
 74
     0
 77
     1
 78
     8
140
2.5
141
2.5
143
0.03937007874016
147
0.625
171
     3
172
     1
271
     2
272
     2
274
     3
278
    44
283
     0
284
     8
340
11
1001
AcadAnnotative
1000
AnnotativeData
1002
{
1070
     1
1070
     1
1002
}
1001
ACAD_DSTYLE_DIMJAG
1070
   388
1040
1.5
1001
ACAD_DSTYLE_DIMTALN
1070
   392
1070
     0
  0
ENDTAB
  0
TABLE
  2
BLOCK_RECORD
  5
1
330
0
100
AcDbSymbolTable
 70
     5
  0
BLOCK_RECORD
  5
1F
330
1
100
AcDbSymbolTableRecord
100
AcDbBlockTableRecord
  2
*Model_Space
340
22
  0
BLOCK_RECORD
  5
D2
330
1
100
AcDbSymbolTableRecord
100
AcDbBlockTableRecord
  2
*Paper_Space
340
D3
  0
BLOCK_RECORD
  5
D6
330
1
100
AcDbSymbolTableRecord
100
AcDbBlockTableRecord
  2
*Paper_Space0
340
D7
  0
BLOCK_RECORD
  5
90F
330
1
100
AcDbSymbolTableRecord
100
AcDbBlockTableRecord
  2
1
340
0
310
2800000020000000200000000100080000000000000400000000000000000000000000000000000000000000000080000080000000808000800000008000800080800000C0C0C000C0DCC000F0CAA6000020400000206000002080000020A0000020C0000020E00000400000004020000040400000406000004080000040A0
310
000040C0000040E00000600000006020000060400000606000006080000060A0000060C0000060E00000800000008020000080400000806000008080000080A0000080C0000080E00000A0000000A0200000A0400000A0600000A0800000A0A00000A0C00000A0E00000C0000000C0200000C0400000C0600000C0800000C0
310
A00000C0C00000C0E00000E0000000E0200000E0400000E0600000E0800000E0A00000E0C00000E0E00040000000400020004000400040006000400080004000A0004000C0004000E00040200000402020004020400040206000402080004020A0004020C0004020E000404000004040200040404000404060004040800040
310
40A0004040C0004040E00040600000406020004060400040606000406080004060A0004060C0004060E00040800000408020004080400040806000408080004080A0004080C0004080E00040A0000040A0200040A0400040A0600040A0800040A0A00040A0C00040A0E00040C0000040C0200040C0400040C0600040C08000
310
40C0A00040C0C00040C0E00040E0000040E0200040E0400040E0600040E0800040E0A00040E0C00040E0E00080000000800020008000400080006000800080008000A0008000C0008000E00080200000802020008020400080206000802080008020A0008020C0008020E00080400000804020008040400080406000804080
310
008040A0008040C0008040E00080600000806020008060400080606000806080008060A0008060C0008060E00080800000808020008080400080806000808080008080A0008080C0008080E00080A0000080A0200080A0400080A0600080A0800080A0A00080A0C00080A0E00080C0000080C0200080C0400080C0600080C0
310
800080C0A00080C0C00080C0E00080E0000080E0200080E0400080E0600080E0800080E0A00080E0C00080E0E000C0000000C0002000C0004000C0006000C0008000C000A000C000C000C000E000C0200000C0202000C0204000C0206000C0208000C020A000C020C000C020E000C0400000C0402000C0404000C0406000C0
310
408000C040A000C040C000C040E000C0600000C0602000C0604000C0606000C0608000C060A000C060C000C060E000C0800000C0802000C0804000C0806000C0808000C080A000C080C000C080E000C0A00000C0A02000C0A04000C0A06000C0A08000C0A0A000C0A0C000C0A0E000C0C00000C0C02000C0C04000C0C06000
310
C0C08000C0C0A000F0FBFF00A4A0A000808080000000FF0000FF000000FFFF00FF000000FF00FF00FFFF0000FFFFFF0000000000000000000000000000000000000000000000000000000000000000000000000000000000000000000000000000000000000000000000000000000000000000000000000000000000000000
310
00000000000000000000000000000000000000000000000000000000000000000000000000000000000000000000000000000000000000000000000000000000000000000000000000000000000000000000000000000000000000000000000000000000000000000000000000000000000000000000000000000000000000
310
0000000000000000000000000000000000000000000000000000000000000000000000000000000000000000000000000000000000000000000000000000000000000000000000000000000000000000000000000000000000000000000000000000000000000000000000000000000000000000FFFF00FFFF00FFFF00FFFF
310
00FFFFFFFF00FFFF00FFFF00FFFF00FFFF00000000FFFF00FFFF00FFFF00FFFFFF00FFFF00FFFFFF00FFFF00FFFF00FFFF00000000FFFF00FFFF00FFFF00FFFFFF00FFFF00FFFFFF00FFFF00FFFF00FFFF00000000FFFF00FFFF00FFFF00FFFFFF00FFFF00FFFFFF00FFFF00FFFF00FFFF00000000FFFF00FFFF00FFFF00FF
310
FFFFFFFFFFFFFFFFFF00FFFF00FFFF00FFFF00000000FFFF00FFFFFFFFFFFFFFFFFFFFFFFFFFFFFFFFFFFFFFFFFFFF00FFFF00000000FFFF00FFFFFF00FFFF00FFFF00FFFF00FFFF00FFFF00FFFFFF00FFFF00000000FFFF00FFFFFFFFFFFFFFFFFFFFFFFFFFFFFFFFFFFFFFFFFFFF00FFFF00000000FFFF00FFFFFFFFFFFF
310
FFFFFFFFFFFFFFFFFFFFFFFFFFFFFFFF00FFFF000000FFFFFFFFFFFFFF00FFFF00FFFF00FFFF00FFFF00FFFF00FFFFFFFFFFFFFF0000FF00000000000000000000000000000000000000000000000000000000FF0000FFFFFFFFFFFFFFFFFFFFFFFFFFFFFFFFFFFFFFFFFFFFFFFFFFFFFFFFFFFF0000000000000000000000
310
00000000000000000000000000000000000000000000000000000000000000000000000000000000000000000000000000000000000000000000000000000000000000000000000000000000000000000000000000000000000000000000000000000000000000000000000000000000000000000000000000000000000000
310
00000000000000000000000000000000000000000000000000000000000000000000000000000000000000000000000000000000000000000000000000000000000000000000000000000000000000000000000000000000000000000000000000000000000000000000000000000000000000000000000000000000000000
310
0000000000000000000000000000000000000000000000000000000000000000000000000000000000000000000000000000000000000000
102
{BLKREFS
331
A4F
102
}
1001
ACAD
1000
DesignCenter Data
1002
{
1070
     1
1070
     4
1002
}
  0
BLOCK_RECORD
  5
A50
330
1
100
AcDbSymbolTableRecord
100
AcDbBlockTableRecord
  2
2
340
0
310
2800000020000000200000000100080000000000000400000000000000000000000000000000000000000000000080000080000000808000800000008000800080800000C0C0C000C0DCC000F0CAA6000020400000206000002080000020A0000020C0000020E00000400000004020000040400000406000004080000040A0
310
000040C0000040E00000600000006020000060400000606000006080000060A0000060C0000060E00000800000008020000080400000806000008080000080A0000080C0000080E00000A0000000A0200000A0400000A0600000A0800000A0A00000A0C00000A0E00000C0000000C0200000C0400000C0600000C0800000C0
310
A00000C0C00000C0E00000E0000000E0200000E0400000E0600000E0800000E0A00000E0C00000E0E00040000000400020004000400040006000400080004000A0004000C0004000E00040200000402020004020400040206000402080004020A0004020C0004020E000404000004040200040404000404060004040800040
310
40A0004040C0004040E00040600000406020004060400040606000406080004060A0004060C0004060E00040800000408020004080400040806000408080004080A0004080C0004080E00040A0000040A0200040A0400040A0600040A0800040A0A00040A0C00040A0E00040C0000040C0200040C0400040C0600040C08000
310
40C0A00040C0C00040C0E00040E0000040E0200040E0400040E0600040E0800040E0A00040E0C00040E0E00080000000800020008000400080006000800080008000A0008000C0008000E00080200000802020008020400080206000802080008020A0008020C0008020E00080400000804020008040400080406000804080
310
008040A0008040C0008040E00080600000806020008060400080606000806080008060A0008060C0008060E00080800000808020008080400080806000808080008080A0008080C0008080E00080A0000080A0200080A0400080A0600080A0800080A0A00080A0C00080A0E00080C0000080C0200080C0400080C0600080C0
310
800080C0A00080C0C00080C0E00080E0000080E0200080E0400080E0600080E0800080E0A00080E0C00080E0E000C0000000C0002000C0004000C0006000C0008000C000A000C000C000C000E000C0200000C0202000C0204000C0206000C0208000C020A000C020C000C020E000C0400000C0402000C0404000C0406000C0
310
408000C040A000C040C000C040E000C0600000C0602000C0604000C0606000C0608000C060A000C060C000C060E000C0800000C0802000C0804000C0806000C0808000C080A000C080C000C080E000C0A00000C0A02000C0A04000C0A06000C0A08000C0A0A000C0A0C000C0A0E000C0C00000C0C02000C0C04000C0C06000
310
C0C08000C0C0A000F0FBFF00A4A0A000808080000000FF0000FF000000FFFF00FF000000FF00FF00FFFF0000FFFFFF0000000000000000000000000000000000000000000000000000000000000000000000000000000000000000000000FFFFFFFF00000000000000000000000000000000000000000000000000000000FF
310
FFFFFF00000000000000000000000000000000000000000000000000000000FF0000FF00000000000000000000000000000000000000000000000000000000FFFFFFFF00000000000000000000000000000000000000000000000000000000FF0000FF00000000000000000000000000000000000000000000000000000000
310
FF0000FF00000000000000000000000000000000000000000000000000000000FF0000FF00000000000000000000000000000000000000000000000000000000FF0000FF00000000000000000000000000000000000000000000000000000000FF0000FF000000000000000000000000000000000000000000000000000000
310
00FF0000FF00000000000000000000000000000000000000000000000000000000FF0000FF00000000000000000000000000000000000000000000000000000000FFFFFFFF00000000000000000000000000000000000000000000000000000000FFFFFFFF0000000000000000000000000000000000000000000000000000
310
0000FF0000FF00000000000000000000000000000000000000000000000000000000FFFFFFFF00000000000000000000000000000000000000000000000000000000FF0000FF00000000000000000000000000000000000000000000000000000000FF0000FF00000000000000000000000000000000000000000000000000
310
000000FF0000FF00000000000000000000000000000000000000000000000000000000FF0000FF00000000000000000000000000000000000000000000000000000000FF0000FF00000000000000000000000000000000000000000000000000000000FF0000FF000000000000000000000000000000000000000000000000
310
00000000FF0000FF00000000000000000000000000000000000000000000000000000000FFFFFFFF00000000000000000000000000000000000000000000000000000000FF0000FF00000000000000000000000000000000000000000000000000000000FF0000FF0000000000000000000000000000000000000000000000
310
0000000000FF0000FF00000000000000000000000000000000000000000000000000000000FF0000FF000000000000000000000000000000000000000000000000000000FFFF0000FFFF0000000000000000000000000000000000000000000000000000FF00000000FF000000000000000000000000000000000000000000
310
0000000000FFFFFFFFFFFF000000000000000000000000000000000000000000000000000000000000000000000000000000000000000000
102
{BLKREFS
331
A7E
102
}
1001
ACAD
1000
DesignCenter Data
1002
{
1070
     1
1070
     4
1002
}
  0
BLOCK_RECORD
  5
A7F
330
1
100
AcDbSymbolTableRecord
100
AcDbBlockTableRecord
  2
3
340
0
310
2800000020000000200000000100080000000000000400000000000000000000000000000000000000000000000080000080000000808000800000008000800080800000C0C0C000C0DCC000F0CAA6000020400000206000002080000020A0000020C0000020E00000400000004020000040400000406000004080000040A0
310
000040C0000040E00000600000006020000060400000606000006080000060A0000060C0000060E00000800000008020000080400000806000008080000080A0000080C0000080E00000A0000000A0200000A0400000A0600000A0800000A0A00000A0C00000A0E00000C0000000C0200000C0400000C0600000C0800000C0
310
A00000C0C00000C0E00000E0000000E0200000E0400000E0600000E0800000E0A00000E0C00000E0E00040000000400020004000400040006000400080004000A0004000C0004000E00040200000402020004020400040206000402080004020A0004020C0004020E000404000004040200040404000404060004040800040
310
40A0004040C0004040E00040600000406020004060400040606000406080004060A0004060C0004060E00040800000408020004080400040806000408080004080A0004080C0004080E00040A0000040A0200040A0400040A0600040A0800040A0A00040A0C00040A0E00040C0000040C0200040C0400040C0600040C08000
310
40C0A00040C0C00040C0E00040E0000040E0200040E0400040E0600040E0800040E0A00040E0C00040E0E00080000000800020008000400080006000800080008000A0008000C0008000E00080200000802020008020400080206000802080008020A0008020C0008020E00080400000804020008040400080406000804080
310
008040A0008040C0008040E00080600000806020008060400080606000806080008060A0008060C0008060E00080800000808020008080400080806000808080008080A0008080C0008080E00080A0000080A0200080A0400080A0600080A0800080A0A00080A0C00080A0E00080C0000080C0200080C0400080C0600080C0
310
800080C0A00080C0C00080C0E00080E0000080E0200080E0400080E0600080E0800080E0A00080E0C00080E0E000C0000000C0002000C0004000C0006000C0008000C000A000C000C000C000E000C0200000C0202000C0204000C0206000C0208000C020A000C020C000C020E000C0400000C0402000C0404000C0406000C0
310
408000C040A000C040C000C040E000C0600000C0602000C0604000C0606000C0608000C060A000C060C000C060E000C0800000C0802000C0804000C0806000C0808000C080A000C080C000C080E000C0A00000C0A02000C0A04000C0A06000C0A08000C0A0A000C0A0C000C0A0E000C0C00000C0C02000C0C04000C0C06000
310
C0C08000C0C0A000F0FBFF00A4A0A000808080000000FF0000FF000000FFFF00FF000000FF00FF00FFFF0000FFFFFF0000000000000000000000000000000000000000000000000000000000000000000000000000000000000000000000000000000000000000000000000000000000000000000000000000000000000000
310
00000000000000000000000000000000000000000000000000000000000000000000000000000000000000000000000000000000000000000000000000000000000000000000000000000000000000000000000000000000000000000000000000000000000000000000000000000000000000000000000000000000000000
310
00000000000000000000000000000000000000000000000000000000000000000000000000000000000000000000000000000000000000000000000000000000000000000000000000000000000000000000000000000000000000000000000000000000000000000000000000000000000000000000000000000000000000
310
00000000000000000000000000000000000000000000000000000000000000000000000000000000000000000000000000000000000000000000000000000000000000000000000000000000000000000000000000000000000000000000000000000000000000000000000000000000000000000000000000000000000000
310
000000000000000000000000000000000000000000FFFFFFFFFFFFFFFFFFFFFFFFFFFFFFFFFFFFFFFFFFFFFFFFFFFFFFFFFFFF0000FFFFFFFFFFFFFFFFFFFFFFFFFFFFFFFFFFFFFFFFFFFFFFFFFFFFFFFFFFFF0000000000000000000000000000000000000000000000000000000000000000000000000000000000000000
310
00000000000000000000000000000000000000000000000000000000000000000000000000000000000000000000000000000000000000000000000000000000000000000000000000000000000000000000000000000000000000000000000000000000000000000000000000000000000000000000000000000000000000
310
00000000000000000000000000000000000000000000000000000000000000000000000000000000000000000000000000000000000000000000000000000000000000000000000000000000000000000000000000000000000000000000000000000000000000000000000000000000000000000000000000000000000000
310
00000000000000000000000000000000000000000000000000000000000000000000000000000000000000000000000000000000000000000000000000000000000000000000000000000000000000000000000000000000000000000000000000000000000000000000000000000000000000000000000000000000000000
310
0000000000000000000000000000000000000000000000000000000000000000000000000000000000000000000000000000000000000000
102
{BLKREFS
331
A86
102
}
1001
ACAD
1000
DesignCenter Data
1002
{
1070
     1
1070
     4
1002
}
  0
BLOCK_RECORD
  5
A87
330
1
100
AcDbSymbolTableRecord
100
AcDbBlockTableRecord
  2
4
340
0
310
2800000020000000200000000100080000000000000400000000000000000000000000000000000000000000000080000080000000808000800000008000800080800000C0C0C000C0DCC000F0CAA6000020400000206000002080000020A0000020C0000020E00000400000004020000040400000406000004080000040A0
310
000040C0000040E00000600000006020000060400000606000006080000060A0000060C0000060E00000800000008020000080400000806000008080000080A0000080C0000080E00000A0000000A0200000A0400000A0600000A0800000A0A00000A0C00000A0E00000C0000000C0200000C0400000C0600000C0800000C0
310
A00000C0C00000C0E00000E0000000E0200000E0400000E0600000E0800000E0A00000E0C00000E0E00040000000400020004000400040006000400080004000A0004000C0004000E00040200000402020004020400040206000402080004020A0004020C0004020E000404000004040200040404000404060004040800040
310
40A0004040C0004040E00040600000406020004060400040606000406080004060A0004060C0004060E00040800000408020004080400040806000408080004080A0004080C0004080E00040A0000040A0200040A0400040A0600040A0800040A0A00040A0C00040A0E00040C0000040C0200040C0400040C0600040C08000
310
40C0A00040C0C00040C0E00040E0000040E0200040E0400040E0600040E0800040E0A00040E0C00040E0E00080000000800020008000400080006000800080008000A0008000C0008000E00080200000802020008020400080206000802080008020A0008020C0008020E00080400000804020008040400080406000804080
310
008040A0008040C0008040E00080600000806020008060400080606000806080008060A0008060C0008060E00080800000808020008080400080806000808080008080A0008080C0008080E00080A0000080A0200080A0400080A0600080A0800080A0A00080A0C00080A0E00080C0000080C0200080C0400080C0600080C0
310
800080C0A00080C0C00080C0E00080E0000080E0200080E0400080E0600080E0800080E0A00080E0C00080E0E000C0000000C0002000C0004000C0006000C0008000C000A000C000C000C000E000C0200000C0202000C0204000C0206000C0208000C020A000C020C000C020E000C0400000C0402000C0404000C0406000C0
310
408000C040A000C040C000C040E000C0600000C0602000C0604000C0606000C0608000C060A000C060C000C060E000C0800000C0802000C0804000C0806000C0808000C080A000C080C000C080E000C0A00000C0A02000C0A04000C0A06000C0A08000C0A0A000C0A0C000C0A0E000C0C00000C0C02000C0C04000C0C06000
310
C0C08000C0C0A000F0FBFF00A4A0A000808080000000FF0000FF000000FFFF00FF000000FF00FF00FFFF0000FFFFFF00000000000000000000000000000000000000000000000000000000000000000000000000FF0000000000000000000000000000000000000000000000000000000000FFFFFF00000000000000000000
310
00000000000000000000000000000000000000FFFF00FFFFFF0000000000000000000000000000000000000000000000000000FFFF00FFFFFF0000000000000000000000000000000000000000000000000000FFFF00FFFFFFFFFFFF0000000000000000000000000000000000000000000000FFFFFFFFFFFFFFFFFF00FF00
310
0000000000000000000000000000000000000000FFFFFFFFFFFFFFFFFFFFFF000000000000000000000000000000000000000000FFFF00FFFFFFFFFFFFFF00FFFFFF000000000000000000000000000000000000FFFF00FFFFFFFFFFFFFF00FFFFFF00FF00000000000000000000000000000000FFFFFFFFFFFFFFFFFFFF00
310
FFFFFFFFFFFF000000000000000000000000000000FFFF00FFFFFFFFFFFFFFFFFFFFFFFFFFFFFFFFFF000000000000000000000000FFFF00FFFFFFFFFFFFFFFFFFFFFFFFFFFFFF00FFFF0000000000000000000000FFFF00000000FFFFFFFF00FFFFFFFFFFFFFF00FFFFFF000000000000000000FFFF00FFFF000000FFFFFF
310
FFFFFFFFFFFFFFFF00FFFFFFFFFFFF00000000000000FFFF0000FFFF0000FFFFFFFFFF00FFFFFFFF00FFFFFFFFFFFF00FF00000000000000FFFF0000FFFF000000FFFFFFFFFFFFFFFFFFFFFFFFFFFFFFFFFF0000000000000000FF0000FFFFFF0000FFFFFFFFFFFFFFFFFFFFFFFFFFFFFFFF000000000000000000FFFF0000
310
FFFF000000FFFFFFFFFFFFFFFFFFFFFF00FFFF0000000000000000000000FFFF0000FFFF000000FFFFFFFFFF00FFFFFF00FFFF00000000000000000000000000FF0000FFFFFF0000FF00FFFF00FFFFFFFFFFFF0000000000000000000000000000FFFF0000FFFFFF0000FFFFFFFFFFFFFFFFFF000000000000000000000000
310
00000000FFFF0000FFFFFF00FF00FFFFFFFF00FF000000000000000000000000000000000000FFFF0000FFFF0000FFFFFFFFFFFF0000000000000000000000000000000000000000FF0000FFFFFF0000FFFFFFFF000000000000000000000000000000000000000000FFFF0000FFFFFF00FF00FF0000000000000000000000
310
000000000000000000000000FFFF0000FFFFFF00FF00000000000000000000000000000000000000000000000000FF0000FFFFFFFF0000000000000000000000000000000000000000000000000000FFFF0000FFFFFF000000000000000000000000000000000000000000000000000000FFFF0000FF000000000000000000
310
0000000000000000000000000000000000000000FFFF00000000000000000000000000000000000000000000000000000000000000000000
102
{BLKREFS
331
CCD
102
}
1001
ACAD
1000
DesignCenter Data
1002
{
1070
     1
1070
     4
1002
}
  0
ENDTAB
  0
ENDSEC
  0
SECTION
  2
BLOCKS
  0
BLOCK
  5
20
330
1F
100
AcDbEntity
  8
0
100
AcDbBlockBegin
  2
*Model_Space
 70
     0
 10
0.0
 20
0.0
 30
0.0
  3
*Model_Space
  1

  0
ENDBLK
  5
21
330
1F
100
AcDbEntity
  8
0
100
AcDbBlockEnd
  0
BLOCK
  5
D4
330
D2
100
AcDbEntity
 67
     1
  8
0
100
AcDbBlockBegin
  2
*Paper_Space
 70
     0
 10
0.0
 20
0.0
 30
0.0
  3
*Paper_Space
  1

  0
ENDBLK
  5
D5
330
D2
100
AcDbEntity
 67
     1
  8
0
100
AcDbBlockEnd
  0
BLOCK
  5
D8
330
D6
100
AcDbEntity
 67
     1
  8
0
100
AcDbBlockBegin
  2
*Paper_Space0
 70
     0
 10
0.0
 20
0.0
 30
0.0
  3
*Paper_Space0
  1

  0
ENDBLK
  5
D9
330
D6
100
AcDbEntity
 67
     1
  8
0
100
AcDbBlockEnd
  0
BLOCK
  5
910
330
90F
100
AcDbEntity
  8
0
100
AcDbBlockBegin
  2
1
 70
     0
 10
0.0
 20
0.0
 30
0.0
  3
1
  1

  0
LINE
  5
912
330
90F
100
AcDbEntity
  8
0
  6
Continuous
 62
     7
370
    15
100
AcDbLine
 10
2087.710401097018
 20
787.4683393886743
 30
0.0
 11
2087.710401097018
 21
788.6183393886742
 31
0.0
  0
LINE
  5
913
330
90F
100
AcDbEntity
  8
0
  6
Continuous
 62
     7
370
    15
100
AcDbLine
 10
2087.710401097018
 20
787.4683393886743
 30
0.0
 11
2145.710401097013
 21
787.4683393886182
 31
0.0
  0
LINE
  5
914
330
90F
100
AcDbEntity
  8
0
  6
Continuous
 62
     7
370
    15
100
AcDbLine
 10
2145.710401097013
 20
787.4683393886182
 30
0.0
 11
2145.710401097013
 21
788.6183393886187
 31
0.0
  0
LINE
  5
915
330
90F
100
AcDbEntity
  8
0
  6
Continuous
 62
     7
370
    15
100
AcDbLine
 10
2087.710401097018
 20
788.6183393886742
 30
0.0
 11
2145.710401097013
 21
788.6183393886187
 31
0.0
  0
LINE
  5
916
330
90F
100
AcDbEntity
  8
0
  6
Continuous
 62
     7
370
    15
100
AcDbLine
 10
2091.41040109712
 20
779.5183393886747
 30
0.0
 11
2088.91040109712
 21
779.5183393886741
 31
0.0
  0
LINE
  5
917
330
90F
100
AcDbEntity
  8
0
  6
Continuous
 62
     7
370
    15
100
AcDbLine
 10
2088.91040109712
 20
779.5183393886741
 30
0.0
 11
2088.91040109712
 21
780.8183393886742
 31
0.0
  0
LINE
  5
918
330
90F
100
AcDbEntity
  8
0
  6
Continuous
 62
     7
370
    15
100
AcDbLine
 10
2091.41040109712
 20
779.5183393886747
 30
0.0
 11
2091.41040109712
 21
780.8183393886742
 31
0.0
  0
LINE
  5
919
330
90F
100
AcDbEntity
  8
0
  6
Continuous
 62
     7
370
    15
100
AcDbLine
 10
2091.41040109712
 20
780.8183393886742
 30
0.0
 11
2088.91040109712
 21
780.8183393886742
 31
0.0
  0
LINE
  5
91A
330
90F
100
AcDbEntity
  8
0
  6
Continuous
 62
     7
370
    15
100
AcDbLine
 10
2120.91040109712
 20
779.5183393886512
 30
0.0
 11
2118.41040109712
 21
779.518339388647
 31
0.0
  0
LINE
  5
91B
330
90F
100
AcDbEntity
  8
0
  6
Continuous
 62
     7
370
    15
100
AcDbLine
 10
2120.91040109712
 20
780.8183393886471
 30
0.0
 11
2118.41040109712
 21
780.8183393886471
 31
0.0
  0
LINE
  5
91C
330
90F
100
AcDbEntity
  8
0
  6
Continuous
 62
     7
370
    15
100
AcDbLine
 10
2118.41040109712
 20
779.518339388647
 30
0.0
 11
2118.41040109712
 21
780.8183393886471
 31
0.0
  0
LINE
  5
91D
330
90F
100
AcDbEntity
  8
0
  6
Continuous
 62
     7
370
    15
100
AcDbLine
 10
2120.91040109712
 20
779.5183393886512
 30
0.0
 11
2120.91040109712
 21
780.8183393886471
 31
0.0
  0
LINE
  5
91E
330
90F
100
AcDbEntity
  8
0
  6
Continuous
 62
     7
370
    15
100
AcDbLine
 10
2126.81040109712
 20
780.8183393886399
 30
0.0
 11
2124.31040109712
 21
780.8183393886399
 31
0.0
  0
LINE
  5
91F
330
90F
100
AcDbEntity
  8
0
  6
Continuous
 62
     7
370
    15
100
AcDbLine
 10
2126.81040109712
 20
779.5183393886441
 30
0.0
 11
2124.31040109712
 21
779.5183393886398
 31
0.0
  0
LINE
  5
920
330
90F
100
AcDbEntity
  8
0
  6
Continuous
 62
     7
370
    15
100
AcDbLine
 10
2124.31040109712
 20
779.5183393886398
 30
0.0
 11
2124.31040109712
 21
780.8183393886399
 31
0.0
  0
LINE
  5
921
330
90F
100
AcDbEntity
  8
0
  6
Continuous
 62
     7
370
    15
100
AcDbLine
 10
2126.81040109712
 20
779.5183393886441
 30
0.0
 11
2126.81040109712
 21
780.8183393886399
 31
0.0
  0
LINE
  5
922
330
90F
100
AcDbEntity
  8
0
  6
Continuous
 62
     7
370
    15
100
AcDbLine
 10
2103.21040109712
 20
780.8183393886679
 30
0.0
 11
2100.71040109712
 21
780.8183393886679
 31
0.0
  0
LINE
  5
923
330
90F
100
AcDbEntity
  8
0
  6
Continuous
 62
     7
370
    15
100
AcDbLine
 10
2103.21040109712
 20
779.5183393886721
 30
0.0
 11
2103.21040109712
 21
780.8183393886679
 31
0.0
  0
LINE
  5
924
330
90F
100
AcDbEntity
  8
0
  6
Continuous
 62
     7
370
    15
100
AcDbLine
 10
2103.21040109712
 20
779.5183393886721
 30
0.0
 11
2100.71040109712
 21
779.5183393886678
 31
0.0
  0
LINE
  5
925
330
90F
100
AcDbEntity
  8
0
  6
Continuous
 62
     7
370
    15
100
AcDbLine
 10
2100.71040109712
 20
779.5183393886678
 30
0.0
 11
2100.71040109712
 21
780.8183393886679
 31
0.0
  0
LINE
  5
926
330
90F
100
AcDbEntity
  8
0
  6
Continuous
 62
     7
370
    15
100
AcDbLine
 10
2132.71040109712
 20
780.8183393886332
 30
0.0
 11
2130.21040109712
 21
780.8183393886332
 31
0.0
  0
LINE
  5
927
330
90F
100
AcDbEntity
  8
0
  6
Continuous
 62
     7
370
    15
100
AcDbLine
 10
2132.71040109712
 20
779.5183393886373
 30
0.0
 11
2130.21040109712
 21
779.5183393886329
 31
0.0
  0
LINE
  5
928
330
90F
100
AcDbEntity
  8
0
  6
Continuous
 62
     7
370
    15
100
AcDbLine
 10
2130.21040109712
 20
779.5183393886329
 30
0.0
 11
2130.21040109712
 21
780.8183393886332
 31
0.0
  0
LINE
  5
929
330
90F
100
AcDbEntity
  8
0
  6
Continuous
 62
     7
370
    15
100
AcDbLine
 10
2132.71040109712
 20
779.5183393886373
 30
0.0
 11
2132.71040109712
 21
780.8183393886332
 31
0.0
  0
LINE
  5
92A
330
90F
100
AcDbEntity
  8
0
  6
Continuous
 62
     7
370
    15
100
AcDbLine
 10
2109.11040109712
 20
779.518339388665
 30
0.0
 11
2106.61040109712
 21
779.5183393886608
 31
0.0
  0
LINE
  5
92B
330
90F
100
AcDbEntity
  8
0
  6
Continuous
 62
     7
370
    15
100
AcDbLine
 10
2109.11040109712
 20
779.518339388665
 30
0.0
 11
2109.11040109712
 21
780.8183393886609
 31
0.0
  0
LINE
  5
92C
330
90F
100
AcDbEntity
  8
0
  6
Continuous
 62
     7
370
    15
100
AcDbLine
 10
2106.61040109712
 20
779.5183393886608
 30
0.0
 11
2106.61040109712
 21
780.8183393886609
 31
0.0
  0
LINE
  5
92D
330
90F
100
AcDbEntity
  8
0
  6
Continuous
 62
     7
370
    15
100
AcDbLine
 10
2109.11040109712
 20
780.8183393886609
 30
0.0
 11
2106.61040109712
 21
780.8183393886609
 31
0.0
  0
LINE
  5
92E
330
90F
100
AcDbEntity
  8
0
  6
Continuous
 62
     7
370
    15
100
AcDbLine
 10
2115.01040109712
 20
779.518339388658
 30
0.0
 11
2112.51040109712
 21
779.5183393886539
 31
0.0
  0
LINE
  5
92F
330
90F
100
AcDbEntity
  8
0
  6
Continuous
 62
     7
370
    15
100
AcDbLine
 10
2115.01040109712
 20
779.518339388658
 30
0.0
 11
2115.01040109712
 21
780.8183393886539
 31
0.0
  0
LINE
  5
930
330
90F
100
AcDbEntity
  8
0
  6
Continuous
 62
     7
370
    15
100
AcDbLine
 10
2115.01040109712
 20
780.8183393886539
 30
0.0
 11
2112.51040109712
 21
780.8183393886539
 31
0.0
  0
LINE
  5
931
330
90F
100
AcDbEntity
  8
0
  6
Continuous
 62
     7
370
    15
100
AcDbLine
 10
2112.51040109712
 20
779.5183393886539
 30
0.0
 11
2112.51040109712
 21
780.8183393886539
 31
0.0
  0
LINE
  5
932
330
90F
100
AcDbEntity
  8
0
  6
Continuous
 62
     7
370
    15
100
AcDbLine
 10
2097.31040109712
 20
779.518339388679
 30
0.0
 11
2094.81040109712
 21
779.5183393886747
 31
0.0
  0
LINE
  5
933
330
90F
100
AcDbEntity
  8
0
  6
Continuous
 62
     7
370
    15
100
AcDbLine
 10
2097.31040109712
 20
779.518339388679
 30
0.0
 11
2097.31040109712
 21
780.8183393886748
 31
0.0
  0
LINE
  5
934
330
90F
100
AcDbEntity
  8
0
  6
Continuous
 62
     7
370
    15
100
AcDbLine
 10
2094.81040109712
 20
779.5183393886747
 30
0.0
 11
2094.81040109712
 21
780.8183393886748
 31
0.0
  0
LINE
  5
935
330
90F
100
AcDbEntity
  8
0
  6
Continuous
 62
     7
370
    15
100
AcDbLine
 10
2097.31040109712
 20
780.8183393886748
 30
0.0
 11
2094.81040109712
 21
780.8183393886748
 31
0.0
  0
LINE
  5
936
330
90F
100
AcDbEntity
  8
0
  6
Continuous
 62
     7
370
    15
100
AcDbLine
 10
2144.51040109712
 20
780.8183393886192
 30
0.0
 11
2142.01040109712
 21
780.8183393886192
 31
0.0
  0
LINE
  5
937
330
90F
100
AcDbEntity
  8
0
  6
Continuous
 62
     7
370
    15
100
AcDbLine
 10
2144.51040109712
 20
779.5183393886234
 30
0.0
 11
2142.01040109712
 21
779.5183393886193
 31
0.0
  0
LINE
  5
938
330
90F
100
AcDbEntity
  8
0
  6
Continuous
 62
     7
370
    15
100
AcDbLine
 10
2144.51040109712
 20
779.5183393886234
 30
0.0
 11
2144.51040109712
 21
780.8183393886192
 31
0.0
  0
LINE
  5
939
330
90F
100
AcDbEntity
  8
0
  6
Continuous
 62
     7
370
    15
100
AcDbLine
 10
2142.01040109712
 20
779.5183393886193
 30
0.0
 11
2142.01040109712
 21
780.8183393886192
 31
0.0
  0
LINE
  5
93A
330
90F
100
AcDbEntity
  8
0
  6
Continuous
 62
     7
370
    15
100
AcDbLine
 10
2138.61040109712
 20
779.5183393886303
 30
0.0
 11
2136.11040109712
 21
779.5183393886262
 31
0.0
  0
LINE
  5
93B
330
90F
100
AcDbEntity
  8
0
  6
Continuous
 62
     7
370
    15
100
AcDbLine
 10
2138.61040109712
 20
779.5183393886303
 30
0.0
 11
2138.61040109712
 21
780.8183393886261
 31
0.0
  0
LINE
  5
93C
330
90F
100
AcDbEntity
  8
0
  6
Continuous
 62
     7
370
    15
100
AcDbLine
 10
2136.11040109712
 20
779.5183393886262
 30
0.0
 11
2136.11040109712
 21
780.8183393886261
 31
0.0
  0
LINE
  5
93D
330
90F
100
AcDbEntity
  8
0
  6
Continuous
 62
     7
370
    15
100
AcDbLine
 10
2138.61040109712
 20
780.8183393886261
 30
0.0
 11
2136.11040109712
 21
780.8183393886261
 31
0.0
  0
LINE
  5
93E
330
90F
100
AcDbEntity
  8
0
  6
Continuous
 62
     7
370
    15
100
AcDbLine
 10
2139.210401097013
 20
782.9203393886228
 30
0.0
 11
2139.210401097013
 21
776.4203393886288
 31
0.0
  0
LINE
  5
93F
330
90F
100
AcDbEntity
  8
0
  6
Continuous
 62
     7
370
    15
100
AcDbLine
 10
2139.210401097013
 20
776.4203393886288
 30
0.0
 11
2139.010401097015
 21
776.2203393886296
 31
0.0
  0
LINE
  5
940
330
90F
100
AcDbEntity
  8
0
  6
Continuous
 62
     7
370
    15
100
AcDbLine
 10
2139.010401097015
 20
776.2203393886296
 30
0.0
 11
2139.010401097016
 21
774.7183393886307
 31
0.0
  0
LINE
  5
941
330
90F
100
AcDbEntity
  8
0
  6
Continuous
 62
     7
370
    15
100
AcDbLine
 10
2139.010401097016
 20
774.7183393886307
 30
0.0
 11
2135.710401097014
 21
774.7183393886307
 31
0.0
  0
LINE
  5
942
330
90F
100
AcDbEntity
  8
0
  6
Continuous
 62
     7
370
    15
100
AcDbLine
 10
2135.710401097014
 20
776.2203393886295
 30
0.0
 11
2135.710401097014
 21
774.7183393886307
 31
0.0
  0
LINE
  5
943
330
90F
100
AcDbEntity
  8
0
  6
Continuous
 62
     7
370
    15
100
AcDbLine
 10
2135.510401097015
 20
776.4203393886296
 30
0.0
 11
2135.710401097014
 21
776.2203393886295
 31
0.0
  0
LINE
  5
944
330
90F
100
AcDbEntity
  8
0
  6
Continuous
 62
     7
370
    15
100
AcDbLine
 10
2135.510401097015
 20
776.4203393886296
 30
0.0
 11
2135.510401097015
 21
782.9203393886542
 31
0.0
  0
LINE
  5
945
330
90F
100
AcDbEntity
  8
0
  6
Continuous
 62
     7
370
    15
100
AcDbLine
 10
2133.310401097013
 20
782.9203393886296
 30
0.0
 11
2135.510401097015
 21
782.9203393886542
 31
0.0
  0
LINE
  5
946
330
90F
100
AcDbEntity
  8
0
  6
Continuous
 62
     7
370
    15
100
AcDbLine
 10
2133.310401097013
 20
782.9203393886296
 30
0.0
 11
2133.310401097013
 21
776.4203393886356
 31
0.0
  0
LINE
  5
947
330
90F
100
AcDbEntity
  8
0
  6
Continuous
 62
     7
370
    15
100
AcDbLine
 10
2133.310401097013
 20
776.4203393886356
 30
0.0
 11
2133.110401097016
 21
776.2203393886366
 31
0.0
  0
LINE
  5
948
330
90F
100
AcDbEntity
  8
0
  6
Continuous
 62
     7
370
    15
100
AcDbLine
 10
2133.110401097016
 20
776.2203393886366
 30
0.0
 11
2133.110401097016
 21
774.7183393886376
 31
0.0
  0
LINE
  5
949
330
90F
100
AcDbEntity
  8
0
  6
Continuous
 62
     7
370
    15
100
AcDbLine
 10
2133.110401097016
 20
774.7183393886376
 30
0.0
 11
2129.810401097014
 21
774.7183393886376
 31
0.0
  0
LINE
  5
94A
330
90F
100
AcDbEntity
  8
0
  6
Continuous
 62
     7
370
    15
100
AcDbLine
 10
2129.810401097014
 20
776.2203393886364
 30
0.0
 11
2129.810401097014
 21
774.7183393886376
 31
0.0
  0
LINE
  5
94B
330
90F
100
AcDbEntity
  8
0
  6
Continuous
 62
     7
370
    15
100
AcDbLine
 10
2129.610401097014
 20
776.4203393886365
 30
0.0
 11
2129.810401097014
 21
776.2203393886364
 31
0.0
  0
LINE
  5
94C
330
90F
100
AcDbEntity
  8
0
  6
Continuous
 62
     7
370
    15
100
AcDbLine
 10
2129.610401097014
 20
776.4203393886365
 30
0.0
 11
2129.610401097015
 21
782.9203393886549
 31
0.0
  0
LINE
  5
94D
330
90F
100
AcDbEntity
  8
0
  6
Continuous
 62
     7
370
    15
100
AcDbLine
 10
2127.410401097013
 20
782.9203393886365
 30
0.0
 11
2129.610401097015
 21
782.9203393886549
 31
0.0
  0
LINE
  5
94E
330
90F
100
AcDbEntity
  8
0
  6
Continuous
 62
     7
370
    15
100
AcDbLine
 10
2127.410401097013
 20
782.9203393886365
 30
0.0
 11
2127.410401097013
 21
776.4203393886426
 31
0.0
  0
LINE
  5
94F
330
90F
100
AcDbEntity
  8
0
  6
Continuous
 62
     7
370
    15
100
AcDbLine
 10
2127.410401097013
 20
776.4203393886426
 30
0.0
 11
2127.210401097016
 21
776.2203393886435
 31
0.0
  0
LINE
  5
950
330
90F
100
AcDbEntity
  8
0
  6
Continuous
 62
     7
370
    15
100
AcDbLine
 10
2127.210401097016
 20
776.2203393886435
 30
0.0
 11
2127.210401097016
 21
774.7183393886445
 31
0.0
  0
LINE
  5
951
330
90F
100
AcDbEntity
  8
0
  6
Continuous
 62
     7
370
    15
100
AcDbLine
 10
2127.210401097016
 20
774.7183393886445
 30
0.0
 11
2123.910401097014
 21
774.7183393886445
 31
0.0
  0
LINE
  5
952
330
90F
100
AcDbEntity
  8
0
  6
Continuous
 62
     7
370
    15
100
AcDbLine
 10
2123.910401097014
 20
776.2203393886434
 30
0.0
 11
2123.910401097014
 21
774.7183393886445
 31
0.0
  0
LINE
  5
953
330
90F
100
AcDbEntity
  8
0
  6
Continuous
 62
     7
370
    15
100
AcDbLine
 10
2123.710401097014
 20
776.4203393886434
 30
0.0
 11
2123.910401097014
 21
776.2203393886434
 31
0.0
  0
LINE
  5
954
330
90F
100
AcDbEntity
  8
0
  6
Continuous
 62
     7
370
    15
100
AcDbLine
 10
2123.710401097014
 20
776.4203393886434
 30
0.0
 11
2123.710401097015
 21
782.9203393886554
 31
0.0
  0
LINE
  5
955
330
90F
100
AcDbEntity
  8
0
  6
Continuous
 62
     7
370
    15
100
AcDbLine
 10
2121.510401097013
 20
782.9203393886436
 30
0.0
 11
2123.710401097015
 21
782.9203393886554
 31
0.0
  0
LINE
  5
956
330
90F
100
AcDbEntity
  8
0
  6
Continuous
 62
     7
370
    15
100
AcDbLine
 10
2121.510401097013
 20
782.9203393886436
 30
0.0
 11
2121.510401097013
 21
776.4203393886496
 31
0.0
  0
LINE
  5
957
330
90F
100
AcDbEntity
  8
0
  6
Continuous
 62
     7
370
    15
100
AcDbLine
 10
2121.510401097013
 20
776.4203393886496
 30
0.0
 11
2121.310401097016
 21
776.2203393886506
 31
0.0
  0
LINE
  5
958
330
90F
100
AcDbEntity
  8
0
  6
Continuous
 62
     7
370
    15
100
AcDbLine
 10
2121.310401097016
 20
776.2203393886506
 30
0.0
 11
2121.310401097016
 21
774.7183393886516
 31
0.0
  0
LINE
  5
959
330
90F
100
AcDbEntity
  8
0
  6
Continuous
 62
     7
370
    15
100
AcDbLine
 10
2121.310401097016
 20
774.7183393886516
 30
0.0
 11
2118.010401097014
 21
774.7183393886516
 31
0.0
  0
LINE
  5
95A
330
90F
100
AcDbEntity
  8
0
  6
Continuous
 62
     7
370
    15
100
AcDbLine
 10
2118.010401097014
 20
776.2203393886505
 30
0.0
 11
2118.010401097014
 21
774.7183393886516
 31
0.0
  0
LINE
  5
95B
330
90F
100
AcDbEntity
  8
0
  6
Continuous
 62
     7
370
    15
100
AcDbLine
 10
2117.810401097014
 20
776.4203393886504
 30
0.0
 11
2118.010401097014
 21
776.2203393886505
 31
0.0
  0
LINE
  5
95C
330
90F
100
AcDbEntity
  8
0
  6
Continuous
 62
     7
370
    15
100
AcDbLine
 10
2117.810401097014
 20
776.4203393886504
 30
0.0
 11
2117.810401097015
 21
782.9203393886559
 31
0.0
  0
LINE
  5
95D
330
90F
100
AcDbEntity
  8
0
  6
Continuous
 62
     7
370
    15
100
AcDbLine
 10
2115.610401097013
 20
782.9203393886505
 30
0.0
 11
2117.810401097015
 21
782.9203393886559
 31
0.0
  0
LINE
  5
95E
330
90F
100
AcDbEntity
  8
0
  6
Continuous
 62
     7
370
    15
100
AcDbLine
 10
2115.610401097013
 20
782.9203393886505
 30
0.0
 11
2115.610401097013
 21
776.4203393886565
 31
0.0
  0
LINE
  5
95F
330
90F
100
AcDbEntity
  8
0
  6
Continuous
 62
     7
370
    15
100
AcDbLine
 10
2115.610401097013
 20
776.4203393886565
 30
0.0
 11
2115.410401097015
 21
776.2203393886574
 31
0.0
  0
LINE
  5
960
330
90F
100
AcDbEntity
  8
0
  6
Continuous
 62
     7
370
    15
100
AcDbLine
 10
2115.410401097015
 20
776.2203393886574
 30
0.0
 11
2115.410401097015
 21
774.7183393886585
 31
0.0
  0
LINE
  5
961
330
90F
100
AcDbEntity
  8
0
  6
Continuous
 62
     7
370
    15
100
AcDbLine
 10
2115.410401097015
 20
774.7183393886585
 30
0.0
 11
2112.110401097014
 21
774.7183393886585
 31
0.0
  0
LINE
  5
962
330
90F
100
AcDbEntity
  8
0
  6
Continuous
 62
     7
370
    15
100
AcDbLine
 10
2112.110401097014
 20
776.2203393886573
 30
0.0
 11
2112.110401097014
 21
774.7183393886585
 31
0.0
  0
LINE
  5
963
330
90F
100
AcDbEntity
  8
0
  6
Continuous
 62
     7
370
    15
100
AcDbLine
 10
2111.910401097014
 20
776.4203393886575
 30
0.0
 11
2112.110401097014
 21
776.2203393886573
 31
0.0
  0
LINE
  5
964
330
90F
100
AcDbEntity
  8
0
  6
Continuous
 62
     7
370
    15
100
AcDbLine
 10
2111.910401097014
 20
776.4203393886575
 30
0.0
 11
2111.910401097015
 21
782.9203393886564
 31
0.0
  0
LINE
  5
965
330
90F
100
AcDbEntity
  8
0
  6
Continuous
 62
     7
370
    15
100
AcDbLine
 10
2109.710401097013
 20
782.9203393886573
 30
0.0
 11
2111.910401097015
 21
782.9203393886564
 31
0.0
  0
LINE
  5
966
330
90F
100
AcDbEntity
  8
0
  6
Continuous
 62
     7
370
    15
100
AcDbLine
 10
2109.710401097013
 20
782.9203393886573
 30
0.0
 11
2109.710401097013
 21
776.4203393886634
 31
0.0
  0
LINE
  5
967
330
90F
100
AcDbEntity
  8
0
  6
Continuous
 62
     7
370
    15
100
AcDbLine
 10
2109.710401097013
 20
776.4203393886634
 30
0.0
 11
2109.510401097016
 21
776.2203393886644
 31
0.0
  0
LINE
  5
968
330
90F
100
AcDbEntity
  8
0
  6
Continuous
 62
     7
370
    15
100
AcDbLine
 10
2109.510401097016
 20
776.2203393886644
 30
0.0
 11
2109.510401097016
 21
774.7183393886655
 31
0.0
  0
LINE
  5
969
330
90F
100
AcDbEntity
  8
0
  6
Continuous
 62
     7
370
    15
100
AcDbLine
 10
2109.510401097016
 20
774.7183393886655
 30
0.0
 11
2106.210401097014
 21
774.7183393886655
 31
0.0
  0
LINE
  5
96A
330
90F
100
AcDbEntity
  8
0
  6
Continuous
 62
     7
370
    15
100
AcDbLine
 10
2106.210401097014
 20
776.2203393886643
 30
0.0
 11
2106.210401097014
 21
774.7183393886655
 31
0.0
  0
LINE
  5
96B
330
90F
100
AcDbEntity
  8
0
  6
Continuous
 62
     7
370
    15
100
AcDbLine
 10
2106.010401097015
 20
776.4203393886644
 30
0.0
 11
2106.210401097014
 21
776.2203393886643
 31
0.0
  0
LINE
  5
96C
330
90F
100
AcDbEntity
  8
0
  6
Continuous
 62
     7
370
    15
100
AcDbLine
 10
2106.010401097015
 20
776.4203393886644
 30
0.0
 11
2106.010401097015
 21
782.9203393886664
 31
0.0
  0
LINE
  5
96D
330
90F
100
AcDbEntity
  8
0
  6
Continuous
 62
     7
370
    15
100
AcDbLine
 10
2103.810401097012
 20
782.9203393886644
 30
0.0
 11
2106.010401097015
 21
782.9203393886664
 31
0.0
  0
LINE
  5
96E
330
90F
100
AcDbEntity
  8
0
  6
Continuous
 62
     7
370
    15
100
AcDbLine
 10
2103.810401097012
 20
782.9203393886644
 30
0.0
 11
2103.810401097014
 21
776.4203393886703
 31
0.0
  0
LINE
  5
96F
330
90F
100
AcDbEntity
  8
0
  6
Continuous
 62
     7
370
    15
100
AcDbLine
 10
2103.810401097014
 20
776.4203393886703
 30
0.0
 11
2103.610401097016
 21
776.2203393886712
 31
0.0
  0
LINE
  5
970
330
90F
100
AcDbEntity
  8
0
  6
Continuous
 62
     7
370
    15
100
AcDbLine
 10
2103.610401097016
 20
776.2203393886712
 30
0.0
 11
2103.610401097016
 21
774.7183393886724
 31
0.0
  0
LINE
  5
971
330
90F
100
AcDbEntity
  8
0
  6
Continuous
 62
     7
370
    15
100
AcDbLine
 10
2103.610401097016
 20
774.7183393886724
 30
0.0
 11
2100.310401097014
 21
774.7183393886724
 31
0.0
  0
LINE
  5
972
330
90F
100
AcDbEntity
  8
0
  6
Continuous
 62
     7
370
    15
100
AcDbLine
 10
2100.310401097014
 20
776.2203393886712
 30
0.0
 11
2100.310401097014
 21
774.7183393886724
 31
0.0
  0
LINE
  5
973
330
90F
100
AcDbEntity
  8
0
  6
Continuous
 62
     7
370
    15
100
AcDbLine
 10
2100.110401097015
 20
776.4203393886713
 30
0.0
 11
2100.310401097014
 21
776.2203393886712
 31
0.0
  0
LINE
  5
974
330
90F
100
AcDbEntity
  8
0
  6
Continuous
 62
     7
370
    15
100
AcDbLine
 10
2100.110401097015
 20
776.4203393886713
 30
0.0
 11
2100.110401097015
 21
782.9203393886736
 31
0.0
  0
LINE
  5
975
330
90F
100
AcDbEntity
  8
0
  6
Continuous
 62
     7
370
    15
100
AcDbLine
 10
2100.110401097015
 20
782.9203393886736
 30
0.0
 11
2097.910401097013
 21
782.9203393886713
 31
0.0
  0
LINE
  5
976
330
90F
100
AcDbEntity
  8
0
  6
Continuous
 62
     7
370
    15
100
AcDbLine
 10
2097.910401097013
 20
782.9203393886713
 30
0.0
 11
2097.910401097013
 21
776.4203393886774
 31
0.0
  0
LINE
  5
977
330
90F
100
AcDbEntity
  8
0
  6
Continuous
 62
     7
370
    15
100
AcDbLine
 10
2097.910401097013
 20
776.4203393886774
 30
0.0
 11
2097.710401097016
 21
776.2203393886783
 31
0.0
  0
LINE
  5
978
330
90F
100
AcDbEntity
  8
0
  6
Continuous
 62
     7
370
    15
100
AcDbLine
 10
2097.710401097016
 20
776.2203393886783
 30
0.0
 11
2097.710401097016
 21
774.7183393886794
 31
0.0
  0
LINE
  5
979
330
90F
100
AcDbEntity
  8
0
  6
Continuous
 62
     7
370
    15
100
AcDbLine
 10
2097.710401097016
 20
774.7183393886794
 30
0.0
 11
2094.410401097014
 21
774.7183393886794
 31
0.0
  0
LINE
  5
97A
330
90F
100
AcDbEntity
  8
0
  6
Continuous
 62
     7
370
    15
100
AcDbLine
 10
2094.410401097014
 20
776.2203393886782
 30
0.0
 11
2094.410401097014
 21
774.7183393886794
 31
0.0
  0
LINE
  5
97B
330
90F
100
AcDbEntity
  8
0
  6
Continuous
 62
     7
370
    15
100
AcDbLine
 10
2094.210401097015
 20
776.4203393886782
 30
0.0
 11
2094.410401097014
 21
776.2203393886782
 31
0.0
  0
LINE
  5
97C
330
90F
100
AcDbEntity
  8
0
  6
Continuous
 62
     7
370
    15
100
AcDbLine
 10
2094.210401097015
 20
776.4203393886782
 30
0.0
 11
2094.210401097015
 21
782.9203393886804
 31
0.0
  0
LINE
  5
97D
330
90F
100
AcDbEntity
  8
0
  6
Continuous
 62
     7
370
    15
100
AcDbLine
 10
2092.010401097017
 20
782.9203393886802
 30
0.0
 11
2092.010401097017
 21
776.4203393886782
 31
0.0
  0
LINE
  5
97E
330
90F
100
AcDbEntity
  8
0
  6
Continuous
 62
     7
370
    15
100
AcDbLine
 10
2091.810401097017
 20
776.2203393886781
 30
0.0
 11
2092.010401097017
 21
776.4203393886782
 31
0.0
  0
LINE
  5
97F
330
90F
100
AcDbEntity
  8
0
  6
Continuous
 62
     7
370
    15
100
AcDbLine
 10
2091.810401097017
 20
774.7183393886793
 30
0.0
 11
2091.810401097017
 21
776.2203393886781
 31
0.0
  0
LINE
  5
980
330
90F
100
AcDbEntity
  8
0
  6
Continuous
 62
     7
370
    15
100
AcDbLine
 10
2091.810401097017
 20
774.7183393886793
 30
0.0
 11
2088.510401097016
 21
774.7183393886794
 31
0.0
  0
LINE
  5
981
330
90F
100
AcDbEntity
  8
0
  6
Continuous
 62
     7
370
    15
100
AcDbLine
 10
2088.510401097016
 20
774.7183393886794
 30
0.0
 11
2088.510401097016
 21
776.2203393886783
 31
0.0
  0
LINE
  5
982
330
90F
100
AcDbEntity
  8
0
  6
Continuous
 62
     7
370
    15
100
AcDbLine
 10
2088.510401097016
 20
776.2203393886783
 30
0.0
 11
2088.310401097018
 21
776.4203393886774
 31
0.0
  0
LINE
  5
983
330
90F
100
AcDbEntity
  8
0
  6
Continuous
 62
     7
370
    15
100
AcDbLine
 10
2088.310401097018
 20
776.4203393886774
 30
0.0
 11
2088.310401097019
 21
782.9203393886707
 31
0.0
  0
LINE
  5
984
330
90F
100
AcDbEntity
  8
0
  6
Continuous
 62
     7
370
    15
100
AcDbLine
 10
2087.710401097019
 20
782.9203393886713
 30
0.0
 11
2088.310401097019
 21
782.9203393886707
 31
0.0
  0
LINE
  5
985
330
90F
100
AcDbEntity
  8
0
  6
Continuous
 62
     7
370
    15
100
AcDbLine
 10
2145.110401097013
 20
782.9203393886158
 30
0.0
 11
2145.710401097013
 21
782.9203393886151
 31
0.0
  0
LINE
  5
986
330
90F
100
AcDbEntity
  8
0
  6
Continuous
 62
     7
370
    15
100
AcDbLine
 10
2145.110401097013
 20
782.9203393886158
 30
0.0
 11
2145.110401097013
 21
776.4203393886218
 31
0.0
  0
LINE
  5
987
330
90F
100
AcDbEntity
  8
0
  6
Continuous
 62
     7
370
    15
100
AcDbLine
 10
2145.110401097013
 20
776.4203393886218
 30
0.0
 11
2144.910401097016
 21
776.2203393886227
 31
0.0
  0
LINE
  5
988
330
90F
100
AcDbEntity
  8
0
  6
Continuous
 62
     7
370
    15
100
AcDbLine
 10
2144.910401097016
 20
776.2203393886227
 30
0.0
 11
2144.910401097016
 21
774.7183393886238
 31
0.0
  0
LINE
  5
989
330
90F
100
AcDbEntity
  8
0
  6
Continuous
 62
     7
370
    15
100
AcDbLine
 10
2144.910401097016
 20
774.7183393886238
 30
0.0
 11
2141.610401097014
 21
774.7183393886238
 31
0.0
  0
LINE
  5
98A
330
90F
100
AcDbEntity
  8
0
  6
Continuous
 62
     7
370
    15
100
AcDbLine
 10
2141.610401097014
 20
776.2203393886225
 30
0.0
 11
2141.610401097014
 21
774.7183393886238
 31
0.0
  0
LINE
  5
98B
330
90F
100
AcDbEntity
  8
0
  6
Continuous
 62
     7
370
    15
100
AcDbLine
 10
2141.410401097014
 20
776.4203393886226
 30
0.0
 11
2141.610401097014
 21
776.2203393886225
 31
0.0
  0
LINE
  5
98C
330
90F
100
AcDbEntity
  8
0
  6
Continuous
 62
     7
370
    15
100
AcDbLine
 10
2141.410401097014
 20
776.4203393886226
 30
0.0
 11
2141.410401097015
 21
782.9203393886249
 31
0.0
  0
LINE
  5
98D
330
90F
100
AcDbEntity
  8
0
  6
Continuous
 62
     7
370
    15
100
AcDbLine
 10
2139.210401097013
 20
782.9203393886228
 30
0.0
 11
2141.410401097015
 21
782.9203393886249
 31
0.0
  0
LINE
  5
98E
330
90F
100
AcDbEntity
  8
0
  6
Continuous
 62
     7
370
    15
100
AcDbLine
 10
2094.210401097015
 20
782.9203393886804
 30
0.0
 11
2092.010401097017
 21
782.9203393886802
 31
0.0
  0
LINE
  5
98F
330
90F
100
AcDbEntity
  8
0
  6
Continuous
 62
     7
370
    15
100
AcDbLine
 10
2087.710401097019
 20
782.9203393886713
 30
0.0
 11
2087.710401097018
 21
787.4683393886759
 31
0.0
  0
LINE
  5
990
330
90F
100
AcDbEntity
  8
0
  6
Continuous
 62
     7
370
    15
100
AcDbLine
 10
2145.710401097013
 20
787.4683393886205
 30
0.0
 11
2145.710401097013
 21
782.9203393886151
 31
0.0
  0
LINE
  5
991
330
90F
100
AcDbEntity
  8
0
  6
Continuous
 62
     7
370
    15
100
AcDbLine
 10
2091.810401097017
 20
774.7183393886793
 30
0.0
 11
2091.510401097017
 21
774.4183393886791
 31
0.0
  0
LINE
  5
992
330
90F
100
AcDbEntity
  8
0
  6
Continuous
 62
     7
370
    15
100
AcDbLine
 10
2088.810401097016
 20
774.4183393886791
 30
0.0
 11
2091.510401097017
 21
774.4183393886791
 31
0.0
  0
LINE
  5
993
330
90F
100
AcDbEntity
  8
0
  6
Continuous
 62
     7
370
    15
100
AcDbLine
 10
2088.510401097016
 20
774.7183393886793
 30
0.0
 11
2088.810401097016
 21
774.4183393886791
 31
0.0
  0
LINE
  5
994
330
90F
100
AcDbEntity
  8
0
  6
Continuous
 62
     7
370
    15
100
AcDbLine
 10
2106.510401097015
 20
774.4183393886652
 30
0.0
 11
2106.210401097014
 21
774.7183393886654
 31
0.0
  0
LINE
  5
995
330
90F
100
AcDbEntity
  8
0
  6
Continuous
 62
     7
370
    15
100
AcDbLine
 10
2109.210401097016
 20
774.4183393886652
 30
0.0
 11
2109.510401097016
 21
774.7183393886654
 31
0.0
  0
LINE
  5
996
330
90F
100
AcDbEntity
  8
0
  6
Continuous
 62
     7
370
    15
100
AcDbLine
 10
2106.510401097015
 20
774.4183393886652
 30
0.0
 11
2109.210401097016
 21
774.4183393886652
 31
0.0
  0
LINE
  5
997
330
90F
100
AcDbEntity
  8
0
  6
Continuous
 62
     7
370
    15
100
AcDbLine
 10
2118.310401097014
 20
774.4183393886514
 30
0.0
 11
2118.010401097014
 21
774.7183393886516
 31
0.0
  0
LINE
  5
998
330
90F
100
AcDbEntity
  8
0
  6
Continuous
 62
     7
370
    15
100
AcDbLine
 10
2121.010401097016
 20
774.4183393886514
 30
0.0
 11
2121.310401097016
 21
774.7183393886516
 31
0.0
  0
LINE
  5
999
330
90F
100
AcDbEntity
  8
0
  6
Continuous
 62
     7
370
    15
100
AcDbLine
 10
2118.310401097014
 20
774.4183393886514
 30
0.0
 11
2121.010401097016
 21
774.4183393886514
 31
0.0
  0
LINE
  5
99A
330
90F
100
AcDbEntity
  8
0
  6
Continuous
 62
     7
370
    15
100
AcDbLine
 10
2124.210401097014
 20
774.4183393886444
 30
0.0
 11
2123.910401097014
 21
774.7183393886445
 31
0.0
  0
LINE
  5
99B
330
90F
100
AcDbEntity
  8
0
  6
Continuous
 62
     7
370
    15
100
AcDbLine
 10
2126.910401097015
 20
774.4183393886444
 30
0.0
 11
2127.210401097016
 21
774.7183393886445
 31
0.0
  0
LINE
  5
99C
330
90F
100
AcDbEntity
  8
0
  6
Continuous
 62
     7
370
    15
100
AcDbLine
 10
2124.210401097014
 20
774.4183393886444
 30
0.0
 11
2126.910401097015
 21
774.4183393886444
 31
0.0
  0
LINE
  5
99D
330
90F
100
AcDbEntity
  8
0
  6
Continuous
 62
     7
370
    15
100
AcDbLine
 10
2112.410401097014
 20
774.4183393886583
 30
0.0
 11
2112.110401097014
 21
774.7183393886585
 31
0.0
  0
LINE
  5
99E
330
90F
100
AcDbEntity
  8
0
  6
Continuous
 62
     7
370
    15
100
AcDbLine
 10
2115.110401097016
 20
774.4183393886583
 30
0.0
 11
2115.410401097016
 21
774.7183393886585
 31
0.0
  0
LINE
  5
99F
330
90F
100
AcDbEntity
  8
0
  6
Continuous
 62
     7
370
    15
100
AcDbLine
 10
2112.410401097014
 20
774.4183393886583
 30
0.0
 11
2115.110401097016
 21
774.4183393886583
 31
0.0
  0
LINE
  5
9A0
330
90F
100
AcDbEntity
  8
0
  6
Continuous
 62
     7
370
    15
100
AcDbLine
 10
2136.010401097014
 20
774.4183393886305
 30
0.0
 11
2135.710401097014
 21
774.7183393886307
 31
0.0
  0
LINE
  5
9A1
330
90F
100
AcDbEntity
  8
0
  6
Continuous
 62
     7
370
    15
100
AcDbLine
 10
2138.710401097016
 20
774.4183393886305
 30
0.0
 11
2139.010401097016
 21
774.7183393886307
 31
0.0
  0
LINE
  5
9A2
330
90F
100
AcDbEntity
  8
0
  6
Continuous
 62
     7
370
    15
100
AcDbLine
 10
2136.010401097014
 20
774.4183393886305
 30
0.0
 11
2138.710401097016
 21
774.4183393886305
 31
0.0
  0
LINE
  5
9A3
330
90F
100
AcDbEntity
  8
0
  6
Continuous
 62
     7
370
    15
100
AcDbLine
 10
2130.110401097014
 20
774.4183393886373
 30
0.0
 11
2129.810401097014
 21
774.7183393886375
 31
0.0
  0
LINE
  5
9A4
330
90F
100
AcDbEntity
  8
0
  6
Continuous
 62
     7
370
    15
100
AcDbLine
 10
2132.810401097016
 20
774.4183393886373
 30
0.0
 11
2133.110401097016
 21
774.7183393886375
 31
0.0
  0
LINE
  5
9A5
330
90F
100
AcDbEntity
  8
0
  6
Continuous
 62
     7
370
    15
100
AcDbLine
 10
2130.110401097014
 20
774.4183393886373
 30
0.0
 11
2132.810401097016
 21
774.4183393886373
 31
0.0
  0
LINE
  5
9A6
330
90F
100
AcDbEntity
  8
0
  6
Continuous
 62
     7
370
    15
100
AcDbLine
 10
2094.710401097014
 20
774.4183393886791
 30
0.0
 11
2094.410401097014
 21
774.7183393886793
 31
0.0
  0
LINE
  5
9A7
330
90F
100
AcDbEntity
  8
0
  6
Continuous
 62
     7
370
    15
100
AcDbLine
 10
2097.410401097016
 20
774.4183393886791
 30
0.0
 11
2097.710401097016
 21
774.7183393886793
 31
0.0
  0
LINE
  5
9A8
330
90F
100
AcDbEntity
  8
0
  6
Continuous
 62
     7
370
    15
100
AcDbLine
 10
2094.710401097014
 20
774.4183393886791
 30
0.0
 11
2097.410401097016
 21
774.4183393886791
 31
0.0
  0
LINE
  5
9A9
330
90F
100
AcDbEntity
  8
0
  6
Continuous
 62
     7
370
    15
100
AcDbLine
 10
2100.610401097014
 20
774.4183393886721
 30
0.0
 11
2100.310401097014
 21
774.7183393886723
 31
0.0
  0
LINE
  5
9AA
330
90F
100
AcDbEntity
  8
0
  6
Continuous
 62
     7
370
    15
100
AcDbLine
 10
2103.310401097016
 20
774.4183393886721
 30
0.0
 11
2103.610401097016
 21
774.7183393886723
 31
0.0
  0
LINE
  5
9AB
330
90F
100
AcDbEntity
  8
0
  6
Continuous
 62
     7
370
    15
100
AcDbLine
 10
2100.610401097014
 20
774.4183393886721
 30
0.0
 11
2103.310401097016
 21
774.4183393886721
 31
0.0
  0
LINE
  5
9AC
330
90F
100
AcDbEntity
  8
0
  6
Continuous
 62
     7
370
    15
100
AcDbLine
 10
2141.910401097014
 20
774.4183393886235
 30
0.0
 11
2141.610401097014
 21
774.7183393886237
 31
0.0
  0
LINE
  5
9AD
330
90F
100
AcDbEntity
  8
0
  6
Continuous
 62
     7
370
    15
100
AcDbLine
 10
2144.610401097016
 20
774.4183393886235
 30
0.0
 11
2144.910401097016
 21
774.7183393886237
 31
0.0
  0
LINE
  5
9AE
330
90F
100
AcDbEntity
  8
0
  6
Continuous
 62
     7
370
    15
100
AcDbLine
 10
2141.910401097014
 20
774.4183393886235
 30
0.0
 11
2144.610401097016
 21
774.4183393886235
 31
0.0
  0
LINE
  5
9AF
330
90F
100
AcDbEntity
  8
0
  6
Continuous
 62
     7
370
    15
100
AcDbLine
 10
2091.17700423495
 20
764.9095625265156
 30
0.0
 11
2091.460401097014
 21
766.5167859980852
 31
0.0
  0
ARC
  5
9B0
330
90F
100
AcDbEntity
  8
0
  6
Continuous
 62
     7
370
    15
100
AcDbCircle
 10
2090.832321521396
 20
764.9703393886991
 30
0.0
 40
0.3500000000000081
100
AcDbArc
 50
270.0
 51
350.0000000000025
  0
LINE
  5
9B1
330
90F
100
AcDbEntity
  8
0
  6
Continuous
 62
     7
370
    15
100
AcDbLine
 10
2089.489197224417
 20
764.6203393886991
 30
0.0
 11
2090.832321521396
 21
764.6203393886991
 31
0.0
  0
ARC
  5
9B2
330
90F
100
AcDbEntity
  8
0
  6
Continuous
 62
     7
370
    15
100
AcDbCircle
 10
2089.489197224417
 20
764.9703393886991
 30
0.0
 40
0.3499999999999659
100
AcDbArc
 50
189.9999999999846
 51
270.0
  0
LINE
  5
9B3
330
90F
100
AcDbEntity
  8
0
  6
Continuous
 62
     7
370
    15
100
AcDbLine
 10
2088.86040109718
 20
766.5208497635331
 30
0.0
 11
2089.144514510862
 21
764.9095625265157
 31
0.0
  0
LINE
  5
9B4
330
90F
100
AcDbEntity
  8
0
  6
Continuous
 62
     7
370
    15
100
AcDbLine
 10
2088.860401097164
 20
773.2216113622955
 30
0.0
 11
2088.86040109718
 21
766.5208497635331
 31
0.0
  0
LINE
  5
9B5
330
90F
100
AcDbEntity
  8
0
  6
Continuous
 62
     7
370
    15
100
AcDbLine
 10
2088.860401097164
 20
773.2216113622955
 30
0.0
 11
2091.460401097015
 21
773.2216113622955
 31
0.0
  0
LINE
  5
9B6
330
90F
100
AcDbEntity
  8
0
  6
Continuous
 62
     7
370
    15
100
AcDbLine
 10
2091.460401097014
 20
766.5167859980852
 30
0.0
 11
2091.460401097015
 21
773.2216113622955
 31
0.0
  0
LINE
  5
9B7
330
90F
100
AcDbEntity
  8
0
  6
Continuous
 62
     7
370
    15
100
AcDbLine
 10
2124.260401097163
 20
773.2216113622609
 30
0.0
 11
2126.860401097015
 21
773.2216113622609
 31
0.0
  0
LINE
  5
9B8
330
90F
100
AcDbEntity
  8
0
  6
Continuous
 62
     7
370
    15
100
AcDbLine
 10
2126.860401097014
 20
766.5167859980503
 30
0.0
 11
2126.860401097015
 21
773.2216113622609
 31
0.0
  0
LINE
  5
9B9
330
90F
100
AcDbEntity
  8
0
  6
Continuous
 62
     7
370
    15
100
AcDbLine
 10
2126.57700423495
 20
764.9095625264809
 30
0.0
 11
2126.860401097014
 21
766.5167859980503
 31
0.0
  0
ARC
  5
9BA
330
90F
100
AcDbEntity
  8
0
  6
Continuous
 62
     7
370
    15
100
AcDbCircle
 10
2126.232321521396
 20
764.9703393886643
 30
0.0
 40
0.3500000000000312
100
AcDbArc
 50
270.0
 51
350.0000000000025
  0
LINE
  5
9BB
330
90F
100
AcDbEntity
  8
0
  6
Continuous
 62
     7
370
    15
100
AcDbLine
 10
2124.889197224417
 20
764.6203393886644
 30
0.0
 11
2126.232321521396
 21
764.6203393886644
 31
0.0
  0
ARC
  5
9BC
330
90F
100
AcDbEntity
  8
0
  6
Continuous
 62
     7
370
    15
100
AcDbCircle
 10
2124.889197224417
 20
764.9703393886643
 30
0.0
 40
0.3500000000000394
100
AcDbArc
 50
189.9999999999782
 51
270.0
  0
LINE
  5
9BD
330
90F
100
AcDbEntity
  8
0
  6
Continuous
 62
     7
370
    15
100
AcDbLine
 10
2124.26040109718
 20
766.5208497634985
 30
0.0
 11
2124.544514510863
 21
764.909562526481
 31
0.0
  0
LINE
  5
9BE
330
90F
100
AcDbEntity
  8
0
  6
Continuous
 62
     7
370
    15
100
AcDbLine
 10
2124.260401097163
 20
773.2216113622609
 30
0.0
 11
2124.26040109718
 21
766.5208497634985
 31
0.0
  0
LINE
  5
9BF
330
90F
100
AcDbEntity
  8
0
  6
Continuous
 62
     7
370
    15
100
AcDbLine
 10
2094.760401097163
 20
773.2216113622955
 30
0.0
 11
2097.360401097015
 21
773.2216113622955
 31
0.0
  0
LINE
  5
9C0
330
90F
100
AcDbEntity
  8
0
  6
Continuous
 62
     7
370
    15
100
AcDbLine
 10
2097.360401097014
 20
766.5167859980852
 30
0.0
 11
2097.360401097015
 21
773.2216113622955
 31
0.0
  0
ARC
  5
9C1
330
90F
100
AcDbEntity
  8
0
  6
Continuous
 62
     7
370
    15
100
AcDbCircle
 10
2096.732321521396
 20
764.9703393886991
 30
0.0
 40
0.3500000000000361
100
AcDbArc
 50
270.0
 51
350.0000000000025
  0
LINE
  5
9C2
330
90F
100
AcDbEntity
  8
0
  6
Continuous
 62
     7
370
    15
100
AcDbLine
 10
2095.389197224417
 20
764.6203393886991
 30
0.0
 11
2096.732321521396
 21
764.6203393886991
 31
0.0
  0
ARC
  5
9C3
330
90F
100
AcDbEntity
  8
0
  6
Continuous
 62
     7
370
    15
100
AcDbCircle
 10
2095.389197224417
 20
764.9703393886991
 30
0.0
 40
0.3499999999999884
100
AcDbArc
 50
189.9999999999846
 51
270.0
  0
LINE
  5
9C4
330
90F
100
AcDbEntity
  8
0
  6
Continuous
 62
     7
370
    15
100
AcDbLine
 10
2094.76040109718
 20
766.5208497635331
 30
0.0
 11
2095.044514510862
 21
764.9095625265157
 31
0.0
  0
LINE
  5
9C5
330
90F
100
AcDbEntity
  8
0
  6
Continuous
 62
     7
370
    15
100
AcDbLine
 10
2094.760401097163
 20
773.2216113622955
 30
0.0
 11
2094.76040109718
 21
766.5208497635331
 31
0.0
  0
LINE
  5
9C6
330
90F
100
AcDbEntity
  8
0
  6
Continuous
 62
     7
370
    15
100
AcDbLine
 10
2097.07700423495
 20
764.9095625265156
 30
0.0
 11
2097.360401097014
 21
766.5167859980852
 31
0.0
  0
LINE
  5
9C7
330
90F
100
AcDbEntity
  8
0
  6
Continuous
 62
     7
370
    15
100
AcDbLine
 10
2100.660401097163
 20
773.2216113622886
 30
0.0
 11
2103.260401097015
 21
773.2216113622886
 31
0.0
  0
LINE
  5
9C8
330
90F
100
AcDbEntity
  8
0
  6
Continuous
 62
     7
370
    15
100
AcDbLine
 10
2103.260401097013
 20
766.5167859980781
 30
0.0
 11
2103.260401097015
 21
773.2216113622886
 31
0.0
  0
LINE
  5
9C9
330
90F
100
AcDbEntity
  8
0
  6
Continuous
 62
     7
370
    15
100
AcDbLine
 10
2102.97700423495
 20
764.9095625265086
 30
0.0
 11
2103.260401097013
 21
766.5167859980781
 31
0.0
  0
ARC
  5
9CA
330
90F
100
AcDbEntity
  8
0
  6
Continuous
 62
     7
370
    15
100
AcDbCircle
 10
2102.632321521396
 20
764.970339388692
 30
0.0
 40
0.3500000000000312
100
AcDbArc
 50
270.0
 51
350.0000000000025
  0
ARC
  5
9CB
330
90F
100
AcDbEntity
  8
0
  6
Continuous
 62
     7
370
    15
100
AcDbCircle
 10
2101.289197224417
 20
764.970339388692
 30
0.0
 40
0.3499999999999834
100
AcDbArc
 50
189.9999999999782
 51
270.0
  0
LINE
  5
9CC
330
90F
100
AcDbEntity
  8
0
  6
Continuous
 62
     7
370
    15
100
AcDbLine
 10
2100.66040109718
 20
766.5208497635262
 30
0.0
 11
2100.944514510862
 21
764.9095625265088
 31
0.0
  0
LINE
  5
9CD
330
90F
100
AcDbEntity
  8
0
  6
Continuous
 62
     7
370
    15
100
AcDbLine
 10
2100.660401097163
 20
773.2216113622886
 30
0.0
 11
2100.66040109718
 21
766.5208497635262
 31
0.0
  0
LINE
  5
9CE
330
90F
100
AcDbEntity
  8
0
  6
Continuous
 62
     7
370
    15
100
AcDbLine
 10
2101.289197224417
 20
764.6203393886922
 30
0.0
 11
2102.632321521396
 21
764.6203393886922
 31
0.0
  0
LINE
  5
9CF
330
90F
100
AcDbEntity
  8
0
  6
Continuous
 62
     7
370
    15
100
AcDbLine
 10
2103.260401097012
 20
773.4716113622887
 30
0.0
 11
2100.660401097053
 21
773.4716113622888
 31
0.0
  0
LINE
  5
9D0
330
90F
100
AcDbEntity
  8
0
  6
Continuous
 62
     7
370
    15
100
AcDbLine
 10
2103.260401097012
 20
773.4716113622887
 30
0.0
 11
2103.260401097015
 21
773.2216113622886
 31
0.0
  0
LINE
  5
9D1
330
90F
100
AcDbEntity
  8
0
  6
Continuous
 62
     7
370
    15
100
AcDbLine
 10
2100.660401097163
 20
773.2216113622886
 30
0.0
 11
2100.660401097053
 21
773.4716113622888
 31
0.0
  0
LINE
  5
9D2
330
90F
100
AcDbEntity
  8
0
  6
Continuous
 62
     7
370
    15
100
AcDbLine
 10
2097.360401097012
 20
773.4716113622956
 30
0.0
 11
2094.760401097053
 21
773.4716113622957
 31
0.0
  0
LINE
  5
9D3
330
90F
100
AcDbEntity
  8
0
  6
Continuous
 62
     7
370
    15
100
AcDbLine
 10
2097.360401097012
 20
773.4716113622956
 30
0.0
 11
2097.360401097015
 21
773.2216113622955
 31
0.0
  0
LINE
  5
9D4
330
90F
100
AcDbEntity
  8
0
  6
Continuous
 62
     7
370
    15
100
AcDbLine
 10
2094.760401097163
 20
773.2216113622955
 30
0.0
 11
2094.760401097053
 21
773.4716113622957
 31
0.0
  0
LINE
  5
9D5
330
90F
100
AcDbEntity
  8
0
  6
Continuous
 62
     7
370
    15
100
AcDbLine
 10
2112.460401097163
 20
773.2216113622747
 30
0.0
 11
2115.060401097015
 21
773.2216113622747
 31
0.0
  0
LINE
  5
9D6
330
90F
100
AcDbEntity
  8
0
  6
Continuous
 62
     7
370
    15
100
AcDbLine
 10
2115.060401097014
 20
766.5167859980642
 30
0.0
 11
2115.060401097015
 21
773.2216113622747
 31
0.0
  0
LINE
  5
9D7
330
90F
100
AcDbEntity
  8
0
  6
Continuous
 62
     7
370
    15
100
AcDbLine
 10
2114.77700423495
 20
764.9095625264948
 30
0.0
 11
2115.060401097014
 21
766.5167859980642
 31
0.0
  0
ARC
  5
9D8
330
90F
100
AcDbEntity
  8
0
  6
Continuous
 62
     7
370
    15
100
AcDbCircle
 10
2114.432321521396
 20
764.9703393886782
 30
0.0
 40
0.3500000000000312
100
AcDbArc
 50
270.0
 51
350.0000000000025
  0
LINE
  5
9D9
330
90F
100
AcDbEntity
  8
0
  6
Continuous
 62
     7
370
    15
100
AcDbLine
 10
2113.089197224417
 20
764.6203393886783
 30
0.0
 11
2114.432321521396
 21
764.6203393886783
 31
0.0
  0
ARC
  5
9DA
330
90F
100
AcDbEntity
  8
0
  6
Continuous
 62
     7
370
    15
100
AcDbCircle
 10
2113.089197224417
 20
764.9703393886782
 30
0.0
 40
0.3499999999999659
100
AcDbArc
 50
189.9999999999782
 51
270.0
  0
LINE
  5
9DB
330
90F
100
AcDbEntity
  8
0
  6
Continuous
 62
     7
370
    15
100
AcDbLine
 10
2112.46040109718
 20
766.5208497635124
 30
0.0
 11
2112.744514510863
 21
764.9095625264949
 31
0.0
  0
LINE
  5
9DC
330
90F
100
AcDbEntity
  8
0
  6
Continuous
 62
     7
370
    15
100
AcDbLine
 10
2112.460401097163
 20
773.2216113622747
 30
0.0
 11
2112.46040109718
 21
766.5208497635124
 31
0.0
  0
LINE
  5
9DD
330
90F
100
AcDbEntity
  8
0
  6
Continuous
 62
     7
370
    15
100
AcDbLine
 10
2130.160401097163
 20
773.221611362254
 30
0.0
 11
2132.760401097015
 21
773.221611362254
 31
0.0
  0
LINE
  5
9DE
330
90F
100
AcDbEntity
  8
0
  6
Continuous
 62
     7
370
    15
100
AcDbLine
 10
2132.760401097014
 20
766.5167859980433
 30
0.0
 11
2132.760401097015
 21
773.221611362254
 31
0.0
  0
LINE
  5
9DF
330
90F
100
AcDbEntity
  8
0
  6
Continuous
 62
     7
370
    15
100
AcDbLine
 10
2132.47700423495
 20
764.9095625264739
 30
0.0
 11
2132.760401097014
 21
766.5167859980433
 31
0.0
  0
ARC
  5
9E0
330
90F
100
AcDbEntity
  8
0
  6
Continuous
 62
     7
370
    15
100
AcDbCircle
 10
2132.132321521396
 20
764.9703393886572
 30
0.0
 40
0.3500000000000312
100
AcDbArc
 50
270.0
 51
350.0000000000025
  0
LINE
  5
9E1
330
90F
100
AcDbEntity
  8
0
  6
Continuous
 62
     7
370
    15
100
AcDbLine
 10
2130.789197224417
 20
764.6203393886573
 30
0.0
 11
2132.132321521396
 21
764.6203393886573
 31
0.0
  0
ARC
  5
9E2
330
90F
100
AcDbEntity
  8
0
  6
Continuous
 62
     7
370
    15
100
AcDbCircle
 10
2130.789197224417
 20
764.9703393886572
 30
0.0
 40
0.3499999999999659
100
AcDbArc
 50
189.9999999999782
 51
270.0
  0
LINE
  5
9E3
330
90F
100
AcDbEntity
  8
0
  6
Continuous
 62
     7
370
    15
100
AcDbLine
 10
2130.16040109718
 20
766.5208497634914
 30
0.0
 11
2130.444514510863
 21
764.909562526474
 31
0.0
  0
LINE
  5
9E4
330
90F
100
AcDbEntity
  8
0
  6
Continuous
 62
     7
370
    15
100
AcDbLine
 10
2130.160401097163
 20
773.221611362254
 30
0.0
 11
2130.16040109718
 21
766.5208497634914
 31
0.0
  0
LINE
  5
9E5
330
90F
100
AcDbEntity
  8
0
  6
Continuous
 62
     7
370
    15
100
AcDbLine
 10
2138.660401097012
 20
773.4716113622471
 30
0.0
 11
2136.060401097053
 21
773.4716113622471
 31
0.0
  0
LINE
  5
9E6
330
90F
100
AcDbEntity
  8
0
  6
Continuous
 62
     7
370
    15
100
AcDbLine
 10
2136.060401097163
 20
773.221611362247
 30
0.0
 11
2138.660401097015
 21
773.221611362247
 31
0.0
  0
LINE
  5
9E7
330
90F
100
AcDbEntity
  8
0
  6
Continuous
 62
     7
370
    15
100
AcDbLine
 10
2138.660401097012
 20
773.4716113622471
 30
0.0
 11
2138.660401097015
 21
773.221611362247
 31
0.0
  0
LINE
  5
9E8
330
90F
100
AcDbEntity
  8
0
  6
Continuous
 62
     7
370
    15
100
AcDbLine
 10
2136.060401097163
 20
773.221611362247
 30
0.0
 11
2136.060401097053
 21
773.4716113622471
 31
0.0
  0
LINE
  5
9E9
330
90F
100
AcDbEntity
  8
0
  6
Continuous
 62
     7
370
    15
100
AcDbLine
 10
2144.560401097012
 20
773.47161136224
 30
0.0
 11
2141.960401097053
 21
773.4716113622401
 31
0.0
  0
LINE
  5
9EA
330
90F
100
AcDbEntity
  8
0
  6
Continuous
 62
     7
370
    15
100
AcDbLine
 10
2141.960401097164
 20
773.2216113622399
 30
0.0
 11
2144.560401097015
 21
773.2216113622399
 31
0.0
  0
LINE
  5
9EB
330
90F
100
AcDbEntity
  8
0
  6
Continuous
 62
     7
370
    15
100
AcDbLine
 10
2141.960401097164
 20
773.2216113622399
 30
0.0
 11
2141.960401097053
 21
773.4716113622401
 31
0.0
  0
LINE
  5
9EC
330
90F
100
AcDbEntity
  8
0
  6
Continuous
 62
     7
370
    15
100
AcDbLine
 10
2144.560401097012
 20
773.47161136224
 30
0.0
 11
2144.560401097015
 21
773.2216113622399
 31
0.0
  0
LINE
  5
9ED
330
90F
100
AcDbEntity
  8
0
  6
Continuous
 62
     7
370
    15
100
AcDbLine
 10
2106.560401097163
 20
773.2216113622817
 30
0.0
 11
2109.160401097015
 21
773.2216113622817
 31
0.0
  0
LINE
  5
9EE
330
90F
100
AcDbEntity
  8
0
  6
Continuous
 62
     7
370
    15
100
AcDbLine
 10
2108.87700423495
 20
764.9095625265017
 30
0.0
 11
2109.160401097014
 21
766.5167859980713
 31
0.0
  0
ARC
  5
9EF
330
90F
100
AcDbEntity
  8
0
  6
Continuous
 62
     7
370
    15
100
AcDbCircle
 10
2108.532321521396
 20
764.9703393886852
 30
0.0
 40
0.3500000000000591
100
AcDbArc
 50
270.0
 51
350.0000000000089
  0
LINE
  5
9F0
330
90F
100
AcDbEntity
  8
0
  6
Continuous
 62
     7
370
    15
100
AcDbLine
 10
2107.189197224417
 20
764.6203393886852
 30
0.0
 11
2108.532321521396
 21
764.6203393886852
 31
0.0
  0
ARC
  5
9F1
330
90F
100
AcDbEntity
  8
0
  6
Continuous
 62
     7
370
    15
100
AcDbCircle
 10
2107.189197224417
 20
764.9703393886852
 30
0.0
 40
0.3499999999999834
100
AcDbArc
 50
189.9999999999782
 51
270.0
  0
LINE
  5
9F2
330
90F
100
AcDbEntity
  8
0
  6
Continuous
 62
     7
370
    15
100
AcDbLine
 10
2106.56040109718
 20
766.5208497635193
 30
0.0
 11
2106.844514510862
 21
764.9095625265019
 31
0.0
  0
LINE
  5
9F3
330
90F
100
AcDbEntity
  8
0
  6
Continuous
 62
     7
370
    15
100
AcDbLine
 10
2109.160401097014
 20
766.5167859980713
 30
0.0
 11
2109.160401097015
 21
773.2216113622817
 31
0.0
  0
LINE
  5
9F4
330
90F
100
AcDbEntity
  8
0
  6
Continuous
 62
     7
370
    15
100
AcDbLine
 10
2106.560401097163
 20
773.2216113622817
 30
0.0
 11
2106.56040109718
 21
766.5208497635193
 31
0.0
  0
LINE
  5
9F5
330
90F
100
AcDbEntity
  8
0
  6
Continuous
 62
     7
370
    15
100
AcDbLine
 10
2115.060401097012
 20
773.4716113622749
 30
0.0
 11
2112.460401097053
 21
773.471611362275
 31
0.0
  0
LINE
  5
9F6
330
90F
100
AcDbEntity
  8
0
  6
Continuous
 62
     7
370
    15
100
AcDbLine
 10
2115.060401097012
 20
773.4716113622749
 30
0.0
 11
2115.060401097015
 21
773.2216113622747
 31
0.0
  0
LINE
  5
9F7
330
90F
100
AcDbEntity
  8
0
  6
Continuous
 62
     7
370
    15
100
AcDbLine
 10
2112.460401097163
 20
773.2216113622747
 30
0.0
 11
2112.460401097053
 21
773.471611362275
 31
0.0
  0
LINE
  5
9F8
330
90F
100
AcDbEntity
  8
0
  6
Continuous
 62
     7
370
    15
100
AcDbLine
 10
2132.760401097012
 20
773.4716113622539
 30
0.0
 11
2130.160401097053
 21
773.471611362254
 31
0.0
  0
LINE
  5
9F9
330
90F
100
AcDbEntity
  8
0
  6
Continuous
 62
     7
370
    15
100
AcDbLine
 10
2130.160401097163
 20
773.221611362254
 30
0.0
 11
2130.160401097053
 21
773.471611362254
 31
0.0
  0
LINE
  5
9FA
330
90F
100
AcDbEntity
  8
0
  6
Continuous
 62
     7
370
    15
100
AcDbLine
 10
2132.760401097012
 20
773.4716113622539
 30
0.0
 11
2132.760401097015
 21
773.221611362254
 31
0.0
  0
LINE
  5
9FB
330
90F
100
AcDbEntity
  8
0
  6
Continuous
 62
     7
370
    15
100
AcDbLine
 10
2118.360401097163
 20
773.2216113622678
 30
0.0
 11
2120.960401097015
 21
773.2216113622678
 31
0.0
  0
LINE
  5
9FC
330
90F
100
AcDbEntity
  8
0
  6
Continuous
 62
     7
370
    15
100
AcDbLine
 10
2120.67700423495
 20
764.9095625264878
 30
0.0
 11
2120.960401097014
 21
766.5167859980575
 31
0.0
  0
ARC
  5
9FD
330
90F
100
AcDbEntity
  8
0
  6
Continuous
 62
     7
370
    15
100
AcDbCircle
 10
2120.332321521396
 20
764.9703393886714
 30
0.0
 40
0.3500000000000312
100
AcDbArc
 50
270.0
 51
350.0000000000025
  0
LINE
  5
9FE
330
90F
100
AcDbEntity
  8
0
  6
Continuous
 62
     7
370
    15
100
AcDbLine
 10
2118.989197224417
 20
764.6203393886714
 30
0.0
 11
2120.332321521396
 21
764.6203393886714
 31
0.0
  0
ARC
  5
9FF
330
90F
100
AcDbEntity
  8
0
  6
Continuous
 62
     7
370
    15
100
AcDbCircle
 10
2118.989197224417
 20
764.9703393886714
 30
0.0
 40
0.3499999999999659
100
AcDbArc
 50
189.9999999999782
 51
270.0
  0
LINE
  5
A00
330
90F
100
AcDbEntity
  8
0
  6
Continuous
 62
     7
370
    15
100
AcDbLine
 10
2118.36040109718
 20
766.5208497635054
 30
0.0
 11
2118.644514510862
 21
764.9095625264879
 31
0.0
  0
LINE
  5
A01
330
90F
100
AcDbEntity
  8
0
  6
Continuous
 62
     7
370
    15
100
AcDbLine
 10
2118.360401097163
 20
773.2216113622678
 30
0.0
 11
2118.36040109718
 21
766.5208497635054
 31
0.0
  0
LINE
  5
A02
330
90F
100
AcDbEntity
  8
0
  6
Continuous
 62
     7
370
    15
100
AcDbLine
 10
2120.960401097014
 20
766.5167859980575
 30
0.0
 11
2120.960401097015
 21
773.2216113622678
 31
0.0
  0
LINE
  5
A03
330
90F
100
AcDbEntity
  8
0
  6
Continuous
 62
     7
370
    15
100
AcDbLine
 10
2109.160401097012
 20
773.4716113622818
 30
0.0
 11
2106.560401097053
 21
773.4716113622819
 31
0.0
  0
LINE
  5
A04
330
90F
100
AcDbEntity
  8
0
  6
Continuous
 62
     7
370
    15
100
AcDbLine
 10
2109.160401097012
 20
773.4716113622818
 30
0.0
 11
2109.160401097015
 21
773.2216113622817
 31
0.0
  0
LINE
  5
A05
330
90F
100
AcDbEntity
  8
0
  6
Continuous
 62
     7
370
    15
100
AcDbLine
 10
2106.560401097163
 20
773.2216113622817
 30
0.0
 11
2106.560401097053
 21
773.4716113622819
 31
0.0
  0
LINE
  5
A06
330
90F
100
AcDbEntity
  8
0
  6
Continuous
 62
     7
370
    15
100
AcDbLine
 10
2126.860401097012
 20
773.471611362261
 30
0.0
 11
2124.260401097053
 21
773.4716113622611
 31
0.0
  0
LINE
  5
A07
330
90F
100
AcDbEntity
  8
0
  6
Continuous
 62
     7
370
    15
100
AcDbLine
 10
2126.860401097012
 20
773.471611362261
 30
0.0
 11
2126.860401097015
 21
773.2216113622609
 31
0.0
  0
LINE
  5
A08
330
90F
100
AcDbEntity
  8
0
  6
Continuous
 62
     7
370
    15
100
AcDbLine
 10
2124.260401097163
 20
773.2216113622609
 30
0.0
 11
2124.260401097053
 21
773.4716113622611
 31
0.0
  0
LINE
  5
A09
330
90F
100
AcDbEntity
  8
0
  6
Continuous
 62
     7
370
    15
100
AcDbLine
 10
2091.460401097012
 20
773.4716113622956
 30
0.0
 11
2088.860401097053
 21
773.4716113622957
 31
0.0
  0
LINE
  5
A0A
330
90F
100
AcDbEntity
  8
0
  6
Continuous
 62
     7
370
    15
100
AcDbLine
 10
2088.860401097164
 20
773.2216113622955
 30
0.0
 11
2088.860401097053
 21
773.4716113622957
 31
0.0
  0
LINE
  5
A0B
330
90F
100
AcDbEntity
  8
0
  6
Continuous
 62
     7
370
    15
100
AcDbLine
 10
2091.460401097012
 20
773.4716113622956
 30
0.0
 11
2091.460401097015
 21
773.2216113622955
 31
0.0
  0
LINE
  5
A0C
330
90F
100
AcDbEntity
  8
0
  6
Continuous
 62
     7
370
    15
100
AcDbLine
 10
2120.960401097012
 20
773.4716113622679
 30
0.0
 11
2118.360401097053
 21
773.471611362268
 31
0.0
  0
LINE
  5
A0D
330
90F
100
AcDbEntity
  8
0
  6
Continuous
 62
     7
370
    15
100
AcDbLine
 10
2118.360401097163
 20
773.2216113622678
 30
0.0
 11
2118.360401097053
 21
773.471611362268
 31
0.0
  0
LINE
  5
A0E
330
90F
100
AcDbEntity
  8
0
  6
Continuous
 62
     7
370
    15
100
AcDbLine
 10
2120.960401097012
 20
773.4716113622679
 30
0.0
 11
2120.960401097015
 21
773.2216113622678
 31
0.0
  0
LINE
  5
A0F
330
90F
100
AcDbEntity
  8
0
  6
Continuous
 62
     7
370
    15
100
AcDbLine
 10
2136.689197224416
 20
764.6203393886505
 30
0.0
 11
2138.032321521396
 21
764.6203393886505
 31
0.0
  0
ARC
  5
A10
330
90F
100
AcDbEntity
  8
0
  6
Continuous
 62
     7
370
    15
100
AcDbCircle
 10
2136.689197224416
 20
764.9703393886504
 30
0.0
 40
0.3499999999999659
100
AcDbArc
 50
189.9999999999846
 51
270.0
  0
LINE
  5
A11
330
90F
100
AcDbEntity
  8
0
  6
Continuous
 62
     7
370
    15
100
AcDbLine
 10
2136.06040109718
 20
766.5208497634845
 30
0.0
 11
2136.344514510863
 21
764.9095625264672
 31
0.0
  0
ARC
  5
A12
330
90F
100
AcDbEntity
  8
0
  6
Continuous
 62
     7
370
    15
100
AcDbCircle
 10
2138.032321521396
 20
764.9703393886504
 30
0.0
 40
0.3500000000000641
100
AcDbArc
 50
270.0
 51
350.0000000000025
  0
LINE
  5
A13
330
90F
100
AcDbEntity
  8
0
  6
Continuous
 62
     7
370
    15
100
AcDbLine
 10
2138.37700423495
 20
764.909562526467
 30
0.0
 11
2138.660401097014
 21
766.5167859980365
 31
0.0
  0
LINE
  5
A14
330
90F
100
AcDbEntity
  8
0
  6
Continuous
 62
     7
370
    15
100
AcDbLine
 10
2138.660401097014
 20
766.5167859980365
 30
0.0
 11
2138.660401097015
 21
773.221611362247
 31
0.0
  0
LINE
  5
A15
330
90F
100
AcDbEntity
  8
0
  6
Continuous
 62
     7
370
    15
100
AcDbLine
 10
2136.060401097163
 20
773.221611362247
 30
0.0
 11
2136.06040109718
 21
766.5208497634845
 31
0.0
  0
ARC
  5
A16
330
90F
100
AcDbEntity
  8
0
  6
Continuous
 62
     7
370
    15
100
AcDbCircle
 10
2143.932321521396
 20
764.9703393886434
 30
0.0
 40
0.3500000000000312
100
AcDbArc
 50
270.0
 51
350.0000000000025
  0
ARC
  5
A17
330
90F
100
AcDbEntity
  8
0
  6
Continuous
 62
     7
370
    15
100
AcDbCircle
 10
2142.589197224417
 20
764.9703393886434
 30
0.0
 40
0.3499999999999555
100
AcDbArc
 50
189.9999999999782
 51
270.0
  0
LINE
  5
A18
330
90F
100
AcDbEntity
  8
0
  6
Continuous
 62
     7
370
    15
100
AcDbLine
 10
2141.96040109718
 20
766.5208497634775
 30
0.0
 11
2142.244514510863
 21
764.9095625264601
 31
0.0
  0
LINE
  5
A19
330
90F
100
AcDbEntity
  8
0
  6
Continuous
 62
     7
370
    15
100
AcDbLine
 10
2142.589197224417
 20
764.6203393886435
 30
0.0
 11
2143.932321521396
 21
764.6203393886435
 31
0.0
  0
LINE
  5
A1A
330
90F
100
AcDbEntity
  8
0
  6
Continuous
 62
     7
370
    15
100
AcDbLine
 10
2141.960401097164
 20
773.2216113622399
 30
0.0
 11
2141.96040109718
 21
766.5208497634775
 31
0.0
  0
LINE
  5
A1B
330
90F
100
AcDbEntity
  8
0
  6
Continuous
 62
     7
370
    15
100
AcDbLine
 10
2144.27700423495
 20
764.90956252646
 30
0.0
 11
2144.560401097014
 21
766.5167859980295
 31
0.0
  0
LINE
  5
A1C
330
90F
100
AcDbEntity
  8
0
  6
Continuous
 62
     7
370
    15
100
AcDbLine
 10
2144.560401097014
 20
766.5167859980295
 30
0.0
 11
2144.560401097015
 21
773.2216113622399
 31
0.0
  0
LINE
  5
A1D
330
90F
100
AcDbEntity
  8
0
  6
Continuous
 62
     7
370
    15
100
AcDbLine
 10
2126.860401097012
 20
773.7216113622608
 30
0.0
 11
2124.260401097053
 21
773.7216113622608
 31
0.0
  0
LINE
  5
A1E
330
90F
100
AcDbEntity
  8
0
  6
Continuous
 62
     7
370
    15
100
AcDbLine
 10
2124.260401097053
 20
773.471611362261
 30
0.0
 11
2124.260401097053
 21
773.7216113622608
 31
0.0
  0
LINE
  5
A1F
330
90F
100
AcDbEntity
  8
0
  6
Continuous
 62
     7
370
    15
100
AcDbLine
 10
2126.860401097012
 20
773.7216113622608
 30
0.0
 11
2126.860401097012
 21
773.4716113622608
 31
0.0
  0
LINE
  5
A20
330
90F
100
AcDbEntity
  8
0
  6
Continuous
 62
     7
370
    15
100
AcDbLine
 10
2120.960401097012
 20
773.7216113622678
 30
0.0
 11
2118.360401097053
 21
773.7216113622678
 31
0.0
  0
LINE
  5
A21
330
90F
100
AcDbEntity
  8
0
  6
Continuous
 62
     7
370
    15
100
AcDbLine
 10
2118.360401097053
 20
773.4716113622679
 30
0.0
 11
2118.360401097053
 21
773.7216113622678
 31
0.0
  0
LINE
  5
A22
330
90F
100
AcDbEntity
  8
0
  6
Continuous
 62
     7
370
    15
100
AcDbLine
 10
2120.960401097012
 20
773.7216113622678
 30
0.0
 11
2120.960401097012
 21
773.4716113622678
 31
0.0
  0
LINE
  5
A23
330
90F
100
AcDbEntity
  8
0
  6
Continuous
 62
     7
370
    15
100
AcDbLine
 10
2138.660401097012
 20
773.7216113622468
 30
0.0
 11
2136.060401097053
 21
773.7216113622468
 31
0.0
  0
LINE
  5
A24
330
90F
100
AcDbEntity
  8
0
  6
Continuous
 62
     7
370
    15
100
AcDbLine
 10
2138.660401097012
 20
773.7216113622468
 30
0.0
 11
2138.660401097012
 21
773.4716113622469
 31
0.0
  0
LINE
  5
A25
330
90F
100
AcDbEntity
  8
0
  6
Continuous
 62
     7
370
    15
100
AcDbLine
 10
2136.060401097053
 20
773.4716113622471
 30
0.0
 11
2136.060401097053
 21
773.7216113622468
 31
0.0
  0
LINE
  5
A26
330
90F
100
AcDbEntity
  8
0
  6
Continuous
 62
     7
370
    15
100
AcDbLine
 10
2132.760401097012
 20
773.7216113622538
 30
0.0
 11
2130.160401097053
 21
773.7216113622538
 31
0.0
  0
LINE
  5
A27
330
90F
100
AcDbEntity
  8
0
  6
Continuous
 62
     7
370
    15
100
AcDbLine
 10
2130.160401097053
 20
773.4716113622539
 30
0.0
 11
2130.160401097053
 21
773.7216113622538
 31
0.0
  0
LINE
  5
A28
330
90F
100
AcDbEntity
  8
0
  6
Continuous
 62
     7
370
    15
100
AcDbLine
 10
2132.760401097012
 20
773.7216113622538
 30
0.0
 11
2132.760401097012
 21
773.4716113622538
 31
0.0
  0
LINE
  5
A29
330
90F
100
AcDbEntity
  8
0
  6
Continuous
 62
     7
370
    15
100
AcDbLine
 10
2115.060401097012
 20
773.7216113622746
 30
0.0
 11
2112.460401097053
 21
773.7216113622746
 31
0.0
  0
LINE
  5
A2A
330
90F
100
AcDbEntity
  8
0
  6
Continuous
 62
     7
370
    15
100
AcDbLine
 10
2112.460401097053
 20
773.4716113622749
 30
0.0
 11
2112.460401097053
 21
773.7216113622746
 31
0.0
  0
LINE
  5
A2B
330
90F
100
AcDbEntity
  8
0
  6
Continuous
 62
     7
370
    15
100
AcDbLine
 10
2115.060401097012
 20
773.7216113622746
 30
0.0
 11
2115.060401097012
 21
773.4716113622747
 31
0.0
  0
LINE
  5
A2C
330
90F
100
AcDbEntity
  8
0
  6
Continuous
 62
     7
370
    15
100
AcDbLine
 10
2103.260401097012
 20
773.7216113622885
 30
0.0
 11
2100.660401097053
 21
773.7216113622885
 31
0.0
  0
LINE
  5
A2D
330
90F
100
AcDbEntity
  8
0
  6
Continuous
 62
     7
370
    15
100
AcDbLine
 10
2103.260401097012
 20
773.7216113622885
 30
0.0
 11
2103.260401097012
 21
773.4716113622886
 31
0.0
  0
LINE
  5
A2E
330
90F
100
AcDbEntity
  8
0
  6
Continuous
 62
     7
370
    15
100
AcDbLine
 10
2100.660401097053
 20
773.4716113622887
 30
0.0
 11
2100.660401097053
 21
773.7216113622885
 31
0.0
  0
LINE
  5
A2F
330
90F
100
AcDbEntity
  8
0
  6
Continuous
 62
     7
370
    15
100
AcDbLine
 10
2144.560401097012
 20
773.7216113622399
 30
0.0
 11
2141.960401097053
 21
773.7216113622399
 31
0.0
  0
LINE
  5
A30
330
90F
100
AcDbEntity
  8
0
  6
Continuous
 62
     7
370
    15
100
AcDbLine
 10
2141.960401097053
 20
773.47161136224
 30
0.0
 11
2141.960401097053
 21
773.7216113622399
 31
0.0
  0
LINE
  5
A31
330
90F
100
AcDbEntity
  8
0
  6
Continuous
 62
     7
370
    15
100
AcDbLine
 10
2144.560401097012
 20
773.7216113622399
 30
0.0
 11
2144.560401097012
 21
773.47161136224
 31
0.0
  0
LINE
  5
A32
330
90F
100
AcDbEntity
  8
0
  6
Continuous
 62
     7
370
    15
100
AcDbLine
 10
2091.460401097012
 20
773.7216113622955
 30
0.0
 11
2088.860401097053
 21
773.7216113622955
 31
0.0
  0
LINE
  5
A33
330
90F
100
AcDbEntity
  8
0
  6
Continuous
 62
     7
370
    15
100
AcDbLine
 10
2088.860401097053
 20
773.4716113622956
 30
0.0
 11
2088.860401097053
 21
773.7216113622955
 31
0.0
  0
LINE
  5
A34
330
90F
100
AcDbEntity
  8
0
  6
Continuous
 62
     7
370
    15
100
AcDbLine
 10
2091.460401097012
 20
773.7216113622955
 30
0.0
 11
2091.460401097012
 21
773.4716113622956
 31
0.0
  0
LINE
  5
A35
330
90F
100
AcDbEntity
  8
0
  6
Continuous
 62
     7
370
    15
100
AcDbLine
 10
2109.160401097012
 20
773.7216113622817
 30
0.0
 11
2106.560401097053
 21
773.7216113622817
 31
0.0
  0
LINE
  5
A36
330
90F
100
AcDbEntity
  8
0
  6
Continuous
 62
     7
370
    15
100
AcDbLine
 10
2109.160401097012
 20
773.7216113622817
 30
0.0
 11
2109.160401097012
 21
773.4716113622817
 31
0.0
  0
LINE
  5
A37
330
90F
100
AcDbEntity
  8
0
  6
Continuous
 62
     7
370
    15
100
AcDbLine
 10
2106.560401097053
 20
773.4716113622818
 30
0.0
 11
2106.560401097053
 21
773.7216113622817
 31
0.0
  0
LINE
  5
A38
330
90F
100
AcDbEntity
  8
0
  6
Continuous
 62
     7
370
    15
100
AcDbLine
 10
2097.360401097012
 20
773.7216113622955
 30
0.0
 11
2094.760401097053
 21
773.7216113622955
 31
0.0
  0
LINE
  5
A39
330
90F
100
AcDbEntity
  8
0
  6
Continuous
 62
     7
370
    15
100
AcDbLine
 10
2097.360401097012
 20
773.7216113622955
 30
0.0
 11
2097.360401097012
 21
773.4716113622956
 31
0.0
  0
LINE
  5
A3A
330
90F
100
AcDbEntity
  8
0
  6
Continuous
 62
     7
370
    15
100
AcDbLine
 10
2094.760401097053
 20
773.4716113622956
 30
0.0
 11
2094.760401097053
 21
773.7216113622955
 31
0.0
  0
LINE
  5
A3B
330
90F
100
AcDbEntity
  8
0
  6
Continuous
 62
     7
370
    15
100
AcDbLine
 10
2097.360401097012
 20
774.4183393886792
 30
0.0
 11
2097.360401097012
 21
773.7216113622955
 31
0.0
  0
LINE
  5
A3C
330
90F
100
AcDbEntity
  8
0
  6
Continuous
 62
     7
370
    15
100
AcDbLine
 10
2094.760401097053
 20
773.7216113622955
 30
0.0
 11
2094.760401097014
 21
774.4183393886792
 31
0.0
  0
LINE
  5
A3D
330
90F
100
AcDbEntity
  8
0
  6
Continuous
 62
     7
370
    15
100
AcDbLine
 10
2118.360401097053
 20
773.7216113622678
 30
0.0
 11
2118.360401097014
 21
774.4183393886514
 31
0.0
  0
LINE
  5
A3E
330
90F
100
AcDbEntity
  8
0
  6
Continuous
 62
     7
370
    15
100
AcDbLine
 10
2120.960401097012
 20
774.4183393886514
 30
0.0
 11
2120.960401097012
 21
773.7216113622678
 31
0.0
  0
LINE
  5
A3F
330
90F
100
AcDbEntity
  8
0
  6
Continuous
 62
     7
370
    15
100
AcDbLine
 10
2112.460401097053
 20
773.7216113622746
 30
0.0
 11
2112.460401097013
 21
774.4183393886583
 31
0.0
  0
LINE
  5
A40
330
90F
100
AcDbEntity
  8
0
  6
Continuous
 62
     7
370
    15
100
AcDbLine
 10
2115.060401097012
 20
774.4183393886583
 30
0.0
 11
2115.060401097012
 21
773.7216113622746
 31
0.0
  0
LINE
  5
A41
330
90F
100
AcDbEntity
  8
0
  6
Continuous
 62
     7
370
    15
100
AcDbLine
 10
2103.260401097012
 20
774.4183393886721
 30
0.0
 11
2103.260401097012
 21
773.7216113622885
 31
0.0
  0
LINE
  5
A42
330
90F
100
AcDbEntity
  8
0
  6
Continuous
 62
     7
370
    15
100
AcDbLine
 10
2100.660401097053
 20
773.7216113622885
 30
0.0
 11
2100.660401097014
 21
774.4183393886721
 31
0.0
  0
LINE
  5
A43
330
90F
100
AcDbEntity
  8
0
  6
Continuous
 62
     7
370
    15
100
AcDbLine
 10
2109.160401097012
 20
774.4183393886653
 30
0.0
 11
2109.160401097012
 21
773.7216113622817
 31
0.0
  0
LINE
  5
A44
330
90F
100
AcDbEntity
  8
0
  6
Continuous
 62
     7
370
    15
100
AcDbLine
 10
2106.560401097053
 20
773.7216113622817
 30
0.0
 11
2106.560401097014
 21
774.4183393886653
 31
0.0
  0
LINE
  5
A45
330
90F
100
AcDbEntity
  8
0
  6
Continuous
 62
     7
370
    15
100
AcDbLine
 10
2124.260401097053
 20
773.7216113622608
 30
0.0
 11
2124.260401097014
 21
774.4183393886444
 31
0.0
  0
LINE
  5
A46
330
90F
100
AcDbEntity
  8
0
  6
Continuous
 62
     7
370
    15
100
AcDbLine
 10
2126.860401097012
 20
774.4183393886444
 30
0.0
 11
2126.860401097012
 21
773.7216113622608
 31
0.0
  0
LINE
  5
A47
330
90F
100
AcDbEntity
  8
0
  6
Continuous
 62
     7
370
    15
100
AcDbLine
 10
2141.960401097053
 20
773.7216113622399
 30
0.0
 11
2141.960401097013
 21
774.4183393886236
 31
0.0
  0
LINE
  5
A48
330
90F
100
AcDbEntity
  8
0
  6
Continuous
 62
     7
370
    15
100
AcDbLine
 10
2144.560401097012
 20
774.4183393886236
 30
0.0
 11
2144.560401097012
 21
773.7216113622399
 31
0.0
  0
LINE
  5
A49
330
90F
100
AcDbEntity
  8
0
  6
Continuous
 62
     7
370
    15
100
AcDbLine
 10
2130.160401097053
 20
773.7216113622538
 30
0.0
 11
2130.160401097014
 21
774.4183393886374
 31
0.0
  0
LINE
  5
A4A
330
90F
100
AcDbEntity
  8
0
  6
Continuous
 62
     7
370
    15
100
AcDbLine
 10
2132.760401097012
 20
774.4183393886374
 30
0.0
 11
2132.760401097012
 21
773.7216113622538
 31
0.0
  0
LINE
  5
A4B
330
90F
100
AcDbEntity
  8
0
  6
Continuous
 62
     7
370
    15
100
AcDbLine
 10
2138.660401097012
 20
774.4183393886305
 30
0.0
 11
2138.660401097012
 21
773.7216113622468
 31
0.0
  0
LINE
  5
A4C
330
90F
100
AcDbEntity
  8
0
  6
Continuous
 62
     7
370
    15
100
AcDbLine
 10
2136.060401097053
 20
773.7216113622468
 30
0.0
 11
2136.060401097013
 21
774.4183393886305
 31
0.0
  0
LINE
  5
A4D
330
90F
100
AcDbEntity
  8
0
  6
Continuous
 62
     7
370
    15
100
AcDbLine
 10
2088.860401097053
 20
773.7216113622955
 30
0.0
 11
2088.860401097013
 21
774.4183393886792
 31
0.0
  0
LINE
  5
A4E
330
90F
100
AcDbEntity
  8
0
  6
Continuous
 62
     7
370
    15
100
AcDbLine
 10
2091.460401097012
 20
774.4183393886792
 30
0.0
 11
2091.460401097012
 21
773.7216113622955
 31
0.0
  0
ENDBLK
  5
911
330
90F
100
AcDbEntity
  8
0
100
AcDbBlockEnd
  0
BLOCK
  5
A51
330
A50
100
AcDbEntity
  8
0
100
AcDbBlockBegin
  2
2
 70
     0
 10
0.0
 20
0.0
 30
0.0
  3
2
  1

  0
LINE
  5
A53
330
A50
100
AcDbEntity
  8
0
  6
Continuous
 62
     7
370
    15
100
AcDbLine
 10
2066.586484153495
 20
787.4683393886211
 30
0.0
 11
2067.287484153494
 21
787.4683393886211
 31
0.0
  0
LINE
  5
A54
330
A50
100
AcDbEntity
  8
0
  6
Continuous
 62
     7
370
    15
100
AcDbLine
 10
2066.586484153495
 20
782.9203393886174
 30
0.0
 11
2066.586484153495
 21
787.4683393886211
 31
0.0
  0
LINE
  5
A55
330
A50
100
AcDbEntity
  8
0
  6
Continuous
 62
     7
370
    15
100
AcDbLine
 10
2064.088484153494
 20
782.9203393886151
 30
0.0
 11
2066.586484153495
 21
782.9203393886174
 31
0.0
  0
LINE
  5
A56
330
A50
100
AcDbEntity
  8
0
  6
Continuous
 62
     7
370
    15
100
AcDbLine
 10
2064.088484153494
 20
787.4683393886205
 30
0.0
 11
2064.088484153494
 21
782.9203393886151
 31
0.0
  0
LINE
  5
A57
330
A50
100
AcDbEntity
  8
0
  6
Continuous
 62
     7
370
    15
100
AcDbLine
 10
2063.387484153494
 20
787.4683393886182
 30
0.0
 11
2064.088484153494
 21
787.4683393886205
 31
0.0
  0
LINE
  5
A58
330
A50
100
AcDbEntity
  8
0
  6
Continuous
 62
     7
370
    15
100
AcDbLine
 10
2063.387484153494
 20
787.4683393886182
 30
0.0
 11
2063.387484153494
 21
788.6183393886187
 31
0.0
  0
LINE
  5
A59
330
A50
100
AcDbEntity
  8
0
  6
Continuous
 62
     7
370
    15
100
AcDbLine
 10
2067.287484153494
 20
788.6183393886187
 30
0.0
 11
2067.287484153494
 21
787.4683393886211
 31
0.0
  0
LINE
  5
A5A
330
A50
100
AcDbEntity
  8
0
  6
Continuous
 62
     7
370
    15
100
AcDbLine
 10
2067.287484153494
 20
788.6183393886187
 30
0.0
 11
2063.387484153494
 21
788.6183393886187
 31
0.0
  0
LINE
  5
A5B
330
A50
100
AcDbEntity
  8
0
  6
Continuous
 62
     7
370
    15
100
AcDbLine
 10
2064.088484153494
 20
776.2203393886227
 30
0.0
 11
2066.586484153495
 21
776.2203393886227
 31
0.0
  0
LINE
  5
A5C
330
A50
100
AcDbEntity
  8
0
  6
Continuous
 62
     7
370
    15
100
AcDbLine
 10
2064.088484153494
 20
776.4203393886218
 30
0.0
 11
2066.586484153495
 21
776.4203393886218
 31
0.0
  0
LINE
  5
A5D
330
A50
100
AcDbEntity
  8
0
  6
Continuous
 62
     7
370
    15
100
AcDbLine
 10
2066.586484153495
 20
776.2203393886227
 30
0.0
 11
2066.586484153495
 21
776.4203393886218
 31
0.0
  0
LINE
  5
A5E
330
A50
100
AcDbEntity
  8
0
  6
Continuous
 62
     7
370
    15
100
AcDbLine
 10
2064.088484153494
 20
776.4203393886218
 30
0.0
 11
2064.088484153494
 21
776.2203393886227
 31
0.0
  0
LINE
  5
A5F
330
A50
100
AcDbEntity
  8
0
  6
Continuous
 62
     7
370
    15
100
AcDbLine
 10
2066.586484153495
 20
776.4203393886218
 30
0.0
 11
2066.586484153495
 21
782.920339388618
 31
0.0
  0
LINE
  5
A60
330
A50
100
AcDbEntity
  8
0
  6
Continuous
 62
     7
370
    15
100
AcDbLine
 10
2064.088484153494
 20
782.9203393886158
 30
0.0
 11
2064.088484153494
 21
776.4203393886218
 31
0.0
  0
LINE
  5
A61
330
A50
100
AcDbEntity
  8
0
  6
Continuous
 62
     7
370
    15
100
AcDbLine
 10
2066.537484153494
 20
774.7183393886237
 30
0.0
 11
2066.237484153495
 21
774.4183393886235
 31
0.0
  0
LINE
  5
A62
330
A50
100
AcDbEntity
  8
0
  6
Continuous
 62
     7
370
    15
100
AcDbLine
 10
2066.237484153495
 20
774.4183393886235
 30
0.0
 11
2064.437484153494
 21
774.4183393886235
 31
0.0
  0
LINE
  5
A63
330
A50
100
AcDbEntity
  8
0
  6
Continuous
 62
     7
370
    15
100
AcDbLine
 10
2064.437484153494
 20
774.4183393886235
 30
0.0
 11
2064.137484153494
 21
774.7183393886237
 31
0.0
  0
LINE
  5
A64
330
A50
100
AcDbEntity
  8
0
  6
Continuous
 62
     7
370
    15
100
AcDbLine
 10
2064.137484153494
 20
774.7183393886237
 30
0.0
 11
2066.537484153494
 21
774.7183393886237
 31
0.0
  0
LINE
  5
A65
330
A50
100
AcDbEntity
  8
0
  6
Continuous
 62
     7
370
    15
100
AcDbLine
 10
2064.088484153494
 20
774.7183393886238
 30
0.0
 11
2064.137484153494
 21
774.7183393886237
 31
0.0
  0
LINE
  5
A66
330
A50
100
AcDbEntity
  8
0
  6
Continuous
 62
     7
370
    15
100
AcDbLine
 10
2066.537484153494
 20
774.7183393886237
 30
0.0
 11
2066.586484153495
 21
774.7183393886238
 31
0.0
  0
LINE
  5
A67
330
A50
100
AcDbEntity
  8
0
  6
Continuous
 62
     7
370
    15
100
AcDbLine
 10
2066.586484153495
 20
774.7183393886238
 30
0.0
 11
2066.586484153495
 21
776.2203393886227
 31
0.0
  0
LINE
  5
A68
330
A50
100
AcDbEntity
  8
0
  6
Continuous
 62
     7
370
    15
100
AcDbLine
 10
2064.088484153494
 20
776.2203393886227
 30
0.0
 11
2064.088484153494
 21
774.7183393886238
 31
0.0
  0
LINE
  5
A69
330
A50
100
AcDbEntity
  8
0
  6
Continuous
 62
     7
370
    15
100
AcDbLine
 10
2064.585484153495
 20
773.47161136224
 30
0.0
 11
2064.387650363262
 21
773.47161136224
 31
0.0
  0
ARC
  5
A6A
330
A50
100
AcDbEntity
  8
0
  6
Continuous
 62
     7
370
    15
100
AcDbCircle
 10
2064.585484153495
 20
773.7216113622399
 30
0.0
 40
0.2500000000000853
100
AcDbArc
 50
270.0
 51
0.0
  0
LINE
  5
A6B
330
A50
100
AcDbEntity
  8
0
  6
Continuous
 62
     7
370
    15
100
AcDbLine
 10
2064.835484153495
 20
774.4183393886236
 30
0.0
 11
2064.835484153495
 21
773.7216113622399
 31
0.0
  0
ARC
  5
A6C
330
A50
100
AcDbEntity
  8
0
  6
Continuous
 62
     7
370
    15
100
AcDbCircle
 10
2066.089484153495
 20
773.7216113622399
 30
0.0
 40
0.2500000000000853
100
AcDbArc
 50
179.9999999997915
 51
270.0
  0
LINE
  5
A6D
330
A50
100
AcDbEntity
  8
0
  6
Continuous
 62
     7
370
    15
100
AcDbLine
 10
2066.287317943738
 20
773.4716113622401
 30
0.0
 11
2066.089484153495
 21
773.47161136224
 31
0.0
  0
ARC
  5
A6E
330
A50
100
AcDbEntity
  8
0
  6
Continuous
 62
     7
370
    15
100
AcDbCircle
 10
2066.287317943738
 20
773.2216113622399
 30
0.0
 40
0.2500000000001989
100
AcDbArc
 50
0.0000000002149546
 51
90.0
  0
LINE
  5
A6F
330
A50
100
AcDbEntity
  8
0
  6
Continuous
 62
     7
370
    15
100
AcDbLine
 10
2066.537317943739
 20
773.2216113622399
 30
0.0
 11
2066.537317943739
 21
766.5167859980321
 31
0.0
  0
LINE
  5
A70
330
A50
100
AcDbEntity
  8
0
  6
Continuous
 62
     7
370
    15
100
AcDbLine
 10
2064.137650363262
 20
766.5167859980295
 30
0.0
 11
2066.537317943739
 21
766.5167859980321
 31
0.0
  0
LINE
  5
A71
330
A50
100
AcDbEntity
  8
0
  6
Continuous
 62
     7
370
    15
100
AcDbLine
 10
2064.137650363262
 20
766.5167859980295
 30
0.0
 11
2064.137650363262
 21
773.2216113622399
 31
0.0
  0
ARC
  5
A72
330
A50
100
AcDbEntity
  8
0
  6
Continuous
 62
     7
370
    15
100
AcDbCircle
 10
2064.387650363262
 20
773.2216113622399
 30
0.0
 40
0.2500000000000853
100
AcDbArc
 50
90.0
 51
179.9999999998306
  0
LINE
  5
A73
330
A50
100
AcDbEntity
  8
0
  6
Continuous
 62
     7
370
    15
100
AcDbLine
 10
2065.839484153495
 20
773.7216113622399
 30
0.0
 11
2065.839484153495
 21
774.4183393886236
 31
0.0
  0
LINE
  5
A74
330
A50
100
AcDbEntity
  8
0
  6
Continuous
 62
     7
370
    15
100
AcDbLine
 10
2066.537317943739
 20
764.90956252646
 30
0.0
 11
2064.137650363262
 21
764.90956252646
 31
0.0
  0
LINE
  5
A75
330
A50
100
AcDbEntity
  8
0
  6
Continuous
 62
     7
370
    15
100
AcDbLine
 10
2064.137650363262
 20
764.90956252646
 30
0.0
 11
2064.137650363262
 21
766.5167859980295
 31
0.0
  0
LINE
  5
A76
330
A50
100
AcDbEntity
  8
0
  6
Continuous
 62
     7
370
    15
100
AcDbLine
 10
2066.537317943739
 20
766.5167859980321
 30
0.0
 11
2066.537317943739
 21
764.90956252646
 31
0.0
  0
LINE
  5
A77
330
A50
100
AcDbEntity
  8
0
  6
Continuous
 62
     7
370
    15
100
AcDbLine
 10
2066.586484153495
 20
780.8183393886192
 30
0.0
 11
2066.836484153495
 21
780.8183393886192
 31
0.0
  0
LINE
  5
A78
330
A50
100
AcDbEntity
  8
0
  6
Continuous
 62
     7
370
    15
100
AcDbLine
 10
2066.836484153495
 20
780.8183393886192
 30
0.0
 11
2066.586484153495
 21
779.518339388617
 31
0.0
  0
LINE
  5
A79
330
A50
100
AcDbEntity
  8
0
  6
Continuous
 62
     7
370
    15
100
AcDbLine
 10
2064.088484153494
 20
779.5183393886234
 30
0.0
 11
2063.838484153495
 21
780.8183393886192
 31
0.0
  0
LINE
  5
A7A
330
A50
100
AcDbEntity
  8
0
  6
Continuous
 62
     7
370
    15
100
AcDbLine
 10
2063.838484153495
 20
780.8183393886192
 30
0.0
 11
2064.088484153494
 21
780.8183393886192
 31
0.0
  0
LINE
  5
A7B
330
A50
100
AcDbEntity
  8
0
  6
Continuous
 62
     7
370
    15
100
AcDbLine
 10
2064.137650363262
 20
764.6203393886435
 30
0.0
 11
2066.537317943739
 21
764.6203393886435
 31
0.0
  0
LINE
  5
A7C
330
A50
100
AcDbEntity
  8
0
  6
Continuous
 62
     7
370
    15
100
AcDbLine
 10
2064.137650363262
 20
764.90956252646
 30
0.0
 11
2064.137650363262
 21
764.6203393886435
 31
0.0
  0
LINE
  5
A7D
330
A50
100
AcDbEntity
  8
0
  6
Continuous
 62
     7
370
    15
100
AcDbLine
 10
2066.537317943739
 20
764.6203393886435
 30
0.0
 11
2066.537317943739
 21
764.90956252646
 31
0.0
  0
ENDBLK
  5
A52
330
A50
100
AcDbEntity
  8
0
100
AcDbBlockEnd
  0
BLOCK
  5
A80
330
A7F
100
AcDbEntity
  8
0
100
AcDbBlockBegin
  2
3
 70
     0
 10
0.0
 20
0.0
 30
0.0
  3
3
  1

  0
LINE
  5
A82
330
A7F
100
AcDbEntity
  8
0
  6
Continuous
 62
     7
370
    15
100
AcDbLine
 10
2145.710401097013
 20
740.0659772624473
 30
0.0
 11
2145.710401097013
 21
736.1659772624473
 31
0.0
  0
LINE
  5
A83
330
A7F
100
AcDbEntity
  8
0
  6
Continuous
 62
     7
370
    15
100
AcDbLine
 10
2087.710401097018
 20
736.1659772624473
 30
0.0
 11
2145.710401097013
 21
736.1659772624473
 31
0.0
  0
LINE
  5
A84
330
A7F
100
AcDbEntity
  8
0
  6
Continuous
 62
     7
370
    15
100
AcDbLine
 10
2087.710401097018
 20
736.1659772624473
 30
0.0
 11
2087.710401097018
 21
740.0659772624473
 31
0.0
  0
LINE
  5
A85
330
A7F
100
AcDbEntity
  8
0
  6
Continuous
 62
     7
370
    15
100
AcDbLine
 10
2145.710401097013
 20
740.0659772624473
 30
0.0
 11
2087.710401097018
 21
740.0659772624473
 31
0.0
  0
ENDBLK
  5
A81
330
A7F
100
AcDbEntity
  8
0
100
AcDbBlockEnd
  0
BLOCK
  5
A88
330
A87
100
AcDbEntity
  8
0
100
AcDbBlockBegin
  2
4
 70
     0
 10
0.0
 20
0.0
 30
0.0
  3
4
  1

  0
LINE
  5
A8A
330
A87
100
AcDbEntity
  8
0
  6
Continuous
 62
     7
370
    15
100
AcDbLine
 10
2170.017467126587
 20
766.5861856721821
 30
0.0
 11
2169.575810975281
 21
766.331223003066
 31
0.0
  0
LINE
  5
A8B
330
A87
100
AcDbEntity
  8
0
  6
Continuous
 62
     7
370
    15
100
AcDbLine
 10
2174.189397135588
 20
768.9945896020589
 30
0.0
 11
2173.747740984282
 21
768.7396269329431
 31
0.0
  0
LINE
  5
A8C
330
A87
100
AcDbEntity
  8
0
  6
Continuous
 62
     7
370
    15
100
AcDbLine
 10
2169.793664348824
 20
759.4328215126371
 30
0.0
 11
2171.490485567572
 21
758.4532674734478
 31
0.0
  0
LINE
  5
A8D
330
A87
100
AcDbEntity
  8
0
  6
Continuous
 62
     7
370
    15
100
AcDbLine
 10
2178.361327144588
 20
771.4029935319302
 30
0.0
 11
2177.919670993282
 21
771.1480308628142
 31
0.0
  0
LINE
  5
A8E
330
A87
100
AcDbEntity
  8
0
  6
Continuous
 62
     7
370
    15
100
AcDbLine
 10
2173.965594357825
 20
761.841225442514
 30
0.0
 11
2175.662415576573
 21
760.8616714033247
 31
0.0
  0
LINE
  5
A8F
330
A87
100
AcDbEntity
  8
0
  6
Continuous
 62
     7
370
    15
100
AcDbLine
 10
2182.533257153589
 20
773.8113974618017
 30
0.0
 11
2182.091601002282
 21
773.5564347926856
 31
0.0
  0
LINE
  5
A90
330
A87
100
AcDbEntity
  8
0
  6
Continuous
 62
     7
370
    15
100
AcDbLine
 10
2178.137524366825
 20
764.2496293723852
 30
0.0
 11
2179.834345585573
 21
763.2700753331959
 31
0.0
  0
LINE
  5
A91
330
A87
100
AcDbEntity
  8
0
  6
Continuous
 62
     7
370
    15
100
AcDbLine
 10
2186.705187162589
 20
776.2198013916729
 30
0.0
 11
2186.263531011283
 21
775.9648387225569
 31
0.0
  0
LINE
  5
A92
330
A87
100
AcDbEntity
  8
0
  6
Continuous
 62
     7
370
    15
100
AcDbLine
 10
2182.309454375825
 20
766.6580333022567
 30
0.0
 11
2184.006275594574
 21
765.6784792630674
 31
0.0
  0
LINE
  5
A93
330
A87
100
AcDbEntity
  8
0
  6
Continuous
 62
     7
370
    15
100
AcDbLine
 10
2190.87711717159
 20
778.6282053215444
 30
0.0
 11
2190.435461020284
 21
778.3732426524283
 31
0.0
  0
LINE
  5
A94
330
A87
100
AcDbEntity
  8
0
  6
Continuous
 62
     7
370
    15
100
AcDbLine
 10
2186.481384384826
 20
769.066437232128
 30
0.0
 11
2188.178205603575
 21
768.0868831929386
 31
0.0
  0
LINE
  5
A95
330
A87
100
AcDbEntity
  8
0
  6
Continuous
 62
     7
370
    15
100
AcDbLine
 10
2195.049047180591
 20
781.0366092514156
 30
0.0
 11
2194.607391029284
 21
780.7816465822996
 31
0.0
  0
LINE
  5
A96
330
A87
100
AcDbEntity
  8
0
  6
Continuous
 62
     7
370
    15
100
AcDbLine
 10
2190.653314393827
 20
771.4748411619994
 30
0.0
 11
2192.350135612575
 21
770.4952871228099
 31
0.0
  0
LINE
  5
A97
330
A87
100
AcDbEntity
  8
0
  6
Continuous
 62
     7
370
    15
100
AcDbLine
 10
2199.220977189591
 20
783.445013181287
 30
0.0
 11
2198.779321038285
 21
783.1900505121708
 31
0.0
  0
LINE
  5
A98
330
A87
100
AcDbEntity
  8
0
  6
Continuous
 62
     7
370
    15
100
AcDbLine
 10
2194.825244402828
 20
773.8832450918705
 30
0.0
 11
2196.522065621576
 21
772.9036910526811
 31
0.0
  0
LINE
  5
A99
330
A87
100
AcDbEntity
  8
0
  6
Continuous
 62
     7
370
    15
100
AcDbLine
 10
2203.392907198592
 20
785.8534171111582
 30
0.0
 11
2202.951251047286
 21
785.5984544420422
 31
0.0
  0
LINE
  5
A9A
330
A87
100
AcDbEntity
  8
0
  6
Continuous
 62
     7
370
    15
100
AcDbLine
 10
2198.997174411829
 20
776.2916490217419
 30
0.0
 11
2200.693995630576
 21
775.3120949825524
 31
0.0
  0
LINE
  5
A9B
330
A87
100
AcDbEntity
  8
0
  6
Continuous
 62
     7
370
    15
100
AcDbLine
 10
2207.564837207593
 20
788.2618210410296
 30
0.0
 11
2207.123181056287
 21
788.0068583719134
 31
0.0
  0
LINE
  5
A9C
330
A87
100
AcDbEntity
  8
0
  6
Continuous
 62
     7
370
    15
100
AcDbLine
 10
2203.169104420829
 20
778.7000529516133
 30
0.0
 11
2204.865925639577
 21
777.7204989124238
 31
0.0
  0
LINE
  5
A9D
330
A87
100
AcDbEntity
  8
0
  6
Continuous
 62
     7
370
    15
100
AcDbLine
 10
2207.34103442983
 20
781.1084568814846
 30
0.0
 11
2209.037855648578
 21
780.1289028422952
 31
0.0
  0
LINE
  5
A9E
330
A87
100
AcDbEntity
  8
0
  6
Continuous
 62
     7
370
    15
100
AcDbLine
 10
2209.192597017884
 20
802.3014400723218
 30
0.0
 11
2211.950313464511
 21
800.7094442542674
 31
0.0
  0
LINE
  5
A9F
330
A87
100
AcDbEntity
  8
0
  6
Continuous
 62
     7
370
    15
100
AcDbLine
 10
2170.938120155696
 20
777.0336090114565
 30
0.0
 11
2211.950313464511
 21
800.7094442542674
 31
0.0
  0
LINE
  5
AA0
330
A87
100
AcDbEntity
  8
0
  6
Continuous
 62
     7
370
    15
100
AcDbLine
 10
2170.938120155696
 20
777.0336090114565
 30
0.0
 11
2168.180403709068
 21
778.6256048295107
 31
0.0
  0
LINE
  5
AA1
330
A87
100
AcDbEntity
  8
0
  6
Continuous
 62
     7
370
    15
100
AcDbLine
 10
2209.192597017884
 20
802.3014400723218
 30
0.0
 11
2168.180403709068
 21
778.6256048295107
 31
0.0
  0
LINE
  5
AA2
330
A87
100
AcDbEntity
  8
0
  6
Continuous
 62
     7
370
    15
100
AcDbLine
 10
2170.938120155696
 20
776.0945870777881
 30
0.0
 11
2170.938120155696
 21
777.0336090114565
 31
0.0
  0
LINE
  5
AA3
330
A87
100
AcDbEntity
  8
0
  6
Continuous
 62
     7
370
    15
100
AcDbLine
 10
2211.950313464511
 20
799.7704223205986
 30
0.0
 11
2211.950313464511
 21
800.7094442542674
 31
0.0
  0
LINE
  5
AA4
330
A87
100
AcDbEntity
  8
0
  6
Continuous
 62
     7
370
    15
100
AcDbLine
 10
2170.938120155696
 20
776.0945870777881
 30
0.0
 11
2211.950313464511
 21
799.7704223205986
 31
0.0
  0
LINE
  5
AA5
330
A87
100
AcDbEntity
  8
0
  6
Continuous
 62
     7
370
    15
100
AcDbLine
 10
2170.442438302084
 20
776.3807381209832
 30
0.0
 11
2170.938120155696
 21
776.0945870777881
 31
0.0
  0
LINE
  5
AA6
330
A87
100
AcDbEntity
  8
0
  6
Continuous
 62
     7
370
    15
100
AcDbLine
 10
2170.442438302084
 20
772.667110508523
 30
0.0
 11
2170.442438302084
 21
776.3807381209832
 31
0.0
  0
LINE
  5
AA7
330
A87
100
AcDbEntity
  8
0
  6
Continuous
 62
     7
370
    15
100
AcDbLine
 10
2168.67608556268
 20
773.6868042401916
 30
0.0
 11
2170.442438302084
 21
772.667110508523
 31
0.0
  0
LINE
  5
AA8
330
A87
100
AcDbEntity
  8
0
  6
Continuous
 62
     7
370
    15
100
AcDbLine
 10
2168.67608556268
 20
777.4004318526512
 30
0.0
 11
2168.67608556268
 21
773.6868042401916
 31
0.0
  0
LINE
  5
AA9
330
A87
100
AcDbEntity
  8
0
  6
Continuous
 62
     7
370
    15
100
AcDbLine
 10
2168.180403709068
 20
777.6865828958455
 30
0.0
 11
2168.67608556268
 21
777.4004318526512
 31
0.0
  0
LINE
  5
AAA
330
A87
100
AcDbEntity
  8
0
  6
Continuous
 62
     7
370
    15
100
AcDbLine
 10
2168.180403709068
 20
777.6865828958455
 30
0.0
 11
2168.180403709068
 21
778.6256048295107
 31
0.0
  0
LINE
  5
AAB
330
A87
100
AcDbEntity
  8
0
  6
Continuous
 62
     7
370
    15
100
AcDbLine
 10
2208.838336520585
 20
793.1162219579245
 30
0.0
 11
2208.838336520585
 21
792.0547189024733
 31
0.0
  0
LINE
  5
AAC
330
A87
100
AcDbEntity
  8
0
  6
Continuous
 62
     7
370
    15
100
AcDbLine
 10
2210.606103473552
 20
793.0752290422549
 30
0.0
 11
2208.838336520585
 21
792.0547189024733
 31
0.0
  0
LINE
  5
AAD
330
A87
100
AcDbEntity
  8
0
  6
Continuous
 62
     7
370
    15
100
AcDbLine
 10
2210.606103473552
 20
794.136732097703
 30
0.0
 11
2208.838336520585
 21
793.1162219579245
 31
0.0
  0
LINE
  5
AAE
330
A87
100
AcDbEntity
  8
0
  6
Continuous
 62
     7
370
    15
100
AcDbLine
 10
2204.666406511585
 20
790.7078180280532
 30
0.0
 11
2204.666406511584
 21
789.6463149726018
 31
0.0
  0
LINE
  5
AAF
330
A87
100
AcDbEntity
  8
0
  6
Continuous
 62
     7
370
    15
100
AcDbLine
 10
2206.434173464551
 20
790.6668251123835
 30
0.0
 11
2204.666406511584
 21
789.6463149726018
 31
0.0
  0
LINE
  5
AB0
330
A87
100
AcDbEntity
  8
0
  6
Continuous
 62
     7
370
    15
100
AcDbLine
 10
2206.434173464551
 20
791.7283281678317
 30
0.0
 11
2204.666406511585
 21
790.7078180280532
 31
0.0
  0
LINE
  5
AB1
330
A87
100
AcDbEntity
  8
0
  6
Continuous
 62
     7
370
    15
100
AcDbLine
 10
2196.322546493583
 20
785.8910101683104
 30
0.0
 11
2196.322546493583
 21
784.8295071128593
 31
0.0
  0
LINE
  5
AB2
330
A87
100
AcDbEntity
  8
0
  6
Continuous
 62
     7
370
    15
100
AcDbLine
 10
2198.09031344655
 20
785.8500172526407
 30
0.0
 11
2196.322546493583
 21
784.8295071128593
 31
0.0
  0
LINE
  5
AB3
330
A87
100
AcDbEntity
  8
0
  6
Continuous
 62
     7
370
    15
100
AcDbLine
 10
2198.09031344655
 20
786.9115203080888
 30
0.0
 11
2196.322546493583
 21
785.8910101683104
 31
0.0
  0
LINE
  5
AB4
330
A87
100
AcDbEntity
  8
0
  6
Continuous
 62
     7
370
    15
100
AcDbLine
 10
2179.634826457581
 20
776.2573944488253
 30
0.0
 11
2179.63482645758
 21
775.1958913933742
 31
0.0
  0
LINE
  5
AB5
330
A87
100
AcDbEntity
  8
0
  6
Continuous
 62
     7
370
    15
100
AcDbLine
 10
2181.402593410547
 20
776.2164015331555
 30
0.0
 11
2179.63482645758
 21
775.1958913933742
 31
0.0
  0
LINE
  5
AB6
330
A87
100
AcDbEntity
  8
0
  6
Continuous
 62
     7
370
    15
100
AcDbLine
 10
2181.402593410547
 20
777.2779045886037
 30
0.0
 11
2179.634826457581
 21
776.2573944488253
 31
0.0
  0
LINE
  5
AB7
330
A87
100
AcDbEntity
  8
0
  6
Continuous
 62
     7
370
    15
100
AcDbLine
 10
2175.46289644858
 20
773.8489905189539
 30
0.0
 11
2175.46289644858
 21
772.7874874635028
 31
0.0
  0
LINE
  5
AB8
330
A87
100
AcDbEntity
  8
0
  6
Continuous
 62
     7
370
    15
100
AcDbLine
 10
2177.230663401547
 20
773.8079976032843
 30
0.0
 11
2175.46289644858
 21
772.7874874635028
 31
0.0
  0
LINE
  5
AB9
330
A87
100
AcDbEntity
  8
0
  6
Continuous
 62
     7
370
    15
100
AcDbLine
 10
2177.230663401547
 20
774.8695006587324
 30
0.0
 11
2175.46289644858
 21
773.8489905189539
 31
0.0
  0
LINE
  5
ABA
330
A87
100
AcDbEntity
  8
0
  6
Continuous
 62
     7
370
    15
100
AcDbLine
 10
2171.290966439579
 20
771.4405865890764
 30
0.0
 11
2171.290966439579
 21
770.379083533625
 31
0.0
  0
LINE
  5
ABB
330
A87
100
AcDbEntity
  8
0
  6
Continuous
 62
     7
370
    15
100
AcDbLine
 10
2173.058733392546
 20
771.3995936734038
 30
0.0
 11
2171.290966439579
 21
770.379083533625
 31
0.0
  0
LINE
  5
ABC
330
A87
100
AcDbEntity
  8
0
  6
Continuous
 62
     7
370
    15
100
AcDbLine
 10
2173.058733392546
 20
772.4610967288549
 30
0.0
 11
2171.290966439579
 21
771.4405865890764
 31
0.0
  0
LINE
  5
ABD
330
A87
100
AcDbEntity
  8
0
  6
Continuous
 62
     7
370
    15
100
AcDbLine
 10
2183.806756466582
 20
778.6657983786965
 30
0.0
 11
2183.806756466581
 21
777.6042953232454
 31
0.0
  0
LINE
  5
ABE
330
A87
100
AcDbEntity
  8
0
  6
Continuous
 62
     7
370
    15
100
AcDbLine
 10
2185.574523419548
 20
778.6248054630268
 30
0.0
 11
2183.806756466581
 21
777.6042953232454
 31
0.0
  0
LINE
  5
ABF
330
A87
100
AcDbEntity
  8
0
  6
Continuous
 62
     7
370
    15
100
AcDbLine
 10
2185.574523419548
 20
779.6863085184749
 30
0.0
 11
2183.806756466582
 21
778.6657983786965
 31
0.0
  0
LINE
  5
AC0
330
A87
100
AcDbEntity
  8
0
  6
Continuous
 62
     7
370
    15
100
AcDbLine
 10
2187.978686475582
 20
781.0742023085679
 30
0.0
 11
2187.978686475581
 21
780.0126992531167
 31
0.0
  0
LINE
  5
AC1
330
A87
100
AcDbEntity
  8
0
  6
Continuous
 62
     7
370
    15
100
AcDbLine
 10
2189.746453428548
 20
781.0332093928981
 30
0.0
 11
2187.978686475581
 21
780.0126992531167
 31
0.0
  0
LINE
  5
AC2
330
A87
100
AcDbEntity
  8
0
  6
Continuous
 62
     7
370
    15
100
AcDbLine
 10
2189.746453428548
 20
782.0947124483462
 30
0.0
 11
2187.978686475582
 21
781.0742023085679
 31
0.0
  0
LINE
  5
AC3
330
A87
100
AcDbEntity
  8
0
  6
Continuous
 62
     7
370
    15
100
AcDbLine
 10
2192.150616484583
 20
783.4826062384393
 30
0.0
 11
2192.150616484582
 21
782.4211031829881
 31
0.0
  0
LINE
  5
AC4
330
A87
100
AcDbEntity
  8
0
  6
Continuous
 62
     7
370
    15
100
AcDbLine
 10
2193.918383437549
 20
783.4416133227696
 30
0.0
 11
2192.150616484582
 21
782.4211031829881
 31
0.0
  0
LINE
  5
AC5
330
A87
100
AcDbEntity
  8
0
  6
Continuous
 62
     7
370
    15
100
AcDbLine
 10
2193.918383437549
 20
784.5031163782176
 30
0.0
 11
2192.150616484583
 21
783.4826062384393
 31
0.0
  0
LINE
  5
AC6
330
A87
100
AcDbEntity
  8
0
  6
Continuous
 62
     7
370
    15
100
AcDbLine
 10
2200.494476502584
 20
788.2994140981818
 30
0.0
 11
2200.494476502584
 21
787.2379110427305
 31
0.0
  0
LINE
  5
AC7
330
A87
100
AcDbEntity
  8
0
  6
Continuous
 62
     7
370
    15
100
AcDbLine
 10
2202.26224345555
 20
788.2584211825121
 30
0.0
 11
2200.494476502584
 21
787.2379110427305
 31
0.0
  0
LINE
  5
AC8
330
A87
100
AcDbEntity
  8
0
  6
Continuous
 62
     7
370
    15
100
AcDbLine
 10
2202.26224345555
 20
789.3199242379602
 30
0.0
 11
2200.494476502584
 21
788.2994140981818
 31
0.0
  0
LINE
  5
AC9
330
A87
100
AcDbEntity
  8
0
  6
Continuous
 62
     7
370
    15
100
AcDbLine
 10
2206.858437533187
 20
793.6896193879156
 30
0.0
 11
2206.858437533187
 21
788.3821041106634
 31
0.0
  0
LINE
  5
ACA
330
A87
100
AcDbEntity
  8
0
  6
Continuous
 62
     7
370
    15
100
AcDbLine
 10
2206.858437533187
 20
788.3821041106634
 30
0.0
 11
2206.717016176952
 21
788.1371551371057
 31
0.0
  0
LINE
  5
ACB
330
A87
100
AcDbEntity
  8
0
  6
Continuous
 62
     7
370
    15
100
AcDbLine
 10
2206.717016176952
 20
788.1371551371057
 30
0.0
 11
2206.717016176952
 21
786.9107108376542
 31
0.0
  0
LINE
  5
ACC
330
A87
100
AcDbEntity
  8
0
  6
Continuous
 62
     7
370
    15
100
AcDbLine
 10
2206.717016176952
 20
786.9107108376542
 30
0.0
 11
2204.383563799035
 21
785.5636374531461
 31
0.0
  0
LINE
  5
ACD
330
A87
100
AcDbEntity
  8
0
  6
Continuous
 62
     7
370
    15
100
AcDbLine
 10
2204.383563799035
 20
786.7900817525975
 30
0.0
 11
2204.383563799035
 21
785.5636374531461
 31
0.0
  0
LINE
  5
ACE
330
A87
100
AcDbEntity
  8
0
  6
Continuous
 62
     7
370
    15
100
AcDbLine
 10
2204.242142442797
 20
786.8717491037927
 30
0.0
 11
2204.383563799035
 21
786.7900817525975
 31
0.0
  0
LINE
  5
ACF
330
A87
100
AcDbEntity
  8
0
  6
Continuous
 62
     7
370
    15
100
AcDbLine
 10
2204.242142442797
 20
786.8717491037927
 30
0.0
 11
2204.242142442799
 21
792.17926438107
 31
0.0
  0
LINE
  5
AD0
330
A87
100
AcDbEntity
  8
0
  6
Continuous
 62
     7
370
    15
100
AcDbLine
 10
2202.686507524186
 20
791.2812154580442
 30
0.0
 11
2204.242142442799
 21
792.17926438107
 31
0.0
  0
LINE
  5
AD1
330
A87
100
AcDbEntity
  8
0
  6
Continuous
 62
     7
370
    15
100
AcDbLine
 10
2202.686507524186
 20
791.2812154580442
 30
0.0
 11
2202.686507524187
 21
785.973700180792
 31
0.0
  0
LINE
  5
AD2
330
A87
100
AcDbEntity
  8
0
  6
Continuous
 62
     7
370
    15
100
AcDbLine
 10
2202.686507524187
 20
785.973700180792
 30
0.0
 11
2202.545086167951
 21
785.7287512072343
 31
0.0
  0
LINE
  5
AD3
330
A87
100
AcDbEntity
  8
0
  6
Continuous
 62
     7
370
    15
100
AcDbLine
 10
2202.545086167951
 20
785.7287512072343
 30
0.0
 11
2202.545086167951
 21
784.5023069077829
 31
0.0
  0
LINE
  5
AD4
330
A87
100
AcDbEntity
  8
0
  6
Continuous
 62
     7
370
    15
100
AcDbLine
 10
2202.545086167951
 20
784.5023069077829
 30
0.0
 11
2200.211633790035
 21
783.1552335232749
 31
0.0
  0
LINE
  5
AD5
330
A87
100
AcDbEntity
  8
0
  6
Continuous
 62
     7
370
    15
100
AcDbLine
 10
2200.211633790035
 20
784.3816778227262
 30
0.0
 11
2200.211633790035
 21
783.1552335232749
 31
0.0
  0
LINE
  5
AD6
330
A87
100
AcDbEntity
  8
0
  6
Continuous
 62
     7
370
    15
100
AcDbLine
 10
2200.070212433797
 20
784.4633451739213
 30
0.0
 11
2200.211633790035
 21
784.3816778227262
 31
0.0
  0
LINE
  5
AD7
330
A87
100
AcDbEntity
  8
0
  6
Continuous
 62
     7
370
    15
100
AcDbLine
 10
2200.070212433797
 20
784.4633451739213
 30
0.0
 11
2200.070212433798
 21
789.7708604511937
 31
0.0
  0
LINE
  5
AD8
330
A87
100
AcDbEntity
  8
0
  6
Continuous
 62
     7
370
    15
100
AcDbLine
 10
2198.514577515186
 20
788.8728115281728
 30
0.0
 11
2200.070212433798
 21
789.7708604511937
 31
0.0
  0
LINE
  5
AD9
330
A87
100
AcDbEntity
  8
0
  6
Continuous
 62
     7
370
    15
100
AcDbLine
 10
2198.514577515186
 20
788.8728115281728
 30
0.0
 11
2198.514577515186
 21
783.5652962509208
 31
0.0
  0
LINE
  5
ADA
330
A87
100
AcDbEntity
  8
0
  6
Continuous
 62
     7
370
    15
100
AcDbLine
 10
2198.514577515186
 20
783.5652962509208
 30
0.0
 11
2198.37315615895
 21
783.3203472773631
 31
0.0
  0
LINE
  5
ADB
330
A87
100
AcDbEntity
  8
0
  6
Continuous
 62
     7
370
    15
100
AcDbLine
 10
2198.37315615895
 20
783.3203472773631
 30
0.0
 11
2198.37315615895
 21
782.0939029779116
 31
0.0
  0
LINE
  5
ADC
330
A87
100
AcDbEntity
  8
0
  6
Continuous
 62
     7
370
    15
100
AcDbLine
 10
2198.37315615895
 20
782.0939029779116
 30
0.0
 11
2196.039703781034
 21
780.7468295934035
 31
0.0
  0
LINE
  5
ADD
330
A87
100
AcDbEntity
  8
0
  6
Continuous
 62
     7
370
    15
100
AcDbLine
 10
2196.039703781034
 20
781.9732738928548
 30
0.0
 11
2196.039703781034
 21
780.7468295934035
 31
0.0
  0
LINE
  5
ADE
330
A87
100
AcDbEntity
  8
0
  6
Continuous
 62
     7
370
    15
100
AcDbLine
 10
2195.898282424797
 20
782.05494124405
 30
0.0
 11
2196.039703781034
 21
781.9732738928548
 31
0.0
  0
LINE
  5
ADF
330
A87
100
AcDbEntity
  8
0
  6
Continuous
 62
     7
370
    15
100
AcDbLine
 10
2195.898282424797
 20
782.05494124405
 30
0.0
 11
2195.898282424797
 21
787.3624565213171
 31
0.0
  0
LINE
  5
AE0
330
A87
100
AcDbEntity
  8
0
  6
Continuous
 62
     7
370
    15
100
AcDbLine
 10
2194.342647506185
 20
786.4644075983016
 30
0.0
 11
2195.898282424797
 21
787.3624565213171
 31
0.0
  0
LINE
  5
AE1
330
A87
100
AcDbEntity
  8
0
  6
Continuous
 62
     7
370
    15
100
AcDbLine
 10
2194.342647506185
 20
786.4644075983016
 30
0.0
 11
2194.342647506185
 21
781.1568923210495
 31
0.0
  0
LINE
  5
AE2
330
A87
100
AcDbEntity
  8
0
  6
Continuous
 62
     7
370
    15
100
AcDbLine
 10
2194.342647506185
 20
781.1568923210495
 30
0.0
 11
2194.201226149949
 21
780.9119433474918
 31
0.0
  0
LINE
  5
AE3
330
A87
100
AcDbEntity
  8
0
  6
Continuous
 62
     7
370
    15
100
AcDbLine
 10
2194.201226149949
 20
780.9119433474918
 30
0.0
 11
2194.201226149949
 21
779.6854990480404
 31
0.0
  0
LINE
  5
AE4
330
A87
100
AcDbEntity
  8
0
  6
Continuous
 62
     7
370
    15
100
AcDbLine
 10
2194.201226149949
 20
779.6854990480404
 30
0.0
 11
2191.867773772033
 21
778.3384256635323
 31
0.0
  0
LINE
  5
AE5
330
A87
100
AcDbEntity
  8
0
  6
Continuous
 62
     7
370
    15
100
AcDbLine
 10
2191.867773772033
 20
779.5648699629837
 30
0.0
 11
2191.867773772033
 21
778.3384256635323
 31
0.0
  0
LINE
  5
AE6
330
A87
100
AcDbEntity
  8
0
  6
Continuous
 62
     7
370
    15
100
AcDbLine
 10
2191.726352415796
 20
779.6465373141788
 30
0.0
 11
2191.867773772033
 21
779.5648699629837
 31
0.0
  0
LINE
  5
AE7
330
A87
100
AcDbEntity
  8
0
  6
Continuous
 62
     7
370
    15
100
AcDbLine
 10
2191.726352415796
 20
779.6465373141788
 30
0.0
 11
2191.726352415796
 21
784.9540525914407
 31
0.0
  0
LINE
  5
AE8
330
A87
100
AcDbEntity
  8
0
  6
Continuous
 62
     7
370
    15
100
AcDbLine
 10
2190.170717497184
 20
784.0560036684303
 30
0.0
 11
2191.726352415796
 21
784.9540525914407
 31
0.0
  0
LINE
  5
AE9
330
A87
100
AcDbEntity
  8
0
  6
Continuous
 62
     7
370
    15
100
AcDbLine
 10
2190.170717497184
 20
784.0560036684303
 30
0.0
 11
2190.170717497185
 21
778.7484883911782
 31
0.0
  0
LINE
  5
AEA
330
A87
100
AcDbEntity
  8
0
  6
Continuous
 62
     7
370
    15
100
AcDbLine
 10
2190.170717497185
 20
778.7484883911782
 30
0.0
 11
2190.029296140949
 21
778.5035394176205
 31
0.0
  0
LINE
  5
AEB
330
A87
100
AcDbEntity
  8
0
  6
Continuous
 62
     7
370
    15
100
AcDbLine
 10
2190.029296140949
 20
778.5035394176205
 30
0.0
 11
2190.029296140949
 21
777.277095118169
 31
0.0
  0
LINE
  5
AEC
330
A87
100
AcDbEntity
  8
0
  6
Continuous
 62
     7
370
    15
100
AcDbLine
 10
2190.029296140949
 20
777.277095118169
 30
0.0
 11
2187.695843763032
 21
775.9300217336608
 31
0.0
  0
LINE
  5
AED
330
A87
100
AcDbEntity
  8
0
  6
Continuous
 62
     7
370
    15
100
AcDbLine
 10
2187.695843763032
 20
777.1564660331123
 30
0.0
 11
2187.695843763032
 21
775.9300217336608
 31
0.0
  0
LINE
  5
AEE
330
A87
100
AcDbEntity
  8
0
  6
Continuous
 62
     7
370
    15
100
AcDbLine
 10
2187.554422406796
 20
777.2381333843074
 30
0.0
 11
2187.695843763032
 21
777.1564660331123
 31
0.0
  0
LINE
  5
AEF
330
A87
100
AcDbEntity
  8
0
  6
Continuous
 62
     7
370
    15
100
AcDbLine
 10
2187.554422406796
 20
777.2381333843074
 30
0.0
 11
2187.554422406796
 21
782.5456486615641
 31
0.0
  0
LINE
  5
AF0
330
A87
100
AcDbEntity
  8
0
  6
Continuous
 62
     7
370
    15
100
AcDbLine
 10
2185.998787488184
 20
781.6475997385588
 30
0.0
 11
2187.554422406796
 21
782.5456486615641
 31
0.0
  0
LINE
  5
AF1
330
A87
100
AcDbEntity
  8
0
  6
Continuous
 62
     7
370
    15
100
AcDbLine
 10
2185.998787488184
 20
781.6475997385588
 30
0.0
 11
2185.998787488184
 21
776.340084461307
 31
0.0
  0
LINE
  5
AF2
330
A87
100
AcDbEntity
  8
0
  6
Continuous
 62
     7
370
    15
100
AcDbLine
 10
2185.998787488184
 20
776.340084461307
 30
0.0
 11
2185.857366131948
 21
776.0951354877493
 31
0.0
  0
LINE
  5
AF3
330
A87
100
AcDbEntity
  8
0
  6
Continuous
 62
     7
370
    15
100
AcDbLine
 10
2185.857366131948
 20
776.0951354877493
 30
0.0
 11
2185.857366131948
 21
774.8686911882978
 31
0.0
  0
LINE
  5
AF4
330
A87
100
AcDbEntity
  8
0
  6
Continuous
 62
     7
370
    15
100
AcDbLine
 10
2185.857366131948
 20
774.8686911882978
 30
0.0
 11
2183.523913754032
 21
773.5216178037896
 31
0.0
  0
LINE
  5
AF5
330
A87
100
AcDbEntity
  8
0
  6
Continuous
 62
     7
370
    15
100
AcDbLine
 10
2183.523913754032
 20
774.748062103241
 30
0.0
 11
2183.523913754032
 21
773.5216178037896
 31
0.0
  0
LINE
  5
AF6
330
A87
100
AcDbEntity
  8
0
  6
Continuous
 62
     7
370
    15
100
AcDbLine
 10
2183.382492397795
 20
774.8297294544361
 30
0.0
 11
2183.523913754032
 21
774.748062103241
 31
0.0
  0
LINE
  5
AF7
330
A87
100
AcDbEntity
  8
0
  6
Continuous
 62
     7
370
    15
100
AcDbLine
 10
2183.382492397795
 20
774.8297294544361
 30
0.0
 11
2183.382492397795
 21
780.1372447316953
 31
0.0
  0
LINE
  5
AF8
330
A87
100
AcDbEntity
  8
0
  6
Continuous
 62
     7
370
    15
100
AcDbLine
 10
2181.826857479183
 20
779.2391958086877
 30
0.0
 11
2183.382492397795
 21
780.1372447316953
 31
0.0
  0
LINE
  5
AF9
330
A87
100
AcDbEntity
  8
0
  6
Continuous
 62
     7
370
    15
100
AcDbLine
 10
2181.826857479183
 20
779.2391958086877
 30
0.0
 11
2181.826857479183
 21
773.9316805314355
 31
0.0
  0
LINE
  5
AFA
330
A87
100
AcDbEntity
  8
0
  6
Continuous
 62
     7
370
    15
100
AcDbLine
 10
2181.826857479183
 20
773.9316805314355
 30
0.0
 11
2181.685436122948
 21
773.6867315578779
 31
0.0
  0
LINE
  5
AFB
330
A87
100
AcDbEntity
  8
0
  6
Continuous
 62
     7
370
    15
100
AcDbLine
 10
2181.685436122948
 20
773.6867315578779
 30
0.0
 11
2181.685436122948
 21
772.4602872584263
 31
0.0
  0
LINE
  5
AFC
330
A87
100
AcDbEntity
  8
0
  6
Continuous
 62
     7
370
    15
100
AcDbLine
 10
2181.685436122948
 20
772.4602872584263
 30
0.0
 11
2179.351983745031
 21
771.1132138739182
 31
0.0
  0
LINE
  5
AFD
330
A87
100
AcDbEntity
  8
0
  6
Continuous
 62
     7
370
    15
100
AcDbLine
 10
2179.351983745031
 20
772.3396581733697
 30
0.0
 11
2179.351983745031
 21
771.1132138739182
 31
0.0
  0
LINE
  5
AFE
330
A87
100
AcDbEntity
  8
0
  6
Continuous
 62
     7
370
    15
100
AcDbLine
 10
2179.210562388794
 20
772.4213255245647
 30
0.0
 11
2179.351983745031
 21
772.3396581733697
 31
0.0
  0
LINE
  5
AFF
330
A87
100
AcDbEntity
  8
0
  6
Continuous
 62
     7
370
    15
100
AcDbLine
 10
2179.210562388794
 20
772.4213255245647
 30
0.0
 11
2179.210562388794
 21
777.7288408018241
 31
0.0
  0
LINE
  5
B00
330
A87
100
AcDbEntity
  8
0
  6
Continuous
 62
     7
370
    15
100
AcDbLine
 10
2179.210562388794
 20
777.7288408018241
 30
0.0
 11
2177.654927470182
 21
776.8307918788162
 31
0.0
  0
LINE
  5
B01
330
A87
100
AcDbEntity
  8
0
  6
Continuous
 62
     7
370
    15
100
AcDbLine
 10
2177.654927470182
 20
776.8307918788162
 30
0.0
 11
2177.654927470182
 21
771.5232766015642
 31
0.0
  0
LINE
  5
B02
330
A87
100
AcDbEntity
  8
0
  6
Continuous
 62
     7
370
    15
100
AcDbLine
 10
2177.654927470182
 20
771.5232766015642
 30
0.0
 11
2177.513506113947
 21
771.2783276280066
 31
0.0
  0
LINE
  5
B03
330
A87
100
AcDbEntity
  8
0
  6
Continuous
 62
     7
370
    15
100
AcDbLine
 10
2177.513506113947
 20
771.2783276280066
 30
0.0
 11
2177.513506113947
 21
770.051883328555
 31
0.0
  0
LINE
  5
B04
330
A87
100
AcDbEntity
  8
0
  6
Continuous
 62
     7
370
    15
100
AcDbLine
 10
2177.513506113947
 20
770.051883328555
 30
0.0
 11
2175.180053736031
 21
768.7048099440469
 31
0.0
  0
LINE
  5
B05
330
A87
100
AcDbEntity
  8
0
  6
Continuous
 62
     7
370
    15
100
AcDbLine
 10
2175.180053736031
 20
769.9312542434983
 30
0.0
 11
2175.180053736031
 21
768.7048099440469
 31
0.0
  0
LINE
  5
B06
330
A87
100
AcDbEntity
  8
0
  6
Continuous
 62
     7
370
    15
100
AcDbLine
 10
2175.038632379793
 20
770.0129215946934
 30
0.0
 11
2175.180053736031
 21
769.9312542434983
 31
0.0
  0
LINE
  5
B07
330
A87
100
AcDbEntity
  8
0
  6
Continuous
 62
     7
370
    15
100
AcDbLine
 10
2175.038632379793
 20
770.0129215946934
 30
0.0
 11
2175.038632379794
 21
775.3204368719525
 31
0.0
  0
LINE
  5
B08
330
A87
100
AcDbEntity
  8
0
  6
Continuous
 62
     7
370
    15
100
AcDbLine
 10
2175.038632379794
 20
775.3204368719525
 30
0.0
 11
2173.482997461185
 21
774.4223879489484
 31
0.0
  0
LINE
  5
B09
330
A87
100
AcDbEntity
  8
0
  6
Continuous
 62
     7
370
    15
100
AcDbLine
 10
2173.482997461185
 20
774.4223879489484
 30
0.0
 11
2173.482997461185
 21
769.1148726716894
 31
0.0
  0
LINE
  5
B0A
330
A87
100
AcDbEntity
  8
0
  6
Continuous
 62
     7
370
    15
100
AcDbLine
 10
2173.341576104948
 20
768.8699236981301
 30
0.0
 11
2173.482997461185
 21
769.1148726716894
 31
0.0
  0
LINE
  5
B0B
330
A87
100
AcDbEntity
  8
0
  6
Continuous
 62
     7
370
    15
100
AcDbLine
 10
2173.341576104948
 20
767.6434793986787
 30
0.0
 11
2173.341576104948
 21
768.8699236981301
 31
0.0
  0
LINE
  5
B0C
330
A87
100
AcDbEntity
  8
0
  6
Continuous
 62
     7
370
    15
100
AcDbLine
 10
2173.341576104948
 20
767.6434793986787
 30
0.0
 11
2171.008123727031
 21
766.2964060141708
 31
0.0
  0
LINE
  5
B0D
330
A87
100
AcDbEntity
  8
0
  6
Continuous
 62
     7
370
    15
100
AcDbLine
 10
2171.008123727031
 20
766.2964060141708
 30
0.0
 11
2171.008123727031
 21
767.5228503136223
 31
0.0
  0
LINE
  5
B0E
330
A87
100
AcDbEntity
  8
0
  6
Continuous
 62
     7
370
    15
100
AcDbLine
 10
2171.008123727031
 20
767.5228503136223
 30
0.0
 11
2170.866702370795
 21
767.6045176648174
 31
0.0
  0
LINE
  5
B0F
330
A87
100
AcDbEntity
  8
0
  6
Continuous
 62
     7
370
    15
100
AcDbLine
 10
2170.866702370795
 20
767.6045176648174
 30
0.0
 11
2170.866702370796
 21
772.9120329420695
 31
0.0
  0
LINE
  5
B10
330
A87
100
AcDbEntity
  8
0
  6
Continuous
 62
     7
370
    15
100
AcDbLine
 10
2170.442438302084
 20
772.667110508523
 30
0.0
 11
2170.866702370796
 21
772.9120329420695
 31
0.0
  0
LINE
  5
B11
330
A87
100
AcDbEntity
  8
0
  6
Continuous
 62
     7
370
    15
100
AcDbLine
 10
2211.4546316109
 20
799.4842712774055
 30
0.0
 11
2211.4546316109
 21
796.3429457513332
 31
0.0
  0
LINE
  5
B12
330
A87
100
AcDbEntity
  8
0
  6
Continuous
 62
     7
370
    15
100
AcDbLine
 10
2211.030367542187
 20
796.098023317787
 30
0.0
 11
2211.4546316109
 21
796.3429457513332
 31
0.0
  0
LINE
  5
B13
330
A87
100
AcDbEntity
  8
0
  6
Continuous
 62
     7
370
    15
100
AcDbLine
 10
2211.030367542187
 20
796.098023317787
 30
0.0
 11
2211.030367542188
 21
790.7905080405348
 31
0.0
  0
LINE
  5
B14
330
A87
100
AcDbEntity
  8
0
  6
Continuous
 62
     7
370
    15
100
AcDbLine
 10
2211.030367542188
 20
790.7905080405348
 30
0.0
 11
2210.888946185952
 21
790.5455590669771
 31
0.0
  0
LINE
  5
B15
330
A87
100
AcDbEntity
  8
0
  6
Continuous
 62
     7
370
    15
100
AcDbLine
 10
2210.888946185952
 20
790.5455590669771
 30
0.0
 11
2210.888946185952
 21
789.3191147675256
 31
0.0
  0
LINE
  5
B16
330
A87
100
AcDbEntity
  8
0
  6
Continuous
 62
     7
370
    15
100
AcDbLine
 10
2210.888946185952
 20
789.3191147675256
 30
0.0
 11
2208.555493808035
 21
787.9720413830175
 31
0.0
  0
LINE
  5
B17
330
A87
100
AcDbEntity
  8
0
  6
Continuous
 62
     7
370
    15
100
AcDbLine
 10
2208.555493808035
 20
789.1984856824689
 30
0.0
 11
2208.555493808035
 21
787.9720413830175
 31
0.0
  0
LINE
  5
B18
330
A87
100
AcDbEntity
  8
0
  6
Continuous
 62
     7
370
    15
100
AcDbLine
 10
2208.414072451798
 20
789.2801530336639
 30
0.0
 11
2208.555493808035
 21
789.1984856824689
 31
0.0
  0
LINE
  5
B19
330
A87
100
AcDbEntity
  8
0
  6
Continuous
 62
     7
370
    15
100
AcDbLine
 10
2208.414072451798
 20
789.2801530336639
 30
0.0
 11
2208.414072451799
 21
794.5876683109233
 31
0.0
  0
LINE
  5
B1A
330
A87
100
AcDbEntity
  8
0
  6
Continuous
 62
     7
370
    15
100
AcDbLine
 10
2206.858437533187
 20
793.6896193879156
 30
0.0
 11
2208.414072451799
 21
794.5876683109233
 31
0.0
  0
LINE
  5
B1B
330
A87
100
AcDbEntity
  8
0
  6
Continuous
 62
     7
370
    15
100
AcDbLine
 10
2169.100349631392
 20
768.6242113964842
 30
0.0
 11
2170.866702370795
 21
767.6045176648174
 31
0.0
  0
LINE
  5
B1C
330
A87
100
AcDbEntity
  8
0
  6
Continuous
 62
     7
370
    15
100
AcDbLine
 10
2169.100349631392
 20
773.4418818066443
 30
0.0
 11
2169.100349631392
 21
768.6242113964842
 31
0.0
  0
LINE
  5
B1D
330
A87
100
AcDbEntity
  8
0
  6
Continuous
 62
     7
370
    15
100
AcDbLine
 10
2171.467743134876
 20
771.3385355750986
 30
0.0
 11
2171.290966439579
 21
771.4405865890764
 31
0.0
  0
LINE
  5
B1E
330
A87
100
AcDbEntity
  8
0
  6
Continuous
 62
     7
370
    15
100
AcDbLine
 10
2171.290966439579
 20
770.379083533625
 30
0.0
 11
2171.467743134876
 21
771.3385355750986
 31
0.0
  0
LINE
  5
B1F
330
A87
100
AcDbEntity
  8
0
  6
Continuous
 62
     7
370
    15
100
AcDbLine
 10
2173.235510087843
 20
772.359045714877
 30
0.0
 11
2171.467743134876
 21
771.3385355750986
 31
0.0
  0
LINE
  5
B20
330
A87
100
AcDbEntity
  8
0
  6
Continuous
 62
     7
370
    15
100
AcDbLine
 10
2173.058733392546
 20
771.3995936734038
 30
0.0
 11
2173.235510087843
 21
772.359045714877
 31
0.0
  0
LINE
  5
B21
330
A87
100
AcDbEntity
  8
0
  6
Continuous
 62
     7
370
    15
100
AcDbLine
 10
2173.235510087843
 20
772.359045714877
 30
0.0
 11
2173.058733392546
 21
772.4610967288549
 31
0.0
  0
LINE
  5
B22
330
A87
100
AcDbEntity
  8
0
  6
Continuous
 62
     7
370
    15
100
AcDbLine
 10
2173.482997461185
 20
770.9109705176972
 30
0.0
 11
2175.038632379793
 21
770.0129215946934
 31
0.0
  0
LINE
  5
B23
330
A87
100
AcDbEntity
  8
0
  6
Continuous
 62
     7
370
    15
100
AcDbLine
 10
2169.241770987627
 20
768.5425440452889
 30
0.0
 11
2171.008123727031
 21
767.5228503136223
 31
0.0
  0
LINE
  5
B24
330
A87
100
AcDbEntity
  8
0
  6
Continuous
 62
     7
370
    15
100
AcDbLine
 10
2169.100349631392
 20
768.6242113964842
 30
0.0
 11
2169.241770987627
 21
768.5425440452889
 31
0.0
  0
LINE
  5
B25
330
A87
100
AcDbEntity
  8
0
  6
Continuous
 62
     7
370
    15
100
AcDbLine
 10
2170.973475494753
 20
766.31640801291
 30
0.0
 11
2171.008123727031
 21
766.2964060141708
 31
0.0
  0
LINE
  5
B26
330
A87
100
AcDbEntity
  8
0
  6
Continuous
 62
     7
370
    15
100
AcDbLine
 10
2169.276419219905
 20
767.2960977470975
 30
0.0
 11
2170.973475494753
 21
766.31640801291
 31
0.0
  0
LINE
  5
B27
330
A87
100
AcDbEntity
  8
0
  6
Continuous
 62
     7
370
    15
100
AcDbLine
 10
2169.241770987627
 20
767.3160997458373
 30
0.0
 11
2169.276419219905
 21
767.2960977470975
 31
0.0
  0
LINE
  5
B28
330
A87
100
AcDbEntity
  8
0
  6
Continuous
 62
     7
370
    15
100
AcDbLine
 10
2169.241770987627
 20
768.5425440452889
 30
0.0
 11
2169.241770987627
 21
767.3160997458373
 31
0.0
  0
LINE
  5
B29
330
A87
100
AcDbEntity
  8
0
  6
Continuous
 62
     7
370
    15
100
AcDbLine
 10
2175.639673143876
 20
773.7469395049763
 30
0.0
 11
2175.46289644858
 21
773.8489905189539
 31
0.0
  0
LINE
  5
B2A
330
A87
100
AcDbEntity
  8
0
  6
Continuous
 62
     7
370
    15
100
AcDbLine
 10
2175.46289644858
 20
772.7874874635028
 30
0.0
 11
2175.639673143876
 21
773.7469395049763
 31
0.0
  0
LINE
  5
B2B
330
A87
100
AcDbEntity
  8
0
  6
Continuous
 62
     7
370
    15
100
AcDbLine
 10
2177.407440096843
 20
774.7674496447548
 30
0.0
 11
2177.230663401547
 21
774.8695006587324
 31
0.0
  0
LINE
  5
B2C
330
A87
100
AcDbEntity
  8
0
  6
Continuous
 62
     7
370
    15
100
AcDbLine
 10
2177.407440096843
 20
774.7674496447548
 30
0.0
 11
2175.639673143876
 21
773.7469395049763
 31
0.0
  0
LINE
  5
B2D
330
A87
100
AcDbEntity
  8
0
  6
Continuous
 62
     7
370
    15
100
AcDbLine
 10
2177.230663401547
 20
773.8079976032843
 30
0.0
 11
2177.407440096843
 21
774.7674496447548
 31
0.0
  0
LINE
  5
B2E
330
A87
100
AcDbEntity
  8
0
  6
Continuous
 62
     7
370
    15
100
AcDbLine
 10
2170.973475494753
 20
766.3163682028911
 30
0.0
 11
2170.973509974977
 21
766.3163881079006
 31
0.0
  0
LINE
  5
B2F
330
A87
100
AcDbEntity
  8
0
  6
Continuous
 62
     7
370
    15
100
AcDbLine
 10
2170.973475494753
 20
766.31640801291
 30
0.0
 11
2170.973475494753
 21
766.3163682028911
 31
0.0
  0
LINE
  5
B30
330
A87
100
AcDbEntity
  8
0
  6
Continuous
 62
     7
370
    15
100
AcDbLine
 10
2170.973475494753
 20
766.3163682028911
 30
0.0
 11
2169.700683288617
 21
767.0511355035317
 31
0.0
  0
LINE
  5
B31
330
A87
100
AcDbEntity
  8
0
  6
Continuous
 62
     7
370
    15
100
AcDbLine
 10
2169.700683288617
 20
767.0511355035317
 30
0.0
 11
2169.276419219905
 21
767.2960977470975
 31
0.0
  0
LINE
  5
B32
330
A87
100
AcDbEntity
  8
0
  6
Continuous
 62
     7
370
    15
100
AcDbLine
 10
2169.524024121475
 20
760.7453164853409
 30
0.0
 11
2169.52402412153
 21
766.2167618014295
 31
0.0
  0
ARC
  5
B33
330
A87
100
AcDbEntity
  8
0
  6
Continuous
 62
     7
370
    15
100
AcDbCircle
 10
2169.631792713243
 20
766.234243600713
 30
0.0
 40
0.1091772992239226
100
AcDbArc
 50
50.79671472190273
 51
189.2140370328263
  0
LINE
  5
B34
330
A87
100
AcDbEntity
  8
0
  6
Continuous
 62
     7
370
    15
100
AcDbLine
 10
2169.84069043129
 20
766.2380894347531
 30
0.0
 11
2169.700800816661
 21
766.3188459903271
 31
0.0
  0
ARC
  5
B35
330
A87
100
AcDbEntity
  8
0
  6
Continuous
 62
     7
370
    15
100
AcDbCircle
 10
2169.90969853473
 20
766.3226918245215
 30
0.0
 40
0.1091772993571359
100
AcDbArc
 50
230.7967147642601
 51
9.214036990494944
  0
LINE
  5
B36
330
A87
100
AcDbEntity
  8
0
  6
Continuous
 62
     7
370
    15
100
AcDbLine
 10
2170.017467126587
 20
766.8682600864843
 30
0.0
 11
2170.017467126587
 21
766.3401736237468
 31
0.0
  0
LINE
  5
B37
330
A87
100
AcDbEntity
  8
0
  6
Continuous
 62
     7
370
    15
100
AcDbLine
 10
2170.727402334926
 20
765.9303367516281
 30
0.0
 11
2170.7274023349
 21
766.4584232143482
 31
0.0
  0
ARC
  5
B38
330
A87
100
AcDbEntity
  8
0
  6
Continuous
 62
     7
370
    15
100
AcDbCircle
 10
2171.11120636037
 20
765.9478019647523
 30
0.0
 40
0.3842012019976536
100
AcDbArc
 50
182.6054784937547
 51
237.3945216518965
  0
LINE
  5
B39
330
A87
100
AcDbEntity
  8
0
  6
Continuous
 62
     7
370
    15
100
AcDbLine
 10
2171.044068644844
 20
765.5433939791099
 30
0.0
 11
2170.904179030223
 21
765.6241505346789
 31
0.0
  0
ARC
  5
B3A
330
A87
100
AcDbEntity
  8
0
  6
Continuous
 62
     7
370
    15
100
AcDbCircle
 10
2170.837041315126
 20
765.2197425491842
 30
0.0
 40
0.3842012016419095
100
AcDbArc
 50
2.605478480786131
 51
57.39452169396514
  0
LINE
  5
B3B
330
A87
100
AcDbEntity
  8
0
  6
Continuous
 62
     7
370
    15
100
AcDbLine
 10
2171.220845340219
 20
765.2372077622053
 30
0.0
 11
2171.22084534023
 21
759.7657624461057
 31
0.0
  0
LINE
  5
B3C
330
A87
100
AcDbEntity
  8
0
  6
Continuous
 62
     7
370
    15
100
AcDbLine
 10
2169.524024121475
 20
760.7453164853409
 30
0.0
 11
2171.22084534023
 21
759.7657624461057
 31
0.0
  0
LINE
  5
B3D
330
A87
100
AcDbEntity
  8
0
  6
Continuous
 62
     7
370
    15
100
AcDbLine
 10
2172.565879965982
 20
767.1956795493414
 30
0.0
 11
2172.565879965982
 21
766.9916672969808
 31
0.0
  0
LINE
  5
B3E
330
A87
100
AcDbEntity
  8
0
  6
Continuous
 62
     7
370
    15
100
AcDbLine
 10
2172.565879965982
 20
766.9916672969808
 30
0.0
 11
2170.727402334926
 21
765.9303367516281
 31
0.0
  0
LINE
  5
B3F
330
A87
100
AcDbEntity
  8
0
  6
Continuous
 62
     7
370
    15
100
AcDbLine
 10
2172.8825462759
 20
766.6047245244625
 30
0.0
 11
2171.044068644844
 21
765.5433939791099
 31
0.0
  0
ARC
  5
B40
330
A87
100
AcDbEntity
  8
0
  6
Continuous
 62
     7
370
    15
100
AcDbCircle
 10
2172.675518945854
 20
766.2810730944451
 30
0.0
 40
0.3842012018956721
100
AcDbArc
 50
2.605478486249692
 51
57.39452166018668
  0
LINE
  5
B41
330
A87
100
AcDbEntity
  8
0
  6
Continuous
 62
     7
370
    15
100
AcDbLine
 10
2171.220845340219
 20
765.2372077622053
 30
0.0
 11
2173.059322971198
 21
766.2985383075143
 31
0.0
  0
ARC
  5
B42
330
A87
100
AcDbEntity
  8
0
  6
Continuous
 62
     7
370
    15
100
AcDbCircle
 10
2172.949683991324
 20
767.0091325100464
 30
0.0
 40
0.3842012018937424
100
AcDbArc
 50
182.6054784857084
 51
237.3945216599374
  0
LINE
  5
B43
330
A87
100
AcDbEntity
  8
0
  6
Continuous
 62
     7
370
    15
100
AcDbLine
 10
2172.742656661279
 20
766.6854810800315
 30
0.0
 11
2170.904179030223
 21
765.6241505346789
 31
0.0
  0
LINE
  5
B44
330
A87
100
AcDbEntity
  8
0
  6
Continuous
 62
     7
370
    15
100
AcDbLine
 10
2172.858931128265
 20
759.3957274541851
 30
0.0
 11
2173.059322971198
 21
760.8237747610692
 31
0.0
  0
ARC
  5
B45
330
A87
100
AcDbEntity
  8
0
  6
Continuous
 62
     7
370
    15
100
AcDbCircle
 10
2172.317815637294
 20
759.4784369271906
 30
0.0
 40
0.5474000653036737
100
AcDbArc
 50
302.9067666138693
 51
351.3096048990238
  0
LINE
  5
B46
330
A87
100
AcDbEntity
  8
0
  6
Continuous
 62
     7
370
    15
100
AcDbLine
 10
2171.665471345783
 20
758.4705952911209
 30
0.0
 11
2172.615203644153
 21
759.0188640767409
 31
0.0
  0
LWPOLYLINE
  5
B47
330
A87
100
AcDbEntity
  8
0
  6
Continuous
 62
     7
370
    15
100
AcDbPolyline
 90
        9
 70
   128
 43
0.0
 10
2171.665471345783
 20
758.4705952911209
 10
2171.622495614394
 20
758.4501277108635
 10
2171.580825678856
 20
758.438965590458
 10
2171.541727659075
 20
758.4374480852845
 10
2171.506389528598
 20
758.44562130397
 10
2171.475885018637
 20
758.4632369074005
 10
2171.451140993289
 20
758.4897596543795
 10
2171.432909287247
 20
758.5243836646615
 10
2171.421743861671
 20
758.5660569052144
  0
LINE
  5
B48
330
A87
100
AcDbEntity
  8
0
  6
Continuous
 62
     7
370
    15
100
AcDbLine
 10
2171.22084534023
 20
759.7657624461057
 30
0.0
 11
2171.421743861671
 21
758.5660569052144
 31
0.0
  0
LINE
  5
B49
330
A87
100
AcDbEntity
  8
0
  6
Continuous
 62
     7
370
    15
100
AcDbLine
 10
2173.059322971198
 20
760.8237747610692
 30
0.0
 11
2173.059322971198
 21
766.2985383075143
 31
0.0
  0
LINE
  5
B4A
330
A87
100
AcDbEntity
  8
0
  6
Continuous
 62
     7
370
    15
100
AcDbLine
 10
2172.742656661279
 20
766.6854810800315
 30
0.0
 11
2172.8825462759
 21
766.6047245244625
 31
0.0
  0
LINE
  5
B4B
330
A87
100
AcDbEntity
  8
0
  6
Continuous
 62
     7
370
    15
100
AcDbLine
 10
2177.654927470182
 20
773.3193744475703
 30
0.0
 11
2179.210562388794
 21
772.4213255245647
 31
0.0
  0
LINE
  5
B4C
330
A87
100
AcDbEntity
  8
0
  6
Continuous
 62
     7
370
    15
100
AcDbLine
 10
2175.180053736031
 20
769.9312542434983
 30
0.0
 11
2173.482997461185
 21
770.9109439776844
 31
0.0
  0
LINE
  5
B4D
330
A87
100
AcDbEntity
  8
0
  6
Continuous
 62
     7
370
    15
100
AcDbLine
 10
2175.180053736031
 20
768.7048099440469
 30
0.0
 11
2175.145405503752
 21
768.7248119427864
 31
0.0
  0
LINE
  5
B4E
330
A87
100
AcDbEntity
  8
0
  6
Continuous
 62
     7
370
    15
100
AcDbLine
 10
2175.145405503752
 20
768.7248119427864
 30
0.0
 11
2173.482997461185
 21
769.6844996782329
 31
0.0
  0
LINE
  5
B4F
330
A87
100
AcDbEntity
  8
0
  6
Continuous
 62
     7
370
    15
100
AcDbLine
 10
2179.811603152877
 20
776.1553434348479
 30
0.0
 11
2179.634826457581
 21
776.2573944488253
 31
0.0
  0
LINE
  5
B50
330
A87
100
AcDbEntity
  8
0
  6
Continuous
 62
     7
370
    15
100
AcDbLine
 10
2179.63482645758
 20
775.1958913933742
 30
0.0
 11
2179.811603152877
 21
776.1553434348479
 31
0.0
  0
LINE
  5
B51
330
A87
100
AcDbEntity
  8
0
  6
Continuous
 62
     7
370
    15
100
AcDbLine
 10
2181.579370105843
 20
777.1758535746262
 30
0.0
 11
2179.811603152877
 21
776.1553434348479
 31
0.0
  0
LINE
  5
B52
330
A87
100
AcDbEntity
  8
0
  6
Continuous
 62
     7
370
    15
100
AcDbLine
 10
2181.402593410547
 20
776.2164015331555
 30
0.0
 11
2181.579370105843
 21
777.1758535746262
 31
0.0
  0
LINE
  5
B53
330
A87
100
AcDbEntity
  8
0
  6
Continuous
 62
     7
370
    15
100
AcDbLine
 10
2181.579370105843
 20
777.1758535746262
 30
0.0
 11
2181.402593410547
 21
777.2779045886037
 31
0.0
  0
LINE
  5
B54
330
A87
100
AcDbEntity
  8
0
  6
Continuous
 62
     7
370
    15
100
AcDbLine
 10
2175.145405503752
 20
768.7247721327674
 30
0.0
 11
2175.145405503752
 21
768.7248119427864
 31
0.0
  0
LINE
  5
B55
330
A87
100
AcDbEntity
  8
0
  6
Continuous
 62
     7
370
    15
100
AcDbLine
 10
2175.145405503752
 20
768.7247721327674
 30
0.0
 11
2173.872613297617
 21
769.459539433408
 31
0.0
  0
LINE
  5
B56
330
A87
100
AcDbEntity
  8
0
  6
Continuous
 62
     7
370
    15
100
AcDbLine
 10
2173.872613297617
 20
769.459539433408
 30
0.0
 11
2173.482997461185
 21
769.6844964270812
 31
0.0
  0
LINE
  5
B57
330
A87
100
AcDbEntity
  8
0
  6
Continuous
 62
     7
370
    15
100
AcDbLine
 10
2175.145405503752
 20
768.7247721327674
 30
0.0
 11
2175.145439983976
 21
768.7247920377767
 31
0.0
  0
LINE
  5
B58
330
A87
100
AcDbEntity
  8
0
  6
Continuous
 62
     7
370
    15
100
AcDbLine
 10
2174.012620440291
 20
768.6464933646302
 30
0.0
 11
2173.872730825662
 21
768.7272499202041
 31
0.0
  0
ARC
  5
B59
330
A87
100
AcDbEntity
  8
0
  6
Continuous
 62
     7
370
    15
100
AcDbCircle
 10
2174.081628543731
 20
768.7310957543986
 30
0.0
 40
0.1091772993571314
100
AcDbArc
 50
230.7967147642642
 51
9.214036990482085
  0
LINE
  5
B5A
330
A87
100
AcDbEntity
  8
0
  6
Continuous
 62
     7
370
    15
100
AcDbLine
 10
2174.189397135588
 20
769.2766640163598
 30
0.0
 11
2174.189397135588
 21
768.7485775536238
 31
0.0
  0
LINE
  5
B5B
330
A87
100
AcDbEntity
  8
0
  6
Continuous
 62
     7
370
    15
100
AcDbLine
 10
2174.899332343927
 20
768.3387406815051
 30
0.0
 11
2174.899332343901
 21
768.8668271442239
 31
0.0
  0
ARC
  5
B5C
330
A87
100
AcDbEntity
  8
0
  6
Continuous
 62
     7
370
    15
100
AcDbCircle
 10
2175.283136369371
 20
768.3562058946294
 30
0.0
 40
0.3842012019978279
100
AcDbArc
 50
182.6054784937612
 51
237.3945216518711
  0
LINE
  5
B5D
330
A87
100
AcDbEntity
  8
0
  6
Continuous
 62
     7
370
    15
100
AcDbLine
 10
2175.215998653845
 20
767.9517979089869
 30
0.0
 11
2175.076109039224
 21
768.0325544645559
 31
0.0
  0
ARC
  5
B5E
330
A87
100
AcDbEntity
  8
0
  6
Continuous
 62
     7
370
    15
100
AcDbCircle
 10
2175.008971324126
 20
767.6281464790612
 30
0.0
 40
0.384201201641899
100
AcDbArc
 50
2.605478480786131
 51
57.39452169396514
  0
LINE
  5
B5F
330
A87
100
AcDbEntity
  8
0
  6
Continuous
 62
     7
370
    15
100
AcDbLine
 10
2175.392775349219
 20
767.6456116920824
 30
0.0
 11
2175.392775349231
 21
762.1741663759828
 31
0.0
  0
LINE
  5
B60
330
A87
100
AcDbEntity
  8
0
  6
Continuous
 62
     7
370
    15
100
AcDbLine
 10
2173.695954130475
 20
763.1537204152179
 30
0.0
 11
2175.392775349231
 21
762.1741663759828
 31
0.0
  0
LINE
  5
B61
330
A87
100
AcDbEntity
  8
0
  6
Continuous
 62
     7
370
    15
100
AcDbLine
 10
2173.695954130475
 20
763.1537204152179
 30
0.0
 11
2173.695954130531
 21
768.6251657313064
 31
0.0
  0
ARC
  5
B62
330
A87
100
AcDbEntity
  8
0
  6
Continuous
 62
     7
370
    15
100
AcDbCircle
 10
2173.803722722243
 20
768.6426475305899
 30
0.0
 40
0.1091772992239871
100
AcDbArc
 50
50.79671472195959
 51
189.2140370327814
  0
LINE
  5
B63
330
A87
100
AcDbEntity
  8
0
  6
Continuous
 62
     7
370
    15
100
AcDbLine
 10
2176.737809974983
 20
769.6040834792186
 30
0.0
 11
2176.737809974983
 21
769.4000712268578
 31
0.0
  0
LINE
  5
B64
330
A87
100
AcDbEntity
  8
0
  6
Continuous
 62
     7
370
    15
100
AcDbLine
 10
2176.737809974983
 20
769.4000712268578
 30
0.0
 11
2174.899332343927
 21
768.3387406815051
 31
0.0
  0
LINE
  5
B65
330
A87
100
AcDbEntity
  8
0
  6
Continuous
 62
     7
370
    15
100
AcDbLine
 10
2177.0544762849
 20
769.0131284543395
 30
0.0
 11
2175.215998653845
 21
767.9517979089869
 31
0.0
  0
ARC
  5
B66
330
A87
100
AcDbEntity
  8
0
  6
Continuous
 62
     7
370
    15
100
AcDbCircle
 10
2176.847448954855
 20
768.6894770243222
 30
0.0
 40
0.3842012018952894
100
AcDbArc
 50
2.605478486236678
 51
57.39452166022267
  0
LINE
  5
B67
330
A87
100
AcDbEntity
  8
0
  6
Continuous
 62
     7
370
    15
100
AcDbLine
 10
2175.392775349219
 20
767.6456116920824
 30
0.0
 11
2177.231252980199
 21
768.7069422373913
 31
0.0
  0
ARC
  5
B68
330
A87
100
AcDbEntity
  8
0
  6
Continuous
 62
     7
370
    15
100
AcDbCircle
 10
2177.121614000325
 20
769.4175364399232
 30
0.0
 40
0.384201201893644
100
AcDbArc
 50
182.6054784857019
 51
237.3945216599409
  0
LINE
  5
B69
330
A87
100
AcDbEntity
  8
0
  6
Continuous
 62
     7
370
    15
100
AcDbLine
 10
2176.914586670279
 20
769.0938850099085
 30
0.0
 11
2175.076109039224
 21
768.0325544645559
 31
0.0
  0
LINE
  5
B6A
330
A87
100
AcDbEntity
  8
0
  6
Continuous
 62
     7
370
    15
100
AcDbLine
 10
2177.231252980198
 20
763.2321786909463
 30
0.0
 11
2177.231252980199
 21
768.7069422373913
 31
0.0
  0
LINE
  5
B6B
330
A87
100
AcDbEntity
  8
0
  6
Continuous
 62
     7
370
    15
100
AcDbLine
 10
2177.030861137266
 20
761.8041313840621
 30
0.0
 11
2177.231252980198
 21
763.2321786909463
 31
0.0
  0
ARC
  5
B6C
330
A87
100
AcDbEntity
  8
0
  6
Continuous
 62
     7
370
    15
100
AcDbCircle
 10
2176.489745646295
 20
761.8868408570667
 30
0.0
 40
0.5474000653020753
100
AcDbArc
 50
302.9067666137824
 51
351.3096048991051
  0
LINE
  5
B6D
330
A87
100
AcDbEntity
  8
0
  6
Continuous
 62
     7
370
    15
100
AcDbLine
 10
2175.837401354784
 20
760.8789992209978
 30
0.0
 11
2176.787133653154
 21
761.4272680066179
 31
0.0
  0
LWPOLYLINE
  5
B6E
330
A87
100
AcDbEntity
  8
0
  6
Continuous
 62
     7
370
    15
100
AcDbPolyline
 90
        9
 70
   128
 43
0.0
 10
2175.837401354784
 20
760.8789992209978
 10
2175.794425623394
 20
760.8585316407404
 10
2175.752755687857
 20
760.847369520335
 10
2175.713657668076
 20
760.8458520151616
 10
2175.678319537599
 20
760.8540252338469
 10
2175.647815027637
 20
760.8716408372774
 10
2175.62307100229
 20
760.8981635842565
 10
2175.604839296248
 20
760.9327875945385
 10
2175.593673870672
 20
760.9744608350915
  0
LINE
  5
B6F
330
A87
100
AcDbEntity
  8
0
  6
Continuous
 62
     7
370
    15
100
AcDbLine
 10
2175.392775349231
 20
762.1741663759828
 30
0.0
 11
2175.593673870672
 21
760.9744608350915
 31
0.0
  0
LINE
  5
B70
330
A87
100
AcDbEntity
  8
0
  6
Continuous
 62
     7
370
    15
100
AcDbLine
 10
2176.914586670279
 20
769.0938850099085
 30
0.0
 11
2177.0544762849
 21
769.0131284543395
 31
0.0
  0
LINE
  5
B71
330
A87
100
AcDbEntity
  8
0
  6
Continuous
 62
     7
370
    15
100
AcDbLine
 10
2171.421743861671
 20
758.5660569052144
 30
0.0
 11
2169.724922642923
 21
759.545610944404
 31
0.0
  0
LINE
  5
B72
330
A87
100
AcDbEntity
  8
0
  6
Continuous
 62
     7
370
    15
100
AcDbLine
 10
2169.724922642923
 20
759.545610944404
 30
0.0
 11
2169.524024121475
 21
760.7453164853409
 31
0.0
  0
LINE
  5
B73
330
A87
100
AcDbEntity
  8
0
  6
Continuous
 62
     7
370
    15
100
AcDbLine
 10
2181.826857479184
 20
775.7277783774417
 30
0.0
 11
2183.382492397795
 21
774.8297294544361
 31
0.0
  0
LINE
  5
B74
330
A87
100
AcDbEntity
  8
0
  6
Continuous
 62
     7
370
    15
100
AcDbLine
 10
2179.351983745031
 20
772.3396581733697
 30
0.0
 11
2177.654927470182
 21
773.3193479075573
 31
0.0
  0
LINE
  5
B75
330
A87
100
AcDbEntity
  8
0
  6
Continuous
 62
     7
370
    15
100
AcDbLine
 10
2179.351983745031
 20
771.1132138739182
 30
0.0
 11
2179.317335512753
 21
771.1332158726577
 31
0.0
  0
LINE
  5
B76
330
A87
100
AcDbEntity
  8
0
  6
Continuous
 62
     7
370
    15
100
AcDbLine
 10
2179.317335512753
 20
771.1332158726577
 30
0.0
 11
2177.654927470182
 21
772.0929036081058
 31
0.0
  0
ARC
  5
B77
330
A87
100
AcDbEntity
  8
0
  6
Continuous
 62
     7
370
    15
100
AcDbCircle
 10
2169.875423269481
 20
759.5599937705172
 30
0.0
 40
0.1511863230629931
100
AcDbArc
 50
185.4589815373006
 51
237.2630757800403
  0
LINE
  5
B78
330
A87
100
AcDbEntity
  8
0
  6
Continuous
 62
     7
370
    15
100
AcDbLine
 10
2183.983533161878
 20
778.563747364719
 30
0.0
 11
2183.806756466582
 21
778.6657983786965
 31
0.0
  0
LINE
  5
B79
330
A87
100
AcDbEntity
  8
0
  6
Continuous
 62
     7
370
    15
100
AcDbLine
 10
2183.806756466581
 20
777.6042953232454
 30
0.0
 11
2183.983533161878
 21
778.563747364719
 31
0.0
  0
LINE
  5
B7A
330
A87
100
AcDbEntity
  8
0
  6
Continuous
 62
     7
370
    15
100
AcDbLine
 10
2185.751300114844
 20
779.5842575044973
 30
0.0
 11
2183.983533161878
 21
778.563747364719
 31
0.0
  0
LINE
  5
B7B
330
A87
100
AcDbEntity
  8
0
  6
Continuous
 62
     7
370
    15
100
AcDbLine
 10
2185.574523419548
 20
778.6248054630268
 30
0.0
 11
2185.751300114844
 21
779.5842575044973
 31
0.0
  0
LINE
  5
B7C
330
A87
100
AcDbEntity
  8
0
  6
Continuous
 62
     7
370
    15
100
AcDbLine
 10
2185.751300114844
 20
779.5842575044973
 30
0.0
 11
2185.574523419548
 21
779.6863085184749
 31
0.0
  0
LINE
  5
B7D
330
A87
100
AcDbEntity
  8
0
  6
Continuous
 62
     7
370
    15
100
AcDbLine
 10
2179.317335512753
 20
771.1331760626387
 30
0.0
 11
2179.317335512753
 21
771.1332158726577
 31
0.0
  0
LINE
  5
B7E
330
A87
100
AcDbEntity
  8
0
  6
Continuous
 62
     7
370
    15
100
AcDbLine
 10
2179.317335512753
 20
771.1331760626387
 30
0.0
 11
2179.317369992977
 21
771.1331959676481
 31
0.0
  0
LINE
  5
B7F
330
A87
100
AcDbEntity
  8
0
  6
Continuous
 62
     7
370
    15
100
AcDbLine
 10
2179.317335512753
 20
771.1331760626387
 30
0.0
 11
2178.044543306617
 21
771.8679433632793
 31
0.0
  0
LINE
  5
B80
330
A87
100
AcDbEntity
  8
0
  6
Continuous
 62
     7
370
    15
100
AcDbLine
 10
2178.044543306617
 20
771.8679433632793
 30
0.0
 11
2177.654927470182
 21
772.0929003569542
 31
0.0
  0
LINE
  5
B81
330
A87
100
AcDbEntity
  8
0
  6
Continuous
 62
     7
370
    15
100
AcDbLine
 10
2178.184550449292
 20
771.0548972945016
 30
0.0
 11
2178.044660834662
 21
771.1356538500755
 31
0.0
  0
ARC
  5
B82
330
A87
100
AcDbEntity
  8
0
  6
Continuous
 62
     7
370
    15
100
AcDbCircle
 10
2178.253558552732
 20
771.1394996842699
 30
0.0
 40
0.1091772993571457
100
AcDbArc
 50
230.7967147642642
 51
9.214036990437078
  0
LINE
  5
B83
330
A87
100
AcDbEntity
  8
0
  6
Continuous
 62
     7
370
    15
100
AcDbLine
 10
2178.361327144588
 20
771.6850679462312
 30
0.0
 11
2178.361327144588
 21
771.1569814834951
 31
0.0
  0
LINE
  5
B84
330
A87
100
AcDbEntity
  8
0
  6
Continuous
 62
     7
370
    15
100
AcDbLine
 10
2179.071262352927
 20
770.7471446113763
 30
0.0
 11
2179.071262352901
 21
771.2752310740951
 31
0.0
  0
ARC
  5
B85
330
A87
100
AcDbEntity
  8
0
  6
Continuous
 62
     7
370
    15
100
AcDbCircle
 10
2179.455066378372
 20
770.7646098245007
 30
0.0
 40
0.3842012019976897
100
AcDbArc
 50
182.6054784937807
 51
237.3945216519
  0
LINE
  5
B86
330
A87
100
AcDbEntity
  8
0
  6
Continuous
 62
     7
370
    15
100
AcDbLine
 10
2179.387928662845
 20
770.3602018388583
 30
0.0
 11
2179.248039048224
 21
770.4409583944273
 31
0.0
  0
ARC
  5
B87
330
A87
100
AcDbEntity
  8
0
  6
Continuous
 62
     7
370
    15
100
AcDbCircle
 10
2179.180901333127
 20
770.0365504089322
 30
0.0
 40
0.3842012016424572
100
AcDbArc
 50
2.605478480818666
 51
57.39452169393267
  0
LINE
  5
B88
330
A87
100
AcDbEntity
  8
0
  6
Continuous
 62
     7
370
    15
100
AcDbLine
 10
2179.56470535822
 20
770.0540156219536
 30
0.0
 11
2179.564705358231
 21
764.582570305854
 31
0.0
  0
LINE
  5
B89
330
A87
100
AcDbEntity
  8
0
  6
Continuous
 62
     7
370
    15
100
AcDbLine
 10
2177.867884139476
 20
765.5621243450891
 30
0.0
 11
2179.564705358231
 21
764.582570305854
 31
0.0
  0
LINE
  5
B8A
330
A87
100
AcDbEntity
  8
0
  6
Continuous
 62
     7
370
    15
100
AcDbLine
 10
2177.867884139476
 20
765.5621243450891
 30
0.0
 11
2177.867884139532
 21
771.0335696611776
 31
0.0
  0
ARC
  5
B8B
330
A87
100
AcDbEntity
  8
0
  6
Continuous
 62
     7
370
    15
100
AcDbCircle
 10
2177.975652731244
 20
771.0510514604613
 30
0.0
 40
0.1091772992238756
100
AcDbArc
 50
50.79671472200037
 51
189.2140370328627
  0
LINE
  5
B8C
330
A87
100
AcDbEntity
  8
0
  6
Continuous
 62
     7
370
    15
100
AcDbLine
 10
2180.909739983983
 20
772.0124874090897
 30
0.0
 11
2180.909739983983
 21
771.808475156729
 31
0.0
  0
LINE
  5
B8D
330
A87
100
AcDbEntity
  8
0
  6
Continuous
 62
     7
370
    15
100
AcDbLine
 10
2180.909739983983
 20
771.808475156729
 30
0.0
 11
2179.071262352927
 21
770.7471446113763
 31
0.0
  0
LINE
  5
B8E
330
A87
100
AcDbEntity
  8
0
  6
Continuous
 62
     7
370
    15
100
AcDbLine
 10
2181.226406293901
 20
771.4215323842108
 30
0.0
 11
2179.387928662845
 21
770.3602018388583
 31
0.0
  0
ARC
  5
B8F
330
A87
100
AcDbEntity
  8
0
  6
Continuous
 62
     7
370
    15
100
AcDbCircle
 10
2181.019378963855
 20
771.0978809541934
 30
0.0
 40
0.3842012018957566
100
AcDbArc
 50
2.605478486236678
 51
57.39452166018668
  0
LINE
  5
B90
330
A87
100
AcDbEntity
  8
0
  6
Continuous
 62
     7
370
    15
100
AcDbLine
 10
2179.56470535822
 20
770.0540156219536
 30
0.0
 11
2181.4031829892
 21
771.1153461672625
 31
0.0
  0
ARC
  5
B91
330
A87
100
AcDbEntity
  8
0
  6
Continuous
 62
     7
370
    15
100
AcDbCircle
 10
2181.293544009325
 20
771.8259403697945
 30
0.0
 40
0.3842012018933398
100
AcDbArc
 50
182.6054784856954
 51
237.3945216599663
  0
LINE
  5
B92
330
A87
100
AcDbEntity
  8
0
  6
Continuous
 62
     7
370
    15
100
AcDbLine
 10
2181.08651667928
 20
771.5022889397799
 30
0.0
 11
2179.248039048224
 21
770.4409583944273
 31
0.0
  0
LINE
  5
B93
330
A87
100
AcDbEntity
  8
0
  6
Continuous
 62
     7
370
    15
100
AcDbLine
 10
2181.403182989199
 20
765.6405826208176
 30
0.0
 11
2181.4031829892
 21
771.1153461672625
 31
0.0
  0
LINE
  5
B94
330
A87
100
AcDbEntity
  8
0
  6
Continuous
 62
     7
370
    15
100
AcDbLine
 10
2181.202791146267
 20
764.2125353139333
 30
0.0
 11
2181.403182989199
 21
765.6405826208176
 31
0.0
  0
ARC
  5
B95
330
A87
100
AcDbEntity
  8
0
  6
Continuous
 62
     7
370
    15
100
AcDbCircle
 10
2180.661675655296
 20
764.295244786938
 30
0.0
 40
0.5474000653023266
100
AcDbArc
 50
302.9067666137859
 51
351.3096048990921
  0
LINE
  5
B96
330
A87
100
AcDbEntity
  8
0
  6
Continuous
 62
     7
370
    15
100
AcDbLine
 10
2180.009331363784
 20
763.2874031508691
 30
0.0
 11
2180.959063662155
 21
763.8356719364891
 31
0.0
  0
LWPOLYLINE
  5
B97
330
A87
100
AcDbEntity
  8
0
  6
Continuous
 62
     7
370
    15
100
AcDbPolyline
 90
        9
 70
   128
 43
0.0
 10
2180.009331363784
 20
763.2874031508691
 10
2179.966355632395
 20
763.2669355706117
 10
2179.924685696858
 20
763.2557734502063
 10
2179.885587677077
 20
763.2542559450328
 10
2179.850249546599
 20
763.2624291637182
 10
2179.819745036637
 20
763.2800447671486
 10
2179.795001011291
 20
763.3065675141278
 10
2179.776769305249
 20
763.3411915244098
 10
2179.765603879673
 20
763.3828647649627
  0
LINE
  5
B98
330
A87
100
AcDbEntity
  8
0
  6
Continuous
 62
     7
370
    15
100
AcDbLine
 10
2179.564705358231
 20
764.582570305854
 30
0.0
 11
2179.765603879673
 21
763.3828647649627
 31
0.0
  0
LINE
  5
B99
330
A87
100
AcDbEntity
  8
0
  6
Continuous
 62
     7
370
    15
100
AcDbLine
 10
2181.08651667928
 20
771.5022889397799
 30
0.0
 11
2181.226406293901
 21
771.4215323842108
 31
0.0
  0
LINE
  5
B9A
330
A87
100
AcDbEntity
  8
0
  6
Continuous
 62
     7
370
    15
100
AcDbLine
 10
2175.593673870672
 20
760.9744608350915
 30
0.0
 11
2173.896852651923
 21
761.9540148742808
 31
0.0
  0
LINE
  5
B9B
330
A87
100
AcDbEntity
  8
0
  6
Continuous
 62
     7
370
    15
100
AcDbLine
 10
2173.896852651923
 20
761.9540148742808
 30
0.0
 11
2173.695954130475
 21
763.1537204152179
 31
0.0
  0
LINE
  5
B9C
330
A87
100
AcDbEntity
  8
0
  6
Continuous
 62
     7
370
    15
100
AcDbLine
 10
2185.998787488184
 20
778.136182307313
 30
0.0
 11
2187.554422406796
 21
777.2381333843074
 31
0.0
  0
LINE
  5
B9D
330
A87
100
AcDbEntity
  8
0
  6
Continuous
 62
     7
370
    15
100
AcDbLine
 10
2183.523913754032
 20
774.748062103241
 30
0.0
 11
2181.826857479183
 21
775.7277518374286
 31
0.0
  0
LINE
  5
B9E
330
A87
100
AcDbEntity
  8
0
  6
Continuous
 62
     7
370
    15
100
AcDbLine
 10
2183.523913754032
 20
773.5216178037896
 30
0.0
 11
2183.489265521754
 21
773.5416198025291
 31
0.0
  0
LINE
  5
B9F
330
A87
100
AcDbEntity
  8
0
  6
Continuous
 62
     7
370
    15
100
AcDbLine
 10
2183.489265521754
 20
773.5416198025291
 30
0.0
 11
2181.826857479183
 21
774.5013075379771
 31
0.0
  0
ARC
  5
BA0
330
A87
100
AcDbEntity
  8
0
  6
Continuous
 62
     7
370
    15
100
AcDbCircle
 10
2174.047353278481
 20
761.9683977003941
 30
0.0
 40
0.1511863230629606
100
AcDbArc
 50
185.4589815372812
 51
237.2630757800149
  0
LINE
  5
BA1
330
A87
100
AcDbEntity
  8
0
  6
Continuous
 62
     7
370
    15
100
AcDbLine
 10
2188.155463170878
 20
780.9721512945904
 30
0.0
 11
2187.978686475582
 21
781.0742023085679
 31
0.0
  0
LINE
  5
BA2
330
A87
100
AcDbEntity
  8
0
  6
Continuous
 62
     7
370
    15
100
AcDbLine
 10
2187.978686475581
 20
780.0126992531167
 30
0.0
 11
2188.155463170878
 21
780.9721512945904
 31
0.0
  0
LINE
  5
BA3
330
A87
100
AcDbEntity
  8
0
  6
Continuous
 62
     7
370
    15
100
AcDbLine
 10
2189.923230123845
 20
781.9926614343687
 30
0.0
 11
2189.746453428548
 21
782.0947124483462
 31
0.0
  0
LINE
  5
BA4
330
A87
100
AcDbEntity
  8
0
  6
Continuous
 62
     7
370
    15
100
AcDbLine
 10
2189.923230123845
 20
781.9926614343687
 30
0.0
 11
2188.155463170878
 21
780.9721512945904
 31
0.0
  0
LINE
  5
BA5
330
A87
100
AcDbEntity
  8
0
  6
Continuous
 62
     7
370
    15
100
AcDbLine
 10
2189.746453428548
 20
781.0332093928981
 30
0.0
 11
2189.923230123845
 21
781.9926614343687
 31
0.0
  0
LINE
  5
BA6
330
A87
100
AcDbEntity
  8
0
  6
Continuous
 62
     7
370
    15
100
AcDbLine
 10
2183.489265521754
 20
773.5415799925101
 30
0.0
 11
2183.489265521754
 21
773.5416198025291
 31
0.0
  0
LINE
  5
BA7
330
A87
100
AcDbEntity
  8
0
  6
Continuous
 62
     7
370
    15
100
AcDbLine
 10
2183.489265521754
 20
773.5415799925101
 30
0.0
 11
2183.489300001978
 21
773.5415998975195
 31
0.0
  0
LINE
  5
BA8
330
A87
100
AcDbEntity
  8
0
  6
Continuous
 62
     7
370
    15
100
AcDbLine
 10
2183.489265521754
 20
773.5415799925101
 30
0.0
 11
2182.216473315618
 21
774.2763472931507
 31
0.0
  0
LINE
  5
BA9
330
A87
100
AcDbEntity
  8
0
  6
Continuous
 62
     7
370
    15
100
AcDbLine
 10
2182.216473315618
 20
774.2763472931507
 30
0.0
 11
2181.826857479184
 21
774.5013042868256
 31
0.0
  0
LINE
  5
BAA
330
A87
100
AcDbEntity
  8
0
  6
Continuous
 62
     7
370
    15
100
AcDbLine
 10
2182.356480458292
 20
773.4633012243729
 30
0.0
 11
2182.216590843663
 21
773.5440577799468
 31
0.0
  0
ARC
  5
BAB
330
A87
100
AcDbEntity
  8
0
  6
Continuous
 62
     7
370
    15
100
AcDbCircle
 10
2182.425488561732
 20
773.5479036141413
 30
0.0
 40
0.1091772993571314
100
AcDbArc
 50
230.7967147642683
 51
9.214036990482085
  0
LINE
  5
BAC
330
A87
100
AcDbEntity
  8
0
  6
Continuous
 62
     7
370
    15
100
AcDbLine
 10
2182.533257153589
 20
774.0934718761024
 30
0.0
 11
2182.533257153589
 21
773.5653854133665
 31
0.0
  0
LINE
  5
BAD
330
A87
100
AcDbEntity
  8
0
  6
Continuous
 62
     7
370
    15
100
AcDbLine
 10
2183.243192361928
 20
773.1555485412477
 30
0.0
 11
2183.243192361902
 21
773.6836350039664
 31
0.0
  0
ARC
  5
BAE
330
A87
100
AcDbEntity
  8
0
  6
Continuous
 62
     7
370
    15
100
AcDbCircle
 10
2183.626996387372
 20
773.1730137543722
 30
0.0
 40
0.3842012019982817
100
AcDbArc
 50
182.6054784938067
 51
237.3945216518641
  0
LINE
  5
BAF
330
A87
100
AcDbEntity
  8
0
  6
Continuous
 62
     7
370
    15
100
AcDbLine
 10
2183.559858671846
 20
772.7686057687296
 30
0.0
 11
2183.419969057224
 21
772.8493623242985
 31
0.0
  0
ARC
  5
BB0
330
A87
100
AcDbEntity
  8
0
  6
Continuous
 62
     7
370
    15
100
AcDbCircle
 10
2183.352831342128
 20
772.444954338804
 30
0.0
 40
0.3842012016417764
100
AcDbArc
 50
2.605478480779624
 51
57.39452169396514
  0
LINE
  5
BB1
330
A87
100
AcDbEntity
  8
0
  6
Continuous
 62
     7
370
    15
100
AcDbLine
 10
2183.73663536722
 20
772.462419551825
 30
0.0
 11
2183.736635367232
 21
766.9909742357255
 31
0.0
  0
LINE
  5
BB2
330
A87
100
AcDbEntity
  8
0
  6
Continuous
 62
     7
370
    15
100
AcDbLine
 10
2182.039814148476
 20
767.9705282749605
 30
0.0
 11
2183.736635367232
 21
766.9909742357255
 31
0.0
  0
LINE
  5
BB3
330
A87
100
AcDbEntity
  8
0
  6
Continuous
 62
     7
370
    15
100
AcDbLine
 10
2182.039814148476
 20
767.9705282749605
 30
0.0
 11
2182.039814148533
 21
773.4419735910492
 31
0.0
  0
ARC
  5
BB4
330
A87
100
AcDbEntity
  8
0
  6
Continuous
 62
     7
370
    15
100
AcDbCircle
 10
2182.147582740245
 20
773.4594553903327
 30
0.0
 40
0.1091772992239129
100
AcDbArc
 50
50.79671472187019
 51
189.2140370328521
  0
LINE
  5
BB5
330
A87
100
AcDbEntity
  8
0
  6
Continuous
 62
     7
370
    15
100
AcDbLine
 10
2185.081669992984
 20
774.4208913389614
 30
0.0
 11
2185.081669992984
 21
774.2168790866004
 31
0.0
  0
LINE
  5
BB6
330
A87
100
AcDbEntity
  8
0
  6
Continuous
 62
     7
370
    15
100
AcDbLine
 10
2185.081669992984
 20
774.2168790866004
 30
0.0
 11
2183.243192361928
 21
773.1555485412477
 31
0.0
  0
LINE
  5
BB7
330
A87
100
AcDbEntity
  8
0
  6
Continuous
 62
     7
370
    15
100
AcDbLine
 10
2185.398336302902
 20
773.8299363140821
 30
0.0
 11
2183.559858671846
 21
772.7686057687296
 31
0.0
  0
ARC
  5
BB8
330
A87
100
AcDbEntity
  8
0
  6
Continuous
 62
     7
370
    15
100
AcDbCircle
 10
2185.191308972857
 20
773.5062848840655
 30
0.0
 40
0.3842012018942573
100
AcDbArc
 50
2.605478486139072
 51
57.39452166030606
  0
LINE
  5
BB9
330
A87
100
AcDbEntity
  8
0
  6
Continuous
 62
     7
370
    15
100
AcDbLine
 10
2183.73663536722
 20
772.462419551825
 30
0.0
 11
2185.575112998201
 21
773.5237500971339
 31
0.0
  0
ARC
  5
BBA
330
A87
100
AcDbEntity
  8
0
  6
Continuous
 62
     7
370
    15
100
AcDbCircle
 10
2185.465474018327
 20
774.2343442996658
 30
0.0
 40
0.3842012018936266
100
AcDbArc
 50
182.6054784856889
 51
237.3945216599374
  0
LINE
  5
BBB
330
A87
100
AcDbEntity
  8
0
  6
Continuous
 62
     7
370
    15
100
AcDbLine
 10
2185.25844668828
 20
773.9106928696511
 30
0.0
 11
2183.419969057224
 21
772.8493623242985
 31
0.0
  0
LINE
  5
BBC
330
A87
100
AcDbEntity
  8
0
  6
Continuous
 62
     7
370
    15
100
AcDbLine
 10
2185.5751129982
 20
768.0489865506889
 30
0.0
 11
2185.575112998201
 21
773.5237500971339
 31
0.0
  0
LINE
  5
BBD
330
A87
100
AcDbEntity
  8
0
  6
Continuous
 62
     7
370
    15
100
AcDbLine
 10
2185.374721155267
 20
766.6209392438047
 30
0.0
 11
2185.5751129982
 21
768.0489865506889
 31
0.0
  0
ARC
  5
BBE
330
A87
100
AcDbEntity
  8
0
  6
Continuous
 62
     7
370
    15
100
AcDbCircle
 10
2184.833605664297
 20
766.7036487168094
 30
0.0
 40
0.5474000653026115
100
AcDbArc
 50
302.9067666138439
 51
351.3096048990921
  0
LINE
  5
BBF
330
A87
100
AcDbEntity
  8
0
  6
Continuous
 62
     7
370
    15
100
AcDbLine
 10
2184.181261372785
 20
765.6958070807405
 30
0.0
 11
2185.130993671156
 21
766.2440758663606
 31
0.0
  0
LWPOLYLINE
  5
BC0
330
A87
100
AcDbEntity
  8
0
  6
Continuous
 62
     7
370
    15
100
AcDbPolyline
 90
        9
 70
   128
 43
0.0
 10
2184.181261372785
 20
765.6958070807405
 10
2184.138285641396
 20
765.6753395004832
 10
2184.096615705859
 20
765.6641773800775
 10
2184.057517686077
 20
765.6626598749042
 10
2184.0221795556
 20
765.6708330935896
 10
2183.991675045638
 20
765.6884486970199
 10
2183.966931020291
 20
765.7149714439992
 10
2183.948699314249
 20
765.749595454281
 10
2183.937533888673
 20
765.7912686948342
  0
LINE
  5
BC1
330
A87
100
AcDbEntity
  8
0
  6
Continuous
 62
     7
370
    15
100
AcDbLine
 10
2183.736635367232
 20
766.9909742357255
 30
0.0
 11
2183.937533888673
 21
765.7912686948342
 31
0.0
  0
LINE
  5
BC2
330
A87
100
AcDbEntity
  8
0
  6
Continuous
 62
     7
370
    15
100
AcDbLine
 10
2185.25844668828
 20
773.9106928696511
 30
0.0
 11
2185.398336302902
 21
773.8299363140821
 31
0.0
  0
LINE
  5
BC3
330
A87
100
AcDbEntity
  8
0
  6
Continuous
 62
     7
370
    15
100
AcDbLine
 10
2179.765603879673
 20
763.3828647649627
 30
0.0
 11
2178.068782660924
 21
764.362418804152
 31
0.0
  0
LINE
  5
BC4
330
A87
100
AcDbEntity
  8
0
  6
Continuous
 62
     7
370
    15
100
AcDbLine
 10
2178.068782660924
 20
764.362418804152
 30
0.0
 11
2177.867884139476
 21
765.5621243450891
 31
0.0
  0
LINE
  5
BC5
330
A87
100
AcDbEntity
  8
0
  6
Continuous
 62
     7
370
    15
100
AcDbLine
 10
2190.170717497185
 20
780.5445862371843
 30
0.0
 11
2191.726352415796
 21
779.6465373141788
 31
0.0
  0
LINE
  5
BC6
330
A87
100
AcDbEntity
  8
0
  6
Continuous
 62
     7
370
    15
100
AcDbLine
 10
2187.695843763032
 20
777.1564660331123
 30
0.0
 11
2185.998787488184
 21
778.1361557672998
 31
0.0
  0
LINE
  5
BC7
330
A87
100
AcDbEntity
  8
0
  6
Continuous
 62
     7
370
    15
100
AcDbLine
 10
2187.695843763032
 20
775.9300217336608
 30
0.0
 11
2187.661195530754
 21
775.9500237324004
 31
0.0
  0
LINE
  5
BC8
330
A87
100
AcDbEntity
  8
0
  6
Continuous
 62
     7
370
    15
100
AcDbLine
 10
2187.661195530754
 20
775.9500237324004
 30
0.0
 11
2185.998787488184
 21
776.9097114678483
 31
0.0
  0
ARC
  5
BC9
330
A87
100
AcDbEntity
  8
0
  6
Continuous
 62
     7
370
    15
100
AcDbCircle
 10
2178.219283287481
 20
764.3768016302646
 30
0.0
 40
0.1511863230620031
100
AcDbArc
 50
185.4589815370388
 51
237.2630757801018
  0
LINE
  5
BCA
330
A87
100
AcDbEntity
  8
0
  6
Continuous
 62
     7
370
    15
100
AcDbLine
 10
2192.327393179879
 20
783.3805552244617
 30
0.0
 11
2192.150616484583
 21
783.4826062384393
 31
0.0
  0
LINE
  5
BCB
330
A87
100
AcDbEntity
  8
0
  6
Continuous
 62
     7
370
    15
100
AcDbLine
 10
2192.150616484582
 20
782.4211031829881
 30
0.0
 11
2192.327393179879
 21
783.3805552244617
 31
0.0
  0
LINE
  5
BCC
330
A87
100
AcDbEntity
  8
0
  6
Continuous
 62
     7
370
    15
100
AcDbLine
 10
2194.095160132846
 20
784.4010653642401
 30
0.0
 11
2193.918383437549
 21
784.5031163782176
 31
0.0
  0
LINE
  5
BCD
330
A87
100
AcDbEntity
  8
0
  6
Continuous
 62
     7
370
    15
100
AcDbLine
 10
2194.095160132846
 20
784.4010653642401
 30
0.0
 11
2192.327393179879
 21
783.3805552244617
 31
0.0
  0
LINE
  5
BCE
330
A87
100
AcDbEntity
  8
0
  6
Continuous
 62
     7
370
    15
100
AcDbLine
 10
2193.918383437549
 20
783.4416133227696
 30
0.0
 11
2194.095160132846
 21
784.4010653642401
 31
0.0
  0
LINE
  5
BCF
330
A87
100
AcDbEntity
  8
0
  6
Continuous
 62
     7
370
    15
100
AcDbLine
 10
2187.661195530754
 20
775.9499839223813
 30
0.0
 11
2187.661195530754
 21
775.9500237324004
 31
0.0
  0
LINE
  5
BD0
330
A87
100
AcDbEntity
  8
0
  6
Continuous
 62
     7
370
    15
100
AcDbLine
 10
2187.661195530754
 20
775.9499839223813
 30
0.0
 11
2187.661230010979
 21
775.9500038273907
 31
0.0
  0
LINE
  5
BD1
330
A87
100
AcDbEntity
  8
0
  6
Continuous
 62
     7
370
    15
100
AcDbLine
 10
2187.661195530754
 20
775.9499839223813
 30
0.0
 11
2186.388403324619
 21
776.684751223022
 31
0.0
  0
LINE
  5
BD2
330
A87
100
AcDbEntity
  8
0
  6
Continuous
 62
     7
370
    15
100
AcDbLine
 10
2186.388403324619
 20
776.684751223022
 30
0.0
 11
2185.998787488184
 21
776.909708216697
 31
0.0
  0
LINE
  5
BD3
330
A87
100
AcDbEntity
  8
0
  6
Continuous
 62
     7
370
    15
100
AcDbLine
 10
2186.528410467293
 20
775.8717051542442
 30
0.0
 11
2186.388520852664
 21
775.9524617098182
 31
0.0
  0
ARC
  5
BD4
330
A87
100
AcDbEntity
  8
0
  6
Continuous
 62
     7
370
    15
100
AcDbCircle
 10
2186.597418570733
 20
775.9563075440126
 30
0.0
 40
0.1091772993571193
100
AcDbArc
 50
230.7967147641991
 51
9.214036990488514
  0
LINE
  5
BD5
330
A87
100
AcDbEntity
  8
0
  6
Continuous
 62
     7
370
    15
100
AcDbLine
 10
2186.70518716259
 20
776.5018758059741
 30
0.0
 11
2186.70518716259
 21
775.9737893432377
 31
0.0
  0
LINE
  5
BD6
330
A87
100
AcDbEntity
  8
0
  6
Continuous
 62
     7
370
    15
100
AcDbLine
 10
2187.415122370929
 20
775.563952471119
 30
0.0
 11
2187.415122370903
 21
776.092038933838
 31
0.0
  0
ARC
  5
BD7
330
A87
100
AcDbEntity
  8
0
  6
Continuous
 62
     7
370
    15
100
AcDbCircle
 10
2187.798926396373
 20
775.5814176842433
 30
0.0
 40
0.3842012019976897
100
AcDbArc
 50
182.6054784937807
 51
237.3945216518965
  0
LINE
  5
BD8
330
A87
100
AcDbEntity
  8
0
  6
Continuous
 62
     7
370
    15
100
AcDbLine
 10
2187.731788680847
 20
775.1770096986009
 30
0.0
 11
2187.591899066225
 21
775.2577662541699
 31
0.0
  0
ARC
  5
BD9
330
A87
100
AcDbEntity
  8
0
  6
Continuous
 62
     7
370
    15
100
AcDbCircle
 10
2187.524761351128
 20
774.853358268675
 30
0.0
 40
0.38420120164237
100
AcDbArc
 50
2.605478480799145
 51
57.39452169393267
  0
LINE
  5
BDA
330
A87
100
AcDbEntity
  8
0
  6
Continuous
 62
     7
370
    15
100
AcDbLine
 10
2187.908565376221
 20
774.8708234816963
 30
0.0
 11
2187.908565376233
 21
769.3993781655968
 31
0.0
  0
LINE
  5
BDB
330
A87
100
AcDbEntity
  8
0
  6
Continuous
 62
     7
370
    15
100
AcDbLine
 10
2186.211744157477
 20
770.3789322048318
 30
0.0
 11
2187.908565376233
 21
769.3993781655968
 31
0.0
  0
LINE
  5
BDC
330
A87
100
AcDbEntity
  8
0
  6
Continuous
 62
     7
370
    15
100
AcDbLine
 10
2186.211744157477
 20
770.3789322048318
 30
0.0
 11
2186.211744157533
 21
775.8503775209203
 31
0.0
  0
ARC
  5
BDD
330
A87
100
AcDbEntity
  8
0
  6
Continuous
 62
     7
370
    15
100
AcDbCircle
 10
2186.319512749245
 20
775.8678593202038
 30
0.0
 40
0.1091772992240067
100
AcDbArc
 50
50.79671472199626
 51
189.2140370328199
  0
LINE
  5
BDE
330
A87
100
AcDbEntity
  8
0
  6
Continuous
 62
     7
370
    15
100
AcDbLine
 10
2189.253600001984
 20
776.8292952688325
 30
0.0
 11
2189.253600001984
 21
776.6252830164717
 31
0.0
  0
LINE
  5
BDF
330
A87
100
AcDbEntity
  8
0
  6
Continuous
 62
     7
370
    15
100
AcDbLine
 10
2189.253600001984
 20
776.6252830164717
 30
0.0
 11
2187.415122370929
 21
775.563952471119
 31
0.0
  0
LINE
  5
BE0
330
A87
100
AcDbEntity
  8
0
  6
Continuous
 62
     7
370
    15
100
AcDbLine
 10
2189.570266311902
 20
776.2383402439535
 30
0.0
 11
2187.731788680847
 21
775.1770096986009
 31
0.0
  0
ARC
  5
BE1
330
A87
100
AcDbEntity
  8
0
  6
Continuous
 62
     7
370
    15
100
AcDbCircle
 10
2189.363238981858
 20
775.9146888139364
 30
0.0
 40
0.3842012018949945
100
AcDbArc
 50
2.605478486178114
 51
57.39452166025163
  0
LINE
  5
BE2
330
A87
100
AcDbEntity
  8
0
  6
Continuous
 62
     7
370
    15
100
AcDbLine
 10
2187.908565376221
 20
774.8708234816963
 30
0.0
 11
2189.747043007201
 21
775.9321540270052
 31
0.0
  0
ARC
  5
BE3
330
A87
100
AcDbEntity
  8
0
  6
Continuous
 62
     7
370
    15
100
AcDbCircle
 10
2189.637404027327
 20
776.642748229537
 30
0.0
 40
0.3842012018935373
100
AcDbArc
 50
182.6054784856889
 51
237.3945216599374
  0
LINE
  5
BE4
330
A87
100
AcDbEntity
  8
0
  6
Continuous
 62
     7
370
    15
100
AcDbLine
 10
2189.430376697281
 20
776.3190967995224
 30
0.0
 11
2187.591899066225
 21
775.2577662541699
 31
0.0
  0
LINE
  5
BE5
330
A87
100
AcDbEntity
  8
0
  6
Continuous
 62
     7
370
    15
100
AcDbLine
 10
2189.7470430072
 20
770.4573904805601
 30
0.0
 11
2189.747043007201
 21
775.9321540270052
 31
0.0
  0
LINE
  5
BE6
330
A87
100
AcDbEntity
  8
0
  6
Continuous
 62
     7
370
    15
100
AcDbLine
 10
2189.546651164268
 20
769.029343173676
 30
0.0
 11
2189.7470430072
 21
770.4573904805601
 31
0.0
  0
ARC
  5
BE7
330
A87
100
AcDbEntity
  8
0
  6
Continuous
 62
     7
370
    15
100
AcDbCircle
 10
2189.005535673295
 20
769.1120526466818
 30
0.0
 40
0.5474000653044083
100
AcDbArc
 50
302.9067666139053
 51
351.3096048989981
  0
LINE
  5
BE8
330
A87
100
AcDbEntity
  8
0
  6
Continuous
 62
     7
370
    15
100
AcDbLine
 10
2188.353191381786
 20
768.1042110106118
 30
0.0
 11
2189.302923680156
 21
768.6524797962317
 31
0.0
  0
LWPOLYLINE
  5
BE9
330
A87
100
AcDbEntity
  8
0
  6
Continuous
 62
     7
370
    15
100
AcDbPolyline
 90
        9
 70
   128
 43
0.0
 10
2188.353191381786
 20
768.1042110106118
 10
2188.310215650397
 20
768.0837434303543
 10
2188.268545714858
 20
768.0725813099488
 10
2188.229447695078
 20
768.0710638047756
 10
2188.1941095646
 20
768.0792370234609
 10
2188.163605054639
 20
768.0968526268913
 10
2188.138861029292
 20
768.1233753738704
 10
2188.12062932325
 20
768.1579993841523
 10
2188.109463897674
 20
768.1996726247054
  0
LINE
  5
BEA
330
A87
100
AcDbEntity
  8
0
  6
Continuous
 62
     7
370
    15
100
AcDbLine
 10
2187.908565376233
 20
769.3993781655968
 30
0.0
 11
2188.109463897674
 21
768.1996726247054
 31
0.0
  0
LINE
  5
BEB
330
A87
100
AcDbEntity
  8
0
  6
Continuous
 62
     7
370
    15
100
AcDbLine
 10
2189.430376697281
 20
776.3190967995224
 30
0.0
 11
2189.570266311902
 21
776.2383402439535
 31
0.0
  0
LINE
  5
BEC
330
A87
100
AcDbEntity
  8
0
  6
Continuous
 62
     7
370
    15
100
AcDbLine
 10
2183.937533888673
 20
765.7912686948342
 30
0.0
 11
2182.240712669925
 21
766.7708227340235
 31
0.0
  0
LINE
  5
BED
330
A87
100
AcDbEntity
  8
0
  6
Continuous
 62
     7
370
    15
100
AcDbLine
 10
2182.240712669925
 20
766.7708227340235
 30
0.0
 11
2182.039814148476
 21
767.9705282749605
 31
0.0
  0
LINE
  5
BEE
330
A87
100
AcDbEntity
  8
0
  6
Continuous
 62
     7
370
    15
100
AcDbLine
 10
2194.342647506185
 20
782.9529901670555
 30
0.0
 11
2195.898282424797
 21
782.05494124405
 31
0.0
  0
LINE
  5
BEF
330
A87
100
AcDbEntity
  8
0
  6
Continuous
 62
     7
370
    15
100
AcDbLine
 10
2191.867773772033
 20
779.5648699629837
 30
0.0
 11
2190.170717497185
 21
780.5445596971711
 31
0.0
  0
LINE
  5
BF0
330
A87
100
AcDbEntity
  8
0
  6
Continuous
 62
     7
370
    15
100
AcDbLine
 10
2191.867773772033
 20
778.3384256635323
 30
0.0
 11
2191.833125539755
 21
778.3584276622717
 31
0.0
  0
LINE
  5
BF1
330
A87
100
AcDbEntity
  8
0
  6
Continuous
 62
     7
370
    15
100
AcDbLine
 10
2191.833125539755
 20
778.3584276622717
 30
0.0
 11
2190.170717497185
 21
779.3181153977197
 31
0.0
  0
ARC
  5
BF2
330
A87
100
AcDbEntity
  8
0
  6
Continuous
 62
     7
370
    15
100
AcDbCircle
 10
2182.391213296481
 20
766.7852055601359
 30
0.0
 40
0.1511863230618481
100
AcDbArc
 50
185.4589815369934
 51
237.2630757801343
  0
LINE
  5
BF3
330
A87
100
AcDbEntity
  8
0
  6
Continuous
 62
     7
370
    15
100
AcDbLine
 10
2198.267090141845
 20
786.8094692941113
 30
0.0
 11
2198.09031344655
 21
786.9115203080888
 31
0.0
  0
LINE
  5
BF4
330
A87
100
AcDbEntity
  8
0
  6
Continuous
 62
     7
370
    15
100
AcDbLine
 10
2198.267090141845
 20
786.8094692941113
 30
0.0
 11
2196.499323188879
 21
785.7889591543329
 31
0.0
  0
LINE
  5
BF5
330
A87
100
AcDbEntity
  8
0
  6
Continuous
 62
     7
370
    15
100
AcDbLine
 10
2196.499323188879
 20
785.7889591543329
 30
0.0
 11
2196.322546493583
 21
785.8910101683104
 31
0.0
  0
LINE
  5
BF6
330
A87
100
AcDbEntity
  8
0
  6
Continuous
 62
     7
370
    15
100
AcDbLine
 10
2198.09031344655
 20
785.8500172526407
 30
0.0
 11
2198.267090141845
 21
786.8094692941113
 31
0.0
  0
LINE
  5
BF7
330
A87
100
AcDbEntity
  8
0
  6
Continuous
 62
     7
370
    15
100
AcDbLine
 10
2196.322546493583
 20
784.8295071128593
 30
0.0
 11
2196.499323188879
 21
785.7889591543329
 31
0.0
  0
LINE
  5
BF8
330
A87
100
AcDbEntity
  8
0
  6
Continuous
 62
     7
370
    15
100
AcDbLine
 10
2191.833125539755
 20
778.3583878522526
 30
0.0
 11
2191.833125539755
 21
778.3584276622717
 31
0.0
  0
LINE
  5
BF9
330
A87
100
AcDbEntity
  8
0
  6
Continuous
 62
     7
370
    15
100
AcDbLine
 10
2191.833125539755
 20
778.3583878522526
 30
0.0
 11
2191.833160019979
 21
778.3584077572621
 31
0.0
  0
LINE
  5
BFA
330
A87
100
AcDbEntity
  8
0
  6
Continuous
 62
     7
370
    15
100
AcDbLine
 10
2191.833125539755
 20
778.3583878522526
 30
0.0
 11
2190.560333333619
 21
779.0931551528934
 31
0.0
  0
LINE
  5
BFB
330
A87
100
AcDbEntity
  8
0
  6
Continuous
 62
     7
370
    15
100
AcDbLine
 10
2190.560333333619
 20
779.0931551528934
 30
0.0
 11
2190.170717497185
 21
779.3181121465681
 31
0.0
  0
LINE
  5
BFC
330
A87
100
AcDbEntity
  8
0
  6
Continuous
 62
     7
370
    15
100
AcDbLine
 10
2190.700340476293
 20
778.2801090841156
 30
0.0
 11
2190.560450861664
 21
778.3608656396896
 31
0.0
  0
ARC
  5
BFD
330
A87
100
AcDbEntity
  8
0
  6
Continuous
 62
     7
370
    15
100
AcDbCircle
 10
2190.769348579733
 20
778.3647114738839
 30
0.0
 40
0.1091772993571274
100
AcDbArc
 50
230.7967147642357
 51
9.214036990482085
  0
LINE
  5
BFE
330
A87
100
AcDbEntity
  8
0
  6
Continuous
 62
     7
370
    15
100
AcDbLine
 10
2190.87711717159
 20
778.9102797358453
 30
0.0
 11
2190.87711717159
 21
778.3821932731091
 31
0.0
  0
LINE
  5
BFF
330
A87
100
AcDbEntity
  8
0
  6
Continuous
 62
     7
370
    15
100
AcDbLine
 10
2191.587052379929
 20
777.9723564009904
 30
0.0
 11
2191.587052379903
 21
778.5004428637094
 31
0.0
  0
ARC
  5
C00
330
A87
100
AcDbEntity
  8
0
  6
Continuous
 62
     7
370
    15
100
AcDbCircle
 10
2191.970856405374
 20
777.9898216141151
 30
0.0
 40
0.3842012019986151
100
AcDbArc
 50
182.6054784938262
 51
237.3945216518351
  0
LINE
  5
C01
330
A87
100
AcDbEntity
  8
0
  6
Continuous
 62
     7
370
    15
100
AcDbLine
 10
2191.903718689847
 20
777.5854136284721
 30
0.0
 11
2191.763829075226
 21
777.6661701840412
 31
0.0
  0
ARC
  5
C02
330
A87
100
AcDbEntity
  8
0
  6
Continuous
 62
     7
370
    15
100
AcDbCircle
 10
2191.696691360129
 20
777.2617621985467
 30
0.0
 40
0.3842012016416086
100
AcDbArc
 50
2.60547848076661
 51
57.3945216939906
  0
LINE
  5
C03
330
A87
100
AcDbEntity
  8
0
  6
Continuous
 62
     7
370
    15
100
AcDbLine
 10
2192.080495385221
 20
777.2792274115677
 30
0.0
 11
2192.080495385233
 21
771.8077820954682
 31
0.0
  0
LINE
  5
C04
330
A87
100
AcDbEntity
  8
0
  6
Continuous
 62
     7
370
    15
100
AcDbLine
 10
2190.383674166477
 20
772.7873361347032
 30
0.0
 11
2192.080495385233
 21
771.8077820954682
 31
0.0
  0
LINE
  5
C05
330
A87
100
AcDbEntity
  8
0
  6
Continuous
 62
     7
370
    15
100
AcDbLine
 10
2190.383674166477
 20
772.7873361347032
 30
0.0
 11
2190.383674166534
 21
778.2587814507917
 31
0.0
  0
ARC
  5
C06
330
A87
100
AcDbEntity
  8
0
  6
Continuous
 62
     7
370
    15
100
AcDbCircle
 10
2190.491442758246
 20
778.2762632500753
 30
0.0
 40
0.109177299223979
100
AcDbArc
 50
50.79671472190273
 51
189.2140370328392
  0
LINE
  5
C07
330
A87
100
AcDbEntity
  8
0
  6
Continuous
 62
     7
370
    15
100
AcDbLine
 10
2193.425530010985
 20
779.2376991987039
 30
0.0
 11
2193.425530010985
 21
779.033686946343
 31
0.0
  0
LINE
  5
C08
330
A87
100
AcDbEntity
  8
0
  6
Continuous
 62
     7
370
    15
100
AcDbLine
 10
2193.425530010985
 20
779.033686946343
 30
0.0
 11
2191.587052379929
 21
777.9723564009904
 31
0.0
  0
LINE
  5
C09
330
A87
100
AcDbEntity
  8
0
  6
Continuous
 62
     7
370
    15
100
AcDbLine
 10
2193.742196320902
 20
778.6467441738247
 30
0.0
 11
2191.903718689847
 21
777.5854136284721
 31
0.0
  0
ARC
  5
C0A
330
A87
100
AcDbEntity
  8
0
  6
Continuous
 62
     7
370
    15
100
AcDbCircle
 10
2193.535168990859
 20
778.3230927438079
 30
0.0
 40
0.384201201894602
100
AcDbArc
 50
2.605478486171608
 51
57.3945216602806
  0
LINE
  5
C0B
330
A87
100
AcDbEntity
  8
0
  6
Continuous
 62
     7
370
    15
100
AcDbLine
 10
2192.080495385221
 20
777.2792274115677
 30
0.0
 11
2193.918973016202
 21
778.3405579568766
 31
0.0
  0
ARC
  5
C0C
330
A87
100
AcDbEntity
  8
0
  6
Continuous
 62
     7
370
    15
100
AcDbCircle
 10
2193.809334036328
 20
779.0511521594084
 30
0.0
 40
0.3842012018936508
100
AcDbArc
 50
182.6054784856889
 51
237.3945216599338
  0
LINE
  5
C0D
330
A87
100
AcDbEntity
  8
0
  6
Continuous
 62
     7
370
    15
100
AcDbLine
 10
2193.602306706281
 20
778.7275007293938
 30
0.0
 11
2191.763829075226
 21
777.6661701840412
 31
0.0
  0
LINE
  5
C0E
330
A87
100
AcDbEntity
  8
0
  6
Continuous
 62
     7
370
    15
100
AcDbLine
 10
2193.9189730162
 20
772.8657944104315
 30
0.0
 11
2193.918973016202
 21
778.3405579568766
 31
0.0
  0
LINE
  5
C0F
330
A87
100
AcDbEntity
  8
0
  6
Continuous
 62
     7
370
    15
100
AcDbLine
 10
2193.718581173269
 20
771.4377471035475
 30
0.0
 11
2193.9189730162
 21
772.8657944104315
 31
0.0
  0
ARC
  5
C10
330
A87
100
AcDbEntity
  8
0
  6
Continuous
 62
     7
370
    15
100
AcDbCircle
 10
2193.177465682297
 20
771.5204565765528
 30
0.0
 40
0.5474000653037257
100
AcDbArc
 50
302.9067666138728
 51
351.3096048990302
  0
LINE
  5
C11
330
A87
100
AcDbEntity
  8
0
  6
Continuous
 62
     7
370
    15
100
AcDbLine
 10
2192.525121390787
 20
770.5126149404832
 30
0.0
 11
2193.474853689156
 21
771.0608837261031
 31
0.0
  0
LWPOLYLINE
  5
C12
330
A87
100
AcDbEntity
  8
0
  6
Continuous
 62
     7
370
    15
100
AcDbPolyline
 90
        9
 70
   128
 43
0.0
 10
2192.525121390787
 20
770.5126149404832
 10
2192.482145659397
 20
770.4921473602259
 10
2192.440475723859
 20
770.4809852398202
 10
2192.401377704079
 20
770.4794677346468
 10
2192.366039573601
 20
770.4876409533323
 10
2192.335535063639
 20
770.5052565567626
 10
2192.310791038293
 20
770.5317793037417
 10
2192.29255933225
 20
770.5664033140237
 10
2192.281393906674
 20
770.6080765545769
  0
LINE
  5
C13
330
A87
100
AcDbEntity
  8
0
  6
Continuous
 62
     7
370
    15
100
AcDbLine
 10
2192.080495385233
 20
771.8077820954682
 30
0.0
 11
2192.281393906674
 21
770.6080765545769
 31
0.0
  0
LINE
  5
C14
330
A87
100
AcDbEntity
  8
0
  6
Continuous
 62
     7
370
    15
100
AcDbLine
 10
2193.602306706281
 20
778.7275007293938
 30
0.0
 11
2193.742196320902
 21
778.6467441738247
 31
0.0
  0
LINE
  5
C15
330
A87
100
AcDbEntity
  8
0
  6
Continuous
 62
     7
370
    15
100
AcDbLine
 10
2188.109463897674
 20
768.1996726247054
 30
0.0
 11
2186.412642678926
 21
769.1792266638947
 31
0.0
  0
LINE
  5
C16
330
A87
100
AcDbEntity
  8
0
  6
Continuous
 62
     7
370
    15
100
AcDbLine
 10
2186.412642678926
 20
769.1792266638947
 30
0.0
 11
2186.211744157477
 21
770.3789322048318
 31
0.0
  0
LINE
  5
C17
330
A87
100
AcDbEntity
  8
0
  6
Continuous
 62
     7
370
    15
100
AcDbLine
 10
2198.514577515186
 20
785.3613940969267
 30
0.0
 11
2200.070212433797
 21
784.4633451739213
 31
0.0
  0
LINE
  5
C18
330
A87
100
AcDbEntity
  8
0
  6
Continuous
 62
     7
370
    15
100
AcDbLine
 10
2196.039703781034
 20
781.9732738928548
 30
0.0
 11
2194.342647506185
 21
782.9529636270426
 31
0.0
  0
LINE
  5
C19
330
A87
100
AcDbEntity
  8
0
  6
Continuous
 62
     7
370
    15
100
AcDbLine
 10
2196.039703781034
 20
780.7468295934035
 30
0.0
 11
2196.005055548756
 21
780.766831592143
 31
0.0
  0
LINE
  5
C1A
330
A87
100
AcDbEntity
  8
0
  6
Continuous
 62
     7
370
    15
100
AcDbLine
 10
2196.005055548756
 20
780.766831592143
 30
0.0
 11
2194.342647506185
 21
781.7265193275911
 31
0.0
  0
ARC
  5
C1B
330
A87
100
AcDbEntity
  8
0
  6
Continuous
 62
     7
370
    15
100
AcDbCircle
 10
2186.563143305482
 20
769.193609490007
 30
0.0
 40
0.1511863230616491
100
AcDbArc
 50
185.458981536965
 51
237.2630757801343
  0
LINE
  5
C1C
330
A87
100
AcDbEntity
  8
0
  6
Continuous
 62
     7
370
    15
100
AcDbLine
 10
2202.439020150846
 20
789.2178732239827
 30
0.0
 11
2200.67125319788
 21
788.1973630842042
 31
0.0
  0
LINE
  5
C1D
330
A87
100
AcDbEntity
  8
0
  6
Continuous
 62
     7
370
    15
100
AcDbLine
 10
2202.26224345555
 20
788.2584211825121
 30
0.0
 11
2202.439020150846
 21
789.2178732239827
 31
0.0
  0
LINE
  5
C1E
330
A87
100
AcDbEntity
  8
0
  6
Continuous
 62
     7
370
    15
100
AcDbLine
 10
2200.494476502584
 20
787.2379110427305
 30
0.0
 11
2200.67125319788
 21
788.1973630842042
 31
0.0
  0
LINE
  5
C1F
330
A87
100
AcDbEntity
  8
0
  6
Continuous
 62
     7
370
    15
100
AcDbLine
 10
2202.439020150846
 20
789.2178732239827
 30
0.0
 11
2202.26224345555
 21
789.3199242379602
 31
0.0
  0
LINE
  5
C20
330
A87
100
AcDbEntity
  8
0
  6
Continuous
 62
     7
370
    15
100
AcDbLine
 10
2200.67125319788
 20
788.1973630842042
 30
0.0
 11
2200.494476502584
 21
788.2994140981818
 31
0.0
  0
LINE
  5
C21
330
A87
100
AcDbEntity
  8
0
  6
Continuous
 62
     7
370
    15
100
AcDbLine
 10
2196.005055548756
 20
780.7667917821239
 30
0.0
 11
2196.005055548756
 21
780.766831592143
 31
0.0
  0
LINE
  5
C22
330
A87
100
AcDbEntity
  8
0
  6
Continuous
 62
     7
370
    15
100
AcDbLine
 10
2196.005055548756
 20
780.7667917821239
 30
0.0
 11
2196.00509002898
 21
780.7668116871334
 31
0.0
  0
LINE
  5
C23
330
A87
100
AcDbEntity
  8
0
  6
Continuous
 62
     7
370
    15
100
AcDbLine
 10
2196.005055548756
 20
780.7667917821239
 30
0.0
 11
2194.73226334262
 21
781.5015590827645
 31
0.0
  0
LINE
  5
C24
330
A87
100
AcDbEntity
  8
0
  6
Continuous
 62
     7
370
    15
100
AcDbLine
 10
2194.73226334262
 20
781.5015590827645
 30
0.0
 11
2194.342647506185
 21
781.7265160764397
 31
0.0
  0
LINE
  5
C25
330
A87
100
AcDbEntity
  8
0
  6
Continuous
 62
     7
370
    15
100
AcDbLine
 10
2194.872270485294
 20
780.6885130139869
 30
0.0
 11
2194.732380870665
 21
780.7692695695608
 31
0.0
  0
ARC
  5
C26
330
A87
100
AcDbEntity
  8
0
  6
Continuous
 62
     7
370
    15
100
AcDbCircle
 10
2194.941278588734
 20
780.7731154037552
 30
0.0
 40
0.1091772993571693
100
AcDbArc
 50
230.7967147642357
 51
9.214036990417787
  0
LINE
  5
C27
330
A87
100
AcDbEntity
  8
0
  6
Continuous
 62
     7
370
    15
100
AcDbLine
 10
2195.049047180591
 20
781.3186836657167
 30
0.0
 11
2195.049047180591
 21
780.7905972029804
 31
0.0
  0
LINE
  5
C28
330
A87
100
AcDbEntity
  8
0
  6
Continuous
 62
     7
370
    15
100
AcDbLine
 10
2195.75898238893
 20
780.3807603308617
 30
0.0
 11
2195.758982388904
 21
780.9088467935806
 31
0.0
  0
ARC
  5
C29
330
A87
100
AcDbEntity
  8
0
  6
Continuous
 62
     7
370
    15
100
AcDbCircle
 10
2196.142786414374
 20
780.3982255439859
 30
0.0
 40
0.3842012019975856
100
AcDbArc
 50
182.6054784937612
 51
237.3945216519
  0
LINE
  5
C2A
330
A87
100
AcDbEntity
  8
0
  6
Continuous
 62
     7
370
    15
100
AcDbLine
 10
2196.075648698847
 20
779.9938175583434
 30
0.0
 11
2195.935759084227
 21
780.0745741139126
 31
0.0
  0
ARC
  5
C2B
330
A87
100
AcDbEntity
  8
0
  6
Continuous
 62
     7
370
    15
100
AcDbCircle
 10
2195.868621369129
 20
779.6701661284177
 30
0.0
 40
0.3842012016420732
100
AcDbArc
 50
2.605478480799145
 51
57.39452169396514
  0
LINE
  5
C2C
330
A87
100
AcDbEntity
  8
0
  6
Continuous
 62
     7
370
    15
100
AcDbLine
 10
2196.252425394222
 20
779.6876313414388
 30
0.0
 11
2196.252425394234
 21
774.2161860253393
 31
0.0
  0
LINE
  5
C2D
330
A87
100
AcDbEntity
  8
0
  6
Continuous
 62
     7
370
    15
100
AcDbLine
 10
2194.555604175478
 20
775.1957400645745
 30
0.0
 11
2196.252425394234
 21
774.2161860253393
 31
0.0
  0
LINE
  5
C2E
330
A87
100
AcDbEntity
  8
0
  6
Continuous
 62
     7
370
    15
100
AcDbLine
 10
2194.555604175478
 20
775.1957400645745
 30
0.0
 11
2194.555604175535
 21
780.667185380663
 31
0.0
  0
ARC
  5
C2F
330
A87
100
AcDbEntity
  8
0
  6
Continuous
 62
     7
370
    15
100
AcDbCircle
 10
2194.663372767247
 20
780.6846671799465
 30
0.0
 40
0.1091772992240113
100
AcDbArc
 50
50.79671472199214
 51
189.2140370328328
  0
LINE
  5
C30
330
A87
100
AcDbEntity
  8
0
  6
Continuous
 62
     7
370
    15
100
AcDbLine
 10
2197.597460019986
 20
781.6461031285752
 30
0.0
 11
2197.597460019986
 21
781.4420908762143
 31
0.0
  0
LINE
  5
C31
330
A87
100
AcDbEntity
  8
0
  6
Continuous
 62
     7
370
    15
100
AcDbLine
 10
2197.597460019986
 20
781.4420908762143
 30
0.0
 11
2195.75898238893
 21
780.3807603308617
 31
0.0
  0
LINE
  5
C32
330
A87
100
AcDbEntity
  8
0
  6
Continuous
 62
     7
370
    15
100
AcDbLine
 10
2197.914126329903
 20
781.0551481036961
 30
0.0
 11
2196.075648698847
 21
779.9938175583434
 31
0.0
  0
ARC
  5
C33
330
A87
100
AcDbEntity
  8
0
  6
Continuous
 62
     7
370
    15
100
AcDbCircle
 10
2197.707098999858
 20
780.731496673679
 30
0.0
 40
0.3842012018950551
100
AcDbArc
 50
2.605478486191128
 51
57.39452166024812
  0
LINE
  5
C34
330
A87
100
AcDbEntity
  8
0
  6
Continuous
 62
     7
370
    15
100
AcDbLine
 10
2196.252425394222
 20
779.6876313414388
 30
0.0
 11
2198.090903025203
 21
780.7489618867479
 31
0.0
  0
ARC
  5
C35
330
A87
100
AcDbEntity
  8
0
  6
Continuous
 62
     7
370
    15
100
AcDbCircle
 10
2197.981264045328
 20
781.4595560892798
 30
0.0
 40
0.3842012018936586
100
AcDbArc
 50
182.6054784857149
 51
237.3945216599374
  0
LINE
  5
C36
330
A87
100
AcDbEntity
  8
0
  6
Continuous
 62
     7
370
    15
100
AcDbLine
 10
2197.774236715282
 20
781.1359046592651
 30
0.0
 11
2195.935759084227
 21
780.0745741139126
 31
0.0
  0
LINE
  5
C37
330
A87
100
AcDbEntity
  8
0
  6
Continuous
 62
     7
370
    15
100
AcDbLine
 10
2198.090903025201
 20
775.2741983403027
 30
0.0
 11
2198.090903025203
 21
780.7489618867479
 31
0.0
  0
LINE
  5
C38
330
A87
100
AcDbEntity
  8
0
  6
Continuous
 62
     7
370
    15
100
AcDbLine
 10
2197.890511182269
 20
773.8461510334186
 30
0.0
 11
2198.090903025201
 21
775.2741983403027
 31
0.0
  0
ARC
  5
C39
330
A87
100
AcDbEntity
  8
0
  6
Continuous
 62
     7
370
    15
100
AcDbCircle
 10
2197.349395691297
 20
773.9288605064242
 30
0.0
 40
0.5474000653039676
100
AcDbArc
 50
302.9067666138728
 51
351.3096048990238
  0
LINE
  5
C3A
330
A87
100
AcDbEntity
  8
0
  6
Continuous
 62
     7
370
    15
100
AcDbLine
 10
2196.697051399787
 20
772.9210188703545
 30
0.0
 11
2197.646783698157
 21
773.4692876559742
 31
0.0
  0
LWPOLYLINE
  5
C3B
330
A87
100
AcDbEntity
  8
0
  6
Continuous
 62
     7
370
    15
100
AcDbPolyline
 90
        9
 70
   128
 43
0.0
 10
2196.697051399787
 20
772.9210188703545
 10
2196.654075668398
 20
772.900551290097
 10
2196.61240573286
 20
772.8893891696913
 10
2196.573307713079
 20
772.8878716645181
 10
2196.537969582602
 20
772.8960448832035
 10
2196.50746507264
 20
772.9136604866339
 10
2196.482721047293
 20
772.940183233613
 10
2196.46448934125
 20
772.9748072438951
 10
2196.453323915675
 20
773.016480484448
  0
LINE
  5
C3C
330
A87
100
AcDbEntity
  8
0
  6
Continuous
 62
     7
370
    15
100
AcDbLine
 10
2196.252425394234
 20
774.2161860253393
 30
0.0
 11
2196.453323915675
 21
773.016480484448
 31
0.0
  0
LINE
  5
C3D
330
A87
100
AcDbEntity
  8
0
  6
Continuous
 62
     7
370
    15
100
AcDbLine
 10
2197.774236715282
 20
781.1359046592651
 30
0.0
 11
2197.914126329903
 21
781.0551481036961
 31
0.0
  0
LINE
  5
C3E
330
A87
100
AcDbEntity
  8
0
  6
Continuous
 62
     7
370
    15
100
AcDbLine
 10
2192.281393906674
 20
770.6080765545769
 30
0.0
 11
2190.584572687926
 21
771.5876305937662
 31
0.0
  0
LINE
  5
C3F
330
A87
100
AcDbEntity
  8
0
  6
Continuous
 62
     7
370
    15
100
AcDbLine
 10
2190.584572687926
 20
771.5876305937662
 30
0.0
 11
2190.383674166477
 21
772.7873361347032
 31
0.0
  0
LINE
  5
C40
330
A87
100
AcDbEntity
  8
0
  6
Continuous
 62
     7
370
    15
100
AcDbLine
 10
2202.686507524187
 20
787.7697980267982
 30
0.0
 11
2204.242142442797
 21
786.8717491037927
 31
0.0
  0
LINE
  5
C41
330
A87
100
AcDbEntity
  8
0
  6
Continuous
 62
     7
370
    15
100
AcDbLine
 10
2200.211633790035
 20
784.3816778227262
 30
0.0
 11
2198.514577515186
 21
785.3613675569138
 31
0.0
  0
LINE
  5
C42
330
A87
100
AcDbEntity
  8
0
  6
Continuous
 62
     7
370
    15
100
AcDbLine
 10
2200.211633790035
 20
783.1552335232749
 30
0.0
 11
2200.176985557757
 21
783.1752355220142
 31
0.0
  0
LINE
  5
C43
330
A87
100
AcDbEntity
  8
0
  6
Continuous
 62
     7
370
    15
100
AcDbLine
 10
2200.176985557757
 20
783.1752355220142
 30
0.0
 11
2198.514577515186
 21
784.1349232574623
 31
0.0
  0
ARC
  5
C44
330
A87
100
AcDbEntity
  8
0
  6
Continuous
 62
     7
370
    15
100
AcDbCircle
 10
2190.735073314482
 20
771.6020134198782
 30
0.0
 40
0.1511863230611334
100
AcDbArc
 50
185.4589815368548
 51
237.2630757802536
  0
LINE
  5
C45
330
A87
100
AcDbEntity
  8
0
  6
Continuous
 62
     7
370
    15
100
AcDbLine
 10
2206.610950159847
 20
791.6262771538541
 30
0.0
 11
2206.434173464551
 21
791.7283281678317
 31
0.0
  0
LINE
  5
C46
330
A87
100
AcDbEntity
  8
0
  6
Continuous
 62
     7
370
    15
100
AcDbLine
 10
2206.610950159847
 20
791.6262771538541
 30
0.0
 11
2204.843183206881
 21
790.6057670140756
 31
0.0
  0
LINE
  5
C47
330
A87
100
AcDbEntity
  8
0
  6
Continuous
 62
     7
370
    15
100
AcDbLine
 10
2204.843183206881
 20
790.6057670140756
 30
0.0
 11
2204.666406511585
 21
790.7078180280532
 31
0.0
  0
LINE
  5
C48
330
A87
100
AcDbEntity
  8
0
  6
Continuous
 62
     7
370
    15
100
AcDbLine
 10
2204.666406511584
 20
789.6463149726018
 30
0.0
 11
2204.843183206881
 21
790.6057670140756
 31
0.0
  0
LINE
  5
C49
330
A87
100
AcDbEntity
  8
0
  6
Continuous
 62
     7
370
    15
100
AcDbLine
 10
2206.434173464551
 20
790.6668251123835
 30
0.0
 11
2206.610950159847
 21
791.6262771538541
 31
0.0
  0
LINE
  5
C4A
330
A87
100
AcDbEntity
  8
0
  6
Continuous
 62
     7
370
    15
100
AcDbLine
 10
2200.176985557757
 20
783.1751957119952
 30
0.0
 11
2200.176985557757
 21
783.1752355220142
 31
0.0
  0
LINE
  5
C4B
330
A87
100
AcDbEntity
  8
0
  6
Continuous
 62
     7
370
    15
100
AcDbLine
 10
2200.176985557757
 20
783.1751957119952
 30
0.0
 11
2200.17702003798
 21
783.1752156170047
 31
0.0
  0
LINE
  5
C4C
330
A87
100
AcDbEntity
  8
0
  6
Continuous
 62
     7
370
    15
100
AcDbLine
 10
2200.176985557757
 20
783.1751957119952
 30
0.0
 11
2198.904193351621
 21
783.9099630126359
 31
0.0
  0
LINE
  5
C4D
330
A87
100
AcDbEntity
  8
0
  6
Continuous
 62
     7
370
    15
100
AcDbLine
 10
2198.904193351621
 20
783.9099630126359
 30
0.0
 11
2198.514577515186
 21
784.1349200063109
 31
0.0
  0
LINE
  5
C4E
330
A87
100
AcDbEntity
  8
0
  6
Continuous
 62
     7
370
    15
100
AcDbLine
 10
2199.044200494295
 20
783.0969169438581
 30
0.0
 11
2198.904310879665
 21
783.177673499432
 31
0.0
  0
ARC
  5
C4F
330
A87
100
AcDbEntity
  8
0
  6
Continuous
 62
     7
370
    15
100
AcDbCircle
 10
2199.113208597735
 20
783.1815193336264
 30
0.0
 40
0.1091772993571494
100
AcDbArc
 50
230.7967147642559
 51
9.214036990469226
  0
LINE
  5
C50
330
A87
100
AcDbEntity
  8
0
  6
Continuous
 62
     7
370
    15
100
AcDbLine
 10
2199.220977189591
 20
783.727087595588
 30
0.0
 11
2199.220977189591
 21
783.1990011328517
 31
0.0
  0
LINE
  5
C51
330
A87
100
AcDbEntity
  8
0
  6
Continuous
 62
     7
370
    15
100
AcDbLine
 10
2199.930912397931
 20
782.7891642607329
 30
0.0
 11
2199.930912397904
 21
783.3172507234518
 31
0.0
  0
ARC
  5
C52
330
A87
100
AcDbEntity
  8
0
  6
Continuous
 62
     7
370
    15
100
AcDbCircle
 10
2200.314716423375
 20
782.8066294738574
 30
0.0
 40
0.3842012019982338
100
AcDbArc
 50
182.6054784937937
 51
237.3945216518641
  0
LINE
  5
C53
330
A87
100
AcDbEntity
  8
0
  6
Continuous
 62
     7
370
    15
100
AcDbLine
 10
2200.247578707848
 20
782.4022214882147
 30
0.0
 11
2200.107689093227
 21
782.4829780437838
 31
0.0
  0
ARC
  5
C54
330
A87
100
AcDbEntity
  8
0
  6
Continuous
 62
     7
370
    15
100
AcDbCircle
 10
2200.040551378132
 20
782.0785700582894
 30
0.0
 40
0.3842012016412033
100
AcDbArc
 50
2.605478480747089
 51
57.39452169402658
  0
LINE
  5
C55
330
A87
100
AcDbEntity
  8
0
  6
Continuous
 62
     7
370
    15
100
AcDbLine
 10
2200.424355403223
 20
782.0960352713102
 30
0.0
 11
2200.424355403235
 21
776.6245899552107
 31
0.0
  0
LINE
  5
C56
330
A87
100
AcDbEntity
  8
0
  6
Continuous
 62
     7
370
    15
100
AcDbLine
 10
2198.727534184479
 20
777.6041439944457
 30
0.0
 11
2200.424355403235
 21
776.6245899552107
 31
0.0
  0
LINE
  5
C57
330
A87
100
AcDbEntity
  8
0
  6
Continuous
 62
     7
370
    15
100
AcDbLine
 10
2198.727534184479
 20
777.6041439944457
 30
0.0
 11
2198.727534184535
 21
783.0755893105342
 31
0.0
  0
ARC
  5
C58
330
A87
100
AcDbEntity
  8
0
  6
Continuous
 62
     7
370
    15
100
AcDbCircle
 10
2198.835302776247
 20
783.0930711098178
 30
0.0
 40
0.1091772992239506
100
AcDbArc
 50
50.79671472189862
 51
189.2140370328263
  0
LINE
  5
C59
330
A87
100
AcDbEntity
  8
0
  6
Continuous
 62
     7
370
    15
100
AcDbLine
 10
2201.769390028986
 20
784.0545070584465
 30
0.0
 11
2201.769390028986
 21
783.8504948060856
 31
0.0
  0
LINE
  5
C5A
330
A87
100
AcDbEntity
  8
0
  6
Continuous
 62
     7
370
    15
100
AcDbLine
 10
2201.769390028986
 20
783.8504948060856
 30
0.0
 11
2199.930912397931
 21
782.7891642607329
 31
0.0
  0
LINE
  5
C5B
330
A87
100
AcDbEntity
  8
0
  6
Continuous
 62
     7
370
    15
100
AcDbLine
 10
2202.086056338904
 20
783.4635520335673
 30
0.0
 11
2200.247578707848
 21
782.4022214882147
 31
0.0
  0
ARC
  5
C5C
330
A87
100
AcDbEntity
  8
0
  6
Continuous
 62
     7
370
    15
100
AcDbCircle
 10
2201.87902900886
 20
783.1399006035507
 30
0.0
 40
0.384201201894196
100
AcDbArc
 50
2.605478486145579
 51
57.39452166031308
  0
LINE
  5
C5D
330
A87
100
AcDbEntity
  8
0
  6
Continuous
 62
     7
370
    15
100
AcDbLine
 10
2200.424355403223
 20
782.0960352713102
 30
0.0
 11
2202.262833034203
 21
783.1573658166192
 31
0.0
  0
ARC
  5
C5E
330
A87
100
AcDbEntity
  8
0
  6
Continuous
 62
     7
370
    15
100
AcDbCircle
 10
2202.153194054329
 20
783.8679600191511
 30
0.0
 40
0.3842012018937115
100
AcDbArc
 50
182.6054784857019
 51
237.3945216599338
  0
LINE
  5
C5F
330
A87
100
AcDbEntity
  8
0
  6
Continuous
 62
     7
370
    15
100
AcDbLine
 10
2201.946166724283
 20
783.5443085891363
 30
0.0
 11
2200.107689093227
 21
782.4829780437838
 31
0.0
  0
LINE
  5
C60
330
A87
100
AcDbEntity
  8
0
  6
Continuous
 62
     7
370
    15
100
AcDbLine
 10
2202.262833034202
 20
777.6826022701741
 30
0.0
 11
2202.262833034203
 21
783.1573658166192
 31
0.0
  0
LINE
  5
C61
330
A87
100
AcDbEntity
  8
0
  6
Continuous
 62
     7
370
    15
100
AcDbLine
 10
2202.06244119127
 20
776.25455496329
 30
0.0
 11
2202.262833034202
 21
777.6826022701741
 31
0.0
  0
ARC
  5
C62
330
A87
100
AcDbEntity
  8
0
  6
Continuous
 62
     7
370
    15
100
AcDbCircle
 10
2201.521325700298
 20
776.3372644362955
 30
0.0
 40
0.5474000653037765
100
AcDbArc
 50
302.9067666138474
 51
351.3096048990238
  0
LINE
  5
C63
330
A87
100
AcDbEntity
  8
0
  6
Continuous
 62
     7
370
    15
100
AcDbLine
 10
2200.868981408788
 20
775.3294228002257
 30
0.0
 11
2201.818713707158
 21
775.8776915858456
 31
0.0
  0
LWPOLYLINE
  5
C64
330
A87
100
AcDbEntity
  8
0
  6
Continuous
 62
     7
370
    15
100
AcDbPolyline
 90
        9
 70
   128
 43
0.0
 10
2200.868981408788
 20
775.3294228002257
 10
2200.826005677399
 20
775.3089552199684
 10
2200.784335741861
 20
775.2977930995627
 10
2200.74523772208
 20
775.2962755943895
 10
2200.709899591602
 20
775.3044488130748
 10
2200.679395081641
 20
775.3220644165053
 10
2200.654651056294
 20
775.3485871634843
 10
2200.636419350251
 20
775.3832111737663
 10
2200.625253924676
 20
775.4248844143194
  0
LINE
  5
C65
330
A87
100
AcDbEntity
  8
0
  6
Continuous
 62
     7
370
    15
100
AcDbLine
 10
2200.424355403235
 20
776.6245899552107
 30
0.0
 11
2200.625253924676
 21
775.4248844143194
 31
0.0
  0
LINE
  5
C66
330
A87
100
AcDbEntity
  8
0
  6
Continuous
 62
     7
370
    15
100
AcDbLine
 10
2201.946166724283
 20
783.5443085891363
 30
0.0
 11
2202.086056338904
 21
783.4635520335673
 31
0.0
  0
LINE
  5
C67
330
A87
100
AcDbEntity
  8
0
  6
Continuous
 62
     7
370
    15
100
AcDbLine
 10
2196.453323915675
 20
773.016480484448
 30
0.0
 11
2194.756502696927
 21
773.9960345236373
 31
0.0
  0
LINE
  5
C68
330
A87
100
AcDbEntity
  8
0
  6
Continuous
 62
     7
370
    15
100
AcDbLine
 10
2194.756502696927
 20
773.9960345236373
 30
0.0
 11
2194.555604175478
 21
775.1957400645745
 31
0.0
  0
LINE
  5
C69
330
A87
100
AcDbEntity
  8
0
  6
Continuous
 62
     7
370
    15
100
AcDbLine
 10
2206.858437533187
 20
790.1782019566695
 30
0.0
 11
2208.414072451798
 21
789.2801530336639
 31
0.0
  0
LINE
  5
C6A
330
A87
100
AcDbEntity
  8
0
  6
Continuous
 62
     7
370
    15
100
AcDbLine
 10
2204.383563799035
 20
786.7900817525975
 30
0.0
 11
2202.686507524187
 21
787.7697714867852
 31
0.0
  0
LINE
  5
C6B
330
A87
100
AcDbEntity
  8
0
  6
Continuous
 62
     7
370
    15
100
AcDbLine
 10
2204.383563799035
 20
785.5636374531461
 30
0.0
 11
2204.348915566757
 21
785.5836394518855
 31
0.0
  0
LINE
  5
C6C
330
A87
100
AcDbEntity
  8
0
  6
Continuous
 62
     7
370
    15
100
AcDbLine
 10
2204.348915566757
 20
785.5836394518855
 30
0.0
 11
2202.686507524187
 21
786.5433271873337
 31
0.0
  0
ARC
  5
C6D
330
A87
100
AcDbEntity
  8
0
  6
Continuous
 62
     7
370
    15
100
AcDbCircle
 10
2194.907003323484
 20
774.0104173497497
 30
0.0
 40
0.1511863230616784
100
AcDbArc
 50
185.4589815369999
 51
237.2630757801957
  0
LINE
  5
C6E
330
A87
100
AcDbEntity
  8
0
  6
Continuous
 62
     7
370
    15
100
AcDbLine
 10
2210.782880168848
 20
794.0346810837255
 30
0.0
 11
2210.606103473552
 21
794.136732097703
 31
0.0
  0
LINE
  5
C6F
330
A87
100
AcDbEntity
  8
0
  6
Continuous
 62
     7
370
    15
100
AcDbLine
 10
2210.782880168848
 20
794.0346810837255
 30
0.0
 11
2209.015113215881
 21
793.014170943947
 31
0.0
  0
LINE
  5
C70
330
A87
100
AcDbEntity
  8
0
  6
Continuous
 62
     7
370
    15
100
AcDbLine
 10
2209.015113215881
 20
793.014170943947
 30
0.0
 11
2208.838336520585
 21
793.1162219579245
 31
0.0
  0
LINE
  5
C71
330
A87
100
AcDbEntity
  8
0
  6
Continuous
 62
     7
370
    15
100
AcDbLine
 10
2210.606103473552
 20
793.0752290422549
 30
0.0
 11
2210.782880168848
 21
794.0346810837255
 31
0.0
  0
LINE
  5
C72
330
A87
100
AcDbEntity
  8
0
  6
Continuous
 62
     7
370
    15
100
AcDbLine
 10
2208.838336520585
 20
792.0547189024733
 30
0.0
 11
2209.015113215881
 21
793.014170943947
 31
0.0
  0
LINE
  5
C73
330
A87
100
AcDbEntity
  8
0
  6
Continuous
 62
     7
370
    15
100
AcDbLine
 10
2204.348915566757
 20
785.5835996418666
 30
0.0
 11
2204.348915566757
 21
785.5836394518855
 31
0.0
  0
LINE
  5
C74
330
A87
100
AcDbEntity
  8
0
  6
Continuous
 62
     7
370
    15
100
AcDbLine
 10
2204.348915566757
 20
785.5835996418666
 30
0.0
 11
2204.348950046981
 21
785.583619546876
 31
0.0
  0
LINE
  5
C75
330
A87
100
AcDbEntity
  8
0
  6
Continuous
 62
     7
370
    15
100
AcDbLine
 10
2204.348915566757
 20
785.5835996418666
 30
0.0
 11
2203.076123360621
 21
786.3183669425072
 31
0.0
  0
LINE
  5
C76
330
A87
100
AcDbEntity
  8
0
  6
Continuous
 62
     7
370
    15
100
AcDbLine
 10
2203.076123360621
 20
786.3183669425072
 30
0.0
 11
2202.686507524187
 21
786.5433239361823
 31
0.0
  0
LINE
  5
C77
330
A87
100
AcDbEntity
  8
0
  6
Continuous
 62
     7
370
    15
100
AcDbLine
 10
2203.216130503295
 20
785.5053208737294
 30
0.0
 11
2203.076240888666
 21
785.5860774293034
 31
0.0
  0
ARC
  5
C78
330
A87
100
AcDbEntity
  8
0
  6
Continuous
 62
     7
370
    15
100
AcDbCircle
 10
2203.285138606736
 20
785.5899232634977
 30
0.0
 40
0.1091772993570891
100
AcDbArc
 50
230.796714764134
 51
9.214036990520664
  0
LINE
  5
C79
330
A87
100
AcDbEntity
  8
0
  6
Continuous
 62
     7
370
    15
100
AcDbLine
 10
2203.392907198592
 20
786.1354915254593
 30
0.0
 11
2203.392907198592
 21
785.607405062723
 31
0.0
  0
LINE
  5
C7A
330
A87
100
AcDbEntity
  8
0
  6
Continuous
 62
     7
370
    15
100
AcDbLine
 10
2204.102842406931
 20
785.1975681906043
 30
0.0
 11
2204.102842406905
 21
785.725654653323
 31
0.0
  0
ARC
  5
C7B
330
A87
100
AcDbEntity
  8
0
  6
Continuous
 62
     7
370
    15
100
AcDbCircle
 10
2204.486646432375
 20
785.2150334037286
 30
0.0
 40
0.3842012019976948
100
AcDbArc
 50
182.6054784937742
 51
237.3945216518965
  0
LINE
  5
C7C
330
A87
100
AcDbEntity
  8
0
  6
Continuous
 62
     7
370
    15
100
AcDbLine
 10
2204.419508716849
 20
784.8106254180861
 30
0.0
 11
2204.279619102228
 21
784.8913819736551
 31
0.0
  0
ARC
  5
C7D
330
A87
100
AcDbEntity
  8
0
  6
Continuous
 62
     7
370
    15
100
AcDbCircle
 10
2204.212481387131
 20
784.4869739881606
 30
0.0
 40
0.3842012016414911
100
AcDbArc
 50
2.605478480753596
 51
57.39452169399761
  0
LINE
  5
C7E
330
A87
100
AcDbEntity
  8
0
  6
Continuous
 62
     7
370
    15
100
AcDbLine
 10
2204.596285412224
 20
784.5044392011815
 30
0.0
 11
2204.596285412236
 21
779.032993885082
 31
0.0
  0
LINE
  5
C7F
330
A87
100
AcDbEntity
  8
0
  6
Continuous
 62
     7
370
    15
100
AcDbLine
 10
2202.899464193479
 20
780.0125479243172
 30
0.0
 11
2204.596285412236
 21
779.032993885082
 31
0.0
  0
LINE
  5
C80
330
A87
100
AcDbEntity
  8
0
  6
Continuous
 62
     7
370
    15
100
AcDbLine
 10
2202.899464193479
 20
780.0125479243172
 30
0.0
 11
2202.899464193535
 21
785.4839932404056
 31
0.0
  0
ARC
  5
C81
330
A87
100
AcDbEntity
  8
0
  6
Continuous
 62
     7
370
    15
100
AcDbCircle
 10
2203.007232785248
 20
785.5014750396891
 30
0.0
 40
0.1091772992240022
100
AcDbArc
 50
50.79671472199626
 51
189.214037032807
  0
LINE
  5
C82
330
A87
100
AcDbEntity
  8
0
  6
Continuous
 62
     7
370
    15
100
AcDbLine
 10
2205.941320037987
 20
786.4629109883177
 30
0.0
 11
2205.941320037987
 21
786.258898735957
 31
0.0
  0
LINE
  5
C83
330
A87
100
AcDbEntity
  8
0
  6
Continuous
 62
     7
370
    15
100
AcDbLine
 10
2205.941320037987
 20
786.258898735957
 30
0.0
 11
2204.102842406931
 21
785.1975681906043
 31
0.0
  0
LINE
  5
C84
330
A87
100
AcDbEntity
  8
0
  6
Continuous
 62
     7
370
    15
100
AcDbLine
 10
2206.257986347905
 20
785.8719559634388
 30
0.0
 11
2204.419508716849
 21
784.8106254180861
 31
0.0
  0
ARC
  5
C85
330
A87
100
AcDbEntity
  8
0
  6
Continuous
 62
     7
370
    15
100
AcDbCircle
 10
2206.05095901786
 20
785.5483045334217
 30
0.0
 40
0.3842012018949228
100
AcDbArc
 50
2.605478486191128
 51
57.39452166025163
  0
LINE
  5
C86
330
A87
100
AcDbEntity
  8
0
  6
Continuous
 62
     7
370
    15
100
AcDbLine
 10
2204.596285412224
 20
784.5044392011815
 30
0.0
 11
2206.434763043203
 21
785.5657697464906
 31
0.0
  0
ARC
  5
C87
330
A87
100
AcDbEntity
  8
0
  6
Continuous
 62
     7
370
    15
100
AcDbCircle
 10
2206.325124063327
 20
786.2763639490212
 30
0.0
 40
0.3842012018913278
100
AcDbArc
 50
182.6054784855392
 51
237.3945216601217
  0
LINE
  5
C88
330
A87
100
AcDbEntity
  8
0
  6
Continuous
 62
     7
370
    15
100
AcDbLine
 10
2206.118096733284
 20
785.9527125190077
 30
0.0
 11
2204.279619102228
 21
784.8913819736551
 31
0.0
  0
LINE
  5
C89
330
A87
100
AcDbEntity
  8
0
  6
Continuous
 62
     7
370
    15
100
AcDbLine
 10
2206.434763043203
 20
780.0910062000455
 30
0.0
 11
2206.434763043203
 21
785.5657697464906
 31
0.0
  0
LINE
  5
C8A
330
A87
100
AcDbEntity
  8
0
  6
Continuous
 62
     7
370
    15
100
AcDbLine
 10
2206.23437120027
 20
778.6629588931613
 30
0.0
 11
2206.434763043203
 21
780.0910062000455
 31
0.0
  0
ARC
  5
C8B
330
A87
100
AcDbEntity
  8
0
  6
Continuous
 62
     7
370
    15
100
AcDbCircle
 10
2205.693255709299
 20
778.7456683661669
 30
0.0
 40
0.5474000653039168
100
AcDbArc
 50
302.9067666138728
 51
351.3096048990174
  0
LINE
  5
C8C
330
A87
100
AcDbEntity
  8
0
  6
Continuous
 62
     7
370
    15
100
AcDbLine
 10
2205.040911417788
 20
777.7378267300971
 30
0.0
 11
2205.990643716159
 21
778.286095515717
 31
0.0
  0
LWPOLYLINE
  5
C8D
330
A87
100
AcDbEntity
  8
0
  6
Continuous
 62
     7
370
    15
100
AcDbPolyline
 90
        9
 70
   128
 43
0.0
 10
2205.040911417788
 20
777.7378267300971
 10
2204.9979356864
 20
777.7173591498397
 10
2204.956265750861
 20
777.706197029434
 10
2204.917167731081
 20
777.7046795242608
 10
2204.881829600603
 20
777.7128527429462
 10
2204.851325090642
 20
777.7304683463767
 10
2204.826581065295
 20
777.7569910933557
 10
2204.808349359252
 20
777.7916151036377
 10
2204.797183933676
 20
777.8332883441906
  0
LINE
  5
C8E
330
A87
100
AcDbEntity
  8
0
  6
Continuous
 62
     7
370
    15
100
AcDbLine
 10
2204.596285412236
 20
779.032993885082
 30
0.0
 11
2204.797183933676
 21
777.8332883441906
 31
0.0
  0
LINE
  5
C8F
330
A87
100
AcDbEntity
  8
0
  6
Continuous
 62
     7
370
    15
100
AcDbLine
 10
2206.118096733284
 20
785.9527125190077
 30
0.0
 11
2206.257986347905
 21
785.8719559634388
 31
0.0
  0
LINE
  5
C90
330
A87
100
AcDbEntity
  8
0
  6
Continuous
 62
     7
370
    15
100
AcDbLine
 10
2200.625253924676
 20
775.4248844143194
 30
0.0
 11
2198.928432705928
 21
776.4044384535087
 31
0.0
  0
LINE
  5
C91
330
A87
100
AcDbEntity
  8
0
  6
Continuous
 62
     7
370
    15
100
AcDbLine
 10
2198.928432705928
 20
776.4044384535087
 30
0.0
 11
2198.727534184479
 21
777.6041439944457
 31
0.0
  0
LINE
  5
C92
330
A87
100
AcDbEntity
  8
0
  6
Continuous
 62
     7
370
    15
100
AcDbLine
 10
2208.555493808035
 20
789.1984856824689
 30
0.0
 11
2206.858437533187
 21
790.1781754166564
 31
0.0
  0
LINE
  5
C93
330
A87
100
AcDbEntity
  8
0
  6
Continuous
 62
     7
370
    15
100
AcDbLine
 10
2208.555493808035
 20
787.9720413830175
 30
0.0
 11
2208.520845575757
 21
787.9920433817569
 31
0.0
  0
LINE
  5
C94
330
A87
100
AcDbEntity
  8
0
  6
Continuous
 62
     7
370
    15
100
AcDbLine
 10
2208.520845575757
 20
787.9920433817569
 30
0.0
 11
2206.858437533188
 21
788.9517311172048
 31
0.0
  0
ARC
  5
C95
330
A87
100
AcDbEntity
  8
0
  6
Continuous
 62
     7
370
    15
100
AcDbCircle
 10
2199.078933332484
 20
776.4188212796211
 30
0.0
 40
0.1511863230619326
100
AcDbArc
 50
185.4589815370129
 51
237.2630757801343
  0
LINE
  5
C96
330
A87
100
AcDbEntity
  8
0
  6
Continuous
 62
     7
370
    15
100
AcDbLine
 10
2208.520845575757
 20
787.992003571738
 30
0.0
 11
2208.520845575757
 21
787.9920433817569
 31
0.0
  0
LINE
  5
C97
330
A87
100
AcDbEntity
  8
0
  6
Continuous
 62
     7
370
    15
100
AcDbLine
 10
2208.520845575757
 20
787.992003571738
 30
0.0
 11
2208.520880055981
 21
787.9920234767474
 31
0.0
  0
LINE
  5
C98
330
A87
100
AcDbEntity
  8
0
  6
Continuous
 62
     7
370
    15
100
AcDbLine
 10
2208.520845575757
 20
787.992003571738
 30
0.0
 11
2207.248053369622
 21
788.7267708723785
 31
0.0
  0
LINE
  5
C99
330
A87
100
AcDbEntity
  8
0
  6
Continuous
 62
     7
370
    15
100
AcDbLine
 10
2207.248053369622
 20
788.7267708723785
 30
0.0
 11
2206.858437533187
 21
788.9517278660535
 31
0.0
  0
LINE
  5
C9A
330
A87
100
AcDbEntity
  8
0
  6
Continuous
 62
     7
370
    15
100
AcDbLine
 10
2207.388060512296
 20
787.9137248036007
 30
0.0
 11
2207.248170897667
 21
787.9944813591746
 31
0.0
  0
ARC
  5
C9B
330
A87
100
AcDbEntity
  8
0
  6
Continuous
 62
     7
370
    15
100
AcDbCircle
 10
2207.457068615736
 20
787.9983271933691
 30
0.0
 40
0.1091772993571494
100
AcDbArc
 50
230.7967147642559
 51
9.214036990482085
  0
LINE
  5
C9C
330
A87
100
AcDbEntity
  8
0
  6
Continuous
 62
     7
370
    15
100
AcDbLine
 10
2207.564837207593
 20
788.5438954553306
 30
0.0
 11
2207.564837207593
 21
788.0158089925944
 31
0.0
  0
LINE
  5
C9D
330
A87
100
AcDbEntity
  8
0
  6
Continuous
 62
     7
370
    15
100
AcDbLine
 10
2208.274772415932
 20
787.6059721204756
 30
0.0
 11
2208.274772415906
 21
788.1340585831943
 31
0.0
  0
ARC
  5
C9E
330
A87
100
AcDbEntity
  8
0
  6
Continuous
 62
     7
370
    15
100
AcDbCircle
 10
2208.658576441377
 20
787.6234373336002
 30
0.0
 40
0.3842012019985545
100
AcDbArc
 50
182.6054784938132
 51
237.3945216518096
  0
LINE
  5
C9F
330
A87
100
AcDbEntity
  8
0
  6
Continuous
 62
     7
370
    15
100
AcDbLine
 10
2208.59143872585
 20
787.2190293479574
 30
0.0
 11
2208.451549111229
 21
787.2997859035264
 31
0.0
  0
ARC
  5
CA0
330
A87
100
AcDbEntity
  8
0
  6
Continuous
 62
     7
370
    15
100
AcDbCircle
 10
2208.384411396132
 20
786.895377918032
 30
0.0
 40
0.3842012016413763
100
AcDbArc
 50
2.605478480753596
 51
57.39452169401957
  0
LINE
  5
CA1
330
A87
100
AcDbEntity
  8
0
  6
Continuous
 62
     7
370
    15
100
AcDbLine
 10
2208.768215421224
 20
786.9128431310529
 30
0.0
 11
2208.768215421236
 21
781.4413978149533
 31
0.0
  0
LINE
  5
CA2
330
A87
100
AcDbEntity
  8
0
  6
Continuous
 62
     7
370
    15
100
AcDbLine
 10
2207.071394202481
 20
782.4209518541883
 30
0.0
 11
2208.768215421236
 21
781.4413978149533
 31
0.0
  0
LINE
  5
CA3
330
A87
100
AcDbEntity
  8
0
  6
Continuous
 62
     7
370
    15
100
AcDbLine
 10
2207.071394202481
 20
782.4209518541883
 30
0.0
 11
2207.071394202536
 21
787.892397170277
 31
0.0
  0
ARC
  5
CA4
330
A87
100
AcDbEntity
  8
0
  6
Continuous
 62
     7
370
    15
100
AcDbCircle
 10
2207.179162794249
 20
787.9098789695604
 30
0.0
 40
0.1091772992239461
100
AcDbArc
 50
50.79671472193116
 51
189.2140370328135
  0
LINE
  5
CA5
330
A87
100
AcDbEntity
  8
0
  6
Continuous
 62
     7
370
    15
100
AcDbLine
 10
2210.113250046988
 20
788.8713149181892
 30
0.0
 11
2210.113250046988
 21
788.6673026658284
 31
0.0
  0
LINE
  5
CA6
330
A87
100
AcDbEntity
  8
0
  6
Continuous
 62
     7
370
    15
100
AcDbLine
 10
2210.113250046988
 20
788.6673026658284
 30
0.0
 11
2208.274772415932
 21
787.6059721204756
 31
0.0
  0
LINE
  5
CA7
330
A87
100
AcDbEntity
  8
0
  6
Continuous
 62
     7
370
    15
100
AcDbLine
 10
2210.429916356905
 20
788.28035989331
 30
0.0
 11
2208.59143872585
 21
787.2190293479574
 31
0.0
  0
ARC
  5
CA8
330
A87
100
AcDbEntity
  8
0
  6
Continuous
 62
     7
370
    15
100
AcDbCircle
 10
2210.222889026861
 20
787.9567084632933
 30
0.0
 40
0.3842012018941878
100
AcDbArc
 50
2.605478486145579
 51
57.39452166030957
  0
LINE
  5
CA9
330
A87
100
AcDbEntity
  8
0
  6
Continuous
 62
     7
370
    15
100
AcDbLine
 10
2208.768215421224
 20
786.9128431310529
 30
0.0
 11
2210.606693052204
 21
787.9741736763618
 31
0.0
  0
ARC
  5
CAA
330
A87
100
AcDbEntity
  8
0
  6
Continuous
 62
     7
370
    15
100
AcDbCircle
 10
2210.49705407233
 20
788.6847678788937
 30
0.0
 40
0.3842012018934792
100
AcDbArc
 50
182.6054784856889
 51
237.3945216599663
  0
LINE
  5
CAB
330
A87
100
AcDbEntity
  8
0
  6
Continuous
 62
     7
370
    15
100
AcDbLine
 10
2210.290026742285
 20
788.3611164488789
 30
0.0
 11
2208.451549111229
 21
787.2997859035264
 31
0.0
  0
LINE
  5
CAC
330
A87
100
AcDbEntity
  8
0
  6
Continuous
 62
     7
370
    15
100
AcDbLine
 10
2210.606693052203
 20
782.4994101299166
 30
0.0
 11
2210.606693052204
 21
787.9741736763618
 31
0.0
  0
LINE
  5
CAD
330
A87
100
AcDbEntity
  8
0
  6
Continuous
 62
     7
370
    15
100
AcDbLine
 10
2210.406301209271
 20
781.0713628230326
 30
0.0
 11
2210.606693052203
 21
782.4994101299166
 31
0.0
  0
ARC
  5
CAE
330
A87
100
AcDbEntity
  8
0
  6
Continuous
 62
     7
370
    15
100
AcDbCircle
 10
2209.8651857183
 20
781.1540722960382
 30
0.0
 40
0.5474000653037527
100
AcDbArc
 50
302.9067666138474
 51
351.3096048990174
  0
LINE
  5
CAF
330
A87
100
AcDbEntity
  8
0
  6
Continuous
 62
     7
370
    15
100
AcDbLine
 10
2209.212841426789
 20
780.1462306599685
 30
0.0
 11
2210.162573725159
 21
780.6944994455883
 31
0.0
  0
LWPOLYLINE
  5
CB0
330
A87
100
AcDbEntity
  8
0
  6
Continuous
 62
     7
370
    15
100
AcDbPolyline
 90
        9
 70
   128
 43
0.0
 10
2209.212841426789
 20
780.1462306599685
 10
2209.169865695399
 20
780.1257630797111
 10
2209.128195759862
 20
780.1146009593054
 10
2209.089097740081
 20
780.113083454132
 10
2209.053759609604
 20
780.1212566728175
 10
2209.023255099642
 20
780.1388722762478
 10
2208.998511074296
 20
780.165395023227
 10
2208.980279368253
 20
780.2000190335089
 10
2208.969113942677
 20
780.2416922740619
  0
LINE
  5
CB1
330
A87
100
AcDbEntity
  8
0
  6
Continuous
 62
     7
370
    15
100
AcDbLine
 10
2208.768215421236
 20
781.4413978149533
 30
0.0
 11
2208.969113942677
 21
780.2416922740619
 31
0.0
  0
LINE
  5
CB2
330
A87
100
AcDbEntity
  8
0
  6
Continuous
 62
     7
370
    15
100
AcDbLine
 10
2210.290026742285
 20
788.3611164488789
 30
0.0
 11
2210.429916356905
 21
788.28035989331
 31
0.0
  0
LINE
  5
CB3
330
A87
100
AcDbEntity
  8
0
  6
Continuous
 62
     7
370
    15
100
AcDbLine
 10
2204.797183933676
 20
777.8332883441906
 30
0.0
 11
2203.100362714928
 21
778.81284238338
 31
0.0
  0
LINE
  5
CB4
330
A87
100
AcDbEntity
  8
0
  6
Continuous
 62
     7
370
    15
100
AcDbLine
 10
2203.100362714928
 20
778.81284238338
 30
0.0
 11
2202.899464193479
 21
780.0125479243172
 31
0.0
  0
ARC
  5
CB5
330
A87
100
AcDbEntity
  8
0
  6
Continuous
 62
     7
370
    15
100
AcDbCircle
 10
2203.250863341486
 20
778.8272252094927
 30
0.0
 40
0.1511863230622093
100
AcDbArc
 50
185.4589815370647
 51
237.2630757800693
  0
LINE
  5
CB6
330
A87
100
AcDbEntity
  8
0
  6
Continuous
 62
     7
370
    15
100
AcDbLine
 10
2208.969113942677
 20
780.2416922740619
 30
0.0
 11
2207.272292723929
 21
781.2212463132514
 31
0.0
  0
LINE
  5
CB7
330
A87
100
AcDbEntity
  8
0
  6
Continuous
 62
     7
370
    15
100
AcDbLine
 10
2207.272292723929
 20
781.2212463132514
 30
0.0
 11
2207.071394202481
 21
782.4209518541883
 31
0.0
  0
ARC
  5
CB8
330
A87
100
AcDbEntity
  8
0
  6
Continuous
 62
     7
370
    15
100
AcDbCircle
 10
2207.422793350486
 20
781.2356291393639
 30
0.0
 40
0.151186323062088
100
AcDbArc
 50
185.4589815370388
 51
237.2630757800763
  0
LINE
  5
CB9
330
A87
100
AcDbEntity
  8
0
  6
Continuous
 62
     8
370
    15
100
AcDbLine
 10
2169.84069043129
 20
766.2380894347531
 30
0.0
 11
2170.017467124252
 21
766.3401404473831
 31
0.0
  0
LINE
  5
CBA
330
A87
100
AcDbEntity
  8
0
  6
Continuous
 62
     8
370
    15
100
AcDbLine
 10
2169.700800816661
 20
766.3188459903271
 30
0.0
 11
2170.017467126587
 21
766.5016535598788
 31
0.0
  0
LINE
  5
CBB
330
A87
100
AcDbEntity
  8
0
  6
Continuous
 62
     8
370
    15
100
AcDbLine
 10
2174.012620440291
 20
768.6464933646302
 30
0.0
 11
2174.189397133253
 21
768.7485443772602
 31
0.0
  0
LINE
  5
CBC
330
A87
100
AcDbEntity
  8
0
  6
Continuous
 62
     8
370
    15
100
AcDbLine
 10
2173.872730825662
 20
768.7272499202041
 30
0.0
 11
2174.189397135588
 21
768.9100574897557
 31
0.0
  0
LINE
  5
CBD
330
A87
100
AcDbEntity
  8
0
  6
Continuous
 62
     8
370
    15
100
AcDbLine
 10
2178.184550449292
 20
771.0548972945016
 30
0.0
 11
2178.361327142253
 21
771.1569483071314
 31
0.0
  0
LINE
  5
CBE
330
A87
100
AcDbEntity
  8
0
  6
Continuous
 62
     8
370
    15
100
AcDbLine
 10
2178.044660834662
 20
771.1356538500755
 30
0.0
 11
2178.361327144588
 21
771.3184614196273
 31
0.0
  0
LINE
  5
CBF
330
A87
100
AcDbEntity
  8
0
  6
Continuous
 62
     8
370
    15
100
AcDbLine
 10
2182.356480458292
 20
773.4633012243729
 30
0.0
 11
2182.533257151254
 21
773.5653522370028
 31
0.0
  0
LINE
  5
CC0
330
A87
100
AcDbEntity
  8
0
  6
Continuous
 62
     8
370
    15
100
AcDbLine
 10
2182.216590843663
 20
773.5440577799468
 30
0.0
 11
2182.533257153589
 21
773.7268653494985
 31
0.0
  0
LINE
  5
CC1
330
A87
100
AcDbEntity
  8
0
  6
Continuous
 62
     8
370
    15
100
AcDbLine
 10
2186.528410467293
 20
775.8717051542442
 30
0.0
 11
2186.705187160255
 21
775.9737561668742
 31
0.0
  0
LINE
  5
CC2
330
A87
100
AcDbEntity
  8
0
  6
Continuous
 62
     8
370
    15
100
AcDbLine
 10
2186.388520852664
 20
775.9524617098182
 30
0.0
 11
2186.70518716259
 21
776.1352692793698
 31
0.0
  0
LINE
  5
CC3
330
A87
100
AcDbEntity
  8
0
  6
Continuous
 62
     8
370
    15
100
AcDbLine
 10
2190.700340476293
 20
778.2801090841156
 30
0.0
 11
2190.877117169256
 21
778.3821600967455
 31
0.0
  0
LINE
  5
CC4
330
A87
100
AcDbEntity
  8
0
  6
Continuous
 62
     8
370
    15
100
AcDbLine
 10
2190.560450861664
 20
778.3608656396896
 30
0.0
 11
2190.87711717159
 21
778.5436732092412
 31
0.0
  0
LINE
  5
CC5
330
A87
100
AcDbEntity
  8
0
  6
Continuous
 62
     8
370
    15
100
AcDbLine
 10
2194.872270485294
 20
780.6885130139869
 30
0.0
 11
2195.049047178256
 21
780.7905640266167
 31
0.0
  0
LINE
  5
CC6
330
A87
100
AcDbEntity
  8
0
  6
Continuous
 62
     8
370
    15
100
AcDbLine
 10
2194.732380870665
 20
780.7692695695608
 30
0.0
 11
2195.049047180591
 21
780.9520771391126
 31
0.0
  0
LINE
  5
CC7
330
A87
100
AcDbEntity
  8
0
  6
Continuous
 62
     8
370
    15
100
AcDbLine
 10
2199.044200494295
 20
783.0969169438581
 30
0.0
 11
2199.220977187257
 21
783.198967956488
 31
0.0
  0
LINE
  5
CC8
330
A87
100
AcDbEntity
  8
0
  6
Continuous
 62
     8
370
    15
100
AcDbLine
 10
2198.904310879665
 20
783.177673499432
 30
0.0
 11
2199.220977189591
 21
783.3604810689837
 31
0.0
  0
LINE
  5
CC9
330
A87
100
AcDbEntity
  8
0
  6
Continuous
 62
     8
370
    15
100
AcDbLine
 10
2203.216130503295
 20
785.5053208737294
 30
0.0
 11
2203.392907196257
 21
785.6073718863594
 31
0.0
  0
LINE
  5
CCA
330
A87
100
AcDbEntity
  8
0
  6
Continuous
 62
     8
370
    15
100
AcDbLine
 10
2203.076240888666
 20
785.5860774293034
 30
0.0
 11
2203.392907198592
 21
785.7688849988552
 31
0.0
  0
LINE
  5
CCB
330
A87
100
AcDbEntity
  8
0
  6
Continuous
 62
     8
370
    15
100
AcDbLine
 10
2207.388060512296
 20
787.9137248036007
 30
0.0
 11
2207.564837205258
 21
788.0157758162306
 31
0.0
  0
LINE
  5
CCC
330
A87
100
AcDbEntity
  8
0
  6
Continuous
 62
     8
370
    15
100
AcDbLine
 10
2207.248170897667
 20
787.9944813591746
 30
0.0
 11
2207.564837207593
 21
788.1772889287264
 31
0.0
  0
ENDBLK
  5
A89
330
A87
100
AcDbEntity
  8
0
100
AcDbBlockEnd
  0
ENDSEC
  0
SECTION
  2
ENTITIES
  0
INSERT
  5
A4F
330
1F
100
AcDbEntity
  8
0
100
AcDbBlockReference
  2
1
 10
0.0
 20
0.0
 30
0.0
  0
INSERT
  5
A7E
330
1F
100
AcDbEntity
  8
0
100
AcDbBlockReference
  2
2
 10
0.0
 20
0.0
 30
0.0
  0
INSERT
  5
A86
330
1F
100
AcDbEntity
  8
0
100
AcDbBlockReference
  2
3
 10
0.0
 20
0.0
 30
0.0
  0
INSERT
  5
CCD
330
1F
100
AcDbEntity
  8
0
100
AcDbBlockReference
  2
4
 10
0.0
 20
0.0
 30
0.0
  0
ENDSEC
  0
SECTION
  2
OBJECTS
  0
DICTIONARY
  5
C
330
0
100
AcDbDictionary
281
     1
  3
ACAD_COLOR
350
6B
  3
ACAD_GROUP
350
D
  3
ACAD_LAYOUT
350
1A
  3
ACAD_MATERIAL
350
6A
  3
ACAD_MLEADERSTYLE
350
12D
  3
ACAD_MLINESTYLE
350
17
  3
ACAD_PLOTSETTINGS
350
19
  3
ACAD_PLOTSTYLENAME
350
E
  3
ACAD_SCALELIST
350
10C
  3
ACAD_TABLESTYLE
350
7E
  3
ACAD_VISUALSTYLE
350
EF
  3
ACDB_RECOMPOSE_DATA
350
15D
  3
AcDbVariableDictionary
350
5E
  3
DWGPROPS
350
CE9
  0
DICTIONARY
  5
13C
330
10
100
AcDbDictionary
280
     1
281
     1
  3
ADSK_XREC_LAYER_RECONCILED
360
CCE
  0
DICTIONARY
  5
6B
102
{ACAD_REACTORS
330
C
102
}
330
C
100
AcDbDictionary
281
     1
  0
DICTIONARY
  5
D
102
{ACAD_REACTORS
330
C
102
}
330
C
100
AcDbDictionary
281
     1
  0
DICTIONARY
  5
1A
102
{ACAD_REACTORS
330
C
102
}
330
C
100
AcDbDictionary
281
     1
  3
Layout1
350
D3
  3
Layout2
350
D7
  3
Model
350
22
  0
DICTIONARY
  5
6A
102
{ACAD_REACTORS
330
C
102
}
330
C
100
AcDbDictionary
281
     1
  3
ByBlock
350
ED
  3
ByLayer
350
EC
  3
Global
350
EE
  0
DICTIONARY
  5
12D
102
{ACAD_REACTORS
330
C
102
}
330
C
100
AcDbDictionary
281
     1
  3
Annotative
350
13B
  3
Standard
350
12E
  0
DICTIONARY
  5
17
102
{ACAD_REACTORS
330
C
102
}
330
C
100
AcDbDictionary
281
     1
  3
Standard
350
18
  0
DICTIONARY
  5
19
102
{ACAD_REACTORS
330
C
102
}
330
C
100
AcDbDictionary
281
     1
  0
ACDBDICTIONARYWDFLT
  5
E
102
{ACAD_REACTORS
330
C
102
}
330
C
100
AcDbDictionary
281
     1
  3
Normal
350
F
100
AcDbDictionaryWithDefault
340
F
  0
DICTIONARY
  5
10C
102
{ACAD_REACTORS
330
C
102
}
330
C
100
AcDbDictionary
281
     1
  3
A0
350
10D
  3
A1
350
188
  3
A2
350
189
  3
A3
350
18A
  3
A4
350
18B
  3
A5
350
18C
  3
A6
350
18D
  3
A7
350
18E
  3
A8
350
18F
  3
A9
350
190
  3
B0
350
191
  3
B1
350
192
  3
B2
350
193
  3
B3
350
194
  3
B4
350
195
  3
B5
350
196
  3
B6
350
197
  3
B7
350
198
  3
B8
350
199
  3
B9
350
19A
  3
C0
350
19B
  3
C1
350
19C
  3
C2
350
19D
  3
C3
350
19E
  3
C4
350
19F
  3
C5
350
1A0
  3
C6
350
1A1
  3
C7
350
1A2
  3
C8
350
1A3
  3
C9
350
1A4
  3
D0
350
1A5
  3
D1
350
1A6
  3
D2
350
1A7
  0
DICTIONARY
  5
7E
102
{ACAD_REACTORS
330
C
102
}
330
C
100
AcDbDictionary
281
     1
  3
Standard
350
7F
  0
DICTIONARY
  5
EF
102
{ACAD_REACTORS
330
C
102
}
330
C
100
AcDbDictionary
281
     1
  3
2dWireframe
350
F5
  3
3D Hidden
350
F7
  3
3dWireframe
350
F6
  3
Basic
350
F4
  3
Brighten
350
FB
  3
ColorChange
350
FF
  3
Conceptual
350
F8
  3
Dim
350
FA
  3
Facepattern
350
FE
  3
Flat
350
F0
  3
FlatWithEdges
350
F1
  3
Gouraud
350
F2
  3
GouraudWithEdges
350
F3
  3
Linepattern
350
FD
  3
Realistic
350
F9
  3
Thicken
350
FC
  0
XRECORD
  5
15D
102
{ACAD_REACTORS
330
C
102
}
330
C
100
AcDbXrecord
280
     1
 90
        1
330
7F
  0
DICTIONARY
  5
5E
102
{ACAD_REACTORS
330
C
102
}
330
C
100
AcDbDictionary
281
     1
  3
CANNOSCALE
350
146
  3
CMLEADERSTYLE
350
145
  3
CTABLESTYLE
350
84
  3
DIMASSOC
350
5F
  3
HIDETEXT
350
63
  3
INDEXCTL
350
CD7
  3
LIGHTINGUNITS
350
CD5
  3
MSLTSCALE
350
CD4
  3
PSOLHEIGHT
350
CD9
  3
PSOLWIDTH
350
CD8
  3
SORTENTS
350
CD6
  0
XRECORD
  5
CE9
102
{ACAD_REACTORS
330
C
102
}
330
C
100
AcDbXrecord
280
     1
  1
DWGPROPS COOKIE
  2

  3

  4

  6

  7

  8
orhan kara
  9

300
=
301
=
302
=
303
=
304
=
305
=
306
=
307
=
308
=
309
=
 40
0.0004952083333333
 41
2458929.678214687
 42
2458956.439278194
  1

 90
        0
  0
XRECORD
  5
CCE
102
{ACAD_REACTORS
330
13C
102
}
330
13C
100
AcDbXrecord
280
     1
290
     1
  0
LAYOUT
  5
D3
102
{ACAD_XDICTIONARY
360
CED
102
}
102
{ACAD_REACTORS
330
1A
102
}
330
1A
100
AcDbPlotSettings
  1

  2
C:\Documents and Settings\basas\Application Data\Autodesk\AutoCAD 2005\R16.1\enu\plotters\Default Windows System Printer.pc3
  4

  6

 40
0.0
 41
0.0
 42
0.0
 43
0.0
 44
0.0
 45
0.0
 46
0.0
 47
0.0
 48
0.0
 49
0.0
140
0.0
141
0.0
142
1.0
143
1.0
 70
   688
 72
     0
 73
     0
 74
     5
  7

 75
    16
147
1.0
148
0.0
149
0.0
100
AcDbLayout
  1
Layout1
 70
     1
 71
     1
 10
0.0
 20
0.0
 11
12.0
 21
9.0
 12
0.0
 22
0.0
 32
0.0
 14
0.0
 24
0.0
 34
0.0
 15
0.0
 25
0.0
 35
0.0
146
0.0
 13
0.0
 23
0.0
 33
0.0
 16
1.0
 26
0.0
 36
0.0
 17
0.0
 27
1.0
 37
0.0
 76
     0
330
D2
  0
LAYOUT
  5
D7
102
{ACAD_XDICTIONARY
360
CEF
102
}
102
{ACAD_REACTORS
330
1A
102
}
330
1A
100
AcDbPlotSettings
  1

  2
C:\Documents and Settings\basas\Application Data\Autodesk\AutoCAD 2005\R16.1\enu\plotters\Default Windows System Printer.pc3
  4

  6

 40
0.0
 41
0.0
 42
0.0
 43
0.0
 44
0.0
 45
0.0
 46
0.0
 47
0.0
 48
0.0
 49
0.0
140
0.0
141
0.0
142
1.0
143
1.0
 70
   688
 72
     0
 73
     0
 74
     5
  7

 75
    16
147
1.0
148
0.0
149
0.0
100
AcDbLayout
  1
Layout2
 70
     1
 71
     2
 10
0.0
 20
0.0
 11
12.0
 21
9.0
 12
0.0
 22
0.0
 32
0.0
 14
0.0
 24
0.0
 34
0.0
 15
0.0
 25
0.0
 35
0.0
146
0.0
 13
0.0
 23
0.0
 33
0.0
 16
1.0
 26
0.0
 36
0.0
 17
0.0
 27
1.0
 37
0.0
 76
     0
330
D6
  0
LAYOUT
  5
22
102
{ACAD_XDICTIONARY
360
CEA
102
}
102
{ACAD_REACTORS
330
1A
102
}
330
1A
100
AcDbPlotSettings
  1

  2
none_device
  4
ISO_A4_(210.00_x_297.00_MM)
  6

 40
7.5
 41
20.0
 42
7.5
 43
20.0
 44
210.0
 45
297.0
 46
11.54999923706054
 47
-13.65000009536743
 48
0.0
 49
0.0
140
0.0
141
0.0
142
1.0
143
8.704084754739808
 70
 11952
 72
     1
 73
     0
 74
     0
  7

 75
     0
147
0.1148885871608098
148
0.0
149
0.0
100
AcDbLayout
  1
Model
 70
     1
 71
     0
 10
0.0
 20
0.0
 11
12.0
 21
9.0
 12
0.0
 22
0.0
 32
0.0
 14
0.0
 24
0.0
 34
0.0
 15
0.0
 25
0.0
 35
0.0
146
0.0
 13
0.0
 23
0.0
 33
0.0
 16
1.0
 26
0.0
 36
0.0
 17
0.0
 27
1.0
 37
0.0
 76
     0
330
1F
331
EA
1001
ACAD_PSEXT
1000
None
1000
None
1000
Not applicable
1000
The layout will not be plotted unless a new plotter configuration name is selected.
1070
     0
  0
MATERIAL
  5
ED
102
{ACAD_XDICTIONARY
360
CF3
102
}
102
{ACAD_REACTORS
330
6A
102
}
330
6A
100
AcDbMaterial
  1
ByBlock
  0
MATERIAL
  5
EC
102
{ACAD_XDICTIONARY
360
CF1
102
}
102
{ACAD_REACTORS
330
6A
102
}
330
6A
100
AcDbMaterial
  1
ByLayer
  0
MATERIAL
  5
EE
102
{ACAD_XDICTIONARY
360
173
102
}
102
{ACAD_REACTORS
330
6A
102
}
330
6A
100
AcDbMaterial
  1
Global
 43
0.0007999999797903
 43
0.0
 43
0.0
 43
0.0
 43
0.0
 43
0.0007999999797903
 43
0.0
 43
0.0
 43
0.0
 43
0.0
 43
1.0
 43
0.0
 43
0.0
 43
0.0
 43
0.0
 43
1.0
 49
0.0007999999797903
 49
0.0
 49
0.0
 49
0.0
 49
0.0
 49
0.0007999999797903
 49
0.0
 49
0.0
 49
0.0
 49
0.0
 49
1.0
 49
0.0
 49
0.0
 49
0.0
 49
0.0
 49
1.0
142
0.0007999999797903
142
0.0
142
0.0
142
0.0
142
0.0
142
0.0007999999797903
142
0.0
142
0.0
142
0.0
142
0.0
142
1.0
142
0.0
142
0.0
142
0.0
142
0.0
142
1.0
144
0.0007999999797903
144
0.0
144
0.0
144
0.0
144
0.0
144
0.0007999999797903
144
0.0
144
0.0
144
0.0
144
0.0
144
1.0
144
0.0
144
0.0
144
0.0
144
0.0
144
1.0
1001
ACAD
1070
    -1
1070
     3
1070
     0
1000

1071
        0
1070
     0
  0
MLEADERSTYLE
  5
13B
102
{ACAD_REACTORS
330
12D
102
}
330
12D
100
AcDbMLeaderStyle
170
     2
171
     1
172
     0
 90
        2
 40
0.0
 41
0.0
173
     1
 91
-1056964608
340
14
 92
       -2
290
     1
 42
2.0
291
     1
 43
8.0
  3
Standard
 44
4.0
300

342
11
174
     1
178
     1
175
     1
176
     0
 93
-1056964608
 45
4.0
292
     0
297
     0
 46
4.0
 94
-1056964608
 47
1.0
 49
1.0
140
1.0
293
     1
141
0.0
294
     1
177
     0
142
1.0
295
     0
296
     1
143
3.75
1001
ACAD_MLEADERVER
1070
     2
  0
MLEADERSTYLE
  5
12E
102
{ACAD_REACTORS
330
12D
102
}
330
12D
100
AcDbMLeaderStyle
170
     2
171
     1
172
     0
 90
        2
 40
0.0
 41
0.0
173
     1
 91
-1056964608
340
14
 92
       -2
290
     1
 42
2.0
291
     1
 43
8.0
  3
Standard
 44
4.0
300

342
11
174
     1
178
     1
175
     1
176
     0
 93
-1056964608
 45
4.0
292
     0
297
     0
 46
4.0
 94
-1056964608
 47
1.0
 49
1.0
140
1.0
293
     1
141
0.0
294
     1
177
     0
142
1.0
295
     0
296
     0
143
3.75
1001
ACAD_MLEADERVER
1070
     2
  0
MLINESTYLE
  5
18
102
{ACAD_REACTORS
330
17
102
}
330
17
100
AcDbMlineStyle
  2
STANDARD
 70
     0
  3

 62
   256
 51
90.0
 52
90.0
 71
     2
 49
0.5
 62
   256
  6
BYLAYER
 49
-0.5
 62
   256
  6
BYLAYER
  0
ACDBPLACEHOLDER
  5
F
102
{ACAD_REACTORS
330
E
102
}
330
E
  0
SCALE
  5
10D
102
{ACAD_REACTORS
330
10C
102
}
330
10C
100
AcDbScale
 70
     0
300
1:1
140
1.0
141
1.0
290
     1
  0
SCALE
  5
188
102
{ACAD_REACTORS
330
10C
102
}
330
10C
100
AcDbScale
 70
     0
300
1:2
140
1.0
141
2.0
290
     0
  0
SCALE
  5
189
102
{ACAD_REACTORS
330
10C
102
}
330
10C
100
AcDbScale
 70
     0
300
1:4
140
1.0
141
4.0
290
     0
  0
SCALE
  5
18A
102
{ACAD_REACTORS
330
10C
102
}
330
10C
100
AcDbScale
 70
     0
300
1:5
140
1.0
141
5.0
290
     0
  0
SCALE
  5
18B
102
{ACAD_REACTORS
330
10C
102
}
330
10C
100
AcDbScale
 70
     0
300
1:8
140
1.0
141
8.0
290
     0
  0
SCALE
  5
18C
102
{ACAD_REACTORS
330
10C
102
}
330
10C
100
AcDbScale
 70
     0
300
1:10
140
1.0
141
10.0
290
     0
  0
SCALE
  5
18D
102
{ACAD_REACTORS
330
10C
102
}
330
10C
100
AcDbScale
 70
     0
300
1:16
140
1.0
141
16.0
290
     0
  0
SCALE
  5
18E
102
{ACAD_REACTORS
330
10C
102
}
330
10C
100
AcDbScale
 70
     0
300
1:20
140
1.0
141
20.0
290
     0
  0
SCALE
  5
18F
102
{ACAD_REACTORS
330
10C
102
}
330
10C
100
AcDbScale
 70
     0
300
1:30
140
1.0
141
30.0
290
     0
  0
SCALE
  5
190
102
{ACAD_REACTORS
330
10C
102
}
330
10C
100
AcDbScale
 70
     0
300
1:40
140
1.0
141
40.0
290
     0
  0
SCALE
  5
191
102
{ACAD_REACTORS
330
10C
102
}
330
10C
100
AcDbScale
 70
     0
300
1:50
140
1.0
141
50.0
290
     0
  0
SCALE
  5
192
102
{ACAD_REACTORS
330
10C
102
}
330
10C
100
AcDbScale
 70
     0
300
1:100
140
1.0
141
100.0
290
     0
  0
SCALE
  5
193
102
{ACAD_REACTORS
330
10C
102
}
330
10C
100
AcDbScale
 70
     0
300
2:1
140
2.0
141
1.0
290
     0
  0
SCALE
  5
194
102
{ACAD_REACTORS
330
10C
102
}
330
10C
100
AcDbScale
 70
     0
300
4:1
140
4.0
141
1.0
290
     0
  0
SCALE
  5
195
102
{ACAD_REACTORS
330
10C
102
}
330
10C
100
AcDbScale
 70
     0
300
8:1
140
8.0
141
1.0
290
     0
  0
SCALE
  5
196
102
{ACAD_REACTORS
330
10C
102
}
330
10C
100
AcDbScale
 70
     0
300
10:1
140
10.0
141
1.0
290
     0
  0
SCALE
  5
197
102
{ACAD_REACTORS
330
10C
102
}
330
10C
100
AcDbScale
 70
     0
300
100:1
140
100.0
141
1.0
290
     0
  0
SCALE
  5
198
102
{ACAD_REACTORS
330
10C
102
}
330
10C
100
AcDbScale
 70
     0
300
1/128" = 1'-0"
140
0.0078125
141
12.0
290
     0
  0
SCALE
  5
199
102
{ACAD_REACTORS
330
10C
102
}
330
10C
100
AcDbScale
 70
     0
300
1/64" = 1'-0"
140
0.015625
141
12.0
290
     0
  0
SCALE
  5
19A
102
{ACAD_REACTORS
330
10C
102
}
330
10C
100
AcDbScale
 70
     0
300
1/32" = 1'-0"
140
0.03125
141
12.0
290
     0
  0
SCALE
  5
19B
102
{ACAD_REACTORS
330
10C
102
}
330
10C
100
AcDbScale
 70
     0
300
1/16" = 1'-0"
140
0.0625
141
12.0
290
     0
  0
SCALE
  5
19C
102
{ACAD_REACTORS
330
10C
102
}
330
10C
100
AcDbScale
 70
     0
300
3/32" = 1'-0"
140
0.09375
141
12.0
290
     0
  0
SCALE
  5
19D
102
{ACAD_REACTORS
330
10C
102
}
330
10C
100
AcDbScale
 70
     0
300
1/8" = 1'-0"
140
0.125
141
12.0
290
     0
  0
SCALE
  5
19E
102
{ACAD_REACTORS
330
10C
102
}
330
10C
100
AcDbScale
 70
     0
300
3/16" = 1'-0"
140
0.1875
141
12.0
290
     0
  0
SCALE
  5
19F
102
{ACAD_REACTORS
330
10C
102
}
330
10C
100
AcDbScale
 70
     0
300
1/4" = 1'-0"
140
0.25
141
12.0
290
     0
  0
SCALE
  5
1A0
102
{ACAD_REACTORS
330
10C
102
}
330
10C
100
AcDbScale
 70
     0
300
3/8" = 1'-0"
140
0.375
141
12.0
290
     0
  0
SCALE
  5
1A1
102
{ACAD_REACTORS
330
10C
102
}
330
10C
100
AcDbScale
 70
     0
300
1/2" = 1'-0"
140
0.5
141
12.0
290
     0
  0
SCALE
  5
1A2
102
{ACAD_REACTORS
330
10C
102
}
330
10C
100
AcDbScale
 70
     0
300
3/4" = 1'-0"
140
0.75
141
12.0
290
     0
  0
SCALE
  5
1A3
102
{ACAD_REACTORS
330
10C
102
}
330
10C
100
AcDbScale
 70
     0
300
1" = 1'-0"
140
1.0
141
12.0
290
     0
  0
SCALE
  5
1A4
102
{ACAD_REACTORS
330
10C
102
}
330
10C
100
AcDbScale
 70
     0
300
1-1/2" = 1'-0"
140
1.5
141
12.0
290
     0
  0
SCALE
  5
1A5
102
{ACAD_REACTORS
330
10C
102
}
330
10C
100
AcDbScale
 70
     0
300
3" = 1'-0"
140
3.0
141
12.0
290
     0
  0
SCALE
  5
1A6
102
{ACAD_REACTORS
330
10C
102
}
330
10C
100
AcDbScale
 70
     0
300
6" = 1'-0"
140
6.0
141
12.0
290
     0
  0
SCALE
  5
1A7
102
{ACAD_REACTORS
330
10C
102
}
330
10C
100
AcDbScale
 70
     0
300
1'-0" = 1'-0"
140
12.0
141
12.0
290
     0
  0
TABLESTYLE
  5
7F
102
{ACAD_XDICTIONARY
360
162
102
}
102
{ACAD_REACTORS
330
7E
102
}
330
7E
100
AcDbTableStyle
  3
Standard
 70
     0
 71
     0
 40
1.5
 41
1.5
280
     0
281
     0
  7
Standard
140
4.5
170
     2
 62
     0
 63
     7
283
     0
274
    -2
284
     1
 64
     0
275
    -2
285
     1
 65
     0
276
    -2
286
     1
 66
     0
277
    -2
287
     1
 67
     0
278
    -2
288
     1
 68
     0
279
    -2
289
     1
 69
     0
  7
Standard
140
6.0
170
     5
 62
     0
 63
     7
283
     0
274
    -2
284
     1
 64
     0
275
    -2
285
     1
 65
     0
276
    -2
286
     1
 66
     0
277
    -2
287
     1
 67
     0
278
    -2
288
     1
 68
     0
279
    -2
289
     1
 69
     0
  7
Standard
140
4.5
170
     5
 62
     0
 63
     7
283
     0
274
    -2
284
     1
 64
     0
275
    -2
285
     1
 65
     0
276
    -2
286
     1
 66
     0
277
    -2
287
     1
 67
     0
278
    -2
288
     1
 68
     0
279
    -2
289
     1
 69
     0
  0
VISUALSTYLE
  5
F5
102
{ACAD_REACTORS
330
EF
102
}
330
EF
100
AcDbVisualStyle
  2
2dWireframe
 70
     4
 71
     0
 72
     2
 73
     1
 90
        0
 40
-0.6
 41
-30.0
 62
     5
 63
     7
 74
     1
 91
        4
 64
     7
 65
   257
 75
     1
175
     1
 42
1.0
 92
        0
 66
   257
 43
1.0
 76
     1
 77
     6
 78
     2
 67
     7
 79
     5
170
     0
171
     0
290
     0
174
     0
 93
        1
 44
0.0
173
     0
291
     0
 45
0.0
1001
ACAD
1000
AcDbSavedByObjectVersion
1070
     0
  0
VISUALSTYLE
  5
F7
102
{ACAD_REACTORS
330
EF
102
}
330
EF
100
AcDbVisualStyle
  2
3D Hidden
 70
     6
 71
     1
 72
     2
 73
     2
 90
        0
 40
-0.6
 41
-30.0
 62
     5
 63
     7
 74
     2
 91
        2
 64
     7
 65
   257
 75
     2
175
     1
 42
40.0
 92
        0
 66
   257
 43
1.0
 76
     1
 77
     6
 78
     2
 67
     7
 79
     3
170
     0
171
     0
290
     0
174
     0
 93
        1
 44
0.0
173
     0
291
     0
 45
0.0
1001
ACAD
1000
AcDbSavedByObjectVersion
1070
     0
  0
VISUALSTYLE
  5
F6
102
{ACAD_REACTORS
330
EF
102
}
330
EF
100
AcDbVisualStyle
  2
3dWireframe
 70
     5
 71
     0
 72
     2
 73
     1
 90
        0
 40
-0.6
 41
-30.0
 62
     5
 63
     7
 74
     1
 91
        4
 64
     7
 65
   257
 75
     1
175
     1
 42
1.0
 92
        0
 66
   257
 43
1.0
 76
     1
 77
     6
 78
     2
 67
     7
 79
     5
170
     0
171
     0
290
     0
174
     0
 93
        1
 44
0.0
173
     0
291
     0
 45
0.0
1001
ACAD
1000
AcDbSavedByObjectVersion
1070
     0
  0
VISUALSTYLE
  5
F4
102
{ACAD_REACTORS
330
EF
102
}
330
EF
100
AcDbVisualStyle
  2
Basic
 70
     7
 71
     1
 72
     0
 73
     1
 90
        0
 40
-0.6
 41
-30.0
 62
     5
 63
     7
 74
     0
 91
        4
 64
     7
 65
   257
 75
     1
175
     1
 42
1.0
 92
        8
 66
     7
 43
1.0
 76
     1
 77
     6
 78
     2
 67
     7
 79
     5
170
     0
171
     0
290
     0
174
     0
 93
        1
 44
0.0
173
     0
291
     1
 45
0.0
1001
ACAD
1000
AcDbSavedByObjectVersion
1070
     0
  0
VISUALSTYLE
  5
FB
102
{ACAD_REACTORS
330
EF
102
}
330
EF
100
AcDbVisualStyle
  2
Brighten
 70
    12
 71
     2
 72
     2
 73
     1
 90
        0
 40
-0.6
 41
-30.0
 62
     5
 63
     7
 74
     1
 91
        4
 64
     7
 65
   257
 75
     1
175
     1
 42
1.0
 92
        8
 66
     7
 43
1.0
 76
     1
 77
     6
 78
     2
 67
     7
 79
     5
170
     0
171
     0
290
     0
174
     0
 93
        1
 44
50.0
173
     0
291
     1
 45
0.0
1001
ACAD
1000
AcDbSavedByObjectVersion
1070
     0
  0
VISUALSTYLE
  5
FF
102
{ACAD_REACTORS
330
EF
102
}
330
EF
100
AcDbVisualStyle
  2
ColorChange
 70
    16
 71
     2
 72
     2
 73
     3
 90
        0
 40
-0.6
 41
-30.0
 62
     5
 63
     8
 74
     1
 91
        4
 64
     7
 65
   257
 75
     1
175
     1
 42
1.0
 92
        8
 66
     8
 43
1.0
 76
     1
 77
     6
 78
     2
 67
     7
 79
     5
170
     0
171
     0
290
     0
174
     0
 93
        1
 44
0.0
173
     0
291
     1
 45
0.0
1001
ACAD
1000
AcDbSavedByObjectVersion
1070
     0
  0
VISUALSTYLE
  5
F8
102
{ACAD_REACTORS
330
EF
102
}
330
EF
100
AcDbVisualStyle
  2
Conceptual
 70
     9
 71
     3
 72
     2
 73
     1
 90
        0
 40
-0.6
 41
-30.0
 62
     5
 63
     7
 74
     2
 91
        2
 64
     7
 65
   257
 75
     1
175
     1
 42
40.0
 92
        8
 66
     7
 43
1.0
 76
     1
 77
     6
 78
     2
 67
     7
 79
     3
170
     0
171
     0
290
     0
174
     0
 93
        1
 44
0.0
173
     0
291
     0
 45
0.0
1001
ACAD
1000
AcDbSavedByObjectVersion
1070
     0
  0
VISUALSTYLE
  5
FA
102
{ACAD_REACTORS
330
EF
102
}
330
EF
100
AcDbVisualStyle
  2
Dim
 70
    11
 71
     2
 72
     2
 73
     1
 90
        0
 40
-0.6
 41
-30.0
 62
     5
 63
     7
 74
     1
 91
        4
 64
     7
 65
   257
 75
     1
175
     1
 42
1.0
 92
        8
 66
     7
 43
1.0
 76
     1
 77
     6
 78
     2
 67
     7
 79
     5
170
     0
171
     0
290
     0
174
     0
 93
        1
 44
-50.0
173
     0
291
     1
 45
0.0
1001
ACAD
1000
AcDbSavedByObjectVersion
1070
     0
  0
VISUALSTYLE
  5
FE
102
{ACAD_REACTORS
330
EF
102
}
330
EF
100
AcDbVisualStyle
  2
Facepattern
 70
    15
 71
     2
 72
     2
 73
     1
 90
        0
 40
-0.6
 41
-30.0
 62
     5
 63
     7
 74
     1
 91
        4
 64
     7
 65
   257
 75
     1
175
     1
 42
1.0
 92
        8
 66
     7
 43
1.0
 76
     1
 77
     6
 78
     2
 67
     7
 79
     5
170
     0
171
     0
290
     0
174
     0
 93
        1
 44
0.0
173
     0
291
     1
 45
0.0
1001
ACAD
1000
AcDbSavedByObjectVersion
1070
     0
  0
VISUALSTYLE
  5
F0
102
{ACAD_REACTORS
330
EF
102
}
330
EF
100
AcDbVisualStyle
  2
Flat
 70
     0
 71
     2
 72
     1
 73
     1
 90
        2
 40
-0.6
 41
30.0
 62
     5
 63
     7
 74
     0
 91
        4
 64
     7
 65
   257
 75
     1
175
     1
 42
1.0
 92
        8
 66
     7
 43
1.0
 76
     1
 77
     6
 78
     2
 67
     7
 79
     5
170
     0
171
     0
290
     0
174
     0
 93
        1
 44
0.0
173
     0
291
     1
 45
0.0
1001
ACAD
1000
AcDbSavedByObjectVersion
1070
     0
  0
VISUALSTYLE
  5
F1
102
{ACAD_REACTORS
330
EF
102
}
330
EF
100
AcDbVisualStyle
  2
FlatWithEdges
 70
     1
 71
     2
 72
     1
 73
     1
 90
        2
 40
-0.6
 41
30.0
 62
     5
 63
     7
 74
     1
 91
        4
 64
     7
 65
   257
 75
     1
175
     1
 42
1.0
 92
        0
 66
   257
 43
1.0
 76
     1
 77
     6
 78
     2
 67
     7
 79
     5
170
     0
171
     0
290
     0
174
     0
 93
        1
 44
0.0
173
     0
291
     1
 45
0.0
1001
ACAD
1000
AcDbSavedByObjectVersion
1070
     0
  0
VISUALSTYLE
  5
F2
102
{ACAD_REACTORS
330
EF
102
}
330
EF
100
AcDbVisualStyle
  2
Gouraud
 70
     2
 71
     2
 72
     2
 73
     1
 90
        2
 40
-0.6
 41
30.0
 62
     5
 63
     7
 74
     0
 91
        4
 64
     7
 65
   257
 75
     1
175
     1
 42
1.0
 92
        0
 66
     7
 43
1.0
 76
     1
 77
     6
 78
     2
 67
     7
 79
     5
170
     0
171
     0
290
     0
174
     0
 93
        1
 44
0.0
173
     0
291
     1
 45
0.0
1001
ACAD
1000
AcDbSavedByObjectVersion
1070
     0
  0
VISUALSTYLE
  5
F3
102
{ACAD_REACTORS
330
EF
102
}
330
EF
100
AcDbVisualStyle
  2
GouraudWithEdges
 70
     3
 71
     2
 72
     2
 73
     1
 90
        2
 40
-0.6
 41
30.0
 62
     5
 63
     7
 74
     1
 91
        4
 64
     7
 65
   257
 75
     1
175
     1
 42
1.0
 92
        0
 66
   257
 43
1.0
 76
     1
 77
     6
 78
     2
 67
     7
 79
     5
170
     0
171
     0
290
     0
174
     0
 93
        1
 44
0.0
173
     0
291
     1
 45
0.0
1001
ACAD
1000
AcDbSavedByObjectVersion
1070
     0
  0
VISUALSTYLE
  5
FD
102
{ACAD_REACTORS
330
EF
102
}
330
EF
100
AcDbVisualStyle
  2
Linepattern
 70
    14
 71
     2
 72
     2
 73
     1
 90
        0
 40
-0.6
 41
-30.0
 62
     5
 63
     7
 74
     1
 91
        4
 64
     7
 65
   257
 75
     7
175
     7
 42
1.0
 92
        8
 66
     7
 43
1.0
 76
     1
 77
     6
 78
     2
 67
     7
 79
     5
170
     0
171
     0
290
     0
174
     0
 93
        1
 44
0.0
173
     0
291
     1
 45
0.0
1001
ACAD
1000
AcDbSavedByObjectVersion
1070
     0
  0
VISUALSTYLE
  5
F9
102
{ACAD_REACTORS
330
EF
102
}
330
EF
100
AcDbVisualStyle
  2
Realistic
 70
     8
 71
     2
 72
     2
 73
     1
 90
        0
 40
-0.6
 41
-30.0
 62
     5
 63
     7
 74
     1
 91
        0
 64
     7
 65
   257
 75
     1
175
     1
 42
1.0
 92
        8
 66
     8
 43
1.0
 76
     1
 77
     6
 78
     2
 67
     7
 79
     5
170
     0
171
     0
290
     0
174
     0
 93
       13
 44
0.0
173
     0
291
     0
 45
0.0
1001
ACAD
1000
AcDbSavedByObjectVersion
1070
     0
  0
VISUALSTYLE
  5
FC
102
{ACAD_REACTORS
330
EF
102
}
330
EF
100
AcDbVisualStyle
  2
Thicken
 70
    13
 71
     2
 72
     2
 73
     1
 90
        0
 40
-0.6
 41
-30.0
 62
     5
 63
     7
 74
     1
 91
        4
 64
     7
 65
   257
 75
     1
175
     1
 42
1.0
 92
       12
 66
     7
 43
1.0
 76
     1
 77
     6
 78
     2
 67
     7
 79
     5
170
     0
171
     0
290
     0
174
     0
 93
        1
 44
0.0
173
     0
291
     1
 45
0.0
1001
ACAD
1000
AcDbSavedByObjectVersion
1070
     0
  0
DICTIONARYVAR
  5
146
102
{ACAD_REACTORS
330
5E
102
}
330
5E
100
DictionaryVariables
280
     0
  1
1:1
  0
DICTIONARYVAR
  5
145
102
{ACAD_REACTORS
330
5E
102
}
330
5E
100
DictionaryVariables
280
     0
  1
STANDARD
  0
DICTIONARYVAR
  5
84
102
{ACAD_REACTORS
330
5E
102
}
330
5E
100
DictionaryVariables
280
     0
  1
STANDARD
  0
DICTIONARYVAR
  5
5F
102
{ACAD_REACTORS
330
5E
102
}
330
5E
100
DictionaryVariables
280
     0
  1
2
  0
DICTIONARYVAR
  5
63
102
{ACAD_REACTORS
330
5E
102
}
330
5E
100
DictionaryVariables
280
     0
  1
1
  0
DICTIONARYVAR
  5
CD7
102
{ACAD_REACTORS
330
5E
102
}
330
5E
100
DictionaryVariables
280
     0
  1
0
  0
DICTIONARYVAR
  5
CD5
102
{ACAD_REACTORS
330
5E
102
}
330
5E
100
DictionaryVariables
280
     0
  1
2
  0
DICTIONARYVAR
  5
CD4
102
{ACAD_REACTORS
330
5E
102
}
330
5E
100
DictionaryVariables
280
     0
  1
1
  0
DICTIONARYVAR
  5
CD9
102
{ACAD_REACTORS
330
5E
102
}
330
5E
100
DictionaryVariables
280
     0
  1
80.000000
  0
DICTIONARYVAR
  5
CD8
102
{ACAD_REACTORS
330
5E
102
}
330
5E
100
DictionaryVariables
280
     0
  1
5.000000
  0
DICTIONARYVAR
  5
CD6
102
{ACAD_REACTORS
330
5E
102
}
330
5E
100
DictionaryVariables
280
     0
  1
127
  0
DICTIONARY
  5
CED
330
D3
100
AcDbDictionary
280
     1
281
     1
  3
ACAD_XREC_ROUNDTRIP
360
CEE
  0
DICTIONARY
  5
CEF
330
D7
100
AcDbDictionary
280
     1
281
     1
  3
ACAD_XREC_ROUNDTRIP
360
CF0
  0
DICTIONARY
  5
CEA
330
22
100
AcDbDictionary
280
     1
281
     1
  3
ACAD_XREC_ROUNDTRIP
360
CEB
  0
DICTIONARY
  5
CF3
330
ED
100
AcDbDictionary
280
     1
281
     1
  3
ACAD_XREC_ROUNDTRIP
360
CF4
  0
DICTIONARY
  5
CF1
330
EC
100
AcDbDictionary
280
     1
281
     1
  3
ACAD_XREC_ROUNDTRIP
360
CF2
  0
DICTIONARY
  5
173
330
EE
100
AcDbDictionary
280
     1
281
     1
  3
ACAD_XREC_ROUNDTRIP
360
CF5
  3
BUMPTILE
360
175
  3
DIFFUSETILE
360
174
  3
OPACITYTILE
360
176
  3
REFLECTIONTILE
360
177
  0
DICTIONARY
  5
162
330
7F
100
AcDbDictionary
280
     1
281
     1
  3
ACAD_ROUNDTRIP_2008_TABLESTYLE_CELLSTYLEMAP
360
CE8
  3
ACAD_XREC_ROUNDTRIP
360
CEC
  0
XRECORD
  5
CEE
102
{ACAD_REACTORS
330
CED
102
}
330
CED
100
AcDbXrecord
280
     1
102
SHADEPLOT
 70
     0
102
SHADEPLOTRESLEVEL
 70
     2
102
SHADEPLOTCUSTOMDPI
 70
   300
  0
XRECORD
  5
CF0
102
{ACAD_REACTORS
330
CEF
102
}
330
CEF
100
AcDbXrecord
280
     1
102
SHADEPLOT
 70
     0
102
SHADEPLOTRESLEVEL
 70
     2
102
SHADEPLOTCUSTOMDPI
 70
   300
  0
XRECORD
  5
CEB
102
{ACAD_REACTORS
330
CEA
102
}
330
CEA
100
AcDbXrecord
280
     1
102
SHADEPLOT
 70
     0
102
SHADEPLOTRESLEVEL
 70
     2
102
SHADEPLOTCUSTOMDPI
 70
   300
  0
XRECORD
  5
CF4
102
{ACAD_REACTORS
330
CF3
102
}
330
CF3
100
AcDbXrecord
280
     1
102
MATERIAL
148
0.0
149
0.0
149
0.0
 93
        0
 94
       63
282
     0
 72
     1
 77
     1
171
     1
175
     1
179
     1
273
     0
  0
XRECORD
  5
CF2
102
{ACAD_REACTORS
330
CF1
102
}
330
CF1
100
AcDbXrecord
280
     1
102
MATERIAL
148
0.0
149
0.0
149
0.0
 93
        0
 94
       63
282
     0
 72
     1
 77
     1
171
     1
175
     1
179
     1
273
     0
  0
XRECORD
  5
CF5
102
{ACAD_REACTORS
330
173
102
}
330
173
100
AcDbXrecord
280
     1
102
MATERIAL
148
0.0
149
0.0
149
0.0
 93
        0
 94
       63
282
     0
 72
     1
 77
     1
171
     1
175
     1
179
     1
273
     0
  0
XRECORD
  5
175
102
{ACAD_REACTORS
330
173
102
}
330
173
100
AcDbXrecord
280
     1
270
     1
271
     1
  0
XRECORD
  5
174
102
{ACAD_REACTORS
330
173
102
}
330
173
100
AcDbXrecord
280
     1
270
     1
271
     1
  0
XRECORD
  5
176
102
{ACAD_REACTORS
330
173
102
}
330
173
100
AcDbXrecord
280
     1
270
     1
271
     1
  0
XRECORD
  5
177
102
{ACAD_REACTORS
330
173
102
}
330
173
100
AcDbXrecord
280
     1
270
     1
271
     1
  0
CELLSTYLEMAP
  5
CE8
102
{ACAD_REACTORS
330
162
102
}
330
162
100
AcDbCellStyleMap
 90
        3
300
CELLSTYLE
  1
TABLEFORMAT_BEGIN
 90
        5
170
     1
 91
        0
 92
    32768
 62
   257
 93
        1
300
CONTENTFORMAT
  1
CONTENTFORMAT_BEGIN
 90
        0
 91
        0
 92
      512
 93
        0
300

 40
0.0
140
1.0
 94
        5
 62
     0
340
11
144
6.0
309
CONTENTFORMAT_END
171
     1
301
MARGIN
  1
CELLMARGIN_BEGIN
 40
1.5
 40
1.5
 40
1.5
 40
1.5
 40
4.5
 40
4.5
309
CELLMARGIN_END
 94
        6
 95
        1
302
GRIDFORMAT
  1
GRIDFORMAT_BEGIN
 90
        0
 91
        1
 62
     0
 92
       -2
340
14
 93
        0
 40
1.125
309
GRIDFORMAT_END
 95
        2
302
GRIDFORMAT
  1
GRIDFORMAT_BEGIN
 90
        0
 91
        1
 62
     0
 92
       -2
340
14
 93
        0
 40
1.125
309
GRIDFORMAT_END
 95
        4
302
GRIDFORMAT
  1
GRIDFORMAT_BEGIN
 90
        0
 91
        1
 62
     0
 92
       -2
340
14
 93
        0
 40
1.125
309
GRIDFORMAT_END
 95
        8
302
GRIDFORMAT
  1
GRIDFORMAT_BEGIN
 90
        0
 91
        1
 62
     0
 92
       -2
340
14
 93
        0
 40
1.125
309
GRIDFORMAT_END
 95
       16
302
GRIDFORMAT
  1
GRIDFORMAT_BEGIN
 90
        0
 91
        1
 62
     0
 92
       -2
340
14
 93
        0
 40
1.125
309
GRIDFORMAT_END
 95
       32
302
GRIDFORMAT
  1
GRIDFORMAT_BEGIN
 90
        0
 91
        1
 62
     0
 92
       -2
340
14
 93
        0
 40
1.125
309
GRIDFORMAT_END
309
TABLEFORMAT_END
  1
CELLSTYLE_BEGIN
 90
        1
 91
        1
300
_TITLE
309
CELLSTYLE_END
300
CELLSTYLE
  1
TABLEFORMAT_BEGIN
 90
        5
170
     1
 91
        0
 92
        0
 62
   257
 93
        1
300
CONTENTFORMAT
  1
CONTENTFORMAT_BEGIN
 90
        0
 91
        0
 92
      512
 93
        0
300

 40
0.0
140
1.0
 94
        5
 62
     0
340
11
144
4.5
309
CONTENTFORMAT_END
171
     1
301
MARGIN
  1
CELLMARGIN_BEGIN
 40
1.5
 40
1.5
 40
1.5
 40
1.5
 40
4.5
 40
4.5
309
CELLMARGIN_END
 94
        6
 95
        1
302
GRIDFORMAT
  1
GRIDFORMAT_BEGIN
 90
        0
 91
        1
 62
     0
 92
       -2
340
14
 93
        0
 40
1.125
309
GRIDFORMAT_END
 95
        2
302
GRIDFORMAT
  1
GRIDFORMAT_BEGIN
 90
        0
 91
        1
 62
     0
 92
       -2
340
14
 93
        0
 40
1.125
309
GRIDFORMAT_END
 95
        4
302
GRIDFORMAT
  1
GRIDFORMAT_BEGIN
 90
        0
 91
        1
 62
     0
 92
       -2
340
14
 93
        0
 40
1.125
309
GRIDFORMAT_END
 95
        8
302
GRIDFORMAT
  1
GRIDFORMAT_BEGIN
 90
        0
 91
        1
 62
     0
 92
       -2
340
14
 93
        0
 40
1.125
309
GRIDFORMAT_END
 95
       16
302
GRIDFORMAT
  1
GRIDFORMAT_BEGIN
 90
        0
 91
        1
 62
     0
 92
       -2
340
14
 93
        0
 40
1.125
309
GRIDFORMAT_END
 95
       32
302
GRIDFORMAT
  1
GRIDFORMAT_BEGIN
 90
        0
 91
        1
 62
     0
 92
       -2
340
14
 93
        0
 40
1.125
309
GRIDFORMAT_END
309
TABLEFORMAT_END
  1
CELLSTYLE_BEGIN
 90
        2
 91
        1
300
_HEADER
309
CELLSTYLE_END
300
CELLSTYLE
  1
TABLEFORMAT_BEGIN
 90
        5
170
     1
 91
        0
 92
        0
 62
   257
 93
        1
300
CONTENTFORMAT
  1
CONTENTFORMAT_BEGIN
 90
        0
 91
        0
 92
      512
 93
        0
300

 40
0.0
140
1.0
 94
        2
 62
     0
340
11
144
4.5
309
CONTENTFORMAT_END
171
     1
301
MARGIN
  1
CELLMARGIN_BEGIN
 40
1.5
 40
1.5
 40
1.5
 40
1.5
 40
4.5
 40
4.5
309
CELLMARGIN_END
 94
        6
 95
        1
302
GRIDFORMAT
  1
GRIDFORMAT_BEGIN
 90
        0
 91
        1
 62
     0
 92
       -2
340
14
 93
        0
 40
1.125
309
GRIDFORMAT_END
 95
        2
302
GRIDFORMAT
  1
GRIDFORMAT_BEGIN
 90
        0
 91
        1
 62
     0
 92
       -2
340
14
 93
        0
 40
1.125
309
GRIDFORMAT_END
 95
        4
302
GRIDFORMAT
  1
GRIDFORMAT_BEGIN
 90
        0
 91
        1
 62
     0
 92
       -2
340
14
 93
        0
 40
1.125
309
GRIDFORMAT_END
 95
        8
302
GRIDFORMAT
  1
GRIDFORMAT_BEGIN
 90
        0
 91
        1
 62
     0
 92
       -2
340
14
 93
        0
 40
1.125
309
GRIDFORMAT_END
 95
       16
302
GRIDFORMAT
  1
GRIDFORMAT_BEGIN
 90
        0
 91
        1
 62
     0
 92
       -2
340
14
 93
        0
 40
1.125
309
GRIDFORMAT_END
 95
       32
302
GRIDFORMAT
  1
GRIDFORMAT_BEGIN
 90
        0
 91
        1
 62
     0
 92
       -2
340
14
 93
        0
 40
1.125
309
GRIDFORMAT_END
309
TABLEFORMAT_END
  1
CELLSTYLE_BEGIN
 90
        3
 91
        2
300
_DATA
309
CELLSTYLE_END
  0
XRECORD
  5
CEC
102
{ACAD_REACTORS
330
162
102
}
330
162
100
AcDbXrecord
280
     1
102
ACAD_ROUNDTRIP_PRE2007_TABLESTYLE
 90
      512
 91
        0
  1

 92
      512
 93
        0
  2

 94
      512
 95
        0
  3

  0
ENDSEC
  0
EOF
