  0
SECTION
  2
HEADER
  9
$ACADVER
  1
AC1015
  9
$ACADMAINTVER
 70
    20
  9
$DWGCODEPAGE
  3
ANSI_1254
  9
$INSBASE
 10
0.0
 20
0.0
 30
0.0
  9
$EXTMIN
 10
2105.669166037249
 20
1101.346174538058
 30
0.0
  9
$EXTMAX
 10
2175.517376531236
 20
1133.982885431134
 30
0.0
  9
$LIMMIN
 10
0.0
 20
0.0
  9
$LIMMAX
 10
420.0
 20
297.0
  9
$ORTHOMODE
 70
     1
  9
$REGENMODE
 70
     1
  9
$FILLMODE
 70
     1
  9
$QTEXTMODE
 70
     0
  9
$MIRRTEXT
 70
     0
  9
$LTSCALE
 40
1.0
  9
$ATTMODE
 70
     1
  9
$TEXTSIZE
 40
2.5
  9
$TRACEWID
 40
1.0
  9
$TEXTSTYLE
  7
Standard
  9
$CLAYER
  8
0
  9
$CELTYPE
  6
ByLayer
  9
$CECOLOR
 62
   256
  9
$CELTSCALE
 40
1.0
  9
$DISPSILH
 70
     0
  9
$DIMSCALE
 40
1.0
  9
$DIMASZ
 40
2.5
  9
$DIMEXO
 40
0.625
  9
$DIMDLI
 40
3.75
  9
$DIMRND
 40
0.0
  9
$DIMDLE
 40
0.0
  9
$DIMEXE
 40
1.25
  9
$DIMTP
 40
0.0
  9
$DIMTM
 40
0.0
  9
$DIMTXT
 40
2.5
  9
$DIMCEN
 40
2.5
  9
$DIMTSZ
 40
0.0
  9
$DIMTOL
 70
     0
  9
$DIMLIM
 70
     0
  9
$DIMTIH
 70
     0
  9
$DIMTOH
 70
     0
  9
$DIMSE1
 70
     0
  9
$DIMSE2
 70
     0
  9
$DIMTAD
 70
     1
  9
$DIMZIN
 70
     8
  9
$DIMBLK
  1

  9
$DIMASO
 70
     1
  9
$DIMSHO
 70
     1
  9
$DIMPOST
  1

  9
$DIMAPOST
  1

  9
$DIMALT
 70
     0
  9
$DIMALTD
 70
     3
  9
$DIMALTF
 40
0.03937007874016
  9
$DIMLFAC
 40
1.0
  9
$DIMTOFL
 70
     1
  9
$DIMTVP
 40
0.0
  9
$DIMTIX
 70
     0
  9
$DIMSOXD
 70
     0
  9
$DIMSAH
 70
     0
  9
$DIMBLK1
  1

  9
$DIMBLK2
  1

  9
$DIMSTYLE
  2
ISO-25
  9
$DIMCLRD
 70
     0
  9
$DIMCLRE
 70
     0
  9
$DIMCLRT
 70
     0
  9
$DIMTFAC
 40
1.0
  9
$DIMGAP
 40
0.625
  9
$DIMJUST
 70
     0
  9
$DIMSD1
 70
     0
  9
$DIMSD2
 70
     0
  9
$DIMTOLJ
 70
     0
  9
$DIMTZIN
 70
     8
  9
$DIMALTZ
 70
     0
  9
$DIMALTTZ
 70
     0
  9
$DIMUPT
 70
     0
  9
$DIMDEC
 70
     2
  9
$DIMTDEC
 70
     2
  9
$DIMALTU
 70
     2
  9
$DIMALTTD
 70
     3
  9
$DIMTXSTY
  7
Standard
  9
$DIMAUNIT
 70
     0
  9
$DIMADEC
 70
     0
  9
$DIMALTRND
 40
0.0
  9
$DIMAZIN
 70
     0
  9
$DIMDSEP
 70
    44
  9
$DIMATFIT
 70
     3
  9
$DIMFRAC
 70
     0
  9
$DIMLDRBLK
  1

  9
$DIMLUNIT
 70
     2
  9
$DIMLWD
 70
    -2
  9
$DIMLWE
 70
    -2
  9
$DIMTMOVE
 70
     0
  9
$LUNITS
 70
     2
  9
$LUPREC
 70
     4
  9
$SKETCHINC
 40
1.0
  9
$FILLETRAD
 40
0.0
  9
$AUNITS
 70
     0
  9
$AUPREC
 70
     0
  9
$MENU
  1
.
  9
$ELEVATION
 40
0.0
  9
$PELEVATION
 40
0.0
  9
$THICKNESS
 40
0.0
  9
$LIMCHECK
 70
     0
  9
$CHAMFERA
 40
0.0
  9
$CHAMFERB
 40
0.0
  9
$CHAMFERC
 40
0.0
  9
$CHAMFERD
 40
0.0
  9
$SKPOLY
 70
     0
  9
$TDCREATE
 40
2458929.654502558
  9
$TDUCREATE
 40
2458929.529502558
  9
$TDUPDATE
 40
2458956.438535891
  9
$TDUUPDATE
 40
2458956.313535891
  9
$TDINDWG
 40
0.0040337500
  9
$TDUSRTIMER
 40
0.0040336806
  9
$USRTIMER
 70
     1
  9
$ANGBASE
 50
0.0
  9
$ANGDIR
 70
     0
  9
$PDMODE
 70
     0
  9
$PDSIZE
 40
0.0
  9
$PLINEWID
 40
0.0
  9
$SPLFRAME
 70
     0
  9
$SPLINETYPE
 70
     6
  9
$SPLINESEGS
 70
     8
  9
$HANDSEED
  5
616
  9
$SURFTAB1
 70
     6
  9
$SURFTAB2
 70
     6
  9
$SURFTYPE
 70
     6
  9
$SURFU
 70
     6
  9
$SURFV
 70
     6
  9
$UCSBASE
  2

  9
$UCSNAME
  2

  9
$UCSORG
 10
0.0
 20
0.0
 30
0.0
  9
$UCSXDIR
 10
1.0
 20
0.0
 30
0.0
  9
$UCSYDIR
 10
0.0
 20
1.0
 30
0.0
  9
$UCSORTHOREF
  2

  9
$UCSORTHOVIEW
 70
     0
  9
$UCSORGTOP
 10
0.0
 20
0.0
 30
0.0
  9
$UCSORGBOTTOM
 10
0.0
 20
0.0
 30
0.0
  9
$UCSORGLEFT
 10
0.0
 20
0.0
 30
0.0
  9
$UCSORGRIGHT
 10
0.0
 20
0.0
 30
0.0
  9
$UCSORGFRONT
 10
0.0
 20
0.0
 30
0.0
  9
$UCSORGBACK
 10
0.0
 20
0.0
 30
0.0
  9
$PUCSBASE
  2

  9
$PUCSNAME
  2

  9
$PUCSORG
 10
0.0
 20
0.0
 30
0.0
  9
$PUCSXDIR
 10
1.0
 20
0.0
 30
0.0
  9
$PUCSYDIR
 10
0.0
 20
1.0
 30
0.0
  9
$PUCSORTHOREF
  2

  9
$PUCSORTHOVIEW
 70
     0
  9
$PUCSORGTOP
 10
0.0
 20
0.0
 30
0.0
  9
$PUCSORGBOTTOM
 10
0.0
 20
0.0
 30
0.0
  9
$PUCSORGLEFT
 10
0.0
 20
0.0
 30
0.0
  9
$PUCSORGRIGHT
 10
0.0
 20
0.0
 30
0.0
  9
$PUCSORGFRONT
 10
0.0
 20
0.0
 30
0.0
  9
$PUCSORGBACK
 10
0.0
 20
0.0
 30
0.0
  9
$USERI1
 70
     0
  9
$USERI2
 70
     0
  9
$USERI3
 70
     0
  9
$USERI4
 70
     0
  9
$USERI5
 70
     0
  9
$USERR1
 40
0.0
  9
$USERR2
 40
0.0
  9
$USERR3
 40
0.0
  9
$USERR4
 40
0.0
  9
$USERR5
 40
0.0
  9
$WORLDVIEW
 70
     1
  9
$SHADEDGE
 70
     3
  9
$SHADEDIF
 70
    70
  9
$TILEMODE
 70
     1
  9
$MAXACTVP
 70
    64
  9
$PINSBASE
 10
0.0
 20
0.0
 30
0.0
  9
$PLIMCHECK
 70
     0
  9
$PEXTMIN
 10
0.0
 20
0.0
 30
0.0
  9
$PEXTMAX
 10
0.0
 20
0.0
 30
0.0
  9
$PLIMMIN
 10
0.0
 20
0.0
  9
$PLIMMAX
 10
12.0
 20
9.0
  9
$UNITMODE
 70
     0
  9
$VISRETAIN
 70
     1
  9
$PLINEGEN
 70
     0
  9
$PSLTSCALE
 70
     1
  9
$TREEDEPTH
 70
  3020
  9
$CMLSTYLE
  2
Standard
  9
$CMLJUST
 70
     0
  9
$CMLSCALE
 40
20.0
  9
$PROXYGRAPHICS
 70
     1
  9
$MEASUREMENT
 70
     1
  9
$CELWEIGHT
370
    -1
  9
$ENDCAPS
280
     0
  9
$JOINSTYLE
280
     0
  9
$LWDISPLAY
290
     0
  9
$INSUNITS
 70
     4
  9
$HYPERLINKBASE
  1

  9
$STYLESHEET
  1

  9
$XEDIT
290
     1
  9
$CEPSNTYPE
380
     0
  9
$PSTYLEMODE
290
     1
  9
$FINGERPRINTGUID
  2
{7331BCFB-2937-4C2D-83A9-BFA932037AB4}
  9
$VERSIONGUID
  2
{36F82F2C-3E93-43E6-9A51-81405D760F14}
  9
$EXTNAMES
290
     1
  9
$PSVPSCALE
 40
0.0
  9
$OLESTARTUP
290
     0
  0
ENDSEC
  0
SECTION
  2
CLASSES
  0
CLASS
  1
ACDBDICTIONARYWDFLT
  2
AcDbDictionaryWithDefault
  3
ObjectDBX Classes
 90
        0
280
     0
281
     0
  0
CLASS
  1
ACDBPLACEHOLDER
  2
AcDbPlaceHolder
  3
ObjectDBX Classes
 90
        0
280
     0
281
     0
  0
CLASS
  1
LAYOUT
  2
AcDbLayout
  3
ObjectDBX Classes
 90
        0
280
     0
281
     0
  0
CLASS
  1
DICTIONARYVAR
  2
AcDbDictionaryVar
  3
ObjectDBX Classes
 90
        0
280
     0
281
     0
  0
CLASS
  1
TABLESTYLE
  2
AcDbTableStyle
  3
ObjectDBX Classes
 90
     4095
280
     0
281
     0
  0
CLASS
  1
MATERIAL
  2
AcDbMaterial
  3
ObjectDBX Classes
 90
     1153
280
     0
281
     0
  0
CLASS
  1
VISUALSTYLE
  2
AcDbVisualStyle
  3
ObjectDBX Classes
 90
     4095
280
     0
281
     0
  0
CLASS
  1
SCALE
  2
AcDbScale
  3
ObjectDBX Classes
 90
     1153
280
     0
281
     0
  0
CLASS
  1
MLEADERSTYLE
  2
AcDbMLeaderStyle
  3
ACDB_MLEADERSTYLE_CLASS
 90
     4095
280
     0
281
     0
  0
CLASS
  1
CELLSTYLEMAP
  2
AcDbCellStyleMap
  3
ObjectDBX Classes
 90
     1152
280
     0
281
     0
  0
CLASS
  1
ACAD_EVALUATION_GRAPH
  2
AcDbEvalGraph
  3
ObjectDBX Classes
 90
    33921
280
     0
281
     0
  0
CLASS
  1
ACAECUSTOBJ
  2
AcAeEditorObj
  3
AcAeEditorObj
 90
    33792
280
     0
281
     0
  0
CLASS
  1
ACDB_DYNAMICBLOCKPURGEPREVENTER_VERSION
  2
AcDbDynamicBlockPurgePreventer
  3
ObjectDBX Classes
 90
    33921
280
     0
281
     0
  0
CLASS
  1
SORTENTSTABLE
  2
AcDbSortentsTable
  3
ObjectDBX Classes
 90
        0
280
     0
281
     0
  0
ENDSEC
  0
SECTION
  2
TABLES
  0
TABLE
  2
VPORT
  5
8
330
0
100
AcDbSymbolTable
 70
     1
  0
VPORT
  5
EA
330
8
100
AcDbSymbolTableRecord
100
AcDbViewportTableRecord
  2
*Active
 70
     0
 10
0.0
 20
0.0
 11
1.0
 21
1.0
 12
2138.186052296406
 22
1122.485768276484
 13
0.0
 23
0.0
 14
10.0
 24
10.0
 15
10.0
 25
10.0
 16
0.0
 26
0.0
 36
1.0
 17
0.0
 27
0.0
 37
0.0
 40
65.84645959290878
 41
1.903110047846889
 42
50.0
 43
0.0
 44
0.0
 50
0.0
 51
0.0
 71
     0
 72
  1000
 73
     1
 74
     3
 75
     0
 76
     0
 77
     0
 78
     0
281
     0
 65
     1
110
0.0
120
0.0
130
0.0
111
1.0
121
0.0
131
0.0
112
0.0
122
1.0
132
0.0
 79
     0
146
0.0
  0
ENDTAB
  0
TABLE
  2
LTYPE
  5
5
330
0
100
AcDbSymbolTable
 70
     1
  0
LTYPE
  5
14
330
5
100
AcDbSymbolTableRecord
100
AcDbLinetypeTableRecord
  2
ByBlock
 70
     0
  3

 72
    65
 73
     0
 40
0.0
  0
LTYPE
  5
15
330
5
100
AcDbSymbolTableRecord
100
AcDbLinetypeTableRecord
  2
ByLayer
 70
     0
  3

 72
    65
 73
     0
 40
0.0
  0
LTYPE
  5
16
330
5
100
AcDbSymbolTableRecord
100
AcDbLinetypeTableRecord
  2
Continuous
 70
     0
  3
Solid line
 72
    65
 73
     0
 40
0.0
  0
ENDTAB
  0
TABLE
  2
LAYER
  5
2
330
0
100
AcDbSymbolTable
 70
     1
  0
LAYER
  5
10
102
{ACAD_XDICTIONARY
360
13C
102
}
330
2
100
AcDbSymbolTableRecord
100
AcDbLayerTableRecord
  2
0
 70
     0
 62
     7
  6
Continuous
370
    -3
390
F
  0
ENDTAB
  0
TABLE
  2
STYLE
  5
3
330
0
100
AcDbSymbolTable
 70
     2
  0
STYLE
  5
11
330
3
100
AcDbSymbolTableRecord
100
AcDbTextStyleTableRecord
  2
Standard
 70
     0
 40
0.0
 41
1.0
 50
0.0
 71
     0
 42
2.5
  3
txt
  4

  0
STYLE
  5
132
330
3
100
AcDbSymbolTableRecord
100
AcDbTextStyleTableRecord
  2
Annotative
 70
     0
 40
0.0
 41
1.0
 50
0.0
 71
     0
 42
2.5
  3
txt.shx
  4

1001
AcadAnnotative
1000
AnnotativeData
1002
{
1070
     1
1070
     1
1002
}
  0
ENDTAB
  0
TABLE
  2
VIEW
  5
6
330
0
100
AcDbSymbolTable
 70
     0
  0
ENDTAB
  0
TABLE
  2
UCS
  5
7
330
0
100
AcDbSymbolTable
 70
     0
  0
ENDTAB
  0
TABLE
  2
APPID
  5
9
330
0
100
AcDbSymbolTable
 70
    12
  0
APPID
  5
12
330
9
100
AcDbSymbolTableRecord
100
AcDbRegAppTableRecord
  2
ACAD
 70
     0
  0
APPID
  5
9E
330
9
100
AcDbSymbolTableRecord
100
AcDbRegAppTableRecord
  2
ACAD_PSEXT
 70
     0
  0
APPID
  5
133
330
9
100
AcDbSymbolTableRecord
100
AcDbRegAppTableRecord
  2
AcadAnnoPO
 70
     0
  0
APPID
  5
134
330
9
100
AcDbSymbolTableRecord
100
AcDbRegAppTableRecord
  2
AcadAnnotative
 70
     0
  0
APPID
  5
135
330
9
100
AcDbSymbolTableRecord
100
AcDbRegAppTableRecord
  2
ACAD_DSTYLE_DIMJAG
 70
     0
  0
APPID
  5
136
330
9
100
AcDbSymbolTableRecord
100
AcDbRegAppTableRecord
  2
ACAD_DSTYLE_DIMTALN
 70
     0
  0
APPID
  5
165
330
9
100
AcDbSymbolTableRecord
100
AcDbRegAppTableRecord
  2
ACAD_MLEADERVER
 70
     0
  0
APPID
  5
4F1
330
9
100
AcDbSymbolTableRecord
100
AcDbRegAppTableRecord
  2
ACAUTHENVIRON
 70
     0
  0
APPID
  5
516
330
9
100
AcDbSymbolTableRecord
100
AcDbRegAppTableRecord
  2
AcDbDynamicBlockTrueName
 70
     0
  0
APPID
  5
517
330
9
100
AcDbSymbolTableRecord
100
AcDbRegAppTableRecord
  2
AcDbDynamicBlockGUID
 70
     0
  0
APPID
  5
519
330
9
100
AcDbSymbolTableRecord
100
AcDbRegAppTableRecord
  2
AcDbBlockRepETag
 70
     0
  0
APPID
  5
5F5
330
9
100
AcDbSymbolTableRecord
100
AcDbRegAppTableRecord
  2
ACAD_EXEMPT_FROM_CAD_STANDARDS
 70
     0
  0
ENDTAB
  0
TABLE
  2
DIMSTYLE
  5
A
330
0
100
AcDbSymbolTable
 70
     2
100
AcDbDimStyleTable
 71
     2
340
27
340
137
  0
DIMSTYLE
105
27
330
A
100
AcDbSymbolTableRecord
100
AcDbDimStyleTableRecord
  2
ISO-25
 70
     0
 41
2.5
 42
0.625
 43
3.75
 44
1.25
 73
     0
 74
     0
 77
     1
 78
     8
140
2.5
141
2.5
143
0.03937007874016
147
0.625
171
     3
172
     1
271
     2
272
     2
274
     3
278
    44
283
     0
284
     8
340
11
  0
DIMSTYLE
105
137
330
A
100
AcDbSymbolTableRecord
100
AcDbDimStyleTableRecord
  2
Annotative
 70
     0
 40
0.0
 41
2.5
 42
0.625
 43
3.75
 44
1.25
 73
     0
 74
     0
 77
     1
 78
     8
140
2.5
141
2.5
143
0.03937007874016
147
0.625
171
     3
172
     1
271
     2
272
     2
274
     3
278
    44
283
     0
284
     8
340
11
1001
AcadAnnotative
1000
AnnotativeData
1002
{
1070
     1
1070
     1
1002
}
1001
ACAD_DSTYLE_DIMJAG
1070
   388
1040
1.5
1001
ACAD_DSTYLE_DIMTALN
1070
   392
1070
     0
  0
ENDTAB
  0
TABLE
  2
BLOCK_RECORD
  5
1
330
0
100
AcDbSymbolTable
 70
     5
  0
BLOCK_RECORD
  5
1F
330
1
100
AcDbSymbolTableRecord
100
AcDbBlockTableRecord
  2
*Model_Space
340
22
  0
BLOCK_RECORD
  5
D2
330
1
100
AcDbSymbolTableRecord
100
AcDbBlockTableRecord
  2
*Paper_Space
340
D3
  0
BLOCK_RECORD
  5
D6
330
1
100
AcDbSymbolTableRecord
100
AcDbBlockTableRecord
  2
*Paper_Space0
340
D7
  0
BLOCK_RECORD
  5
39F
102
{ACAD_XDICTIONARY
360
4F2
102
}
330
1
100
AcDbSymbolTableRecord
100
AcDbBlockTableRecord
  2
1
340
0
310
2800000020000000200000000100080000000000000400000000000000000000000000000000000000000000000080000080000000808000800000008000800080800000C0C0C000C0DCC000F0CAA6000020400000206000002080000020A0000020C0000020E00000400000004020000040400000406000004080000040A0
310
000040C0000040E00000600000006020000060400000606000006080000060A0000060C0000060E00000800000008020000080400000806000008080000080A0000080C0000080E00000A0000000A0200000A0400000A0600000A0800000A0A00000A0C00000A0E00000C0000000C0200000C0400000C0600000C0800000C0
310
A00000C0C00000C0E00000E0000000E0200000E0400000E0600000E0800000E0A00000E0C00000E0E00040000000400020004000400040006000400080004000A0004000C0004000E00040200000402020004020400040206000402080004020A0004020C0004020E000404000004040200040404000404060004040800040
310
40A0004040C0004040E00040600000406020004060400040606000406080004060A0004060C0004060E00040800000408020004080400040806000408080004080A0004080C0004080E00040A0000040A0200040A0400040A0600040A0800040A0A00040A0C00040A0E00040C0000040C0200040C0400040C0600040C08000
310
40C0A00040C0C00040C0E00040E0000040E0200040E0400040E0600040E0800040E0A00040E0C00040E0E00080000000800020008000400080006000800080008000A0008000C0008000E00080200000802020008020400080206000802080008020A0008020C0008020E00080400000804020008040400080406000804080
310
008040A0008040C0008040E00080600000806020008060400080606000806080008060A0008060C0008060E00080800000808020008080400080806000808080008080A0008080C0008080E00080A0000080A0200080A0400080A0600080A0800080A0A00080A0C00080A0E00080C0000080C0200080C0400080C0600080C0
310
800080C0A00080C0C00080C0E00080E0000080E0200080E0400080E0600080E0800080E0A00080E0C00080E0E000C0000000C0002000C0004000C0006000C0008000C000A000C000C000C000E000C0200000C0202000C0204000C0206000C0208000C020A000C020C000C020E000C0400000C0402000C0404000C0406000C0
310
408000C040A000C040C000C040E000C0600000C0602000C0604000C0606000C0608000C060A000C060C000C060E000C0800000C0802000C0804000C0806000C0808000C080A000C080C000C080E000C0A00000C0A02000C0A04000C0A06000C0A08000C0A0A000C0A0C000C0A0E000C0C00000C0C02000C0C04000C0C06000
310
C0C08000C0C0A000F0FBFF00A4A0A000808080000000FF0000FF000000FFFF00FF000000FF00FF00FFFF0000FFFFFF0000000000000000000000000000000000000000000000000000000000000000000000000000000000000000FFFFFF00000000FFFFFF00000000000000000000000000000000000000000000FF00FF00
310
000000FF00FF00000000000000000000000000000000000000000000FF0000FF000000FF00FF00000000000000000000000000000000000000000000FF0000FF0000FF0000FF00000000000000000000000000000000000000000000FF0000FF0000FF0000FF00000000000000000000000000000000000000000000FF0000
310
FF0000FF0000FF00000000000000000000000000000000000000000000FF0000FF0000FF0000FF00000000000000000000000000000000000000000000FF0000FF0000FF0000FF00000000000000000000000000000000000000000000FF0000FF0000FF0000FF00000000000000000000000000000000000000000000FF00
310
00FF0000FF0000FF00000000000000000000000000000000000000000000FF0000FF0000FF0000FF00000000000000000000000000000000000000000000FFFFFFFF0000FFFFFFFF000000000000000000000000000000000000000000FFFFFFFFFF0000FFFFFFFFFF0000000000000000000000000000000000000000FF00
310
0000FF0000FF000000FF0000000000000000000000000000000000000000FF000000FF0000FF000000FF0000000000000000000000000000000000000000FF000000FF0000FF000000FF0000000000000000000000000000000000000000FF000000FF0000FF000000FF0000000000000000000000000000000000000000FF
310
000000FF0000FF000000FF0000000000000000000000000000000000000000FFFFFFFFFF0000FFFFFFFFFF0000000000000000000000000000000000000000FFFFFFFFFF0000FFFFFFFFFF0000000000000000000000000000000000000000FF000000FF0000FF000000FF0000000000000000000000000000000000000000
310
FF000000FF0000FF000000FF00000000000000000000000000000000000000FFFF000000FFFFFFFF000000FFFF000000000000000000000000000000000000FF000000000000000000000000FF000000000000000000000000000000000000FF000000000000000000000000FF000000000000000000000000000000000000
310
FF000000000000000000000000FF000000000000000000000000000000000000FF000000000000000000000000FF000000000000000000000000000000000000FFFFFFFFFFFFFFFFFFFFFFFFFFFF000000000000000000000000000000000000FF000000000000000000000000FF0000000000000000000000000000000000
310
00FFFFFFFFFFFFFFFFFFFFFFFFFFFF0000000000000000000000000000000000000000000000000000000000000000000000000000000000
102
{BLKREFS
331
3E7
102
}
1001
AcDbDynamicBlockGUID
1000
{E5C3E360-AF0A-407E-A338-ADD2D7CAF6BE}
1001
AcDbBlockRepETag
1070
     1
1071
      100
1001
ACAD
1000
DesignCenter Data
1002
{
1070
     1
1070
     4
1002
}
  0
BLOCK_RECORD
  5
3E8
330
1
100
AcDbSymbolTableRecord
100
AcDbBlockTableRecord
  2
2
340
0
310
2800000020000000200000000100080000000000000400000000000000000000000000000000000000000000000080000080000000808000800000008000800080800000C0C0C000C0DCC000F0CAA6000020400000206000002080000020A0000020C0000020E00000400000004020000040400000406000004080000040A0
310
000040C0000040E00000600000006020000060400000606000006080000060A0000060C0000060E00000800000008020000080400000806000008080000080A0000080C0000080E00000A0000000A0200000A0400000A0600000A0800000A0A00000A0C00000A0E00000C0000000C0200000C0400000C0600000C0800000C0
310
A00000C0C00000C0E00000E0000000E0200000E0400000E0600000E0800000E0A00000E0C00000E0E00040000000400020004000400040006000400080004000A0004000C0004000E00040200000402020004020400040206000402080004020A0004020C0004020E000404000004040200040404000404060004040800040
310
40A0004040C0004040E00040600000406020004060400040606000406080004060A0004060C0004060E00040800000408020004080400040806000408080004080A0004080C0004080E00040A0000040A0200040A0400040A0600040A0800040A0A00040A0C00040A0E00040C0000040C0200040C0400040C0600040C08000
310
40C0A00040C0C00040C0E00040E0000040E0200040E0400040E0600040E0800040E0A00040E0C00040E0E00080000000800020008000400080006000800080008000A0008000C0008000E00080200000802020008020400080206000802080008020A0008020C0008020E00080400000804020008040400080406000804080
310
008040A0008040C0008040E00080600000806020008060400080606000806080008060A0008060C0008060E00080800000808020008080400080806000808080008080A0008080C0008080E00080A0000080A0200080A0400080A0600080A0800080A0A00080A0C00080A0E00080C0000080C0200080C0400080C0600080C0
310
800080C0A00080C0C00080C0E00080E0000080E0200080E0400080E0600080E0800080E0A00080E0C00080E0E000C0000000C0002000C0004000C0006000C0008000C000A000C000C000C000E000C0200000C0202000C0204000C0206000C0208000C020A000C020C000C020E000C0400000C0402000C0404000C0406000C0
310
408000C040A000C040C000C040E000C0600000C0602000C0604000C0606000C0608000C060A000C060C000C060E000C0800000C0802000C0804000C0806000C0808000C080A000C080C000C080E000C0A00000C0A02000C0A04000C0A06000C0A08000C0A0A000C0A0C000C0A0E000C0C00000C0C02000C0C04000C0C06000
310
C0C08000C0C0A000F0FBFF00A4A0A000808080000000FF0000FF000000FFFF00FF000000FF00FF00FFFF0000FFFFFF0000000000000000000000000000000000000000000000000000000000000000000000000000000000000000000000FFFFFFFF00000000000000000000000000000000000000000000000000000000FF
310
FFFFFF00000000000000000000000000000000000000000000000000000000FF0000FF00000000000000000000000000000000000000000000000000000000FFFFFFFF00000000000000000000000000000000000000000000000000000000FF0000FF00000000000000000000000000000000000000000000000000000000
310
FF0000FF00000000000000000000000000000000000000000000000000000000FF0000FF00000000000000000000000000000000000000000000000000000000FF0000FF00000000000000000000000000000000000000000000000000000000FF0000FF000000000000000000000000000000000000000000000000000000
310
00FF0000FF00000000000000000000000000000000000000000000000000000000FF0000FF00000000000000000000000000000000000000000000000000000000FFFFFFFF00000000000000000000000000000000000000000000000000000000FFFFFFFF0000000000000000000000000000000000000000000000000000
310
0000FF0000FF00000000000000000000000000000000000000000000000000000000FFFFFFFF00000000000000000000000000000000000000000000000000000000FF0000FF00000000000000000000000000000000000000000000000000000000FF0000FF00000000000000000000000000000000000000000000000000
310
000000FF0000FF00000000000000000000000000000000000000000000000000000000FF0000FF00000000000000000000000000000000000000000000000000000000FF0000FF00000000000000000000000000000000000000000000000000000000FF0000FF000000000000000000000000000000000000000000000000
310
00000000FF0000FF00000000000000000000000000000000000000000000000000000000FFFFFFFF00000000000000000000000000000000000000000000000000000000FF0000FF00000000000000000000000000000000000000000000000000000000FF0000FF0000000000000000000000000000000000000000000000
310
0000000000FF0000FF00000000000000000000000000000000000000000000000000000000FF0000FF000000000000000000000000000000000000000000000000000000FFFF0000FFFF0000000000000000000000000000000000000000000000000000FF00000000FF000000000000000000000000000000000000000000
310
0000000000FFFFFFFFFFFF000000000000000000000000000000000000000000000000000000000000000000000000000000000000000000
102
{BLKREFS
331
416
102
}
1001
ACAD
1000
DesignCenter Data
1002
{
1070
     1
1070
     4
1002
}
  0
BLOCK_RECORD
  5
417
102
{ACAD_XDICTIONARY
360
521
102
}
330
1
100
AcDbSymbolTableRecord
100
AcDbBlockTableRecord
  2
3
340
0
310
2800000020000000200000000100080000000000000400000000000000000000000000000000000000000000000080000080000000808000800000008000800080800000C0C0C000C0DCC000F0CAA6000020400000206000002080000020A0000020C0000020E00000400000004020000040400000406000004080000040A0
310
000040C0000040E00000600000006020000060400000606000006080000060A0000060C0000060E00000800000008020000080400000806000008080000080A0000080C0000080E00000A0000000A0200000A0400000A0600000A0800000A0A00000A0C00000A0E00000C0000000C0200000C0400000C0600000C0800000C0
310
A00000C0C00000C0E00000E0000000E0200000E0400000E0600000E0800000E0A00000E0C00000E0E00040000000400020004000400040006000400080004000A0004000C0004000E00040200000402020004020400040206000402080004020A0004020C0004020E000404000004040200040404000404060004040800040
310
40A0004040C0004040E00040600000406020004060400040606000406080004060A0004060C0004060E00040800000408020004080400040806000408080004080A0004080C0004080E00040A0000040A0200040A0400040A0600040A0800040A0A00040A0C00040A0E00040C0000040C0200040C0400040C0600040C08000
310
40C0A00040C0C00040C0E00040E0000040E0200040E0400040E0600040E0800040E0A00040E0C00040E0E00080000000800020008000400080006000800080008000A0008000C0008000E00080200000802020008020400080206000802080008020A0008020C0008020E00080400000804020008040400080406000804080
310
008040A0008040C0008040E00080600000806020008060400080606000806080008060A0008060C0008060E00080800000808020008080400080806000808080008080A0008080C0008080E00080A0000080A0200080A0400080A0600080A0800080A0A00080A0C00080A0E00080C0000080C0200080C0400080C0600080C0
310
800080C0A00080C0C00080C0E00080E0000080E0200080E0400080E0600080E0800080E0A00080E0C00080E0E000C0000000C0002000C0004000C0006000C0008000C000A000C000C000C000E000C0200000C0202000C0204000C0206000C0208000C020A000C020C000C020E000C0400000C0402000C0404000C0406000C0
310
408000C040A000C040C000C040E000C0600000C0602000C0604000C0606000C0608000C060A000C060C000C060E000C0800000C0802000C0804000C0806000C0808000C080A000C080C000C080E000C0A00000C0A02000C0A04000C0A06000C0A08000C0A0A000C0A0C000C0A0E000C0C00000C0C02000C0C04000C0C06000
310
C0C08000C0C0A000F0FBFF00A4A0A000808080000000FF0000FF000000FFFF00FF000000FF00FF00FFFF0000FFFFFF0000000000000000000000000000000000000000000000000000000000000000000000000000000000000000000000000000000000000000000000000000000000000000000000000000000000000000
310
00000000000000000000000000000000000000000000000000000000000000000000000000000000000000000000000000000000000000000000000000000000000000000000000000000000000000000000000000000000000000000000000000000000000000000000000000000000000000000000000000000000000000
310
00000000000000000000000000000000000000000000000000000000000000000000000000000000000000000000000000000000000000000000000000000000000000000000000000000000000000000000000000000000000000000000000000000000000000000000000000000000000000FFFFFFFFFFFFFFFFFFFFFFFF
310
FFFFFFFFFFFFFFFFFFFFFFFFFFFFFFFFFFFF0000FF00000000000000000000000000000000000000000000000000000000FF0000FF00000000000000000000000000000000000000000000000000000000FF0000FF00000000000000000000000000000000000000000000000000000000FF0000FF00000000000000000000
310
000000000000000000000000000000000000FF0000FF00000000000000000000000000000000000000000000000000000000FF0000FF00000000000000000000000000000000000000000000000000000000FF0000FF00000000000000000000000000000000000000000000000000000000FF0000FF000000000000000000
310
00000000000000000000000000000000000000FF0000FF00000000000000000000000000000000000000000000000000000000FF0000FF00000000000000000000000000000000000000000000000000000000FF0000FFFFFFFFFFFFFFFFFFFFFFFFFFFFFFFFFFFFFFFFFFFFFFFFFFFFFFFFFFFF0000000000000000000000
310
00000000000000000000000000000000000000000000000000000000000000000000000000000000000000000000000000000000000000000000000000000000000000000000000000000000000000000000000000000000000000000000000000000000000000000000000000000000000000000000000000000000000000
310
00000000000000000000000000000000000000000000000000000000000000000000000000000000000000000000000000000000000000000000000000000000000000000000000000000000000000000000000000000000000000000000000000000000000000000000000000000000000000000000000000000000000000
310
0000000000000000000000000000000000000000000000000000000000000000000000000000000000000000000000000000000000000000
102
{BLKREFS
331
41E
102
}
1001
AcDbDynamicBlockGUID
1000
{E7AFBCCF-B554-41A4-90CC-111E0C0E3808}
1001
AcDbBlockRepETag
1070
     1
1071
        4
1001
ACAD
1000
DesignCenter Data
1002
{
1070
     1
1070
     4
1002
}
  0
BLOCK_RECORD
  5
41F
102
{ACAD_XDICTIONARY
360
5AD
102
}
330
1
100
AcDbSymbolTableRecord
100
AcDbBlockTableRecord
  2
4
340
0
310
2800000020000000200000000100080000000000000400000000000000000000000000000000000000000000000080000080000000808000800000008000800080800000C0C0C000C0DCC000F0CAA6000020400000206000002080000020A0000020C0000020E00000400000004020000040400000406000004080000040A0
310
000040C0000040E00000600000006020000060400000606000006080000060A0000060C0000060E00000800000008020000080400000806000008080000080A0000080C0000080E00000A0000000A0200000A0400000A0600000A0800000A0A00000A0C00000A0E00000C0000000C0200000C0400000C0600000C0800000C0
310
A00000C0C00000C0E00000E0000000E0200000E0400000E0600000E0800000E0A00000E0C00000E0E00040000000400020004000400040006000400080004000A0004000C0004000E00040200000402020004020400040206000402080004020A0004020C0004020E000404000004040200040404000404060004040800040
310
40A0004040C0004040E00040600000406020004060400040606000406080004060A0004060C0004060E00040800000408020004080400040806000408080004080A0004080C0004080E00040A0000040A0200040A0400040A0600040A0800040A0A00040A0C00040A0E00040C0000040C0200040C0400040C0600040C08000
310
40C0A00040C0C00040C0E00040E0000040E0200040E0400040E0600040E0800040E0A00040E0C00040E0E00080000000800020008000400080006000800080008000A0008000C0008000E00080200000802020008020400080206000802080008020A0008020C0008020E00080400000804020008040400080406000804080
310
008040A0008040C0008040E00080600000806020008060400080606000806080008060A0008060C0008060E00080800000808020008080400080806000808080008080A0008080C0008080E00080A0000080A0200080A0400080A0600080A0800080A0A00080A0C00080A0E00080C0000080C0200080C0400080C0600080C0
310
800080C0A00080C0C00080C0E00080E0000080E0200080E0400080E0600080E0800080E0A00080E0C00080E0E000C0000000C0002000C0004000C0006000C0008000C000A000C000C000C000E000C0200000C0202000C0204000C0206000C0208000C020A000C020C000C020E000C0400000C0402000C0404000C0406000C0
310
408000C040A000C040C000C040E000C0600000C0602000C0604000C0606000C0608000C060A000C060C000C060E000C0800000C0802000C0804000C0806000C0808000C080A000C080C000C080E000C0A00000C0A02000C0A04000C0A06000C0A08000C0A0A000C0A0C000C0A0E000C0C00000C0C02000C0C04000C0C06000
310
C0C08000C0C0A000F0FBFF00A4A0A000808080000000FF0000FF000000FFFF00FF000000FF00FF00FFFF0000FFFFFF00000000000000000000000000000000000000000000000000000000000000000000000000000000000000000000FFFF0000000000000000000000000000000000000000000000000000000000FFFF00
310
FF000000000000000000000000000000000000000000000000000000FFFFFF00FF000000000000000000000000000000000000000000000000000000FFFFFF00FF0000FF000000000000000000000000000000000000000000000000FF00FF00FFFFFFFFFFFF00000000000000000000000000000000000000000000FF00FF
310
00FFFF00FF00FF00000000000000000000000000000000000000000000FF00FF00FFFFFFFF00FF00000000000000000000000000000000000000000000FF00FF00FFFF00FF00FF00000000000000000000000000000000000000000000FF00FF00FFFF00FF00FF00000000000000000000000000000000000000000000FFFF
310
FFFFFFFF00FF00FF00000000000000000000000000000000000000000000FFFFFFFFFFFF00FF00FF00000000000000000000000000000000000000000000FF00FF00FFFFFFFF00FF00000000000000000000000000000000000000000000FFFFFF00FFFFFFFFFFFF00000000000000000000000000000000000000000000FF
310
00FF0000FFFFFFFFFF00000000000000000000000000000000000000000000FF00FF0000FFFFFF00FF00000000000000000000000000000000000000000000FF00FFFFFFFFFF0000FF00000000000000000000000000000000000000000000FF00FFFFFFFFFF0000FF00000000000000000000000000000000000000000000
310
FFFFFF0000FFFFFF00FF000000000000000000000000000000000000000000FFFFFF000000FFFFFFFFFF000000000000000000000000000000000000000000FF00FF000000FFFF00FFFF000000000000000000000000000000000000000000FF00FF00000000FF0000FF000000000000000000000000000000000000000000
310
FF00FFFF000000000000FF000000000000000000000000000000000000000000FF0000FFFFFF0000000000FF0000000000000000000000000000000000000000FFFFFF00FFFFFF00000000FF0000000000000000000000000000000000000000FF0000000000FFFFFF0000FF00000000000000000000000000000000000000
310
0000FFFF00000000FFFFFFFFFF0000000000000000000000000000000000000000000000FFFF00000000FFFFFF00000000000000000000000000000000000000000000000000FF0000000000FF0000000000000000000000000000000000000000000000000000FFFF00FFFF00000000000000000000000000000000000000
310
00000000000000000000FF000000000000000000000000000000000000000000000000000000000000000000000000000000000000000000
102
{BLKREFS
331
4A5
102
}
1001
AcDbDynamicBlockGUID
1000
{0673D289-B7D7-428E-AACC-7EE55B6AB345}
1001
AcDbBlockRepETag
1070
     1
1071
      187
1001
ACAD
1000
DesignCenter Data
1002
{
1070
     1
1070
     4
1002
}
  0
ENDTAB
  0
ENDSEC
  0
SECTION
  2
BLOCKS
  0
BLOCK
  5
20
330
1F
100
AcDbEntity
  8
0
100
AcDbBlockBegin
  2
*Model_Space
 70
     0
 10
0.0
 20
0.0
 30
0.0
  3
*Model_Space
  1

  0
ENDBLK
  5
21
330
1F
100
AcDbEntity
  8
0
100
AcDbBlockEnd
  0
BLOCK
  5
D4
330
D2
100
AcDbEntity
 67
     1
  8
0
100
AcDbBlockBegin
  2
*Paper_Space
 70
     0
 10
0.0
 20
0.0
 30
0.0
  3
*Paper_Space
  1

  0
ENDBLK
  5
D5
330
D2
100
AcDbEntity
 67
     1
  8
0
100
AcDbBlockEnd
  0
BLOCK
  5
D8
330
D6
100
AcDbEntity
 67
     1
  8
0
100
AcDbBlockBegin
  2
*Paper_Space0
 70
     0
 10
0.0
 20
0.0
 30
0.0
  3
*Paper_Space0
  1

  0
ENDBLK
  5
D9
330
D6
100
AcDbEntity
 67
     1
  8
0
100
AcDbBlockEnd
  0
BLOCK
  5
3A0
330
39F
100
AcDbEntity
  8
0
100
AcDbBlockBegin
  2
1
 70
     0
 10
0.0
 20
0.0
 30
0.0
  3
1
  1

  0
LINE
  5
4AC
330
39F
100
AcDbEntity
  8
0
  6
Continuous
 62
     7
370
    15
100
AcDbLine
 10
2117.580456854131
 20
1133.982885431134
 30
0.0
 11
2134.280456854122
 21
1133.982885431134
 31
0.0
1001
AcDbBlockRepETag
1070
     1
1071
        0
1005
4AC
  0
LINE
  5
4AD
330
39F
100
AcDbEntity
  8
0
  6
Continuous
 62
     7
370
    15
100
AcDbLine
 10
2117.580456854131
 20
1132.832885431134
 30
0.0
 11
2117.580456854131
 21
1133.982885431134
 31
0.0
1001
AcDbBlockRepETag
1070
     1
1071
        1
1005
4AD
  0
LINE
  5
4AF
330
39F
100
AcDbEntity
  8
0
  6
Continuous
 62
     7
370
    15
100
AcDbLine
 10
2117.580456854131
 20
1132.832885431134
 30
0.0
 11
2134.280456854122
 21
1132.832885431133
 31
0.0
1001
AcDbBlockRepETag
1070
     1
1071
        2
1005
4AF
  0
LINE
  5
4B0
330
39F
100
AcDbEntity
  8
0
  6
Continuous
 62
     7
370
    15
100
AcDbLine
 10
2121.280456854233
 20
1124.882885431134
 30
0.0
 11
2121.280456854233
 21
1126.182885431134
 31
0.0
1001
AcDbBlockRepETag
1070
     1
1071
        3
1005
4B0
  0
LINE
  5
4B1
330
39F
100
AcDbEntity
  8
0
  6
Continuous
 62
     7
370
    15
100
AcDbLine
 10
2121.280456854233
 20
1124.882885431134
 30
0.0
 11
2118.780456854233
 21
1124.882885431134
 31
0.0
1001
AcDbBlockRepETag
1070
     1
1071
        4
1005
4B1
  0
LINE
  5
4B2
330
39F
100
AcDbEntity
  8
0
  6
Continuous
 62
     7
370
    15
100
AcDbLine
 10
2118.780456854233
 20
1124.882885431134
 30
0.0
 11
2118.780456854233
 21
1126.182885431134
 31
0.0
1001
AcDbBlockRepETag
1070
     1
1071
        5
1005
4B2
  0
LINE
  5
4B3
330
39F
100
AcDbEntity
  8
0
  6
Continuous
 62
     7
370
    15
100
AcDbLine
 10
2121.280456854233
 20
1126.182885431134
 30
0.0
 11
2118.780456854233
 21
1126.182885431134
 31
0.0
1001
AcDbBlockRepETag
1070
     1
1071
        6
1005
4B3
  0
LINE
  5
4B4
330
39F
100
AcDbEntity
  8
0
  6
Continuous
 62
     7
370
    15
100
AcDbLine
 10
2127.180456854233
 20
1124.882885431139
 30
0.0
 11
2127.180456854233
 21
1126.182885431134
 31
0.0
1001
AcDbBlockRepETag
1070
     1
1071
        7
1005
4B4
  0
LINE
  5
4B5
330
39F
100
AcDbEntity
  8
0
  6
Continuous
 62
     7
370
    15
100
AcDbLine
 10
2127.180456854233
 20
1124.882885431139
 30
0.0
 11
2124.680456854233
 21
1124.882885431134
 31
0.0
1001
AcDbBlockRepETag
1070
     1
1071
        8
1005
4B5
  0
LINE
  5
4B6
330
39F
100
AcDbEntity
  8
0
  6
Continuous
 62
     7
370
    15
100
AcDbLine
 10
2124.680456854233
 20
1124.882885431134
 30
0.0
 11
2124.680456854233
 21
1126.182885431134
 31
0.0
1001
AcDbBlockRepETag
1070
     1
1071
        9
1005
4B6
  0
LINE
  5
4B7
330
39F
100
AcDbEntity
  8
0
  6
Continuous
 62
     7
370
    15
100
AcDbLine
 10
2127.180456854233
 20
1126.182885431134
 30
0.0
 11
2124.680456854233
 21
1126.182885431134
 31
0.0
1001
AcDbBlockRepETag
1070
     1
1071
       10
1005
4B7
  0
LINE
  5
4B8
330
39F
100
AcDbEntity
  8
0
  6
Continuous
 62
     7
370
    15
100
AcDbLine
 10
2127.580456854128
 20
1121.584885431138
 30
0.0
 11
2127.580456854128
 21
1120.082885431139
 31
0.0
1001
AcDbBlockRepETag
1070
     1
1071
       11
1005
4B8
  0
LINE
  5
4B9
330
39F
100
AcDbEntity
  8
0
  6
Continuous
 62
     7
370
    15
100
AcDbLine
 10
2127.580456854128
 20
1120.082885431139
 30
0.0
 11
2124.280456854126
 21
1120.082885431139
 31
0.0
1001
AcDbBlockRepETag
1070
     1
1071
       12
1005
4B9
  0
LINE
  5
4BA
330
39F
100
AcDbEntity
  8
0
  6
Continuous
 62
     7
370
    15
100
AcDbLine
 10
2124.280456854126
 20
1121.584885431138
 30
0.0
 11
2124.280456854126
 21
1120.082885431139
 31
0.0
1001
AcDbBlockRepETag
1070
     1
1071
       13
1005
4BA
  0
LINE
  5
4BB
330
39F
100
AcDbEntity
  8
0
  6
Continuous
 62
     7
370
    15
100
AcDbLine
 10
2124.080456854127
 20
1121.784885431138
 30
0.0
 11
2124.280456854126
 21
1121.584885431138
 31
0.0
1001
AcDbBlockRepETag
1070
     1
1071
       14
1005
4BB
  0
LINE
  5
4BC
330
39F
100
AcDbEntity
  8
0
  6
Continuous
 62
     7
370
    15
100
AcDbLine
 10
2124.080456854127
 20
1121.784885431138
 30
0.0
 11
2124.080456854127
 21
1128.28488543114
 31
0.0
1001
AcDbBlockRepETag
1070
     1
1071
       15
1005
4BC
  0
LINE
  5
4BD
330
39F
100
AcDbEntity
  8
0
  6
Continuous
 62
     7
370
    15
100
AcDbLine
 10
2121.68045685413
 20
1121.584885431137
 30
0.0
 11
2121.88045685413
 21
1121.784885431138
 31
0.0
1001
AcDbBlockRepETag
1070
     1
1071
       16
1005
4BD
  0
LINE
  5
4BE
330
39F
100
AcDbEntity
  8
0
  6
Continuous
 62
     7
370
    15
100
AcDbLine
 10
2121.68045685413
 20
1120.082885431139
 30
0.0
 11
2121.68045685413
 21
1121.584885431137
 31
0.0
1001
AcDbBlockRepETag
1070
     1
1071
       17
1005
4BE
  0
LINE
  5
4BF
330
39F
100
AcDbEntity
  8
0
  6
Continuous
 62
     7
370
    15
100
AcDbLine
 10
2121.68045685413
 20
1120.082885431139
 30
0.0
 11
2118.380456854128
 21
1120.082885431139
 31
0.0
1001
AcDbBlockRepETag
1070
     1
1071
       18
1005
4BF
  0
LINE
  5
4C0
330
39F
100
AcDbEntity
  8
0
  6
Continuous
 62
     7
370
    15
100
AcDbLine
 10
2118.380456854128
 20
1120.082885431139
 30
0.0
 11
2118.380456854129
 21
1121.584885431138
 31
0.0
1001
AcDbBlockRepETag
1070
     1
1071
       19
1005
4C0
  0
LINE
  5
4C1
330
39F
100
AcDbEntity
  8
0
  6
Continuous
 62
     7
370
    15
100
AcDbLine
 10
2118.380456854129
 20
1121.584885431138
 30
0.0
 11
2118.180456854131
 21
1121.784885431137
 31
0.0
1001
AcDbBlockRepETag
1070
     1
1071
       20
1005
4C1
  0
LINE
  5
4C2
330
39F
100
AcDbEntity
  8
0
  6
Continuous
 62
     7
370
    15
100
AcDbLine
 10
2118.180456854131
 20
1121.784885431137
 30
0.0
 11
2118.180456854132
 21
1128.28488543113
 31
0.0
1001
AcDbBlockRepETag
1070
     1
1071
       21
1005
4C2
  0
LINE
  5
4C3
330
39F
100
AcDbEntity
  8
0
  6
Continuous
 62
     7
370
    15
100
AcDbLine
 10
2121.88045685413
 20
1128.28488543114
 30
0.0
 11
2121.88045685413
 21
1121.784885431138
 31
0.0
1001
AcDbBlockRepETag
1070
     1
1071
       22
1005
4C3
  0
LINE
  5
4C4
330
39F
100
AcDbEntity
  8
0
  6
Continuous
 62
     7
370
    15
100
AcDbLine
 10
2127.780456854125
 20
1128.284885431131
 30
0.0
 11
2129.980456854123
 21
1128.284885431128
 31
0.0
1001
AcDbBlockRepETag
1070
     1
1071
       23
1005
4C4
  0
LINE
  5
4C5
330
39F
100
AcDbEntity
  8
0
  6
Continuous
 62
     7
370
    15
100
AcDbLine
 10
2127.780456854126
 20
1121.784885431137
 30
0.0
 11
2127.580456854128
 21
1121.584885431138
 31
0.0
1001
AcDbBlockRepETag
1070
     1
1071
       24
1005
4C5
  0
LINE
  5
4C6
330
39F
100
AcDbEntity
  8
0
  6
Continuous
 62
     7
370
    15
100
AcDbLine
 10
2127.780456854125
 20
1128.284885431131
 30
0.0
 11
2127.780456854126
 21
1121.784885431137
 31
0.0
1001
AcDbBlockRepETag
1070
     1
1071
       25
1005
4C6
  0
LINE
  5
4C7
330
39F
100
AcDbEntity
  8
0
  6
Continuous
 62
     7
370
    15
100
AcDbLine
 10
2124.080456854127
 20
1128.28488543114
 30
0.0
 11
2121.88045685413
 21
1128.28488543114
 31
0.0
1001
AcDbBlockRepETag
1070
     1
1071
       26
1005
4C7
  0
LINE
  5
4C8
330
39F
100
AcDbEntity
  8
0
  6
Continuous
 62
     7
370
    15
100
AcDbLine
 10
2117.580456854131
 20
1128.284885431131
 30
0.0
 11
2118.180456854132
 21
1128.28488543113
 31
0.0
1001
AcDbBlockRepETag
1070
     1
1071
       27
1005
4C8
  0
LINE
  5
4C9
330
39F
100
AcDbEntity
  8
0
  6
Continuous
 62
     7
370
    15
100
AcDbLine
 10
2117.580456854131
 20
1128.284885431131
 30
0.0
 11
2117.580456854131
 21
1132.832885431135
 31
0.0
1001
AcDbBlockRepETag
1070
     1
1071
       28
1005
4C9
  0
LINE
  5
4CB
330
39F
100
AcDbEntity
  8
0
  6
Continuous
 62
     7
370
    15
100
AcDbLine
 10
2121.68045685413
 20
1120.082885431139
 30
0.0
 11
2121.38045685413
 21
1119.782885431138
 31
0.0
1001
AcDbBlockRepETag
1070
     1
1071
       29
1005
4CB
  0
LINE
  5
4CC
330
39F
100
AcDbEntity
  8
0
  6
Continuous
 62
     7
370
    15
100
AcDbLine
 10
2118.680456854129
 20
1119.782885431138
 30
0.0
 11
2121.38045685413
 21
1119.782885431138
 31
0.0
1001
AcDbBlockRepETag
1070
     1
1071
       30
1005
4CC
  0
LINE
  5
4CD
330
39F
100
AcDbEntity
  8
0
  6
Continuous
 62
     7
370
    15
100
AcDbLine
 10
2118.380456854128
 20
1120.082885431139
 30
0.0
 11
2118.680456854129
 21
1119.782885431138
 31
0.0
1001
AcDbBlockRepETag
1070
     1
1071
       31
1005
4CD
  0
LINE
  5
4CE
330
39F
100
AcDbEntity
  8
0
  6
Continuous
 62
     7
370
    15
100
AcDbLine
 10
2124.580456854127
 20
1119.782885431138
 30
0.0
 11
2124.280456854126
 21
1120.082885431139
 31
0.0
1001
AcDbBlockRepETag
1070
     1
1071
       32
1005
4CE
  0
LINE
  5
4CF
330
39F
100
AcDbEntity
  8
0
  6
Continuous
 62
     7
370
    15
100
AcDbLine
 10
2127.280456854128
 20
1119.782885431138
 30
0.0
 11
2127.580456854129
 21
1120.082885431139
 31
0.0
1001
AcDbBlockRepETag
1070
     1
1071
       33
1005
4CF
  0
LINE
  5
4D0
330
39F
100
AcDbEntity
  8
0
  6
Continuous
 62
     7
370
    15
100
AcDbLine
 10
2124.580456854127
 20
1119.782885431138
 30
0.0
 11
2127.280456854128
 21
1119.782885431138
 31
0.0
1001
AcDbBlockRepETag
1070
     1
1071
       34
1005
4D0
  0
LINE
  5
4D1
330
39F
100
AcDbEntity
  8
0
  6
Continuous
 62
     7
370
    15
100
AcDbLine
 10
2121.330456854124
 20
1118.836157404755
 30
0.0
 11
2118.730456854166
 21
1118.836157404755
 31
0.0
1001
AcDbBlockRepETag
1070
     1
1071
       35
1005
4D1
  0
LINE
  5
4D2
330
39F
100
AcDbEntity
  8
0
  6
Continuous
 62
     7
370
    15
100
AcDbLine
 10
2121.330456854124
 20
1118.836157404755
 30
0.0
 11
2121.330456854128
 21
1118.586157404755
 31
0.0
1001
AcDbBlockRepETag
1070
     1
1071
       36
1005
4D2
  0
LINE
  5
4D3
330
39F
100
AcDbEntity
  8
0
  6
Continuous
 62
     7
370
    15
100
AcDbLine
 10
2118.730456854276
 20
1118.586157404755
 30
0.0
 11
2121.330456854128
 21
1118.586157404755
 31
0.0
1001
AcDbBlockRepETag
1070
     1
1071
       37
1005
4D3
  0
LINE
  5
4D4
330
39F
100
AcDbEntity
  8
0
  6
Continuous
 62
     7
370
    15
100
AcDbLine
 10
2118.730456854276
 20
1118.586157404755
 30
0.0
 11
2118.730456854166
 21
1118.836157404755
 31
0.0
1001
AcDbBlockRepETag
1070
     1
1071
       38
1005
4D4
  0
LINE
  5
4D5
330
39F
100
AcDbEntity
  8
0
  6
Continuous
 62
     7
370
    15
100
AcDbLine
 10
2121.047059992063
 20
1110.274108568975
 30
0.0
 11
2121.330456854126
 21
1111.881332040544
 31
0.0
1001
AcDbBlockRepETag
1070
     1
1071
       39
1005
4D5
  0
ARC
  5
4D6
330
39F
100
AcDbEntity
  8
0
  6
Continuous
 62
     7
370
    15
100
AcDbCircle
 10
2120.702377278508
 20
1110.334885431158
 30
0.0
 40
0.3500000000000081
100
AcDbArc
 50
270.0
 51
349.9999999999961
1001
AcDbBlockRepETag
1070
     1
1071
       40
1005
4D6
  0
LINE
  5
4D7
330
39F
100
AcDbEntity
  8
0
  6
Continuous
 62
     7
370
    15
100
AcDbLine
 10
2119.359252981529
 20
1109.984885431159
 30
0.0
 11
2120.702377278508
 21
1109.984885431159
 31
0.0
1001
AcDbBlockRepETag
1070
     1
1071
       41
1005
4D7
  0
ARC
  5
4D8
330
39F
100
AcDbEntity
  8
0
  6
Continuous
 62
     7
370
    15
100
AcDbCircle
 10
2119.359252981529
 20
1110.334885431158
 30
0.0
 40
0.3499999999999659
100
AcDbArc
 50
189.999999999991
 51
270.0
1001
AcDbBlockRepETag
1070
     1
1071
       42
1005
4D8
  0
LINE
  5
4D9
330
39F
100
AcDbEntity
  8
0
  6
Continuous
 62
     7
370
    15
100
AcDbLine
 10
2118.730456854293
 20
1111.885395805992
 30
0.0
 11
2119.014570267975
 21
1110.274108568975
 31
0.0
1001
AcDbBlockRepETag
1070
     1
1071
       43
1005
4D9
  0
LINE
  5
4DA
330
39F
100
AcDbEntity
  8
0
  6
Continuous
 62
     7
370
    15
100
AcDbLine
 10
2121.330456854126
 20
1111.881332040544
 30
0.0
 11
2121.330456854128
 21
1118.586157404755
 31
0.0
1001
AcDbBlockRepETag
1070
     1
1071
       44
1005
4DA
  0
LINE
  5
4DB
330
39F
100
AcDbEntity
  8
0
  6
Continuous
 62
     7
370
    15
100
AcDbLine
 10
2118.730456854276
 20
1118.586157404755
 30
0.0
 11
2118.730456854293
 21
1111.885395805992
 31
0.0
1001
AcDbBlockRepETag
1070
     1
1071
       45
1005
4DB
  0
LINE
  5
4DC
330
39F
100
AcDbEntity
  8
0
  6
Continuous
 62
     7
370
    15
100
AcDbLine
 10
2124.630456854276
 20
1118.586157404755
 30
0.0
 11
2127.230456854128
 21
1118.586157404755
 31
0.0
1001
AcDbBlockRepETag
1070
     1
1071
       46
1005
4DC
  0
LINE
  5
4DD
330
39F
100
AcDbEntity
  8
0
  6
Continuous
 62
     7
370
    15
100
AcDbLine
 10
2125.259252981529
 20
1109.984885431159
 30
0.0
 11
2126.602377278508
 21
1109.984885431159
 31
0.0
1001
AcDbBlockRepETag
1070
     1
1071
       47
1005
4DD
  0
LINE
  5
4DE
330
39F
100
AcDbEntity
  8
0
  6
Continuous
 62
     7
370
    15
100
AcDbLine
 10
2124.630456854276
 20
1118.586157404755
 30
0.0
 11
2124.630456854292
 21
1111.885395805992
 31
0.0
1001
AcDbBlockRepETag
1070
     1
1071
       48
1005
4DE
  0
LINE
  5
4DF
330
39F
100
AcDbEntity
  8
0
  6
Continuous
 62
     7
370
    15
100
AcDbLine
 10
2124.630456854292
 20
1111.885395805992
 30
0.0
 11
2124.914570267975
 21
1110.274108568975
 31
0.0
1001
AcDbBlockRepETag
1070
     1
1071
       49
1005
4DF
  0
ARC
  5
4E0
330
39F
100
AcDbEntity
  8
0
  6
Continuous
 62
     7
370
    15
100
AcDbCircle
 10
2126.602377278508
 20
1110.334885431158
 30
0.0
 40
0.3500000000000361
100
AcDbArc
 50
270.0
 51
349.9999999999961
1001
AcDbBlockRepETag
1070
     1
1071
       50
1005
4E0
  0
ARC
  5
4E1
330
39F
100
AcDbEntity
  8
0
  6
Continuous
 62
     7
370
    15
100
AcDbCircle
 10
2125.259252981529
 20
1110.334885431158
 30
0.0
 40
0.3499999999999884
100
AcDbArc
 50
189.9999999999782
 51
270.0
1001
AcDbBlockRepETag
1070
     1
1071
       51
1005
4E1
  0
LINE
  5
4E2
330
39F
100
AcDbEntity
  8
0
  6
Continuous
 62
     7
370
    15
100
AcDbLine
 10
2126.947059992063
 20
1110.274108568975
 30
0.0
 11
2127.230456854126
 21
1111.881332040544
 31
0.0
1001
AcDbBlockRepETag
1070
     1
1071
       52
1005
4E2
  0
LINE
  5
4E3
330
39F
100
AcDbEntity
  8
0
  6
Continuous
 62
     7
370
    15
100
AcDbLine
 10
2127.230456854126
 20
1111.881332040544
 30
0.0
 11
2127.230456854128
 21
1118.586157404755
 31
0.0
1001
AcDbBlockRepETag
1070
     1
1071
       53
1005
4E3
  0
LINE
  5
4E4
330
39F
100
AcDbEntity
  8
0
  6
Continuous
 62
     7
370
    15
100
AcDbLine
 10
2127.230456854125
 20
1118.836157404755
 30
0.0
 11
2124.630456854166
 21
1118.836157404755
 31
0.0
1001
AcDbBlockRepETag
1070
     1
1071
       54
1005
4E4
  0
LINE
  5
4E5
330
39F
100
AcDbEntity
  8
0
  6
Continuous
 62
     7
370
    15
100
AcDbLine
 10
2124.630456854276
 20
1118.586157404755
 30
0.0
 11
2124.630456854166
 21
1118.836157404755
 31
0.0
1001
AcDbBlockRepETag
1070
     1
1071
       55
1005
4E5
  0
LINE
  5
4E6
330
39F
100
AcDbEntity
  8
0
  6
Continuous
 62
     7
370
    15
100
AcDbLine
 10
2127.230456854125
 20
1118.836157404755
 30
0.0
 11
2127.230456854128
 21
1118.586157404755
 31
0.0
1001
AcDbBlockRepETag
1070
     1
1071
       56
1005
4E6
  0
LINE
  5
4E7
330
39F
100
AcDbEntity
  8
0
  6
Continuous
 62
     7
370
    15
100
AcDbLine
 10
2127.230456854125
 20
1119.086157404755
 30
0.0
 11
2124.630456854166
 21
1119.086157404755
 31
0.0
1001
AcDbBlockRepETag
1070
     1
1071
       57
1005
4E7
  0
LINE
  5
4E8
330
39F
100
AcDbEntity
  8
0
  6
Continuous
 62
     7
370
    15
100
AcDbLine
 10
2124.630456854166
 20
1118.836157404755
 30
0.0
 11
2124.630456854166
 21
1119.086157404755
 31
0.0
1001
AcDbBlockRepETag
1070
     1
1071
       58
1005
4E8
  0
LINE
  5
4E9
330
39F
100
AcDbEntity
  8
0
  6
Continuous
 62
     7
370
    15
100
AcDbLine
 10
2127.230456854125
 20
1119.086157404755
 30
0.0
 11
2127.230456854125
 21
1118.836157404755
 31
0.0
1001
AcDbBlockRepETag
1070
     1
1071
       59
1005
4E9
  0
LINE
  5
4EA
330
39F
100
AcDbEntity
  8
0
  6
Continuous
 62
     7
370
    15
100
AcDbLine
 10
2121.330456854124
 20
1119.086157404755
 30
0.0
 11
2118.730456854166
 21
1119.086157404755
 31
0.0
1001
AcDbBlockRepETag
1070
     1
1071
       60
1005
4EA
  0
LINE
  5
4EB
330
39F
100
AcDbEntity
  8
0
  6
Continuous
 62
     7
370
    15
100
AcDbLine
 10
2121.330456854124
 20
1119.086157404755
 30
0.0
 11
2121.330456854124
 21
1118.836157404755
 31
0.0
1001
AcDbBlockRepETag
1070
     1
1071
       61
1005
4EB
  0
LINE
  5
4EC
330
39F
100
AcDbEntity
  8
0
  6
Continuous
 62
     7
370
    15
100
AcDbLine
 10
2118.730456854166
 20
1118.836157404755
 30
0.0
 11
2118.730456854166
 21
1119.086157404755
 31
0.0
1001
AcDbBlockRepETag
1070
     1
1071
       62
1005
4EC
  0
LINE
  5
4ED
330
39F
100
AcDbEntity
  8
0
  6
Continuous
 62
     7
370
    15
100
AcDbLine
 10
2124.630456854166
 20
1119.086157404755
 30
0.0
 11
2124.630456854126
 21
1119.782885431138
 31
0.0
1001
AcDbBlockRepETag
1070
     1
1071
       63
1005
4ED
  0
LINE
  5
4EE
330
39F
100
AcDbEntity
  8
0
  6
Continuous
 62
     7
370
    15
100
AcDbLine
 10
2127.230456854125
 20
1119.782885431138
 30
0.0
 11
2127.230456854125
 21
1119.086157404755
 31
0.0
1001
AcDbBlockRepETag
1070
     1
1071
       64
1005
4EE
  0
LINE
  5
4EF
330
39F
100
AcDbEntity
  8
0
  6
Continuous
 62
     7
370
    15
100
AcDbLine
 10
2121.330456854124
 20
1119.782885431138
 30
0.0
 11
2121.330456854124
 21
1119.086157404755
 31
0.0
1001
AcDbBlockRepETag
1070
     1
1071
       65
1005
4EF
  0
LINE
  5
4F0
330
39F
100
AcDbEntity
  8
0
  6
Continuous
 62
     7
370
    15
100
AcDbLine
 10
2118.730456854166
 20
1119.086157404755
 30
0.0
 11
2118.730456854126
 21
1119.782885431138
 31
0.0
1001
AcDbBlockRepETag
1070
     1
1071
       66
1005
4F0
  0
LINE
  5
4F5
330
39F
100
AcDbEntity
  8
0
  6
Continuous
 62
     7
370
    15
100
AcDbLine
 10
2134.280456854122
 20
1132.832885431133
 30
0.0
 11
2134.280456854122
 21
1133.982885431134
 31
0.0
1001
AcDbBlockRepETag
1070
     1
1071
       67
1005
4F5
  0
LINE
  5
4F6
330
39F
100
AcDbEntity
  8
0
  6
Continuous
 62
     7
370
    15
100
AcDbLine
 10
2133.080456854228
 20
1124.882885431139
 30
0.0
 11
2133.080456854228
 21
1126.182885431134
 31
0.0
1001
AcDbBlockRepETag
1070
     1
1071
       68
1005
4F6
  0
LINE
  5
4F7
330
39F
100
AcDbEntity
  8
0
  6
Continuous
 62
     7
370
    15
100
AcDbLine
 10
2133.080456854228
 20
1124.882885431139
 30
0.0
 11
2130.580456854229
 21
1124.882885431135
 31
0.0
1001
AcDbBlockRepETag
1070
     1
1071
       69
1005
4F7
  0
LINE
  5
4F8
330
39F
100
AcDbEntity
  8
0
  6
Continuous
 62
     7
370
    15
100
AcDbLine
 10
2130.580456854229
 20
1124.882885431135
 30
0.0
 11
2130.580456854229
 21
1126.182885431134
 31
0.0
1001
AcDbBlockRepETag
1070
     1
1071
       70
1005
4F8
  0
LINE
  5
4F9
330
39F
100
AcDbEntity
  8
0
  6
Continuous
 62
     7
370
    15
100
AcDbLine
 10
2133.080456854228
 20
1126.182885431134
 30
0.0
 11
2130.580456854229
 21
1126.182885431134
 31
0.0
1001
AcDbBlockRepETag
1070
     1
1071
       71
1005
4F9
  0
LINE
  5
4FA
330
39F
100
AcDbEntity
  8
0
  6
Continuous
 62
     7
370
    15
100
AcDbLine
 10
2133.480456854124
 20
1121.584885431138
 30
0.0
 11
2133.480456854124
 21
1120.082885431139
 31
0.0
1001
AcDbBlockRepETag
1070
     1
1071
       72
1005
4FA
  0
LINE
  5
4FB
330
39F
100
AcDbEntity
  8
0
  6
Continuous
 62
     7
370
    15
100
AcDbLine
 10
2133.480456854124
 20
1120.082885431139
 30
0.0
 11
2130.180456854123
 21
1120.082885431139
 31
0.0
1001
AcDbBlockRepETag
1070
     1
1071
       73
1005
4FB
  0
LINE
  5
4FC
330
39F
100
AcDbEntity
  8
0
  6
Continuous
 62
     7
370
    15
100
AcDbLine
 10
2130.180456854123
 20
1121.584885431138
 30
0.0
 11
2130.180456854123
 21
1120.082885431139
 31
0.0
1001
AcDbBlockRepETag
1070
     1
1071
       74
1005
4FC
  0
LINE
  5
4FD
330
39F
100
AcDbEntity
  8
0
  6
Continuous
 62
     7
370
    15
100
AcDbLine
 10
2129.980456854123
 20
1121.784885431138
 30
0.0
 11
2130.180456854123
 21
1121.584885431138
 31
0.0
1001
AcDbBlockRepETag
1070
     1
1071
       75
1005
4FD
  0
LINE
  5
4FE
330
39F
100
AcDbEntity
  8
0
  6
Continuous
 62
     7
370
    15
100
AcDbLine
 10
2129.980456854123
 20
1121.784885431138
 30
0.0
 11
2129.980456854123
 21
1128.28488543114
 31
0.0
1001
AcDbBlockRepETag
1070
     1
1071
       76
1005
4FE
  0
LINE
  5
4FF
330
39F
100
AcDbEntity
  8
0
  6
Continuous
 62
     7
370
    15
100
AcDbLine
 10
2133.680456854121
 20
1128.284885431131
 30
0.0
 11
2134.280456854122
 21
1128.28488543113
 31
0.0
1001
AcDbBlockRepETag
1070
     1
1071
       77
1005
4FF
  0
LINE
  5
500
330
39F
100
AcDbEntity
  8
0
  6
Continuous
 62
     7
370
    15
100
AcDbLine
 10
2133.680456854122
 20
1121.784885431137
 30
0.0
 11
2133.480456854124
 21
1121.584885431138
 31
0.0
1001
AcDbBlockRepETag
1070
     1
1071
       78
1005
500
  0
LINE
  5
501
330
39F
100
AcDbEntity
  8
0
  6
Continuous
 62
     7
370
    15
100
AcDbLine
 10
2133.680456854121
 20
1128.284885431131
 30
0.0
 11
2133.680456854122
 21
1121.784885431137
 31
0.0
1001
AcDbBlockRepETag
1070
     1
1071
       79
1005
501
  0
LINE
  5
502
330
39F
100
AcDbEntity
  8
0
  6
Continuous
 62
     7
370
    15
100
AcDbLine
 10
2134.280456854122
 20
1132.832885431136
 30
0.0
 11
2134.280456854122
 21
1128.28488543113
 31
0.0
1001
AcDbBlockRepETag
1070
     1
1071
       80
1005
502
  0
LINE
  5
503
330
39F
100
AcDbEntity
  8
0
  6
Continuous
 62
     7
370
    15
100
AcDbLine
 10
2130.480456854122
 20
1119.782885431139
 30
0.0
 11
2130.180456854123
 21
1120.082885431139
 31
0.0
1001
AcDbBlockRepETag
1070
     1
1071
       81
1005
503
  0
LINE
  5
504
330
39F
100
AcDbEntity
  8
0
  6
Continuous
 62
     7
370
    15
100
AcDbLine
 10
2133.180456854125
 20
1119.782885431139
 30
0.0
 11
2133.480456854124
 21
1120.082885431139
 31
0.0
1001
AcDbBlockRepETag
1070
     1
1071
       82
1005
504
  0
LINE
  5
505
330
39F
100
AcDbEntity
  8
0
  6
Continuous
 62
     7
370
    15
100
AcDbLine
 10
2130.480456854122
 20
1119.782885431139
 30
0.0
 11
2133.180456854125
 21
1119.782885431139
 31
0.0
1001
AcDbBlockRepETag
1070
     1
1071
       83
1005
505
  0
LINE
  5
506
330
39F
100
AcDbEntity
  8
0
  6
Continuous
 62
     7
370
    15
100
AcDbLine
 10
2130.530456854272
 20
1118.586157404755
 30
0.0
 11
2133.130456854124
 21
1118.586157404755
 31
0.0
1001
AcDbBlockRepETag
1070
     1
1071
       84
1005
506
  0
LINE
  5
507
330
39F
100
AcDbEntity
  8
0
  6
Continuous
 62
     7
370
    15
100
AcDbLine
 10
2131.159252981525
 20
1109.984885431159
 30
0.0
 11
2132.502377278505
 21
1109.984885431159
 31
0.0
1001
AcDbBlockRepETag
1070
     1
1071
       85
1005
507
  0
LINE
  5
508
330
39F
100
AcDbEntity
  8
0
  6
Continuous
 62
     7
370
    15
100
AcDbLine
 10
2130.530456854272
 20
1118.586157404755
 30
0.0
 11
2130.530456854288
 21
1111.885395805993
 31
0.0
1001
AcDbBlockRepETag
1070
     1
1071
       86
1005
508
  0
LINE
  5
509
330
39F
100
AcDbEntity
  8
0
  6
Continuous
 62
     7
370
    15
100
AcDbLine
 10
2130.530456854288
 20
1111.885395805993
 30
0.0
 11
2130.814570267971
 21
1110.274108568975
 31
0.0
1001
AcDbBlockRepETag
1070
     1
1071
       87
1005
509
  0
ARC
  5
50A
330
39F
100
AcDbEntity
  8
0
  6
Continuous
 62
     7
370
    15
100
AcDbCircle
 10
2132.502377278505
 20
1110.334885431159
 30
0.0
 40
0.3500000000000361
100
AcDbArc
 50
270.0
 51
349.9999999999961
1001
AcDbBlockRepETag
1070
     1
1071
       88
1005
50A
  0
ARC
  5
50B
330
39F
100
AcDbEntity
  8
0
  6
Continuous
 62
     7
370
    15
100
AcDbCircle
 10
2131.159252981525
 20
1110.334885431159
 30
0.0
 40
0.3499999999999884
100
AcDbArc
 50
189.9999999999782
 51
270.0
1001
AcDbBlockRepETag
1070
     1
1071
       89
1005
50B
  0
LINE
  5
50C
330
39F
100
AcDbEntity
  8
0
  6
Continuous
 62
     7
370
    15
100
AcDbLine
 10
2132.847059992059
 20
1110.274108568975
 30
0.0
 11
2133.130456854122
 21
1111.881332040545
 31
0.0
1001
AcDbBlockRepETag
1070
     1
1071
       90
1005
50C
  0
LINE
  5
50D
330
39F
100
AcDbEntity
  8
0
  6
Continuous
 62
     7
370
    15
100
AcDbLine
 10
2133.130456854122
 20
1111.881332040545
 30
0.0
 11
2133.130456854124
 21
1118.586157404755
 31
0.0
1001
AcDbBlockRepETag
1070
     1
1071
       91
1005
50D
  0
LINE
  5
50E
330
39F
100
AcDbEntity
  8
0
  6
Continuous
 62
     7
370
    15
100
AcDbLine
 10
2133.130456854121
 20
1118.836157404755
 30
0.0
 11
2130.530456854162
 21
1118.836157404755
 31
0.0
1001
AcDbBlockRepETag
1070
     1
1071
       92
1005
50E
  0
LINE
  5
50F
330
39F
100
AcDbEntity
  8
0
  6
Continuous
 62
     7
370
    15
100
AcDbLine
 10
2130.530456854272
 20
1118.586157404755
 30
0.0
 11
2130.530456854162
 21
1118.836157404755
 31
0.0
1001
AcDbBlockRepETag
1070
     1
1071
       93
1005
50F
  0
LINE
  5
510
330
39F
100
AcDbEntity
  8
0
  6
Continuous
 62
     7
370
    15
100
AcDbLine
 10
2133.130456854121
 20
1118.836157404755
 30
0.0
 11
2133.130456854124
 21
1118.586157404755
 31
0.0
1001
AcDbBlockRepETag
1070
     1
1071
       94
1005
510
  0
LINE
  5
511
330
39F
100
AcDbEntity
  8
0
  6
Continuous
 62
     7
370
    15
100
AcDbLine
 10
2133.130456854121
 20
1119.086157404755
 30
0.0
 11
2130.530456854162
 21
1119.086157404755
 31
0.0
1001
AcDbBlockRepETag
1070
     1
1071
       95
1005
511
  0
LINE
  5
512
330
39F
100
AcDbEntity
  8
0
  6
Continuous
 62
     7
370
    15
100
AcDbLine
 10
2130.530456854162
 20
1118.836157404755
 30
0.0
 11
2130.530456854162
 21
1119.086157404755
 31
0.0
1001
AcDbBlockRepETag
1070
     1
1071
       96
1005
512
  0
LINE
  5
513
330
39F
100
AcDbEntity
  8
0
  6
Continuous
 62
     7
370
    15
100
AcDbLine
 10
2133.130456854121
 20
1119.086157404755
 30
0.0
 11
2133.130456854121
 21
1118.836157404755
 31
0.0
1001
AcDbBlockRepETag
1070
     1
1071
       97
1005
513
  0
LINE
  5
514
330
39F
100
AcDbEntity
  8
0
  6
Continuous
 62
     7
370
    15
100
AcDbLine
 10
2130.530456854162
 20
1119.086157404755
 30
0.0
 11
2130.530456854122
 21
1119.782885431139
 31
0.0
1001
AcDbBlockRepETag
1070
     1
1071
       98
1005
514
  0
LINE
  5
515
330
39F
100
AcDbEntity
  8
0
  6
Continuous
 62
     7
370
    15
100
AcDbLine
 10
2133.130456854121
 20
1119.782885431139
 30
0.0
 11
2133.130456854121
 21
1119.086157404755
 31
0.0
1001
AcDbBlockRepETag
1070
     1
1071
       99
1005
515
  0
ENDBLK
  5
3A1
330
39F
100
AcDbEntity
  8
0
100
AcDbBlockEnd
  0
BLOCK
  5
3E9
330
3E8
100
AcDbEntity
  8
0
100
AcDbBlockBegin
  2
2
 70
     0
 10
0.0
 20
0.0
 30
0.0
  3
2
  1

  0
LINE
  5
3EB
330
3E8
100
AcDbEntity
  8
0
  6
Continuous
 62
     7
370
    15
100
AcDbLine
 10
2097.157539910607
 20
1133.982885431134
 30
0.0
 11
2097.157539910607
 21
1132.832885431136
 31
0.0
  0
LINE
  5
3EC
330
3E8
100
AcDbEntity
  8
0
  6
Continuous
 62
     7
370
    15
100
AcDbLine
 10
2096.456539910608
 20
1132.832885431136
 30
0.0
 11
2097.157539910607
 21
1132.832885431136
 31
0.0
  0
LINE
  5
3ED
330
3E8
100
AcDbEntity
  8
0
  6
Continuous
 62
     7
370
    15
100
AcDbLine
 10
2096.456539910608
 20
1128.284885431132
 30
0.0
 11
2096.456539910608
 21
1132.832885431136
 31
0.0
  0
LINE
  5
3EE
330
3E8
100
AcDbEntity
  8
0
  6
Continuous
 62
     7
370
    15
100
AcDbLine
 10
2093.958539910607
 20
1128.28488543113
 30
0.0
 11
2096.456539910608
 21
1128.284885431132
 31
0.0
  0
LINE
  5
3EF
330
3E8
100
AcDbEntity
  8
0
  6
Continuous
 62
     7
370
    15
100
AcDbLine
 10
2093.958539910607
 20
1132.832885431135
 30
0.0
 11
2093.958539910607
 21
1128.28488543113
 31
0.0
  0
LINE
  5
3F0
330
3E8
100
AcDbEntity
  8
0
  6
Continuous
 62
     7
370
    15
100
AcDbLine
 10
2093.257539910607
 20
1132.832885431133
 30
0.0
 11
2093.958539910607
 21
1132.832885431135
 31
0.0
  0
LINE
  5
3F1
330
3E8
100
AcDbEntity
  8
0
  6
Continuous
 62
     7
370
    15
100
AcDbLine
 10
2093.257539910607
 20
1132.832885431133
 30
0.0
 11
2093.257539910607
 21
1133.982885431134
 31
0.0
  0
LINE
  5
3F2
330
3E8
100
AcDbEntity
  8
0
  6
Continuous
 62
     7
370
    15
100
AcDbLine
 10
2097.157539910607
 20
1133.982885431134
 30
0.0
 11
2093.257539910607
 21
1133.982885431134
 31
0.0
  0
LINE
  5
3F3
330
3E8
100
AcDbEntity
  8
0
  6
Continuous
 62
     7
370
    15
100
AcDbLine
 10
2093.958539910607
 20
1121.584885431138
 30
0.0
 11
2096.456539910608
 21
1121.584885431138
 31
0.0
  0
LINE
  5
3F4
330
3E8
100
AcDbEntity
  8
0
  6
Continuous
 62
     7
370
    15
100
AcDbLine
 10
2093.958539910607
 20
1121.784885431137
 30
0.0
 11
2096.456539910608
 21
1121.784885431137
 31
0.0
  0
LINE
  5
3F5
330
3E8
100
AcDbEntity
  8
0
  6
Continuous
 62
     7
370
    15
100
AcDbLine
 10
2096.456539910608
 20
1121.584885431138
 30
0.0
 11
2096.456539910608
 21
1121.784885431137
 31
0.0
  0
LINE
  5
3F6
330
3E8
100
AcDbEntity
  8
0
  6
Continuous
 62
     7
370
    15
100
AcDbLine
 10
2093.958539910607
 20
1121.784885431137
 30
0.0
 11
2093.958539910607
 21
1121.584885431138
 31
0.0
  0
LINE
  5
3F7
330
3E8
100
AcDbEntity
  8
0
  6
Continuous
 62
     7
370
    15
100
AcDbLine
 10
2096.456539910608
 20
1121.784885431137
 30
0.0
 11
2096.456539910608
 21
1128.284885431133
 31
0.0
  0
LINE
  5
3F8
330
3E8
100
AcDbEntity
  8
0
  6
Continuous
 62
     7
370
    15
100
AcDbLine
 10
2093.958539910607
 20
1128.284885431131
 30
0.0
 11
2093.958539910607
 21
1121.784885431137
 31
0.0
  0
LINE
  5
3F9
330
3E8
100
AcDbEntity
  8
0
  6
Continuous
 62
     7
370
    15
100
AcDbLine
 10
2096.407539910607
 20
1120.082885431139
 30
0.0
 11
2096.107539910607
 21
1119.782885431138
 31
0.0
  0
LINE
  5
3FA
330
3E8
100
AcDbEntity
  8
0
  6
Continuous
 62
     7
370
    15
100
AcDbLine
 10
2096.107539910607
 20
1119.782885431138
 30
0.0
 11
2094.307539910607
 21
1119.782885431138
 31
0.0
  0
LINE
  5
3FB
330
3E8
100
AcDbEntity
  8
0
  6
Continuous
 62
     7
370
    15
100
AcDbLine
 10
2094.307539910607
 20
1119.782885431138
 30
0.0
 11
2094.007539910607
 21
1120.082885431139
 31
0.0
  0
LINE
  5
3FC
330
3E8
100
AcDbEntity
  8
0
  6
Continuous
 62
     7
370
    15
100
AcDbLine
 10
2094.007539910607
 20
1120.082885431139
 30
0.0
 11
2096.407539910607
 21
1120.082885431139
 31
0.0
  0
LINE
  5
3FD
330
3E8
100
AcDbEntity
  8
0
  6
Continuous
 62
     7
370
    15
100
AcDbLine
 10
2096.407539910607
 20
1120.082885431139
 30
0.0
 11
2096.456539910608
 21
1120.082885431139
 31
0.0
  0
LINE
  5
3FE
330
3E8
100
AcDbEntity
  8
0
  6
Continuous
 62
     7
370
    15
100
AcDbLine
 10
2093.958539910607
 20
1120.082885431139
 30
0.0
 11
2094.007539910607
 21
1120.082885431139
 31
0.0
  0
LINE
  5
3FF
330
3E8
100
AcDbEntity
  8
0
  6
Continuous
 62
     7
370
    15
100
AcDbLine
 10
2096.456539910608
 20
1120.082885431139
 30
0.0
 11
2096.456539910608
 21
1121.584885431138
 31
0.0
  0
LINE
  5
400
330
3E8
100
AcDbEntity
  8
0
  6
Continuous
 62
     7
370
    15
100
AcDbLine
 10
2093.958539910607
 20
1121.584885431138
 30
0.0
 11
2093.958539910607
 21
1120.082885431139
 31
0.0
  0
LINE
  5
401
330
3E8
100
AcDbEntity
  8
0
  6
Continuous
 62
     7
370
    15
100
AcDbLine
 10
2094.455539910607
 20
1118.836157404755
 30
0.0
 11
2094.257706120375
 21
1118.836157404755
 31
0.0
  0
ARC
  5
402
330
3E8
100
AcDbEntity
  8
0
  6
Continuous
 62
     7
370
    15
100
AcDbCircle
 10
2094.455539910607
 20
1119.086157404755
 30
0.0
 40
0.2500000000000853
100
AcDbArc
 50
270.0
 51
0.0
  0
LINE
  5
403
330
3E8
100
AcDbEntity
  8
0
  6
Continuous
 62
     7
370
    15
100
AcDbLine
 10
2094.705539910607
 20
1119.782885431138
 30
0.0
 11
2094.705539910608
 21
1119.086157404755
 31
0.0
  0
ARC
  5
404
330
3E8
100
AcDbEntity
  8
0
  6
Continuous
 62
     7
370
    15
100
AcDbCircle
 10
2095.959539910607
 20
1119.086157404755
 30
0.0
 40
0.2500000000000853
100
AcDbArc
 50
179.9999999997915
 51
270.0
  0
LINE
  5
405
330
3E8
100
AcDbEntity
  8
0
  6
Continuous
 62
     7
370
    15
100
AcDbLine
 10
2096.157373700851
 20
1118.836157404755
 30
0.0
 11
2095.959539910607
 21
1118.836157404755
 31
0.0
  0
ARC
  5
406
330
3E8
100
AcDbEntity
  8
0
  6
Continuous
 62
     7
370
    15
100
AcDbCircle
 10
2096.157373700851
 20
1118.586157404755
 30
0.0
 40
0.2500000000001989
100
AcDbArc
 50
0.0000000002214684
 51
90.0
  0
LINE
  5
407
330
3E8
100
AcDbEntity
  8
0
  6
Continuous
 62
     7
370
    15
100
AcDbLine
 10
2096.407373700851
 20
1118.586157404755
 30
0.0
 11
2096.407373700851
 21
1111.881332040547
 31
0.0
  0
LINE
  5
408
330
3E8
100
AcDbEntity
  8
0
  6
Continuous
 62
     7
370
    15
100
AcDbLine
 10
2094.007706120375
 20
1111.881332040544
 30
0.0
 11
2096.407373700851
 21
1111.881332040547
 31
0.0
  0
LINE
  5
409
330
3E8
100
AcDbEntity
  8
0
  6
Continuous
 62
     7
370
    15
100
AcDbLine
 10
2094.007706120375
 20
1111.881332040544
 30
0.0
 11
2094.007706120375
 21
1118.586157404755
 31
0.0
  0
ARC
  5
40A
330
3E8
100
AcDbEntity
  8
0
  6
Continuous
 62
     7
370
    15
100
AcDbCircle
 10
2094.257706120375
 20
1118.586157404755
 30
0.0
 40
0.2500000000000853
100
AcDbArc
 50
90.0
 51
179.9999999998306
  0
LINE
  5
40B
330
3E8
100
AcDbEntity
  8
0
  6
Continuous
 62
     7
370
    15
100
AcDbLine
 10
2095.709539910607
 20
1119.086157404755
 30
0.0
 11
2095.709539910607
 21
1119.782885431138
 31
0.0
  0
LINE
  5
40C
330
3E8
100
AcDbEntity
  8
0
  6
Continuous
 62
     7
370
    15
100
AcDbLine
 10
2096.407373700851
 20
1110.274108568975
 30
0.0
 11
2094.007706120375
 21
1110.274108568975
 31
0.0
  0
LINE
  5
40D
330
3E8
100
AcDbEntity
  8
0
  6
Continuous
 62
     7
370
    15
100
AcDbLine
 10
2094.007706120375
 20
1110.274108568975
 30
0.0
 11
2094.007706120375
 21
1111.881332040544
 31
0.0
  0
LINE
  5
40E
330
3E8
100
AcDbEntity
  8
0
  6
Continuous
 62
     7
370
    15
100
AcDbLine
 10
2096.407373700851
 20
1111.881332040547
 30
0.0
 11
2096.407373700851
 21
1110.274108568975
 31
0.0
  0
LINE
  5
40F
330
3E8
100
AcDbEntity
  8
0
  6
Continuous
 62
     7
370
    15
100
AcDbLine
 10
2096.456539910608
 20
1126.182885431134
 30
0.0
 11
2096.706539910607
 21
1126.182885431134
 31
0.0
  0
LINE
  5
410
330
3E8
100
AcDbEntity
  8
0
  6
Continuous
 62
     7
370
    15
100
AcDbLine
 10
2096.706539910607
 20
1126.182885431134
 30
0.0
 11
2096.456539910608
 21
1124.882885431132
 31
0.0
  0
LINE
  5
411
330
3E8
100
AcDbEntity
  8
0
  6
Continuous
 62
     7
370
    15
100
AcDbLine
 10
2093.708539910608
 20
1126.182885431134
 30
0.0
 11
2093.958539910607
 21
1126.182885431134
 31
0.0
  0
LINE
  5
412
330
3E8
100
AcDbEntity
  8
0
  6
Continuous
 62
     7
370
    15
100
AcDbLine
 10
2093.958539910607
 20
1124.882885431139
 30
0.0
 11
2093.708539910608
 21
1126.182885431134
 31
0.0
  0
LINE
  5
413
330
3E8
100
AcDbEntity
  8
0
  6
Continuous
 62
     7
370
    15
100
AcDbLine
 10
2094.007706120375
 20
1109.984885431159
 30
0.0
 11
2096.407373700851
 21
1109.984885431159
 31
0.0
  0
LINE
  5
414
330
3E8
100
AcDbEntity
  8
0
  6
Continuous
 62
     7
370
    15
100
AcDbLine
 10
2094.007706120375
 20
1110.274108568975
 30
0.0
 11
2094.007706120375
 21
1109.984885431159
 31
0.0
  0
LINE
  5
415
330
3E8
100
AcDbEntity
  8
0
  6
Continuous
 62
     7
370
    15
100
AcDbLine
 10
2096.407373700851
 20
1109.984885431159
 30
0.0
 11
2096.407373700851
 21
1110.274108568975
 31
0.0
  0
ENDBLK
  5
3EA
330
3E8
100
AcDbEntity
  8
0
100
AcDbBlockEnd
  0
BLOCK
  5
418
330
417
100
AcDbEntity
  8
0
100
AcDbBlockBegin
  2
3
 70
     0
 10
0.0
 20
0.0
 30
0.0
  3
3
  1

  0
LINE
  5
51E
330
417
100
AcDbEntity
  8
0
  6
Continuous
 62
     7
370
    15
100
AcDbLine
 10
2117.580456854131
 20
1081.530523304907
 30
0.0
 11
2134.280456854131
 21
1081.530523304907
 31
0.0
1001
AcDbBlockRepETag
1070
     1
1071
        0
1005
51E
  0
LINE
  5
51F
330
417
100
AcDbEntity
  8
0
  6
Continuous
 62
     7
370
    15
100
AcDbLine
 10
2117.580456854131
 20
1081.530523304907
 30
0.0
 11
2117.580456854131
 21
1085.430523304907
 31
0.0
1001
AcDbBlockRepETag
1070
     1
1071
        1
1005
51F
  0
LINE
  5
520
330
417
100
AcDbEntity
  8
0
  6
Continuous
 62
     7
370
    15
100
AcDbLine
 10
2134.280456854131
 20
1085.430523304907
 30
0.0
 11
2117.580456854131
 21
1085.430523304907
 31
0.0
1001
AcDbBlockRepETag
1070
     1
1071
        2
1005
520
  0
LINE
  5
524
330
417
100
AcDbEntity
  8
0
  6
Continuous
 62
     7
370
    15
100
AcDbLine
 10
2134.280456854131
 20
1081.530523304907
 30
0.0
 11
2134.280456854131
 21
1085.430523304907
 31
0.0
1001
AcDbBlockRepETag
1070
     1
1071
        3
1005
524
  0
ENDBLK
  5
419
330
417
100
AcDbEntity
  8
0
100
AcDbBlockEnd
  0
BLOCK
  5
420
330
41F
100
AcDbEntity
  8
0
100
AcDbBlockBegin
  2
4
 70
     0
 10
0.0
 20
0.0
 30
0.0
  3
4
  1

  0
LINE
  5
52A
330
41F
100
AcDbEntity
  8
0
  6
Continuous
 62
     7
370
    15
100
AcDbLine
 10
2150.547216762332
 20
1116.563849766639
 30
0.0
 11
2150.105560611025
 21
1116.308887097523
 31
0.0
1001
AcDbBlockRepETag
1070
     1
1071
        0
1005
52A
  0
LINE
  5
52B
330
41F
100
AcDbEntity
  8
0
  6
Continuous
 62
     7
370
    15
100
AcDbLine
 10
2154.719146771332
 20
1118.972253696516
 30
0.0
 11
2154.277490620026
 21
1118.7172910274
 31
0.0
1001
AcDbBlockRepETag
1070
     1
1071
        1
1005
52B
  0
LINE
  5
52C
330
41F
100
AcDbEntity
  8
0
  6
Continuous
 62
     7
370
    15
100
AcDbLine
 10
2150.323413984569
 20
1109.410485607094
 30
0.0
 11
2152.020235203317
 21
1108.430931567905
 31
0.0
1001
AcDbBlockRepETag
1070
     1
1071
        2
1005
52C
  0
LINE
  5
52D
330
41F
100
AcDbEntity
  8
0
  6
Continuous
 62
     7
370
    15
100
AcDbLine
 10
2154.495343993569
 20
1111.818889536971
 30
0.0
 11
2156.192165212317
 21
1110.839335497782
 31
0.0
1001
AcDbBlockRepETag
1070
     1
1071
        3
1005
52D
  0
LINE
  5
52E
330
41F
100
AcDbEntity
  8
0
  6
Continuous
 62
     7
370
    15
100
AcDbLine
 10
2156.346906581624
 20
1133.011872727808
 30
0.0
 11
2159.104623028251
 21
1131.419876909754
 31
0.0
1001
AcDbBlockRepETag
1070
     1
1071
        4
1005
52E
  0
LINE
  5
52F
330
41F
100
AcDbEntity
  8
0
  6
Continuous
 62
     7
370
    15
100
AcDbLine
 10
2147.330588014719
 20
1124.582906987317
 30
0.0
 11
2159.104623028251
 21
1131.419876909754
 31
0.0
1001
AcDbBlockRepETag
1070
     1
1071
        5
1005
52F
  0
LINE
  5
531
330
41F
100
AcDbEntity
  8
0
  6
Continuous
 62
     7
370
    15
100
AcDbLine
 10
2156.346906581624
 20
1133.011872727808
 30
0.0
 11
2144.572871568091
 21
1126.174902805371
 31
0.0
1001
AcDbBlockRepETag
1070
     1
1071
        6
1005
531
  0
LINE
  5
539
330
41F
100
AcDbEntity
  8
0
  6
Continuous
 62
     7
370
    15
100
AcDbLine
 10
2159.104623028251
 20
1130.480854976085
 30
0.0
 11
2159.104623028251
 21
1131.419876909754
 31
0.0
1001
AcDbBlockRepETag
1070
     1
1071
        7
1005
539
  0
LINE
  5
53A
330
41F
100
AcDbEntity
  8
0
  6
Continuous
 62
     7
370
    15
100
AcDbLine
 10
2147.330588014719
 20
1123.643885053648
 30
0.0
 11
2159.104623028251
 21
1130.480854976085
 31
0.0
1001
AcDbBlockRepETag
1070
     1
1071
        8
1005
53A
  0
LINE
  5
53B
330
41F
100
AcDbEntity
  8
0
  6
Continuous
 62
     7
370
    15
100
AcDbLine
 10
2149.875465320208
 20
1122.011650112262
 30
0.0
 11
2151.396452006541
 21
1122.889697036527
 31
0.0
1001
AcDbBlockRepETag
1070
     1
1071
        9
1005
53B
  0
LINE
  5
53C
330
41F
100
AcDbEntity
  8
0
  6
Continuous
 62
     7
370
    15
100
AcDbLine
 10
2158.60894117464
 20
1130.194703932892
 30
0.0
 11
2158.608941174639
 21
1127.05337840682
 31
0.0
1001
AcDbBlockRepETag
1070
     1
1071
       10
1005
53C
  0
LINE
  5
53D
330
41F
100
AcDbEntity
  8
0
  6
Continuous
 62
     7
370
    15
100
AcDbLine
 10
2158.184677105927
 20
1126.808455973274
 30
0.0
 11
2158.608941174639
 21
1127.05337840682
 31
0.0
1001
AcDbBlockRepETag
1070
     1
1071
       11
1005
53D
  0
LINE
  5
53E
330
41F
100
AcDbEntity
  8
0
  6
Continuous
 62
     7
370
    15
100
AcDbLine
 10
2158.184677105927
 20
1126.808455973274
 30
0.0
 11
2158.184677105927
 21
1121.500940696021
 31
0.0
1001
AcDbBlockRepETag
1070
     1
1071
       12
1005
53E
  0
LINE
  5
53F
330
41F
100
AcDbEntity
  8
0
  6
Continuous
 62
     7
370
    15
100
AcDbLine
 10
2158.184677105927
 20
1121.500940696021
 30
0.0
 11
2158.043255749692
 21
1121.255991722464
 31
0.0
1001
AcDbBlockRepETag
1070
     1
1071
       13
1005
53F
  0
LINE
  5
540
330
41F
100
AcDbEntity
  8
0
  6
Continuous
 62
     7
370
    15
100
AcDbLine
 10
2158.043255749692
 20
1121.255991722464
 30
0.0
 11
2158.043255749692
 21
1120.029547423012
 31
0.0
1001
AcDbBlockRepETag
1070
     1
1071
       14
1005
540
  0
LINE
  5
541
330
41F
100
AcDbEntity
  8
0
  6
Continuous
 62
     7
370
    15
100
AcDbLine
 10
2158.043255749692
 20
1120.029547423012
 30
0.0
 11
2155.709803371776
 21
1118.682474038504
 31
0.0
1001
AcDbBlockRepETag
1070
     1
1071
       15
1005
541
  0
LINE
  5
542
330
41F
100
AcDbEntity
  8
0
  6
Continuous
 62
     7
370
    15
100
AcDbLine
 10
2155.709803371776
 20
1119.908918337956
 30
0.0
 11
2155.709803371776
 21
1118.682474038504
 31
0.0
1001
AcDbBlockRepETag
1070
     1
1071
       16
1005
542
  0
LINE
  5
543
330
41F
100
AcDbEntity
  8
0
  6
Continuous
 62
     7
370
    15
100
AcDbLine
 10
2155.568382015538
 20
1119.990585689151
 30
0.0
 11
2155.709803371776
 21
1119.908918337956
 31
0.0
1001
AcDbBlockRepETag
1070
     1
1071
       17
1005
543
  0
LINE
  5
544
330
41F
100
AcDbEntity
  8
0
  6
Continuous
 62
     7
370
    15
100
AcDbLine
 10
2155.568382015538
 20
1119.990585689151
 30
0.0
 11
2155.568382015538
 21
1125.29810096641
 31
0.0
1001
AcDbBlockRepETag
1070
     1
1071
       18
1005
544
  0
LINE
  5
545
330
41F
100
AcDbEntity
  8
0
  6
Continuous
 62
     7
370
    15
100
AcDbLine
 10
2155.568382015538
 20
1125.29810096641
 30
0.0
 11
2154.012747096929
 21
1124.400052043406
 31
0.0
1001
AcDbBlockRepETag
1070
     1
1071
       19
1005
545
  0
LINE
  5
546
330
41F
100
AcDbEntity
  8
0
  6
Continuous
 62
     7
370
    15
100
AcDbLine
 10
2154.012747096929
 20
1124.400052043406
 30
0.0
 11
2154.012747096929
 21
1119.092536766147
 31
0.0
1001
AcDbBlockRepETag
1070
     1
1071
       20
1005
546
  0
LINE
  5
547
330
41F
100
AcDbEntity
  8
0
  6
Continuous
 62
     7
370
    15
100
AcDbLine
 10
2153.871325740693
 20
1118.847587792587
 30
0.0
 11
2154.012747096929
 21
1119.092536766147
 31
0.0
1001
AcDbBlockRepETag
1070
     1
1071
       21
1005
547
  0
LINE
  5
548
330
41F
100
AcDbEntity
  8
0
  6
Continuous
 62
     7
370
    15
100
AcDbLine
 10
2153.871325740693
 20
1117.621143493136
 30
0.0
 11
2153.871325740693
 21
1118.847587792587
 31
0.0
1001
AcDbBlockRepETag
1070
     1
1071
       22
1005
548
  0
LINE
  5
549
330
41F
100
AcDbEntity
  8
0
  6
Continuous
 62
     7
370
    15
100
AcDbLine
 10
2153.871325740693
 20
1117.621143493136
 30
0.0
 11
2151.537873362776
 21
1116.274070108628
 31
0.0
1001
AcDbBlockRepETag
1070
     1
1071
       23
1005
549
  0
LINE
  5
54A
330
41F
100
AcDbEntity
  8
0
  6
Continuous
 62
     7
370
    15
100
AcDbLine
 10
2151.537873362776
 20
1116.274070108628
 30
0.0
 11
2151.537873362776
 21
1117.50051440808
 31
0.0
1001
AcDbBlockRepETag
1070
     1
1071
       24
1005
54A
  0
LINE
  5
54B
330
41F
100
AcDbEntity
  8
0
  6
Continuous
 62
     7
370
    15
100
AcDbLine
 10
2151.537873362776
 20
1117.50051440808
 30
0.0
 11
2151.39645200654
 21
1117.582181759275
 31
0.0
1001
AcDbBlockRepETag
1070
     1
1071
       25
1005
54B
  0
LINE
  5
54C
330
41F
100
AcDbEntity
  8
0
  6
Continuous
 62
     7
370
    15
100
AcDbLine
 10
2151.39645200654
 20
1117.582181759275
 30
0.0
 11
2151.396452006541
 21
1122.889697036527
 31
0.0
1001
AcDbBlockRepETag
1070
     1
1071
       26
1005
54C
  0
LINE
  5
54D
330
41F
100
AcDbEntity
  8
0
  6
Continuous
 62
     7
370
    15
100
AcDbLine
 10
2151.820716075324
 20
1121.418250683534
 30
0.0
 11
2151.820716075324
 21
1120.356747628082
 31
0.0
1001
AcDbBlockRepETag
1070
     1
1071
       27
1005
54D
  0
LINE
  5
54E
330
41F
100
AcDbEntity
  8
0
  6
Continuous
 62
     7
370
    15
100
AcDbLine
 10
2153.588483028291
 20
1121.377257767861
 30
0.0
 11
2151.820716075324
 21
1120.356747628082
 31
0.0
1001
AcDbBlockRepETag
1070
     1
1071
       28
1005
54E
  0
LINE
  5
54F
330
41F
100
AcDbEntity
  8
0
  6
Continuous
 62
     7
370
    15
100
AcDbLine
 10
2153.588483028291
 20
1122.438760823312
 30
0.0
 11
2151.820716075324
 21
1121.418250683534
 31
0.0
1001
AcDbBlockRepETag
1070
     1
1071
       29
1005
54F
  0
LINE
  5
550
330
41F
100
AcDbEntity
  8
0
  6
Continuous
 62
     7
370
    15
100
AcDbLine
 10
2155.992646084325
 20
1123.826654613411
 30
0.0
 11
2155.992646084325
 21
1122.76515155796
 31
0.0
1001
AcDbBlockRepETag
1070
     1
1071
       30
1005
550
  0
LINE
  5
551
330
41F
100
AcDbEntity
  8
0
  6
Continuous
 62
     7
370
    15
100
AcDbLine
 10
2157.760413037292
 20
1123.785661697741
 30
0.0
 11
2155.992646084325
 21
1122.76515155796
 31
0.0
1001
AcDbBlockRepETag
1070
     1
1071
       31
1005
551
  0
LINE
  5
552
330
41F
100
AcDbEntity
  8
0
  6
Continuous
 62
     7
370
    15
100
AcDbLine
 10
2157.760413037292
 20
1124.84716475319
 30
0.0
 11
2155.992646084325
 21
1123.826654613411
 31
0.0
1001
AcDbBlockRepETag
1070
     1
1071
       32
1005
552
  0
LINE
  5
553
330
41F
100
AcDbEntity
  8
0
  6
Continuous
 62
     7
370
    15
100
AcDbLine
 10
2149.875465320208
 20
1118.46022868354
 30
0.0
 11
2151.39645200654
 21
1117.582181759275
 31
0.0
1001
AcDbBlockRepETag
1070
     1
1071
       33
1005
553
  0
LINE
  5
555
330
41F
100
AcDbEntity
  8
0
  6
Continuous
 62
     7
370
    15
100
AcDbLine
 10
2153.765259723587
 20
1122.336709809334
 30
0.0
 11
2151.997492770621
 21
1121.316199669556
 31
0.0
1001
AcDbBlockRepETag
1070
     1
1071
       34
1005
555
  0
LINE
  5
556
330
41F
100
AcDbEntity
  8
0
  6
Continuous
 62
     7
370
    15
100
AcDbLine
 10
2153.588483028291
 20
1121.377257767861
 30
0.0
 11
2153.765259723587
 21
1122.336709809334
 31
0.0
1001
AcDbBlockRepETag
1070
     1
1071
       35
1005
556
  0
LINE
  5
557
330
41F
100
AcDbEntity
  8
0
  6
Continuous
 62
     7
370
    15
100
AcDbLine
 10
2151.820716075324
 20
1120.356747628082
 30
0.0
 11
2151.997492770621
 21
1121.316199669556
 31
0.0
1001
AcDbBlockRepETag
1070
     1
1071
       36
1005
557
  0
LINE
  5
558
330
41F
100
AcDbEntity
  8
0
  6
Continuous
 62
     7
370
    15
100
AcDbLine
 10
2153.765259723587
 20
1122.336709809334
 30
0.0
 11
2153.588483028291
 21
1122.438760823312
 31
0.0
1001
AcDbBlockRepETag
1070
     1
1071
       37
1005
558
  0
LINE
  5
559
330
41F
100
AcDbEntity
  8
0
  6
Continuous
 62
     7
370
    15
100
AcDbLine
 10
2151.997492770621
 20
1121.316199669556
 30
0.0
 11
2151.820716075324
 21
1121.418250683534
 31
0.0
1001
AcDbBlockRepETag
1070
     1
1071
       38
1005
559
  0
LINE
  5
55A
330
41F
100
AcDbEntity
  8
0
  6
Continuous
 62
     7
370
    15
100
AcDbLine
 10
2154.01274709693
 20
1120.888634612155
 30
0.0
 11
2155.568382015538
 21
1119.990585689151
 31
0.0
1001
AcDbBlockRepETag
1070
     1
1071
       39
1005
55A
  0
LINE
  5
55B
330
41F
100
AcDbEntity
  8
0
  6
Continuous
 62
     7
370
    15
100
AcDbLine
 10
2149.875465320208
 20
1118.460202143526
 30
0.0
 11
2151.537873362776
 21
1117.50051440808
 31
0.0
1001
AcDbBlockRepETag
1070
     1
1071
       40
1005
55B
  0
LINE
  5
55D
330
41F
100
AcDbEntity
  8
0
  6
Continuous
 62
     7
370
    15
100
AcDbLine
 10
2151.503225130498
 20
1116.294072107367
 30
0.0
 11
2151.537873362776
 21
1116.274070108628
 31
0.0
1001
AcDbBlockRepETag
1070
     1
1071
       41
1005
55D
  0
LINE
  5
55E
330
41F
100
AcDbEntity
  8
0
  6
Continuous
 62
     7
370
    15
100
AcDbLine
 10
2149.875465320208
 20
1117.233757844074
 30
0.0
 11
2151.503225130498
 21
1116.294072107367
 31
0.0
1001
AcDbBlockRepETag
1070
     1
1071
       42
1005
55E
  0
LINE
  5
561
330
41F
100
AcDbEntity
  8
0
  6
Continuous
 62
     7
370
    15
100
AcDbLine
 10
2157.937189732587
 20
1124.745113739212
 30
0.0
 11
2157.760413037292
 21
1124.84716475319
 31
0.0
1001
AcDbBlockRepETag
1070
     1
1071
       43
1005
561
  0
LINE
  5
562
330
41F
100
AcDbEntity
  8
0
  6
Continuous
 62
     7
370
    15
100
AcDbLine
 10
2157.937189732587
 20
1124.745113739212
 30
0.0
 11
2156.169422779621
 21
1123.724603599434
 31
0.0
1001
AcDbBlockRepETag
1070
     1
1071
       44
1005
562
  0
LINE
  5
563
330
41F
100
AcDbEntity
  8
0
  6
Continuous
 62
     7
370
    15
100
AcDbLine
 10
2156.169422779621
 20
1123.724603599434
 30
0.0
 11
2155.992646084325
 21
1123.826654613411
 31
0.0
1001
AcDbBlockRepETag
1070
     1
1071
       45
1005
563
  0
LINE
  5
564
330
41F
100
AcDbEntity
  8
0
  6
Continuous
 62
     7
370
    15
100
AcDbLine
 10
2157.760413037292
 20
1123.785661697741
 30
0.0
 11
2157.937189732587
 21
1124.745113739212
 31
0.0
1001
AcDbBlockRepETag
1070
     1
1071
       46
1005
564
  0
LINE
  5
565
330
41F
100
AcDbEntity
  8
0
  6
Continuous
 62
     7
370
    15
100
AcDbLine
 10
2155.992646084325
 20
1122.76515155796
 30
0.0
 11
2156.169422779621
 21
1123.724603599434
 31
0.0
1001
AcDbBlockRepETag
1070
     1
1071
       47
1005
565
  0
LINE
  5
566
330
41F
100
AcDbEntity
  8
0
  6
Continuous
 62
     7
370
    15
100
AcDbLine
 10
2151.503225130498
 20
1116.294032297348
 30
0.0
 11
2151.503259610722
 21
1116.294052202358
 31
0.0
1001
AcDbBlockRepETag
1070
     1
1071
       48
1005
566
  0
LINE
  5
567
330
41F
100
AcDbEntity
  8
0
  6
Continuous
 62
     7
370
    15
100
AcDbLine
 10
2151.503225130498
 20
1116.294072107367
 30
0.0
 11
2151.503225130498
 21
1116.294032297348
 31
0.0
1001
AcDbBlockRepETag
1070
     1
1071
       49
1005
567
  0
LINE
  5
568
330
41F
100
AcDbEntity
  8
0
  6
Continuous
 62
     7
370
    15
100
AcDbLine
 10
2151.503225130498
 20
1116.294032297348
 30
0.0
 11
2150.230432924362
 21
1117.028799597989
 31
0.0
1001
AcDbBlockRepETag
1070
     1
1071
       50
1005
568
  0
LINE
  5
569
330
41F
100
AcDbEntity
  8
0
  6
Continuous
 62
     7
370
    15
100
AcDbLine
 10
2150.230432924362
 20
1117.028799597989
 30
0.0
 11
2149.875465320208
 21
1117.233751341771
 31
0.0
1001
AcDbBlockRepETag
1070
     1
1071
       51
1005
569
  0
LINE
  5
56A
330
41F
100
AcDbEntity
  8
0
  6
Continuous
 62
     7
370
    15
100
AcDbLine
 10
2150.053773757219
 20
1110.722980579798
 30
0.0
 11
2150.053773757275
 21
1116.194425895887
 31
0.0
1001
AcDbBlockRepETag
1070
     1
1071
       52
1005
56A
  0
ARC
  5
56B
330
41F
100
AcDbEntity
  8
0
  6
Continuous
 62
     7
370
    15
100
AcDbCircle
 10
2150.161542348988
 20
1116.21190769517
 30
0.0
 40
0.109177299223921
100
AcDbArc
 50
50.79671472193116
 51
189.214037032807
1001
AcDbBlockRepETag
1070
     1
1071
       53
1005
56B
  0
LINE
  5
56C
330
41F
100
AcDbEntity
  8
0
  6
Continuous
 62
     7
370
    15
100
AcDbLine
 10
2150.370440067035
 20
1116.21575352921
 30
0.0
 11
2150.230550452405
 21
1116.296510084784
 31
0.0
1001
AcDbBlockRepETag
1070
     1
1071
       54
1005
56C
  0
ARC
  5
56D
330
41F
100
AcDbEntity
  8
0
  6
Continuous
 62
     7
370
    15
100
AcDbCircle
 10
2150.439448170475
 20
1116.300355918979
 30
0.0
 40
0.1091772993571079
100
AcDbArc
 50
230.7967147642275
 51
9.214036990494944
1001
AcDbBlockRepETag
1070
     1
1071
       55
1005
56D
  0
LINE
  5
56E
330
41F
100
AcDbEntity
  8
0
  6
Continuous
 62
     7
370
    15
100
AcDbLine
 10
2150.547216762332
 20
1116.845924180942
 30
0.0
 11
2150.547216762332
 21
1116.317837718204
 31
0.0
1001
AcDbBlockRepETag
1070
     1
1071
       56
1005
56E
  0
LINE
  5
56F
330
41F
100
AcDbEntity
  8
0
  6
Continuous
 62
     7
370
    15
100
AcDbLine
 10
2151.257151970671
 20
1115.908000846085
 30
0.0
 11
2151.257151970645
 21
1116.436087308805
 31
0.0
1001
AcDbBlockRepETag
1070
     1
1071
       57
1005
56F
  0
ARC
  5
570
330
41F
100
AcDbEntity
  8
0
  6
Continuous
 62
     7
370
    15
100
AcDbCircle
 10
2151.640955996115
 20
1115.925466059209
 30
0.0
 40
0.3842012019975375
100
AcDbArc
 50
182.6054784937482
 51
237.3945216519036
1001
AcDbBlockRepETag
1070
     1
1071
       58
1005
570
  0
LINE
  5
571
330
41F
100
AcDbEntity
  8
0
  6
Continuous
 62
     7
370
    15
100
AcDbLine
 10
2151.573818280589
 20
1115.521058073567
 30
0.0
 11
2151.433928665968
 21
1115.601814629136
 31
0.0
1001
AcDbBlockRepETag
1070
     1
1071
       59
1005
571
  0
ARC
  5
572
330
41F
100
AcDbEntity
  8
0
  6
Continuous
 62
     7
370
    15
100
AcDbCircle
 10
2151.366790950871
 20
1115.197406643641
 30
0.0
 40
0.3842012016418977
100
AcDbArc
 50
2.605478480786131
 51
57.39452169396162
1001
AcDbBlockRepETag
1070
     1
1071
       60
1005
572
  0
LINE
  5
573
330
41F
100
AcDbEntity
  8
0
  6
Continuous
 62
     7
370
    15
100
AcDbLine
 10
2151.750594975963
 20
1115.214871856663
 30
0.0
 11
2151.750594975975
 21
1109.743426540563
 31
0.0
1001
AcDbBlockRepETag
1070
     1
1071
       61
1005
573
  0
LINE
  5
574
330
41F
100
AcDbEntity
  8
0
  6
Continuous
 62
     7
370
    15
100
AcDbLine
 10
2150.053773757219
 20
1110.722980579798
 30
0.0
 11
2151.750594975975
 21
1109.743426540563
 31
0.0
1001
AcDbBlockRepETag
1070
     1
1071
       62
1005
574
  0
LINE
  5
575
330
41F
100
AcDbEntity
  8
0
  6
Continuous
 62
     7
370
    15
100
AcDbLine
 10
2153.095629601727
 20
1117.173343643799
 30
0.0
 11
2153.095629601727
 21
1116.969331391438
 31
0.0
1001
AcDbBlockRepETag
1070
     1
1071
       63
1005
575
  0
LINE
  5
576
330
41F
100
AcDbEntity
  8
0
  6
Continuous
 62
     7
370
    15
100
AcDbLine
 10
2153.095629601727
 20
1116.969331391438
 30
0.0
 11
2151.257151970671
 21
1115.908000846085
 31
0.0
1001
AcDbBlockRepETag
1070
     1
1071
       64
1005
576
  0
LINE
  5
577
330
41F
100
AcDbEntity
  8
0
  6
Continuous
 62
     7
370
    15
100
AcDbLine
 10
2153.412295911644
 20
1116.58238861892
 30
0.0
 11
2151.573818280589
 21
1115.521058073567
 31
0.0
1001
AcDbBlockRepETag
1070
     1
1071
       65
1005
577
  0
ARC
  5
578
330
41F
100
AcDbEntity
  8
0
  6
Continuous
 62
     7
370
    15
100
AcDbCircle
 10
2153.205268581599
 20
1116.258737188903
 30
0.0
 40
0.3842012018957559
100
AcDbArc
 50
2.605478486249692
 51
57.39452166018668
1001
AcDbBlockRepETag
1070
     1
1071
       66
1005
578
  0
LINE
  5
579
330
41F
100
AcDbEntity
  8
0
  6
Continuous
 62
     7
370
    15
100
AcDbLine
 10
2151.750594975963
 20
1115.214871856663
 30
0.0
 11
2153.589072606943
 21
1116.276202401972
 31
0.0
1001
AcDbBlockRepETag
1070
     1
1071
       67
1005
579
  0
ARC
  5
57A
330
41F
100
AcDbEntity
  8
0
  6
Continuous
 62
     7
370
    15
100
AcDbCircle
 10
2153.479433627069
 20
1116.986796604504
 30
0.0
 40
0.3842012018937424
100
AcDbArc
 50
182.6054784857149
 51
237.3945216599409
1001
AcDbBlockRepETag
1070
     1
1071
       68
1005
57A
  0
LINE
  5
57B
330
41F
100
AcDbEntity
  8
0
  6
Continuous
 62
     7
370
    15
100
AcDbLine
 10
2153.272406297023
 20
1116.663145174489
 30
0.0
 11
2151.433928665968
 21
1115.601814629136
 31
0.0
1001
AcDbBlockRepETag
1070
     1
1071
       69
1005
57B
  0
LINE
  5
57C
330
41F
100
AcDbEntity
  8
0
  6
Continuous
 62
     7
370
    15
100
AcDbLine
 10
2153.38868076401
 20
1109.373391548642
 30
0.0
 11
2153.589072606942
 21
1110.801438855526
 31
0.0
1001
AcDbBlockRepETag
1070
     1
1071
       70
1005
57C
  0
ARC
  5
57D
330
41F
100
AcDbEntity
  8
0
  6
Continuous
 62
     7
370
    15
100
AcDbCircle
 10
2152.847565273038
 20
1109.456101021648
 30
0.0
 40
0.5474000653036894
100
AcDbArc
 50
302.9067666138693
 51
351.3096048990238
1001
AcDbBlockRepETag
1070
     1
1071
       71
1005
57D
  0
LINE
  5
57E
330
41F
100
AcDbEntity
  8
0
  6
Continuous
 62
     7
370
    15
100
AcDbLine
 10
2152.195220981528
 20
1108.448259385578
 30
0.0
 11
2153.144953279898
 21
1108.996528171198
 31
0.0
1001
AcDbBlockRepETag
1070
     1
1071
       72
1005
57E
  0
LWPOLYLINE
  5
57F
330
41F
100
AcDbEntity
  8
0
  6
Continuous
 62
     7
370
    15
100
AcDbPolyline
 90
        9
 70
   128
 43
0.0
 10
2152.195220981528
 20
1108.448259385578
 10
2152.152245250139
 20
1108.427791805321
 10
2152.110575314601
 20
1108.416629684915
 10
2152.07147729482
 20
1108.415112179742
 10
2152.036139164342
 20
1108.423285398427
 10
2152.005634654381
 20
1108.440901001858
 10
2151.980890629034
 20
1108.467423748837
 10
2151.962658922992
 20
1108.502047759119
 10
2151.951493497416
 20
1108.543720999672
1001
AcDbBlockRepETag
1070
     1
1071
       73
1005
57F
  0
LINE
  5
580
330
41F
100
AcDbEntity
  8
0
  6
Continuous
 62
     7
370
    15
100
AcDbLine
 10
2151.750594975975
 20
1109.743426540563
 30
0.0
 11
2151.951493497416
 21
1108.543720999672
 31
0.0
1001
AcDbBlockRepETag
1070
     1
1071
       74
1005
580
  0
LINE
  5
581
330
41F
100
AcDbEntity
  8
0
  6
Continuous
 62
     7
370
    15
100
AcDbLine
 10
2153.589072606942
 20
1110.801438855526
 30
0.0
 11
2153.589072606943
 21
1116.276202401972
 31
0.0
1001
AcDbBlockRepETag
1070
     1
1071
       75
1005
581
  0
LINE
  5
582
330
41F
100
AcDbEntity
  8
0
  6
Continuous
 62
     7
370
    15
100
AcDbLine
 10
2153.272406297023
 20
1116.663145174489
 30
0.0
 11
2153.412295911644
 21
1116.58238861892
 31
0.0
1001
AcDbBlockRepETag
1070
     1
1071
       76
1005
582
  0
LINE
  5
583
330
41F
100
AcDbEntity
  8
0
  6
Continuous
 62
     7
370
    15
100
AcDbLine
 10
2155.709803371776
 20
1119.908918337956
 30
0.0
 11
2154.012747096929
 21
1120.888608072142
 31
0.0
1001
AcDbBlockRepETag
1070
     1
1071
       77
1005
583
  0
LINE
  5
584
330
41F
100
AcDbEntity
  8
0
  6
Continuous
 62
     7
370
    15
100
AcDbLine
 10
2155.709803371776
 20
1118.682474038504
 30
0.0
 11
2155.675155139498
 21
1118.702476037244
 31
0.0
1001
AcDbBlockRepETag
1070
     1
1071
       78
1005
584
  0
LINE
  5
585
330
41F
100
AcDbEntity
  8
0
  6
Continuous
 62
     7
370
    15
100
AcDbLine
 10
2155.675155139498
 20
1118.702476037244
 30
0.0
 11
2154.012747096929
 21
1119.66216377269
 31
0.0
1001
AcDbBlockRepETag
1070
     1
1071
       79
1005
585
  0
LINE
  5
586
330
41F
100
AcDbEntity
  8
0
  6
Continuous
 62
     7
370
    15
100
AcDbLine
 10
2155.675155139498
 20
1118.702436227225
 30
0.0
 11
2155.675155139498
 21
1118.702476037244
 31
0.0
1001
AcDbBlockRepETag
1070
     1
1071
       80
1005
586
  0
LINE
  5
587
330
41F
100
AcDbEntity
  8
0
  6
Continuous
 62
     7
370
    15
100
AcDbLine
 10
2155.675155139498
 20
1118.702436227225
 30
0.0
 11
2155.675189619721
 21
1118.702456132234
 31
0.0
1001
AcDbBlockRepETag
1070
     1
1071
       81
1005
587
  0
LINE
  5
588
330
41F
100
AcDbEntity
  8
0
  6
Continuous
 62
     7
370
    15
100
AcDbLine
 10
2155.675155139498
 20
1118.702436227225
 30
0.0
 11
2154.402362933362
 21
1119.437203527865
 31
0.0
1001
AcDbBlockRepETag
1070
     1
1071
       82
1005
588
  0
LINE
  5
589
330
41F
100
AcDbEntity
  8
0
  6
Continuous
 62
     7
370
    15
100
AcDbLine
 10
2154.402362933362
 20
1119.437203527865
 30
0.0
 11
2154.01274709693
 21
1119.662160521539
 31
0.0
1001
AcDbBlockRepETag
1070
     1
1071
       83
1005
589
  0
LINE
  5
58A
330
41F
100
AcDbEntity
  8
0
  6
Continuous
 62
     7
370
    15
100
AcDbLine
 10
2154.542370076036
 20
1118.624157459088
 30
0.0
 11
2154.402480461406
 21
1118.704914014661
 31
0.0
1001
AcDbBlockRepETag
1070
     1
1071
       84
1005
58A
  0
ARC
  5
58B
330
41F
100
AcDbEntity
  8
0
  6
Continuous
 62
     7
370
    15
100
AcDbCircle
 10
2154.611378179476
 20
1118.708759848856
 30
0.0
 40
0.1091772993571359
100
AcDbArc
 50
230.7967147642357
 51
9.214036990494944
1001
AcDbBlockRepETag
1070
     1
1071
       85
1005
58B
  0
LINE
  5
58C
330
41F
100
AcDbEntity
  8
0
  6
Continuous
 62
     7
370
    15
100
AcDbLine
 10
2154.719146771332
 20
1119.254328110817
 30
0.0
 11
2154.719146771332
 21
1118.726241648081
 31
0.0
1001
AcDbBlockRepETag
1070
     1
1071
       86
1005
58C
  0
LINE
  5
58D
330
41F
100
AcDbEntity
  8
0
  6
Continuous
 62
     7
370
    15
100
AcDbLine
 10
2155.429081979672
 20
1118.316404775963
 30
0.0
 11
2155.429081979645
 21
1118.844491238681
 31
0.0
1001
AcDbBlockRepETag
1070
     1
1071
       87
1005
58D
  0
ARC
  5
58E
330
41F
100
AcDbEntity
  8
0
  6
Continuous
 62
     7
370
    15
100
AcDbCircle
 10
2155.812886005116
 20
1118.333869989086
 30
0.0
 40
0.3842012019977117
100
AcDbArc
 50
182.6054784937612
 51
237.3945216518965
1001
AcDbBlockRepETag
1070
     1
1071
       88
1005
58E
  0
LINE
  5
58F
330
41F
100
AcDbEntity
  8
0
  6
Continuous
 62
     7
370
    15
100
AcDbLine
 10
2155.745748289589
 20
1117.929462003444
 30
0.0
 11
2155.605858674968
 21
1118.010218559013
 31
0.0
1001
AcDbBlockRepETag
1070
     1
1071
       89
1005
58F
  0
ARC
  5
590
330
41F
100
AcDbEntity
  8
0
  6
Continuous
 62
     7
370
    15
100
AcDbCircle
 10
2155.538720959871
 20
1117.605810573518
 30
0.0
 40
0.3842012016418243
100
AcDbArc
 50
2.605478480786131
 51
57.3945216939906
1001
AcDbBlockRepETag
1070
     1
1071
       90
1005
590
  0
LINE
  5
591
330
41F
100
AcDbEntity
  8
0
  6
Continuous
 62
     7
370
    15
100
AcDbLine
 10
2155.922524984964
 20
1117.62327578654
 30
0.0
 11
2155.922524984976
 21
1112.15183047044
 31
0.0
1001
AcDbBlockRepETag
1070
     1
1071
       91
1005
591
  0
LINE
  5
592
330
41F
100
AcDbEntity
  8
0
  6
Continuous
 62
     7
370
    15
100
AcDbLine
 10
2154.22570376622
 20
1113.131384509675
 30
0.0
 11
2155.922524984976
 21
1112.15183047044
 31
0.0
1001
AcDbBlockRepETag
1070
     1
1071
       92
1005
592
  0
LINE
  5
593
330
41F
100
AcDbEntity
  8
0
  6
Continuous
 62
     7
370
    15
100
AcDbLine
 10
2154.22570376622
 20
1113.131384509675
 30
0.0
 11
2154.225703766276
 21
1118.602829825763
 31
0.0
1001
AcDbBlockRepETag
1070
     1
1071
       93
1005
593
  0
ARC
  5
594
330
41F
100
AcDbEntity
  8
0
  6
Continuous
 62
     7
370
    15
100
AcDbCircle
 10
2154.333472357988
 20
1118.620311625047
 30
0.0
 40
0.1091772992239696
100
AcDbArc
 50
50.79671472195959
 51
189.2140370327942
1001
AcDbBlockRepETag
1070
     1
1071
       94
1005
594
  0
LINE
  5
595
330
41F
100
AcDbEntity
  8
0
  6
Continuous
 62
     7
370
    15
100
AcDbLine
 10
2157.267559610728
 20
1119.581747573676
 30
0.0
 11
2157.267559610728
 21
1119.377735321315
 31
0.0
1001
AcDbBlockRepETag
1070
     1
1071
       95
1005
595
  0
LINE
  5
596
330
41F
100
AcDbEntity
  8
0
  6
Continuous
 62
     7
370
    15
100
AcDbLine
 10
2157.267559610728
 20
1119.377735321315
 30
0.0
 11
2155.429081979672
 21
1118.316404775963
 31
0.0
1001
AcDbBlockRepETag
1070
     1
1071
       96
1005
596
  0
LINE
  5
597
330
41F
100
AcDbEntity
  8
0
  6
Continuous
 62
     7
370
    15
100
AcDbLine
 10
2157.584225920645
 20
1118.990792548797
 30
0.0
 11
2155.745748289589
 21
1117.929462003444
 31
0.0
1001
AcDbBlockRepETag
1070
     1
1071
       97
1005
597
  0
ARC
  5
598
330
41F
100
AcDbEntity
  8
0
  6
Continuous
 62
     7
370
    15
100
AcDbCircle
 10
2157.3771985906
 20
1118.66714111878
 30
0.0
 40
0.3842012018951171
100
AcDbArc
 50
2.60547848621065
 51
57.39452166022267
1001
AcDbBlockRepETag
1070
     1
1071
       98
1005
598
  0
LINE
  5
599
330
41F
100
AcDbEntity
  8
0
  6
Continuous
 62
     7
370
    15
100
AcDbLine
 10
2155.922524984964
 20
1117.62327578654
 30
0.0
 11
2157.761002615944
 21
1118.684606331849
 31
0.0
1001
AcDbBlockRepETag
1070
     1
1071
       99
1005
599
  0
ARC
  5
59A
330
41F
100
AcDbEntity
  8
0
  6
Continuous
 62
     7
370
    15
100
AcDbCircle
 10
2157.65136363607
 20
1119.395200534381
 30
0.0
 40
0.384201201893644
100
AcDbArc
 50
182.6054784857019
 51
237.3945216599409
1001
AcDbBlockRepETag
1070
     1
1071
      100
1005
59A
  0
LINE
  5
59B
330
41F
100
AcDbEntity
  8
0
  6
Continuous
 62
     7
370
    15
100
AcDbLine
 10
2157.444336306024
 20
1119.071549104366
 30
0.0
 11
2155.605858674968
 21
1118.010218559013
 31
0.0
1001
AcDbBlockRepETag
1070
     1
1071
      101
1005
59B
  0
LINE
  5
59C
330
41F
100
AcDbEntity
  8
0
  6
Continuous
 62
     7
370
    15
100
AcDbLine
 10
2157.761002615943
 20
1113.209842785404
 30
0.0
 11
2157.761002615944
 21
1118.684606331849
 31
0.0
1001
AcDbBlockRepETag
1070
     1
1071
      102
1005
59C
  0
LINE
  5
59D
330
41F
100
AcDbEntity
  8
0
  6
Continuous
 62
     7
370
    15
100
AcDbLine
 10
2157.560610773011
 20
1111.781795478519
 30
0.0
 11
2157.761002615943
 21
1113.209842785404
 31
0.0
1001
AcDbBlockRepETag
1070
     1
1071
      103
1005
59D
  0
ARC
  5
59E
330
41F
100
AcDbEntity
  8
0
  6
Continuous
 62
     7
370
    15
100
AcDbCircle
 10
2157.01949528204
 20
1111.864504951524
 30
0.0
 40
0.5474000653020753
100
AcDbArc
 50
302.9067666137824
 51
351.3096048991051
1001
AcDbBlockRepETag
1070
     1
1071
      104
1005
59E
  0
LINE
  5
59F
330
41F
100
AcDbEntity
  8
0
  6
Continuous
 62
     7
370
    15
100
AcDbLine
 10
2156.367150990528
 20
1110.856663315455
 30
0.0
 11
2157.316883288899
 21
1111.404932101075
 31
0.0
1001
AcDbBlockRepETag
1070
     1
1071
      105
1005
59F
  0
LWPOLYLINE
  5
5A0
330
41F
100
AcDbEntity
  8
0
  6
Continuous
 62
     7
370
    15
100
AcDbPolyline
 90
        9
 70
   128
 43
0.0
 10
2156.367150990528
 20
1110.856663315455
 10
2156.32417525914
 20
1110.836195735198
 10
2156.282505323602
 20
1110.825033614792
 10
2156.243407303821
 20
1110.823516109619
 10
2156.208069173343
 20
1110.831689328304
 10
2156.177564663382
 20
1110.849304931735
 10
2156.152820638035
 20
1110.875827678714
 10
2156.134588931992
 20
1110.910451688996
 10
2156.123423506416
 20
1110.952124929549
1001
AcDbBlockRepETag
1070
     1
1071
      106
1005
5A0
  0
LINE
  5
5A1
330
41F
100
AcDbEntity
  8
0
  6
Continuous
 62
     7
370
    15
100
AcDbLine
 10
2155.922524984976
 20
1112.15183047044
 30
0.0
 11
2156.123423506416
 21
1110.952124929549
 31
0.0
1001
AcDbBlockRepETag
1070
     1
1071
      107
1005
5A1
  0
LINE
  5
5A2
330
41F
100
AcDbEntity
  8
0
  6
Continuous
 62
     7
370
    15
100
AcDbLine
 10
2157.444336306024
 20
1119.071549104366
 30
0.0
 11
2157.584225920645
 21
1118.990792548797
 31
0.0
1001
AcDbBlockRepETag
1070
     1
1071
      108
1005
5A2
  0
LINE
  5
5A3
330
41F
100
AcDbEntity
  8
0
  6
Continuous
 62
     7
370
    15
100
AcDbLine
 10
2151.951493497416
 20
1108.543720999672
 30
0.0
 11
2150.254672278668
 21
1109.523275038861
 31
0.0
1001
AcDbBlockRepETag
1070
     1
1071
      109
1005
5A3
  0
LINE
  5
5A4
330
41F
100
AcDbEntity
  8
0
  6
Continuous
 62
     7
370
    15
100
AcDbLine
 10
2150.254672278668
 20
1109.523275038861
 30
0.0
 11
2150.053773757219
 21
1110.722980579798
 31
0.0
1001
AcDbBlockRepETag
1070
     1
1071
      110
1005
5A4
  0
ARC
  5
5A5
330
41F
100
AcDbEntity
  8
0
  6
Continuous
 62
     7
370
    15
100
AcDbCircle
 10
2150.405172905225
 20
1109.537657864974
 30
0.0
 40
0.1511863230629761
100
AcDbArc
 50
185.4589815372747
 51
237.2630757800403
1001
AcDbBlockRepETag
1070
     1
1071
      111
1005
5A5
  0
LINE
  5
5A6
330
41F
100
AcDbEntity
  8
0
  6
Continuous
 62
     7
370
    15
100
AcDbLine
 10
2156.123423506416
 20
1110.952124929549
 30
0.0
 11
2154.426602287668
 21
1111.931678968738
 31
0.0
1001
AcDbBlockRepETag
1070
     1
1071
      112
1005
5A6
  0
LINE
  5
5A7
330
41F
100
AcDbEntity
  8
0
  6
Continuous
 62
     7
370
    15
100
AcDbLine
 10
2154.426602287668
 20
1111.931678968738
 30
0.0
 11
2154.22570376622
 21
1113.131384509675
 31
0.0
1001
AcDbBlockRepETag
1070
     1
1071
      113
1005
5A7
  0
ARC
  5
5A8
330
41F
100
AcDbEntity
  8
0
  6
Continuous
 62
     7
370
    15
100
AcDbCircle
 10
2154.577102914226
 20
1111.946061794852
 30
0.0
 40
0.151186323062906
100
AcDbArc
 50
185.4589815372488
 51
237.2630757800403
1001
AcDbBlockRepETag
1070
     1
1071
      114
1005
5A8
  0
LINE
  5
5A9
330
41F
100
AcDbEntity
  8
0
  6
Continuous
 62
     8
370
    15
100
AcDbLine
 10
2150.370440067035
 20
1116.21575352921
 30
0.0
 11
2150.547216759997
 21
1116.317804541841
 31
0.0
1001
AcDbBlockRepETag
1070
     1
1071
      115
1005
5A9
  0
LINE
  5
5AA
330
41F
100
AcDbEntity
  8
0
  6
Continuous
 62
     8
370
    15
100
AcDbLine
 10
2150.230550452405
 20
1116.296510084784
 30
0.0
 11
2150.547216762332
 21
1116.479317654336
 31
0.0
1001
AcDbBlockRepETag
1070
     1
1071
      116
1005
5AA
  0
LINE
  5
5AB
330
41F
100
AcDbEntity
  8
0
  6
Continuous
 62
     8
370
    15
100
AcDbLine
 10
2154.542370076036
 20
1118.624157459088
 30
0.0
 11
2154.719146768997
 21
1118.726208471717
 31
0.0
1001
AcDbBlockRepETag
1070
     1
1071
      117
1005
5AB
  0
LINE
  5
5AC
330
41F
100
AcDbEntity
  8
0
  6
Continuous
 62
     8
370
    15
100
AcDbLine
 10
2154.402480461406
 20
1118.704914014661
 30
0.0
 11
2154.719146771332
 21
1118.887721584213
 31
0.0
1001
AcDbBlockRepETag
1070
     1
1071
      118
1005
5AC
  0
LINE
  5
5B0
330
41F
100
AcDbEntity
  8
0
  6
Continuous
 62
     7
370
    15
100
AcDbLine
 10
2146.40993498561
 20
1114.135483648043
 30
0.0
 11
2145.968278834304
 21
1113.880520978926
 31
0.0
1001
AcDbBlockRepETag
1070
     1
1071
      119
1005
5B0
  0
LINE
  5
5B1
330
41F
100
AcDbEntity
  8
0
  6
Continuous
 62
     7
370
    15
100
AcDbLine
 10
2146.186132207847
 20
1106.982119488498
 30
0.0
 11
2147.882953426595
 21
1106.002565449308
 31
0.0
1001
AcDbBlockRepETag
1070
     1
1071
      120
1005
5B1
  0
LINE
  5
5B2
330
41F
100
AcDbEntity
  8
0
  6
Continuous
 62
     7
370
    15
100
AcDbLine
 10
2147.330588014719
 20
1124.582906987317
 30
0.0
 11
2144.572871568091
 21
1126.174902805371
 31
0.0
1001
AcDbBlockRepETag
1070
     1
1071
      121
1005
5B2
  0
LINE
  5
5B3
330
41F
100
AcDbEntity
  8
0
  6
Continuous
 62
     7
370
    15
100
AcDbLine
 10
2147.330588014719
 20
1123.643885053648
 30
0.0
 11
2147.330588014719
 21
1124.582906987317
 31
0.0
1001
AcDbBlockRepETag
1070
     1
1071
      122
1005
5B3
  0
LINE
  5
5B4
330
41F
100
AcDbEntity
  8
0
  6
Continuous
 62
     7
370
    15
100
AcDbLine
 10
2146.834906161107
 20
1123.930036096844
 30
0.0
 11
2147.330588014719
 21
1123.643885053648
 31
0.0
1001
AcDbBlockRepETag
1070
     1
1071
      123
1005
5B4
  0
LINE
  5
5B5
330
41F
100
AcDbEntity
  8
0
  6
Continuous
 62
     7
370
    15
100
AcDbLine
 10
2146.834906161108
 20
1120.216408484383
 30
0.0
 11
2146.834906161107
 21
1123.930036096844
 31
0.0
1001
AcDbBlockRepETag
1070
     1
1071
      124
1005
5B5
  0
LINE
  5
5B6
330
41F
100
AcDbEntity
  8
0
  6
Continuous
 62
     7
370
    15
100
AcDbLine
 10
2145.068553421703
 20
1121.236102216052
 30
0.0
 11
2146.834906161108
 21
1120.216408484383
 31
0.0
1001
AcDbBlockRepETag
1070
     1
1071
      125
1005
5B6
  0
LINE
  5
5B7
330
41F
100
AcDbEntity
  8
0
  6
Continuous
 62
     7
370
    15
100
AcDbLine
 10
2145.068553421703
 20
1124.949729828512
 30
0.0
 11
2145.068553421703
 21
1121.236102216052
 31
0.0
1001
AcDbBlockRepETag
1070
     1
1071
      126
1005
5B7
  0
LINE
  5
5B8
330
41F
100
AcDbEntity
  8
0
  6
Continuous
 62
     7
370
    15
100
AcDbLine
 10
2144.572871568091
 20
1125.235880871706
 30
0.0
 11
2145.068553421703
 21
1124.949729828512
 31
0.0
1001
AcDbBlockRepETag
1070
     1
1071
      127
1005
5B8
  0
LINE
  5
5B9
330
41F
100
AcDbEntity
  8
0
  6
Continuous
 62
     7
370
    15
100
AcDbLine
 10
2144.572871568091
 20
1125.235880871706
 30
0.0
 11
2144.572871568091
 21
1126.174902805371
 31
0.0
1001
AcDbBlockRepETag
1070
     1
1071
      128
1005
5B9
  0
LINE
  5
5BA
330
41F
100
AcDbEntity
  8
0
  6
Continuous
 62
     7
370
    15
100
AcDbLine
 10
2146.834906161108
 20
1120.216408484383
 30
0.0
 11
2147.259170229819
 21
1120.46133091793
 31
0.0
1001
AcDbBlockRepETag
1070
     1
1071
      129
1005
5BA
  0
LINE
  5
5BB
330
41F
100
AcDbEntity
  8
0
  6
Continuous
 62
     7
370
    15
100
AcDbLine
 10
2149.875465320208
 20
1122.011650112262
 30
0.0
 11
2149.875465320208
 21
1116.66417064755
 31
0.0
1001
AcDbBlockRepETag
1070
     1
1071
      130
1005
5BB
  0
LINE
  5
5BC
330
41F
100
AcDbEntity
  8
0
  6
Continuous
 62
     7
370
    15
100
AcDbLine
 10
2149.734043963971
 20
1116.41922167399
 30
0.0
 11
2149.875465320208
 21
1116.66417064755
 31
0.0
1001
AcDbBlockRepETag
1070
     1
1071
      131
1005
5BC
  0
LINE
  5
5BD
330
41F
100
AcDbEntity
  8
0
  6
Continuous
 62
     7
370
    15
100
AcDbLine
 10
2149.734043963971
 20
1115.192777374539
 30
0.0
 11
2149.734043963971
 21
1116.41922167399
 31
0.0
1001
AcDbBlockRepETag
1070
     1
1071
      132
1005
5BD
  0
LINE
  5
5BE
330
41F
100
AcDbEntity
  8
0
  6
Continuous
 62
     7
370
    15
100
AcDbLine
 10
2149.734043963971
 20
1115.192777374539
 30
0.0
 11
2147.400591586055
 21
1113.845703990031
 31
0.0
1001
AcDbBlockRepETag
1070
     1
1071
      133
1005
5BE
  0
LINE
  5
5BF
330
41F
100
AcDbEntity
  8
0
  6
Continuous
 62
     7
370
    15
100
AcDbLine
 10
2147.400591586055
 20
1113.845703990031
 30
0.0
 11
2147.400591586055
 21
1115.072148289483
 31
0.0
1001
AcDbBlockRepETag
1070
     1
1071
      134
1005
5BF
  0
LINE
  5
5C0
330
41F
100
AcDbEntity
  8
0
  6
Continuous
 62
     7
370
    15
100
AcDbLine
 10
2147.400591586055
 20
1115.072148289483
 30
0.0
 11
2147.259170229819
 21
1115.153815640678
 31
0.0
1001
AcDbBlockRepETag
1070
     1
1071
      135
1005
5C0
  0
LINE
  5
5C1
330
41F
100
AcDbEntity
  8
0
  6
Continuous
 62
     7
370
    15
100
AcDbLine
 10
2147.259170229819
 20
1115.153815640678
 30
0.0
 11
2147.259170229819
 21
1120.46133091793
 31
0.0
1001
AcDbBlockRepETag
1070
     1
1071
      136
1005
5C1
  0
LINE
  5
5C2
330
41F
100
AcDbEntity
  8
0
  6
Continuous
 62
     7
370
    15
100
AcDbLine
 10
2147.683434298603
 20
1118.989884564937
 30
0.0
 11
2147.683434298603
 21
1117.928381509486
 31
0.0
1001
AcDbBlockRepETag
1070
     1
1071
      137
1005
5C2
  0
LINE
  5
5C3
330
41F
100
AcDbEntity
  8
0
  6
Continuous
 62
     7
370
    15
100
AcDbLine
 10
2149.451201251569
 20
1118.948891649264
 30
0.0
 11
2147.683434298603
 21
1117.928381509486
 31
0.0
1001
AcDbBlockRepETag
1070
     1
1071
      138
1005
5C3
  0
LINE
  5
5C4
330
41F
100
AcDbEntity
  8
0
  6
Continuous
 62
     7
370
    15
100
AcDbLine
 10
2149.451201251569
 20
1120.010394704715
 30
0.0
 11
2147.683434298603
 21
1118.989884564937
 31
0.0
1001
AcDbBlockRepETag
1070
     1
1071
      139
1005
5C4
  0
LINE
  5
5C5
330
41F
100
AcDbEntity
  8
0
  6
Continuous
 62
     7
370
    15
100
AcDbLine
 10
2145.492817490415
 20
1116.173509372345
 30
0.0
 11
2147.259170229819
 21
1115.153815640678
 31
0.0
1001
AcDbBlockRepETag
1070
     1
1071
      140
1005
5C5
  0
LINE
  5
5C6
330
41F
100
AcDbEntity
  8
0
  6
Continuous
 62
     7
370
    15
100
AcDbLine
 10
2145.492817490415
 20
1120.991179782505
 30
0.0
 11
2145.492817490415
 21
1116.173509372345
 31
0.0
1001
AcDbBlockRepETag
1070
     1
1071
      141
1005
5C6
  0
LINE
  5
5C7
330
41F
100
AcDbEntity
  8
0
  6
Continuous
 62
     7
370
    15
100
AcDbLine
 10
2149.627977946866
 20
1119.908343690737
 30
0.0
 11
2147.860210993899
 21
1118.887833550959
 31
0.0
1001
AcDbBlockRepETag
1070
     1
1071
      142
1005
5C7
  0
LINE
  5
5C8
330
41F
100
AcDbEntity
  8
0
  6
Continuous
 62
     7
370
    15
100
AcDbLine
 10
2149.451201251569
 20
1118.948891649264
 30
0.0
 11
2149.627977946866
 21
1119.908343690737
 31
0.0
1001
AcDbBlockRepETag
1070
     1
1071
      143
1005
5C8
  0
LINE
  5
5C9
330
41F
100
AcDbEntity
  8
0
  6
Continuous
 62
     7
370
    15
100
AcDbLine
 10
2147.683434298603
 20
1117.928381509486
 30
0.0
 11
2147.860210993899
 21
1118.887833550959
 31
0.0
1001
AcDbBlockRepETag
1070
     1
1071
      144
1005
5C9
  0
LINE
  5
5CA
330
41F
100
AcDbEntity
  8
0
  6
Continuous
 62
     7
370
    15
100
AcDbLine
 10
2149.627977946866
 20
1119.908343690737
 30
0.0
 11
2149.451201251569
 21
1120.010394704715
 31
0.0
1001
AcDbBlockRepETag
1070
     1
1071
      145
1005
5CA
  0
LINE
  5
5CB
330
41F
100
AcDbEntity
  8
0
  6
Continuous
 62
     7
370
    15
100
AcDbLine
 10
2147.860210993899
 20
1118.887833550959
 30
0.0
 11
2147.683434298603
 21
1118.989884564937
 31
0.0
1001
AcDbBlockRepETag
1070
     1
1071
      146
1005
5CB
  0
LINE
  5
5CC
330
41F
100
AcDbEntity
  8
0
  6
Continuous
 62
     7
370
    15
100
AcDbLine
 10
2145.63423884665
 20
1116.091842021149
 30
0.0
 11
2147.400591586055
 21
1115.072148289483
 31
0.0
1001
AcDbBlockRepETag
1070
     1
1071
      147
1005
5CC
  0
LINE
  5
5CD
330
41F
100
AcDbEntity
  8
0
  6
Continuous
 62
     7
370
    15
100
AcDbLine
 10
2145.492817490415
 20
1116.173509372345
 30
0.0
 11
2145.63423884665
 21
1116.091842021149
 31
0.0
1001
AcDbBlockRepETag
1070
     1
1071
      148
1005
5CD
  0
LINE
  5
5CE
330
41F
100
AcDbEntity
  8
0
  6
Continuous
 62
     7
370
    15
100
AcDbLine
 10
2147.365943353777
 20
1113.865705988771
 30
0.0
 11
2147.400591586055
 21
1113.845703990031
 31
0.0
1001
AcDbBlockRepETag
1070
     1
1071
      149
1005
5CE
  0
LINE
  5
5CF
330
41F
100
AcDbEntity
  8
0
  6
Continuous
 62
     7
370
    15
100
AcDbLine
 10
2145.668887078929
 20
1114.845395722958
 30
0.0
 11
2147.365943353777
 21
1113.865705988771
 31
0.0
1001
AcDbBlockRepETag
1070
     1
1071
      150
1005
5CF
  0
LINE
  5
5D0
330
41F
100
AcDbEntity
  8
0
  6
Continuous
 62
     7
370
    15
100
AcDbLine
 10
2145.63423884665
 20
1114.865397721698
 30
0.0
 11
2145.668887078929
 21
1114.845395722958
 31
0.0
1001
AcDbBlockRepETag
1070
     1
1071
      151
1005
5D0
  0
LINE
  5
5D1
330
41F
100
AcDbEntity
  8
0
  6
Continuous
 62
     7
370
    15
100
AcDbLine
 10
2145.63423884665
 20
1116.091842021149
 30
0.0
 11
2145.63423884665
 21
1114.865397721698
 31
0.0
1001
AcDbBlockRepETag
1070
     1
1071
      152
1005
5D1
  0
LINE
  5
5D2
330
41F
100
AcDbEntity
  8
0
  6
Continuous
 62
     7
370
    15
100
AcDbLine
 10
2147.365943353777
 20
1113.865666178752
 30
0.0
 11
2147.365977834001
 21
1113.865686083761
 31
0.0
1001
AcDbBlockRepETag
1070
     1
1071
      153
1005
5D2
  0
LINE
  5
5D3
330
41F
100
AcDbEntity
  8
0
  6
Continuous
 62
     7
370
    15
100
AcDbLine
 10
2147.365943353777
 20
1113.865705988771
 30
0.0
 11
2147.365943353777
 21
1113.865666178752
 31
0.0
1001
AcDbBlockRepETag
1070
     1
1071
      154
1005
5D3
  0
LINE
  5
5D4
330
41F
100
AcDbEntity
  8
0
  6
Continuous
 62
     7
370
    15
100
AcDbLine
 10
2147.365943353777
 20
1113.865666178752
 30
0.0
 11
2146.093151147641
 21
1114.600433479392
 31
0.0
1001
AcDbBlockRepETag
1070
     1
1071
      155
1005
5D4
  0
LINE
  5
5D5
330
41F
100
AcDbEntity
  8
0
  6
Continuous
 62
     7
370
    15
100
AcDbLine
 10
2146.093151147641
 20
1114.600433479392
 30
0.0
 11
2145.668887078929
 21
1114.845395722958
 31
0.0
1001
AcDbBlockRepETag
1070
     1
1071
      156
1005
5D5
  0
LINE
  5
5D6
330
41F
100
AcDbEntity
  8
0
  6
Continuous
 62
     7
370
    15
100
AcDbLine
 10
2145.916491980498
 20
1108.294614461201
 30
0.0
 11
2145.916491980553
 21
1113.76605977729
 31
0.0
1001
AcDbBlockRepETag
1070
     1
1071
      157
1005
5D6
  0
ARC
  5
5D7
330
41F
100
AcDbEntity
  8
0
  6
Continuous
 62
     7
370
    15
100
AcDbCircle
 10
2146.024260572266
 20
1113.783541576573
 30
0.0
 40
0.109177299223921
100
AcDbArc
 50
50.79671472193115
 51
189.214037032807
1001
AcDbBlockRepETag
1070
     1
1071
      158
1005
5D7
  0
LINE
  5
5D8
330
41F
100
AcDbEntity
  8
0
  6
Continuous
 62
     7
370
    15
100
AcDbLine
 10
2146.233158290314
 20
1113.787387410614
 30
0.0
 11
2146.093268675684
 21
1113.868143966188
 31
0.0
1001
AcDbBlockRepETag
1070
     1
1071
      159
1005
5D8
  0
ARC
  5
5D9
330
41F
100
AcDbEntity
  8
0
  6
Continuous
 62
     7
370
    15
100
AcDbCircle
 10
2146.302166393754
 20
1113.871989800382
 30
0.0
 40
0.1091772993571079
100
AcDbArc
 50
230.7967147642275
 51
9.214036990494955
1001
AcDbBlockRepETag
1070
     1
1071
      160
1005
5D9
  0
LINE
  5
5DA
330
41F
100
AcDbEntity
  8
0
  6
Continuous
 62
     7
370
    15
100
AcDbLine
 10
2146.40993498561
 20
1114.417558062345
 30
0.0
 11
2146.40993498561
 21
1113.889471599607
 31
0.0
1001
AcDbBlockRepETag
1070
     1
1071
      161
1005
5DA
  0
LINE
  5
5DB
330
41F
100
AcDbEntity
  8
0
  6
Continuous
 62
     7
370
    15
100
AcDbLine
 10
2147.119870193949
 20
1113.479634727489
 30
0.0
 11
2147.119870193924
 21
1114.007721190209
 31
0.0
1001
AcDbBlockRepETag
1070
     1
1071
      162
1005
5DB
  0
ARC
  5
5DC
330
41F
100
AcDbEntity
  8
0
  6
Continuous
 62
     7
370
    15
100
AcDbCircle
 10
2147.503674219393
 20
1113.497099940613
 30
0.0
 40
0.3842012019975375
100
AcDbArc
 50
182.6054784937482
 51
237.3945216519036
1001
AcDbBlockRepETag
1070
     1
1071
      163
1005
5DC
  0
LINE
  5
5DD
330
41F
100
AcDbEntity
  8
0
  6
Continuous
 62
     7
370
    15
100
AcDbLine
 10
2147.436536503867
 20
1113.09269195497
 30
0.0
 11
2147.296646889246
 21
1113.173448510539
 31
0.0
1001
AcDbBlockRepETag
1070
     1
1071
      164
1005
5DD
  0
ARC
  5
5DE
330
41F
100
AcDbEntity
  8
0
  6
Continuous
 62
     7
370
    15
100
AcDbCircle
 10
2147.229509174149
 20
1112.769040525044
 30
0.0
 40
0.3842012016418977
100
AcDbArc
 50
2.605478480786139
 51
57.39452169396164
1001
AcDbBlockRepETag
1070
     1
1071
      165
1005
5DE
  0
LINE
  5
5DF
330
41F
100
AcDbEntity
  8
0
  6
Continuous
 62
     7
370
    15
100
AcDbLine
 10
2147.613313199242
 20
1112.786505738066
 30
0.0
 11
2147.613313199253
 21
1107.315060421966
 31
0.0
1001
AcDbBlockRepETag
1070
     1
1071
      166
1005
5DF
  0
LINE
  5
5E0
330
41F
100
AcDbEntity
  8
0
  6
Continuous
 62
     7
370
    15
100
AcDbLine
 10
2145.916491980498
 20
1108.294614461201
 30
0.0
 11
2147.613313199253
 21
1107.315060421966
 31
0.0
1001
AcDbBlockRepETag
1070
     1
1071
      167
1005
5E0
  0
LINE
  5
5E1
330
41F
100
AcDbEntity
  8
0
  6
Continuous
 62
     7
370
    15
100
AcDbLine
 10
2148.958347825005
 20
1114.744977525202
 30
0.0
 11
2148.958347825005
 21
1114.540965272841
 31
0.0
1001
AcDbBlockRepETag
1070
     1
1071
      168
1005
5E1
  0
LINE
  5
5E2
330
41F
100
AcDbEntity
  8
0
  6
Continuous
 62
     7
370
    15
100
AcDbLine
 10
2148.958347825005
 20
1114.540965272841
 30
0.0
 11
2147.119870193949
 21
1113.479634727489
 31
0.0
1001
AcDbBlockRepETag
1070
     1
1071
      169
1005
5E2
  0
LINE
  5
5E3
330
41F
100
AcDbEntity
  8
0
  6
Continuous
 62
     7
370
    15
100
AcDbLine
 10
2149.275014134923
 20
1114.154022500323
 30
0.0
 11
2147.436536503867
 21
1113.09269195497
 31
0.0
1001
AcDbBlockRepETag
1070
     1
1071
      170
1005
5E3
  0
ARC
  5
5E4
330
41F
100
AcDbEntity
  8
0
  6
Continuous
 62
     7
370
    15
100
AcDbCircle
 10
2149.067986804877
 20
1113.830371070306
 30
0.0
 40
0.3842012018957559
100
AcDbArc
 50
2.605478486249694
 51
57.39452166018666
1001
AcDbBlockRepETag
1070
     1
1071
      171
1005
5E4
  0
LINE
  5
5E5
330
41F
100
AcDbEntity
  8
0
  6
Continuous
 62
     7
370
    15
100
AcDbLine
 10
2147.613313199242
 20
1112.786505738066
 30
0.0
 11
2149.451790830222
 21
1113.847836283375
 31
0.0
1001
AcDbBlockRepETag
1070
     1
1071
      172
1005
5E5
  0
ARC
  5
5E6
330
41F
100
AcDbEntity
  8
0
  6
Continuous
 62
     7
370
    15
100
AcDbCircle
 10
2149.342151850348
 20
1114.558430485907
 30
0.0
 40
0.3842012018937424
100
AcDbArc
 50
182.6054784857149
 51
237.3945216599409
1001
AcDbBlockRepETag
1070
     1
1071
      173
1005
5E6
  0
LINE
  5
5E7
330
41F
100
AcDbEntity
  8
0
  6
Continuous
 62
     7
370
    15
100
AcDbLine
 10
2149.135124520302
 20
1114.234779055892
 30
0.0
 11
2147.296646889246
 21
1113.173448510539
 31
0.0
1001
AcDbBlockRepETag
1070
     1
1071
      174
1005
5E7
  0
LINE
  5
5E8
330
41F
100
AcDbEntity
  8
0
  6
Continuous
 62
     7
370
    15
100
AcDbLine
 10
2149.251398987289
 20
1106.945025430046
 30
0.0
 11
2149.451790830221
 21
1108.37307273693
 31
0.0
1001
AcDbBlockRepETag
1070
     1
1071
      175
1005
5E8
  0
ARC
  5
5E9
330
41F
100
AcDbEntity
  8
0
  6
Continuous
 62
     7
370
    15
100
AcDbCircle
 10
2148.710283496317
 20
1107.027734903051
 30
0.0
 40
0.5474000653036894
100
AcDbArc
 50
302.9067666138693
 51
351.3096048990238
1001
AcDbBlockRepETag
1070
     1
1071
      176
1005
5E9
  0
LINE
  5
5EA
330
41F
100
AcDbEntity
  8
0
  6
Continuous
 62
     7
370
    15
100
AcDbLine
 10
2148.057939204806
 20
1106.019893266982
 30
0.0
 11
2149.007671503177
 21
1106.568162052601
 31
0.0
1001
AcDbBlockRepETag
1070
     1
1071
      177
1005
5EA
  0
LWPOLYLINE
  5
5EB
330
41F
100
AcDbEntity
  8
0
  6
Continuous
 62
     7
370
    15
100
AcDbPolyline
 90
        9
 70
   128
 43
0.0
 10
2148.057939204806
 20
1106.019893266982
 10
2148.014963473417
 20
1105.999425686724
 10
2147.97329353788
 20
1105.988263566318
 10
2147.934195518098
 20
1105.986746061145
 10
2147.898857387621
 20
1105.99491927983
 10
2147.86835287766
 20
1106.012534883261
 10
2147.843608852312
 20
1106.03905763024
 10
2147.82537714627
 20
1106.073681640522
 10
2147.814211720694
 20
1106.115354881075
1001
AcDbBlockRepETag
1070
     1
1071
      178
1005
5EB
  0
LINE
  5
5EC
330
41F
100
AcDbEntity
  8
0
  6
Continuous
 62
     7
370
    15
100
AcDbLine
 10
2147.613313199253
 20
1107.315060421966
 30
0.0
 11
2147.814211720694
 21
1106.115354881075
 31
0.0
1001
AcDbBlockRepETag
1070
     1
1071
      179
1005
5EC
  0
LINE
  5
5ED
330
41F
100
AcDbEntity
  8
0
  6
Continuous
 62
     7
370
    15
100
AcDbLine
 10
2149.451790830221
 20
1108.37307273693
 30
0.0
 11
2149.451790830222
 21
1113.847836283375
 31
0.0
1001
AcDbBlockRepETag
1070
     1
1071
      180
1005
5ED
  0
LINE
  5
5EE
330
41F
100
AcDbEntity
  8
0
  6
Continuous
 62
     7
370
    15
100
AcDbLine
 10
2149.135124520302
 20
1114.234779055892
 30
0.0
 11
2149.275014134923
 21
1114.154022500323
 31
0.0
1001
AcDbBlockRepETag
1070
     1
1071
      181
1005
5EE
  0
LINE
  5
5EF
330
41F
100
AcDbEntity
  8
0
  6
Continuous
 62
     7
370
    15
100
AcDbLine
 10
2147.814211720694
 20
1106.115354881075
 30
0.0
 11
2146.117390501947
 21
1107.094908920264
 31
0.0
1001
AcDbBlockRepETag
1070
     1
1071
      182
1005
5EF
  0
LINE
  5
5F0
330
41F
100
AcDbEntity
  8
0
  6
Continuous
 62
     7
370
    15
100
AcDbLine
 10
2146.117390501947
 20
1107.094908920264
 30
0.0
 11
2145.916491980498
 21
1108.294614461201
 31
0.0
1001
AcDbBlockRepETag
1070
     1
1071
      183
1005
5F0
  0
ARC
  5
5F1
330
41F
100
AcDbEntity
  8
0
  6
Continuous
 62
     7
370
    15
100
AcDbCircle
 10
2146.267891128504
 20
1107.109291746378
 30
0.0
 40
0.1511863230629761
100
AcDbArc
 50
185.4589815372747
 51
237.2630757800403
1001
AcDbBlockRepETag
1070
     1
1071
      184
1005
5F1
  0
LINE
  5
5F2
330
41F
100
AcDbEntity
  8
0
  6
Continuous
 62
     8
370
    15
100
AcDbLine
 10
2146.233158290314
 20
1113.787387410614
 30
0.0
 11
2146.409934983275
 21
1113.889438423244
 31
0.0
1001
AcDbBlockRepETag
1070
     1
1071
      185
1005
5F2
  0
LINE
  5
5F3
330
41F
100
AcDbEntity
  8
0
  6
Continuous
 62
     8
370
    15
100
AcDbLine
 10
2146.093268675684
 20
1113.868143966188
 30
0.0
 11
2146.40993498561
 21
1114.050951535739
 31
0.0
1001
AcDbBlockRepETag
1070
     1
1071
      186
1005
5F3
  0
ENDBLK
  5
421
330
41F
100
AcDbEntity
  8
0
100
AcDbBlockEnd
  0
ENDSEC
  0
SECTION
  2
ENTITIES
  0
INSERT
  5
3E7
330
1F
100
AcDbEntity
  8
0
100
AcDbBlockReference
  2
1
 10
0.0
 20
0.0
 30
0.0
  0
INSERT
  5
416
330
1F
100
AcDbEntity
  8
0
100
AcDbBlockReference
  2
2
 10
12.41162612664129
 20
0.0
 30
0.0
  0
INSERT
  5
41E
330
1F
100
AcDbEntity
  8
0
100
AcDbBlockReference
  2
3
 10
0.0
 20
19.81565123315135
 30
0.0
  0
INSERT
  5
4A5
330
1F
100
AcDbEntity
  8
0
100
AcDbBlockReference
  2
4
 10
16.41275350298474
 20
0.0
 30
0.0
  0
ENDSEC
  0
SECTION
  2
OBJECTS
  0
DICTIONARY
  5
C
330
0
100
AcDbDictionary
281
     1
  3
ACAD_COLOR
350
6B
  3
ACAD_GROUP
350
D
  3
ACAD_LAYOUT
350
1A
  3
ACAD_MATERIAL
350
6A
  3
ACAD_MLEADERSTYLE
350
12D
  3
ACAD_MLINESTYLE
350
17
  3
ACAD_PLOTSETTINGS
350
19
  3
ACAD_PLOTSTYLENAME
350
E
  3
ACAD_SCALELIST
350
10C
  3
ACAD_TABLESTYLE
350
7E
  3
ACAD_VISUALSTYLE
350
EF
  3
ACDB_RECOMPOSE_DATA
350
15D
  3
AcDbVariableDictionary
350
5E
  3
DWGPROPS
350
609
  0
DICTIONARY
  5
13C
330
10
100
AcDbDictionary
280
     1
281
     1
  3
ADSK_XREC_LAYER_RECONCILED
360
4A6
  0
DICTIONARY
  5
4F2
330
39F
100
AcDbDictionary
280
     1
281
     1
  0
DICTIONARY
  5
521
330
417
100
AcDbDictionary
280
     1
281
     1
  3
ACAD_SORTENTS
360
525
  0
DICTIONARY
  5
5AD
330
41F
100
AcDbDictionary
280
     1
281
     1
  0
DICTIONARY
  5
6B
102
{ACAD_REACTORS
330
C
102
}
330
C
100
AcDbDictionary
281
     1
  0
DICTIONARY
  5
D
102
{ACAD_REACTORS
330
C
102
}
330
C
100
AcDbDictionary
281
     1
  0
DICTIONARY
  5
1A
102
{ACAD_REACTORS
330
C
102
}
330
C
100
AcDbDictionary
281
     1
  3
Layout1
350
D3
  3
Layout2
350
D7
  3
Model
350
22
  0
DICTIONARY
  5
6A
102
{ACAD_REACTORS
330
C
102
}
330
C
100
AcDbDictionary
281
     1
  3
ByBlock
350
ED
  3
ByLayer
350
EC
  3
Global
350
EE
  0
DICTIONARY
  5
12D
102
{ACAD_REACTORS
330
C
102
}
330
C
100
AcDbDictionary
281
     1
  3
Annotative
350
13B
  3
Standard
350
12E
  0
DICTIONARY
  5
17
102
{ACAD_REACTORS
330
C
102
}
330
C
100
AcDbDictionary
281
     1
  3
Standard
350
18
  0
DICTIONARY
  5
19
102
{ACAD_REACTORS
330
C
102
}
330
C
100
AcDbDictionary
281
     1
  0
ACDBDICTIONARYWDFLT
  5
E
102
{ACAD_REACTORS
330
C
102
}
330
C
100
AcDbDictionary
281
     1
  3
Normal
350
F
100
AcDbDictionaryWithDefault
340
F
  0
DICTIONARY
  5
10C
102
{ACAD_REACTORS
330
C
102
}
330
C
100
AcDbDictionary
281
     1
  3
A0
350
10D
  3
A1
350
188
  3
A2
350
189
  3
A3
350
18A
  3
A4
350
18B
  3
A5
350
18C
  3
A6
350
18D
  3
A7
350
18E
  3
A8
350
18F
  3
A9
350
190
  3
B0
350
191
  3
B1
350
192
  3
B2
350
193
  3
B3
350
194
  3
B4
350
195
  3
B5
350
196
  3
B6
350
197
  3
B7
350
198
  3
B8
350
199
  3
B9
350
19A
  3
C0
350
19B
  3
C1
350
19C
  3
C2
350
19D
  3
C3
350
19E
  3
C4
350
19F
  3
C5
350
1A0
  3
C6
350
1A1
  3
C7
350
1A2
  3
C8
350
1A3
  3
C9
350
1A4
  3
D0
350
1A5
  3
D1
350
1A6
  3
D2
350
1A7
  0
DICTIONARY
  5
7E
102
{ACAD_REACTORS
330
C
102
}
330
C
100
AcDbDictionary
281
     1
  3
Standard
350
7F
  0
DICTIONARY
  5
EF
102
{ACAD_REACTORS
330
C
102
}
330
C
100
AcDbDictionary
281
     1
  3
2dWireframe
350
F5
  3
3D Hidden
350
F7
  3
3dWireframe
350
F6
  3
Basic
350
F4
  3
Brighten
350
FB
  3
ColorChange
350
FF
  3
Conceptual
350
F8
  3
Dim
350
FA
  3
Facepattern
350
FE
  3
Flat
350
F0
  3
FlatWithEdges
350
F1
  3
Gouraud
350
F2
  3
GouraudWithEdges
350
F3
  3
Linepattern
350
FD
  3
Realistic
350
F9
  3
Thicken
350
FC
  0
XRECORD
  5
15D
102
{ACAD_REACTORS
330
C
102
}
330
C
100
AcDbXrecord
280
     1
 90
        1
330
7F
  0
DICTIONARY
  5
5E
102
{ACAD_REACTORS
330
C
102
}
330
C
100
AcDbDictionary
281
     1
  3
CANNOSCALE
350
146
  3
CMLEADERSTYLE
350
145
  3
CTABLESTYLE
350
84
  3
DIMASSOC
350
5F
  3
HIDETEXT
350
63
  3
INDEXCTL
350
605
  3
LIGHTINGUNITS
350
603
  3
MSLTSCALE
350
602
  3
PSOLHEIGHT
350
607
  3
PSOLWIDTH
350
606
  3
SORTENTS
350
604
  0
XRECORD
  5
609
102
{ACAD_REACTORS
330
C
102
}
330
C
100
AcDbXrecord
280
     1
  1
DWGPROPS COOKIE
  2

  3

  4

  6

  7

  8
orhan kara
  9

300
=
301
=
302
=
303
=
304
=
305
=
306
=
307
=
308
=
309
=
 40
0.00403375
 41
2458929.654502558
 42
2458956.438535891
  1

 90
        0
  0
XRECORD
  5
4A6
102
{ACAD_REACTORS
330
13C
102
}
330
13C
100
AcDbXrecord
280
     1
290
     1
  0
SORTENTSTABLE
  5
525
102
{ACAD_REACTORS
330
521
102
}
330
521
100
AcDbSortentsTable
330
417
331
524
  5
520
331
520
  5
524
331
51E
  5
51E
331
51F
  5
51F
  0
LAYOUT
  5
D3
102
{ACAD_XDICTIONARY
360
60D
102
}
102
{ACAD_REACTORS
330
1A
102
}
330
1A
100
AcDbPlotSettings
  1

  2
C:\Documents and Settings\basas\Application Data\Autodesk\AutoCAD 2005\R16.1\enu\plotters\Default Windows System Printer.pc3
  4

  6

 40
0.0
 41
0.0
 42
0.0
 43
0.0
 44
0.0
 45
0.0
 46
0.0
 47
0.0
 48
0.0
 49
0.0
140
0.0
141
0.0
142
1.0
143
1.0
 70
   688
 72
     0
 73
     0
 74
     5
  7

 75
    16
147
1.0
148
0.0
149
0.0
100
AcDbLayout
  1
Layout1
 70
     1
 71
     1
 10
0.0
 20
0.0
 11
12.0
 21
9.0
 12
0.0
 22
0.0
 32
0.0
 14
0.0
 24
0.0
 34
0.0
 15
0.0
 25
0.0
 35
0.0
146
0.0
 13
0.0
 23
0.0
 33
0.0
 16
1.0
 26
0.0
 36
0.0
 17
0.0
 27
1.0
 37
0.0
 76
     0
330
D2
  0
LAYOUT
  5
D7
102
{ACAD_XDICTIONARY
360
60F
102
}
102
{ACAD_REACTORS
330
1A
102
}
330
1A
100
AcDbPlotSettings
  1

  2
C:\Documents and Settings\basas\Application Data\Autodesk\AutoCAD 2005\R16.1\enu\plotters\Default Windows System Printer.pc3
  4

  6

 40
0.0
 41
0.0
 42
0.0
 43
0.0
 44
0.0
 45
0.0
 46
0.0
 47
0.0
 48
0.0
 49
0.0
140
0.0
141
0.0
142
1.0
143
1.0
 70
   688
 72
     0
 73
     0
 74
     5
  7

 75
    16
147
1.0
148
0.0
149
0.0
100
AcDbLayout
  1
Layout2
 70
     1
 71
     2
 10
0.0
 20
0.0
 11
12.0
 21
9.0
 12
0.0
 22
0.0
 32
0.0
 14
0.0
 24
0.0
 34
0.0
 15
0.0
 25
0.0
 35
0.0
146
0.0
 13
0.0
 23
0.0
 33
0.0
 16
1.0
 26
0.0
 36
0.0
 17
0.0
 27
1.0
 37
0.0
 76
     0
330
D6
  0
LAYOUT
  5
22
102
{ACAD_XDICTIONARY
360
60A
102
}
102
{ACAD_REACTORS
330
1A
102
}
330
1A
100
AcDbPlotSettings
  1

  2
none_device
  4
ISO_A4_(210.00_x_297.00_MM)
  6

 40
7.5
 41
20.0
 42
7.5
 43
20.0
 44
210.0
 45
297.0
 46
11.54999923706054
 47
-13.65000009536743
 48
0.0
 49
0.0
140
0.0
141
0.0
142
1.0
143
8.704084754739808
 70
 11952
 72
     1
 73
     0
 74
     0
  7

 75
     0
147
0.1148885871608098
148
0.0
149
0.0
100
AcDbLayout
  1
Model
 70
     1
 71
     0
 10
0.0
 20
0.0
 11
12.0
 21
9.0
 12
0.0
 22
0.0
 32
0.0
 14
0.0
 24
0.0
 34
0.0
 15
0.0
 25
0.0
 35
0.0
146
0.0
 13
0.0
 23
0.0
 33
0.0
 16
1.0
 26
0.0
 36
0.0
 17
0.0
 27
1.0
 37
0.0
 76
     0
330
1F
331
EA
1001
ACAD_PSEXT
1000
None
1000
None
1000
Not applicable
1000
The layout will not be plotted unless a new plotter configuration name is selected.
1070
     0
  0
MATERIAL
  5
ED
102
{ACAD_XDICTIONARY
360
613
102
}
102
{ACAD_REACTORS
330
6A
102
}
330
6A
100
AcDbMaterial
  1
ByBlock
  0
MATERIAL
  5
EC
102
{ACAD_XDICTIONARY
360
611
102
}
102
{ACAD_REACTORS
330
6A
102
}
330
6A
100
AcDbMaterial
  1
ByLayer
  0
MATERIAL
  5
EE
102
{ACAD_XDICTIONARY
360
173
102
}
102
{ACAD_REACTORS
330
6A
102
}
330
6A
100
AcDbMaterial
  1
Global
 43
0.0007999999797903
 43
0.0
 43
0.0
 43
0.0
 43
0.0
 43
0.0007999999797903
 43
0.0
 43
0.0
 43
0.0
 43
0.0
 43
1.0
 43
0.0
 43
0.0
 43
0.0
 43
0.0
 43
1.0
 49
0.0007999999797903
 49
0.0
 49
0.0
 49
0.0
 49
0.0
 49
0.0007999999797903
 49
0.0
 49
0.0
 49
0.0
 49
0.0
 49
1.0
 49
0.0
 49
0.0
 49
0.0
 49
0.0
 49
1.0
142
0.0007999999797903
142
0.0
142
0.0
142
0.0
142
0.0
142
0.0007999999797903
142
0.0
142
0.0
142
0.0
142
0.0
142
1.0
142
0.0
142
0.0
142
0.0
142
0.0
142
1.0
144
0.0007999999797903
144
0.0
144
0.0
144
0.0
144
0.0
144
0.0007999999797903
144
0.0
144
0.0
144
0.0
144
0.0
144
1.0
144
0.0
144
0.0
144
0.0
144
0.0
144
1.0
1001
ACAD
1070
    -1
1070
     3
1070
     0
1000

1071
        0
1070
     0
  0
MLEADERSTYLE
  5
13B
102
{ACAD_REACTORS
330
12D
102
}
330
12D
100
AcDbMLeaderStyle
170
     2
171
     1
172
     0
 90
        2
 40
0.0
 41
0.0
173
     1
 91
-1056964608
340
14
 92
       -2
290
     1
 42
2.0
291
     1
 43
8.0
  3
Standard
 44
4.0
300

342
11
174
     1
178
     1
175
     1
176
     0
 93
-1056964608
 45
4.0
292
     0
297
     0
 46
4.0
 94
-1056964608
 47
1.0
 49
1.0
140
1.0
293
     1
141
0.0
294
     1
177
     0
142
1.0
295
     0
296
     1
143
3.75
1001
ACAD_MLEADERVER
1070
     2
  0
MLEADERSTYLE
  5
12E
102
{ACAD_REACTORS
330
12D
102
}
330
12D
100
AcDbMLeaderStyle
170
     2
171
     1
172
     0
 90
        2
 40
0.0
 41
0.0
173
     1
 91
-1056964608
340
14
 92
       -2
290
     1
 42
2.0
291
     1
 43
8.0
  3
Standard
 44
4.0
300

342
11
174
     1
178
     1
175
     1
176
     0
 93
-1056964608
 45
4.0
292
     0
297
     0
 46
4.0
 94
-1056964608
 47
1.0
 49
1.0
140
1.0
293
     1
141
0.0
294
     1
177
     0
142
1.0
295
     0
296
     0
143
3.75
1001
ACAD_MLEADERVER
1070
     2
  0
MLINESTYLE
  5
18
102
{ACAD_REACTORS
330
17
102
}
330
17
100
AcDbMlineStyle
  2
STANDARD
 70
     0
  3

 62
   256
 51
90.0
 52
90.0
 71
     2
 49
0.5
 62
   256
  6
BYLAYER
 49
-0.5
 62
   256
  6
BYLAYER
  0
ACDBPLACEHOLDER
  5
F
102
{ACAD_REACTORS
330
E
102
}
330
E
  0
SCALE
  5
10D
102
{ACAD_REACTORS
330
10C
102
}
330
10C
100
AcDbScale
 70
     0
300
1:1
140
1.0
141
1.0
290
     1
  0
SCALE
  5
188
102
{ACAD_REACTORS
330
10C
102
}
330
10C
100
AcDbScale
 70
     0
300
1:2
140
1.0
141
2.0
290
     0
  0
SCALE
  5
189
102
{ACAD_REACTORS
330
10C
102
}
330
10C
100
AcDbScale
 70
     0
300
1:4
140
1.0
141
4.0
290
     0
  0
SCALE
  5
18A
102
{ACAD_REACTORS
330
10C
102
}
330
10C
100
AcDbScale
 70
     0
300
1:5
140
1.0
141
5.0
290
     0
  0
SCALE
  5
18B
102
{ACAD_REACTORS
330
10C
102
}
330
10C
100
AcDbScale
 70
     0
300
1:8
140
1.0
141
8.0
290
     0
  0
SCALE
  5
18C
102
{ACAD_REACTORS
330
10C
102
}
330
10C
100
AcDbScale
 70
     0
300
1:10
140
1.0
141
10.0
290
     0
  0
SCALE
  5
18D
102
{ACAD_REACTORS
330
10C
102
}
330
10C
100
AcDbScale
 70
     0
300
1:16
140
1.0
141
16.0
290
     0
  0
SCALE
  5
18E
102
{ACAD_REACTORS
330
10C
102
}
330
10C
100
AcDbScale
 70
     0
300
1:20
140
1.0
141
20.0
290
     0
  0
SCALE
  5
18F
102
{ACAD_REACTORS
330
10C
102
}
330
10C
100
AcDbScale
 70
     0
300
1:30
140
1.0
141
30.0
290
     0
  0
SCALE
  5
190
102
{ACAD_REACTORS
330
10C
102
}
330
10C
100
AcDbScale
 70
     0
300
1:40
140
1.0
141
40.0
290
     0
  0
SCALE
  5
191
102
{ACAD_REACTORS
330
10C
102
}
330
10C
100
AcDbScale
 70
     0
300
1:50
140
1.0
141
50.0
290
     0
  0
SCALE
  5
192
102
{ACAD_REACTORS
330
10C
102
}
330
10C
100
AcDbScale
 70
     0
300
1:100
140
1.0
141
100.0
290
     0
  0
SCALE
  5
193
102
{ACAD_REACTORS
330
10C
102
}
330
10C
100
AcDbScale
 70
     0
300
2:1
140
2.0
141
1.0
290
     0
  0
SCALE
  5
194
102
{ACAD_REACTORS
330
10C
102
}
330
10C
100
AcDbScale
 70
     0
300
4:1
140
4.0
141
1.0
290
     0
  0
SCALE
  5
195
102
{ACAD_REACTORS
330
10C
102
}
330
10C
100
AcDbScale
 70
     0
300
8:1
140
8.0
141
1.0
290
     0
  0
SCALE
  5
196
102
{ACAD_REACTORS
330
10C
102
}
330
10C
100
AcDbScale
 70
     0
300
10:1
140
10.0
141
1.0
290
     0
  0
SCALE
  5
197
102
{ACAD_REACTORS
330
10C
102
}
330
10C
100
AcDbScale
 70
     0
300
100:1
140
100.0
141
1.0
290
     0
  0
SCALE
  5
198
102
{ACAD_REACTORS
330
10C
102
}
330
10C
100
AcDbScale
 70
     0
300
1/128" = 1'-0"
140
0.0078125
141
12.0
290
     0
  0
SCALE
  5
199
102
{ACAD_REACTORS
330
10C
102
}
330
10C
100
AcDbScale
 70
     0
300
1/64" = 1'-0"
140
0.015625
141
12.0
290
     0
  0
SCALE
  5
19A
102
{ACAD_REACTORS
330
10C
102
}
330
10C
100
AcDbScale
 70
     0
300
1/32" = 1'-0"
140
0.03125
141
12.0
290
     0
  0
SCALE
  5
19B
102
{ACAD_REACTORS
330
10C
102
}
330
10C
100
AcDbScale
 70
     0
300
1/16" = 1'-0"
140
0.0625
141
12.0
290
     0
  0
SCALE
  5
19C
102
{ACAD_REACTORS
330
10C
102
}
330
10C
100
AcDbScale
 70
     0
300
3/32" = 1'-0"
140
0.09375
141
12.0
290
     0
  0
SCALE
  5
19D
102
{ACAD_REACTORS
330
10C
102
}
330
10C
100
AcDbScale
 70
     0
300
1/8" = 1'-0"
140
0.125
141
12.0
290
     0
  0
SCALE
  5
19E
102
{ACAD_REACTORS
330
10C
102
}
330
10C
100
AcDbScale
 70
     0
300
3/16" = 1'-0"
140
0.1875
141
12.0
290
     0
  0
SCALE
  5
19F
102
{ACAD_REACTORS
330
10C
102
}
330
10C
100
AcDbScale
 70
     0
300
1/4" = 1'-0"
140
0.25
141
12.0
290
     0
  0
SCALE
  5
1A0
102
{ACAD_REACTORS
330
10C
102
}
330
10C
100
AcDbScale
 70
     0
300
3/8" = 1'-0"
140
0.375
141
12.0
290
     0
  0
SCALE
  5
1A1
102
{ACAD_REACTORS
330
10C
102
}
330
10C
100
AcDbScale
 70
     0
300
1/2" = 1'-0"
140
0.5
141
12.0
290
     0
  0
SCALE
  5
1A2
102
{ACAD_REACTORS
330
10C
102
}
330
10C
100
AcDbScale
 70
     0
300
3/4" = 1'-0"
140
0.75
141
12.0
290
     0
  0
SCALE
  5
1A3
102
{ACAD_REACTORS
330
10C
102
}
330
10C
100
AcDbScale
 70
     0
300
1" = 1'-0"
140
1.0
141
12.0
290
     0
  0
SCALE
  5
1A4
102
{ACAD_REACTORS
330
10C
102
}
330
10C
100
AcDbScale
 70
     0
300
1-1/2" = 1'-0"
140
1.5
141
12.0
290
     0
  0
SCALE
  5
1A5
102
{ACAD_REACTORS
330
10C
102
}
330
10C
100
AcDbScale
 70
     0
300
3" = 1'-0"
140
3.0
141
12.0
290
     0
  0
SCALE
  5
1A6
102
{ACAD_REACTORS
330
10C
102
}
330
10C
100
AcDbScale
 70
     0
300
6" = 1'-0"
140
6.0
141
12.0
290
     0
  0
SCALE
  5
1A7
102
{ACAD_REACTORS
330
10C
102
}
330
10C
100
AcDbScale
 70
     0
300
1'-0" = 1'-0"
140
12.0
141
12.0
290
     0
  0
TABLESTYLE
  5
7F
102
{ACAD_XDICTIONARY
360
162
102
}
102
{ACAD_REACTORS
330
7E
102
}
330
7E
100
AcDbTableStyle
  3
Standard
 70
     0
 71
     0
 40
1.5
 41
1.5
280
     0
281
     0
  7
Standard
140
4.5
170
     2
 62
     0
 63
     7
283
     0
274
    -2
284
     1
 64
     0
275
    -2
285
     1
 65
     0
276
    -2
286
     1
 66
     0
277
    -2
287
     1
 67
     0
278
    -2
288
     1
 68
     0
279
    -2
289
     1
 69
     0
  7
Standard
140
6.0
170
     5
 62
     0
 63
     7
283
     0
274
    -2
284
     1
 64
     0
275
    -2
285
     1
 65
     0
276
    -2
286
     1
 66
     0
277
    -2
287
     1
 67
     0
278
    -2
288
     1
 68
     0
279
    -2
289
     1
 69
     0
  7
Standard
140
4.5
170
     5
 62
     0
 63
     7
283
     0
274
    -2
284
     1
 64
     0
275
    -2
285
     1
 65
     0
276
    -2
286
     1
 66
     0
277
    -2
287
     1
 67
     0
278
    -2
288
     1
 68
     0
279
    -2
289
     1
 69
     0
  0
VISUALSTYLE
  5
F5
102
{ACAD_REACTORS
330
EF
102
}
330
EF
100
AcDbVisualStyle
  2
2dWireframe
 70
     4
 71
     0
 72
     2
 73
     1
 90
        0
 40
-0.6
 41
-30.0
 62
     5
 63
     7
 74
     1
 91
        4
 64
     7
 65
   257
 75
     1
175
     1
 42
1.0
 92
        0
 66
   257
 43
1.0
 76
     1
 77
     6
 78
     2
 67
     7
 79
     5
170
     0
171
     0
290
     0
174
     0
 93
        1
 44
0.0
173
     0
291
     0
 45
0.0
1001
ACAD
1000
AcDbSavedByObjectVersion
1070
     0
  0
VISUALSTYLE
  5
F7
102
{ACAD_REACTORS
330
EF
102
}
330
EF
100
AcDbVisualStyle
  2
3D Hidden
 70
     6
 71
     1
 72
     2
 73
     2
 90
        0
 40
-0.6
 41
-30.0
 62
     5
 63
     7
 74
     2
 91
        2
 64
     7
 65
   257
 75
     2
175
     1
 42
40.0
 92
        0
 66
   257
 43
1.0
 76
     1
 77
     6
 78
     2
 67
     7
 79
     3
170
     0
171
     0
290
     0
174
     0
 93
        1
 44
0.0
173
     0
291
     0
 45
0.0
1001
ACAD
1000
AcDbSavedByObjectVersion
1070
     0
  0
VISUALSTYLE
  5
F6
102
{ACAD_REACTORS
330
EF
102
}
330
EF
100
AcDbVisualStyle
  2
3dWireframe
 70
     5
 71
     0
 72
     2
 73
     1
 90
        0
 40
-0.6
 41
-30.0
 62
     5
 63
     7
 74
     1
 91
        4
 64
     7
 65
   257
 75
     1
175
     1
 42
1.0
 92
        0
 66
   257
 43
1.0
 76
     1
 77
     6
 78
     2
 67
     7
 79
     5
170
     0
171
     0
290
     0
174
     0
 93
        1
 44
0.0
173
     0
291
     0
 45
0.0
1001
ACAD
1000
AcDbSavedByObjectVersion
1070
     0
  0
VISUALSTYLE
  5
F4
102
{ACAD_REACTORS
330
EF
102
}
330
EF
100
AcDbVisualStyle
  2
Basic
 70
     7
 71
     1
 72
     0
 73
     1
 90
        0
 40
-0.6
 41
-30.0
 62
     5
 63
     7
 74
     0
 91
        4
 64
     7
 65
   257
 75
     1
175
     1
 42
1.0
 92
        8
 66
     7
 43
1.0
 76
     1
 77
     6
 78
     2
 67
     7
 79
     5
170
     0
171
     0
290
     0
174
     0
 93
        1
 44
0.0
173
     0
291
     1
 45
0.0
1001
ACAD
1000
AcDbSavedByObjectVersion
1070
     0
  0
VISUALSTYLE
  5
FB
102
{ACAD_REACTORS
330
EF
102
}
330
EF
100
AcDbVisualStyle
  2
Brighten
 70
    12
 71
     2
 72
     2
 73
     1
 90
        0
 40
-0.6
 41
-30.0
 62
     5
 63
     7
 74
     1
 91
        4
 64
     7
 65
   257
 75
     1
175
     1
 42
1.0
 92
        8
 66
     7
 43
1.0
 76
     1
 77
     6
 78
     2
 67
     7
 79
     5
170
     0
171
     0
290
     0
174
     0
 93
        1
 44
50.0
173
     0
291
     1
 45
0.0
1001
ACAD
1000
AcDbSavedByObjectVersion
1070
     0
  0
VISUALSTYLE
  5
FF
102
{ACAD_REACTORS
330
EF
102
}
330
EF
100
AcDbVisualStyle
  2
ColorChange
 70
    16
 71
     2
 72
     2
 73
     3
 90
        0
 40
-0.6
 41
-30.0
 62
     5
 63
     8
 74
     1
 91
        4
 64
     7
 65
   257
 75
     1
175
     1
 42
1.0
 92
        8
 66
     8
 43
1.0
 76
     1
 77
     6
 78
     2
 67
     7
 79
     5
170
     0
171
     0
290
     0
174
     0
 93
        1
 44
0.0
173
     0
291
     1
 45
0.0
1001
ACAD
1000
AcDbSavedByObjectVersion
1070
     0
  0
VISUALSTYLE
  5
F8
102
{ACAD_REACTORS
330
EF
102
}
330
EF
100
AcDbVisualStyle
  2
Conceptual
 70
     9
 71
     3
 72
     2
 73
     1
 90
        0
 40
-0.6
 41
-30.0
 62
     5
 63
     7
 74
     2
 91
        2
 64
     7
 65
   257
 75
     1
175
     1
 42
40.0
 92
        8
 66
     7
 43
1.0
 76
     1
 77
     6
 78
     2
 67
     7
 79
     3
170
     0
171
     0
290
     0
174
     0
 93
        1
 44
0.0
173
     0
291
     0
 45
0.0
1001
ACAD
1000
AcDbSavedByObjectVersion
1070
     0
  0
VISUALSTYLE
  5
FA
102
{ACAD_REACTORS
330
EF
102
}
330
EF
100
AcDbVisualStyle
  2
Dim
 70
    11
 71
     2
 72
     2
 73
     1
 90
        0
 40
-0.6
 41
-30.0
 62
     5
 63
     7
 74
     1
 91
        4
 64
     7
 65
   257
 75
     1
175
     1
 42
1.0
 92
        8
 66
     7
 43
1.0
 76
     1
 77
     6
 78
     2
 67
     7
 79
     5
170
     0
171
     0
290
     0
174
     0
 93
        1
 44
-50.0
173
     0
291
     1
 45
0.0
1001
ACAD
1000
AcDbSavedByObjectVersion
1070
     0
  0
VISUALSTYLE
  5
FE
102
{ACAD_REACTORS
330
EF
102
}
330
EF
100
AcDbVisualStyle
  2
Facepattern
 70
    15
 71
     2
 72
     2
 73
     1
 90
        0
 40
-0.6
 41
-30.0
 62
     5
 63
     7
 74
     1
 91
        4
 64
     7
 65
   257
 75
     1
175
     1
 42
1.0
 92
        8
 66
     7
 43
1.0
 76
     1
 77
     6
 78
     2
 67
     7
 79
     5
170
     0
171
     0
290
     0
174
     0
 93
        1
 44
0.0
173
     0
291
     1
 45
0.0
1001
ACAD
1000
AcDbSavedByObjectVersion
1070
     0
  0
VISUALSTYLE
  5
F0
102
{ACAD_REACTORS
330
EF
102
}
330
EF
100
AcDbVisualStyle
  2
Flat
 70
     0
 71
     2
 72
     1
 73
     1
 90
        2
 40
-0.6
 41
30.0
 62
     5
 63
     7
 74
     0
 91
        4
 64
     7
 65
   257
 75
     1
175
     1
 42
1.0
 92
        8
 66
     7
 43
1.0
 76
     1
 77
     6
 78
     2
 67
     7
 79
     5
170
     0
171
     0
290
     0
174
     0
 93
        1
 44
0.0
173
     0
291
     1
 45
0.0
1001
ACAD
1000
AcDbSavedByObjectVersion
1070
     0
  0
VISUALSTYLE
  5
F1
102
{ACAD_REACTORS
330
EF
102
}
330
EF
100
AcDbVisualStyle
  2
FlatWithEdges
 70
     1
 71
     2
 72
     1
 73
     1
 90
        2
 40
-0.6
 41
30.0
 62
     5
 63
     7
 74
     1
 91
        4
 64
     7
 65
   257
 75
     1
175
     1
 42
1.0
 92
        0
 66
   257
 43
1.0
 76
     1
 77
     6
 78
     2
 67
     7
 79
     5
170
     0
171
     0
290
     0
174
     0
 93
        1
 44
0.0
173
     0
291
     1
 45
0.0
1001
ACAD
1000
AcDbSavedByObjectVersion
1070
     0
  0
VISUALSTYLE
  5
F2
102
{ACAD_REACTORS
330
EF
102
}
330
EF
100
AcDbVisualStyle
  2
Gouraud
 70
     2
 71
     2
 72
     2
 73
     1
 90
        2
 40
-0.6
 41
30.0
 62
     5
 63
     7
 74
     0
 91
        4
 64
     7
 65
   257
 75
     1
175
     1
 42
1.0
 92
        0
 66
     7
 43
1.0
 76
     1
 77
     6
 78
     2
 67
     7
 79
     5
170
     0
171
     0
290
     0
174
     0
 93
        1
 44
0.0
173
     0
291
     1
 45
0.0
1001
ACAD
1000
AcDbSavedByObjectVersion
1070
     0
  0
VISUALSTYLE
  5
F3
102
{ACAD_REACTORS
330
EF
102
}
330
EF
100
AcDbVisualStyle
  2
GouraudWithEdges
 70
     3
 71
     2
 72
     2
 73
     1
 90
        2
 40
-0.6
 41
30.0
 62
     5
 63
     7
 74
     1
 91
        4
 64
     7
 65
   257
 75
     1
175
     1
 42
1.0
 92
        0
 66
   257
 43
1.0
 76
     1
 77
     6
 78
     2
 67
     7
 79
     5
170
     0
171
     0
290
     0
174
     0
 93
        1
 44
0.0
173
     0
291
     1
 45
0.0
1001
ACAD
1000
AcDbSavedByObjectVersion
1070
     0
  0
VISUALSTYLE
  5
FD
102
{ACAD_REACTORS
330
EF
102
}
330
EF
100
AcDbVisualStyle
  2
Linepattern
 70
    14
 71
     2
 72
     2
 73
     1
 90
        0
 40
-0.6
 41
-30.0
 62
     5
 63
     7
 74
     1
 91
        4
 64
     7
 65
   257
 75
     7
175
     7
 42
1.0
 92
        8
 66
     7
 43
1.0
 76
     1
 77
     6
 78
     2
 67
     7
 79
     5
170
     0
171
     0
290
     0
174
     0
 93
        1
 44
0.0
173
     0
291
     1
 45
0.0
1001
ACAD
1000
AcDbSavedByObjectVersion
1070
     0
  0
VISUALSTYLE
  5
F9
102
{ACAD_REACTORS
330
EF
102
}
330
EF
100
AcDbVisualStyle
  2
Realistic
 70
     8
 71
     2
 72
     2
 73
     1
 90
        0
 40
-0.6
 41
-30.0
 62
     5
 63
     7
 74
     1
 91
        0
 64
     7
 65
   257
 75
     1
175
     1
 42
1.0
 92
        8
 66
     8
 43
1.0
 76
     1
 77
     6
 78
     2
 67
     7
 79
     5
170
     0
171
     0
290
     0
174
     0
 93
       13
 44
0.0
173
     0
291
     0
 45
0.0
1001
ACAD
1000
AcDbSavedByObjectVersion
1070
     0
  0
VISUALSTYLE
  5
FC
102
{ACAD_REACTORS
330
EF
102
}
330
EF
100
AcDbVisualStyle
  2
Thicken
 70
    13
 71
     2
 72
     2
 73
     1
 90
        0
 40
-0.6
 41
-30.0
 62
     5
 63
     7
 74
     1
 91
        4
 64
     7
 65
   257
 75
     1
175
     1
 42
1.0
 92
       12
 66
     7
 43
1.0
 76
     1
 77
     6
 78
     2
 67
     7
 79
     5
170
     0
171
     0
290
     0
174
     0
 93
        1
 44
0.0
173
     0
291
     1
 45
0.0
1001
ACAD
1000
AcDbSavedByObjectVersion
1070
     0
  0
DICTIONARYVAR
  5
146
102
{ACAD_REACTORS
330
5E
102
}
330
5E
100
DictionaryVariables
280
     0
  1
1:1
  0
DICTIONARYVAR
  5
145
102
{ACAD_REACTORS
330
5E
102
}
330
5E
100
DictionaryVariables
280
     0
  1
STANDARD
  0
DICTIONARYVAR
  5
84
102
{ACAD_REACTORS
330
5E
102
}
330
5E
100
DictionaryVariables
280
     0
  1
STANDARD
  0
DICTIONARYVAR
  5
5F
102
{ACAD_REACTORS
330
5E
102
}
330
5E
100
DictionaryVariables
280
     0
  1
2
  0
DICTIONARYVAR
  5
63
102
{ACAD_REACTORS
330
5E
102
}
330
5E
100
DictionaryVariables
280
     0
  1
1
  0
DICTIONARYVAR
  5
605
102
{ACAD_REACTORS
330
5E
102
}
330
5E
100
DictionaryVariables
280
     0
  1
0
  0
DICTIONARYVAR
  5
603
102
{ACAD_REACTORS
330
5E
102
}
330
5E
100
DictionaryVariables
280
     0
  1
2
  0
DICTIONARYVAR
  5
602
102
{ACAD_REACTORS
330
5E
102
}
330
5E
100
DictionaryVariables
280
     0
  1
1
  0
DICTIONARYVAR
  5
607
102
{ACAD_REACTORS
330
5E
102
}
330
5E
100
DictionaryVariables
280
     0
  1
80.000000
  0
DICTIONARYVAR
  5
606
102
{ACAD_REACTORS
330
5E
102
}
330
5E
100
DictionaryVariables
280
     0
  1
5.000000
  0
DICTIONARYVAR
  5
604
102
{ACAD_REACTORS
330
5E
102
}
330
5E
100
DictionaryVariables
280
     0
  1
127
  0
DICTIONARY
  5
60D
330
D3
100
AcDbDictionary
280
     1
281
     1
  3
ACAD_XREC_ROUNDTRIP
360
60E
  0
DICTIONARY
  5
60F
330
D7
100
AcDbDictionary
280
     1
281
     1
  3
ACAD_XREC_ROUNDTRIP
360
610
  0
DICTIONARY
  5
60A
330
22
100
AcDbDictionary
280
     1
281
     1
  3
ACAD_XREC_ROUNDTRIP
360
60B
  0
DICTIONARY
  5
613
330
ED
100
AcDbDictionary
280
     1
281
     1
  3
ACAD_XREC_ROUNDTRIP
360
614
  0
DICTIONARY
  5
611
330
EC
100
AcDbDictionary
280
     1
281
     1
  3
ACAD_XREC_ROUNDTRIP
360
612
  0
DICTIONARY
  5
173
330
EE
100
AcDbDictionary
280
     1
281
     1
  3
ACAD_XREC_ROUNDTRIP
360
615
  3
BUMPTILE
360
175
  3
DIFFUSETILE
360
174
  3
OPACITYTILE
360
176
  3
REFLECTIONTILE
360
177
  0
DICTIONARY
  5
162
330
7F
100
AcDbDictionary
280
     1
281
     1
  3
ACAD_ROUNDTRIP_2008_TABLESTYLE_CELLSTYLEMAP
360
608
  3
ACAD_XREC_ROUNDTRIP
360
60C
  0
XRECORD
  5
60E
102
{ACAD_REACTORS
330
60D
102
}
330
60D
100
AcDbXrecord
280
     1
102
SHADEPLOT
 70
     0
102
SHADEPLOTRESLEVEL
 70
     2
102
SHADEPLOTCUSTOMDPI
 70
   300
  0
XRECORD
  5
610
102
{ACAD_REACTORS
330
60F
102
}
330
60F
100
AcDbXrecord
280
     1
102
SHADEPLOT
 70
     0
102
SHADEPLOTRESLEVEL
 70
     2
102
SHADEPLOTCUSTOMDPI
 70
   300
  0
XRECORD
  5
60B
102
{ACAD_REACTORS
330
60A
102
}
330
60A
100
AcDbXrecord
280
     1
102
SHADEPLOT
 70
     0
102
SHADEPLOTRESLEVEL
 70
     2
102
SHADEPLOTCUSTOMDPI
 70
   300
  0
XRECORD
  5
614
102
{ACAD_REACTORS
330
613
102
}
330
613
100
AcDbXrecord
280
     1
102
MATERIAL
148
0.0
149
0.0
149
0.0
 93
        0
 94
       63
282
     0
 72
     1
 77
     1
171
     1
175
     1
179
     1
273
     0
  0
XRECORD
  5
612
102
{ACAD_REACTORS
330
611
102
}
330
611
100
AcDbXrecord
280
     1
102
MATERIAL
148
0.0
149
0.0
149
0.0
 93
        0
 94
       63
282
     0
 72
     1
 77
     1
171
     1
175
     1
179
     1
273
     0
  0
XRECORD
  5
615
102
{ACAD_REACTORS
330
173
102
}
330
173
100
AcDbXrecord
280
     1
102
MATERIAL
148
0.0
149
0.0
149
0.0
 93
        0
 94
       63
282
     0
 72
     1
 77
     1
171
     1
175
     1
179
     1
273
     0
  0
XRECORD
  5
175
102
{ACAD_REACTORS
330
173
102
}
330
173
100
AcDbXrecord
280
     1
270
     1
271
     1
  0
XRECORD
  5
174
102
{ACAD_REACTORS
330
173
102
}
330
173
100
AcDbXrecord
280
     1
270
     1
271
     1
  0
XRECORD
  5
176
102
{ACAD_REACTORS
330
173
102
}
330
173
100
AcDbXrecord
280
     1
270
     1
271
     1
  0
XRECORD
  5
177
102
{ACAD_REACTORS
330
173
102
}
330
173
100
AcDbXrecord
280
     1
270
     1
271
     1
  0
CELLSTYLEMAP
  5
608
102
{ACAD_REACTORS
330
162
102
}
330
162
100
AcDbCellStyleMap
 90
        3
300
CELLSTYLE
  1
TABLEFORMAT_BEGIN
 90
        5
170
     1
 91
        0
 92
    32768
 62
   257
 93
        1
300
CONTENTFORMAT
  1
CONTENTFORMAT_BEGIN
 90
        0
 91
        0
 92
      512
 93
        0
300

 40
0.0
140
1.0
 94
        5
 62
     0
340
11
144
6.0
309
CONTENTFORMAT_END
171
     1
301
MARGIN
  1
CELLMARGIN_BEGIN
 40
1.5
 40
1.5
 40
1.5
 40
1.5
 40
4.5
 40
4.5
309
CELLMARGIN_END
 94
        6
 95
        1
302
GRIDFORMAT
  1
GRIDFORMAT_BEGIN
 90
        0
 91
        1
 62
     0
 92
       -2
340
14
 93
        0
 40
1.125
309
GRIDFORMAT_END
 95
        2
302
GRIDFORMAT
  1
GRIDFORMAT_BEGIN
 90
        0
 91
        1
 62
     0
 92
       -2
340
14
 93
        0
 40
1.125
309
GRIDFORMAT_END
 95
        4
302
GRIDFORMAT
  1
GRIDFORMAT_BEGIN
 90
        0
 91
        1
 62
     0
 92
       -2
340
14
 93
        0
 40
1.125
309
GRIDFORMAT_END
 95
        8
302
GRIDFORMAT
  1
GRIDFORMAT_BEGIN
 90
        0
 91
        1
 62
     0
 92
       -2
340
14
 93
        0
 40
1.125
309
GRIDFORMAT_END
 95
       16
302
GRIDFORMAT
  1
GRIDFORMAT_BEGIN
 90
        0
 91
        1
 62
     0
 92
       -2
340
14
 93
        0
 40
1.125
309
GRIDFORMAT_END
 95
       32
302
GRIDFORMAT
  1
GRIDFORMAT_BEGIN
 90
        0
 91
        1
 62
     0
 92
       -2
340
14
 93
        0
 40
1.125
309
GRIDFORMAT_END
309
TABLEFORMAT_END
  1
CELLSTYLE_BEGIN
 90
        1
 91
        1
300
_TITLE
309
CELLSTYLE_END
300
CELLSTYLE
  1
TABLEFORMAT_BEGIN
 90
        5
170
     1
 91
        0
 92
        0
 62
   257
 93
        1
300
CONTENTFORMAT
  1
CONTENTFORMAT_BEGIN
 90
        0
 91
        0
 92
      512
 93
        0
300

 40
0.0
140
1.0
 94
        5
 62
     0
340
11
144
4.5
309
CONTENTFORMAT_END
171
     1
301
MARGIN
  1
CELLMARGIN_BEGIN
 40
1.5
 40
1.5
 40
1.5
 40
1.5
 40
4.5
 40
4.5
309
CELLMARGIN_END
 94
        6
 95
        1
302
GRIDFORMAT
  1
GRIDFORMAT_BEGIN
 90
        0
 91
        1
 62
     0
 92
       -2
340
14
 93
        0
 40
1.125
309
GRIDFORMAT_END
 95
        2
302
GRIDFORMAT
  1
GRIDFORMAT_BEGIN
 90
        0
 91
        1
 62
     0
 92
       -2
340
14
 93
        0
 40
1.125
309
GRIDFORMAT_END
 95
        4
302
GRIDFORMAT
  1
GRIDFORMAT_BEGIN
 90
        0
 91
        1
 62
     0
 92
       -2
340
14
 93
        0
 40
1.125
309
GRIDFORMAT_END
 95
        8
302
GRIDFORMAT
  1
GRIDFORMAT_BEGIN
 90
        0
 91
        1
 62
     0
 92
       -2
340
14
 93
        0
 40
1.125
309
GRIDFORMAT_END
 95
       16
302
GRIDFORMAT
  1
GRIDFORMAT_BEGIN
 90
        0
 91
        1
 62
     0
 92
       -2
340
14
 93
        0
 40
1.125
309
GRIDFORMAT_END
 95
       32
302
GRIDFORMAT
  1
GRIDFORMAT_BEGIN
 90
        0
 91
        1
 62
     0
 92
       -2
340
14
 93
        0
 40
1.125
309
GRIDFORMAT_END
309
TABLEFORMAT_END
  1
CELLSTYLE_BEGIN
 90
        2
 91
        1
300
_HEADER
309
CELLSTYLE_END
300
CELLSTYLE
  1
TABLEFORMAT_BEGIN
 90
        5
170
     1
 91
        0
 92
        0
 62
   257
 93
        1
300
CONTENTFORMAT
  1
CONTENTFORMAT_BEGIN
 90
        0
 91
        0
 92
      512
 93
        0
300

 40
0.0
140
1.0
 94
        2
 62
     0
340
11
144
4.5
309
CONTENTFORMAT_END
171
     1
301
MARGIN
  1
CELLMARGIN_BEGIN
 40
1.5
 40
1.5
 40
1.5
 40
1.5
 40
4.5
 40
4.5
309
CELLMARGIN_END
 94
        6
 95
        1
302
GRIDFORMAT
  1
GRIDFORMAT_BEGIN
 90
        0
 91
        1
 62
     0
 92
       -2
340
14
 93
        0
 40
1.125
309
GRIDFORMAT_END
 95
        2
302
GRIDFORMAT
  1
GRIDFORMAT_BEGIN
 90
        0
 91
        1
 62
     0
 92
       -2
340
14
 93
        0
 40
1.125
309
GRIDFORMAT_END
 95
        4
302
GRIDFORMAT
  1
GRIDFORMAT_BEGIN
 90
        0
 91
        1
 62
     0
 92
       -2
340
14
 93
        0
 40
1.125
309
GRIDFORMAT_END
 95
        8
302
GRIDFORMAT
  1
GRIDFORMAT_BEGIN
 90
        0
 91
        1
 62
     0
 92
       -2
340
14
 93
        0
 40
1.125
309
GRIDFORMAT_END
 95
       16
302
GRIDFORMAT
  1
GRIDFORMAT_BEGIN
 90
        0
 91
        1
 62
     0
 92
       -2
340
14
 93
        0
 40
1.125
309
GRIDFORMAT_END
 95
       32
302
GRIDFORMAT
  1
GRIDFORMAT_BEGIN
 90
        0
 91
        1
 62
     0
 92
       -2
340
14
 93
        0
 40
1.125
309
GRIDFORMAT_END
309
TABLEFORMAT_END
  1
CELLSTYLE_BEGIN
 90
        3
 91
        2
300
_DATA
309
CELLSTYLE_END
  0
XRECORD
  5
60C
102
{ACAD_REACTORS
330
162
102
}
330
162
100
AcDbXrecord
280
     1
102
ACAD_ROUNDTRIP_PRE2007_TABLESTYLE
 90
      512
 91
        0
  1

 92
      512
 93
        0
  2

 94
      512
 95
        0
  3

  0
ENDSEC
  0
EOF
