  0
SECTION
  2
HEADER
  9
$ACADVER
  1
AC1015
  9
$ACADMAINTVER
 70
    20
  9
$DWGCODEPAGE
  3
ANSI_1254
  9
$INSBASE
 10
0.0
 20
0.0
 30
0.0
  9
$EXTMIN
 10
2405.102242484257
 20
856.493158211918
 30
0.0
  9
$EXTMAX
 10
2547.197064168492
 20
898.9739094653835
 30
0.0
  9
$LIMMIN
 10
0.0
 20
0.0
  9
$LIMMAX
 10
420.0
 20
297.0
  9
$ORTHOMODE
 70
     1
  9
$REGENMODE
 70
     1
  9
$FILLMODE
 70
     1
  9
$QTEXTMODE
 70
     0
  9
$MIRRTEXT
 70
     0
  9
$LTSCALE
 40
1.0
  9
$ATTMODE
 70
     1
  9
$TEXTSIZE
 40
2.5
  9
$TRACEWID
 40
1.0
  9
$TEXTSTYLE
  7
Standard
  9
$CLAYER
  8
0
  9
$CELTYPE
  6
ByLayer
  9
$CECOLOR
 62
   256
  9
$CELTSCALE
 40
1.0
  9
$DISPSILH
 70
     0
  9
$DIMSCALE
 40
1.0
  9
$DIMASZ
 40
2.5
  9
$DIMEXO
 40
0.625
  9
$DIMDLI
 40
3.75
  9
$DIMRND
 40
0.0
  9
$DIMDLE
 40
0.0
  9
$DIMEXE
 40
1.25
  9
$DIMTP
 40
0.0
  9
$DIMTM
 40
0.0
  9
$DIMTXT
 40
2.5
  9
$DIMCEN
 40
2.5
  9
$DIMTSZ
 40
0.0
  9
$DIMTOL
 70
     0
  9
$DIMLIM
 70
     0
  9
$DIMTIH
 70
     0
  9
$DIMTOH
 70
     0
  9
$DIMSE1
 70
     0
  9
$DIMSE2
 70
     0
  9
$DIMTAD
 70
     1
  9
$DIMZIN
 70
     8
  9
$DIMBLK
  1

  9
$DIMASO
 70
     1
  9
$DIMSHO
 70
     1
  9
$DIMPOST
  1

  9
$DIMAPOST
  1

  9
$DIMALT
 70
     0
  9
$DIMALTD
 70
     3
  9
$DIMALTF
 40
0.03937007874016
  9
$DIMLFAC
 40
1.0
  9
$DIMTOFL
 70
     1
  9
$DIMTVP
 40
0.0
  9
$DIMTIX
 70
     0
  9
$DIMSOXD
 70
     0
  9
$DIMSAH
 70
     0
  9
$DIMBLK1
  1

  9
$DIMBLK2
  1

  9
$DIMSTYLE
  2
ISO-25
  9
$DIMCLRD
 70
     0
  9
$DIMCLRE
 70
     0
  9
$DIMCLRT
 70
     0
  9
$DIMTFAC
 40
1.0
  9
$DIMGAP
 40
0.625
  9
$DIMJUST
 70
     0
  9
$DIMSD1
 70
     0
  9
$DIMSD2
 70
     0
  9
$DIMTOLJ
 70
     0
  9
$DIMTZIN
 70
     8
  9
$DIMALTZ
 70
     0
  9
$DIMALTTZ
 70
     0
  9
$DIMUPT
 70
     0
  9
$DIMDEC
 70
     2
  9
$DIMTDEC
 70
     2
  9
$DIMALTU
 70
     2
  9
$DIMALTTD
 70
     3
  9
$DIMTXSTY
  7
Standard
  9
$DIMAUNIT
 70
     0
  9
$DIMADEC
 70
     0
  9
$DIMALTRND
 40
0.0
  9
$DIMAZIN
 70
     0
  9
$DIMDSEP
 70
    44
  9
$DIMATFIT
 70
     3
  9
$DIMFRAC
 70
     0
  9
$DIMLDRBLK
  1

  9
$DIMLUNIT
 70
     2
  9
$DIMLWD
 70
    -2
  9
$DIMLWE
 70
    -2
  9
$DIMTMOVE
 70
     0
  9
$LUNITS
 70
     2
  9
$LUPREC
 70
     4
  9
$SKETCHINC
 40
1.0
  9
$FILLETRAD
 40
0.0
  9
$AUNITS
 70
     0
  9
$AUPREC
 70
     0
  9
$MENU
  1
.
  9
$ELEVATION
 40
0.0
  9
$PELEVATION
 40
0.0
  9
$THICKNESS
 40
0.0
  9
$LIMCHECK
 70
     0
  9
$CHAMFERA
 40
0.0
  9
$CHAMFERB
 40
0.0
  9
$CHAMFERC
 40
0.0
  9
$CHAMFERD
 40
0.0
  9
$SKPOLY
 70
     0
  9
$TDCREATE
 40
2458929.545061111
  9
$TDUCREATE
 40
2458929.420061111
  9
$TDUPDATE
 40
2458956.437543426
  9
$TDUUPDATE
 40
2458956.312543426
  9
$TDINDWG
 40
0.0218669329
  9
$TDUSRTIMER
 40
0.0218667477
  9
$USRTIMER
 70
     1
  9
$ANGBASE
 50
0.0
  9
$ANGDIR
 70
     0
  9
$PDMODE
 70
     0
  9
$PDSIZE
 40
0.0
  9
$PLINEWID
 40
0.0
  9
$SPLFRAME
 70
     0
  9
$SPLINETYPE
 70
     6
  9
$SPLINESEGS
 70
     8
  9
$HANDSEED
  5
DD7
  9
$SURFTAB1
 70
     6
  9
$SURFTAB2
 70
     6
  9
$SURFTYPE
 70
     6
  9
$SURFU
 70
     6
  9
$SURFV
 70
     6
  9
$UCSBASE
  2

  9
$UCSNAME
  2

  9
$UCSORG
 10
0.0
 20
0.0
 30
0.0
  9
$UCSXDIR
 10
1.0
 20
0.0
 30
0.0
  9
$UCSYDIR
 10
0.0
 20
1.0
 30
0.0
  9
$UCSORTHOREF
  2

  9
$UCSORTHOVIEW
 70
     0
  9
$UCSORGTOP
 10
0.0
 20
0.0
 30
0.0
  9
$UCSORGBOTTOM
 10
0.0
 20
0.0
 30
0.0
  9
$UCSORGLEFT
 10
0.0
 20
0.0
 30
0.0
  9
$UCSORGRIGHT
 10
0.0
 20
0.0
 30
0.0
  9
$UCSORGFRONT
 10
0.0
 20
0.0
 30
0.0
  9
$UCSORGBACK
 10
0.0
 20
0.0
 30
0.0
  9
$PUCSBASE
  2

  9
$PUCSNAME
  2

  9
$PUCSORG
 10
0.0
 20
0.0
 30
0.0
  9
$PUCSXDIR
 10
1.0
 20
0.0
 30
0.0
  9
$PUCSYDIR
 10
0.0
 20
1.0
 30
0.0
  9
$PUCSORTHOREF
  2

  9
$PUCSORTHOVIEW
 70
     0
  9
$PUCSORGTOP
 10
0.0
 20
0.0
 30
0.0
  9
$PUCSORGBOTTOM
 10
0.0
 20
0.0
 30
0.0
  9
$PUCSORGLEFT
 10
0.0
 20
0.0
 30
0.0
  9
$PUCSORGRIGHT
 10
0.0
 20
0.0
 30
0.0
  9
$PUCSORGFRONT
 10
0.0
 20
0.0
 30
0.0
  9
$PUCSORGBACK
 10
0.0
 20
0.0
 30
0.0
  9
$USERI1
 70
     0
  9
$USERI2
 70
     0
  9
$USERI3
 70
     0
  9
$USERI4
 70
     0
  9
$USERI5
 70
     0
  9
$USERR1
 40
0.0
  9
$USERR2
 40
0.0
  9
$USERR3
 40
0.0
  9
$USERR4
 40
0.0
  9
$USERR5
 40
0.0
  9
$WORLDVIEW
 70
     1
  9
$SHADEDGE
 70
     3
  9
$SHADEDIF
 70
    70
  9
$TILEMODE
 70
     1
  9
$MAXACTVP
 70
    64
  9
$PINSBASE
 10
0.0
 20
0.0
 30
0.0
  9
$PLIMCHECK
 70
     0
  9
$PEXTMIN
 10
0.0
 20
0.0
 30
0.0
  9
$PEXTMAX
 10
0.0
 20
0.0
 30
0.0
  9
$PLIMMIN
 10
0.0
 20
0.0
  9
$PLIMMAX
 10
12.0
 20
9.0
  9
$UNITMODE
 70
     0
  9
$VISRETAIN
 70
     1
  9
$PLINEGEN
 70
     0
  9
$PSLTSCALE
 70
     1
  9
$TREEDEPTH
 70
  3020
  9
$CMLSTYLE
  2
Standard
  9
$CMLJUST
 70
     0
  9
$CMLSCALE
 40
20.0
  9
$PROXYGRAPHICS
 70
     1
  9
$MEASUREMENT
 70
     1
  9
$CELWEIGHT
370
    -1
  9
$ENDCAPS
280
     0
  9
$JOINSTYLE
280
     0
  9
$LWDISPLAY
290
     0
  9
$INSUNITS
 70
     4
  9
$HYPERLINKBASE
  1

  9
$STYLESHEET
  1

  9
$XEDIT
290
     1
  9
$CEPSNTYPE
380
     0
  9
$PSTYLEMODE
290
     1
  9
$FINGERPRINTGUID
  2
{9D7D8EAF-396F-4362-B878-BB79C7BA4A29}
  9
$VERSIONGUID
  2
{211E6DF7-6A73-469D-BE06-E86C52728B6A}
  9
$EXTNAMES
290
     1
  9
$PSVPSCALE
 40
0.0
  9
$OLESTARTUP
290
     0
  0
ENDSEC
  0
SECTION
  2
CLASSES
  0
CLASS
  1
ACDBDICTIONARYWDFLT
  2
AcDbDictionaryWithDefault
  3
ObjectDBX Classes
 90
        0
280
     0
281
     0
  0
CLASS
  1
ACDBPLACEHOLDER
  2
AcDbPlaceHolder
  3
ObjectDBX Classes
 90
        0
280
     0
281
     0
  0
CLASS
  1
LAYOUT
  2
AcDbLayout
  3
ObjectDBX Classes
 90
        0
280
     0
281
     0
  0
CLASS
  1
DICTIONARYVAR
  2
AcDbDictionaryVar
  3
ObjectDBX Classes
 90
        0
280
     0
281
     0
  0
CLASS
  1
TABLESTYLE
  2
AcDbTableStyle
  3
ObjectDBX Classes
 90
     4095
280
     0
281
     0
  0
CLASS
  1
MATERIAL
  2
AcDbMaterial
  3
ObjectDBX Classes
 90
     1153
280
     0
281
     0
  0
CLASS
  1
VISUALSTYLE
  2
AcDbVisualStyle
  3
ObjectDBX Classes
 90
     4095
280
     0
281
     0
  0
CLASS
  1
SCALE
  2
AcDbScale
  3
ObjectDBX Classes
 90
     1153
280
     0
281
     0
  0
CLASS
  1
MLEADERSTYLE
  2
AcDbMLeaderStyle
  3
ACDB_MLEADERSTYLE_CLASS
 90
     4095
280
     0
281
     0
  0
CLASS
  1
CELLSTYLEMAP
  2
AcDbCellStyleMap
  3
ObjectDBX Classes
 90
     1152
280
     0
281
     0
  0
CLASS
  1
ACAD_EVALUATION_GRAPH
  2
AcDbEvalGraph
  3
ObjectDBX Classes
 90
    33921
280
     0
281
     0
  0
CLASS
  1
ACAECUSTOBJ
  2
AcAeEditorObj
  3
AcAeEditorObj
 90
    33792
280
     0
281
     0
  0
CLASS
  1
ACDB_DYNAMICBLOCKPURGEPREVENTER_VERSION
  2
AcDbDynamicBlockPurgePreventer
  3
ObjectDBX Classes
 90
    33921
280
     0
281
     0
  0
CLASS
  1
SORTENTSTABLE
  2
AcDbSortentsTable
  3
ObjectDBX Classes
 90
        0
280
     0
281
     0
  0
ENDSEC
  0
SECTION
  2
TABLES
  0
TABLE
  2
VPORT
  5
8
330
0
100
AcDbSymbolTable
 70
     1
  0
VPORT
  5
EA
330
8
100
AcDbSymbolTableRecord
100
AcDbViewportTableRecord
  2
*Active
 70
     0
 10
0.0
 20
0.0
 11
1.0
 21
1.0
 12
2519.390353509159
 22
898.6600422495186
 13
0.0
 23
0.0
 14
10.0
 24
10.0
 15
10.0
 25
10.0
 16
0.0
 26
0.0
 36
1.0
 17
0.0
 27
0.0
 37
0.0
 40
168.5923913666931
 41
1.903110047846889
 42
50.0
 43
0.0
 44
0.0
 50
0.0
 51
0.0
 71
     0
 72
  1000
 73
     1
 74
     3
 75
     0
 76
     0
 77
     0
 78
     0
281
     0
 65
     1
110
0.0
120
0.0
130
0.0
111
1.0
121
0.0
131
0.0
112
0.0
122
1.0
132
0.0
 79
     0
146
0.0
  0
ENDTAB
  0
TABLE
  2
LTYPE
  5
5
330
0
100
AcDbSymbolTable
 70
     1
  0
LTYPE
  5
14
330
5
100
AcDbSymbolTableRecord
100
AcDbLinetypeTableRecord
  2
ByBlock
 70
     0
  3

 72
    65
 73
     0
 40
0.0
  0
LTYPE
  5
15
330
5
100
AcDbSymbolTableRecord
100
AcDbLinetypeTableRecord
  2
ByLayer
 70
     0
  3

 72
    65
 73
     0
 40
0.0
  0
LTYPE
  5
16
330
5
100
AcDbSymbolTableRecord
100
AcDbLinetypeTableRecord
  2
Continuous
 70
     0
  3
Solid line
 72
    65
 73
     0
 40
0.0
  0
ENDTAB
  0
TABLE
  2
LAYER
  5
2
330
0
100
AcDbSymbolTable
 70
     1
  0
LAYER
  5
10
102
{ACAD_XDICTIONARY
360
13C
102
}
330
2
100
AcDbSymbolTableRecord
100
AcDbLayerTableRecord
  2
0
 70
     0
 62
     7
  6
Continuous
370
    -3
390
F
  0
ENDTAB
  0
TABLE
  2
STYLE
  5
3
330
0
100
AcDbSymbolTable
 70
     2
  0
STYLE
  5
11
330
3
100
AcDbSymbolTableRecord
100
AcDbTextStyleTableRecord
  2
Standard
 70
     0
 40
0.0
 41
1.0
 50
0.0
 71
     0
 42
2.5
  3
txt
  4

  0
STYLE
  5
132
330
3
100
AcDbSymbolTableRecord
100
AcDbTextStyleTableRecord
  2
Annotative
 70
     0
 40
0.0
 41
1.0
 50
0.0
 71
     0
 42
2.5
  3
txt.shx
  4

1001
AcadAnnotative
1000
AnnotativeData
1002
{
1070
     1
1070
     1
1002
}
  0
ENDTAB
  0
TABLE
  2
VIEW
  5
6
330
0
100
AcDbSymbolTable
 70
     0
  0
ENDTAB
  0
TABLE
  2
UCS
  5
7
330
0
100
AcDbSymbolTable
 70
     0
  0
ENDTAB
  0
TABLE
  2
APPID
  5
9
330
0
100
AcDbSymbolTable
 70
    12
  0
APPID
  5
12
330
9
100
AcDbSymbolTableRecord
100
AcDbRegAppTableRecord
  2
ACAD
 70
     0
  0
APPID
  5
9E
330
9
100
AcDbSymbolTableRecord
100
AcDbRegAppTableRecord
  2
ACAD_PSEXT
 70
     0
  0
APPID
  5
133
330
9
100
AcDbSymbolTableRecord
100
AcDbRegAppTableRecord
  2
AcadAnnoPO
 70
     0
  0
APPID
  5
134
330
9
100
AcDbSymbolTableRecord
100
AcDbRegAppTableRecord
  2
AcadAnnotative
 70
     0
  0
APPID
  5
135
330
9
100
AcDbSymbolTableRecord
100
AcDbRegAppTableRecord
  2
ACAD_DSTYLE_DIMJAG
 70
     0
  0
APPID
  5
136
330
9
100
AcDbSymbolTableRecord
100
AcDbRegAppTableRecord
  2
ACAD_DSTYLE_DIMTALN
 70
     0
  0
APPID
  5
165
330
9
100
AcDbSymbolTableRecord
100
AcDbRegAppTableRecord
  2
ACAD_MLEADERVER
 70
     0
  0
APPID
  5
4E8
330
9
100
AcDbSymbolTableRecord
100
AcDbRegAppTableRecord
  2
ACAUTHENVIRON
 70
     0
  0
APPID
  5
50E
330
9
100
AcDbSymbolTableRecord
100
AcDbRegAppTableRecord
  2
ACAD_EXEMPT_FROM_CAD_STANDARDS
 70
     0
  0
APPID
  5
514
330
9
100
AcDbSymbolTableRecord
100
AcDbRegAppTableRecord
  2
AcDbDynamicBlockTrueName
 70
     0
  0
APPID
  5
515
330
9
100
AcDbSymbolTableRecord
100
AcDbRegAppTableRecord
  2
AcDbDynamicBlockGUID
 70
     0
  0
APPID
  5
517
330
9
100
AcDbSymbolTableRecord
100
AcDbRegAppTableRecord
  2
AcDbBlockRepETag
 70
     0
  0
ENDTAB
  0
TABLE
  2
DIMSTYLE
  5
A
330
0
100
AcDbSymbolTable
 70
     2
100
AcDbDimStyleTable
 71
     2
340
27
340
137
  0
DIMSTYLE
105
27
330
A
100
AcDbSymbolTableRecord
100
AcDbDimStyleTableRecord
  2
ISO-25
 70
     0
 41
2.5
 42
0.625
 43
3.75
 44
1.25
 73
     0
 74
     0
 77
     1
 78
     8
140
2.5
141
2.5
143
0.03937007874016
147
0.625
171
     3
172
     1
271
     2
272
     2
274
     3
278
    44
283
     0
284
     8
340
11
  0
DIMSTYLE
105
137
330
A
100
AcDbSymbolTableRecord
100
AcDbDimStyleTableRecord
  2
Annotative
 70
     0
 40
0.0
 41
2.5
 42
0.625
 43
3.75
 44
1.25
 73
     0
 74
     0
 77
     1
 78
     8
140
2.5
141
2.5
143
0.03937007874016
147
0.625
171
     3
172
     1
271
     2
272
     2
274
     3
278
    44
283
     0
284
     8
340
11
1001
AcadAnnotative
1000
AnnotativeData
1002
{
1070
     1
1070
     1
1002
}
1001
ACAD_DSTYLE_DIMJAG
1070
   388
1040
1.5
1001
ACAD_DSTYLE_DIMTALN
1070
   392
1070
     0
  0
ENDTAB
  0
TABLE
  2
BLOCK_RECORD
  5
1
330
0
100
AcDbSymbolTable
 70
     5
  0
BLOCK_RECORD
  5
1F
330
1
100
AcDbSymbolTableRecord
100
AcDbBlockTableRecord
  2
*Model_Space
340
22
  0
BLOCK_RECORD
  5
D2
330
1
100
AcDbSymbolTableRecord
100
AcDbBlockTableRecord
  2
*Paper_Space
340
D3
  0
BLOCK_RECORD
  5
D6
330
1
100
AcDbSymbolTableRecord
100
AcDbBlockTableRecord
  2
*Paper_Space0
340
D7
  0
BLOCK_RECORD
  5
397
102
{ACAD_XDICTIONARY
360
D8A
102
}
330
1
100
AcDbSymbolTableRecord
100
AcDbBlockTableRecord
  2
1
340
0
310
2800000020000000200000000100080000000000000400000000000000000000000000000000000000000000000080000080000000808000800000008000800080800000C0C0C000C0DCC000F0CAA6000020400000206000002080000020A0000020C0000020E00000400000004020000040400000406000004080000040A0
310
000040C0000040E00000600000006020000060400000606000006080000060A0000060C0000060E00000800000008020000080400000806000008080000080A0000080C0000080E00000A0000000A0200000A0400000A0600000A0800000A0A00000A0C00000A0E00000C0000000C0200000C0400000C0600000C0800000C0
310
A00000C0C00000C0E00000E0000000E0200000E0400000E0600000E0800000E0A00000E0C00000E0E00040000000400020004000400040006000400080004000A0004000C0004000E00040200000402020004020400040206000402080004020A0004020C0004020E000404000004040200040404000404060004040800040
310
40A0004040C0004040E00040600000406020004060400040606000406080004060A0004060C0004060E00040800000408020004080400040806000408080004080A0004080C0004080E00040A0000040A0200040A0400040A0600040A0800040A0A00040A0C00040A0E00040C0000040C0200040C0400040C0600040C08000
310
40C0A00040C0C00040C0E00040E0000040E0200040E0400040E0600040E0800040E0A00040E0C00040E0E00080000000800020008000400080006000800080008000A0008000C0008000E00080200000802020008020400080206000802080008020A0008020C0008020E00080400000804020008040400080406000804080
310
008040A0008040C0008040E00080600000806020008060400080606000806080008060A0008060C0008060E00080800000808020008080400080806000808080008080A0008080C0008080E00080A0000080A0200080A0400080A0600080A0800080A0A00080A0C00080A0E00080C0000080C0200080C0400080C0600080C0
310
800080C0A00080C0C00080C0E00080E0000080E0200080E0400080E0600080E0800080E0A00080E0C00080E0E000C0000000C0002000C0004000C0006000C0008000C000A000C000C000C000E000C0200000C0202000C0204000C0206000C0208000C020A000C020C000C020E000C0400000C0402000C0404000C0406000C0
310
408000C040A000C040C000C040E000C0600000C0602000C0604000C0606000C0608000C060A000C060C000C060E000C0800000C0802000C0804000C0806000C0808000C080A000C080C000C080E000C0A00000C0A02000C0A04000C0A06000C0A08000C0A0A000C0A0C000C0A0E000C0C00000C0C02000C0C04000C0C06000
310
C0C08000C0C0A000F0FBFF00A4A0A000808080000000FF0000FF000000FFFF00FF000000FF00FF00FFFF0000FFFFFF000000000000000000000000000000000000000000000000000000000000000000000000000000000000000000FFFF00000000FFFF0000000000000000000000000000000000000000000000FF0000FF
310
0000FF0000FF00000000000000000000000000000000000000000000FF0000FF0000FF0000FF00000000000000000000000000000000000000000000FF0000FF0000FF0000FF00000000000000000000000000000000000000000000FF0000FF0000FF0000FF00000000000000000000000000000000000000000000FF0000
310
FF0000FF0000FF00000000000000000000000000000000000000000000FF0000FF0000FF0000FF00000000000000000000000000000000000000000000FF0000FF0000FF0000FF00000000000000000000000000000000000000000000FF0000FF0000FF0000FF00000000000000000000000000000000000000000000FF00
310
00FF0000FF0000FF00000000000000000000000000000000000000000000FFFFFFFF0000FFFFFFFF00000000000000000000000000000000000000000000FFFFFFFF0000FFFFFFFF00000000000000000000000000000000000000000000FFFFFFFF0000FFFFFFFF00000000000000000000000000000000000000000000FF
310
0000FF0000FF0000FF00000000000000000000000000000000000000000000FF0000FF0000FF0000FF00000000000000000000000000000000000000000000FF0000FF0000FF0000FF00000000000000000000000000000000000000000000FF0000FF0000FF0000FF00000000000000000000000000000000000000000000
310
FF0000FF0000FF0000FF00000000000000000000000000000000000000000000FFFFFFFF0000FFFFFFFF00000000000000000000000000000000000000000000FFFFFFFF0000FFFFFFFF00000000000000000000000000000000000000000000FF0000FF0000FF0000FF000000000000000000000000000000000000000000
310
00FF0000FF0000FF0000FF000000000000000000000000000000000000000000FFFF0000FFFFFFFF0000FFFF0000000000000000000000000000000000000000FF00000000000000000000FF0000000000000000000000000000000000000000FF00000000000000000000FF00000000000000000000000000000000000000
310
00FF00000000000000000000FF0000000000000000000000000000000000000000FF00000000000000000000FF0000000000000000000000000000000000000000FFFFFFFFFFFFFFFFFFFFFFFF0000000000000000000000000000000000000000FF00000000000000000000FF000000000000000000000000000000000000
310
0000FFFFFFFFFFFFFFFFFFFFFFFF000000000000000000000000000000000000000000000000000000000000000000000000000000000000
102
{BLKREFS
331
3DF
102
}
1001
AcDbDynamicBlockGUID
1000
{9DF9F339-8645-4284-BD05-5A7DA8207D36}
1001
AcDbBlockRepETag
1070
     1
1071
      319
1001
ACAD
1000
DesignCenter Data
1002
{
1070
     1
1070
     4
1002
}
  0
BLOCK_RECORD
  5
3E0
102
{ACAD_XDICTIONARY
360
DBA
102
}
330
1
100
AcDbSymbolTableRecord
100
AcDbBlockTableRecord
  2
2
340
0
310
2800000020000000200000000100080000000000000400000000000000000000000000000000000000000000000080000080000000808000800000008000800080800000C0C0C000C0DCC000F0CAA6000020400000206000002080000020A0000020C0000020E00000400000004020000040400000406000004080000040A0
310
000040C0000040E00000600000006020000060400000606000006080000060A0000060C0000060E00000800000008020000080400000806000008080000080A0000080C0000080E00000A0000000A0200000A0400000A0600000A0800000A0A00000A0C00000A0E00000C0000000C0200000C0400000C0600000C0800000C0
310
A00000C0C00000C0E00000E0000000E0200000E0400000E0600000E0800000E0A00000E0C00000E0E00040000000400020004000400040006000400080004000A0004000C0004000E00040200000402020004020400040206000402080004020A0004020C0004020E000404000004040200040404000404060004040800040
310
40A0004040C0004040E00040600000406020004060400040606000406080004060A0004060C0004060E00040800000408020004080400040806000408080004080A0004080C0004080E00040A0000040A0200040A0400040A0600040A0800040A0A00040A0C00040A0E00040C0000040C0200040C0400040C0600040C08000
310
40C0A00040C0C00040C0E00040E0000040E0200040E0400040E0600040E0800040E0A00040E0C00040E0E00080000000800020008000400080006000800080008000A0008000C0008000E00080200000802020008020400080206000802080008020A0008020C0008020E00080400000804020008040400080406000804080
310
008040A0008040C0008040E00080600000806020008060400080606000806080008060A0008060C0008060E00080800000808020008080400080806000808080008080A0008080C0008080E00080A0000080A0200080A0400080A0600080A0800080A0A00080A0C00080A0E00080C0000080C0200080C0400080C0600080C0
310
800080C0A00080C0C00080C0E00080E0000080E0200080E0400080E0600080E0800080E0A00080E0C00080E0E000C0000000C0002000C0004000C0006000C0008000C000A000C000C000C000E000C0200000C0202000C0204000C0206000C0208000C020A000C020C000C020E000C0400000C0402000C0404000C0406000C0
310
408000C040A000C040C000C040E000C0600000C0602000C0604000C0606000C0608000C060A000C060C000C060E000C0800000C0802000C0804000C0806000C0808000C080A000C080C000C080E000C0A00000C0A02000C0A04000C0A06000C0A08000C0A0A000C0A0C000C0A0E000C0C00000C0C02000C0C04000C0C06000
310
C0C08000C0C0A000F0FBFF00A4A0A000808080000000FF0000FF000000FFFF00FF000000FF00FF00FFFF0000FFFFFF0000000000000000000000000000000000000000000000000000000000000000000000000000000000000000000000FFFFFFFF00000000000000000000000000000000000000000000000000000000FF
310
FFFFFF00000000000000000000000000000000000000000000000000000000FF0000FF00000000000000000000000000000000000000000000000000000000FFFFFFFF00000000000000000000000000000000000000000000000000000000FF0000FF00000000000000000000000000000000000000000000000000000000
310
FF0000FF00000000000000000000000000000000000000000000000000000000FF0000FF00000000000000000000000000000000000000000000000000000000FF0000FF00000000000000000000000000000000000000000000000000000000FF0000FF000000000000000000000000000000000000000000000000000000
310
00FF0000FF00000000000000000000000000000000000000000000000000000000FF0000FF00000000000000000000000000000000000000000000000000000000FFFFFFFF00000000000000000000000000000000000000000000000000000000FFFFFFFF0000000000000000000000000000000000000000000000000000
310
0000FF0000FF00000000000000000000000000000000000000000000000000000000FFFFFFFF00000000000000000000000000000000000000000000000000000000FF0000FF00000000000000000000000000000000000000000000000000000000FF0000FF00000000000000000000000000000000000000000000000000
310
000000FF0000FF00000000000000000000000000000000000000000000000000000000FF0000FF00000000000000000000000000000000000000000000000000000000FF0000FF00000000000000000000000000000000000000000000000000000000FF0000FF000000000000000000000000000000000000000000000000
310
00000000FF0000FF00000000000000000000000000000000000000000000000000000000FFFFFFFF00000000000000000000000000000000000000000000000000000000FF0000FF00000000000000000000000000000000000000000000000000000000FF0000FF0000000000000000000000000000000000000000000000
310
0000000000FF0000FF00000000000000000000000000000000000000000000000000000000FF0000FF000000000000000000000000000000000000000000000000000000FFFF0000FFFF0000000000000000000000000000000000000000000000000000FF00000000FF000000000000000000000000000000000000000000
310
0000000000FFFFFFFFFFFF000000000000000000000000000000000000000000000000000000000000000000000000000000000000000000
102
{BLKREFS
331
40C
102
}
1001
AcDbDynamicBlockGUID
1000
{59160887-E084-4F82-B085-5A894B9A5202}
1001
AcDbBlockRepETag
1070
     1
1071
       41
1001
ACAD
1000
DesignCenter Data
1002
{
1070
     1
1070
     4
1002
}
  0
BLOCK_RECORD
  5
40D
102
{ACAD_XDICTIONARY
360
99C
102
}
330
1
100
AcDbSymbolTableRecord
100
AcDbBlockTableRecord
  2
3
340
0
310
2800000020000000200000000100080000000000000400000000000000000000000000000000000000000000000080000080000000808000800000008000800080800000C0C0C000C0DCC000F0CAA6000020400000206000002080000020A0000020C0000020E00000400000004020000040400000406000004080000040A0
310
000040C0000040E00000600000006020000060400000606000006080000060A0000060C0000060E00000800000008020000080400000806000008080000080A0000080C0000080E00000A0000000A0200000A0400000A0600000A0800000A0A00000A0C00000A0E00000C0000000C0200000C0400000C0600000C0800000C0
310
A00000C0C00000C0E00000E0000000E0200000E0400000E0600000E0800000E0A00000E0C00000E0E00040000000400020004000400040006000400080004000A0004000C0004000E00040200000402020004020400040206000402080004020A0004020C0004020E000404000004040200040404000404060004040800040
310
40A0004040C0004040E00040600000406020004060400040606000406080004060A0004060C0004060E00040800000408020004080400040806000408080004080A0004080C0004080E00040A0000040A0200040A0400040A0600040A0800040A0A00040A0C00040A0E00040C0000040C0200040C0400040C0600040C08000
310
40C0A00040C0C00040C0E00040E0000040E0200040E0400040E0600040E0800040E0A00040E0C00040E0E00080000000800020008000400080006000800080008000A0008000C0008000E00080200000802020008020400080206000802080008020A0008020C0008020E00080400000804020008040400080406000804080
310
008040A0008040C0008040E00080600000806020008060400080606000806080008060A0008060C0008060E00080800000808020008080400080806000808080008080A0008080C0008080E00080A0000080A0200080A0400080A0600080A0800080A0A00080A0C00080A0E00080C0000080C0200080C0400080C0600080C0
310
800080C0A00080C0C00080C0E00080E0000080E0200080E0400080E0600080E0800080E0A00080E0C00080E0E000C0000000C0002000C0004000C0006000C0008000C000A000C000C000C000E000C0200000C0202000C0204000C0206000C0208000C020A000C020C000C020E000C0400000C0402000C0404000C0406000C0
310
408000C040A000C040C000C040E000C0600000C0602000C0604000C0606000C0608000C060A000C060C000C060E000C0800000C0802000C0804000C0806000C0808000C080A000C080C000C080E000C0A00000C0A02000C0A04000C0A06000C0A08000C0A0A000C0A0C000C0A0E000C0C00000C0C02000C0C04000C0C06000
310
C0C08000C0C0A000F0FBFF00A4A0A000808080000000FF0000FF000000FFFF00FF000000FF00FF00FFFF0000FFFFFF0000000000000000000000000000000000000000000000000000000000000000000000000000000000000000000000000000000000000000000000000000000000000000000000000000000000000000
310
00000000000000000000000000000000000000000000000000000000000000000000000000000000000000000000000000000000000000000000000000000000000000000000000000000000000000000000000000000000000000000000000000000000000000000000000000000000000000000000000000000000000000
310
00000000000000000000000000000000000000000000000000000000000000000000000000000000000000000000000000000000000000000000000000000000000000000000000000000000000000000000000000000000000000000000000000000000000000000000000000000000000000FFFFFFFFFFFFFFFFFFFFFFFF
310
FFFFFFFFFFFFFFFFFFFFFFFFFFFFFFFFFFFF0000FF00000000000000000000000000000000000000000000000000000000FF0000FF00000000000000000000000000000000000000000000000000000000FF0000FF00000000000000000000000000000000000000000000000000000000FF0000FF00000000000000000000
310
000000000000000000000000000000000000FF0000FF00000000000000000000000000000000000000000000000000000000FF0000FF00000000000000000000000000000000000000000000000000000000FF0000FF00000000000000000000000000000000000000000000000000000000FF0000FF000000000000000000
310
00000000000000000000000000000000000000FF0000FF00000000000000000000000000000000000000000000000000000000FF0000FF00000000000000000000000000000000000000000000000000000000FF0000FFFFFFFFFFFFFFFFFFFFFFFFFFFFFFFFFFFFFFFFFFFFFFFFFFFFFFFFFFFF0000000000000000000000
310
00000000000000000000000000000000000000000000000000000000000000000000000000000000000000000000000000000000000000000000000000000000000000000000000000000000000000000000000000000000000000000000000000000000000000000000000000000000000000000000000000000000000000
310
00000000000000000000000000000000000000000000000000000000000000000000000000000000000000000000000000000000000000000000000000000000000000000000000000000000000000000000000000000000000000000000000000000000000000000000000000000000000000000000000000000000000000
310
0000000000000000000000000000000000000000000000000000000000000000000000000000000000000000000000000000000000000000
102
{BLKREFS
331
414
102
}
1001
AcDbDynamicBlockGUID
1000
{095AC792-9CF7-4AC3-A7C4-C7815E648189}
1001
AcDbBlockRepETag
1070
     1
1071
        6
1001
ACAD
1000
DesignCenter Data
1002
{
1070
     1
1070
     4
1002
}
  0
BLOCK_RECORD
  5
415
102
{ACAD_XDICTIONARY
360
A9D
102
}
330
1
100
AcDbSymbolTableRecord
100
AcDbBlockTableRecord
  2
4
340
0
310
2800000020000000200000000100080000000000000400000000000000000000000000000000000000000000000080000080000000808000800000008000800080800000C0C0C000C0DCC000F0CAA6000020400000206000002080000020A0000020C0000020E00000400000004020000040400000406000004080000040A0
310
000040C0000040E00000600000006020000060400000606000006080000060A0000060C0000060E00000800000008020000080400000806000008080000080A0000080C0000080E00000A0000000A0200000A0400000A0600000A0800000A0A00000A0C00000A0E00000C0000000C0200000C0400000C0600000C0800000C0
310
A00000C0C00000C0E00000E0000000E0200000E0400000E0600000E0800000E0A00000E0C00000E0E00040000000400020004000400040006000400080004000A0004000C0004000E00040200000402020004020400040206000402080004020A0004020C0004020E000404000004040200040404000404060004040800040
310
40A0004040C0004040E00040600000406020004060400040606000406080004060A0004060C0004060E00040800000408020004080400040806000408080004080A0004080C0004080E00040A0000040A0200040A0400040A0600040A0800040A0A00040A0C00040A0E00040C0000040C0200040C0400040C0600040C08000
310
40C0A00040C0C00040C0E00040E0000040E0200040E0400040E0600040E0800040E0A00040E0C00040E0E00080000000800020008000400080006000800080008000A0008000C0008000E00080200000802020008020400080206000802080008020A0008020C0008020E00080400000804020008040400080406000804080
310
008040A0008040C0008040E00080600000806020008060400080606000806080008060A0008060C0008060E00080800000808020008080400080806000808080008080A0008080C0008080E00080A0000080A0200080A0400080A0600080A0800080A0A00080A0C00080A0E00080C0000080C0200080C0400080C0600080C0
310
800080C0A00080C0C00080C0E00080E0000080E0200080E0400080E0600080E0800080E0A00080E0C00080E0E000C0000000C0002000C0004000C0006000C0008000C000A000C000C000C000E000C0200000C0202000C0204000C0206000C0208000C020A000C020C000C020E000C0400000C0402000C0404000C0406000C0
310
408000C040A000C040C000C040E000C0600000C0602000C0604000C0606000C0608000C060A000C060C000C060E000C0800000C0802000C0804000C0806000C0808000C080A000C080C000C080E000C0A00000C0A02000C0A04000C0A06000C0A08000C0A0A000C0A0C000C0A0E000C0C00000C0C02000C0C04000C0C06000
310
C0C08000C0C0A000F0FBFF00A4A0A000808080000000FF0000FF000000FFFF00FF000000FF00FF00FFFF0000FFFFFF0000000000000000000000000000000000000000000000000000000000000000000000000000000000000000000000FF000000000000000000000000000000000000000000000000000000000000FFFF
310
FF00000000000000000000000000000000000000000000000000000000FFFF00FF000000000000000000000000000000000000000000000000000000FFFFFF00FF0000FFFF0000000000000000000000000000000000000000000000FF00FF00FFFFFFFFFF0000000000000000000000000000000000000000000000FF00FF
310
00FFFFFFFF00FF00000000000000000000000000000000000000000000FF00FF00FFFF00FF00FF00000000000000000000000000000000000000000000FF00FF00FFFF00FF00FF00000000000000000000000000000000000000000000FF00FF00FFFF00FF00FF00000000000000000000000000000000000000000000FFFF
310
FFFFFFFF00FF00FF00000000000000000000000000000000000000000000FFFFFFFFFFFF00FF00FF00000000000000000000000000000000000000000000FF00FF00FFFFFFFF00FF00000000000000000000000000000000000000000000FFFFFF0000FFFFFFFFFF00000000000000000000000000000000000000000000FF
310
00FF0000FFFF00FFFF00000000000000000000000000000000000000000000FF00FF0000FFFF0000FF00000000000000000000000000000000000000000000FF00FFFFFFFFFF0000FF00000000000000000000000000000000000000000000FF00FFFFFFFFFF0000FF00000000000000000000000000000000000000000000
310
FFFFFF00FFFFFFFF00FF000000000000000000000000000000000000000000FFFFFF000000FFFFFFFFFF000000000000000000000000000000000000000000FF00FF000000FFFF00FFFF000000000000000000000000000000000000000000FF00FF00000000FF0000FF000000000000000000000000000000000000000000
310
FF00FFFF000000000000FF000000000000000000000000000000000000000000FF0000FFFFFF0000000000FF0000000000000000000000000000000000000000FFFFFF00FFFFFF00000000FF0000000000000000000000000000000000000000FF0000000000FFFFFF0000FF00000000000000000000000000000000000000
310
0000FFFF00000000FFFFFFFFFF0000000000000000000000000000000000000000000000FFFF00000000FFFFFF00000000000000000000000000000000000000000000000000FF0000000000FF0000000000000000000000000000000000000000000000000000FFFF00FFFF00000000000000000000000000000000000000
310
00000000000000000000FF000000000000000000000000000000000000000000000000000000000000000000000000000000000000000000
102
{BLKREFS
331
499
102
}
1001
AcDbDynamicBlockGUID
1000
{3D3106D0-096A-46BA-8CDC-F15167E9995B}
1001
AcDbBlockRepETag
1070
     1
1071
      614
1001
ACAD
1000
DesignCenter Data
1002
{
1070
     1
1070
     4
1002
}
  0
ENDTAB
  0
ENDSEC
  0
SECTION
  2
BLOCKS
  0
BLOCK
  5
20
330
1F
100
AcDbEntity
  8
0
100
AcDbBlockBegin
  2
*Model_Space
 70
     0
 10
0.0
 20
0.0
 30
0.0
  3
*Model_Space
  1

  0
ENDBLK
  5
21
330
1F
100
AcDbEntity
  8
0
100
AcDbBlockEnd
  0
BLOCK
  5
D4
330
D2
100
AcDbEntity
 67
     1
  8
0
100
AcDbBlockBegin
  2
*Paper_Space
 70
     0
 10
0.0
 20
0.0
 30
0.0
  3
*Paper_Space
  1

  0
ENDBLK
  5
D5
330
D2
100
AcDbEntity
 67
     1
  8
0
100
AcDbBlockEnd
  0
BLOCK
  5
D8
330
D6
100
AcDbEntity
 67
     1
  8
0
100
AcDbBlockBegin
  2
*Paper_Space0
 70
     0
 10
0.0
 20
0.0
 30
0.0
  3
*Paper_Space0
  1

  0
ENDBLK
  5
D9
330
D6
100
AcDbEntity
 67
     1
  8
0
100
AcDbBlockEnd
  0
BLOCK
  5
398
330
397
100
AcDbEntity
  8
0
100
AcDbBlockBegin
  2
1
 70
     0
 10
0.0
 20
0.0
 30
0.0
  3
1
  1

  0
LINE
  5
C4D
330
397
100
AcDbEntity
  8
0
  6
Continuous
 62
     7
370
    15
100
AcDbLine
 10
2418.315432880437
 20
897.8335547357529
 30
0.0
 11
2468.715432880236
 21
897.8335547357543
 31
0.0
1001
AcDbBlockRepETag
1070
     1
1071
        0
1005
C4D
  0
LINE
  5
C4E
330
397
100
AcDbEntity
  8
0
  6
Continuous
 62
     7
370
    15
100
AcDbLine
 10
2418.315432880437
 20
897.8335547357529
 30
0.0
 11
2418.315432880437
 21
896.6835547357518
 31
0.0
1001
AcDbBlockRepETag
1070
     1
1071
        1
1005
C4E
  0
LINE
  5
C4F
330
397
100
AcDbEntity
  8
0
  6
Continuous
 62
     7
370
    15
100
AcDbLine
 10
2418.315432880437
 20
896.6835547357518
 30
0.0
 11
2468.715432880236
 21
896.6835547357518
 31
0.0
1001
AcDbBlockRepETag
1070
     1
1071
        2
1005
C4F
  0
LINE
  5
C50
330
397
100
AcDbEntity
  8
0
  6
Continuous
 62
     7
370
    15
100
AcDbLine
 10
2424.415432880278
 20
890.0335547357528
 30
0.0
 11
2426.915432880278
 21
890.0335547357528
 31
0.0
1001
AcDbBlockRepETag
1070
     1
1071
        3
1005
C50
  0
LINE
  5
C51
330
397
100
AcDbEntity
  8
0
  6
Continuous
 62
     7
370
    15
100
AcDbLine
 10
2426.915432880278
 20
890.0335547357528
 30
0.0
 11
2426.915432880278
 21
888.7335547357528
 31
0.0
1001
AcDbBlockRepETag
1070
     1
1071
        4
1005
C51
  0
LINE
  5
C52
330
397
100
AcDbEntity
  8
0
  6
Continuous
 62
     7
370
    15
100
AcDbLine
 10
2426.915432880278
 20
888.7335547357528
 30
0.0
 11
2424.415432880278
 21
888.7335547357476
 31
0.0
1001
AcDbBlockRepETag
1070
     1
1071
        5
1005
C52
  0
LINE
  5
C53
330
397
100
AcDbEntity
  8
0
  6
Continuous
 62
     7
370
    15
100
AcDbLine
 10
2424.415432880278
 20
888.7335547357476
 30
0.0
 11
2424.415432880278
 21
890.0335547357528
 31
0.0
1001
AcDbBlockRepETag
1070
     1
1071
        6
1005
C53
  0
LINE
  5
C54
330
397
100
AcDbEntity
  8
0
  6
Continuous
 62
     7
370
    15
100
AcDbLine
 10
2419.315432880278
 20
890.0335547357528
 30
0.0
 11
2421.815432880278
 21
890.0335547357528
 31
0.0
1001
AcDbBlockRepETag
1070
     1
1071
        7
1005
C54
  0
LINE
  5
C55
330
397
100
AcDbEntity
  8
0
  6
Continuous
 62
     7
370
    15
100
AcDbLine
 10
2421.815432880278
 20
888.7335547357528
 30
0.0
 11
2419.315432880278
 21
888.7335547357475
 31
0.0
1001
AcDbBlockRepETag
1070
     1
1071
        8
1005
C55
  0
LINE
  5
C56
330
397
100
AcDbEntity
  8
0
  6
Continuous
 62
     7
370
    15
100
AcDbLine
 10
2419.315432880278
 20
888.7335547357475
 30
0.0
 11
2419.315432880278
 21
890.0335547357528
 31
0.0
1001
AcDbBlockRepETag
1070
     1
1071
        9
1005
C56
  0
LINE
  5
C57
330
397
100
AcDbEntity
  8
0
  6
Continuous
 62
     7
370
    15
100
AcDbLine
 10
2421.815432880278
 20
890.0335547357528
 30
0.0
 11
2421.815432880278
 21
888.7335547357528
 31
0.0
1001
AcDbBlockRepETag
1070
     1
1071
       10
1005
C57
  0
LINE
  5
C58
330
397
100
AcDbEntity
  8
0
  6
Continuous
 62
     7
370
    15
100
AcDbLine
 10
2424.215432880396
 20
885.0255547357514
 30
0.0
 11
2424.215432880397
 21
883.6235547357519
 31
0.0
1001
AcDbBlockRepETag
1070
     1
1071
       11
1005
C58
  0
LINE
  5
C59
330
397
100
AcDbEntity
  8
0
  6
Continuous
 62
     7
370
    15
100
AcDbLine
 10
2424.015432880396
 20
885.2255547357513
 30
0.0
 11
2424.215432880396
 21
885.0255547357514
 31
0.0
1001
AcDbBlockRepETag
1070
     1
1071
       12
1005
C59
  0
LINE
  5
C5A
330
397
100
AcDbEntity
  8
0
  6
Continuous
 62
     7
370
    15
100
AcDbLine
 10
2424.015432880396
 20
892.1355547357533
 30
0.0
 11
2424.015432880396
 21
885.2255547357513
 31
0.0
1001
AcDbBlockRepETag
1070
     1
1071
       13
1005
C5A
  0
LINE
  5
C5B
330
397
100
AcDbEntity
  8
0
  6
Continuous
 62
     7
370
    15
100
AcDbLine
 10
2422.215432880278
 20
892.1355547357533
 30
0.0
 11
2424.015432880396
 21
892.1355547357533
 31
0.0
1001
AcDbBlockRepETag
1070
     1
1071
       14
1005
C5B
  0
LINE
  5
C5C
330
397
100
AcDbEntity
  8
0
  6
Continuous
 62
     7
370
    15
100
AcDbLine
 10
2422.215432880278
 20
885.2255547357511
 30
0.0
 11
2422.215432880278
 21
892.1355547357533
 31
0.0
1001
AcDbBlockRepETag
1070
     1
1071
       15
1005
C5C
  0
LINE
  5
C5D
330
397
100
AcDbEntity
  8
0
  6
Continuous
 62
     7
370
    15
100
AcDbLine
 10
2422.015432880278
 20
885.0255547357514
 30
0.0
 11
2422.215432880278
 21
885.2255547357513
 31
0.0
1001
AcDbBlockRepETag
1070
     1
1071
       16
1005
C5D
  0
LINE
  5
C5E
330
397
100
AcDbEntity
  8
0
  6
Continuous
 62
     7
370
    15
100
AcDbLine
 10
2422.015432880278
 20
883.6235547357517
 30
0.0
 11
2422.015432880278
 21
885.0255547357514
 31
0.0
1001
AcDbBlockRepETag
1070
     1
1071
       17
1005
C5E
  0
LINE
  5
C5F
330
397
100
AcDbEntity
  8
0
  6
Continuous
 62
     7
370
    15
100
AcDbLine
 10
2419.115432880409
 20
883.6235547357521
 30
0.0
 11
2422.015432880278
 21
883.6235547357517
 31
0.0
1001
AcDbBlockRepETag
1070
     1
1071
       18
1005
C5F
  0
LINE
  5
C60
330
397
100
AcDbEntity
  8
0
  6
Continuous
 62
     7
370
    15
100
AcDbLine
 10
2419.115432880409
 20
883.6235547357521
 30
0.0
 11
2419.115432880409
 21
885.0255547357447
 31
0.0
1001
AcDbBlockRepETag
1070
     1
1071
       19
1005
C60
  0
LINE
  5
C61
330
397
100
AcDbEntity
  8
0
  6
Continuous
 62
     7
370
    15
100
AcDbLine
 10
2419.115432880409
 20
885.0255547357447
 30
0.0
 11
2418.915432880397
 21
885.225554735757
 31
0.0
1001
AcDbBlockRepETag
1070
     1
1071
       20
1005
C61
  0
LINE
  5
C62
330
397
100
AcDbEntity
  8
0
  6
Continuous
 62
     7
370
    15
100
AcDbLine
 10
2418.915432880396
 20
892.135554735745
 30
0.0
 11
2418.915432880397
 21
885.2255547357572
 31
0.0
1001
AcDbBlockRepETag
1070
     1
1071
       21
1005
C62
  0
LINE
  5
C63
330
397
100
AcDbEntity
  8
0
  6
Continuous
 62
     7
370
    15
100
AcDbLine
 10
2418.915432880396
 20
892.135554735745
 30
0.0
 11
2418.315432880437
 21
892.1355547357421
 31
0.0
1001
AcDbBlockRepETag
1070
     1
1071
       22
1005
C63
  0
LINE
  5
C64
330
397
100
AcDbEntity
  8
0
  6
Continuous
 62
     7
370
    15
100
AcDbLine
 10
2429.115432880396
 20
892.1355547357443
 30
0.0
 11
2427.315432880278
 21
892.1355547357462
 31
0.0
1001
AcDbBlockRepETag
1070
     1
1071
       23
1005
C64
  0
LINE
  5
C65
330
397
100
AcDbEntity
  8
0
  6
Continuous
 62
     7
370
    15
100
AcDbLine
 10
2427.315432880277
 20
885.2255547357566
 30
0.0
 11
2427.315432880278
 21
892.135554735745
 31
0.0
1001
AcDbBlockRepETag
1070
     1
1071
       24
1005
C65
  0
LINE
  5
C66
330
397
100
AcDbEntity
  8
0
  6
Continuous
 62
     7
370
    15
100
AcDbLine
 10
2427.315432880277
 20
885.2255547357568
 30
0.0
 11
2427.115432880265
 21
885.0255547357447
 31
0.0
1001
AcDbBlockRepETag
1070
     1
1071
       25
1005
C66
  0
LINE
  5
C67
330
397
100
AcDbEntity
  8
0
  6
Continuous
 62
     7
370
    15
100
AcDbLine
 10
2427.115432880265
 20
885.0255547357447
 30
0.0
 11
2427.115432880265
 21
883.6235547357519
 31
0.0
1001
AcDbBlockRepETag
1070
     1
1071
       26
1005
C67
  0
LINE
  5
C68
330
397
100
AcDbEntity
  8
0
  6
Continuous
 62
     7
370
    15
100
AcDbLine
 10
2424.215432880397
 20
883.6235547357519
 30
0.0
 11
2427.115432880265
 21
883.6235547357519
 31
0.0
1001
AcDbBlockRepETag
1070
     1
1071
       27
1005
C68
  0
LINE
  5
C69
330
397
100
AcDbEntity
  8
0
  6
Continuous
 62
     7
370
    15
100
AcDbLine
 10
2418.315432880437
 20
896.6835547357518
 30
0.0
 11
2418.315432880437
 21
892.1355547357421
 31
0.0
1001
AcDbBlockRepETag
1070
     1
1071
       28
1005
C69
  0
LINE
  5
C6A
330
397
100
AcDbEntity
  8
0
  6
Continuous
 62
     7
370
    15
100
AcDbLine
 10
2424.415432880396
 20
883.4235547357522
 30
0.0
 11
2424.215432880397
 21
883.6235547357519
 31
0.0
1001
AcDbBlockRepETag
1070
     1
1071
       29
1005
C6A
  0
LINE
  5
C6B
330
397
100
AcDbEntity
  8
0
  6
Continuous
 62
     7
370
    15
100
AcDbLine
 10
2426.915432880265
 20
883.4235547357522
 30
0.0
 11
2427.115432880265
 21
883.6235547357519
 31
0.0
1001
AcDbBlockRepETag
1070
     1
1071
       30
1005
C6B
  0
LINE
  5
C6C
330
397
100
AcDbEntity
  8
0
  6
Continuous
 62
     7
370
    15
100
AcDbLine
 10
2426.915432880265
 20
883.4235547357522
 30
0.0
 11
2424.415432880396
 21
883.4235547357522
 31
0.0
1001
AcDbBlockRepETag
1070
     1
1071
       31
1005
C6C
  0
LINE
  5
C6D
330
397
100
AcDbEntity
  8
0
  6
Continuous
 62
     7
370
    15
100
AcDbLine
 10
2422.015432880278
 20
883.6235547357517
 30
0.0
 11
2421.815432880279
 21
883.4235547357522
 31
0.0
1001
AcDbBlockRepETag
1070
     1
1071
       32
1005
C6D
  0
LINE
  5
C6E
330
397
100
AcDbEntity
  8
0
  6
Continuous
 62
     7
370
    15
100
AcDbLine
 10
2421.815432880279
 20
883.4235547357522
 30
0.0
 11
2419.315432880408
 21
883.4235547357522
 31
0.0
1001
AcDbBlockRepETag
1070
     1
1071
       33
1005
C6E
  0
LINE
  5
C6F
330
397
100
AcDbEntity
  8
0
  6
Continuous
 62
     7
370
    15
100
AcDbLine
 10
2419.115432880409
 20
883.6235547357521
 30
0.0
 11
2419.315432880408
 21
883.4235547357522
 31
0.0
1001
AcDbBlockRepETag
1070
     1
1071
       34
1005
C6F
  0
LINE
  5
C70
330
397
100
AcDbEntity
  8
0
  6
Continuous
 62
     7
370
    15
100
AcDbLine
 10
2426.534950180544
 20
874.1413049100271
 30
0.0
 11
2426.81543288017
 21
875.7320013451954
 31
0.0
1001
AcDbBlockRepETag
1070
     1
1071
       35
1005
C70
  0
ARC
  5
C71
330
397
100
AcDbEntity
  8
0
  6
Continuous
 62
     7
370
    15
100
AcDbCircle
 10
2426.170571311929
 20
874.2055547357614
 30
0.0
 40
0.3699999999999761
100
AcDbArc
 50
270.0
 51
350.00000000039
1001
AcDbBlockRepETag
1070
     1
1071
       36
1005
C71
  0
LINE
  5
C72
330
397
100
AcDbEntity
  8
0
  6
Continuous
 62
     7
370
    15
100
AcDbLine
 10
2425.160294448768
 20
873.8355547357613
 30
0.0
 11
2426.170571311929
 21
873.8355547357613
 31
0.0
1001
AcDbBlockRepETag
1070
     1
1071
       37
1005
C72
  0
ARC
  5
C73
330
397
100
AcDbEntity
  8
0
  6
Continuous
 62
     7
370
    15
100
AcDbCircle
 10
2425.160294448768
 20
874.2055547357614
 30
0.0
 40
0.369999999999988
100
AcDbArc
 50
190.0000000000103
 51
270.0
1001
AcDbBlockRepETag
1070
     1
1071
       38
1005
C73
  0
LINE
  5
C74
330
397
100
AcDbEntity
  8
0
  6
Continuous
 62
     7
370
    15
100
AcDbLine
 10
2426.815432880174
 20
882.1268267046683
 30
0.0
 11
2424.515432880515
 21
882.1268267046683
 31
0.0
1001
AcDbBlockRepETag
1070
     1
1071
       39
1005
C74
  0
LINE
  5
C75
330
397
100
AcDbEntity
  8
0
  6
Continuous
 62
     7
370
    15
100
AcDbLine
 10
2426.81543288017
 20
875.7320013451954
 30
0.0
 11
2426.815432880174
 21
882.1268267046683
 31
0.0
1001
AcDbBlockRepETag
1070
     1
1071
       40
1005
C75
  0
LINE
  5
C76
330
397
100
AcDbEntity
  8
0
  6
Continuous
 62
     7
370
    15
100
AcDbLine
 10
2424.515432880515
 20
875.7320013451924
 30
0.0
 11
2424.795915580153
 21
874.1413049100245
 31
0.0
1001
AcDbBlockRepETag
1070
     1
1071
       41
1005
C76
  0
LINE
  5
C77
330
397
100
AcDbEntity
  8
0
  6
Continuous
 62
     7
370
    15
100
AcDbLine
 10
2424.515432880515
 20
882.1268267046683
 30
0.0
 11
2424.515432880515
 21
875.7320013451924
 31
0.0
1001
AcDbBlockRepETag
1070
     1
1071
       42
1005
C77
  0
LINE
  5
C78
330
397
100
AcDbEntity
  8
0
  6
Continuous
 62
     7
370
    15
100
AcDbLine
 10
2421.434950180544
 20
874.1413049100271
 30
0.0
 11
2421.71543288017
 21
875.7320013451954
 31
0.0
1001
AcDbBlockRepETag
1070
     1
1071
       43
1005
C78
  0
ARC
  5
C79
330
397
100
AcDbEntity
  8
0
  6
Continuous
 62
     7
370
    15
100
AcDbCircle
 10
2421.07057131193
 20
874.2055547357614
 30
0.0
 40
0.3699999999999966
100
AcDbArc
 50
270.0
 51
350.00000000039
1001
AcDbBlockRepETag
1070
     1
1071
       44
1005
C79
  0
LINE
  5
C7A
330
397
100
AcDbEntity
  8
0
  6
Continuous
 62
     7
370
    15
100
AcDbLine
 10
2420.060294448767
 20
873.8355547357613
 30
0.0
 11
2421.07057131193
 21
873.8355547357613
 31
0.0
1001
AcDbBlockRepETag
1070
     1
1071
       45
1005
C7A
  0
ARC
  5
C7B
330
397
100
AcDbEntity
  8
0
  6
Continuous
 62
     7
370
    15
100
AcDbCircle
 10
2420.060294448767
 20
874.2055547357614
 30
0.0
 40
0.370000000000016
100
AcDbArc
 50
190.0000000000103
 51
270.0
1001
AcDbBlockRepETag
1070
     1
1071
       46
1005
C7B
  0
LINE
  5
C7C
330
397
100
AcDbEntity
  8
0
  6
Continuous
 62
     7
370
    15
100
AcDbLine
 10
2421.715432880175
 20
882.1268267046683
 30
0.0
 11
2419.415432880516
 21
882.1268267046683
 31
0.0
1001
AcDbBlockRepETag
1070
     1
1071
       47
1005
C7C
  0
LINE
  5
C7D
330
397
100
AcDbEntity
  8
0
  6
Continuous
 62
     7
370
    15
100
AcDbLine
 10
2421.71543288017
 20
875.7320013451954
 30
0.0
 11
2421.715432880175
 21
882.1268267046683
 31
0.0
1001
AcDbBlockRepETag
1070
     1
1071
       48
1005
C7D
  0
LINE
  5
C7E
330
397
100
AcDbEntity
  8
0
  6
Continuous
 62
     7
370
    15
100
AcDbLine
 10
2419.415432880516
 20
882.1268267046683
 30
0.0
 11
2419.415432880516
 21
875.7320013451924
 31
0.0
1001
AcDbBlockRepETag
1070
     1
1071
       49
1005
C7E
  0
LINE
  5
C7F
330
397
100
AcDbEntity
  8
0
  6
Continuous
 62
     7
370
    15
100
AcDbLine
 10
2419.415432880516
 20
875.7320013451924
 30
0.0
 11
2419.695915580152
 21
874.1413049100245
 31
0.0
1001
AcDbBlockRepETag
1070
     1
1071
       50
1005
C7F
  0
LINE
  5
C80
330
397
100
AcDbEntity
  8
0
  6
Continuous
 62
     7
370
    15
100
AcDbLine
 10
2421.715432880175
 20
882.3768267046686
 30
0.0
 11
2419.415432880516
 21
882.3768267046686
 31
0.0
1001
AcDbBlockRepETag
1070
     1
1071
       51
1005
C80
  0
LINE
  5
C81
330
397
100
AcDbEntity
  8
0
  6
Continuous
 62
     7
370
    15
100
AcDbLine
 10
2421.715432880175
 20
882.1268267046683
 30
0.0
 11
2421.715432880175
 21
882.3768267046686
 31
0.0
1001
AcDbBlockRepETag
1070
     1
1071
       52
1005
C81
  0
LINE
  5
C82
330
397
100
AcDbEntity
  8
0
  6
Continuous
 62
     7
370
    15
100
AcDbLine
 10
2419.415432880516
 20
882.3768267046686
 30
0.0
 11
2419.415432880516
 21
882.1268267046683
 31
0.0
1001
AcDbBlockRepETag
1070
     1
1071
       53
1005
C82
  0
LINE
  5
C83
330
397
100
AcDbEntity
  8
0
  6
Continuous
 62
     7
370
    15
100
AcDbLine
 10
2426.815432880176
 20
882.3768267046686
 30
0.0
 11
2424.515432880515
 21
882.3768267046686
 31
0.0
1001
AcDbBlockRepETag
1070
     1
1071
       54
1005
C83
  0
LINE
  5
C84
330
397
100
AcDbEntity
  8
0
  6
Continuous
 62
     7
370
    15
100
AcDbLine
 10
2426.815432880174
 20
882.1268267046683
 30
0.0
 11
2426.815432880176
 21
882.3768267046686
 31
0.0
1001
AcDbBlockRepETag
1070
     1
1071
       55
1005
C84
  0
LINE
  5
C85
330
397
100
AcDbEntity
  8
0
  6
Continuous
 62
     7
370
    15
100
AcDbLine
 10
2424.515432880515
 20
882.3768267046686
 30
0.0
 11
2424.515432880515
 21
882.1268267046683
 31
0.0
1001
AcDbBlockRepETag
1070
     1
1071
       56
1005
C85
  0
LINE
  5
C86
330
397
100
AcDbEntity
  8
0
  6
Continuous
 62
     7
370
    15
100
AcDbLine
 10
2421.715432880145
 20
882.6268267046684
 30
0.0
 11
2419.415432880516
 21
882.6268267046684
 31
0.0
1001
AcDbBlockRepETag
1070
     1
1071
       57
1005
C86
  0
LINE
  5
C87
330
397
100
AcDbEntity
  8
0
  6
Continuous
 62
     7
370
    15
100
AcDbLine
 10
2421.715432880167
 20
882.3768267046686
 30
0.0
 11
2421.715432880145
 21
882.6268267046684
 31
0.0
1001
AcDbBlockRepETag
1070
     1
1071
       58
1005
C87
  0
LINE
  5
C88
330
397
100
AcDbEntity
  8
0
  6
Continuous
 62
     7
370
    15
100
AcDbLine
 10
2419.415432880516
 20
882.6268267046684
 30
0.0
 11
2419.415432880516
 21
882.3768267046684
 31
0.0
1001
AcDbBlockRepETag
1070
     1
1071
       59
1005
C88
  0
LINE
  5
C89
330
397
100
AcDbEntity
  8
0
  6
Continuous
 62
     7
370
    15
100
AcDbLine
 10
2426.815432880151
 20
882.6268267046684
 30
0.0
 11
2424.515432880515
 21
882.6268267046684
 31
0.0
1001
AcDbBlockRepETag
1070
     1
1071
       60
1005
C89
  0
LINE
  5
C8A
330
397
100
AcDbEntity
  8
0
  6
Continuous
 62
     7
370
    15
100
AcDbLine
 10
2426.815432880167
 20
882.3768267046686
 30
0.0
 11
2426.815432880151
 21
882.6268267046684
 31
0.0
1001
AcDbBlockRepETag
1070
     1
1071
       61
1005
C8A
  0
LINE
  5
C8B
330
397
100
AcDbEntity
  8
0
  6
Continuous
 62
     7
370
    15
100
AcDbLine
 10
2424.515432880515
 20
882.6268267046684
 30
0.0
 11
2424.515432880515
 21
882.3768267046684
 31
0.0
1001
AcDbBlockRepETag
1070
     1
1071
       62
1005
C8B
  0
LINE
  5
C8C
330
397
100
AcDbEntity
  8
0
  6
Continuous
 62
     7
370
    15
100
AcDbLine
 10
2426.815432880176
 20
883.4235547357522
 30
0.0
 11
2426.815432880151
 21
882.6268267046684
 31
0.0
1001
AcDbBlockRepETag
1070
     1
1071
       63
1005
C8C
  0
LINE
  5
C8D
330
397
100
AcDbEntity
  8
0
  6
Continuous
 62
     7
370
    15
100
AcDbLine
 10
2424.515432880515
 20
883.4235547357522
 30
0.0
 11
2424.515432880515
 21
882.6268267046684
 31
0.0
1001
AcDbBlockRepETag
1070
     1
1071
       64
1005
C8D
  0
LINE
  5
C8E
330
397
100
AcDbEntity
  8
0
  6
Continuous
 62
     7
370
    15
100
AcDbLine
 10
2421.715432880133
 20
883.4235547357522
 30
0.0
 11
2421.715432880145
 21
882.6268267046684
 31
0.0
1001
AcDbBlockRepETag
1070
     1
1071
       65
1005
C8E
  0
LINE
  5
C8F
330
397
100
AcDbEntity
  8
0
  6
Continuous
 62
     7
370
    15
100
AcDbLine
 10
2419.415432880516
 20
882.6268267046684
 30
0.0
 11
2419.415432880516
 21
883.4235547357522
 31
0.0
1001
AcDbBlockRepETag
1070
     1
1071
       66
1005
C8F
  0
LINE
  5
C90
330
397
100
AcDbEntity
  8
0
  6
Continuous
 62
     7
370
    15
100
AcDbLine
 10
2429.515432880278
 20
890.0335547357528
 30
0.0
 11
2432.015432880278
 21
890.0335547357528
 31
0.0
1001
AcDbBlockRepETag
1070
     1
1071
       68
1005
C90
  0
LINE
  5
C91
330
397
100
AcDbEntity
  8
0
  6
Continuous
 62
     7
370
    15
100
AcDbLine
 10
2432.015432880278
 20
890.0335547357528
 30
0.0
 11
2432.015432880278
 21
888.7335547357528
 31
0.0
1001
AcDbBlockRepETag
1070
     1
1071
       69
1005
C91
  0
LINE
  5
C92
330
397
100
AcDbEntity
  8
0
  6
Continuous
 62
     7
370
    15
100
AcDbLine
 10
2432.015432880278
 20
888.7335547357528
 30
0.0
 11
2429.515432880278
 21
888.7335547357476
 31
0.0
1001
AcDbBlockRepETag
1070
     1
1071
       70
1005
C92
  0
LINE
  5
C93
330
397
100
AcDbEntity
  8
0
  6
Continuous
 62
     7
370
    15
100
AcDbLine
 10
2429.515432880278
 20
888.7335547357476
 30
0.0
 11
2429.515432880278
 21
890.0335547357528
 31
0.0
1001
AcDbBlockRepETag
1070
     1
1071
       71
1005
C93
  0
LINE
  5
C94
330
397
100
AcDbEntity
  8
0
  6
Continuous
 62
     7
370
    15
100
AcDbLine
 10
2429.315432880396
 20
885.0255547357514
 30
0.0
 11
2429.315432880396
 21
883.6235547357519
 31
0.0
1001
AcDbBlockRepETag
1070
     1
1071
       72
1005
C94
  0
LINE
  5
C95
330
397
100
AcDbEntity
  8
0
  6
Continuous
 62
     7
370
    15
100
AcDbLine
 10
2429.115432880396
 20
885.2255547357513
 30
0.0
 11
2429.315432880396
 21
885.0255547357514
 31
0.0
1001
AcDbBlockRepETag
1070
     1
1071
       73
1005
C95
  0
LINE
  5
C96
330
397
100
AcDbEntity
  8
0
  6
Continuous
 62
     7
370
    15
100
AcDbLine
 10
2429.115432880396
 20
892.1355547357533
 30
0.0
 11
2429.115432880396
 21
885.2255547357513
 31
0.0
1001
AcDbBlockRepETag
1070
     1
1071
       74
1005
C96
  0
LINE
  5
C97
330
397
100
AcDbEntity
  8
0
  6
Continuous
 62
     7
370
    15
100
AcDbLine
 10
2434.215432880395
 20
892.1355547357448
 30
0.0
 11
2432.415432880278
 21
892.1355547357451
 31
0.0
1001
AcDbBlockRepETag
1070
     1
1071
       75
1005
C97
  0
LINE
  5
C98
330
397
100
AcDbEntity
  8
0
  6
Continuous
 62
     7
370
    15
100
AcDbLine
 10
2432.415432880278
 20
885.2255547357566
 30
0.0
 11
2432.415432880278
 21
892.135554735745
 31
0.0
1001
AcDbBlockRepETag
1070
     1
1071
       76
1005
C98
  0
LINE
  5
C99
330
397
100
AcDbEntity
  8
0
  6
Continuous
 62
     7
370
    15
100
AcDbLine
 10
2432.415432880278
 20
885.2255547357568
 30
0.0
 11
2432.215432880265
 21
885.0255547357447
 31
0.0
1001
AcDbBlockRepETag
1070
     1
1071
       77
1005
C99
  0
LINE
  5
C9A
330
397
100
AcDbEntity
  8
0
  6
Continuous
 62
     7
370
    15
100
AcDbLine
 10
2432.215432880265
 20
885.0255547357447
 30
0.0
 11
2432.215432880265
 21
883.6235547357519
 31
0.0
1001
AcDbBlockRepETag
1070
     1
1071
       78
1005
C9A
  0
LINE
  5
C9B
330
397
100
AcDbEntity
  8
0
  6
Continuous
 62
     7
370
    15
100
AcDbLine
 10
2429.315432880396
 20
883.6235547357519
 30
0.0
 11
2432.215432880265
 21
883.6235547357519
 31
0.0
1001
AcDbBlockRepETag
1070
     1
1071
       79
1005
C9B
  0
LINE
  5
C9C
330
397
100
AcDbEntity
  8
0
  6
Continuous
 62
     7
370
    15
100
AcDbLine
 10
2429.515432880396
 20
883.4235547357522
 30
0.0
 11
2429.315432880396
 21
883.6235547357519
 31
0.0
1001
AcDbBlockRepETag
1070
     1
1071
       81
1005
C9C
  0
LINE
  5
C9D
330
397
100
AcDbEntity
  8
0
  6
Continuous
 62
     7
370
    15
100
AcDbLine
 10
2432.015432880265
 20
883.4235547357522
 30
0.0
 11
2432.215432880265
 21
883.6235547357519
 31
0.0
1001
AcDbBlockRepETag
1070
     1
1071
       82
1005
C9D
  0
LINE
  5
C9E
330
397
100
AcDbEntity
  8
0
  6
Continuous
 62
     7
370
    15
100
AcDbLine
 10
2432.015432880265
 20
883.4235547357522
 30
0.0
 11
2429.515432880396
 21
883.4235547357522
 31
0.0
1001
AcDbBlockRepETag
1070
     1
1071
       83
1005
C9E
  0
LINE
  5
C9F
330
397
100
AcDbEntity
  8
0
  6
Continuous
 62
     7
370
    15
100
AcDbLine
 10
2431.634950180544
 20
874.1413049100271
 30
0.0
 11
2431.91543288017
 21
875.7320013451954
 31
0.0
1001
AcDbBlockRepETag
1070
     1
1071
       84
1005
C9F
  0
ARC
  5
CA0
330
397
100
AcDbEntity
  8
0
  6
Continuous
 62
     7
370
    15
100
AcDbCircle
 10
2431.270571311929
 20
874.2055547357614
 30
0.0
 40
0.3699999999999761
100
AcDbArc
 50
270.0
 51
350.00000000039
1001
AcDbBlockRepETag
1070
     1
1071
       85
1005
CA0
  0
LINE
  5
CA1
330
397
100
AcDbEntity
  8
0
  6
Continuous
 62
     7
370
    15
100
AcDbLine
 10
2430.260294448767
 20
873.8355547357613
 30
0.0
 11
2431.270571311929
 21
873.8355547357613
 31
0.0
1001
AcDbBlockRepETag
1070
     1
1071
       86
1005
CA1
  0
ARC
  5
CA2
330
397
100
AcDbEntity
  8
0
  6
Continuous
 62
     7
370
    15
100
AcDbCircle
 10
2430.260294448767
 20
874.2055547357614
 30
0.0
 40
0.369999999999988
100
AcDbArc
 50
190.0000000000103
 51
270.0
1001
AcDbBlockRepETag
1070
     1
1071
       87
1005
CA2
  0
LINE
  5
CA3
330
397
100
AcDbEntity
  8
0
  6
Continuous
 62
     7
370
    15
100
AcDbLine
 10
2431.915432880174
 20
882.1268267046683
 30
0.0
 11
2429.615432880515
 21
882.1268267046683
 31
0.0
1001
AcDbBlockRepETag
1070
     1
1071
       88
1005
CA3
  0
LINE
  5
CA4
330
397
100
AcDbEntity
  8
0
  6
Continuous
 62
     7
370
    15
100
AcDbLine
 10
2431.91543288017
 20
875.7320013451954
 30
0.0
 11
2431.915432880174
 21
882.1268267046683
 31
0.0
1001
AcDbBlockRepETag
1070
     1
1071
       89
1005
CA4
  0
LINE
  5
CA5
330
397
100
AcDbEntity
  8
0
  6
Continuous
 62
     7
370
    15
100
AcDbLine
 10
2429.615432880515
 20
875.7320013451924
 30
0.0
 11
2429.895915580153
 21
874.1413049100245
 31
0.0
1001
AcDbBlockRepETag
1070
     1
1071
       90
1005
CA5
  0
LINE
  5
CA6
330
397
100
AcDbEntity
  8
0
  6
Continuous
 62
     7
370
    15
100
AcDbLine
 10
2429.615432880515
 20
882.1268267046683
 30
0.0
 11
2429.615432880515
 21
875.7320013451924
 31
0.0
1001
AcDbBlockRepETag
1070
     1
1071
       91
1005
CA6
  0
LINE
  5
CA7
330
397
100
AcDbEntity
  8
0
  6
Continuous
 62
     7
370
    15
100
AcDbLine
 10
2431.915432880175
 20
882.3768267046686
 30
0.0
 11
2429.615432880515
 21
882.3768267046686
 31
0.0
1001
AcDbBlockRepETag
1070
     1
1071
       92
1005
CA7
  0
LINE
  5
CA8
330
397
100
AcDbEntity
  8
0
  6
Continuous
 62
     7
370
    15
100
AcDbLine
 10
2431.915432880174
 20
882.1268267046683
 30
0.0
 11
2431.915432880175
 21
882.3768267046686
 31
0.0
1001
AcDbBlockRepETag
1070
     1
1071
       93
1005
CA8
  0
LINE
  5
CA9
330
397
100
AcDbEntity
  8
0
  6
Continuous
 62
     7
370
    15
100
AcDbLine
 10
2429.615432880515
 20
882.3768267046686
 30
0.0
 11
2429.615432880515
 21
882.1268267046683
 31
0.0
1001
AcDbBlockRepETag
1070
     1
1071
       94
1005
CA9
  0
LINE
  5
CAA
330
397
100
AcDbEntity
  8
0
  6
Continuous
 62
     7
370
    15
100
AcDbLine
 10
2431.915432880151
 20
882.6268267046684
 30
0.0
 11
2429.615432880515
 21
882.6268267046684
 31
0.0
1001
AcDbBlockRepETag
1070
     1
1071
       95
1005
CAA
  0
LINE
  5
CAB
330
397
100
AcDbEntity
  8
0
  6
Continuous
 62
     7
370
    15
100
AcDbLine
 10
2431.915432880167
 20
882.3768267046686
 30
0.0
 11
2431.915432880151
 21
882.6268267046684
 31
0.0
1001
AcDbBlockRepETag
1070
     1
1071
       96
1005
CAB
  0
LINE
  5
CAC
330
397
100
AcDbEntity
  8
0
  6
Continuous
 62
     7
370
    15
100
AcDbLine
 10
2429.615432880515
 20
882.6268267046684
 30
0.0
 11
2429.615432880515
 21
882.3768267046684
 31
0.0
1001
AcDbBlockRepETag
1070
     1
1071
       97
1005
CAC
  0
LINE
  5
CAD
330
397
100
AcDbEntity
  8
0
  6
Continuous
 62
     7
370
    15
100
AcDbLine
 10
2431.915432880176
 20
883.4235547357522
 30
0.0
 11
2431.915432880151
 21
882.6268267046684
 31
0.0
1001
AcDbBlockRepETag
1070
     1
1071
       98
1005
CAD
  0
LINE
  5
CAE
330
397
100
AcDbEntity
  8
0
  6
Continuous
 62
     7
370
    15
100
AcDbLine
 10
2429.615432880515
 20
883.4235547357522
 30
0.0
 11
2429.615432880515
 21
882.6268267046684
 31
0.0
1001
AcDbBlockRepETag
1070
     1
1071
       99
1005
CAE
  0
LINE
  5
CAF
330
397
100
AcDbEntity
  8
0
  6
Continuous
 62
     7
370
    15
100
AcDbLine
 10
2434.615432880278
 20
890.0335547357528
 30
0.0
 11
2437.115432880278
 21
890.0335547357528
 31
0.0
1001
AcDbBlockRepETag
1070
     1
1071
      100
1005
CAF
  0
LINE
  5
CB0
330
397
100
AcDbEntity
  8
0
  6
Continuous
 62
     7
370
    15
100
AcDbLine
 10
2437.115432880278
 20
890.0335547357528
 30
0.0
 11
2437.115432880278
 21
888.7335547357528
 31
0.0
1001
AcDbBlockRepETag
1070
     1
1071
      101
1005
CB0
  0
LINE
  5
CB1
330
397
100
AcDbEntity
  8
0
  6
Continuous
 62
     7
370
    15
100
AcDbLine
 10
2437.115432880278
 20
888.7335547357528
 30
0.0
 11
2434.615432880278
 21
888.7335547357476
 31
0.0
1001
AcDbBlockRepETag
1070
     1
1071
      102
1005
CB1
  0
LINE
  5
CB2
330
397
100
AcDbEntity
  8
0
  6
Continuous
 62
     7
370
    15
100
AcDbLine
 10
2434.615432880278
 20
888.7335547357476
 30
0.0
 11
2434.615432880278
 21
890.0335547357528
 31
0.0
1001
AcDbBlockRepETag
1070
     1
1071
      103
1005
CB2
  0
LINE
  5
CB3
330
397
100
AcDbEntity
  8
0
  6
Continuous
 62
     7
370
    15
100
AcDbLine
 10
2434.415432880396
 20
885.0255547357514
 30
0.0
 11
2434.415432880396
 21
883.6235547357519
 31
0.0
1001
AcDbBlockRepETag
1070
     1
1071
      104
1005
CB3
  0
LINE
  5
CB4
330
397
100
AcDbEntity
  8
0
  6
Continuous
 62
     7
370
    15
100
AcDbLine
 10
2434.215432880395
 20
885.2255547357513
 30
0.0
 11
2434.415432880396
 21
885.0255547357514
 31
0.0
1001
AcDbBlockRepETag
1070
     1
1071
      105
1005
CB4
  0
LINE
  5
CB5
330
397
100
AcDbEntity
  8
0
  6
Continuous
 62
     7
370
    15
100
AcDbLine
 10
2434.215432880395
 20
892.1355547357533
 30
0.0
 11
2434.215432880395
 21
885.2255547357511
 31
0.0
1001
AcDbBlockRepETag
1070
     1
1071
      106
1005
CB5
  0
LINE
  5
CB6
330
397
100
AcDbEntity
  8
0
  6
Continuous
 62
     7
370
    15
100
AcDbLine
 10
2439.315432880395
 20
892.1355547357444
 30
0.0
 11
2437.515432880278
 21
892.135554735745
 31
0.0
1001
AcDbBlockRepETag
1070
     1
1071
      107
1005
CB6
  0
LINE
  5
CB7
330
397
100
AcDbEntity
  8
0
  6
Continuous
 62
     7
370
    15
100
AcDbLine
 10
2437.515432880278
 20
885.2255547357566
 30
0.0
 11
2437.515432880278
 21
892.135554735745
 31
0.0
1001
AcDbBlockRepETag
1070
     1
1071
      108
1005
CB7
  0
LINE
  5
CB8
330
397
100
AcDbEntity
  8
0
  6
Continuous
 62
     7
370
    15
100
AcDbLine
 10
2437.515432880278
 20
885.2255547357568
 30
0.0
 11
2437.315432880265
 21
885.0255547357447
 31
0.0
1001
AcDbBlockRepETag
1070
     1
1071
      109
1005
CB8
  0
LINE
  5
CB9
330
397
100
AcDbEntity
  8
0
  6
Continuous
 62
     7
370
    15
100
AcDbLine
 10
2437.315432880265
 20
885.0255547357447
 30
0.0
 11
2437.315432880265
 21
883.6235547357519
 31
0.0
1001
AcDbBlockRepETag
1070
     1
1071
      110
1005
CB9
  0
LINE
  5
CBA
330
397
100
AcDbEntity
  8
0
  6
Continuous
 62
     7
370
    15
100
AcDbLine
 10
2434.415432880396
 20
883.6235547357519
 30
0.0
 11
2437.315432880265
 21
883.6235547357519
 31
0.0
1001
AcDbBlockRepETag
1070
     1
1071
      111
1005
CBA
  0
LINE
  5
CBB
330
397
100
AcDbEntity
  8
0
  6
Continuous
 62
     7
370
    15
100
AcDbLine
 10
2434.615432880396
 20
883.4235547357522
 30
0.0
 11
2434.415432880396
 21
883.6235547357519
 31
0.0
1001
AcDbBlockRepETag
1070
     1
1071
      112
1005
CBB
  0
LINE
  5
CBC
330
397
100
AcDbEntity
  8
0
  6
Continuous
 62
     7
370
    15
100
AcDbLine
 10
2437.115432880265
 20
883.4235547357522
 30
0.0
 11
2437.315432880265
 21
883.6235547357519
 31
0.0
1001
AcDbBlockRepETag
1070
     1
1071
      113
1005
CBC
  0
LINE
  5
CBD
330
397
100
AcDbEntity
  8
0
  6
Continuous
 62
     7
370
    15
100
AcDbLine
 10
2437.115432880265
 20
883.4235547357522
 30
0.0
 11
2434.615432880396
 21
883.4235547357522
 31
0.0
1001
AcDbBlockRepETag
1070
     1
1071
      114
1005
CBD
  0
LINE
  5
CBE
330
397
100
AcDbEntity
  8
0
  6
Continuous
 62
     7
370
    15
100
AcDbLine
 10
2436.734950180544
 20
874.1413049100271
 30
0.0
 11
2437.01543288017
 21
875.7320013451954
 31
0.0
1001
AcDbBlockRepETag
1070
     1
1071
      115
1005
CBE
  0
ARC
  5
CBF
330
397
100
AcDbEntity
  8
0
  6
Continuous
 62
     7
370
    15
100
AcDbCircle
 10
2436.370571311929
 20
874.2055547357614
 30
0.0
 40
0.3699999999999761
100
AcDbArc
 50
270.0
 51
350.00000000039
1001
AcDbBlockRepETag
1070
     1
1071
      116
1005
CBF
  0
LINE
  5
CC0
330
397
100
AcDbEntity
  8
0
  6
Continuous
 62
     7
370
    15
100
AcDbLine
 10
2435.360294448767
 20
873.8355547357613
 30
0.0
 11
2436.370571311929
 21
873.8355547357613
 31
0.0
1001
AcDbBlockRepETag
1070
     1
1071
      117
1005
CC0
  0
ARC
  5
CC1
330
397
100
AcDbEntity
  8
0
  6
Continuous
 62
     7
370
    15
100
AcDbCircle
 10
2435.360294448767
 20
874.2055547357614
 30
0.0
 40
0.369999999999988
100
AcDbArc
 50
190.0000000000103
 51
270.0
1001
AcDbBlockRepETag
1070
     1
1071
      118
1005
CC1
  0
LINE
  5
CC2
330
397
100
AcDbEntity
  8
0
  6
Continuous
 62
     7
370
    15
100
AcDbLine
 10
2437.015432880174
 20
882.1268267046683
 30
0.0
 11
2434.715432880515
 21
882.1268267046683
 31
0.0
1001
AcDbBlockRepETag
1070
     1
1071
      119
1005
CC2
  0
LINE
  5
CC3
330
397
100
AcDbEntity
  8
0
  6
Continuous
 62
     7
370
    15
100
AcDbLine
 10
2437.01543288017
 20
875.7320013451954
 30
0.0
 11
2437.015432880174
 21
882.1268267046683
 31
0.0
1001
AcDbBlockRepETag
1070
     1
1071
      120
1005
CC3
  0
LINE
  5
CC4
330
397
100
AcDbEntity
  8
0
  6
Continuous
 62
     7
370
    15
100
AcDbLine
 10
2434.715432880515
 20
875.7320013451924
 30
0.0
 11
2434.995915580153
 21
874.1413049100245
 31
0.0
1001
AcDbBlockRepETag
1070
     1
1071
      121
1005
CC4
  0
LINE
  5
CC5
330
397
100
AcDbEntity
  8
0
  6
Continuous
 62
     7
370
    15
100
AcDbLine
 10
2434.715432880515
 20
882.1268267046683
 30
0.0
 11
2434.715432880515
 21
875.7320013451924
 31
0.0
1001
AcDbBlockRepETag
1070
     1
1071
      122
1005
CC5
  0
LINE
  5
CC6
330
397
100
AcDbEntity
  8
0
  6
Continuous
 62
     7
370
    15
100
AcDbLine
 10
2437.015432880175
 20
882.3768267046686
 30
0.0
 11
2434.715432880515
 21
882.3768267046686
 31
0.0
1001
AcDbBlockRepETag
1070
     1
1071
      123
1005
CC6
  0
LINE
  5
CC7
330
397
100
AcDbEntity
  8
0
  6
Continuous
 62
     7
370
    15
100
AcDbLine
 10
2437.015432880174
 20
882.1268267046683
 30
0.0
 11
2437.015432880175
 21
882.3768267046686
 31
0.0
1001
AcDbBlockRepETag
1070
     1
1071
      124
1005
CC7
  0
LINE
  5
CC8
330
397
100
AcDbEntity
  8
0
  6
Continuous
 62
     7
370
    15
100
AcDbLine
 10
2434.715432880515
 20
882.3768267046686
 30
0.0
 11
2434.715432880515
 21
882.1268267046683
 31
0.0
1001
AcDbBlockRepETag
1070
     1
1071
      125
1005
CC8
  0
LINE
  5
CC9
330
397
100
AcDbEntity
  8
0
  6
Continuous
 62
     7
370
    15
100
AcDbLine
 10
2437.015432880151
 20
882.6268267046684
 30
0.0
 11
2434.715432880515
 21
882.6268267046684
 31
0.0
1001
AcDbBlockRepETag
1070
     1
1071
      126
1005
CC9
  0
LINE
  5
CCA
330
397
100
AcDbEntity
  8
0
  6
Continuous
 62
     7
370
    15
100
AcDbLine
 10
2437.015432880166
 20
882.3768267046686
 30
0.0
 11
2437.015432880151
 21
882.6268267046684
 31
0.0
1001
AcDbBlockRepETag
1070
     1
1071
      127
1005
CCA
  0
LINE
  5
CCB
330
397
100
AcDbEntity
  8
0
  6
Continuous
 62
     7
370
    15
100
AcDbLine
 10
2434.715432880515
 20
882.6268267046684
 30
0.0
 11
2434.715432880515
 21
882.3768267046684
 31
0.0
1001
AcDbBlockRepETag
1070
     1
1071
      128
1005
CCB
  0
LINE
  5
CCC
330
397
100
AcDbEntity
  8
0
  6
Continuous
 62
     7
370
    15
100
AcDbLine
 10
2437.015432880176
 20
883.4235547357522
 30
0.0
 11
2437.015432880151
 21
882.6268267046684
 31
0.0
1001
AcDbBlockRepETag
1070
     1
1071
      129
1005
CCC
  0
LINE
  5
CCD
330
397
100
AcDbEntity
  8
0
  6
Continuous
 62
     7
370
    15
100
AcDbLine
 10
2434.715432880515
 20
883.4235547357522
 30
0.0
 11
2434.715432880515
 21
882.6268267046684
 31
0.0
1001
AcDbBlockRepETag
1070
     1
1071
      130
1005
CCD
  0
LINE
  5
CCE
330
397
100
AcDbEntity
  8
0
  6
Continuous
 62
     7
370
    15
100
AcDbLine
 10
2439.715432880278
 20
890.0335547357528
 30
0.0
 11
2442.215432880278
 21
890.0335547357528
 31
0.0
1001
AcDbBlockRepETag
1070
     1
1071
      131
1005
CCE
  0
LINE
  5
CCF
330
397
100
AcDbEntity
  8
0
  6
Continuous
 62
     7
370
    15
100
AcDbLine
 10
2442.215432880278
 20
890.0335547357528
 30
0.0
 11
2442.215432880278
 21
888.7335547357528
 31
0.0
1001
AcDbBlockRepETag
1070
     1
1071
      132
1005
CCF
  0
LINE
  5
CD0
330
397
100
AcDbEntity
  8
0
  6
Continuous
 62
     7
370
    15
100
AcDbLine
 10
2442.215432880278
 20
888.7335547357528
 30
0.0
 11
2439.715432880278
 21
888.7335547357476
 31
0.0
1001
AcDbBlockRepETag
1070
     1
1071
      133
1005
CD0
  0
LINE
  5
CD1
330
397
100
AcDbEntity
  8
0
  6
Continuous
 62
     7
370
    15
100
AcDbLine
 10
2439.715432880278
 20
888.7335547357476
 30
0.0
 11
2439.715432880278
 21
890.0335547357528
 31
0.0
1001
AcDbBlockRepETag
1070
     1
1071
      134
1005
CD1
  0
LINE
  5
CD2
330
397
100
AcDbEntity
  8
0
  6
Continuous
 62
     7
370
    15
100
AcDbLine
 10
2439.515432880396
 20
885.0255547357514
 30
0.0
 11
2439.515432880396
 21
883.6235547357519
 31
0.0
1001
AcDbBlockRepETag
1070
     1
1071
      135
1005
CD2
  0
LINE
  5
CD3
330
397
100
AcDbEntity
  8
0
  6
Continuous
 62
     7
370
    15
100
AcDbLine
 10
2439.315432880395
 20
885.2255547357513
 30
0.0
 11
2439.515432880396
 21
885.0255547357514
 31
0.0
1001
AcDbBlockRepETag
1070
     1
1071
      136
1005
CD3
  0
LINE
  5
CD4
330
397
100
AcDbEntity
  8
0
  6
Continuous
 62
     7
370
    15
100
AcDbLine
 10
2439.315432880395
 20
892.1355547357533
 30
0.0
 11
2439.315432880395
 21
885.2255547357511
 31
0.0
1001
AcDbBlockRepETag
1070
     1
1071
      137
1005
CD4
  0
LINE
  5
CD5
330
397
100
AcDbEntity
  8
0
  6
Continuous
 62
     7
370
    15
100
AcDbLine
 10
2444.415432880396
 20
892.1355547357441
 30
0.0
 11
2442.615432880278
 21
892.135554735745
 31
0.0
1001
AcDbBlockRepETag
1070
     1
1071
      138
1005
CD5
  0
LINE
  5
CD6
330
397
100
AcDbEntity
  8
0
  6
Continuous
 62
     7
370
    15
100
AcDbLine
 10
2442.615432880277
 20
885.2255547357566
 30
0.0
 11
2442.615432880278
 21
892.135554735745
 31
0.0
1001
AcDbBlockRepETag
1070
     1
1071
      139
1005
CD6
  0
LINE
  5
CD7
330
397
100
AcDbEntity
  8
0
  6
Continuous
 62
     7
370
    15
100
AcDbLine
 10
2442.615432880277
 20
885.2255547357568
 30
0.0
 11
2442.415432880265
 21
885.0255547357447
 31
0.0
1001
AcDbBlockRepETag
1070
     1
1071
      140
1005
CD7
  0
LINE
  5
CD8
330
397
100
AcDbEntity
  8
0
  6
Continuous
 62
     7
370
    15
100
AcDbLine
 10
2442.415432880265
 20
885.0255547357447
 30
0.0
 11
2442.415432880265
 21
883.6235547357519
 31
0.0
1001
AcDbBlockRepETag
1070
     1
1071
      141
1005
CD8
  0
LINE
  5
CD9
330
397
100
AcDbEntity
  8
0
  6
Continuous
 62
     7
370
    15
100
AcDbLine
 10
2439.515432880396
 20
883.6235547357519
 30
0.0
 11
2442.415432880265
 21
883.6235547357519
 31
0.0
1001
AcDbBlockRepETag
1070
     1
1071
      142
1005
CD9
  0
LINE
  5
CDA
330
397
100
AcDbEntity
  8
0
  6
Continuous
 62
     7
370
    15
100
AcDbLine
 10
2439.715432880396
 20
883.4235547357522
 30
0.0
 11
2439.515432880396
 21
883.6235547357519
 31
0.0
1001
AcDbBlockRepETag
1070
     1
1071
      143
1005
CDA
  0
LINE
  5
CDB
330
397
100
AcDbEntity
  8
0
  6
Continuous
 62
     7
370
    15
100
AcDbLine
 10
2442.215432880264
 20
883.4235547357522
 30
0.0
 11
2442.415432880265
 21
883.6235547357519
 31
0.0
1001
AcDbBlockRepETag
1070
     1
1071
      144
1005
CDB
  0
LINE
  5
CDC
330
397
100
AcDbEntity
  8
0
  6
Continuous
 62
     7
370
    15
100
AcDbLine
 10
2442.215432880264
 20
883.4235547357522
 30
0.0
 11
2439.715432880396
 21
883.4235547357522
 31
0.0
1001
AcDbBlockRepETag
1070
     1
1071
      145
1005
CDC
  0
LINE
  5
CDD
330
397
100
AcDbEntity
  8
0
  6
Continuous
 62
     7
370
    15
100
AcDbLine
 10
2441.834950180544
 20
874.1413049100271
 30
0.0
 11
2442.11543288017
 21
875.7320013451954
 31
0.0
1001
AcDbBlockRepETag
1070
     1
1071
      146
1005
CDD
  0
ARC
  5
CDE
330
397
100
AcDbEntity
  8
0
  6
Continuous
 62
     7
370
    15
100
AcDbCircle
 10
2441.470571311929
 20
874.2055547357614
 30
0.0
 40
0.3699999999999761
100
AcDbArc
 50
270.0
 51
350.00000000039
1001
AcDbBlockRepETag
1070
     1
1071
      147
1005
CDE
  0
LINE
  5
CDF
330
397
100
AcDbEntity
  8
0
  6
Continuous
 62
     7
370
    15
100
AcDbLine
 10
2440.460294448767
 20
873.8355547357613
 30
0.0
 11
2441.470571311929
 21
873.8355547357613
 31
0.0
1001
AcDbBlockRepETag
1070
     1
1071
      148
1005
CDF
  0
ARC
  5
CE0
330
397
100
AcDbEntity
  8
0
  6
Continuous
 62
     7
370
    15
100
AcDbCircle
 10
2440.460294448767
 20
874.2055547357614
 30
0.0
 40
0.369999999999988
100
AcDbArc
 50
190.0000000000103
 51
270.0
1001
AcDbBlockRepETag
1070
     1
1071
      149
1005
CE0
  0
LINE
  5
CE1
330
397
100
AcDbEntity
  8
0
  6
Continuous
 62
     7
370
    15
100
AcDbLine
 10
2442.115432880174
 20
882.1268267046683
 30
0.0
 11
2439.815432880515
 21
882.1268267046683
 31
0.0
1001
AcDbBlockRepETag
1070
     1
1071
      150
1005
CE1
  0
LINE
  5
CE2
330
397
100
AcDbEntity
  8
0
  6
Continuous
 62
     7
370
    15
100
AcDbLine
 10
2442.11543288017
 20
875.7320013451954
 30
0.0
 11
2442.115432880174
 21
882.1268267046683
 31
0.0
1001
AcDbBlockRepETag
1070
     1
1071
      151
1005
CE2
  0
LINE
  5
CE3
330
397
100
AcDbEntity
  8
0
  6
Continuous
 62
     7
370
    15
100
AcDbLine
 10
2439.815432880515
 20
875.7320013451924
 30
0.0
 11
2440.095915580153
 21
874.1413049100245
 31
0.0
1001
AcDbBlockRepETag
1070
     1
1071
      152
1005
CE3
  0
LINE
  5
CE4
330
397
100
AcDbEntity
  8
0
  6
Continuous
 62
     7
370
    15
100
AcDbLine
 10
2439.815432880515
 20
882.1268267046683
 30
0.0
 11
2439.815432880515
 21
875.7320013451924
 31
0.0
1001
AcDbBlockRepETag
1070
     1
1071
      153
1005
CE4
  0
LINE
  5
CE5
330
397
100
AcDbEntity
  8
0
  6
Continuous
 62
     7
370
    15
100
AcDbLine
 10
2442.115432880175
 20
882.3768267046686
 30
0.0
 11
2439.815432880515
 21
882.3768267046686
 31
0.0
1001
AcDbBlockRepETag
1070
     1
1071
      154
1005
CE5
  0
LINE
  5
CE6
330
397
100
AcDbEntity
  8
0
  6
Continuous
 62
     7
370
    15
100
AcDbLine
 10
2442.115432880174
 20
882.1268267046683
 30
0.0
 11
2442.115432880175
 21
882.3768267046686
 31
0.0
1001
AcDbBlockRepETag
1070
     1
1071
      155
1005
CE6
  0
LINE
  5
CE7
330
397
100
AcDbEntity
  8
0
  6
Continuous
 62
     7
370
    15
100
AcDbLine
 10
2439.815432880515
 20
882.3768267046686
 30
0.0
 11
2439.815432880515
 21
882.1268267046683
 31
0.0
1001
AcDbBlockRepETag
1070
     1
1071
      156
1005
CE7
  0
LINE
  5
CE8
330
397
100
AcDbEntity
  8
0
  6
Continuous
 62
     7
370
    15
100
AcDbLine
 10
2442.115432880151
 20
882.6268267046684
 30
0.0
 11
2439.815432880515
 21
882.6268267046684
 31
0.0
1001
AcDbBlockRepETag
1070
     1
1071
      157
1005
CE8
  0
LINE
  5
CE9
330
397
100
AcDbEntity
  8
0
  6
Continuous
 62
     7
370
    15
100
AcDbLine
 10
2442.115432880167
 20
882.3768267046686
 30
0.0
 11
2442.115432880151
 21
882.6268267046684
 31
0.0
1001
AcDbBlockRepETag
1070
     1
1071
      158
1005
CE9
  0
LINE
  5
CEA
330
397
100
AcDbEntity
  8
0
  6
Continuous
 62
     7
370
    15
100
AcDbLine
 10
2439.815432880515
 20
882.6268267046684
 30
0.0
 11
2439.815432880515
 21
882.3768267046684
 31
0.0
1001
AcDbBlockRepETag
1070
     1
1071
      159
1005
CEA
  0
LINE
  5
CEB
330
397
100
AcDbEntity
  8
0
  6
Continuous
 62
     7
370
    15
100
AcDbLine
 10
2442.115432880175
 20
883.4235547357522
 30
0.0
 11
2442.115432880151
 21
882.6268267046684
 31
0.0
1001
AcDbBlockRepETag
1070
     1
1071
      160
1005
CEB
  0
LINE
  5
CEC
330
397
100
AcDbEntity
  8
0
  6
Continuous
 62
     7
370
    15
100
AcDbLine
 10
2439.815432880515
 20
883.4235547357522
 30
0.0
 11
2439.815432880515
 21
882.6268267046684
 31
0.0
1001
AcDbBlockRepETag
1070
     1
1071
      161
1005
CEC
  0
LINE
  5
CED
330
397
100
AcDbEntity
  8
0
  6
Continuous
 62
     7
370
    15
100
AcDbLine
 10
2444.815432880278
 20
890.0335547357528
 30
0.0
 11
2447.315432880277
 21
890.0335547357528
 31
0.0
1001
AcDbBlockRepETag
1070
     1
1071
      162
1005
CED
  0
LINE
  5
CEE
330
397
100
AcDbEntity
  8
0
  6
Continuous
 62
     7
370
    15
100
AcDbLine
 10
2447.315432880277
 20
890.0335547357528
 30
0.0
 11
2447.315432880277
 21
888.7335547357528
 31
0.0
1001
AcDbBlockRepETag
1070
     1
1071
      163
1005
CEE
  0
LINE
  5
CEF
330
397
100
AcDbEntity
  8
0
  6
Continuous
 62
     7
370
    15
100
AcDbLine
 10
2447.315432880277
 20
888.7335547357528
 30
0.0
 11
2444.815432880278
 21
888.7335547357476
 31
0.0
1001
AcDbBlockRepETag
1070
     1
1071
      164
1005
CEF
  0
LINE
  5
CF0
330
397
100
AcDbEntity
  8
0
  6
Continuous
 62
     7
370
    15
100
AcDbLine
 10
2444.815432880278
 20
888.7335547357476
 30
0.0
 11
2444.815432880278
 21
890.0335547357528
 31
0.0
1001
AcDbBlockRepETag
1070
     1
1071
      165
1005
CF0
  0
LINE
  5
CF1
330
397
100
AcDbEntity
  8
0
  6
Continuous
 62
     7
370
    15
100
AcDbLine
 10
2444.615432880396
 20
885.0255547357514
 30
0.0
 11
2444.615432880396
 21
883.6235547357519
 31
0.0
1001
AcDbBlockRepETag
1070
     1
1071
      166
1005
CF1
  0
LINE
  5
CF2
330
397
100
AcDbEntity
  8
0
  6
Continuous
 62
     7
370
    15
100
AcDbLine
 10
2444.415432880396
 20
885.2255547357513
 30
0.0
 11
2444.615432880396
 21
885.0255547357514
 31
0.0
1001
AcDbBlockRepETag
1070
     1
1071
      167
1005
CF2
  0
LINE
  5
CF3
330
397
100
AcDbEntity
  8
0
  6
Continuous
 62
     7
370
    15
100
AcDbLine
 10
2444.415432880396
 20
892.1355547357533
 30
0.0
 11
2444.415432880396
 21
885.2255547357513
 31
0.0
1001
AcDbBlockRepETag
1070
     1
1071
      168
1005
CF3
  0
LINE
  5
CF4
330
397
100
AcDbEntity
  8
0
  6
Continuous
 62
     7
370
    15
100
AcDbLine
 10
2449.515432880396
 20
892.1355547357443
 30
0.0
 11
2447.715432880278
 21
892.135554735745
 31
0.0
1001
AcDbBlockRepETag
1070
     1
1071
      169
1005
CF4
  0
LINE
  5
CF5
330
397
100
AcDbEntity
  8
0
  6
Continuous
 62
     7
370
    15
100
AcDbLine
 10
2447.715432880278
 20
885.2255547357566
 30
0.0
 11
2447.715432880278
 21
892.135554735745
 31
0.0
1001
AcDbBlockRepETag
1070
     1
1071
      170
1005
CF5
  0
LINE
  5
CF6
330
397
100
AcDbEntity
  8
0
  6
Continuous
 62
     7
370
    15
100
AcDbLine
 10
2447.715432880277
 20
885.2255547357568
 30
0.0
 11
2447.515432880265
 21
885.0255547357447
 31
0.0
1001
AcDbBlockRepETag
1070
     1
1071
      171
1005
CF6
  0
LINE
  5
CF7
330
397
100
AcDbEntity
  8
0
  6
Continuous
 62
     7
370
    15
100
AcDbLine
 10
2447.515432880265
 20
885.0255547357447
 30
0.0
 11
2447.515432880265
 21
883.6235547357519
 31
0.0
1001
AcDbBlockRepETag
1070
     1
1071
      172
1005
CF7
  0
LINE
  5
CF8
330
397
100
AcDbEntity
  8
0
  6
Continuous
 62
     7
370
    15
100
AcDbLine
 10
2444.615432880396
 20
883.6235547357519
 30
0.0
 11
2447.515432880265
 21
883.6235547357519
 31
0.0
1001
AcDbBlockRepETag
1070
     1
1071
      173
1005
CF8
  0
LINE
  5
CF9
330
397
100
AcDbEntity
  8
0
  6
Continuous
 62
     7
370
    15
100
AcDbLine
 10
2444.815432880396
 20
883.4235547357522
 30
0.0
 11
2444.615432880396
 21
883.6235547357519
 31
0.0
1001
AcDbBlockRepETag
1070
     1
1071
      174
1005
CF9
  0
LINE
  5
CFA
330
397
100
AcDbEntity
  8
0
  6
Continuous
 62
     7
370
    15
100
AcDbLine
 10
2447.315432880265
 20
883.4235547357522
 30
0.0
 11
2447.515432880265
 21
883.6235547357519
 31
0.0
1001
AcDbBlockRepETag
1070
     1
1071
      175
1005
CFA
  0
LINE
  5
CFB
330
397
100
AcDbEntity
  8
0
  6
Continuous
 62
     7
370
    15
100
AcDbLine
 10
2447.315432880265
 20
883.4235547357522
 30
0.0
 11
2444.815432880396
 21
883.4235547357522
 31
0.0
1001
AcDbBlockRepETag
1070
     1
1071
      176
1005
CFB
  0
LINE
  5
CFC
330
397
100
AcDbEntity
  8
0
  6
Continuous
 62
     7
370
    15
100
AcDbLine
 10
2446.934950180544
 20
874.1413049100271
 30
0.0
 11
2447.215432880169
 21
875.7320013451954
 31
0.0
1001
AcDbBlockRepETag
1070
     1
1071
      177
1005
CFC
  0
ARC
  5
CFD
330
397
100
AcDbEntity
  8
0
  6
Continuous
 62
     7
370
    15
100
AcDbCircle
 10
2446.570571311929
 20
874.2055547357614
 30
0.0
 40
0.3699999999999761
100
AcDbArc
 50
270.0
 51
350.00000000039
1001
AcDbBlockRepETag
1070
     1
1071
      178
1005
CFD
  0
LINE
  5
CFE
330
397
100
AcDbEntity
  8
0
  6
Continuous
 62
     7
370
    15
100
AcDbLine
 10
2445.560294448767
 20
873.8355547357613
 30
0.0
 11
2446.570571311929
 21
873.8355547357613
 31
0.0
1001
AcDbBlockRepETag
1070
     1
1071
      179
1005
CFE
  0
ARC
  5
CFF
330
397
100
AcDbEntity
  8
0
  6
Continuous
 62
     7
370
    15
100
AcDbCircle
 10
2445.560294448767
 20
874.2055547357614
 30
0.0
 40
0.369999999999988
100
AcDbArc
 50
190.0000000000103
 51
270.0
1001
AcDbBlockRepETag
1070
     1
1071
      180
1005
CFF
  0
LINE
  5
D00
330
397
100
AcDbEntity
  8
0
  6
Continuous
 62
     7
370
    15
100
AcDbLine
 10
2447.215432880174
 20
882.1268267046683
 30
0.0
 11
2444.915432880515
 21
882.1268267046683
 31
0.0
1001
AcDbBlockRepETag
1070
     1
1071
      181
1005
D00
  0
LINE
  5
D01
330
397
100
AcDbEntity
  8
0
  6
Continuous
 62
     7
370
    15
100
AcDbLine
 10
2447.215432880169
 20
875.7320013451954
 30
0.0
 11
2447.215432880174
 21
882.1268267046683
 31
0.0
1001
AcDbBlockRepETag
1070
     1
1071
      182
1005
D01
  0
LINE
  5
D02
330
397
100
AcDbEntity
  8
0
  6
Continuous
 62
     7
370
    15
100
AcDbLine
 10
2444.915432880515
 20
875.7320013451924
 30
0.0
 11
2445.195915580153
 21
874.1413049100245
 31
0.0
1001
AcDbBlockRepETag
1070
     1
1071
      183
1005
D02
  0
LINE
  5
D03
330
397
100
AcDbEntity
  8
0
  6
Continuous
 62
     7
370
    15
100
AcDbLine
 10
2444.915432880515
 20
882.1268267046683
 30
0.0
 11
2444.915432880515
 21
875.7320013451924
 31
0.0
1001
AcDbBlockRepETag
1070
     1
1071
      184
1005
D03
  0
LINE
  5
D04
330
397
100
AcDbEntity
  8
0
  6
Continuous
 62
     7
370
    15
100
AcDbLine
 10
2447.215432880175
 20
882.3768267046686
 30
0.0
 11
2444.915432880515
 21
882.3768267046686
 31
0.0
1001
AcDbBlockRepETag
1070
     1
1071
      185
1005
D04
  0
LINE
  5
D05
330
397
100
AcDbEntity
  8
0
  6
Continuous
 62
     7
370
    15
100
AcDbLine
 10
2447.215432880174
 20
882.1268267046683
 30
0.0
 11
2447.215432880175
 21
882.3768267046686
 31
0.0
1001
AcDbBlockRepETag
1070
     1
1071
      186
1005
D05
  0
LINE
  5
D06
330
397
100
AcDbEntity
  8
0
  6
Continuous
 62
     7
370
    15
100
AcDbLine
 10
2444.915432880515
 20
882.3768267046686
 30
0.0
 11
2444.915432880515
 21
882.1268267046683
 31
0.0
1001
AcDbBlockRepETag
1070
     1
1071
      187
1005
D06
  0
LINE
  5
D07
330
397
100
AcDbEntity
  8
0
  6
Continuous
 62
     7
370
    15
100
AcDbLine
 10
2447.215432880151
 20
882.6268267046684
 30
0.0
 11
2444.915432880515
 21
882.6268267046684
 31
0.0
1001
AcDbBlockRepETag
1070
     1
1071
      188
1005
D07
  0
LINE
  5
D08
330
397
100
AcDbEntity
  8
0
  6
Continuous
 62
     7
370
    15
100
AcDbLine
 10
2447.215432880166
 20
882.3768267046686
 30
0.0
 11
2447.215432880151
 21
882.6268267046684
 31
0.0
1001
AcDbBlockRepETag
1070
     1
1071
      189
1005
D08
  0
LINE
  5
D09
330
397
100
AcDbEntity
  8
0
  6
Continuous
 62
     7
370
    15
100
AcDbLine
 10
2444.915432880515
 20
882.6268267046684
 30
0.0
 11
2444.915432880515
 21
882.3768267046684
 31
0.0
1001
AcDbBlockRepETag
1070
     1
1071
      190
1005
D09
  0
LINE
  5
D0A
330
397
100
AcDbEntity
  8
0
  6
Continuous
 62
     7
370
    15
100
AcDbLine
 10
2447.215432880176
 20
883.4235547357522
 30
0.0
 11
2447.215432880151
 21
882.6268267046684
 31
0.0
1001
AcDbBlockRepETag
1070
     1
1071
      191
1005
D0A
  0
LINE
  5
D0B
330
397
100
AcDbEntity
  8
0
  6
Continuous
 62
     7
370
    15
100
AcDbLine
 10
2444.915432880515
 20
883.4235547357522
 30
0.0
 11
2444.915432880515
 21
882.6268267046684
 31
0.0
1001
AcDbBlockRepETag
1070
     1
1071
      192
1005
D0B
  0
LINE
  5
D0C
330
397
100
AcDbEntity
  8
0
  6
Continuous
 62
     7
370
    15
100
AcDbLine
 10
2449.915432880278
 20
890.0335547357528
 30
0.0
 11
2452.415432880278
 21
890.0335547357528
 31
0.0
1001
AcDbBlockRepETag
1070
     1
1071
      193
1005
D0C
  0
LINE
  5
D0D
330
397
100
AcDbEntity
  8
0
  6
Continuous
 62
     7
370
    15
100
AcDbLine
 10
2452.415432880278
 20
890.0335547357528
 30
0.0
 11
2452.415432880278
 21
888.7335547357528
 31
0.0
1001
AcDbBlockRepETag
1070
     1
1071
      194
1005
D0D
  0
LINE
  5
D0E
330
397
100
AcDbEntity
  8
0
  6
Continuous
 62
     7
370
    15
100
AcDbLine
 10
2452.415432880278
 20
888.7335547357528
 30
0.0
 11
2449.915432880278
 21
888.7335547357476
 31
0.0
1001
AcDbBlockRepETag
1070
     1
1071
      195
1005
D0E
  0
LINE
  5
D0F
330
397
100
AcDbEntity
  8
0
  6
Continuous
 62
     7
370
    15
100
AcDbLine
 10
2449.915432880278
 20
888.7335547357476
 30
0.0
 11
2449.915432880278
 21
890.0335547357528
 31
0.0
1001
AcDbBlockRepETag
1070
     1
1071
      196
1005
D0F
  0
LINE
  5
D10
330
397
100
AcDbEntity
  8
0
  6
Continuous
 62
     7
370
    15
100
AcDbLine
 10
2449.715432880396
 20
885.0255547357514
 30
0.0
 11
2449.715432880396
 21
883.6235547357519
 31
0.0
1001
AcDbBlockRepETag
1070
     1
1071
      197
1005
D10
  0
LINE
  5
D11
330
397
100
AcDbEntity
  8
0
  6
Continuous
 62
     7
370
    15
100
AcDbLine
 10
2449.515432880396
 20
885.2255547357513
 30
0.0
 11
2449.715432880396
 21
885.0255547357514
 31
0.0
1001
AcDbBlockRepETag
1070
     1
1071
      198
1005
D11
  0
LINE
  5
D12
330
397
100
AcDbEntity
  8
0
  6
Continuous
 62
     7
370
    15
100
AcDbLine
 10
2449.515432880396
 20
892.1355547357533
 30
0.0
 11
2449.515432880396
 21
885.225554735752
 31
0.0
1001
AcDbBlockRepETag
1070
     1
1071
      199
1005
D12
  0
LINE
  5
D13
330
397
100
AcDbEntity
  8
0
  6
Continuous
 62
     7
370
    15
100
AcDbLine
 10
2454.615432880395
 20
892.1355547357443
 30
0.0
 11
2452.815432880278
 21
892.135554735745
 31
0.0
1001
AcDbBlockRepETag
1070
     1
1071
      200
1005
D13
  0
LINE
  5
D14
330
397
100
AcDbEntity
  8
0
  6
Continuous
 62
     7
370
    15
100
AcDbLine
 10
2452.815432880278
 20
885.2255547357566
 30
0.0
 11
2452.815432880278
 21
892.135554735745
 31
0.0
1001
AcDbBlockRepETag
1070
     1
1071
      201
1005
D14
  0
LINE
  5
D15
330
397
100
AcDbEntity
  8
0
  6
Continuous
 62
     7
370
    15
100
AcDbLine
 10
2452.815432880278
 20
885.2255547357568
 30
0.0
 11
2452.615432880265
 21
885.0255547357447
 31
0.0
1001
AcDbBlockRepETag
1070
     1
1071
      202
1005
D15
  0
LINE
  5
D16
330
397
100
AcDbEntity
  8
0
  6
Continuous
 62
     7
370
    15
100
AcDbLine
 10
2452.615432880265
 20
885.0255547357447
 30
0.0
 11
2452.615432880265
 21
883.6235547357519
 31
0.0
1001
AcDbBlockRepETag
1070
     1
1071
      203
1005
D16
  0
LINE
  5
D17
330
397
100
AcDbEntity
  8
0
  6
Continuous
 62
     7
370
    15
100
AcDbLine
 10
2449.715432880396
 20
883.6235547357519
 30
0.0
 11
2452.615432880265
 21
883.6235547357519
 31
0.0
1001
AcDbBlockRepETag
1070
     1
1071
      204
1005
D17
  0
LINE
  5
D18
330
397
100
AcDbEntity
  8
0
  6
Continuous
 62
     7
370
    15
100
AcDbLine
 10
2449.915432880396
 20
883.4235547357522
 30
0.0
 11
2449.715432880396
 21
883.6235547357519
 31
0.0
1001
AcDbBlockRepETag
1070
     1
1071
      205
1005
D18
  0
LINE
  5
D19
330
397
100
AcDbEntity
  8
0
  6
Continuous
 62
     7
370
    15
100
AcDbLine
 10
2452.415432880265
 20
883.4235547357522
 30
0.0
 11
2452.615432880265
 21
883.6235547357519
 31
0.0
1001
AcDbBlockRepETag
1070
     1
1071
      206
1005
D19
  0
LINE
  5
D1A
330
397
100
AcDbEntity
  8
0
  6
Continuous
 62
     7
370
    15
100
AcDbLine
 10
2452.415432880265
 20
883.4235547357522
 30
0.0
 11
2449.915432880396
 21
883.4235547357522
 31
0.0
1001
AcDbBlockRepETag
1070
     1
1071
      207
1005
D1A
  0
LINE
  5
D1B
330
397
100
AcDbEntity
  8
0
  6
Continuous
 62
     7
370
    15
100
AcDbLine
 10
2452.034950180544
 20
874.1413049100271
 30
0.0
 11
2452.31543288017
 21
875.7320013451954
 31
0.0
1001
AcDbBlockRepETag
1070
     1
1071
      208
1005
D1B
  0
ARC
  5
D1C
330
397
100
AcDbEntity
  8
0
  6
Continuous
 62
     7
370
    15
100
AcDbCircle
 10
2451.670571311929
 20
874.2055547357614
 30
0.0
 40
0.3699999999999761
100
AcDbArc
 50
270.0
 51
350.00000000039
1001
AcDbBlockRepETag
1070
     1
1071
      209
1005
D1C
  0
LINE
  5
D1D
330
397
100
AcDbEntity
  8
0
  6
Continuous
 62
     7
370
    15
100
AcDbLine
 10
2450.660294448767
 20
873.8355547357613
 30
0.0
 11
2451.670571311929
 21
873.8355547357613
 31
0.0
1001
AcDbBlockRepETag
1070
     1
1071
      210
1005
D1D
  0
ARC
  5
D1E
330
397
100
AcDbEntity
  8
0
  6
Continuous
 62
     7
370
    15
100
AcDbCircle
 10
2450.660294448767
 20
874.2055547357614
 30
0.0
 40
0.369999999999988
100
AcDbArc
 50
190.0000000000103
 51
270.0
1001
AcDbBlockRepETag
1070
     1
1071
      211
1005
D1E
  0
LINE
  5
D1F
330
397
100
AcDbEntity
  8
0
  6
Continuous
 62
     7
370
    15
100
AcDbLine
 10
2452.315432880175
 20
882.1268267046683
 30
0.0
 11
2450.015432880515
 21
882.1268267046683
 31
0.0
1001
AcDbBlockRepETag
1070
     1
1071
      212
1005
D1F
  0
LINE
  5
D20
330
397
100
AcDbEntity
  8
0
  6
Continuous
 62
     7
370
    15
100
AcDbLine
 10
2452.31543288017
 20
875.7320013451954
 30
0.0
 11
2452.315432880175
 21
882.1268267046683
 31
0.0
1001
AcDbBlockRepETag
1070
     1
1071
      213
1005
D20
  0
LINE
  5
D21
330
397
100
AcDbEntity
  8
0
  6
Continuous
 62
     7
370
    15
100
AcDbLine
 10
2450.015432880515
 20
875.7320013451924
 30
0.0
 11
2450.295915580153
 21
874.1413049100245
 31
0.0
1001
AcDbBlockRepETag
1070
     1
1071
      214
1005
D21
  0
LINE
  5
D22
330
397
100
AcDbEntity
  8
0
  6
Continuous
 62
     7
370
    15
100
AcDbLine
 10
2450.015432880515
 20
882.1268267046683
 30
0.0
 11
2450.015432880515
 21
875.7320013451924
 31
0.0
1001
AcDbBlockRepETag
1070
     1
1071
      215
1005
D22
  0
LINE
  5
D23
330
397
100
AcDbEntity
  8
0
  6
Continuous
 62
     7
370
    15
100
AcDbLine
 10
2452.315432880175
 20
882.3768267046686
 30
0.0
 11
2450.015432880515
 21
882.3768267046686
 31
0.0
1001
AcDbBlockRepETag
1070
     1
1071
      216
1005
D23
  0
LINE
  5
D24
330
397
100
AcDbEntity
  8
0
  6
Continuous
 62
     7
370
    15
100
AcDbLine
 10
2452.315432880175
 20
882.1268267046683
 30
0.0
 11
2452.315432880175
 21
882.3768267046686
 31
0.0
1001
AcDbBlockRepETag
1070
     1
1071
      217
1005
D24
  0
LINE
  5
D25
330
397
100
AcDbEntity
  8
0
  6
Continuous
 62
     7
370
    15
100
AcDbLine
 10
2450.015432880515
 20
882.3768267046686
 30
0.0
 11
2450.015432880515
 21
882.1268267046683
 31
0.0
1001
AcDbBlockRepETag
1070
     1
1071
      218
1005
D25
  0
LINE
  5
D26
330
397
100
AcDbEntity
  8
0
  6
Continuous
 62
     7
370
    15
100
AcDbLine
 10
2452.315432880151
 20
882.6268267046684
 30
0.0
 11
2450.015432880515
 21
882.6268267046684
 31
0.0
1001
AcDbBlockRepETag
1070
     1
1071
      219
1005
D26
  0
LINE
  5
D27
330
397
100
AcDbEntity
  8
0
  6
Continuous
 62
     7
370
    15
100
AcDbLine
 10
2452.315432880167
 20
882.3768267046686
 30
0.0
 11
2452.315432880151
 21
882.6268267046684
 31
0.0
1001
AcDbBlockRepETag
1070
     1
1071
      220
1005
D27
  0
LINE
  5
D28
330
397
100
AcDbEntity
  8
0
  6
Continuous
 62
     7
370
    15
100
AcDbLine
 10
2450.015432880515
 20
882.6268267046684
 30
0.0
 11
2450.015432880515
 21
882.3768267046684
 31
0.0
1001
AcDbBlockRepETag
1070
     1
1071
      221
1005
D28
  0
LINE
  5
D29
330
397
100
AcDbEntity
  8
0
  6
Continuous
 62
     7
370
    15
100
AcDbLine
 10
2452.315432880176
 20
883.4235547357522
 30
0.0
 11
2452.315432880151
 21
882.6268267046684
 31
0.0
1001
AcDbBlockRepETag
1070
     1
1071
      222
1005
D29
  0
LINE
  5
D2A
330
397
100
AcDbEntity
  8
0
  6
Continuous
 62
     7
370
    15
100
AcDbLine
 10
2450.015432880515
 20
883.4235547357522
 30
0.0
 11
2450.015432880515
 21
882.6268267046684
 31
0.0
1001
AcDbBlockRepETag
1070
     1
1071
      223
1005
D2A
  0
LINE
  5
D2B
330
397
100
AcDbEntity
  8
0
  6
Continuous
 62
     7
370
    15
100
AcDbLine
 10
2455.015432880278
 20
890.0335547357528
 30
0.0
 11
2457.515432880278
 21
890.0335547357528
 31
0.0
1001
AcDbBlockRepETag
1070
     1
1071
      224
1005
D2B
  0
LINE
  5
D2C
330
397
100
AcDbEntity
  8
0
  6
Continuous
 62
     7
370
    15
100
AcDbLine
 10
2457.515432880278
 20
890.0335547357528
 30
0.0
 11
2457.515432880278
 21
888.7335547357528
 31
0.0
1001
AcDbBlockRepETag
1070
     1
1071
      225
1005
D2C
  0
LINE
  5
D2D
330
397
100
AcDbEntity
  8
0
  6
Continuous
 62
     7
370
    15
100
AcDbLine
 10
2457.515432880278
 20
888.7335547357528
 30
0.0
 11
2455.015432880278
 21
888.7335547357476
 31
0.0
1001
AcDbBlockRepETag
1070
     1
1071
      226
1005
D2D
  0
LINE
  5
D2E
330
397
100
AcDbEntity
  8
0
  6
Continuous
 62
     7
370
    15
100
AcDbLine
 10
2455.015432880278
 20
888.7335547357476
 30
0.0
 11
2455.015432880278
 21
890.0335547357528
 31
0.0
1001
AcDbBlockRepETag
1070
     1
1071
      227
1005
D2E
  0
LINE
  5
D2F
330
397
100
AcDbEntity
  8
0
  6
Continuous
 62
     7
370
    15
100
AcDbLine
 10
2454.815432880396
 20
885.0255547357514
 30
0.0
 11
2454.815432880396
 21
883.6235547357519
 31
0.0
1001
AcDbBlockRepETag
1070
     1
1071
      228
1005
D2F
  0
LINE
  5
D30
330
397
100
AcDbEntity
  8
0
  6
Continuous
 62
     7
370
    15
100
AcDbLine
 10
2454.615432880395
 20
885.2255547357513
 30
0.0
 11
2454.815432880396
 21
885.0255547357514
 31
0.0
1001
AcDbBlockRepETag
1070
     1
1071
      229
1005
D30
  0
LINE
  5
D31
330
397
100
AcDbEntity
  8
0
  6
Continuous
 62
     7
370
    15
100
AcDbLine
 10
2454.615432880395
 20
892.1355547357533
 30
0.0
 11
2454.615432880395
 21
885.2255547357513
 31
0.0
1001
AcDbBlockRepETag
1070
     1
1071
      230
1005
D31
  0
LINE
  5
D32
330
397
100
AcDbEntity
  8
0
  6
Continuous
 62
     7
370
    15
100
AcDbLine
 10
2459.715432880396
 20
892.1355547357443
 30
0.0
 11
2457.915432880278
 21
892.135554735745
 31
0.0
1001
AcDbBlockRepETag
1070
     1
1071
      231
1005
D32
  0
LINE
  5
D33
330
397
100
AcDbEntity
  8
0
  6
Continuous
 62
     7
370
    15
100
AcDbLine
 10
2457.915432880278
 20
885.2255547357566
 30
0.0
 11
2457.915432880278
 21
892.135554735745
 31
0.0
1001
AcDbBlockRepETag
1070
     1
1071
      232
1005
D33
  0
LINE
  5
D34
330
397
100
AcDbEntity
  8
0
  6
Continuous
 62
     7
370
    15
100
AcDbLine
 10
2457.915432880278
 20
885.2255547357568
 30
0.0
 11
2457.715432880265
 21
885.0255547357447
 31
0.0
1001
AcDbBlockRepETag
1070
     1
1071
      233
1005
D34
  0
LINE
  5
D35
330
397
100
AcDbEntity
  8
0
  6
Continuous
 62
     7
370
    15
100
AcDbLine
 10
2457.715432880265
 20
885.0255547357447
 30
0.0
 11
2457.715432880265
 21
883.6235547357519
 31
0.0
1001
AcDbBlockRepETag
1070
     1
1071
      234
1005
D35
  0
LINE
  5
D36
330
397
100
AcDbEntity
  8
0
  6
Continuous
 62
     7
370
    15
100
AcDbLine
 10
2454.815432880396
 20
883.6235547357519
 30
0.0
 11
2457.715432880265
 21
883.6235547357519
 31
0.0
1001
AcDbBlockRepETag
1070
     1
1071
      235
1005
D36
  0
LINE
  5
D37
330
397
100
AcDbEntity
  8
0
  6
Continuous
 62
     7
370
    15
100
AcDbLine
 10
2455.015432880396
 20
883.4235547357522
 30
0.0
 11
2454.815432880396
 21
883.6235547357519
 31
0.0
1001
AcDbBlockRepETag
1070
     1
1071
      236
1005
D37
  0
LINE
  5
D38
330
397
100
AcDbEntity
  8
0
  6
Continuous
 62
     7
370
    15
100
AcDbLine
 10
2457.515432880265
 20
883.4235547357522
 30
0.0
 11
2457.715432880265
 21
883.6235547357519
 31
0.0
1001
AcDbBlockRepETag
1070
     1
1071
      237
1005
D38
  0
LINE
  5
D39
330
397
100
AcDbEntity
  8
0
  6
Continuous
 62
     7
370
    15
100
AcDbLine
 10
2457.515432880265
 20
883.4235547357522
 30
0.0
 11
2455.015432880396
 21
883.4235547357522
 31
0.0
1001
AcDbBlockRepETag
1070
     1
1071
      238
1005
D39
  0
LINE
  5
D3A
330
397
100
AcDbEntity
  8
0
  6
Continuous
 62
     7
370
    15
100
AcDbLine
 10
2457.134950180544
 20
874.1413049100271
 30
0.0
 11
2457.41543288017
 21
875.7320013451954
 31
0.0
1001
AcDbBlockRepETag
1070
     1
1071
      239
1005
D3A
  0
ARC
  5
D3B
330
397
100
AcDbEntity
  8
0
  6
Continuous
 62
     7
370
    15
100
AcDbCircle
 10
2456.770571311929
 20
874.2055547357614
 30
0.0
 40
0.3699999999999761
100
AcDbArc
 50
270.0
 51
350.0000000003899
1001
AcDbBlockRepETag
1070
     1
1071
      240
1005
D3B
  0
LINE
  5
D3C
330
397
100
AcDbEntity
  8
0
  6
Continuous
 62
     7
370
    15
100
AcDbLine
 10
2455.760294448767
 20
873.8355547357613
 30
0.0
 11
2456.770571311929
 21
873.8355547357613
 31
0.0
1001
AcDbBlockRepETag
1070
     1
1071
      241
1005
D3C
  0
ARC
  5
D3D
330
397
100
AcDbEntity
  8
0
  6
Continuous
 62
     7
370
    15
100
AcDbCircle
 10
2455.760294448767
 20
874.2055547357614
 30
0.0
 40
0.369999999999988
100
AcDbArc
 50
190.0000000000103
 51
270.0
1001
AcDbBlockRepETag
1070
     1
1071
      242
1005
D3D
  0
LINE
  5
D3E
330
397
100
AcDbEntity
  8
0
  6
Continuous
 62
     7
370
    15
100
AcDbLine
 10
2457.415432880174
 20
882.1268267046683
 30
0.0
 11
2455.115432880515
 21
882.1268267046683
 31
0.0
1001
AcDbBlockRepETag
1070
     1
1071
      243
1005
D3E
  0
LINE
  5
D3F
330
397
100
AcDbEntity
  8
0
  6
Continuous
 62
     7
370
    15
100
AcDbLine
 10
2457.41543288017
 20
875.7320013451954
 30
0.0
 11
2457.415432880174
 21
882.1268267046683
 31
0.0
1001
AcDbBlockRepETag
1070
     1
1071
      244
1005
D3F
  0
LINE
  5
D40
330
397
100
AcDbEntity
  8
0
  6
Continuous
 62
     7
370
    15
100
AcDbLine
 10
2455.115432880515
 20
875.7320013451924
 30
0.0
 11
2455.395915580153
 21
874.1413049100245
 31
0.0
1001
AcDbBlockRepETag
1070
     1
1071
      245
1005
D40
  0
LINE
  5
D41
330
397
100
AcDbEntity
  8
0
  6
Continuous
 62
     7
370
    15
100
AcDbLine
 10
2455.115432880515
 20
882.1268267046683
 30
0.0
 11
2455.115432880515
 21
875.7320013451924
 31
0.0
1001
AcDbBlockRepETag
1070
     1
1071
      246
1005
D41
  0
LINE
  5
D42
330
397
100
AcDbEntity
  8
0
  6
Continuous
 62
     7
370
    15
100
AcDbLine
 10
2457.415432880175
 20
882.3768267046686
 30
0.0
 11
2455.115432880515
 21
882.3768267046686
 31
0.0
1001
AcDbBlockRepETag
1070
     1
1071
      247
1005
D42
  0
LINE
  5
D43
330
397
100
AcDbEntity
  8
0
  6
Continuous
 62
     7
370
    15
100
AcDbLine
 10
2457.415432880174
 20
882.1268267046683
 30
0.0
 11
2457.415432880175
 21
882.3768267046686
 31
0.0
1001
AcDbBlockRepETag
1070
     1
1071
      248
1005
D43
  0
LINE
  5
D44
330
397
100
AcDbEntity
  8
0
  6
Continuous
 62
     7
370
    15
100
AcDbLine
 10
2455.115432880515
 20
882.3768267046686
 30
0.0
 11
2455.115432880515
 21
882.1268267046683
 31
0.0
1001
AcDbBlockRepETag
1070
     1
1071
      249
1005
D44
  0
LINE
  5
D45
330
397
100
AcDbEntity
  8
0
  6
Continuous
 62
     7
370
    15
100
AcDbLine
 10
2457.415432880151
 20
882.6268267046684
 30
0.0
 11
2455.115432880515
 21
882.6268267046684
 31
0.0
1001
AcDbBlockRepETag
1070
     1
1071
      250
1005
D45
  0
LINE
  5
D46
330
397
100
AcDbEntity
  8
0
  6
Continuous
 62
     7
370
    15
100
AcDbLine
 10
2457.415432880166
 20
882.3768267046686
 30
0.0
 11
2457.415432880151
 21
882.6268267046684
 31
0.0
1001
AcDbBlockRepETag
1070
     1
1071
      251
1005
D46
  0
LINE
  5
D47
330
397
100
AcDbEntity
  8
0
  6
Continuous
 62
     7
370
    15
100
AcDbLine
 10
2455.115432880515
 20
882.6268267046684
 30
0.0
 11
2455.115432880515
 21
882.3768267046684
 31
0.0
1001
AcDbBlockRepETag
1070
     1
1071
      252
1005
D47
  0
LINE
  5
D48
330
397
100
AcDbEntity
  8
0
  6
Continuous
 62
     7
370
    15
100
AcDbLine
 10
2457.415432880176
 20
883.4235547357522
 30
0.0
 11
2457.415432880151
 21
882.6268267046684
 31
0.0
1001
AcDbBlockRepETag
1070
     1
1071
      253
1005
D48
  0
LINE
  5
D49
330
397
100
AcDbEntity
  8
0
  6
Continuous
 62
     7
370
    15
100
AcDbLine
 10
2455.115432880515
 20
883.4235547357522
 30
0.0
 11
2455.115432880515
 21
882.6268267046684
 31
0.0
1001
AcDbBlockRepETag
1070
     1
1071
      254
1005
D49
  0
LINE
  5
D4A
330
397
100
AcDbEntity
  8
0
  6
Continuous
 62
     7
370
    15
100
AcDbLine
 10
2460.115432880278
 20
890.0335547357528
 30
0.0
 11
2462.615432880278
 21
890.0335547357528
 31
0.0
1001
AcDbBlockRepETag
1070
     1
1071
      255
1005
D4A
  0
LINE
  5
D4B
330
397
100
AcDbEntity
  8
0
  6
Continuous
 62
     7
370
    15
100
AcDbLine
 10
2462.615432880278
 20
890.0335547357528
 30
0.0
 11
2462.615432880278
 21
888.7335547357528
 31
0.0
1001
AcDbBlockRepETag
1070
     1
1071
      256
1005
D4B
  0
LINE
  5
D4C
330
397
100
AcDbEntity
  8
0
  6
Continuous
 62
     7
370
    15
100
AcDbLine
 10
2462.615432880278
 20
888.7335547357528
 30
0.0
 11
2460.115432880278
 21
888.7335547357476
 31
0.0
1001
AcDbBlockRepETag
1070
     1
1071
      257
1005
D4C
  0
LINE
  5
D4D
330
397
100
AcDbEntity
  8
0
  6
Continuous
 62
     7
370
    15
100
AcDbLine
 10
2460.115432880278
 20
888.7335547357476
 30
0.0
 11
2460.115432880278
 21
890.0335547357528
 31
0.0
1001
AcDbBlockRepETag
1070
     1
1071
      258
1005
D4D
  0
LINE
  5
D4E
330
397
100
AcDbEntity
  8
0
  6
Continuous
 62
     7
370
    15
100
AcDbLine
 10
2459.915432880396
 20
885.0255547357514
 30
0.0
 11
2459.915432880396
 21
883.6235547357519
 31
0.0
1001
AcDbBlockRepETag
1070
     1
1071
      259
1005
D4E
  0
LINE
  5
D4F
330
397
100
AcDbEntity
  8
0
  6
Continuous
 62
     7
370
    15
100
AcDbLine
 10
2459.715432880396
 20
885.2255547357513
 30
0.0
 11
2459.915432880396
 21
885.0255547357514
 31
0.0
1001
AcDbBlockRepETag
1070
     1
1071
      260
1005
D4F
  0
LINE
  5
D50
330
397
100
AcDbEntity
  8
0
  6
Continuous
 62
     7
370
    15
100
AcDbLine
 10
2459.715432880396
 20
892.1355547357533
 30
0.0
 11
2459.715432880396
 21
885.2255547357513
 31
0.0
1001
AcDbBlockRepETag
1070
     1
1071
      261
1005
D50
  0
LINE
  5
D51
330
397
100
AcDbEntity
  8
0
  6
Continuous
 62
     7
370
    15
100
AcDbLine
 10
2464.815432880396
 20
892.1355547357443
 30
0.0
 11
2463.015432880278
 21
892.135554735745
 31
0.0
1001
AcDbBlockRepETag
1070
     1
1071
      262
1005
D51
  0
LINE
  5
D52
330
397
100
AcDbEntity
  8
0
  6
Continuous
 62
     7
370
    15
100
AcDbLine
 10
2463.015432880278
 20
885.2255547357566
 30
0.0
 11
2463.015432880278
 21
892.135554735745
 31
0.0
1001
AcDbBlockRepETag
1070
     1
1071
      263
1005
D52
  0
LINE
  5
D53
330
397
100
AcDbEntity
  8
0
  6
Continuous
 62
     7
370
    15
100
AcDbLine
 10
2463.015432880278
 20
885.2255547357568
 30
0.0
 11
2462.815432880265
 21
885.0255547357447
 31
0.0
1001
AcDbBlockRepETag
1070
     1
1071
      264
1005
D53
  0
LINE
  5
D54
330
397
100
AcDbEntity
  8
0
  6
Continuous
 62
     7
370
    15
100
AcDbLine
 10
2462.815432880265
 20
885.0255547357447
 30
0.0
 11
2462.815432880265
 21
883.6235547357519
 31
0.0
1001
AcDbBlockRepETag
1070
     1
1071
      265
1005
D54
  0
LINE
  5
D55
330
397
100
AcDbEntity
  8
0
  6
Continuous
 62
     7
370
    15
100
AcDbLine
 10
2459.915432880396
 20
883.6235547357519
 30
0.0
 11
2462.815432880265
 21
883.6235547357519
 31
0.0
1001
AcDbBlockRepETag
1070
     1
1071
      266
1005
D55
  0
LINE
  5
D56
330
397
100
AcDbEntity
  8
0
  6
Continuous
 62
     7
370
    15
100
AcDbLine
 10
2460.115432880396
 20
883.4235547357522
 30
0.0
 11
2459.915432880396
 21
883.6235547357519
 31
0.0
1001
AcDbBlockRepETag
1070
     1
1071
      267
1005
D56
  0
LINE
  5
D57
330
397
100
AcDbEntity
  8
0
  6
Continuous
 62
     7
370
    15
100
AcDbLine
 10
2462.615432880264
 20
883.4235547357522
 30
0.0
 11
2462.815432880265
 21
883.6235547357519
 31
0.0
1001
AcDbBlockRepETag
1070
     1
1071
      268
1005
D57
  0
LINE
  5
D58
330
397
100
AcDbEntity
  8
0
  6
Continuous
 62
     7
370
    15
100
AcDbLine
 10
2462.615432880264
 20
883.4235547357522
 30
0.0
 11
2460.115432880396
 21
883.4235547357522
 31
0.0
1001
AcDbBlockRepETag
1070
     1
1071
      269
1005
D58
  0
LINE
  5
D59
330
397
100
AcDbEntity
  8
0
  6
Continuous
 62
     7
370
    15
100
AcDbLine
 10
2462.234950180544
 20
874.1413049100271
 30
0.0
 11
2462.51543288017
 21
875.7320013451954
 31
0.0
1001
AcDbBlockRepETag
1070
     1
1071
      270
1005
D59
  0
ARC
  5
D5A
330
397
100
AcDbEntity
  8
0
  6
Continuous
 62
     7
370
    15
100
AcDbCircle
 10
2461.870571311929
 20
874.2055547357614
 30
0.0
 40
0.3699999999999761
100
AcDbArc
 50
270.0
 51
350.0000000003899
1001
AcDbBlockRepETag
1070
     1
1071
      271
1005
D5A
  0
LINE
  5
D5B
330
397
100
AcDbEntity
  8
0
  6
Continuous
 62
     7
370
    15
100
AcDbLine
 10
2460.860294448767
 20
873.8355547357613
 30
0.0
 11
2461.870571311929
 21
873.8355547357613
 31
0.0
1001
AcDbBlockRepETag
1070
     1
1071
      272
1005
D5B
  0
ARC
  5
D5C
330
397
100
AcDbEntity
  8
0
  6
Continuous
 62
     7
370
    15
100
AcDbCircle
 10
2460.860294448767
 20
874.2055547357614
 30
0.0
 40
0.369999999999988
100
AcDbArc
 50
190.0000000000103
 51
270.0
1001
AcDbBlockRepETag
1070
     1
1071
      273
1005
D5C
  0
LINE
  5
D5D
330
397
100
AcDbEntity
  8
0
  6
Continuous
 62
     7
370
    15
100
AcDbLine
 10
2462.515432880174
 20
882.1268267046683
 30
0.0
 11
2460.215432880515
 21
882.1268267046683
 31
0.0
1001
AcDbBlockRepETag
1070
     1
1071
      274
1005
D5D
  0
LINE
  5
D5E
330
397
100
AcDbEntity
  8
0
  6
Continuous
 62
     7
370
    15
100
AcDbLine
 10
2462.51543288017
 20
875.7320013451954
 30
0.0
 11
2462.515432880174
 21
882.1268267046683
 31
0.0
1001
AcDbBlockRepETag
1070
     1
1071
      275
1005
D5E
  0
LINE
  5
D5F
330
397
100
AcDbEntity
  8
0
  6
Continuous
 62
     7
370
    15
100
AcDbLine
 10
2460.215432880515
 20
875.7320013451924
 30
0.0
 11
2460.495915580153
 21
874.1413049100245
 31
0.0
1001
AcDbBlockRepETag
1070
     1
1071
      276
1005
D5F
  0
LINE
  5
D60
330
397
100
AcDbEntity
  8
0
  6
Continuous
 62
     7
370
    15
100
AcDbLine
 10
2460.215432880515
 20
882.1268267046683
 30
0.0
 11
2460.215432880515
 21
875.7320013451924
 31
0.0
1001
AcDbBlockRepETag
1070
     1
1071
      277
1005
D60
  0
LINE
  5
D61
330
397
100
AcDbEntity
  8
0
  6
Continuous
 62
     7
370
    15
100
AcDbLine
 10
2462.515432880175
 20
882.3768267046686
 30
0.0
 11
2460.215432880515
 21
882.3768267046686
 31
0.0
1001
AcDbBlockRepETag
1070
     1
1071
      278
1005
D61
  0
LINE
  5
D62
330
397
100
AcDbEntity
  8
0
  6
Continuous
 62
     7
370
    15
100
AcDbLine
 10
2462.515432880174
 20
882.1268267046683
 30
0.0
 11
2462.515432880175
 21
882.3768267046686
 31
0.0
1001
AcDbBlockRepETag
1070
     1
1071
      279
1005
D62
  0
LINE
  5
D63
330
397
100
AcDbEntity
  8
0
  6
Continuous
 62
     7
370
    15
100
AcDbLine
 10
2460.215432880515
 20
882.3768267046686
 30
0.0
 11
2460.215432880515
 21
882.1268267046683
 31
0.0
1001
AcDbBlockRepETag
1070
     1
1071
      280
1005
D63
  0
LINE
  5
D64
330
397
100
AcDbEntity
  8
0
  6
Continuous
 62
     7
370
    15
100
AcDbLine
 10
2462.515432880151
 20
882.6268267046684
 30
0.0
 11
2460.215432880515
 21
882.6268267046684
 31
0.0
1001
AcDbBlockRepETag
1070
     1
1071
      281
1005
D64
  0
LINE
  5
D65
330
397
100
AcDbEntity
  8
0
  6
Continuous
 62
     7
370
    15
100
AcDbLine
 10
2462.515432880167
 20
882.3768267046686
 30
0.0
 11
2462.515432880151
 21
882.6268267046684
 31
0.0
1001
AcDbBlockRepETag
1070
     1
1071
      282
1005
D65
  0
LINE
  5
D66
330
397
100
AcDbEntity
  8
0
  6
Continuous
 62
     7
370
    15
100
AcDbLine
 10
2460.215432880515
 20
882.6268267046684
 30
0.0
 11
2460.215432880515
 21
882.3768267046684
 31
0.0
1001
AcDbBlockRepETag
1070
     1
1071
      283
1005
D66
  0
LINE
  5
D67
330
397
100
AcDbEntity
  8
0
  6
Continuous
 62
     7
370
    15
100
AcDbLine
 10
2462.515432880176
 20
883.4235547357522
 30
0.0
 11
2462.515432880151
 21
882.6268267046684
 31
0.0
1001
AcDbBlockRepETag
1070
     1
1071
      284
1005
D67
  0
LINE
  5
D68
330
397
100
AcDbEntity
  8
0
  6
Continuous
 62
     7
370
    15
100
AcDbLine
 10
2460.215432880515
 20
883.4235547357522
 30
0.0
 11
2460.215432880515
 21
882.6268267046684
 31
0.0
1001
AcDbBlockRepETag
1070
     1
1071
      285
1005
D68
  0
LINE
  5
D69
330
397
100
AcDbEntity
  8
0
  6
Continuous
 62
     7
370
    15
100
AcDbLine
 10
2468.715432880236
 20
897.8335547357529
 30
0.0
 11
2468.715432880236
 21
896.6835547357518
 31
0.0
1001
AcDbBlockRepETag
1070
     1
1071
      317
1005
D69
  0
LINE
  5
D6A
330
397
100
AcDbEntity
  8
0
  6
Continuous
 62
     7
370
    15
100
AcDbLine
 10
2465.215432880278
 20
890.0335547357528
 30
0.0
 11
2467.715432880277
 21
890.0335547357528
 31
0.0
1001
AcDbBlockRepETag
1070
     1
1071
      286
1005
D6A
  0
LINE
  5
D6B
330
397
100
AcDbEntity
  8
0
  6
Continuous
 62
     7
370
    15
100
AcDbLine
 10
2467.715432880277
 20
890.0335547357528
 30
0.0
 11
2467.715432880277
 21
888.7335547357528
 31
0.0
1001
AcDbBlockRepETag
1070
     1
1071
      287
1005
D6B
  0
LINE
  5
D6C
330
397
100
AcDbEntity
  8
0
  6
Continuous
 62
     7
370
    15
100
AcDbLine
 10
2467.715432880277
 20
888.7335547357528
 30
0.0
 11
2465.215432880278
 21
888.7335547357476
 31
0.0
1001
AcDbBlockRepETag
1070
     1
1071
      288
1005
D6C
  0
LINE
  5
D6D
330
397
100
AcDbEntity
  8
0
  6
Continuous
 62
     7
370
    15
100
AcDbLine
 10
2465.215432880278
 20
888.7335547357476
 30
0.0
 11
2465.215432880278
 21
890.0335547357528
 31
0.0
1001
AcDbBlockRepETag
1070
     1
1071
      289
1005
D6D
  0
LINE
  5
D6E
330
397
100
AcDbEntity
  8
0
  6
Continuous
 62
     7
370
    15
100
AcDbLine
 10
2465.015432880396
 20
885.0255547357514
 30
0.0
 11
2465.015432880396
 21
883.6235547357519
 31
0.0
1001
AcDbBlockRepETag
1070
     1
1071
      290
1005
D6E
  0
LINE
  5
D6F
330
397
100
AcDbEntity
  8
0
  6
Continuous
 62
     7
370
    15
100
AcDbLine
 10
2464.815432880396
 20
885.2255547357513
 30
0.0
 11
2465.015432880396
 21
885.0255547357514
 31
0.0
1001
AcDbBlockRepETag
1070
     1
1071
      291
1005
D6F
  0
LINE
  5
D70
330
397
100
AcDbEntity
  8
0
  6
Continuous
 62
     7
370
    15
100
AcDbLine
 10
2464.815432880396
 20
892.1355547357533
 30
0.0
 11
2464.815432880396
 21
885.2255547357517
 31
0.0
1001
AcDbBlockRepETag
1070
     1
1071
      292
1005
D70
  0
LINE
  5
D71
330
397
100
AcDbEntity
  8
0
  6
Continuous
 62
     7
370
    15
100
AcDbLine
 10
2468.715432880236
 20
892.1355547357448
 30
0.0
 11
2468.115432880278
 21
892.135554735745
 31
0.0
1001
AcDbBlockRepETag
1070
     1
1071
      293
1005
D71
  0
LINE
  5
D72
330
397
100
AcDbEntity
  8
0
  6
Continuous
 62
     7
370
    15
100
AcDbLine
 10
2468.115432880277
 20
885.2255547357566
 30
0.0
 11
2468.115432880278
 21
892.135554735745
 31
0.0
1001
AcDbBlockRepETag
1070
     1
1071
      294
1005
D72
  0
LINE
  5
D73
330
397
100
AcDbEntity
  8
0
  6
Continuous
 62
     7
370
    15
100
AcDbLine
 10
2468.115432880277
 20
885.2255547357568
 30
0.0
 11
2467.915432880265
 21
885.0255547357447
 31
0.0
1001
AcDbBlockRepETag
1070
     1
1071
      295
1005
D73
  0
LINE
  5
D74
330
397
100
AcDbEntity
  8
0
  6
Continuous
 62
     7
370
    15
100
AcDbLine
 10
2467.915432880265
 20
885.0255547357447
 30
0.0
 11
2467.915432880265
 21
883.6235547357519
 31
0.0
1001
AcDbBlockRepETag
1070
     1
1071
      296
1005
D74
  0
LINE
  5
D75
330
397
100
AcDbEntity
  8
0
  6
Continuous
 62
     7
370
    15
100
AcDbLine
 10
2465.015432880396
 20
883.6235547357519
 30
0.0
 11
2467.915432880265
 21
883.6235547357519
 31
0.0
1001
AcDbBlockRepETag
1070
     1
1071
      297
1005
D75
  0
LINE
  5
D76
330
397
100
AcDbEntity
  8
0
  6
Continuous
 62
     7
370
    15
100
AcDbLine
 10
2468.715432880236
 20
892.1355547357448
 30
0.0
 11
2468.715432880236
 21
896.6835547357518
 31
0.0
1001
AcDbBlockRepETag
1070
     1
1071
      318
1005
D76
  0
LINE
  5
D77
330
397
100
AcDbEntity
  8
0
  6
Continuous
 62
     7
370
    15
100
AcDbLine
 10
2465.215432880396
 20
883.4235547357522
 30
0.0
 11
2465.015432880396
 21
883.6235547357519
 31
0.0
1001
AcDbBlockRepETag
1070
     1
1071
      298
1005
D77
  0
LINE
  5
D78
330
397
100
AcDbEntity
  8
0
  6
Continuous
 62
     7
370
    15
100
AcDbLine
 10
2467.715432880265
 20
883.4235547357522
 30
0.0
 11
2467.915432880265
 21
883.6235547357519
 31
0.0
1001
AcDbBlockRepETag
1070
     1
1071
      299
1005
D78
  0
LINE
  5
D79
330
397
100
AcDbEntity
  8
0
  6
Continuous
 62
     7
370
    15
100
AcDbLine
 10
2467.715432880265
 20
883.4235547357522
 30
0.0
 11
2465.215432880396
 21
883.4235547357522
 31
0.0
1001
AcDbBlockRepETag
1070
     1
1071
      300
1005
D79
  0
LINE
  5
D7A
330
397
100
AcDbEntity
  8
0
  6
Continuous
 62
     7
370
    15
100
AcDbLine
 10
2467.334950180544
 20
874.1413049100271
 30
0.0
 11
2467.615432880169
 21
875.7320013451954
 31
0.0
1001
AcDbBlockRepETag
1070
     1
1071
      301
1005
D7A
  0
ARC
  5
D7B
330
397
100
AcDbEntity
  8
0
  6
Continuous
 62
     7
370
    15
100
AcDbCircle
 10
2466.970571311929
 20
874.2055547357614
 30
0.0
 40
0.3699999999999761
100
AcDbArc
 50
270.0
 51
350.0000000003899
1001
AcDbBlockRepETag
1070
     1
1071
      302
1005
D7B
  0
LINE
  5
D7C
330
397
100
AcDbEntity
  8
0
  6
Continuous
 62
     7
370
    15
100
AcDbLine
 10
2465.960294448767
 20
873.8355547357613
 30
0.0
 11
2466.970571311929
 21
873.8355547357613
 31
0.0
1001
AcDbBlockRepETag
1070
     1
1071
      303
1005
D7C
  0
ARC
  5
D7D
330
397
100
AcDbEntity
  8
0
  6
Continuous
 62
     7
370
    15
100
AcDbCircle
 10
2465.960294448767
 20
874.2055547357614
 30
0.0
 40
0.369999999999988
100
AcDbArc
 50
190.0000000000103
 51
270.0
1001
AcDbBlockRepETag
1070
     1
1071
      304
1005
D7D
  0
LINE
  5
D7E
330
397
100
AcDbEntity
  8
0
  6
Continuous
 62
     7
370
    15
100
AcDbLine
 10
2467.615432880174
 20
882.1268267046683
 30
0.0
 11
2465.315432880515
 21
882.1268267046683
 31
0.0
1001
AcDbBlockRepETag
1070
     1
1071
      305
1005
D7E
  0
LINE
  5
D7F
330
397
100
AcDbEntity
  8
0
  6
Continuous
 62
     7
370
    15
100
AcDbLine
 10
2467.615432880169
 20
875.7320013451954
 30
0.0
 11
2467.615432880174
 21
882.1268267046683
 31
0.0
1001
AcDbBlockRepETag
1070
     1
1071
      306
1005
D7F
  0
LINE
  5
D80
330
397
100
AcDbEntity
  8
0
  6
Continuous
 62
     7
370
    15
100
AcDbLine
 10
2465.315432880515
 20
875.7320013451924
 30
0.0
 11
2465.595915580153
 21
874.1413049100245
 31
0.0
1001
AcDbBlockRepETag
1070
     1
1071
      307
1005
D80
  0
LINE
  5
D81
330
397
100
AcDbEntity
  8
0
  6
Continuous
 62
     7
370
    15
100
AcDbLine
 10
2465.315432880515
 20
882.1268267046683
 30
0.0
 11
2465.315432880515
 21
875.7320013451924
 31
0.0
1001
AcDbBlockRepETag
1070
     1
1071
      308
1005
D81
  0
LINE
  5
D82
330
397
100
AcDbEntity
  8
0
  6
Continuous
 62
     7
370
    15
100
AcDbLine
 10
2467.615432880175
 20
882.3768267046686
 30
0.0
 11
2465.315432880515
 21
882.3768267046686
 31
0.0
1001
AcDbBlockRepETag
1070
     1
1071
      309
1005
D82
  0
LINE
  5
D83
330
397
100
AcDbEntity
  8
0
  6
Continuous
 62
     7
370
    15
100
AcDbLine
 10
2467.615432880174
 20
882.1268267046683
 30
0.0
 11
2467.615432880175
 21
882.3768267046686
 31
0.0
1001
AcDbBlockRepETag
1070
     1
1071
      310
1005
D83
  0
LINE
  5
D84
330
397
100
AcDbEntity
  8
0
  6
Continuous
 62
     7
370
    15
100
AcDbLine
 10
2465.315432880515
 20
882.3768267046686
 30
0.0
 11
2465.315432880515
 21
882.1268267046683
 31
0.0
1001
AcDbBlockRepETag
1070
     1
1071
      311
1005
D84
  0
LINE
  5
D85
330
397
100
AcDbEntity
  8
0
  6
Continuous
 62
     7
370
    15
100
AcDbLine
 10
2467.615432880151
 20
882.6268267046684
 30
0.0
 11
2465.315432880515
 21
882.6268267046684
 31
0.0
1001
AcDbBlockRepETag
1070
     1
1071
      312
1005
D85
  0
LINE
  5
D86
330
397
100
AcDbEntity
  8
0
  6
Continuous
 62
     7
370
    15
100
AcDbLine
 10
2467.615432880166
 20
882.3768267046686
 30
0.0
 11
2467.615432880151
 21
882.6268267046684
 31
0.0
1001
AcDbBlockRepETag
1070
     1
1071
      313
1005
D86
  0
LINE
  5
D87
330
397
100
AcDbEntity
  8
0
  6
Continuous
 62
     7
370
    15
100
AcDbLine
 10
2465.315432880515
 20
882.6268267046684
 30
0.0
 11
2465.315432880515
 21
882.3768267046684
 31
0.0
1001
AcDbBlockRepETag
1070
     1
1071
      314
1005
D87
  0
LINE
  5
D88
330
397
100
AcDbEntity
  8
0
  6
Continuous
 62
     7
370
    15
100
AcDbLine
 10
2467.615432880176
 20
883.4235547357522
 30
0.0
 11
2467.615432880151
 21
882.6268267046684
 31
0.0
1001
AcDbBlockRepETag
1070
     1
1071
      315
1005
D88
  0
LINE
  5
D89
330
397
100
AcDbEntity
  8
0
  6
Continuous
 62
     7
370
    15
100
AcDbLine
 10
2465.315432880515
 20
883.4235547357522
 30
0.0
 11
2465.315432880515
 21
882.6268267046684
 31
0.0
1001
AcDbBlockRepETag
1070
     1
1071
      316
1005
D89
  0
ENDBLK
  5
399
330
397
100
AcDbEntity
  8
0
100
AcDbBlockEnd
  0
BLOCK
  5
3E1
330
3E0
100
AcDbEntity
  8
0
100
AcDbBlockBegin
  2
2
 70
     0
 10
0.0
 20
0.0
 30
0.0
  3
2
  1

  0
LINE
  5
D91
330
3E0
100
AcDbEntity
  8
0
  6
Continuous
 62
     7
370
    15
100
AcDbLine
 10
2409.002242484257
 20
897.8335547357527
 30
0.0
 11
2405.102242484257
 21
897.8335547357529
 31
0.0
1001
AcDbBlockRepETag
1070
     1
1071
        0
1005
D91
  0
LINE
  5
D92
330
3E0
100
AcDbEntity
  8
0
  6
Continuous
 62
     7
370
    15
100
AcDbLine
 10
2409.002242484257
 20
897.8335547357527
 30
0.0
 11
2409.002242484257
 21
896.6835547357517
 31
0.0
1001
AcDbBlockRepETag
1070
     1
1071
        1
1005
D92
  0
LINE
  5
D93
330
3E0
100
AcDbEntity
  8
0
  6
Continuous
 62
     7
370
    15
100
AcDbLine
 10
2408.252242484258
 20
896.6835547357517
 30
0.0
 11
2409.002242484257
 21
896.6835547357517
 31
0.0
1001
AcDbBlockRepETag
1070
     1
1071
        2
1005
D93
  0
LINE
  5
D94
330
3E0
100
AcDbEntity
  8
0
  6
Continuous
 62
     7
370
    15
100
AcDbLine
 10
2408.252242484258
 20
892.1355547357448
 30
0.0
 11
2408.252242484258
 21
896.6835547357517
 31
0.0
1001
AcDbBlockRepETag
1070
     1
1071
        3
1005
D94
  0
LINE
  5
D95
330
3E0
100
AcDbEntity
  8
0
  6
Continuous
 62
     7
370
    15
100
AcDbLine
 10
2405.852242484257
 20
892.1355547357448
 30
0.0
 11
2408.252242484258
 21
892.1355547357448
 31
0.0
1001
AcDbBlockRepETag
1070
     1
1071
        4
1005
D95
  0
LINE
  5
D96
330
3E0
100
AcDbEntity
  8
0
  6
Continuous
 62
     7
370
    15
100
AcDbLine
 10
2405.852242484257
 20
892.1355547357448
 30
0.0
 11
2405.852242484257
 21
896.6835547357517
 31
0.0
1001
AcDbBlockRepETag
1070
     1
1071
        5
1005
D96
  0
LINE
  5
D97
330
3E0
100
AcDbEntity
  8
0
  6
Continuous
 62
     7
370
    15
100
AcDbLine
 10
2405.102242484257
 20
896.6835547357517
 30
0.0
 11
2405.852242484257
 21
896.6835547357517
 31
0.0
1001
AcDbBlockRepETag
1070
     1
1071
        6
1005
D97
  0
LINE
  5
D98
330
3E0
100
AcDbEntity
  8
0
  6
Continuous
 62
     7
370
    15
100
AcDbLine
 10
2405.102242484257
 20
897.8335547357529
 30
0.0
 11
2405.102242484257
 21
896.6835547357517
 31
0.0
1001
AcDbBlockRepETag
1070
     1
1071
        7
1005
D98
  0
LINE
  5
D99
330
3E0
100
AcDbEntity
  8
0
  6
Continuous
 62
     7
370
    15
100
AcDbLine
 10
2405.852242484257
 20
885.2255547357566
 30
0.0
 11
2408.252242484257
 21
885.2255547357566
 31
0.0
1001
AcDbBlockRepETag
1070
     1
1071
        8
1005
D99
  0
LINE
  5
D9A
330
3E0
100
AcDbEntity
  8
0
  6
Continuous
 62
     7
370
    15
100
AcDbLine
 10
2405.852242484257
 20
885.2255547357566
 30
0.0
 11
2405.852242484257
 21
892.135554735745
 31
0.0
1001
AcDbBlockRepETag
1070
     1
1071
        9
1005
D9A
  0
LINE
  5
D9B
330
3E0
100
AcDbEntity
  8
0
  6
Continuous
 62
     7
370
    15
100
AcDbLine
 10
2408.252242484257
 20
885.2255547357566
 30
0.0
 11
2408.252242484258
 21
892.1355547357414
 31
0.0
1001
AcDbBlockRepETag
1070
     1
1071
       10
1005
D9B
  0
LINE
  5
D9C
330
3E0
100
AcDbEntity
  8
0
  6
Continuous
 62
     7
370
    15
100
AcDbLine
 10
2405.852242484257
 20
885.0255547357445
 30
0.0
 11
2408.252242484257
 21
885.0255547357445
 31
0.0
1001
AcDbBlockRepETag
1070
     1
1071
       11
1005
D9C
  0
LINE
  5
D9D
330
3E0
100
AcDbEntity
  8
0
  6
Continuous
 62
     7
370
    15
100
AcDbLine
 10
2405.852242484257
 20
885.2255547357566
 30
0.0
 11
2405.852242484257
 21
885.0255547357445
 31
0.0
1001
AcDbBlockRepETag
1070
     1
1071
       12
1005
D9D
  0
LINE
  5
D9E
330
3E0
100
AcDbEntity
  8
0
  6
Continuous
 62
     7
370
    15
100
AcDbLine
 10
2408.252242484257
 20
885.2255547357566
 30
0.0
 11
2408.252242484257
 21
885.0255547357445
 31
0.0
1001
AcDbBlockRepETag
1070
     1
1071
       13
1005
D9E
  0
LINE
  5
D9F
330
3E0
100
AcDbEntity
  8
0
  6
Continuous
 62
     7
370
    15
100
AcDbLine
 10
2406.052242484257
 20
883.423554735752
 30
0.0
 11
2405.852242484257
 21
883.6235547357519
 31
0.0
1001
AcDbBlockRepETag
1070
     1
1071
       14
1005
D9F
  0
LINE
  5
DA0
330
3E0
100
AcDbEntity
  8
0
  6
Continuous
 62
     7
370
    15
100
AcDbLine
 10
2405.852242484257
 20
883.6235547357519
 30
0.0
 11
2408.252242484258
 21
883.6235547357521
 31
0.0
1001
AcDbBlockRepETag
1070
     1
1071
       15
1005
DA0
  0
LINE
  5
DA1
330
3E0
100
AcDbEntity
  8
0
  6
Continuous
 62
     7
370
    15
100
AcDbLine
 10
2408.052242484257
 20
883.423554735752
 30
0.0
 11
2408.252242484258
 21
883.6235547357521
 31
0.0
1001
AcDbBlockRepETag
1070
     1
1071
       16
1005
DA1
  0
LINE
  5
DA2
330
3E0
100
AcDbEntity
  8
0
  6
Continuous
 62
     7
370
    15
100
AcDbLine
 10
2408.052242484257
 20
883.423554735752
 30
0.0
 11
2406.052242484257
 21
883.423554735752
 31
0.0
1001
AcDbBlockRepETag
1070
     1
1071
       17
1005
DA2
  0
LINE
  5
DA3
330
3E0
100
AcDbEntity
  8
0
  6
Continuous
 62
     7
370
    15
100
AcDbLine
 10
2405.852242484257
 20
885.0255547357445
 30
0.0
 11
2405.852242484257
 21
883.6235547357519
 31
0.0
1001
AcDbBlockRepETag
1070
     1
1071
       18
1005
DA3
  0
LINE
  5
DA4
330
3E0
100
AcDbEntity
  8
0
  6
Continuous
 62
     7
370
    15
100
AcDbLine
 10
2408.252242484258
 20
883.6235547357521
 30
0.0
 11
2408.252242484257
 21
885.0255547357445
 31
0.0
1001
AcDbBlockRepETag
1070
     1
1071
       19
1005
DA4
  0
LINE
  5
DA5
330
3E0
100
AcDbEntity
  8
0
  6
Continuous
 62
     7
370
    15
100
AcDbLine
 10
2408.502242484257
 20
890.0335547357526
 30
0.0
 11
2408.252242484257
 21
890.0335547357526
 31
0.0
1001
AcDbBlockRepETag
1070
     1
1071
       20
1005
DA5
  0
LINE
  5
DA6
330
3E0
100
AcDbEntity
  8
0
  6
Continuous
 62
     7
370
    15
100
AcDbLine
 10
2408.502242484257
 20
890.0335547357526
 30
0.0
 11
2408.252242484258
 21
888.7335547357533
 31
0.0
1001
AcDbBlockRepETag
1070
     1
1071
       21
1005
DA6
  0
LINE
  5
DA7
330
3E0
100
AcDbEntity
  8
0
  6
Continuous
 62
     7
370
    15
100
AcDbLine
 10
2405.602242484257
 20
890.0335547357526
 30
0.0
 11
2405.852242484256
 21
890.0335547357526
 31
0.0
1001
AcDbBlockRepETag
1070
     1
1071
       22
1005
DA7
  0
LINE
  5
DA8
330
3E0
100
AcDbEntity
  8
0
  6
Continuous
 62
     7
370
    15
100
AcDbLine
 10
2405.602242484257
 20
890.0335547357526
 30
0.0
 11
2405.852242484256
 21
888.7335547357526
 31
0.0
1001
AcDbBlockRepETag
1070
     1
1071
       23
1005
DA8
  0
LINE
  5
DA9
330
3E0
100
AcDbEntity
  8
0
  6
Continuous
 62
     7
370
    15
100
AcDbLine
 10
2407.552242484259
 20
883.423554735752
 30
0.0
 11
2407.552242484259
 21
882.6268267046682
 31
0.0
1001
AcDbBlockRepETag
1070
     1
1071
       24
1005
DA9
  0
ARC
  5
DAA
330
3E0
100
AcDbEntity
  8
0
  6
Continuous
 62
     7
370
    15
100
AcDbCircle
 10
2407.80224248426
 20
882.6268267046682
 30
0.0
 40
0.2500000000000853
100
AcDbArc
 50
179.9999999999088
 51
270.0
1001
AcDbBlockRepETag
1070
     1
1071
       25
1005
DAA
  0
LINE
  5
DAB
330
3E0
100
AcDbEntity
  8
0
  6
Continuous
 62
     7
370
    15
100
AcDbLine
 10
2407.80224248426
 20
882.3768267046681
 30
0.0
 11
2408.005076274491
 21
882.3768267046682
 31
0.0
1001
AcDbBlockRepETag
1070
     1
1071
       26
1005
DAB
  0
ARC
  5
DAC
330
3E0
100
AcDbEntity
  8
0
  6
Continuous
 62
     7
370
    15
100
AcDbCircle
 10
2408.005076274491
 20
882.1268267046683
 30
0.0
 40
0.2500000000000853
100
AcDbArc
 50
0.0000000001954133
 51
90.0
1001
AcDbBlockRepETag
1070
     1
1071
       27
1005
DAC
  0
LINE
  5
DAD
330
3E0
100
AcDbEntity
  8
0
  6
Continuous
 62
     7
370
    15
100
AcDbLine
 10
2408.255076274492
 20
882.1268267046683
 30
0.0
 11
2408.255076274492
 21
875.7320013451986
 31
0.0
1001
AcDbBlockRepETag
1070
     1
1071
       28
1005
DAD
  0
LINE
  5
DAE
330
3E0
100
AcDbEntity
  8
0
  6
Continuous
 62
     7
370
    15
100
AcDbLine
 10
2408.255076274492
 20
875.7320013451986
 30
0.0
 11
2405.859408694023
 21
875.7320013451952
 31
0.0
1001
AcDbBlockRepETag
1070
     1
1071
       29
1005
DAE
  0
LINE
  5
DAF
330
3E0
100
AcDbEntity
  8
0
  6
Continuous
 62
     7
370
    15
100
AcDbLine
 10
2405.859408694023
 20
875.7320013451952
 30
0.0
 11
2405.859408694023
 21
882.1268267046683
 31
0.0
1001
AcDbBlockRepETag
1070
     1
1071
       30
1005
DAF
  0
ARC
  5
DB0
330
3E0
100
AcDbEntity
  8
0
  6
Continuous
 62
     7
370
    15
100
AcDbCircle
 10
2406.109408694023
 20
882.1268267046683
 30
0.0
 40
0.2500000000003126
100
AcDbArc
 50
90.0
 51
179.9999999999348
1001
AcDbBlockRepETag
1070
     1
1071
       31
1005
DB0
  0
LINE
  5
DB1
330
3E0
100
AcDbEntity
  8
0
  6
Continuous
 62
     7
370
    15
100
AcDbLine
 10
2406.312242484257
 20
882.3768267046684
 30
0.0
 11
2406.109408694023
 21
882.3768267046686
 31
0.0
1001
AcDbBlockRepETag
1070
     1
1071
       32
1005
DB1
  0
ARC
  5
DB2
330
3E0
100
AcDbEntity
  8
0
  6
Continuous
 62
     7
370
    15
100
AcDbCircle
 10
2406.312242484257
 20
882.6268267046682
 30
0.0
 40
0.2500000000000853
100
AcDbArc
 50
270.0
 51
0.0000000015177098
1001
AcDbBlockRepETag
1070
     1
1071
       33
1005
DB2
  0
LINE
  5
DB3
330
3E0
100
AcDbEntity
  8
0
  6
Continuous
 62
     7
370
    15
100
AcDbLine
 10
2406.562242484258
 20
883.423554735752
 30
0.0
 11
2406.562242484258
 21
882.6268267046682
 31
0.0
1001
AcDbBlockRepETag
1070
     1
1071
       34
1005
DB3
  0
LINE
  5
DB4
330
3E0
100
AcDbEntity
  8
0
  6
Continuous
 62
     7
370
    15
100
AcDbLine
 10
2408.255076274492
 20
874.1413049100268
 30
0.0
 11
2405.859408694023
 21
874.141304910027
 31
0.0
1001
AcDbBlockRepETag
1070
     1
1071
       35
1005
DB4
  0
LINE
  5
DB5
330
3E0
100
AcDbEntity
  8
0
  6
Continuous
 62
     7
370
    15
100
AcDbLine
 10
2408.255076274492
 20
875.7320013451986
 30
0.0
 11
2408.255076274492
 21
874.1413049100268
 31
0.0
1001
AcDbBlockRepETag
1070
     1
1071
       36
1005
DB5
  0
LINE
  5
DB6
330
3E0
100
AcDbEntity
  8
0
  6
Continuous
 62
     7
370
    15
100
AcDbLine
 10
2405.859408694023
 20
874.141304910027
 30
0.0
 11
2405.859408694023
 21
875.7320013451952
 31
0.0
1001
AcDbBlockRepETag
1070
     1
1071
       37
1005
DB6
  0
LINE
  5
DB7
330
3E0
100
AcDbEntity
  8
0
  6
Continuous
 62
     7
370
    15
100
AcDbLine
 10
2405.859408694023
 20
873.8355547357613
 30
0.0
 11
2408.255076274492
 21
873.8355547357613
 31
0.0
1001
AcDbBlockRepETag
1070
     1
1071
       38
1005
DB7
  0
LINE
  5
DB8
330
3E0
100
AcDbEntity
  8
0
  6
Continuous
 62
     7
370
    15
100
AcDbLine
 10
2408.255076274492
 20
873.8355547357613
 30
0.0
 11
2408.255076274492
 21
874.1413049100268
 31
0.0
1001
AcDbBlockRepETag
1070
     1
1071
       39
1005
DB8
  0
LINE
  5
DB9
330
3E0
100
AcDbEntity
  8
0
  6
Continuous
 62
     7
370
    15
100
AcDbLine
 10
2405.859408694023
 20
874.141304910027
 30
0.0
 11
2405.859408694023
 21
873.8355547357613
 31
0.0
1001
AcDbBlockRepETag
1070
     1
1071
       40
1005
DB9
  0
ENDBLK
  5
3E2
330
3E0
100
AcDbEntity
  8
0
100
AcDbBlockEnd
  0
BLOCK
  5
40E
330
40D
100
AcDbEntity
  8
0
100
AcDbBlockBegin
  2
3
 70
     0
 10
0.0
 20
0.0
 30
0.0
  3
3
  1

  0
LINE
  5
998
330
40D
100
AcDbEntity
  8
0
  6
Continuous
 62
     7
370
    15
100
AcDbLine
 10
2418.315432880438
 20
858.2132964628025
 30
0.0
 11
2418.315432880438
 21
862.1132964628024
 31
0.0
1001
AcDbBlockRepETag
1070
     1
1071
        0
1005
998
  0
LINE
  5
999
330
40D
100
AcDbEntity
  8
0
  6
Continuous
 62
     7
370
    15
100
AcDbLine
 10
2468.715432880438
 20
862.1132964628021
 30
0.0
 11
2418.315432880438
 21
862.1132964628024
 31
0.0
1001
AcDbBlockRepETag
1070
     1
1071
        1
1005
999
  0
LINE
  5
99A
330
40D
100
AcDbEntity
  8
0
  6
Continuous
 62
     7
370
    15
100
AcDbLine
 10
2418.315432880438
 20
858.2132964628025
 30
0.0
 11
2468.715432880438
 21
858.2132964628019
 31
0.0
1001
AcDbBlockRepETag
1070
     1
1071
        2
1005
99A
  0
LINE
  5
9A0
330
40D
100
AcDbEntity
  8
0
  6
Continuous
 62
     7
370
    15
100
AcDbLine
 10
2468.715432880438
 20
858.2132964628025
 30
0.0
 11
2468.715432880438
 21
862.1132964628024
 31
0.0
1001
AcDbBlockRepETag
1070
     1
1071
        5
1005
9A0
  0
ENDBLK
  5
40F
330
40D
100
AcDbEntity
  8
0
100
AcDbBlockEnd
  0
BLOCK
  5
416
330
415
100
AcDbEntity
  8
0
100
AcDbBlockBegin
  2
4
 70
     0
 10
0.0
 20
0.0
 30
0.0
  3
4
  1

  0
LINE
  5
9A5
330
415
100
AcDbEntity
  8
0
  6
Continuous
 62
     7
370
    15
100
AcDbLine
 10
2444.197217780186
 20
882.998586797219
 30
0.0
 11
2443.752026094788
 21
882.7415831077162
 31
0.0
1001
AcDbBlockRepETag
1070
     1
1071
        0
1005
9A5
  0
LINE
  5
9A6
330
415
100
AcDbEntity
  8
0
  6
Continuous
 62
     7
370
    15
100
AcDbLine
 10
2447.803462364237
 20
885.0804274823666
 30
0.0
 11
2447.35827067884
 21
884.8234237928641
 31
0.0
1001
AcDbBlockRepETag
1070
     1
1071
        1
1005
9A6
  0
LINE
  5
9A7
330
415
100
AcDbEntity
  8
0
  6
Continuous
 62
     7
370
    15
100
AcDbLine
 10
2443.971240263371
 20
876.1018770900207
 30
0.0
 11
2445.665233054989
 21
875.1239558670583
 31
0.0
1001
AcDbBlockRepETag
1070
     1
1071
        2
1005
9A7
  0
LINE
  5
9A8
330
415
100
AcDbEntity
  8
0
  6
Continuous
 62
     7
370
    15
100
AcDbLine
 10
2447.577484847422
 20
878.1837177751686
 30
0.0
 11
2449.27147763904
 21
877.2057965522062
 31
0.0
1001
AcDbBlockRepETag
1070
     1
1071
        3
1005
9A8
  0
LINE
  5
9A9
330
415
100
AcDbEntity
  8
0
  6
Continuous
 62
     7
370
    15
100
AcDbLine
 10
2449.182320587361
 20
898.9739094653835
 30
0.0
 11
2410.150187173957
 21
876.4410762267772
 31
0.0
1001
AcDbBlockRepETag
1070
     1
1071
        4
1005
9A9
  0
LINE
  5
9AA
330
415
100
AcDbEntity
  8
0
  6
Continuous
 62
     7
370
    15
100
AcDbLine
 10
2449.182320587361
 20
898.9739094653835
 30
0.0
 11
2451.940037033988
 21
897.3819136473293
 31
0.0
1001
AcDbBlockRepETag
1070
     1
1071
        5
1005
9AA
  0
LINE
  5
9AB
330
415
100
AcDbEntity
  8
0
  6
Continuous
 62
     7
370
    15
100
AcDbLine
 10
2412.907849711103
 20
874.8491115300048
 30
0.0
 11
2451.940037033988
 21
897.3819136473293
 31
0.0
1001
AcDbBlockRepETag
1070
     1
1071
        6
1005
9AB
  0
LINE
  5
9AC
330
415
100
AcDbEntity
  8
0
  6
Continuous
 62
     7
370
    15
100
AcDbLine
 10
2451.940037033988
 20
897.3819136473293
 30
0.0
 11
2451.940037033988
 21
896.4428917136599
 31
0.0
1001
AcDbBlockRepETag
1070
     1
1071
        7
1005
9AC
  0
LINE
  5
9AD
330
415
100
AcDbEntity
  8
0
  6
Continuous
 62
     7
370
    15
100
AcDbLine
 10
2412.907903620585
 20
873.9101207176171
 30
0.0
 11
2451.940037033988
 21
896.4428917136599
 31
0.0
1001
AcDbBlockRepETag
1070
     1
1071
        8
1005
9AD
  0
LINE
  5
9AE
330
415
100
AcDbEntity
  8
0
  6
Continuous
 62
     7
370
    15
100
AcDbLine
 10
2445.328588629923
 20
886.7469904202776
 30
0.0
 11
2445.328588629924
 21
887.808493475733
 31
0.0
1001
AcDbBlockRepETag
1070
     1
1071
        9
1005
9AE
  0
LINE
  5
9AF
330
415
100
AcDbEntity
  8
0
  6
Continuous
 62
     7
370
    15
100
AcDbLine
 10
2447.09635558289
 20
887.7675005600599
 30
0.0
 11
2445.328588629923
 21
886.7469904202776
 31
0.0
1001
AcDbBlockRepETag
1070
     1
1071
       10
1005
9AF
  0
LINE
  5
9B0
330
415
100
AcDbEntity
  8
0
  6
Continuous
 62
     7
370
    15
100
AcDbLine
 10
2445.328588629924
 20
887.808493475733
 30
0.0
 11
2447.09635558289
 21
888.8290036155112
 31
0.0
1001
AcDbBlockRepETag
1070
     1
1071
       11
1005
9B0
  0
LINE
  5
9B1
330
415
100
AcDbEntity
  8
0
  6
Continuous
 62
     7
370
    15
100
AcDbLine
 10
2448.793411857821
 20
885.972584615507
 30
0.0
 11
2448.793411857821
 21
884.8277943972437
 31
0.0
1001
AcDbBlockRepETag
1070
     1
1071
       12
1005
9B1
  0
LINE
  5
9B2
330
415
100
AcDbEntity
  8
0
  6
Continuous
 62
     7
370
    15
100
AcDbLine
 10
2448.651990501583
 20
886.0542519667017
 30
0.0
 11
2448.793411857821
 21
885.972584615507
 31
0.0
1001
AcDbBlockRepETag
1070
     1
1071
       13
1005
9B2
  0
LINE
  5
9B3
330
415
100
AcDbEntity
  8
0
  6
Continuous
 62
     7
370
    15
100
AcDbLine
 10
2448.651990501583
 20
891.4434213251492
 30
0.0
 11
2448.651990501583
 21
886.0542519667017
 31
0.0
1001
AcDbBlockRepETag
1070
     1
1071
       14
1005
9B3
  0
LINE
  5
9B4
330
415
100
AcDbEntity
  8
0
  6
Continuous
 62
     7
370
    15
100
AcDbLine
 10
2447.379198295364
 20
890.7086540244605
 30
0.0
 11
2448.651990501583
 21
891.4434213251492
 31
0.0
1001
AcDbBlockRepETag
1070
     1
1071
       15
1005
9B4
  0
LINE
  5
9B5
330
415
100
AcDbEntity
  8
0
  6
Continuous
 62
     7
370
    15
100
AcDbLine
 10
2447.379198295364
 20
885.319484666013
 30
0.0
 11
2447.379198295364
 21
890.7086540244605
 31
0.0
1001
AcDbBlockRepETag
1070
     1
1071
       16
1005
9B5
  0
LINE
  5
9B6
330
415
100
AcDbEntity
  8
0
  6
Continuous
 62
     7
370
    15
100
AcDbLine
 10
2447.237776939127
 20
885.0745356924537
 30
0.0
 11
2447.379198295364
 21
885.319484666013
 31
0.0
1001
AcDbBlockRepETag
1070
     1
1071
       17
1005
9B6
  0
LINE
  5
9B7
330
415
100
AcDbEntity
  8
0
  6
Continuous
 62
     7
370
    15
100
AcDbLine
 10
2447.237776939127
 20
883.9297454741902
 30
0.0
 11
2447.237776939127
 21
885.0745356924537
 31
0.0
1001
AcDbBlockRepETag
1070
     1
1071
       18
1005
9B7
  0
LINE
  5
9B8
330
415
100
AcDbEntity
  8
0
  6
Continuous
 62
     7
370
    15
100
AcDbLine
 10
2445.187167273779
 20
882.7459537121008
 30
0.0
 11
2447.237776939127
 21
883.9297454741902
 31
0.0
1001
AcDbBlockRepETag
1070
     1
1071
       19
1005
9B8
  0
LINE
  5
9B9
330
415
100
AcDbEntity
  8
0
  6
Continuous
 62
     7
370
    15
100
AcDbLine
 10
2445.187167273779
 20
882.7459537121008
 30
0.0
 11
2445.187167273778
 21
883.8907439303588
 31
0.0
1001
AcDbBlockRepETag
1070
     1
1071
       20
1005
9B9
  0
LINE
  5
9BA
330
415
100
AcDbEntity
  8
0
  6
Continuous
 62
     7
370
    15
100
AcDbLine
 10
2445.187167273778
 20
883.8907439303588
 30
0.0
 11
2445.045745917532
 21
883.9724112815584
 31
0.0
1001
AcDbBlockRepETag
1070
     1
1071
       21
1005
9BA
  0
LINE
  5
9BB
330
415
100
AcDbEntity
  8
0
  6
Continuous
 62
     7
370
    15
100
AcDbLine
 10
2445.045745917532
 20
889.3615806399944
 30
0.0
 11
2445.045745917532
 21
883.9724112815584
 31
0.0
1001
AcDbBlockRepETag
1070
     1
1071
       22
1005
9BB
  0
LINE
  5
9BC
330
415
100
AcDbEntity
  8
0
  6
Continuous
 62
     7
370
    15
100
AcDbLine
 10
2445.045745917532
 20
889.3615806399944
 30
0.0
 11
2443.348689642685
 21
888.3818909057982
 31
0.0
1001
AcDbBlockRepETag
1070
     1
1071
       23
1005
9BC
  0
LINE
  5
9BD
330
415
100
AcDbEntity
  8
0
  6
Continuous
 62
     7
370
    15
100
AcDbLine
 10
2451.409706948098
 20
893.0354171431316
 30
0.0
 11
2451.409706948098
 21
896.1367386717261
 31
0.0
1001
AcDbBlockRepETag
1070
     1
1071
       24
1005
9BD
  0
LINE
  5
9BE
330
415
100
AcDbEntity
  8
0
  6
Continuous
 62
     7
370
    15
100
AcDbLine
 10
2451.409706948098
 20
893.0354171431316
 30
0.0
 11
2450.985442879416
 21
892.7904947096019
 31
0.0
1001
AcDbBlockRepETag
1070
     1
1071
       25
1005
9BE
  0
LINE
  5
9BF
330
415
100
AcDbEntity
  8
0
  6
Continuous
 62
     7
370
    15
100
AcDbLine
 10
2450.985442879415
 20
887.4013253511652
 30
0.0
 11
2450.985442879416
 21
892.7904947096019
 31
0.0
1001
AcDbBlockRepETag
1070
     1
1071
       26
1005
9BF
  0
LINE
  5
9C0
330
415
100
AcDbEntity
  8
0
  6
Continuous
 62
     7
370
    15
100
AcDbLine
 10
2450.985442879415
 20
887.4013253511652
 30
0.0
 11
2450.844021523169
 21
887.1563763775908
 31
0.0
1001
AcDbBlockRepETag
1070
     1
1071
       27
1005
9C0
  0
LINE
  5
9C1
330
415
100
AcDbEntity
  8
0
  6
Continuous
 62
     7
370
    15
100
AcDbLine
 10
2450.844021523169
 20
887.1563763775908
 30
0.0
 11
2450.844021523169
 21
886.0115861593328
 31
0.0
1001
AcDbBlockRepETag
1070
     1
1071
       28
1005
9C1
  0
LINE
  5
9C2
330
415
100
AcDbEntity
  8
0
  6
Continuous
 62
     7
370
    15
100
AcDbLine
 10
2448.793411857821
 20
884.8277943972437
 30
0.0
 11
2450.844021523169
 21
886.0115861593328
 31
0.0
1001
AcDbBlockRepETag
1070
     1
1071
       29
1005
9C2
  0
LINE
  5
9C3
330
415
100
AcDbEntity
  8
0
  6
Continuous
 62
     7
370
    15
100
AcDbLine
 10
2448.934833213974
 20
888.8288311054255
 30
0.0
 11
2448.934833213975
 21
889.8903341608809
 31
0.0
1001
AcDbBlockRepETag
1070
     1
1071
       30
1005
9C3
  0
LINE
  5
9C4
330
415
100
AcDbEntity
  8
0
  6
Continuous
 62
     7
370
    15
100
AcDbLine
 10
2450.702600166942
 20
889.8493412452078
 30
0.0
 11
2448.934833213974
 21
888.8288311054255
 31
0.0
1001
AcDbBlockRepETag
1070
     1
1071
       31
1005
9C4
  0
LINE
  5
9C5
330
415
100
AcDbEntity
  8
0
  6
Continuous
 62
     7
370
    15
100
AcDbLine
 10
2448.934833213975
 20
889.8903341608809
 30
0.0
 11
2450.702600166942
 21
890.9108443006592
 31
0.0
1001
AcDbBlockRepETag
1070
     1
1071
       32
1005
9C5
  0
LINE
  5
9C6
330
415
100
AcDbEntity
  8
0
  6
Continuous
 62
     7
370
    15
100
AcDbLine
 10
2443.348689642685
 20
884.9521010157454
 30
0.0
 11
2445.045745917532
 21
883.9724112815584
 31
0.0
1001
AcDbBlockRepETag
1070
     1
1071
       33
1005
9C6
  0
LINE
  5
9C7
330
415
100
AcDbEntity
  8
0
  6
Continuous
 62
     7
370
    15
100
AcDbLine
 10
2443.348689642685
 20
888.3818909057982
 30
0.0
 11
2443.348689642685
 21
884.9521010157454
 31
0.0
1001
AcDbBlockRepETag
1070
     1
1071
       34
1005
9C7
  0
LINE
  5
9C8
330
415
100
AcDbEntity
  8
0
  6
Continuous
 62
     7
370
    15
100
AcDbLine
 10
2445.328588629923
 20
886.7469904202776
 30
0.0
 11
2445.505365325221
 21
887.7064424617552
 31
0.0
1001
AcDbBlockRepETag
1070
     1
1071
       35
1005
9C8
  0
LINE
  5
9C9
330
415
100
AcDbEntity
  8
0
  6
Continuous
 62
     7
370
    15
100
AcDbLine
 10
2445.505365325221
 20
887.7064424617552
 30
0.0
 11
2445.328588629924
 21
887.808493475733
 31
0.0
1001
AcDbBlockRepETag
1070
     1
1071
       36
1005
9C9
  0
LINE
  5
9CA
330
415
100
AcDbEntity
  8
0
  6
Continuous
 62
     7
370
    15
100
AcDbLine
 10
2447.273132278187
 20
888.7269526015336
 30
0.0
 11
2447.09635558289
 21
888.8290036155112
 31
0.0
1001
AcDbBlockRepETag
1070
     1
1071
       37
1005
9CA
  0
LINE
  5
9CB
330
415
100
AcDbEntity
  8
0
  6
Continuous
 62
     7
370
    15
100
AcDbLine
 10
2445.505365325221
 20
887.7064424617552
 30
0.0
 11
2447.273132278187
 21
888.7269526015336
 31
0.0
1001
AcDbBlockRepETag
1070
     1
1071
       38
1005
9CB
  0
LINE
  5
9CC
330
415
100
AcDbEntity
  8
0
  6
Continuous
 62
     7
370
    15
100
AcDbLine
 10
2447.273132278187
 20
888.7269526015336
 30
0.0
 11
2447.09635558289
 21
887.7675005600599
 31
0.0
1001
AcDbBlockRepETag
1070
     1
1071
       39
1005
9CC
  0
LINE
  5
9CD
330
415
100
AcDbEntity
  8
0
  6
Continuous
 62
     7
370
    15
100
AcDbLine
 10
2447.379198295364
 20
886.7890192673904
 30
0.0
 11
2448.651990501583
 21
886.0542519667017
 31
0.0
1001
AcDbBlockRepETag
1070
     1
1071
       40
1005
9CD
  0
LINE
  5
9CE
330
415
100
AcDbEntity
  8
0
  6
Continuous
 62
     7
370
    15
100
AcDbLine
 10
2443.490110998931
 20
884.8704336645457
 30
0.0
 11
2445.187167273778
 21
883.8907439303588
 31
0.0
1001
AcDbBlockRepETag
1070
     1
1071
       41
1005
9CE
  0
LINE
  5
9CF
330
415
100
AcDbEntity
  8
0
  6
Continuous
 62
     7
370
    15
100
AcDbLine
 10
2443.490110998931
 20
884.8704336645457
 30
0.0
 11
2443.348689642685
 21
884.9521010157454
 31
0.0
1001
AcDbBlockRepETag
1070
     1
1071
       42
1005
9CF
  0
LINE
  5
9D0
330
415
100
AcDbEntity
  8
0
  6
Continuous
 62
     7
370
    15
100
AcDbLine
 10
2443.490110998931
 20
883.7256434462881
 30
0.0
 11
2445.187167273779
 21
882.7459537121008
 31
0.0
1001
AcDbBlockRepETag
1070
     1
1071
       43
1005
9D0
  0
LINE
  5
9D1
330
415
100
AcDbEntity
  8
0
  6
Continuous
 62
     7
370
    15
100
AcDbLine
 10
2443.490110998931
 20
884.8704336645457
 30
0.0
 11
2443.490110998931
 21
883.7256434462881
 31
0.0
1001
AcDbBlockRepETag
1070
     1
1071
       44
1005
9D1
  0
LINE
  5
9D2
330
415
100
AcDbEntity
  8
0
  6
Continuous
 62
     7
370
    15
100
AcDbLine
 10
2449.111609909272
 20
889.7882831469031
 30
0.0
 11
2450.879376862238
 21
890.8087932866814
 31
0.0
1001
AcDbBlockRepETag
1070
     1
1071
       45
1005
9D2
  0
LINE
  5
9D3
330
415
100
AcDbEntity
  8
0
  6
Continuous
 62
     7
370
    15
100
AcDbLine
 10
2450.879376862238
 20
890.8087932866814
 30
0.0
 11
2450.702600166942
 21
889.8493412452078
 31
0.0
1001
AcDbBlockRepETag
1070
     1
1071
       46
1005
9D3
  0
LINE
  5
9D4
330
415
100
AcDbEntity
  8
0
  6
Continuous
 62
     7
370
    15
100
AcDbLine
 10
2448.934833213974
 20
888.8288311054255
 30
0.0
 11
2449.111609909272
 21
889.7882831469031
 31
0.0
1001
AcDbBlockRepETag
1070
     1
1071
       47
1005
9D4
  0
LINE
  5
9D5
330
415
100
AcDbEntity
  8
0
  6
Continuous
 62
     7
370
    15
100
AcDbLine
 10
2450.879376862238
 20
890.8087932866814
 30
0.0
 11
2450.702600166942
 21
890.9108443006592
 31
0.0
1001
AcDbBlockRepETag
1070
     1
1071
       48
1005
9D5
  0
LINE
  5
9D6
330
415
100
AcDbEntity
  8
0
  6
Continuous
 62
     7
370
    15
100
AcDbLine
 10
2449.111609909272
 20
889.7882831469031
 30
0.0
 11
2448.934833213975
 21
889.8903341608809
 31
0.0
1001
AcDbBlockRepETag
1070
     1
1071
       49
1005
9D6
  0
LINE
  5
9D7
330
415
100
AcDbEntity
  8
0
  6
Continuous
 62
     7
370
    15
100
AcDbLine
 10
2443.490110998931
 20
883.7256434462881
 30
0.0
 11
2443.772953711405
 21
883.5623352839109
 31
0.0
1001
AcDbBlockRepETag
1070
     1
1071
       50
1005
9D7
  0
LINE
  5
9D8
330
415
100
AcDbEntity
  8
0
  6
Continuous
 62
     7
370
    15
100
AcDbLine
 10
2445.187167273779
 20
882.7459537121008
 30
0.0
 11
2445.187167273778
 21
882.7459271720881
 31
0.0
1001
AcDbBlockRepETag
1070
     1
1071
       51
1005
9D8
  0
LINE
  5
9D9
330
415
100
AcDbEntity
  8
0
  6
Continuous
 62
     7
370
    15
100
AcDbLine
 10
2445.187167273778
 20
882.7459271720881
 30
0.0
 11
2443.772953711405
 21
883.5623352839109
 31
0.0
1001
AcDbBlockRepETag
1070
     1
1071
       52
1005
9D9
  0
LINE
  5
9DA
330
415
100
AcDbEntity
  8
0
  6
Continuous
 62
     7
370
    15
100
AcDbLine
 10
2447.237776939127
 20
883.9297454741902
 30
0.0
 11
2446.954934226653
 21
883.7664373118133
 31
0.0
1001
AcDbBlockRepETag
1070
     1
1071
       53
1005
9DA
  0
LINE
  5
9DB
330
415
100
AcDbEntity
  8
0
  6
Continuous
 62
     7
370
    15
100
AcDbLine
 10
2446.954934226653
 20
883.7664373118133
 30
0.0
 11
2445.187167273778
 21
882.7459271720881
 31
0.0
1001
AcDbBlockRepETag
1070
     1
1071
       54
1005
9DB
  0
ARC
  5
9DC
330
415
100
AcDbEntity
  8
0
  6
Continuous
 62
     7
370
    15
100
AcDbCircle
 10
2445.281057518908
 20
882.3618359059491
 30
0.0
 40
0.3842012018917073
100
AcDbArc
 50
182.6054784855653
 51
237.3945216600927
1001
AcDbBlockRepETag
1070
     1
1071
       55
1005
9DC
  0
LINE
  5
9DD
330
415
100
AcDbEntity
  8
0
  6
Continuous
 62
     7
370
    15
100
AcDbLine
 10
2445.217455337392
 20
881.9553869000861
 30
0.0
 11
2445.074030188864
 21
882.0381844759353
 31
0.0
1001
AcDbBlockRepETag
1070
     1
1071
       56
1005
9DD
  0
ARC
  5
9DE
330
415
100
AcDbEntity
  8
0
  6
Continuous
 62
     7
370
    15
100
AcDbCircle
 10
2445.010428007347
 20
881.6317354700718
 30
0.0
 40
0.3842012018927381
100
AcDbArc
 50
2.605478485597803
 51
57.39452166000233
1001
AcDbBlockRepETag
1070
     1
1071
       57
1005
9DE
  0
LINE
  5
9DF
330
415
100
AcDbEntity
  8
0
  6
Continuous
 62
     7
370
    15
100
AcDbLine
 10
2445.394232032689
 20
881.6492006831365
 30
0.0
 11
2445.394232032689
 21
876.4275647922424
 31
0.0
1001
AcDbBlockRepETag
1070
     1
1071
       58
1005
9DF
  0
LINE
  5
9E0
330
415
100
AcDbEntity
  8
0
  6
Continuous
 62
     7
370
    15
100
AcDbLine
 10
2445.394232032689
 20
876.4275647922424
 30
0.0
 11
2443.700239241071
 21
877.4054860152048
 31
0.0
1001
AcDbBlockRepETag
1070
     1
1071
       59
1005
9E0
  0
LINE
  5
9E1
330
415
100
AcDbEntity
  8
0
  6
Continuous
 62
     7
370
    15
100
AcDbLine
 10
2443.700239241071
 20
877.4054860152048
 30
0.0
 11
2443.700239241071
 21
882.6271219060989
 31
0.0
1001
AcDbBlockRepETag
1070
     1
1071
       60
1005
9E1
  0
ARC
  5
9E2
330
415
100
AcDbEntity
  8
0
  6
Continuous
 62
     7
370
    15
100
AcDbCircle
 10
2443.808007832928
 20
882.6446037053241
 30
0.0
 40
0.1091772993572724
100
AcDbArc
 50
50.79671476440671
 51
189.2140369903814
1001
AcDbBlockRepETag
1070
     1
1071
       61
1005
9E2
  0
LINE
  5
9E3
330
415
100
AcDbEntity
  8
0
  6
Continuous
 62
     7
370
    15
100
AcDbLine
 10
2443.877015936368
 20
882.7292060950926
 30
0.0
 11
2444.020441084886
 21
882.6464085192396
 31
0.0
1001
AcDbBlockRepETag
1070
     1
1071
       62
1005
9E3
  0
ARC
  5
9E4
330
415
100
AcDbEntity
  8
0
  6
Continuous
 62
     7
370
    15
100
AcDbCircle
 10
2444.089449188326
 20
882.7310109090097
 30
0.0
 40
0.1091772993578319
100
AcDbArc
 50
230.7967147652449
 51
9.214036989391976
1001
AcDbBlockRepETag
1070
     1
1071
       63
1005
9E4
  0
LINE
  5
9E5
330
415
100
AcDbEntity
  8
0
  6
Continuous
 62
     7
370
    15
100
AcDbLine
 10
2444.197217780183
 20
882.7484927082331
 30
0.0
 11
2444.19721778019
 21
883.317412850322
 31
0.0
1001
AcDbBlockRepETag
1070
     1
1071
       64
1005
9E5
  0
LINE
  5
9E6
330
415
100
AcDbEntity
  8
0
  6
Continuous
 62
     7
370
    15
100
AcDbLine
 10
2444.897253493567
 20
882.3443706928845
 30
0.0
 11
2444.897253493567
 21
882.9132908349684
 31
0.0
1001
AcDbBlockRepETag
1070
     1
1071
       65
1005
9E6
  0
LINE
  5
9E7
330
415
100
AcDbEntity
  8
0
  6
Continuous
 62
     7
370
    15
100
AcDbLine
 10
2446.523599090032
 20
883.5174328376513
 30
0.0
 11
2446.523599090035
 21
883.2832400213296
 31
0.0
1001
AcDbBlockRepETag
1070
     1
1071
       66
1005
9E7
  0
LINE
  5
9E8
330
415
100
AcDbEntity
  8
0
  6
Continuous
 62
     7
370
    15
100
AcDbLine
 10
2446.523599090035
 20
883.2832400213296
 30
0.0
 11
2444.897253493567
 21
882.3443706928845
 31
0.0
1001
AcDbBlockRepETag
1070
     1
1071
       67
1005
9E8
  0
LINE
  5
9E9
330
415
100
AcDbEntity
  8
0
  6
Continuous
 62
     7
370
    15
100
AcDbLine
 10
2447.020577629177
 20
882.5880700115936
 30
0.0
 11
2445.394232032689
 21
881.6492006831365
 31
0.0
1001
AcDbBlockRepETag
1070
     1
1071
       68
1005
9E9
  0
LINE
  5
9EA
330
415
100
AcDbEntity
  8
0
  6
Continuous
 62
     7
370
    15
100
AcDbLine
 10
2446.843800933881
 20
882.8942562285433
 30
0.0
 11
2445.217455337392
 21
881.9553869000861
 31
0.0
1001
AcDbBlockRepETag
1070
     1
1071
       69
1005
9EA
  0
ARC
  5
9EB
330
415
100
AcDbEntity
  8
0
  6
Continuous
 62
     7
370
    15
100
AcDbCircle
 10
2446.63677360383
 20
882.5706047985267
 30
0.0
 40
0.3842012018978607
100
AcDbArc
 50
2.605478485871099
 51
57.39452165947827
1001
AcDbBlockRepETag
1070
     1
1071
       70
1005
9EB
  0
LINE
  5
9EC
330
415
100
AcDbEntity
  8
0
  6
Continuous
 62
     7
370
    15
100
AcDbLine
 10
2446.700375785346
 20
882.9770538043892
 30
0.0
 11
2445.074030188864
 21
882.0381844759353
 31
0.0
1001
AcDbBlockRepETag
1070
     1
1071
       71
1005
9EC
  0
ARC
  5
9ED
330
415
100
AcDbEntity
  8
0
  6
Continuous
 62
     7
370
    15
100
AcDbCircle
 10
2446.907403115436
 20
883.3007052344482
 30
0.0
 40
0.3842012019544738
100
AcDbArc
 50
182.6054784932199
 51
237.394521658022
1001
AcDbBlockRepETag
1070
     1
1071
       72
1005
9ED
  0
LINE
  5
9EE
330
415
100
AcDbEntity
  8
0
  6
Continuous
 62
     7
370
    15
100
AcDbLine
 10
2446.822246410263
 20
875.9530713864638
 30
0.0
 11
2447.020577629173
 21
877.3664341207
 31
0.0
1001
AcDbBlockRepETag
1070
     1
1071
       73
1005
9EE
  0
ARC
  5
9EF
330
415
100
AcDbEntity
  8
0
  6
Continuous
 62
     7
370
    15
100
AcDbCircle
 10
2446.250210034092
 20
876.0405071150671
 30
0.0
 40
0.5786800690351719
100
AcDbArc
 50
302.9067666138764
 51
351.3096048992635
1001
AcDbBlockRepETag
1070
     1
1071
       74
1005
9EF
  0
LINE
  5
9F0
330
415
100
AcDbEntity
  8
0
  6
Continuous
 62
     7
370
    15
100
AcDbLine
 10
2445.850218020526
 20
875.1422738457414
 30
0.0
 11
2446.564591641344
 21
875.5546729588775
 31
0.0
1001
AcDbBlockRepETag
1070
     1
1071
       75
1005
9F0
  0
LWPOLYLINE
  5
9F1
330
415
100
AcDbEntity
  8
0
  6
Continuous
 62
     7
370
    15
100
AcDbPolyline
 90
        9
 70
   128
 43
0.0
 10
2445.592563251608
 20
875.2431904092118
 10
2445.604366701502
 20
875.199135840627
 10
2445.623640219319
 20
875.1625333154718
 10
2445.649798188971
 20
875.134494982951
 10
2445.682045813788
 20
875.1158727736104
 10
2445.719403266007
 20
875.1072325138572
 10
2445.760735458347
 20
875.1088367336119
 10
2445.804786533058
 20
875.1206366894692
 10
2445.850218020526
 20
875.1422738457414
1001
AcDbBlockRepETag
1070
     1
1071
       76
1005
9F1
  0
LINE
  5
9F2
330
415
100
AcDbEntity
  8
0
  6
Continuous
 62
     7
370
    15
100
AcDbLine
 10
2445.394232032689
 20
876.4275647922424
 30
0.0
 11
2445.592563251608
 21
875.2431904092118
 31
0.0
1001
AcDbBlockRepETag
1070
     1
1071
       77
1005
9F2
  0
LINE
  5
9F3
330
415
100
AcDbEntity
  8
0
  6
Continuous
 62
     7
370
    15
100
AcDbLine
 10
2447.020577629173
 20
877.3664341207
 30
0.0
 11
2447.020577629177
 21
882.5880700115936
 31
0.0
1001
AcDbBlockRepETag
1070
     1
1071
       78
1005
9F3
  0
LINE
  5
9F4
330
415
100
AcDbEntity
  8
0
  6
Continuous
 62
     7
370
    15
100
AcDbLine
 10
2446.700375785346
 20
882.9770538043892
 30
0.0
 11
2446.843800933881
 21
882.8942562285433
 31
0.0
1001
AcDbBlockRepETag
1070
     1
1071
       79
1005
9F4
  0
LINE
  5
9F5
330
415
100
AcDbEntity
  8
0
  6
Continuous
 62
     7
370
    15
100
AcDbLine
 10
2448.793411857821
 20
885.972584615507
 30
0.0
 11
2447.379198295364
 21
886.7889927273777
 31
0.0
1001
AcDbBlockRepETag
1070
     1
1071
       80
1005
9F5
  0
LINE
  5
9F6
330
415
100
AcDbEntity
  8
0
  6
Continuous
 62
     7
370
    15
100
AcDbLine
 10
2448.793411857821
 20
884.8277943972437
 30
0.0
 11
2447.379198295364
 21
885.6442025091148
 31
0.0
1001
AcDbBlockRepETag
1070
     1
1071
       81
1005
9F6
  0
LINE
  5
9F7
330
415
100
AcDbEntity
  8
0
  6
Continuous
 62
     7
370
    15
100
AcDbLine
 10
2448.793411857821
 20
884.827767857231
 30
0.0
 11
2448.793411857821
 21
884.8277943972437
 31
0.0
1001
AcDbBlockRepETag
1070
     1
1071
       82
1005
9F7
  0
LINE
  5
9F8
330
415
100
AcDbEntity
  8
0
  6
Continuous
 62
     7
370
    15
100
AcDbLine
 10
2447.379198295448
 20
885.6441759690538
 30
0.0
 11
2448.793411857821
 21
884.827767857231
 31
0.0
1001
AcDbBlockRepETag
1070
     1
1071
       83
1005
9F8
  0
LINE
  5
9F9
330
415
100
AcDbEntity
  8
0
  6
Continuous
 62
     7
370
    15
100
AcDbLine
 10
2450.561178810695
 20
885.8482779969559
 30
0.0
 11
2450.844021523169
 21
886.0115861593328
 31
0.0
1001
AcDbBlockRepETag
1070
     1
1071
       84
1005
9F9
  0
LINE
  5
9FA
330
415
100
AcDbEntity
  8
0
  6
Continuous
 62
     7
370
    15
100
AcDbLine
 10
2450.561178810695
 20
885.8482779969559
 30
0.0
 11
2448.793411857821
 21
884.827767857231
 31
0.0
1001
AcDbBlockRepETag
1070
     1
1071
       85
1005
9FA
  0
LINE
  5
9FB
330
415
100
AcDbEntity
  8
0
  6
Continuous
 62
     7
370
    15
100
AcDbLine
 10
2448.503498077619
 20
884.9951315201062
 30
0.0
 11
2448.503498077619
 21
884.4262113780324
 31
0.0
1001
AcDbBlockRepETag
1070
     1
1071
       86
1005
9FB
  0
ARC
  5
9FC
330
415
100
AcDbEntity
  8
0
  6
Continuous
 62
     7
370
    15
100
AcDbCircle
 10
2448.887302102959
 20
884.443676591097
 30
0.0
 40
0.3842012018917937
100
AcDbArc
 50
182.6054784855718
 51
237.3945216600672
1001
AcDbBlockRepETag
1070
     1
1071
       87
1005
9FC
  0
LINE
  5
9FD
330
415
100
AcDbEntity
  8
0
  6
Continuous
 62
     7
370
    15
100
AcDbLine
 10
2448.823699921443
 20
884.037227585234
 30
0.0
 11
2448.680274772915
 21
884.1200251610832
 31
0.0
1001
AcDbBlockRepETag
1070
     1
1071
       88
1005
9FD
  0
ARC
  5
9FE
330
415
100
AcDbEntity
  8
0
  6
Continuous
 62
     7
370
    15
100
AcDbCircle
 10
2448.616672591398
 20
883.7135761552197
 30
0.0
 40
0.384201201892799
100
AcDbArc
 50
2.605478485597803
 51
57.39452166000233
1001
AcDbBlockRepETag
1070
     1
1071
       89
1005
9FE
  0
LINE
  5
9FF
330
415
100
AcDbEntity
  8
0
  6
Continuous
 62
     7
370
    15
100
AcDbLine
 10
2449.00047661674
 20
883.7310413682844
 30
0.0
 11
2449.000476616741
 21
878.5094054773903
 31
0.0
1001
AcDbBlockRepETag
1070
     1
1071
       90
1005
9FF
  0
LINE
  5
A00
330
415
100
AcDbEntity
  8
0
  6
Continuous
 62
     7
370
    15
100
AcDbLine
 10
2449.000476616741
 20
878.5094054773903
 30
0.0
 11
2447.306483825122
 21
879.4873267003527
 31
0.0
1001
AcDbBlockRepETag
1070
     1
1071
       91
1005
A00
  0
LINE
  5
A01
330
415
100
AcDbEntity
  8
0
  6
Continuous
 62
     7
370
    15
100
AcDbLine
 10
2447.306483825122
 20
879.4873267003527
 30
0.0
 11
2447.306483825122
 21
884.7089625912468
 31
0.0
1001
AcDbBlockRepETag
1070
     1
1071
       92
1005
A01
  0
ARC
  5
A02
330
415
100
AcDbEntity
  8
0
  6
Continuous
 62
     7
370
    15
100
AcDbCircle
 10
2447.414252416979
 20
884.7264443904718
 30
0.0
 40
0.1091772993573239
100
AcDbArc
 50
50.79671476442689
 51
189.2140369903622
1001
AcDbBlockRepETag
1070
     1
1071
       93
1005
A02
  0
LINE
  5
A03
330
415
100
AcDbEntity
  8
0
  6
Continuous
 62
     7
370
    15
100
AcDbLine
 10
2447.483260520419
 20
884.8110467802404
 30
0.0
 11
2447.626685668937
 21
884.7282492043868
 31
0.0
1001
AcDbBlockRepETag
1070
     1
1071
       94
1005
A03
  0
ARC
  5
A04
330
415
100
AcDbEntity
  8
0
  6
Continuous
 62
     7
370
    15
100
AcDbCircle
 10
2447.695693772375
 20
884.8128515941573
 30
0.0
 40
0.1091772993579586
100
AcDbArc
 50
230.7967147654077
 51
9.214036989220629
1001
AcDbBlockRepETag
1070
     1
1071
       95
1005
A04
  0
LINE
  5
A05
330
415
100
AcDbEntity
  8
0
  6
Continuous
 62
     7
370
    15
100
AcDbLine
 10
2447.803462364241
 20
885.3992535354597
 30
0.0
 11
2447.803462364233
 21
884.8303333933802
 31
0.0
1001
AcDbBlockRepETag
1070
     1
1071
       96
1005
A05
  0
LINE
  5
A06
330
415
100
AcDbEntity
  8
0
  6
Continuous
 62
     7
370
    15
100
AcDbLine
 10
2450.129843674096
 20
885.599273522807
 30
0.0
 11
2450.12984367409
 21
885.3650807064799
 31
0.0
1001
AcDbBlockRepETag
1070
     1
1071
       97
1005
A06
  0
LINE
  5
A07
330
415
100
AcDbEntity
  8
0
  6
Continuous
 62
     7
370
    15
100
AcDbLine
 10
2450.12984367409
 20
885.3650807064799
 30
0.0
 11
2448.503498077619
 21
884.4262113780324
 31
0.0
1001
AcDbBlockRepETag
1070
     1
1071
       98
1005
A07
  0
LINE
  5
A08
330
415
100
AcDbEntity
  8
0
  6
Continuous
 62
     7
370
    15
100
AcDbLine
 10
2450.626822213228
 20
884.6699106967415
 30
0.0
 11
2449.00047661674
 21
883.7310413682844
 31
0.0
1001
AcDbBlockRepETag
1070
     1
1071
       99
1005
A08
  0
LINE
  5
A09
330
415
100
AcDbEntity
  8
0
  6
Continuous
 62
     7
370
    15
100
AcDbLine
 10
2450.450045517932
 20
884.9760969136912
 30
0.0
 11
2448.823699921443
 21
884.037227585234
 31
0.0
1001
AcDbBlockRepETag
1070
     1
1071
      100
1005
A09
  0
ARC
  5
A0A
330
415
100
AcDbEntity
  8
0
  6
Continuous
 62
     7
370
    15
100
AcDbCircle
 10
2450.243018187882
 20
884.6524454836744
 30
0.0
 40
0.3842012018977523
100
AcDbArc
 50
2.605478485891805
 51
57.39452165953621
1001
AcDbBlockRepETag
1070
     1
1071
      101
1005
A0A
  0
LINE
  5
A0B
330
415
100
AcDbEntity
  8
0
  6
Continuous
 62
     7
370
    15
100
AcDbLine
 10
2450.306620369398
 20
885.058894489537
 30
0.0
 11
2448.680274772915
 21
884.1200251610832
 31
0.0
1001
AcDbBlockRepETag
1070
     1
1071
      102
1005
A0B
  0
ARC
  5
A0C
330
415
100
AcDbEntity
  8
0
  6
Continuous
 62
     7
370
    15
100
AcDbCircle
 10
2450.513647699469
 20
885.3825459195808
 30
0.0
 40
0.3842012019320017
100
AcDbArc
 50
182.6054784907165
 51
237.3945216590121
1001
AcDbBlockRepETag
1070
     1
1071
      103
1005
A0C
  0
LINE
  5
A0D
330
415
100
AcDbEntity
  8
0
  6
Continuous
 62
     7
370
    15
100
AcDbLine
 10
2450.428490994314
 20
878.0349120716117
 30
0.0
 11
2450.626822213225
 21
879.4482748058479
 31
0.0
1001
AcDbBlockRepETag
1070
     1
1071
      104
1005
A0D
  0
ARC
  5
A0E
330
415
100
AcDbEntity
  8
0
  6
Continuous
 62
     7
370
    15
100
AcDbCircle
 10
2449.856454618144
 20
878.1223478002146
 30
0.0
 40
0.5786800690343216
100
AcDbArc
 50
302.9067666138149
 51
351.3096048992892
1001
AcDbBlockRepETag
1070
     1
1071
      105
1005
A0E
  0
LINE
  5
A0F
330
415
100
AcDbEntity
  8
0
  6
Continuous
 62
     7
370
    15
100
AcDbLine
 10
2449.456462604578
 20
877.2241145308894
 30
0.0
 11
2450.170836225395
 21
877.6365136440256
 31
0.0
1001
AcDbBlockRepETag
1070
     1
1071
      106
1005
A0F
  0
LWPOLYLINE
  5
A10
330
415
100
AcDbEntity
  8
0
  6
Continuous
 62
     7
370
    15
100
AcDbPolyline
 90
        9
 70
   128
 43
0.0
 10
2449.198807835659
 20
877.3250310943595
 10
2449.210611285554
 20
877.2809765257751
 10
2449.22988480337
 20
877.2443740006197
 10
2449.256042773023
 20
877.2163356680989
 10
2449.288290397839
 20
877.1977134587583
 10
2449.325647850058
 20
877.1890731990051
 10
2449.366980042398
 20
877.1906774187598
 10
2449.411031117109
 20
877.2024773746172
 10
2449.456462604578
 20
877.2241145308894
1001
AcDbBlockRepETag
1070
     1
1071
      107
1005
A10
  0
LINE
  5
A11
330
415
100
AcDbEntity
  8
0
  6
Continuous
 62
     7
370
    15
100
AcDbLine
 10
2449.000476616741
 20
878.5094054773903
 30
0.0
 11
2449.198807835659
 21
877.3250310943595
 31
0.0
1001
AcDbBlockRepETag
1070
     1
1071
      108
1005
A11
  0
LINE
  5
A12
330
415
100
AcDbEntity
  8
0
  6
Continuous
 62
     7
370
    15
100
AcDbLine
 10
2450.626822213225
 20
879.4482748058479
 30
0.0
 11
2450.626822213228
 21
884.6699106967415
 31
0.0
1001
AcDbBlockRepETag
1070
     1
1071
      109
1005
A12
  0
LINE
  5
A13
330
415
100
AcDbEntity
  8
0
  6
Continuous
 62
     7
370
    15
100
AcDbLine
 10
2450.306620369398
 20
885.058894489537
 30
0.0
 11
2450.450045517932
 21
884.9760969136912
 31
0.0
1001
AcDbBlockRepETag
1070
     1
1071
      110
1005
A13
  0
LINE
  5
A14
330
415
100
AcDbEntity
  8
0
  6
Continuous
 62
     7
370
    15
100
AcDbLine
 10
2445.592563251608
 20
875.2431904092118
 30
0.0
 11
2443.89857045999
 21
876.221111632174
 31
0.0
1001
AcDbBlockRepETag
1070
     1
1071
      111
1005
A14
  0
LINE
  5
A15
330
415
100
AcDbEntity
  8
0
  6
Continuous
 62
     7
370
    15
100
AcDbLine
 10
2443.89857045999
 20
876.221111632174
 30
0.0
 11
2443.700239241071
 21
877.4054860152048
 31
0.0
1001
AcDbBlockRepETag
1070
     1
1071
      112
1005
A15
  0
ARC
  5
A16
330
415
100
AcDbEntity
  8
0
  6
Continuous
 62
     7
370
    15
100
AcDbCircle
 10
2444.05767112235
 20
876.2363163340644
 30
0.0
 40
0.1598255415222954
100
AcDbArc
 50
185.4589815370583
 51
237.2630757802572
1001
AcDbBlockRepETag
1070
     1
1071
      113
1005
A16
  0
LINE
  5
A17
330
415
100
AcDbEntity
  8
0
  6
Continuous
 62
     7
370
    15
100
AcDbLine
 10
2449.198807835659
 20
877.3250310943595
 30
0.0
 11
2447.504815044041
 21
878.3029523173221
 31
0.0
1001
AcDbBlockRepETag
1070
     1
1071
      114
1005
A17
  0
LINE
  5
A18
330
415
100
AcDbEntity
  8
0
  6
Continuous
 62
     7
370
    15
100
AcDbLine
 10
2447.504815044041
 20
878.3029523173221
 30
0.0
 11
2447.306483825122
 21
879.4873267003527
 31
0.0
1001
AcDbBlockRepETag
1070
     1
1071
      115
1005
A18
  0
ARC
  5
A19
330
415
100
AcDbEntity
  8
0
  6
Continuous
 62
     7
370
    15
100
AcDbCircle
 10
2447.663915706403
 20
878.3181570192127
 30
0.0
 40
0.1598255415234352
100
AcDbArc
 50
185.458981537175
 51
237.263075779921
1001
AcDbBlockRepETag
1070
     1
1071
      116
1005
A19
  0
LINE
  5
A1A
330
415
100
AcDbEntity
  8
0
  6
Continuous
 62
     8
370
    15
100
AcDbLine
 10
2444.020441084886
 20
882.6464085192396
 30
0.0
 11
2444.19721777784
 21
882.7484595318647
 31
0.0
1001
AcDbBlockRepETag
1070
     1
1071
      117
1005
A1A
  0
LINE
  5
A1B
330
415
100
AcDbEntity
  8
0
  6
Continuous
 62
     8
370
    15
100
AcDbLine
 10
2443.877015936368
 20
882.7292060950926
 30
0.0
 11
2444.197217780185
 21
882.9140546849155
 31
0.0
1001
AcDbBlockRepETag
1070
     1
1071
      118
1005
A1B
  0
LINE
  5
A1C
330
415
100
AcDbEntity
  8
0
  6
Continuous
 62
     8
370
    15
100
AcDbLine
 10
2447.626685668937
 20
884.7282492043868
 30
0.0
 11
2447.80346236189
 21
884.8303002170116
 31
0.0
1001
AcDbBlockRepETag
1070
     1
1071
      119
1005
A1C
  0
LINE
  5
A1D
330
415
100
AcDbEntity
  8
0
  6
Continuous
 62
     8
370
    15
100
AcDbLine
 10
2447.483260520419
 20
884.8110467802404
 30
0.0
 11
2447.803462364236
 21
884.995895370063
 31
0.0
1001
AcDbBlockRepETag
1070
     1
1071
      120
1005
A1D
  0
LINE
  5
A1E
330
415
100
AcDbEntity
  8
0
  6
Continuous
 62
     7
370
    15
100
AcDbLine
 10
2440.166709127452
 20
880.671823678532
 30
0.0
 11
2439.721517442055
 21
880.4148199890292
 31
0.0
1001
AcDbBlockRepETag
1070
     1
1071
      121
1005
A1E
  0
LINE
  5
A1F
330
415
100
AcDbEntity
  8
0
  6
Continuous
 62
     7
370
    15
100
AcDbLine
 10
2439.940731610637
 20
873.7751139713337
 30
0.0
 11
2441.634724402255
 21
872.7971927483713
 31
0.0
1001
AcDbBlockRepETag
1070
     1
1071
      122
1005
A1F
  0
LINE
  5
A20
330
415
100
AcDbEntity
  8
0
  6
Continuous
 62
     7
370
    15
100
AcDbLine
 10
2441.298079977189
 20
884.4202273015907
 30
0.0
 11
2441.29807997719
 21
885.4817303570461
 31
0.0
1001
AcDbBlockRepETag
1070
     1
1071
      131
1005
A20
  0
LINE
  5
A21
330
415
100
AcDbEntity
  8
0
  6
Continuous
 62
     7
370
    15
100
AcDbLine
 10
2443.065846930156
 20
885.440737441373
 30
0.0
 11
2441.298079977189
 21
884.4202273015907
 31
0.0
1001
AcDbBlockRepETag
1070
     1
1071
      132
1005
A21
  0
LINE
  5
A22
330
415
100
AcDbEntity
  8
0
  6
Continuous
 62
     7
370
    15
100
AcDbLine
 10
2441.29807997719
 20
885.4817303570461
 30
0.0
 11
2443.065846930156
 21
886.5022404968243
 31
0.0
1001
AcDbBlockRepETag
1070
     1
1071
      133
1005
A22
  0
LINE
  5
A23
330
415
100
AcDbEntity
  8
0
  6
Continuous
 62
     7
370
    15
100
AcDbLine
 10
2443.34868964263
 20
882.9927215473261
 30
0.0
 11
2443.34868964263
 21
888.3818909057737
 31
0.0
1001
AcDbBlockRepETag
1070
     1
1071
      134
1005
A23
  0
LINE
  5
A24
330
415
100
AcDbEntity
  8
0
  6
Continuous
 62
     7
370
    15
100
AcDbLine
 10
2443.207268286393
 20
882.7477725737669
 30
0.0
 11
2443.34868964263
 21
882.9927215473261
 31
0.0
1001
AcDbBlockRepETag
1070
     1
1071
      135
1005
A24
  0
LINE
  5
A25
330
415
100
AcDbEntity
  8
0
  6
Continuous
 62
     7
370
    15
100
AcDbLine
 10
2443.207268286393
 20
881.6029823555034
 30
0.0
 11
2443.207268286393
 21
882.7477725737669
 31
0.0
1001
AcDbBlockRepETag
1070
     1
1071
      136
1005
A25
  0
LINE
  5
A26
330
415
100
AcDbEntity
  8
0
  6
Continuous
 62
     7
370
    15
100
AcDbLine
 10
2441.156658621045
 20
880.4191905934139
 30
0.0
 11
2443.207268286393
 21
881.6029823555034
 31
0.0
1001
AcDbBlockRepETag
1070
     1
1071
      137
1005
A26
  0
LINE
  5
A27
330
415
100
AcDbEntity
  8
0
  6
Continuous
 62
     7
370
    15
100
AcDbLine
 10
2441.156658621045
 20
880.4191905934139
 30
0.0
 11
2441.156658621045
 21
881.5639808116719
 31
0.0
1001
AcDbBlockRepETag
1070
     1
1071
      138
1005
A27
  0
LINE
  5
A28
330
415
100
AcDbEntity
  8
0
  6
Continuous
 62
     7
370
    15
100
AcDbLine
 10
2441.156658621045
 20
881.5639808116719
 30
0.0
 11
2441.015237264798
 21
881.6456481628714
 31
0.0
1001
AcDbBlockRepETag
1070
     1
1071
      139
1005
A28
  0
LINE
  5
A29
330
415
100
AcDbEntity
  8
0
  6
Continuous
 62
     7
370
    15
100
AcDbLine
 10
2441.015237264798
 20
887.0348175213074
 30
0.0
 11
2441.015237264798
 21
881.6456481628714
 31
0.0
1001
AcDbBlockRepETag
1070
     1
1071
      140
1005
A29
  0
LINE
  5
A2A
330
415
100
AcDbEntity
  8
0
  6
Continuous
 62
     7
370
    15
100
AcDbLine
 10
2441.015237264798
 20
887.0348175213074
 30
0.0
 11
2439.318180989951
 21
886.0551277871111
 31
0.0
1001
AcDbBlockRepETag
1070
     1
1071
      141
1005
A2A
  0
LINE
  5
A2B
330
415
100
AcDbEntity
  8
0
  6
Continuous
 62
     7
370
    15
100
AcDbLine
 10
2439.318180989951
 20
882.6253378970585
 30
0.0
 11
2441.015237264798
 21
881.6456481628714
 31
0.0
1001
AcDbBlockRepETag
1070
     1
1071
      142
1005
A2B
  0
LINE
  5
A2C
330
415
100
AcDbEntity
  8
0
  6
Continuous
 62
     7
370
    15
100
AcDbLine
 10
2439.318180989951
 20
886.0551277871113
 30
0.0
 11
2439.318180989951
 21
882.6253378970585
 31
0.0
1001
AcDbBlockRepETag
1070
     1
1071
      143
1005
A2C
  0
LINE
  5
A2D
330
415
100
AcDbEntity
  8
0
  6
Continuous
 62
     7
370
    15
100
AcDbLine
 10
2441.298079977189
 20
884.4202273015907
 30
0.0
 11
2441.474856672487
 21
885.3796793430682
 31
0.0
1001
AcDbBlockRepETag
1070
     1
1071
      144
1005
A2D
  0
LINE
  5
A2E
330
415
100
AcDbEntity
  8
0
  6
Continuous
 62
     7
370
    15
100
AcDbLine
 10
2441.474856672487
 20
885.3796793430682
 30
0.0
 11
2441.29807997719
 21
885.4817303570461
 31
0.0
1001
AcDbBlockRepETag
1070
     1
1071
      145
1005
A2E
  0
LINE
  5
A2F
330
415
100
AcDbEntity
  8
0
  6
Continuous
 62
     7
370
    15
100
AcDbLine
 10
2443.242623625453
 20
886.4001894828465
 30
0.0
 11
2443.065846930156
 21
886.5022404968243
 31
0.0
1001
AcDbBlockRepETag
1070
     1
1071
      146
1005
A2F
  0
LINE
  5
A30
330
415
100
AcDbEntity
  8
0
  6
Continuous
 62
     7
370
    15
100
AcDbLine
 10
2441.474856672487
 20
885.3796793430682
 30
0.0
 11
2443.242623625453
 21
886.4001894828465
 31
0.0
1001
AcDbBlockRepETag
1070
     1
1071
      147
1005
A30
  0
LINE
  5
A31
330
415
100
AcDbEntity
  8
0
  6
Continuous
 62
     7
370
    15
100
AcDbLine
 10
2443.242623625453
 20
886.4001894828465
 30
0.0
 11
2443.065846930156
 21
885.440737441373
 31
0.0
1001
AcDbBlockRepETag
1070
     1
1071
      148
1005
A31
  0
LINE
  5
A32
330
415
100
AcDbEntity
  8
0
  6
Continuous
 62
     7
370
    15
100
AcDbLine
 10
2439.459602346197
 20
882.5436705458589
 30
0.0
 11
2441.156658621045
 21
881.5639808116719
 31
0.0
1001
AcDbBlockRepETag
1070
     1
1071
      149
1005
A32
  0
LINE
  5
A33
330
415
100
AcDbEntity
  8
0
  6
Continuous
 62
     7
370
    15
100
AcDbLine
 10
2439.459602346197
 20
882.5436705458589
 30
0.0
 11
2439.318180989951
 21
882.6253378970585
 31
0.0
1001
AcDbBlockRepETag
1070
     1
1071
      150
1005
A33
  0
LINE
  5
A34
330
415
100
AcDbEntity
  8
0
  6
Continuous
 62
     7
370
    15
100
AcDbLine
 10
2439.459602346197
 20
881.3988803276012
 30
0.0
 11
2441.156658621045
 21
880.4191905934139
 31
0.0
1001
AcDbBlockRepETag
1070
     1
1071
      151
1005
A34
  0
LINE
  5
A35
330
415
100
AcDbEntity
  8
0
  6
Continuous
 62
     7
370
    15
100
AcDbLine
 10
2439.459602346197
 20
882.5436705458589
 30
0.0
 11
2439.459602346197
 21
881.3988803276012
 31
0.0
1001
AcDbBlockRepETag
1070
     1
1071
      152
1005
A35
  0
LINE
  5
A36
330
415
100
AcDbEntity
  8
0
  6
Continuous
 62
     7
370
    15
100
AcDbLine
 10
2439.459602346197
 20
881.3988803276012
 30
0.0
 11
2439.742445058671
 21
881.235572165224
 31
0.0
1001
AcDbBlockRepETag
1070
     1
1071
      153
1005
A36
  0
LINE
  5
A37
330
415
100
AcDbEntity
  8
0
  6
Continuous
 62
     7
370
    15
100
AcDbLine
 10
2441.156658621045
 20
880.4191905934139
 30
0.0
 11
2441.156658621045
 21
880.4191640534012
 31
0.0
1001
AcDbBlockRepETag
1070
     1
1071
      154
1005
A37
  0
LINE
  5
A38
330
415
100
AcDbEntity
  8
0
  6
Continuous
 62
     7
370
    15
100
AcDbLine
 10
2441.156658621045
 20
880.4191640534012
 30
0.0
 11
2439.742445058671
 21
881.235572165224
 31
0.0
1001
AcDbBlockRepETag
1070
     1
1071
      155
1005
A38
  0
LINE
  5
A39
330
415
100
AcDbEntity
  8
0
  6
Continuous
 62
     7
370
    15
100
AcDbLine
 10
2443.207268286393
 20
881.6029823555034
 30
0.0
 11
2442.924425573919
 21
881.4396741931265
 31
0.0
1001
AcDbBlockRepETag
1070
     1
1071
      156
1005
A39
  0
LINE
  5
A3A
330
415
100
AcDbEntity
  8
0
  6
Continuous
 62
     7
370
    15
100
AcDbLine
 10
2442.924425573919
 20
881.4396741931265
 30
0.0
 11
2441.156658621045
 21
880.4191640534012
 31
0.0
1001
AcDbBlockRepETag
1070
     1
1071
      157
1005
A3A
  0
ARC
  5
A3B
330
415
100
AcDbEntity
  8
0
  6
Continuous
 62
     7
370
    15
100
AcDbCircle
 10
2441.250548866174
 20
880.0350727872622
 30
0.0
 40
0.3842012018917073
100
AcDbArc
 50
182.6054784855653
 51
237.3945216600927
1001
AcDbBlockRepETag
1070
     1
1071
      158
1005
A3B
  0
LINE
  5
A3C
330
415
100
AcDbEntity
  8
0
  6
Continuous
 62
     7
370
    15
100
AcDbLine
 10
2441.186946684658
 20
879.6286237813992
 30
0.0
 11
2441.04352153613
 21
879.7114213572484
 31
0.0
1001
AcDbBlockRepETag
1070
     1
1071
      159
1005
A3C
  0
ARC
  5
A3D
330
415
100
AcDbEntity
  8
0
  6
Continuous
 62
     7
370
    15
100
AcDbCircle
 10
2440.979919354613
 20
879.3049723513849
 30
0.0
 40
0.3842012018927381
100
AcDbArc
 50
2.605478485597796
 51
57.39452166000233
1001
AcDbBlockRepETag
1070
     1
1071
      160
1005
A3D
  0
LINE
  5
A3E
330
415
100
AcDbEntity
  8
0
  6
Continuous
 62
     7
370
    15
100
AcDbLine
 10
2441.363723379955
 20
879.3224375644497
 30
0.0
 11
2441.363723379955
 21
874.1008016735554
 31
0.0
1001
AcDbBlockRepETag
1070
     1
1071
      161
1005
A3E
  0
LINE
  5
A3F
330
415
100
AcDbEntity
  8
0
  6
Continuous
 62
     7
370
    15
100
AcDbLine
 10
2441.363723379955
 20
874.1008016735554
 30
0.0
 11
2439.669730588337
 21
875.0787228965178
 31
0.0
1001
AcDbBlockRepETag
1070
     1
1071
      162
1005
A3F
  0
LINE
  5
A40
330
415
100
AcDbEntity
  8
0
  6
Continuous
 62
     7
370
    15
100
AcDbLine
 10
2439.669730588337
 20
875.0787228965178
 30
0.0
 11
2439.669730588337
 21
880.3003587874121
 31
0.0
1001
AcDbBlockRepETag
1070
     1
1071
      163
1005
A40
  0
ARC
  5
A41
330
415
100
AcDbEntity
  8
0
  6
Continuous
 62
     7
370
    15
100
AcDbCircle
 10
2439.777499180194
 20
880.317840586637
 30
0.0
 40
0.1091772993572724
100
AcDbArc
 50
50.79671476440671
 51
189.2140369903814
1001
AcDbBlockRepETag
1070
     1
1071
      164
1005
A41
  0
LINE
  5
A42
330
415
100
AcDbEntity
  8
0
  6
Continuous
 62
     7
370
    15
100
AcDbLine
 10
2439.846507283634
 20
880.4024429764057
 30
0.0
 11
2439.989932432153
 21
880.3196454005526
 31
0.0
1001
AcDbBlockRepETag
1070
     1
1071
      165
1005
A42
  0
ARC
  5
A43
330
415
100
AcDbEntity
  8
0
  6
Continuous
 62
     7
370
    15
100
AcDbCircle
 10
2440.058940535591
 20
880.4042477903227
 30
0.0
 40
0.1091772993578319
100
AcDbArc
 50
230.7967147652449
 51
9.214036989391978
1001
AcDbBlockRepETag
1070
     1
1071
      166
1005
A43
  0
LINE
  5
A44
330
415
100
AcDbEntity
  8
0
  6
Continuous
 62
     7
370
    15
100
AcDbLine
 10
2440.166709127449
 20
880.421729589546
 30
0.0
 11
2440.166709127456
 21
880.9906497316351
 31
0.0
1001
AcDbBlockRepETag
1070
     1
1071
      167
1005
A44
  0
LINE
  5
A45
330
415
100
AcDbEntity
  8
0
  6
Continuous
 62
     7
370
    15
100
AcDbLine
 10
2440.866744840834
 20
880.0176075741976
 30
0.0
 11
2440.866744840834
 21
880.5865277162814
 31
0.0
1001
AcDbBlockRepETag
1070
     1
1071
      168
1005
A45
  0
LINE
  5
A46
330
415
100
AcDbEntity
  8
0
  6
Continuous
 62
     7
370
    15
100
AcDbLine
 10
2442.493090437298
 20
881.1906697189643
 30
0.0
 11
2442.493090437301
 21
880.9564769026428
 31
0.0
1001
AcDbBlockRepETag
1070
     1
1071
      169
1005
A46
  0
LINE
  5
A47
330
415
100
AcDbEntity
  8
0
  6
Continuous
 62
     7
370
    15
100
AcDbLine
 10
2442.493090437301
 20
880.9564769026428
 30
0.0
 11
2440.866744840834
 21
880.0176075741976
 31
0.0
1001
AcDbBlockRepETag
1070
     1
1071
      170
1005
A47
  0
LINE
  5
A48
330
415
100
AcDbEntity
  8
0
  6
Continuous
 62
     7
370
    15
100
AcDbLine
 10
2442.990068976443
 20
880.2613068929066
 30
0.0
 11
2441.363723379955
 21
879.3224375644497
 31
0.0
1001
AcDbBlockRepETag
1070
     1
1071
      171
1005
A48
  0
LINE
  5
A49
330
415
100
AcDbEntity
  8
0
  6
Continuous
 62
     7
370
    15
100
AcDbLine
 10
2442.813292281147
 20
880.5674931098565
 30
0.0
 11
2441.186946684658
 21
879.6286237813992
 31
0.0
1001
AcDbBlockRepETag
1070
     1
1071
      172
1005
A49
  0
ARC
  5
A4A
330
415
100
AcDbEntity
  8
0
  6
Continuous
 62
     7
370
    15
100
AcDbCircle
 10
2442.606264951097
 20
880.2438416798397
 30
0.0
 40
0.3842012018978607
100
AcDbArc
 50
2.605478485871098
 51
57.39452165947827
1001
AcDbBlockRepETag
1070
     1
1071
      173
1005
A4A
  0
LINE
  5
A4B
330
415
100
AcDbEntity
  8
0
  6
Continuous
 62
     7
370
    15
100
AcDbLine
 10
2442.669867132613
 20
880.6502906857021
 30
0.0
 11
2441.04352153613
 21
879.7114213572484
 31
0.0
1001
AcDbBlockRepETag
1070
     1
1071
      174
1005
A4B
  0
ARC
  5
A4C
330
415
100
AcDbEntity
  8
0
  6
Continuous
 62
     7
370
    15
100
AcDbCircle
 10
2442.876894462702
 20
880.9739421157614
 30
0.0
 40
0.3842012019544738
100
AcDbArc
 50
182.6054784932199
 51
237.394521658022
1001
AcDbBlockRepETag
1070
     1
1071
      175
1005
A4C
  0
LINE
  5
A4D
330
415
100
AcDbEntity
  8
0
  6
Continuous
 62
     7
370
    15
100
AcDbLine
 10
2442.791737757529
 20
873.6263082677767
 30
0.0
 11
2442.99006897644
 21
875.039671002013
 31
0.0
1001
AcDbBlockRepETag
1070
     1
1071
      176
1005
A4D
  0
ARC
  5
A4E
330
415
100
AcDbEntity
  8
0
  6
Continuous
 62
     7
370
    15
100
AcDbCircle
 10
2442.219701381358
 20
873.7137439963802
 30
0.0
 40
0.5786800690351719
100
AcDbArc
 50
302.9067666138764
 51
351.3096048992635
1001
AcDbBlockRepETag
1070
     1
1071
      177
1005
A4E
  0
LINE
  5
A4F
330
415
100
AcDbEntity
  8
0
  6
Continuous
 62
     7
370
    15
100
AcDbLine
 10
2441.819709367792
 20
872.8155107270545
 30
0.0
 11
2442.53408298861
 21
873.2279098401907
 31
0.0
1001
AcDbBlockRepETag
1070
     1
1071
      178
1005
A4F
  0
LWPOLYLINE
  5
A50
330
415
100
AcDbEntity
  8
0
  6
Continuous
 62
     7
370
    15
100
AcDbPolyline
 90
        9
 70
   128
 43
0.0
 10
2441.562054598874
 20
872.9164272905247
 10
2441.573858048769
 20
872.8723727219401
 10
2441.593131566585
 20
872.8357701967849
 10
2441.619289536237
 20
872.8077318642641
 10
2441.651537161054
 20
872.7891096549234
 10
2441.688894613273
 20
872.7804693951703
 10
2441.730226805612
 20
872.7820736149251
 10
2441.774277880324
 20
872.7938735707823
 10
2441.819709367792
 20
872.8155107270545
1001
AcDbBlockRepETag
1070
     1
1071
      179
1005
A50
  0
LINE
  5
A51
330
415
100
AcDbEntity
  8
0
  6
Continuous
 62
     7
370
    15
100
AcDbLine
 10
2441.363723379955
 20
874.1008016735554
 30
0.0
 11
2441.562054598874
 21
872.9164272905247
 31
0.0
1001
AcDbBlockRepETag
1070
     1
1071
      180
1005
A51
  0
LINE
  5
A52
330
415
100
AcDbEntity
  8
0
  6
Continuous
 62
     7
370
    15
100
AcDbLine
 10
2442.99006897644
 20
875.039671002013
 30
0.0
 11
2442.990068976443
 21
880.2613068929066
 31
0.0
1001
AcDbBlockRepETag
1070
     1
1071
      181
1005
A52
  0
LINE
  5
A53
330
415
100
AcDbEntity
  8
0
  6
Continuous
 62
     7
370
    15
100
AcDbLine
 10
2442.669867132613
 20
880.6502906857021
 30
0.0
 11
2442.813292281147
 21
880.5674931098565
 31
0.0
1001
AcDbBlockRepETag
1070
     1
1071
      182
1005
A53
  0
LINE
  5
A54
330
415
100
AcDbEntity
  8
0
  6
Continuous
 62
     7
370
    15
100
AcDbLine
 10
2441.562054598874
 20
872.9164272905247
 30
0.0
 11
2439.868061807257
 21
873.8943485134871
 31
0.0
1001
AcDbBlockRepETag
1070
     1
1071
      183
1005
A54
  0
LINE
  5
A55
330
415
100
AcDbEntity
  8
0
  6
Continuous
 62
     7
370
    15
100
AcDbLine
 10
2439.868061807257
 20
873.8943485134871
 30
0.0
 11
2439.669730588337
 21
875.0787228965178
 31
0.0
1001
AcDbBlockRepETag
1070
     1
1071
      184
1005
A55
  0
ARC
  5
A56
330
415
100
AcDbEntity
  8
0
  6
Continuous
 62
     7
370
    15
100
AcDbCircle
 10
2440.027162469616
 20
873.9095532153775
 30
0.0
 40
0.1598255415222954
100
AcDbArc
 50
185.4589815370583
 51
237.2630757802572
1001
AcDbBlockRepETag
1070
     1
1071
      185
1005
A56
  0
LINE
  5
A57
330
415
100
AcDbEntity
  8
0
  6
Continuous
 62
     8
370
    15
100
AcDbLine
 10
2439.989932432153
 20
880.3196454005526
 30
0.0
 11
2440.166709125106
 21
880.4216964131777
 31
0.0
1001
AcDbBlockRepETag
1070
     1
1071
      186
1005
A57
  0
LINE
  5
A58
330
415
100
AcDbEntity
  8
0
  6
Continuous
 62
     8
370
    15
100
AcDbLine
 10
2439.846507283634
 20
880.4024429764057
 30
0.0
 11
2440.166709127451
 21
880.5872915662286
 31
0.0
1001
AcDbBlockRepETag
1070
     1
1071
      187
1005
A58
  0
LINE
  5
A59
330
415
100
AcDbEntity
  8
0
  6
Continuous
 62
     7
370
    15
100
AcDbLine
 10
2439.318180989952
 20
886.055127787111
 30
0.0
 11
2439.318180989952
 21
882.6253378970582
 31
0.0
1001
AcDbBlockRepETag
1070
     1
1071
      188
1005
A59
  0
LINE
  5
A5A
330
415
100
AcDbEntity
  8
0
  6
Continuous
 62
     7
370
    15
100
AcDbLine
 10
2436.136200474719
 20
878.3450605598448
 30
0.0
 11
2435.691008789321
 21
878.088056870342
 31
0.0
1001
AcDbBlockRepETag
1070
     1
1071
      189
1005
A5A
  0
LINE
  5
A5B
330
415
100
AcDbEntity
  8
0
  6
Continuous
 62
     7
370
    15
100
AcDbLine
 10
2435.910222957904
 20
871.4483508526464
 30
0.0
 11
2437.604215749522
 21
870.470429629684
 31
0.0
1001
AcDbBlockRepETag
1070
     1
1071
      190
1005
A5B
  0
LINE
  5
A64
330
415
100
AcDbEntity
  8
0
  6
Continuous
 62
     7
370
    15
100
AcDbLine
 10
2437.267571324456
 20
882.0934641829035
 30
0.0
 11
2437.267571324457
 21
883.1549672383587
 31
0.0
1001
AcDbBlockRepETag
1070
     1
1071
      191
1005
A64
  0
LINE
  5
A65
330
415
100
AcDbEntity
  8
0
  6
Continuous
 62
     7
370
    15
100
AcDbLine
 10
2439.035338277423
 20
883.1139743226858
 30
0.0
 11
2437.267571324456
 21
882.0934641829035
 31
0.0
1001
AcDbBlockRepETag
1070
     1
1071
      192
1005
A65
  0
LINE
  5
A66
330
415
100
AcDbEntity
  8
0
  6
Continuous
 62
     7
370
    15
100
AcDbLine
 10
2437.267571324457
 20
883.1549672383587
 30
0.0
 11
2439.035338277423
 21
884.1754773781371
 31
0.0
1001
AcDbBlockRepETag
1070
     1
1071
      193
1005
A66
  0
LINE
  5
A67
330
415
100
AcDbEntity
  8
0
  6
Continuous
 62
     7
370
    15
100
AcDbLine
 10
2439.318180989897
 20
880.6659584286389
 30
0.0
 11
2439.318180989897
 21
886.0551277870865
 31
0.0
1001
AcDbBlockRepETag
1070
     1
1071
      194
1005
A67
  0
LINE
  5
A68
330
415
100
AcDbEntity
  8
0
  6
Continuous
 62
     7
370
    15
100
AcDbLine
 10
2439.17675963366
 20
880.4210094550795
 30
0.0
 11
2439.318180989897
 21
880.6659584286389
 31
0.0
1001
AcDbBlockRepETag
1070
     1
1071
      195
1005
A68
  0
LINE
  5
A69
330
415
100
AcDbEntity
  8
0
  6
Continuous
 62
     7
370
    15
100
AcDbLine
 10
2439.17675963366
 20
879.2762192368162
 30
0.0
 11
2439.17675963366
 21
880.4210094550795
 31
0.0
1001
AcDbBlockRepETag
1070
     1
1071
      196
1005
A69
  0
LINE
  5
A6A
330
415
100
AcDbEntity
  8
0
  6
Continuous
 62
     7
370
    15
100
AcDbLine
 10
2437.126149968312
 20
878.0924274747265
 30
0.0
 11
2439.17675963366
 21
879.2762192368162
 31
0.0
1001
AcDbBlockRepETag
1070
     1
1071
      197
1005
A6A
  0
LINE
  5
A6B
330
415
100
AcDbEntity
  8
0
  6
Continuous
 62
     7
370
    15
100
AcDbLine
 10
2437.126149968312
 20
878.0924274747265
 30
0.0
 11
2437.126149968311
 21
879.2372176929845
 31
0.0
1001
AcDbBlockRepETag
1070
     1
1071
      198
1005
A6B
  0
LINE
  5
A6C
330
415
100
AcDbEntity
  8
0
  6
Continuous
 62
     7
370
    15
100
AcDbLine
 10
2437.126149968311
 20
879.2372176929845
 30
0.0
 11
2436.984728612065
 21
879.3188850441842
 31
0.0
1001
AcDbBlockRepETag
1070
     1
1071
      199
1005
A6C
  0
LINE
  5
A6D
330
415
100
AcDbEntity
  8
0
  6
Continuous
 62
     7
370
    15
100
AcDbLine
 10
2436.984728612065
 20
884.7080544026201
 30
0.0
 11
2436.984728612065
 21
879.3188850441842
 31
0.0
1001
AcDbBlockRepETag
1070
     1
1071
      200
1005
A6D
  0
LINE
  5
A6F
330
415
100
AcDbEntity
  8
0
  6
Continuous
 62
     7
370
    15
100
AcDbLine
 10
2435.287672337218
 20
880.2985747783713
 30
0.0
 11
2436.984728612065
 21
879.3188850441842
 31
0.0
1001
AcDbBlockRepETag
1070
     1
1071
      202
1005
A6F
  0
LINE
  5
A70
330
415
100
AcDbEntity
  8
0
  6
Continuous
 62
     7
370
    15
100
AcDbLine
 10
2435.287672337218
 20
883.7283646684239
 30
0.0
 11
2435.287672337218
 21
880.2985747783713
 31
0.0
1001
AcDbBlockRepETag
1070
     1
1071
      203
1005
A70
  0
LINE
  5
A71
330
415
100
AcDbEntity
  8
0
  6
Continuous
 62
     7
370
    15
100
AcDbLine
 10
2437.267571324456
 20
882.0934641829035
 30
0.0
 11
2437.444348019754
 21
883.0529162243809
 31
0.0
1001
AcDbBlockRepETag
1070
     1
1071
      204
1005
A71
  0
LINE
  5
A72
330
415
100
AcDbEntity
  8
0
  6
Continuous
 62
     7
370
    15
100
AcDbLine
 10
2437.444348019754
 20
883.0529162243809
 30
0.0
 11
2437.267571324457
 21
883.1549672383587
 31
0.0
1001
AcDbBlockRepETag
1070
     1
1071
      205
1005
A72
  0
LINE
  5
A73
330
415
100
AcDbEntity
  8
0
  6
Continuous
 62
     7
370
    15
100
AcDbLine
 10
2439.21211497272
 20
884.0734263641593
 30
0.0
 11
2439.035338277423
 21
884.1754773781371
 31
0.0
1001
AcDbBlockRepETag
1070
     1
1071
      206
1005
A73
  0
LINE
  5
A74
330
415
100
AcDbEntity
  8
0
  6
Continuous
 62
     7
370
    15
100
AcDbLine
 10
2437.444348019754
 20
883.0529162243809
 30
0.0
 11
2439.21211497272
 21
884.0734263641593
 31
0.0
1001
AcDbBlockRepETag
1070
     1
1071
      207
1005
A74
  0
LINE
  5
A75
330
415
100
AcDbEntity
  8
0
  6
Continuous
 62
     7
370
    15
100
AcDbLine
 10
2439.21211497272
 20
884.0734263641593
 30
0.0
 11
2439.035338277423
 21
883.1139743226858
 31
0.0
1001
AcDbBlockRepETag
1070
     1
1071
      208
1005
A75
  0
LINE
  5
A76
330
415
100
AcDbEntity
  8
0
  6
Continuous
 62
     7
370
    15
100
AcDbLine
 10
2435.429093693464
 20
880.2169074271715
 30
0.0
 11
2437.126149968311
 21
879.2372176929845
 31
0.0
1001
AcDbBlockRepETag
1070
     1
1071
      209
1005
A76
  0
LINE
  5
A77
330
415
100
AcDbEntity
  8
0
  6
Continuous
 62
     7
370
    15
100
AcDbLine
 10
2435.429093693464
 20
880.2169074271715
 30
0.0
 11
2435.287672337218
 21
880.2985747783713
 31
0.0
1001
AcDbBlockRepETag
1070
     1
1071
      210
1005
A77
  0
LINE
  5
A78
330
415
100
AcDbEntity
  8
0
  6
Continuous
 62
     7
370
    15
100
AcDbLine
 10
2435.429093693464
 20
879.0721172089138
 30
0.0
 11
2437.126149968312
 21
878.0924274747265
 31
0.0
1001
AcDbBlockRepETag
1070
     1
1071
      211
1005
A78
  0
LINE
  5
A79
330
415
100
AcDbEntity
  8
0
  6
Continuous
 62
     7
370
    15
100
AcDbLine
 10
2435.429093693464
 20
880.2169074271715
 30
0.0
 11
2435.429093693464
 21
879.0721172089138
 31
0.0
1001
AcDbBlockRepETag
1070
     1
1071
      212
1005
A79
  0
LINE
  5
A7A
330
415
100
AcDbEntity
  8
0
  6
Continuous
 62
     7
370
    15
100
AcDbLine
 10
2435.429093693464
 20
879.0721172089138
 30
0.0
 11
2435.711936405938
 21
878.9088090465368
 31
0.0
1001
AcDbBlockRepETag
1070
     1
1071
      213
1005
A7A
  0
LINE
  5
A7B
330
415
100
AcDbEntity
  8
0
  6
Continuous
 62
     7
370
    15
100
AcDbLine
 10
2437.126149968312
 20
878.0924274747265
 30
0.0
 11
2437.126149968311
 21
878.092400934714
 31
0.0
1001
AcDbBlockRepETag
1070
     1
1071
      214
1005
A7B
  0
LINE
  5
A7C
330
415
100
AcDbEntity
  8
0
  6
Continuous
 62
     7
370
    15
100
AcDbLine
 10
2437.126149968311
 20
878.092400934714
 30
0.0
 11
2435.711936405938
 21
878.9088090465368
 31
0.0
1001
AcDbBlockRepETag
1070
     1
1071
      215
1005
A7C
  0
LINE
  5
A7D
330
415
100
AcDbEntity
  8
0
  6
Continuous
 62
     7
370
    15
100
AcDbLine
 10
2439.17675963366
 20
879.2762192368162
 30
0.0
 11
2438.893916921185
 21
879.1129110744392
 31
0.0
1001
AcDbBlockRepETag
1070
     1
1071
      216
1005
A7D
  0
LINE
  5
A7E
330
415
100
AcDbEntity
  8
0
  6
Continuous
 62
     7
370
    15
100
AcDbLine
 10
2438.893916921185
 20
879.1129110744392
 30
0.0
 11
2437.126149968311
 21
878.092400934714
 31
0.0
1001
AcDbBlockRepETag
1070
     1
1071
      217
1005
A7E
  0
ARC
  5
A7F
330
415
100
AcDbEntity
  8
0
  6
Continuous
 62
     7
370
    15
100
AcDbCircle
 10
2437.220040213441
 20
877.7083096685748
 30
0.0
 40
0.3842012018917073
100
AcDbArc
 50
182.6054784855653
 51
237.3945216600927
1001
AcDbBlockRepETag
1070
     1
1071
      218
1005
A7F
  0
LINE
  5
A80
330
415
100
AcDbEntity
  8
0
  6
Continuous
 62
     7
370
    15
100
AcDbLine
 10
2437.156438031925
 20
877.301860662712
 30
0.0
 11
2437.013012883397
 21
877.3846582385612
 31
0.0
1001
AcDbBlockRepETag
1070
     1
1071
      219
1005
A80
  0
ARC
  5
A81
330
415
100
AcDbEntity
  8
0
  6
Continuous
 62
     7
370
    15
100
AcDbCircle
 10
2436.94941070188
 20
876.9782092326975
 30
0.0
 40
0.3842012018927381
100
AcDbArc
 50
2.605478485597796
 51
57.39452166000233
1001
AcDbBlockRepETag
1070
     1
1071
      220
1005
A81
  0
LINE
  5
A82
330
415
100
AcDbEntity
  8
0
  6
Continuous
 62
     7
370
    15
100
AcDbLine
 10
2437.333214727222
 20
876.9956744457623
 30
0.0
 11
2437.333214727222
 21
871.7740385548681
 31
0.0
1001
AcDbBlockRepETag
1070
     1
1071
      221
1005
A82
  0
LINE
  5
A83
330
415
100
AcDbEntity
  8
0
  6
Continuous
 62
     7
370
    15
100
AcDbLine
 10
2437.333214727222
 20
871.7740385548681
 30
0.0
 11
2435.639221935604
 21
872.7519597778305
 31
0.0
1001
AcDbBlockRepETag
1070
     1
1071
      222
1005
A83
  0
LINE
  5
A84
330
415
100
AcDbEntity
  8
0
  6
Continuous
 62
     7
370
    15
100
AcDbLine
 10
2435.639221935604
 20
872.7519597778305
 30
0.0
 11
2435.639221935604
 21
877.9735956687247
 31
0.0
1001
AcDbBlockRepETag
1070
     1
1071
      223
1005
A84
  0
ARC
  5
A85
330
415
100
AcDbEntity
  8
0
  6
Continuous
 62
     7
370
    15
100
AcDbCircle
 10
2435.746990527461
 20
877.9910774679498
 30
0.0
 40
0.1091772993572724
100
AcDbArc
 50
50.79671476440671
 51
189.2140369903814
1001
AcDbBlockRepETag
1070
     1
1071
      224
1005
A85
  0
LINE
  5
A86
330
415
100
AcDbEntity
  8
0
  6
Continuous
 62
     7
370
    15
100
AcDbLine
 10
2435.8159986309
 20
878.0756798577185
 30
0.0
 11
2435.959423779419
 21
877.9928822818654
 31
0.0
1001
AcDbBlockRepETag
1070
     1
1071
      225
1005
A86
  0
ARC
  5
A87
330
415
100
AcDbEntity
  8
0
  6
Continuous
 62
     7
370
    15
100
AcDbCircle
 10
2436.028431882858
 20
878.0774846716354
 30
0.0
 40
0.1091772993578319
100
AcDbArc
 50
230.7967147652449
 51
9.214036989391978
1001
AcDbBlockRepETag
1070
     1
1071
      226
1005
A87
  0
LINE
  5
A88
330
415
100
AcDbEntity
  8
0
  6
Continuous
 62
     7
370
    15
100
AcDbLine
 10
2436.136200474716
 20
878.0949664708588
 30
0.0
 11
2436.136200474723
 21
878.6638866129479
 31
0.0
1001
AcDbBlockRepETag
1070
     1
1071
      227
1005
A88
  0
LINE
  5
A89
330
415
100
AcDbEntity
  8
0
  6
Continuous
 62
     7
370
    15
100
AcDbLine
 10
2436.8362361881
 20
877.6908444555104
 30
0.0
 11
2436.8362361881
 21
878.2597645975942
 31
0.0
1001
AcDbBlockRepETag
1070
     1
1071
      228
1005
A89
  0
LINE
  5
A8A
330
415
100
AcDbEntity
  8
0
  6
Continuous
 62
     7
370
    15
100
AcDbLine
 10
2438.462581784565
 20
878.8639066002771
 30
0.0
 11
2438.462581784568
 21
878.6297137839554
 31
0.0
1001
AcDbBlockRepETag
1070
     1
1071
      229
1005
A8A
  0
LINE
  5
A8B
330
415
100
AcDbEntity
  8
0
  6
Continuous
 62
     7
370
    15
100
AcDbLine
 10
2438.462581784568
 20
878.6297137839554
 30
0.0
 11
2436.8362361881
 21
877.6908444555104
 31
0.0
1001
AcDbBlockRepETag
1070
     1
1071
      230
1005
A8B
  0
LINE
  5
A8C
330
415
100
AcDbEntity
  8
0
  6
Continuous
 62
     7
370
    15
100
AcDbLine
 10
2438.95956032371
 20
877.9345437742193
 30
0.0
 11
2437.333214727222
 21
876.9956744457623
 31
0.0
1001
AcDbBlockRepETag
1070
     1
1071
      231
1005
A8C
  0
LINE
  5
A8D
330
415
100
AcDbEntity
  8
0
  6
Continuous
 62
     7
370
    15
100
AcDbLine
 10
2438.782783628414
 20
878.2407299911692
 30
0.0
 11
2437.156438031925
 21
877.301860662712
 31
0.0
1001
AcDbBlockRepETag
1070
     1
1071
      232
1005
A8D
  0
ARC
  5
A8E
330
415
100
AcDbEntity
  8
0
  6
Continuous
 62
     7
370
    15
100
AcDbCircle
 10
2438.575756298363
 20
877.9170785611524
 30
0.0
 40
0.3842012018978607
100
AcDbArc
 50
2.605478485871098
 51
57.39452165947827
1001
AcDbBlockRepETag
1070
     1
1071
      233
1005
A8E
  0
LINE
  5
A8F
330
415
100
AcDbEntity
  8
0
  6
Continuous
 62
     7
370
    15
100
AcDbLine
 10
2438.639358479879
 20
878.3235275670149
 30
0.0
 11
2437.013012883397
 21
877.3846582385612
 31
0.0
1001
AcDbBlockRepETag
1070
     1
1071
      234
1005
A8F
  0
ARC
  5
A90
330
415
100
AcDbEntity
  8
0
  6
Continuous
 62
     7
370
    15
100
AcDbCircle
 10
2438.846385809969
 20
878.6471789970741
 30
0.0
 40
0.3842012019544738
100
AcDbArc
 50
182.6054784932199
 51
237.394521658022
1001
AcDbBlockRepETag
1070
     1
1071
      235
1005
A90
  0
LINE
  5
A91
330
415
100
AcDbEntity
  8
0
  6
Continuous
 62
     7
370
    15
100
AcDbLine
 10
2438.761229104796
 20
871.2995451490895
 30
0.0
 11
2438.959560323706
 21
872.7129078833257
 31
0.0
1001
AcDbBlockRepETag
1070
     1
1071
      236
1005
A91
  0
ARC
  5
A92
330
415
100
AcDbEntity
  8
0
  6
Continuous
 62
     7
370
    15
100
AcDbCircle
 10
2438.189192728625
 20
871.386980877693
 30
0.0
 40
0.5786800690351719
100
AcDbArc
 50
302.9067666138764
 51
351.3096048992635
1001
AcDbBlockRepETag
1070
     1
1071
      237
1005
A92
  0
LINE
  5
A93
330
415
100
AcDbEntity
  8
0
  6
Continuous
 62
     7
370
    15
100
AcDbLine
 10
2437.789200715059
 20
870.4887476083673
 30
0.0
 11
2438.503574335877
 21
870.9011467215034
 31
0.0
1001
AcDbBlockRepETag
1070
     1
1071
      238
1005
A93
  0
LWPOLYLINE
  5
A94
330
415
100
AcDbEntity
  8
0
  6
Continuous
 62
     7
370
    15
100
AcDbPolyline
 90
        9
 70
   128
 43
0.0
 10
2437.531545946141
 20
870.5896641718375
 10
2437.543349396035
 20
870.5456096032529
 10
2437.562622913852
 20
870.5090070780975
 10
2437.588780883504
 20
870.4809687455769
 10
2437.621028508321
 20
870.4623465362361
 10
2437.65838596054
 20
870.4537062764831
 10
2437.69971815288
 20
870.4553104962377
 10
2437.743769227591
 20
870.4671104520951
 10
2437.789200715059
 20
870.4887476083673
1001
AcDbBlockRepETag
1070
     1
1071
      239
1005
A94
  0
LINE
  5
A95
330
415
100
AcDbEntity
  8
0
  6
Continuous
 62
     7
370
    15
100
AcDbLine
 10
2437.333214727222
 20
871.7740385548681
 30
0.0
 11
2437.531545946141
 21
870.5896641718375
 31
0.0
1001
AcDbBlockRepETag
1070
     1
1071
      240
1005
A95
  0
LINE
  5
A96
330
415
100
AcDbEntity
  8
0
  6
Continuous
 62
     7
370
    15
100
AcDbLine
 10
2438.959560323706
 20
872.7129078833257
 30
0.0
 11
2438.95956032371
 21
877.9345437742193
 31
0.0
1001
AcDbBlockRepETag
1070
     1
1071
      241
1005
A96
  0
LINE
  5
A97
330
415
100
AcDbEntity
  8
0
  6
Continuous
 62
     7
370
    15
100
AcDbLine
 10
2438.639358479879
 20
878.3235275670149
 30
0.0
 11
2438.782783628414
 21
878.2407299911692
 31
0.0
1001
AcDbBlockRepETag
1070
     1
1071
      242
1005
A97
  0
LINE
  5
A98
330
415
100
AcDbEntity
  8
0
  6
Continuous
 62
     7
370
    15
100
AcDbLine
 10
2437.531545946141
 20
870.5896641718375
 30
0.0
 11
2435.837553154523
 21
871.5675853947997
 31
0.0
1001
AcDbBlockRepETag
1070
     1
1071
      243
1005
A98
  0
LINE
  5
A99
330
415
100
AcDbEntity
  8
0
  6
Continuous
 62
     7
370
    15
100
AcDbLine
 10
2435.837553154523
 20
871.5675853947997
 30
0.0
 11
2435.639221935604
 21
872.7519597778305
 31
0.0
1001
AcDbBlockRepETag
1070
     1
1071
      244
1005
A99
  0
ARC
  5
A9A
330
415
100
AcDbEntity
  8
0
  6
Continuous
 62
     7
370
    15
100
AcDbCircle
 10
2435.996653816883
 20
871.5827900966901
 30
0.0
 40
0.1598255415222954
100
AcDbArc
 50
185.4589815370583
 51
237.2630757802572
1001
AcDbBlockRepETag
1070
     1
1071
      245
1005
A9A
  0
LINE
  5
A9B
330
415
100
AcDbEntity
  8
0
  6
Continuous
 62
     8
370
    15
100
AcDbLine
 10
2435.959423779419
 20
877.9928822818654
 30
0.0
 11
2436.136200472373
 21
878.0949332944905
 31
0.0
1001
AcDbBlockRepETag
1070
     1
1071
      246
1005
A9B
  0
LINE
  5
A9C
330
415
100
AcDbEntity
  8
0
  6
Continuous
 62
     8
370
    15
100
AcDbLine
 10
2435.8159986309
 20
878.0756798577185
 30
0.0
 11
2436.136200474718
 21
878.2605284475414
 31
0.0
1001
AcDbBlockRepETag
1070
     1
1071
      247
1005
A9C
  0
LINE
  5
AA0
330
415
100
AcDbEntity
  8
0
  6
Continuous
 62
     7
370
    15
100
AcDbLine
 10
2435.287718310849
 20
883.7283646684243
 30
0.0
 11
2435.287718310849
 21
880.2985747783715
 31
0.0
1001
AcDbBlockRepETag
1070
     1
1071
      248
1005
AA0
  0
LINE
  5
AA1
330
415
100
AcDbEntity
  8
0
  6
Continuous
 62
     7
370
    15
100
AcDbLine
 10
2435.28771831085
 20
883.7283646684239
 30
0.0
 11
2435.28771831085
 21
880.2985747783711
 31
0.0
1001
AcDbBlockRepETag
1070
     1
1071
      249
1005
AA1
  0
LINE
  5
AA2
330
415
100
AcDbEntity
  8
0
  6
Continuous
 62
     7
370
    15
100
AcDbLine
 10
2432.105737795617
 20
876.0182974411577
 30
0.0
 11
2431.66054611022
 21
875.7612937516549
 31
0.0
1001
AcDbBlockRepETag
1070
     1
1071
      250
1005
AA2
  0
LINE
  5
AA3
330
415
100
AcDbEntity
  8
0
  6
Continuous
 62
     7
370
    15
100
AcDbLine
 10
2431.879760278802
 20
869.1215877339594
 30
0.0
 11
2433.57375307042
 21
868.143666510997
 31
0.0
1001
AcDbBlockRepETag
1070
     1
1071
      251
1005
AA3
  0
LINE
  5
AAC
330
415
100
AcDbEntity
  8
0
  6
Continuous
 62
     7
370
    15
100
AcDbLine
 10
2433.237108645354
 20
879.7667010642165
 30
0.0
 11
2433.237108645355
 21
880.8282041196717
 31
0.0
1001
AcDbBlockRepETag
1070
     1
1071
      252
1005
AAC
  0
LINE
  5
AAD
330
415
100
AcDbEntity
  8
0
  6
Continuous
 62
     7
370
    15
100
AcDbLine
 10
2435.004875598322
 20
880.7872112039987
 30
0.0
 11
2433.237108645354
 21
879.7667010642165
 31
0.0
1001
AcDbBlockRepETag
1070
     1
1071
      253
1005
AAD
  0
LINE
  5
AAE
330
415
100
AcDbEntity
  8
0
  6
Continuous
 62
     7
370
    15
100
AcDbLine
 10
2433.237108645355
 20
880.8282041196717
 30
0.0
 11
2435.004875598322
 21
881.84871425945
 31
0.0
1001
AcDbBlockRepETag
1070
     1
1071
      254
1005
AAE
  0
LINE
  5
AAF
330
415
100
AcDbEntity
  8
0
  6
Continuous
 62
     7
370
    15
100
AcDbLine
 10
2435.287718310795
 20
878.3391953099519
 30
0.0
 11
2435.287718310795
 21
883.7283646683994
 31
0.0
1001
AcDbBlockRepETag
1070
     1
1071
      255
1005
AAF
  0
LINE
  5
AB0
330
415
100
AcDbEntity
  8
0
  6
Continuous
 62
     7
370
    15
100
AcDbLine
 10
2435.146296954558
 20
878.0942463363926
 30
0.0
 11
2435.287718310795
 21
878.3391953099519
 31
0.0
1001
AcDbBlockRepETag
1070
     1
1071
      256
1005
AB0
  0
LINE
  5
AB1
330
415
100
AcDbEntity
  8
0
  6
Continuous
 62
     7
370
    15
100
AcDbLine
 10
2435.146296954558
 20
876.9494561181291
 30
0.0
 11
2435.146296954558
 21
878.0942463363926
 31
0.0
1001
AcDbBlockRepETag
1070
     1
1071
      257
1005
AB1
  0
LINE
  5
AB2
330
415
100
AcDbEntity
  8
0
  6
Continuous
 62
     7
370
    15
100
AcDbLine
 10
2433.09568728921
 20
875.7656643560395
 30
0.0
 11
2435.146296954558
 21
876.9494561181291
 31
0.0
1001
AcDbBlockRepETag
1070
     1
1071
      258
1005
AB2
  0
LINE
  5
AB3
330
415
100
AcDbEntity
  8
0
  6
Continuous
 62
     7
370
    15
100
AcDbLine
 10
2433.09568728921
 20
875.7656643560395
 30
0.0
 11
2433.09568728921
 21
876.9104545742974
 31
0.0
1001
AcDbBlockRepETag
1070
     1
1071
      259
1005
AB3
  0
LINE
  5
AB4
330
415
100
AcDbEntity
  8
0
  6
Continuous
 62
     7
370
    15
100
AcDbLine
 10
2433.09568728921
 20
876.9104545742974
 30
0.0
 11
2432.954265932963
 21
876.9921219254971
 31
0.0
1001
AcDbBlockRepETag
1070
     1
1071
      260
1005
AB4
  0
LINE
  5
AB5
330
415
100
AcDbEntity
  8
0
  6
Continuous
 62
     7
370
    15
100
AcDbLine
 10
2432.954265932963
 20
882.3812912839331
 30
0.0
 11
2432.954265932963
 21
876.9921219254971
 31
0.0
1001
AcDbBlockRepETag
1070
     1
1071
      261
1005
AB5
  0
LINE
  5
AB7
330
415
100
AcDbEntity
  8
0
  6
Continuous
 62
     7
370
    15
100
AcDbLine
 10
2431.257209658116
 20
877.9718116596843
 30
0.0
 11
2432.954265932963
 21
876.9921219254971
 31
0.0
1001
AcDbBlockRepETag
1070
     1
1071
      262
1005
AB7
  0
LINE
  5
AB8
330
415
100
AcDbEntity
  8
0
  6
Continuous
 62
     7
370
    15
100
AcDbLine
 10
2431.257209658117
 20
881.4016015497369
 30
0.0
 11
2431.257209658116
 21
877.9718116596843
 31
0.0
1001
AcDbBlockRepETag
1070
     1
1071
      263
1005
AB8
  0
LINE
  5
AB9
330
415
100
AcDbEntity
  8
0
  6
Continuous
 62
     7
370
    15
100
AcDbLine
 10
2433.237108645354
 20
879.7667010642165
 30
0.0
 11
2433.413885340652
 21
880.7261531056939
 31
0.0
1001
AcDbBlockRepETag
1070
     1
1071
      264
1005
AB9
  0
LINE
  5
ABA
330
415
100
AcDbEntity
  8
0
  6
Continuous
 62
     7
370
    15
100
AcDbLine
 10
2433.413885340652
 20
880.7261531056939
 30
0.0
 11
2433.237108645355
 21
880.8282041196717
 31
0.0
1001
AcDbBlockRepETag
1070
     1
1071
      265
1005
ABA
  0
LINE
  5
ABB
330
415
100
AcDbEntity
  8
0
  6
Continuous
 62
     7
370
    15
100
AcDbLine
 10
2435.181652293618
 20
881.7466632454722
 30
0.0
 11
2435.004875598322
 21
881.84871425945
 31
0.0
1001
AcDbBlockRepETag
1070
     1
1071
      266
1005
ABB
  0
LINE
  5
ABC
330
415
100
AcDbEntity
  8
0
  6
Continuous
 62
     7
370
    15
100
AcDbLine
 10
2433.413885340652
 20
880.7261531056939
 30
0.0
 11
2435.181652293618
 21
881.7466632454722
 31
0.0
1001
AcDbBlockRepETag
1070
     1
1071
      267
1005
ABC
  0
LINE
  5
ABD
330
415
100
AcDbEntity
  8
0
  6
Continuous
 62
     7
370
    15
100
AcDbLine
 10
2435.181652293618
 20
881.7466632454722
 30
0.0
 11
2435.004875598322
 21
880.7872112039987
 31
0.0
1001
AcDbBlockRepETag
1070
     1
1071
      268
1005
ABD
  0
LINE
  5
ABE
330
415
100
AcDbEntity
  8
0
  6
Continuous
 62
     7
370
    15
100
AcDbLine
 10
2431.398631014362
 20
877.8901443084846
 30
0.0
 11
2433.09568728921
 21
876.9104545742974
 31
0.0
1001
AcDbBlockRepETag
1070
     1
1071
      269
1005
ABE
  0
LINE
  5
ABF
330
415
100
AcDbEntity
  8
0
  6
Continuous
 62
     7
370
    15
100
AcDbLine
 10
2431.398631014362
 20
877.8901443084846
 30
0.0
 11
2431.257209658116
 21
877.9718116596843
 31
0.0
1001
AcDbBlockRepETag
1070
     1
1071
      270
1005
ABF
  0
LINE
  5
AC0
330
415
100
AcDbEntity
  8
0
  6
Continuous
 62
     7
370
    15
100
AcDbLine
 10
2431.398631014362
 20
876.7453540902268
 30
0.0
 11
2433.09568728921
 21
875.7656643560395
 31
0.0
1001
AcDbBlockRepETag
1070
     1
1071
      271
1005
AC0
  0
LINE
  5
AC1
330
415
100
AcDbEntity
  8
0
  6
Continuous
 62
     7
370
    15
100
AcDbLine
 10
2431.398631014362
 20
877.8901443084846
 30
0.0
 11
2431.398631014362
 21
876.7453540902268
 31
0.0
1001
AcDbBlockRepETag
1070
     1
1071
      272
1005
AC1
  0
LINE
  5
AC2
330
415
100
AcDbEntity
  8
0
  6
Continuous
 62
     7
370
    15
100
AcDbLine
 10
2431.398631014362
 20
876.7453540902268
 30
0.0
 11
2431.681473726837
 21
876.5820459278497
 31
0.0
1001
AcDbBlockRepETag
1070
     1
1071
      273
1005
AC2
  0
LINE
  5
AC3
330
415
100
AcDbEntity
  8
0
  6
Continuous
 62
     7
370
    15
100
AcDbLine
 10
2433.09568728921
 20
875.7656643560395
 30
0.0
 11
2433.09568728921
 21
875.765637816027
 31
0.0
1001
AcDbBlockRepETag
1070
     1
1071
      274
1005
AC3
  0
LINE
  5
AC4
330
415
100
AcDbEntity
  8
0
  6
Continuous
 62
     7
370
    15
100
AcDbLine
 10
2433.09568728921
 20
875.765637816027
 30
0.0
 11
2431.681473726837
 21
876.5820459278497
 31
0.0
1001
AcDbBlockRepETag
1070
     1
1071
      275
1005
AC4
  0
LINE
  5
AC5
330
415
100
AcDbEntity
  8
0
  6
Continuous
 62
     7
370
    15
100
AcDbLine
 10
2435.146296954558
 20
876.9494561181291
 30
0.0
 11
2434.863454242084
 21
876.7861479557522
 31
0.0
1001
AcDbBlockRepETag
1070
     1
1071
      276
1005
AC5
  0
LINE
  5
AC6
330
415
100
AcDbEntity
  8
0
  6
Continuous
 62
     7
370
    15
100
AcDbLine
 10
2434.863454242084
 20
876.7861479557522
 30
0.0
 11
2433.09568728921
 21
875.765637816027
 31
0.0
1001
AcDbBlockRepETag
1070
     1
1071
      277
1005
AC6
  0
ARC
  5
AC7
330
415
100
AcDbEntity
  8
0
  6
Continuous
 62
     7
370
    15
100
AcDbCircle
 10
2433.189577534339
 20
875.3815465498878
 30
0.0
 40
0.3842012018917073
100
AcDbArc
 50
182.6054784855653
 51
237.3945216600927
1001
AcDbBlockRepETag
1070
     1
1071
      278
1005
AC7
  0
LINE
  5
AC8
330
415
100
AcDbEntity
  8
0
  6
Continuous
 62
     7
370
    15
100
AcDbLine
 10
2433.125975352823
 20
874.975097544025
 30
0.0
 11
2432.982550204295
 21
875.0578951198741
 31
0.0
1001
AcDbBlockRepETag
1070
     1
1071
      279
1005
AC8
  0
ARC
  5
AC9
330
415
100
AcDbEntity
  8
0
  6
Continuous
 62
     7
370
    15
100
AcDbCircle
 10
2432.918948022778
 20
874.6514461140106
 30
0.0
 40
0.3842012018927381
100
AcDbArc
 50
2.605478485597796
 51
57.39452166000233
1001
AcDbBlockRepETag
1070
     1
1071
      280
1005
AC9
  0
LINE
  5
ACA
330
415
100
AcDbEntity
  8
0
  6
Continuous
 62
     7
370
    15
100
AcDbLine
 10
2433.30275204812
 20
874.6689113270752
 30
0.0
 11
2433.30275204812
 21
869.4472754361811
 31
0.0
1001
AcDbBlockRepETag
1070
     1
1071
      281
1005
ACA
  0
LINE
  5
ACB
330
415
100
AcDbEntity
  8
0
  6
Continuous
 62
     7
370
    15
100
AcDbLine
 10
2433.30275204812
 20
869.4472754361811
 30
0.0
 11
2431.608759256502
 21
870.4251966591435
 31
0.0
1001
AcDbBlockRepETag
1070
     1
1071
      282
1005
ACB
  0
LINE
  5
ACC
330
415
100
AcDbEntity
  8
0
  6
Continuous
 62
     7
370
    15
100
AcDbLine
 10
2431.608759256502
 20
870.4251966591435
 30
0.0
 11
2431.608759256502
 21
875.6468325500376
 31
0.0
1001
AcDbBlockRepETag
1070
     1
1071
      283
1005
ACC
  0
ARC
  5
ACD
330
415
100
AcDbEntity
  8
0
  6
Continuous
 62
     7
370
    15
100
AcDbCircle
 10
2431.716527848359
 20
875.6643143492627
 30
0.0
 40
0.1091772993572724
100
AcDbArc
 50
50.79671476440671
 51
189.2140369903814
1001
AcDbBlockRepETag
1070
     1
1071
      284
1005
ACD
  0
LINE
  5
ACE
330
415
100
AcDbEntity
  8
0
  6
Continuous
 62
     7
370
    15
100
AcDbLine
 10
2431.785535951799
 20
875.7489167390314
 30
0.0
 11
2431.928961100318
 21
875.6661191631783
 31
0.0
1001
AcDbBlockRepETag
1070
     1
1071
      285
1005
ACE
  0
ARC
  5
ACF
330
415
100
AcDbEntity
  8
0
  6
Continuous
 62
     7
370
    15
100
AcDbCircle
 10
2431.997969203756
 20
875.7507215529484
 30
0.0
 40
0.1091772993578319
100
AcDbArc
 50
230.7967147652449
 51
9.214036989391978
1001
AcDbBlockRepETag
1070
     1
1071
      286
1005
ACF
  0
LINE
  5
AD0
330
415
100
AcDbEntity
  8
0
  6
Continuous
 62
     7
370
    15
100
AcDbLine
 10
2432.105737795614
 20
875.7682033521717
 30
0.0
 11
2432.105737795621
 21
876.3371234942608
 31
0.0
1001
AcDbBlockRepETag
1070
     1
1071
      287
1005
AD0
  0
LINE
  5
AD1
330
415
100
AcDbEntity
  8
0
  6
Continuous
 62
     7
370
    15
100
AcDbLine
 10
2432.805773508999
 20
875.3640813368233
 30
0.0
 11
2432.805773508999
 21
875.9330014789071
 31
0.0
1001
AcDbBlockRepETag
1070
     1
1071
      288
1005
AD1
  0
LINE
  5
AD2
330
415
100
AcDbEntity
  8
0
  6
Continuous
 62
     7
370
    15
100
AcDbLine
 10
2434.432119105463
 20
876.53714348159
 30
0.0
 11
2434.432119105466
 21
876.3029506652683
 31
0.0
1001
AcDbBlockRepETag
1070
     1
1071
      289
1005
AD2
  0
LINE
  5
AD3
330
415
100
AcDbEntity
  8
0
  6
Continuous
 62
     7
370
    15
100
AcDbLine
 10
2434.432119105466
 20
876.3029506652683
 30
0.0
 11
2432.805773508999
 21
875.3640813368233
 31
0.0
1001
AcDbBlockRepETag
1070
     1
1071
      290
1005
AD3
  0
LINE
  5
AD4
330
415
100
AcDbEntity
  8
0
  6
Continuous
 62
     7
370
    15
100
AcDbLine
 10
2434.929097644608
 20
875.6077806555323
 30
0.0
 11
2433.30275204812
 21
874.6689113270752
 31
0.0
1001
AcDbBlockRepETag
1070
     1
1071
      291
1005
AD4
  0
LINE
  5
AD5
330
415
100
AcDbEntity
  8
0
  6
Continuous
 62
     7
370
    15
100
AcDbLine
 10
2434.752320949312
 20
875.9139668724822
 30
0.0
 11
2433.125975352823
 21
874.975097544025
 31
0.0
1001
AcDbBlockRepETag
1070
     1
1071
      292
1005
AD5
  0
ARC
  5
AD6
330
415
100
AcDbEntity
  8
0
  6
Continuous
 62
     7
370
    15
100
AcDbCircle
 10
2434.545293619262
 20
875.5903154424654
 30
0.0
 40
0.3842012018978607
100
AcDbArc
 50
2.605478485871098
 51
57.39452165947827
1001
AcDbBlockRepETag
1070
     1
1071
      293
1005
AD6
  0
LINE
  5
AD7
330
415
100
AcDbEntity
  8
0
  6
Continuous
 62
     7
370
    15
100
AcDbLine
 10
2434.608895800778
 20
875.9967644483278
 30
0.0
 11
2432.982550204295
 21
875.0578951198741
 31
0.0
1001
AcDbBlockRepETag
1070
     1
1071
      294
1005
AD7
  0
ARC
  5
AD8
330
415
100
AcDbEntity
  8
0
  6
Continuous
 62
     7
370
    15
100
AcDbCircle
 10
2434.815923130867
 20
876.3204158783871
 30
0.0
 40
0.3842012019544738
100
AcDbArc
 50
182.6054784932199
 51
237.394521658022
1001
AcDbBlockRepETag
1070
     1
1071
      295
1005
AD8
  0
LINE
  5
AD9
330
415
100
AcDbEntity
  8
0
  6
Continuous
 62
     7
370
    15
100
AcDbLine
 10
2434.730766425694
 20
868.9727820304025
 30
0.0
 11
2434.929097644605
 21
870.3861447646387
 31
0.0
1001
AcDbBlockRepETag
1070
     1
1071
      296
1005
AD9
  0
ARC
  5
ADA
330
415
100
AcDbEntity
  8
0
  6
Continuous
 62
     7
370
    15
100
AcDbCircle
 10
2434.158730049523
 20
869.060217759006
 30
0.0
 40
0.5786800690351719
100
AcDbArc
 50
302.9067666138764
 51
351.3096048992635
1001
AcDbBlockRepETag
1070
     1
1071
      297
1005
ADA
  0
LINE
  5
ADB
330
415
100
AcDbEntity
  8
0
  6
Continuous
 62
     7
370
    15
100
AcDbLine
 10
2433.758738035957
 20
868.1619844896802
 30
0.0
 11
2434.473111656775
 21
868.5743836028164
 31
0.0
1001
AcDbBlockRepETag
1070
     1
1071
      298
1005
ADB
  0
LWPOLYLINE
  5
ADC
330
415
100
AcDbEntity
  8
0
  6
Continuous
 62
     7
370
    15
100
AcDbPolyline
 90
        9
 70
   128
 43
0.0
 10
2433.501083267039
 20
868.2629010531504
 10
2433.512886716934
 20
868.2188464845658
 10
2433.53216023475
 20
868.1822439594105
 10
2433.558318204402
 20
868.1542056268899
 10
2433.590565829219
 20
868.1355834175491
 10
2433.627923281438
 20
868.1269431577961
 10
2433.669255473777
 20
868.1285473775506
 10
2433.713306548489
 20
868.140347333408
 10
2433.758738035957
 20
868.1619844896802
1001
AcDbBlockRepETag
1070
     1
1071
      299
1005
ADC
  0
LINE
  5
ADD
330
415
100
AcDbEntity
  8
0
  6
Continuous
 62
     7
370
    15
100
AcDbLine
 10
2433.30275204812
 20
869.4472754361811
 30
0.0
 11
2433.501083267039
 21
868.2629010531504
 31
0.0
1001
AcDbBlockRepETag
1070
     1
1071
      300
1005
ADD
  0
LINE
  5
ADE
330
415
100
AcDbEntity
  8
0
  6
Continuous
 62
     7
370
    15
100
AcDbLine
 10
2434.929097644605
 20
870.3861447646387
 30
0.0
 11
2434.929097644608
 21
875.6077806555323
 31
0.0
1001
AcDbBlockRepETag
1070
     1
1071
      301
1005
ADE
  0
LINE
  5
ADF
330
415
100
AcDbEntity
  8
0
  6
Continuous
 62
     7
370
    15
100
AcDbLine
 10
2434.608895800778
 20
875.9967644483278
 30
0.0
 11
2434.752320949312
 21
875.9139668724822
 31
0.0
1001
AcDbBlockRepETag
1070
     1
1071
      302
1005
ADF
  0
LINE
  5
AE0
330
415
100
AcDbEntity
  8
0
  6
Continuous
 62
     7
370
    15
100
AcDbLine
 10
2433.501083267039
 20
868.2629010531504
 30
0.0
 11
2431.807090475422
 21
869.2408222761129
 31
0.0
1001
AcDbBlockRepETag
1070
     1
1071
      303
1005
AE0
  0
LINE
  5
AE1
330
415
100
AcDbEntity
  8
0
  6
Continuous
 62
     7
370
    15
100
AcDbLine
 10
2431.807090475422
 20
869.2408222761129
 30
0.0
 11
2431.608759256502
 21
870.4251966591435
 31
0.0
1001
AcDbBlockRepETag
1070
     1
1071
      304
1005
AE1
  0
ARC
  5
AE2
330
415
100
AcDbEntity
  8
0
  6
Continuous
 62
     7
370
    15
100
AcDbCircle
 10
2431.966191137781
 20
869.2560269780031
 30
0.0
 40
0.1598255415222954
100
AcDbArc
 50
185.4589815370583
 51
237.2630757802572
1001
AcDbBlockRepETag
1070
     1
1071
      305
1005
AE2
  0
LINE
  5
AE3
330
415
100
AcDbEntity
  8
0
  6
Continuous
 62
     8
370
    15
100
AcDbLine
 10
2431.928961100318
 20
875.6661191631783
 30
0.0
 11
2432.105737793271
 21
875.7681701758034
 31
0.0
1001
AcDbBlockRepETag
1070
     1
1071
      306
1005
AE3
  0
LINE
  5
AE4
330
415
100
AcDbEntity
  8
0
  6
Continuous
 62
     8
370
    15
100
AcDbLine
 10
2431.785535951799
 20
875.7489167390314
 30
0.0
 11
2432.105737795617
 21
875.9337653288543
 31
0.0
1001
AcDbBlockRepETag
1070
     1
1071
      307
1005
AE4
  0
LINE
  5
AE5
330
415
100
AcDbEntity
  8
0
  6
Continuous
 62
     7
370
    15
100
AcDbLine
 10
2431.257209658116
 20
881.4016015497371
 30
0.0
 11
2431.257209658116
 21
877.9718116596843
 31
0.0
1001
AcDbBlockRepETag
1070
     1
1071
      308
1005
AE5
  0
LINE
  5
AE6
330
415
100
AcDbEntity
  8
0
  6
Continuous
 62
     7
370
    15
100
AcDbLine
 10
2431.257209658117
 20
881.4016015497367
 30
0.0
 11
2431.257209658117
 21
877.9718116596839
 31
0.0
1001
AcDbBlockRepETag
1070
     1
1071
      309
1005
AE6
  0
LINE
  5
AE7
330
415
100
AcDbEntity
  8
0
  6
Continuous
 62
     7
370
    15
100
AcDbLine
 10
2428.075229142884
 20
873.6915343224705
 30
0.0
 11
2427.630037457487
 21
873.4345306329677
 31
0.0
1001
AcDbBlockRepETag
1070
     1
1071
      310
1005
AE7
  0
LINE
  5
AE8
330
415
100
AcDbEntity
  8
0
  6
Continuous
 62
     7
370
    15
100
AcDbLine
 10
2427.849251626069
 20
866.7948246152722
 30
0.0
 11
2429.543244417687
 21
865.8169033923098
 31
0.0
1001
AcDbBlockRepETag
1070
     1
1071
      311
1005
AE8
  0
LINE
  5
AF1
330
415
100
AcDbEntity
  8
0
  6
Continuous
 62
     7
370
    15
100
AcDbLine
 10
2429.206599992621
 20
877.4399379455292
 30
0.0
 11
2429.206599992622
 21
878.5014410009845
 31
0.0
1001
AcDbBlockRepETag
1070
     1
1071
      312
1005
AF1
  0
LINE
  5
AF2
330
415
100
AcDbEntity
  8
0
  6
Continuous
 62
     7
370
    15
100
AcDbLine
 10
2430.974366945588
 20
878.4604480853115
 30
0.0
 11
2429.206599992621
 21
877.4399379455292
 31
0.0
1001
AcDbBlockRepETag
1070
     1
1071
      313
1005
AF2
  0
LINE
  5
AF3
330
415
100
AcDbEntity
  8
0
  6
Continuous
 62
     7
370
    15
100
AcDbLine
 10
2429.206599992622
 20
878.5014410009845
 30
0.0
 11
2430.974366945588
 21
879.5219511407628
 31
0.0
1001
AcDbBlockRepETag
1070
     1
1071
      314
1005
AF3
  0
LINE
  5
AF4
330
415
100
AcDbEntity
  8
0
  6
Continuous
 62
     7
370
    15
100
AcDbLine
 10
2431.257209658062
 20
876.0124321912645
 30
0.0
 11
2431.257209658062
 21
881.4016015497122
 31
0.0
1001
AcDbBlockRepETag
1070
     1
1071
      315
1005
AF4
  0
LINE
  5
AF5
330
415
100
AcDbEntity
  8
0
  6
Continuous
 62
     7
370
    15
100
AcDbLine
 10
2431.115788301825
 20
875.7674832177052
 30
0.0
 11
2431.257209658062
 21
876.0124321912645
 31
0.0
1001
AcDbBlockRepETag
1070
     1
1071
      316
1005
AF5
  0
LINE
  5
AF6
330
415
100
AcDbEntity
  8
0
  6
Continuous
 62
     7
370
    15
100
AcDbLine
 10
2431.115788301825
 20
874.6226929994419
 30
0.0
 11
2431.115788301825
 21
875.7674832177052
 31
0.0
1001
AcDbBlockRepETag
1070
     1
1071
      317
1005
AF6
  0
LINE
  5
AF7
330
415
100
AcDbEntity
  8
0
  6
Continuous
 62
     7
370
    15
100
AcDbLine
 10
2429.065178636477
 20
873.4389012373522
 30
0.0
 11
2431.115788301825
 21
874.6226929994419
 31
0.0
1001
AcDbBlockRepETag
1070
     1
1071
      318
1005
AF7
  0
LINE
  5
AF8
330
415
100
AcDbEntity
  8
0
  6
Continuous
 62
     7
370
    15
100
AcDbLine
 10
2429.065178636477
 20
873.4389012373522
 30
0.0
 11
2429.065178636476
 21
874.5836914556102
 31
0.0
1001
AcDbBlockRepETag
1070
     1
1071
      319
1005
AF8
  0
LINE
  5
AF9
330
415
100
AcDbEntity
  8
0
  6
Continuous
 62
     7
370
    15
100
AcDbLine
 10
2429.065178636476
 20
874.5836914556102
 30
0.0
 11
2428.92375728023
 21
874.6653588068099
 31
0.0
1001
AcDbBlockRepETag
1070
     1
1071
      320
1005
AF9
  0
LINE
  5
AFA
330
415
100
AcDbEntity
  8
0
  6
Continuous
 62
     7
370
    15
100
AcDbLine
 10
2428.92375728023
 20
880.0545281652459
 30
0.0
 11
2428.92375728023
 21
874.6653588068099
 31
0.0
1001
AcDbBlockRepETag
1070
     1
1071
      321
1005
AFA
  0
LINE
  5
AFC
330
415
100
AcDbEntity
  8
0
  6
Continuous
 62
     7
370
    15
100
AcDbLine
 10
2427.226701005383
 20
875.6450485409969
 30
0.0
 11
2428.92375728023
 21
874.6653588068099
 31
0.0
1001
AcDbBlockRepETag
1070
     1
1071
      322
1005
AFC
  0
LINE
  5
AFD
330
415
100
AcDbEntity
  8
0
  6
Continuous
 62
     7
370
    15
100
AcDbLine
 10
2427.226701005383
 20
879.0748384310495
 30
0.0
 11
2427.226701005383
 21
875.6450485409969
 31
0.0
1001
AcDbBlockRepETag
1070
     1
1071
      323
1005
AFD
  0
LINE
  5
AFE
330
415
100
AcDbEntity
  8
0
  6
Continuous
 62
     7
370
    15
100
AcDbLine
 10
2429.206599992621
 20
877.4399379455292
 30
0.0
 11
2429.383376687919
 21
878.3993899870067
 31
0.0
1001
AcDbBlockRepETag
1070
     1
1071
      324
1005
AFE
  0
LINE
  5
AFF
330
415
100
AcDbEntity
  8
0
  6
Continuous
 62
     7
370
    15
100
AcDbLine
 10
2429.383376687919
 20
878.3993899870067
 30
0.0
 11
2429.206599992622
 21
878.5014410009845
 31
0.0
1001
AcDbBlockRepETag
1070
     1
1071
      325
1005
AFF
  0
LINE
  5
B00
330
415
100
AcDbEntity
  8
0
  6
Continuous
 62
     7
370
    15
100
AcDbLine
 10
2431.151143640885
 20
879.419900126785
 30
0.0
 11
2430.974366945588
 21
879.5219511407628
 31
0.0
1001
AcDbBlockRepETag
1070
     1
1071
      326
1005
B00
  0
LINE
  5
B01
330
415
100
AcDbEntity
  8
0
  6
Continuous
 62
     7
370
    15
100
AcDbLine
 10
2429.383376687919
 20
878.3993899870067
 30
0.0
 11
2431.151143640885
 21
879.419900126785
 31
0.0
1001
AcDbBlockRepETag
1070
     1
1071
      327
1005
B01
  0
LINE
  5
B02
330
415
100
AcDbEntity
  8
0
  6
Continuous
 62
     7
370
    15
100
AcDbLine
 10
2431.151143640885
 20
879.419900126785
 30
0.0
 11
2430.974366945588
 21
878.4604480853115
 31
0.0
1001
AcDbBlockRepETag
1070
     1
1071
      328
1005
B02
  0
LINE
  5
B03
330
415
100
AcDbEntity
  8
0
  6
Continuous
 62
     7
370
    15
100
AcDbLine
 10
2427.368122361629
 20
875.5633811897972
 30
0.0
 11
2429.065178636476
 21
874.5836914556102
 31
0.0
1001
AcDbBlockRepETag
1070
     1
1071
      329
1005
B03
  0
LINE
  5
B04
330
415
100
AcDbEntity
  8
0
  6
Continuous
 62
     7
370
    15
100
AcDbLine
 10
2427.368122361629
 20
875.5633811897972
 30
0.0
 11
2427.226701005383
 21
875.6450485409969
 31
0.0
1001
AcDbBlockRepETag
1070
     1
1071
      330
1005
B04
  0
LINE
  5
B05
330
415
100
AcDbEntity
  8
0
  6
Continuous
 62
     7
370
    15
100
AcDbLine
 10
2427.368122361629
 20
874.4185909715396
 30
0.0
 11
2429.065178636477
 21
873.4389012373522
 31
0.0
1001
AcDbBlockRepETag
1070
     1
1071
      331
1005
B05
  0
LINE
  5
B06
330
415
100
AcDbEntity
  8
0
  6
Continuous
 62
     7
370
    15
100
AcDbLine
 10
2427.368122361629
 20
875.5633811897972
 30
0.0
 11
2427.368122361629
 21
874.4185909715396
 31
0.0
1001
AcDbBlockRepETag
1070
     1
1071
      332
1005
B06
  0
LINE
  5
B07
330
415
100
AcDbEntity
  8
0
  6
Continuous
 62
     7
370
    15
100
AcDbLine
 10
2427.368122361629
 20
874.4185909715396
 30
0.0
 11
2427.650965074104
 21
874.2552828091623
 31
0.0
1001
AcDbBlockRepETag
1070
     1
1071
      333
1005
B07
  0
LINE
  5
B08
330
415
100
AcDbEntity
  8
0
  6
Continuous
 62
     7
370
    15
100
AcDbLine
 10
2429.065178636477
 20
873.4389012373522
 30
0.0
 11
2429.065178636476
 21
873.4388746973396
 31
0.0
1001
AcDbBlockRepETag
1070
     1
1071
      334
1005
B08
  0
LINE
  5
B09
330
415
100
AcDbEntity
  8
0
  6
Continuous
 62
     7
370
    15
100
AcDbLine
 10
2429.065178636476
 20
873.4388746973396
 30
0.0
 11
2427.650965074104
 21
874.2552828091623
 31
0.0
1001
AcDbBlockRepETag
1070
     1
1071
      335
1005
B09
  0
LINE
  5
B0A
330
415
100
AcDbEntity
  8
0
  6
Continuous
 62
     7
370
    15
100
AcDbLine
 10
2431.115788301825
 20
874.6226929994419
 30
0.0
 11
2430.83294558935
 21
874.459384837065
 31
0.0
1001
AcDbBlockRepETag
1070
     1
1071
      336
1005
B0A
  0
LINE
  5
B0B
330
415
100
AcDbEntity
  8
0
  6
Continuous
 62
     7
370
    15
100
AcDbLine
 10
2430.83294558935
 20
874.459384837065
 30
0.0
 11
2429.065178636476
 21
873.4388746973396
 31
0.0
1001
AcDbBlockRepETag
1070
     1
1071
      337
1005
B0B
  0
ARC
  5
B0C
330
415
100
AcDbEntity
  8
0
  6
Continuous
 62
     7
370
    15
100
AcDbCircle
 10
2429.159068881606
 20
873.0547834312005
 30
0.0
 40
0.3842012018917073
100
AcDbArc
 50
182.6054784855653
 51
237.3945216600927
1001
AcDbBlockRepETag
1070
     1
1071
      338
1005
B0C
  0
LINE
  5
B0D
330
415
100
AcDbEntity
  8
0
  6
Continuous
 62
     7
370
    15
100
AcDbLine
 10
2429.09546670009
 20
872.6483344253377
 30
0.0
 11
2428.952041551562
 21
872.7311320011869
 31
0.0
1001
AcDbBlockRepETag
1070
     1
1071
      339
1005
B0D
  0
ARC
  5
B0E
330
415
100
AcDbEntity
  8
0
  6
Continuous
 62
     7
370
    15
100
AcDbCircle
 10
2428.888439370045
 20
872.3246829953232
 30
0.0
 40
0.3842012018927381
100
AcDbArc
 50
2.605478485597822
 51
57.39452166000235
1001
AcDbBlockRepETag
1070
     1
1071
      340
1005
B0E
  0
LINE
  5
B0F
330
415
100
AcDbEntity
  8
0
  6
Continuous
 62
     7
370
    15
100
AcDbLine
 10
2429.272243395387
 20
872.342148208388
 30
0.0
 11
2429.272243395387
 21
867.1205123174939
 31
0.0
1001
AcDbBlockRepETag
1070
     1
1071
      341
1005
B0F
  0
LINE
  5
B10
330
415
100
AcDbEntity
  8
0
  6
Continuous
 62
     7
370
    15
100
AcDbLine
 10
2429.272243395387
 20
867.1205123174939
 30
0.0
 11
2427.578250603769
 21
868.0984335404563
 31
0.0
1001
AcDbBlockRepETag
1070
     1
1071
      342
1005
B10
  0
LINE
  5
B11
330
415
100
AcDbEntity
  8
0
  6
Continuous
 62
     7
370
    15
100
AcDbLine
 10
2427.578250603769
 20
868.0984335404563
 30
0.0
 11
2427.578250603769
 21
873.3200694313504
 31
0.0
1001
AcDbBlockRepETag
1070
     1
1071
      343
1005
B11
  0
ARC
  5
B12
330
415
100
AcDbEntity
  8
0
  6
Continuous
 62
     7
370
    15
100
AcDbCircle
 10
2427.686019195626
 20
873.3375512305755
 30
0.0
 40
0.1091772993572724
100
AcDbArc
 50
50.79671476440671
 51
189.2140369903814
1001
AcDbBlockRepETag
1070
     1
1071
      344
1005
B12
  0
LINE
  5
B13
330
415
100
AcDbEntity
  8
0
  6
Continuous
 62
     7
370
    15
100
AcDbLine
 10
2427.755027299066
 20
873.4221536203442
 30
0.0
 11
2427.898452447584
 21
873.3393560444911
 31
0.0
1001
AcDbBlockRepETag
1070
     1
1071
      345
1005
B13
  0
ARC
  5
B14
330
415
100
AcDbEntity
  8
0
  6
Continuous
 62
     7
370
    15
100
AcDbCircle
 10
2427.967460551023
 20
873.4239584342612
 30
0.0
 40
0.1091772993578319
100
AcDbArc
 50
230.7967147652449
 51
9.214036989391978
1001
AcDbBlockRepETag
1070
     1
1071
      346
1005
B14
  0
LINE
  5
B15
330
415
100
AcDbEntity
  8
0
  6
Continuous
 62
     7
370
    15
100
AcDbLine
 10
2428.075229142881
 20
873.4414402334845
 30
0.0
 11
2428.075229142888
 21
874.0103603755736
 31
0.0
1001
AcDbBlockRepETag
1070
     1
1071
      347
1005
B15
  0
LINE
  5
B16
330
415
100
AcDbEntity
  8
0
  6
Continuous
 62
     7
370
    15
100
AcDbLine
 10
2428.775264856265
 20
873.0373182181361
 30
0.0
 11
2428.775264856265
 21
873.6062383602199
 31
0.0
1001
AcDbBlockRepETag
1070
     1
1071
      348
1005
B16
  0
LINE
  5
B17
330
415
100
AcDbEntity
  8
0
  6
Continuous
 62
     7
370
    15
100
AcDbLine
 10
2430.40161045273
 20
874.2103803629028
 30
0.0
 11
2430.401610452733
 21
873.9761875465811
 31
0.0
1001
AcDbBlockRepETag
1070
     1
1071
      349
1005
B17
  0
LINE
  5
B18
330
415
100
AcDbEntity
  8
0
  6
Continuous
 62
     7
370
    15
100
AcDbLine
 10
2430.401610452733
 20
873.9761875465811
 30
0.0
 11
2428.775264856265
 21
873.0373182181361
 31
0.0
1001
AcDbBlockRepETag
1070
     1
1071
      350
1005
B18
  0
LINE
  5
B19
330
415
100
AcDbEntity
  8
0
  6
Continuous
 62
     7
370
    15
100
AcDbLine
 10
2430.898588991875
 20
873.2810175368451
 30
0.0
 11
2429.272243395387
 21
872.342148208388
 31
0.0
1001
AcDbBlockRepETag
1070
     1
1071
      351
1005
B19
  0
LINE
  5
B1A
330
415
100
AcDbEntity
  8
0
  6
Continuous
 62
     7
370
    15
100
AcDbLine
 10
2430.721812296579
 20
873.587203753795
 30
0.0
 11
2429.09546670009
 21
872.6483344253377
 31
0.0
1001
AcDbBlockRepETag
1070
     1
1071
      352
1005
B1A
  0
ARC
  5
B1B
330
415
100
AcDbEntity
  8
0
  6
Continuous
 62
     7
370
    15
100
AcDbCircle
 10
2430.514784966528
 20
873.2635523237782
 30
0.0
 40
0.3842012018978607
100
AcDbArc
 50
2.605478485871072
 51
57.39452165947825
1001
AcDbBlockRepETag
1070
     1
1071
      353
1005
B1B
  0
LINE
  5
B1C
330
415
100
AcDbEntity
  8
0
  6
Continuous
 62
     7
370
    15
100
AcDbLine
 10
2430.578387148044
 20
873.6700013296406
 30
0.0
 11
2428.952041551562
 21
872.7311320011869
 31
0.0
1001
AcDbBlockRepETag
1070
     1
1071
      354
1005
B1C
  0
ARC
  5
B1D
330
415
100
AcDbEntity
  8
0
  6
Continuous
 62
     7
370
    15
100
AcDbCircle
 10
2430.785414478134
 20
873.9936527596997
 30
0.0
 40
0.3842012019544738
100
AcDbArc
 50
182.6054784932199
 51
237.394521658022
1001
AcDbBlockRepETag
1070
     1
1071
      355
1005
B1D
  0
LINE
  5
B1E
330
415
100
AcDbEntity
  8
0
  6
Continuous
 62
     7
370
    15
100
AcDbLine
 10
2430.700257772961
 20
866.6460189117152
 30
0.0
 11
2430.898588991871
 21
868.0593816459515
 31
0.0
1001
AcDbBlockRepETag
1070
     1
1071
      356
1005
B1E
  0
ARC
  5
B1F
330
415
100
AcDbEntity
  8
0
  6
Continuous
 62
     7
370
    15
100
AcDbCircle
 10
2430.12822139679
 20
866.7334546403186
 30
0.0
 40
0.5786800690351719
100
AcDbArc
 50
302.9067666138764
 51
351.3096048992634
1001
AcDbBlockRepETag
1070
     1
1071
      357
1005
B1F
  0
LINE
  5
B20
330
415
100
AcDbEntity
  8
0
  6
Continuous
 62
     7
370
    15
100
AcDbLine
 10
2429.728229383224
 20
865.835221370993
 30
0.0
 11
2430.442603004042
 21
866.2476204841292
 31
0.0
1001
AcDbBlockRepETag
1070
     1
1071
      358
1005
B20
  0
LWPOLYLINE
  5
B21
330
415
100
AcDbEntity
  8
0
  6
Continuous
 62
     7
370
    15
100
AcDbPolyline
 90
        9
 70
   128
 43
0.0
 10
2429.470574614306
 20
865.9361379344632
 10
2429.4823780642
 20
865.8920833658784
 10
2429.501651582017
 20
865.8554808407233
 10
2429.527809551669
 20
865.8274425082025
 10
2429.560057176486
 20
865.8088202988619
 10
2429.597414628705
 20
865.8001800391089
 10
2429.638746821044
 20
865.8017842588634
 10
2429.682797895756
 20
865.8135842147208
 10
2429.728229383224
 20
865.835221370993
1001
AcDbBlockRepETag
1070
     1
1071
      359
1005
B21
  0
LINE
  5
B22
330
415
100
AcDbEntity
  8
0
  6
Continuous
 62
     7
370
    15
100
AcDbLine
 10
2429.272243395387
 20
867.1205123174939
 30
0.0
 11
2429.470574614306
 21
865.9361379344632
 31
0.0
1001
AcDbBlockRepETag
1070
     1
1071
      360
1005
B22
  0
LINE
  5
B23
330
415
100
AcDbEntity
  8
0
  6
Continuous
 62
     7
370
    15
100
AcDbLine
 10
2430.898588991871
 20
868.0593816459515
 30
0.0
 11
2430.898588991875
 21
873.2810175368451
 31
0.0
1001
AcDbBlockRepETag
1070
     1
1071
      361
1005
B23
  0
LINE
  5
B24
330
415
100
AcDbEntity
  8
0
  6
Continuous
 62
     7
370
    15
100
AcDbLine
 10
2430.578387148044
 20
873.6700013296406
 30
0.0
 11
2430.721812296579
 21
873.587203753795
 31
0.0
1001
AcDbBlockRepETag
1070
     1
1071
      362
1005
B24
  0
LINE
  5
B25
330
415
100
AcDbEntity
  8
0
  6
Continuous
 62
     7
370
    15
100
AcDbLine
 10
2429.470574614306
 20
865.9361379344632
 30
0.0
 11
2427.776581822688
 21
866.9140591574254
 31
0.0
1001
AcDbBlockRepETag
1070
     1
1071
      363
1005
B25
  0
LINE
  5
B26
330
415
100
AcDbEntity
  8
0
  6
Continuous
 62
     7
370
    15
100
AcDbLine
 10
2427.776581822688
 20
866.9140591574254
 30
0.0
 11
2427.578250603769
 21
868.0984335404563
 31
0.0
1001
AcDbBlockRepETag
1070
     1
1071
      364
1005
B26
  0
ARC
  5
B27
330
415
100
AcDbEntity
  8
0
  6
Continuous
 62
     7
370
    15
100
AcDbCircle
 10
2427.935682485048
 20
866.9292638593159
 30
0.0
 40
0.1598255415222954
100
AcDbArc
 50
185.4589815370583
 51
237.2630757802571
1001
AcDbBlockRepETag
1070
     1
1071
      365
1005
B27
  0
LINE
  5
B28
330
415
100
AcDbEntity
  8
0
  6
Continuous
 62
     8
370
    15
100
AcDbLine
 10
2427.898452447584
 20
873.3393560444911
 30
0.0
 11
2428.075229140538
 21
873.4414070571162
 31
0.0
1001
AcDbBlockRepETag
1070
     1
1071
      366
1005
B28
  0
LINE
  5
B29
330
415
100
AcDbEntity
  8
0
  6
Continuous
 62
     8
370
    15
100
AcDbLine
 10
2427.755027299066
 20
873.4221536203442
 30
0.0
 11
2428.075229142883
 21
873.6070022101669
 31
0.0
1001
AcDbBlockRepETag
1070
     1
1071
      367
1005
B29
  0
LINE
  5
B2A
330
415
100
AcDbEntity
  8
0
  6
Continuous
 62
     7
370
    15
100
AcDbLine
 10
2427.226701005383
 20
879.0748384310498
 30
0.0
 11
2427.226701005383
 21
875.6450485409969
 31
0.0
1001
AcDbBlockRepETag
1070
     1
1071
      368
1005
B2A
  0
LINE
  5
B2B
330
415
100
AcDbEntity
  8
0
  6
Continuous
 62
     7
370
    15
100
AcDbLine
 10
2427.226701005383
 20
879.0748384310495
 30
0.0
 11
2427.226701005383
 21
875.6450485409967
 31
0.0
1001
AcDbBlockRepETag
1070
     1
1071
      369
1005
B2B
  0
LINE
  5
B2C
330
415
100
AcDbEntity
  8
0
  6
Continuous
 62
     7
370
    15
100
AcDbLine
 10
2424.044720490151
 20
871.3647712037833
 30
0.0
 11
2423.599528804753
 21
871.1077675142805
 31
0.0
1001
AcDbBlockRepETag
1070
     1
1071
      370
1005
B2C
  0
LINE
  5
B2D
330
415
100
AcDbEntity
  8
0
  6
Continuous
 62
     7
370
    15
100
AcDbLine
 10
2423.818742973336
 20
864.4680614965849
 30
0.0
 11
2425.512735764954
 21
863.4901402736225
 31
0.0
1001
AcDbBlockRepETag
1070
     1
1071
      371
1005
B2D
  0
LINE
  5
B36
330
415
100
AcDbEntity
  8
0
  6
Continuous
 62
     7
370
    15
100
AcDbLine
 10
2425.176091339888
 20
875.1131748268418
 30
0.0
 11
2425.176091339889
 21
876.1746778822972
 31
0.0
1001
AcDbBlockRepETag
1070
     1
1071
      372
1005
B36
  0
LINE
  5
B37
330
415
100
AcDbEntity
  8
0
  6
Continuous
 62
     7
370
    15
100
AcDbLine
 10
2426.943858292855
 20
876.1336849666241
 30
0.0
 11
2425.176091339888
 21
875.1131748268418
 31
0.0
1001
AcDbBlockRepETag
1070
     1
1071
      373
1005
B37
  0
LINE
  5
B38
330
415
100
AcDbEntity
  8
0
  6
Continuous
 62
     7
370
    15
100
AcDbLine
 10
2425.176091339889
 20
876.1746778822972
 30
0.0
 11
2426.943858292855
 21
877.1951880220754
 31
0.0
1001
AcDbBlockRepETag
1070
     1
1071
      374
1005
B38
  0
LINE
  5
B39
330
415
100
AcDbEntity
  8
0
  6
Continuous
 62
     7
370
    15
100
AcDbLine
 10
2427.226701005329
 20
873.6856690725772
 30
0.0
 11
2427.226701005329
 21
879.0748384310248
 31
0.0
1001
AcDbBlockRepETag
1070
     1
1071
      375
1005
B39
  0
LINE
  5
B3A
330
415
100
AcDbEntity
  8
0
  6
Continuous
 62
     7
370
    15
100
AcDbLine
 10
2427.085279649091
 20
873.440720099018
 30
0.0
 11
2427.226701005329
 21
873.6856690725772
 31
0.0
1001
AcDbBlockRepETag
1070
     1
1071
      376
1005
B3A
  0
LINE
  5
B3B
330
415
100
AcDbEntity
  8
0
  6
Continuous
 62
     7
370
    15
100
AcDbLine
 10
2427.085279649091
 20
872.2959298807545
 30
0.0
 11
2427.085279649091
 21
873.440720099018
 31
0.0
1001
AcDbBlockRepETag
1070
     1
1071
      377
1005
B3B
  0
LINE
  5
B3C
330
415
100
AcDbEntity
  8
0
  6
Continuous
 62
     7
370
    15
100
AcDbLine
 10
2425.034669983743
 20
871.112138118665
 30
0.0
 11
2427.085279649091
 21
872.2959298807545
 31
0.0
1001
AcDbBlockRepETag
1070
     1
1071
      378
1005
B3C
  0
LINE
  5
B3D
330
415
100
AcDbEntity
  8
0
  6
Continuous
 62
     7
370
    15
100
AcDbLine
 10
2425.034669983743
 20
871.112138118665
 30
0.0
 11
2425.034669983743
 21
872.256928336923
 31
0.0
1001
AcDbBlockRepETag
1070
     1
1071
      379
1005
B3D
  0
LINE
  5
B3E
330
415
100
AcDbEntity
  8
0
  6
Continuous
 62
     7
370
    15
100
AcDbLine
 10
2425.034669983743
 20
872.256928336923
 30
0.0
 11
2424.893248627497
 21
872.3385956881227
 31
0.0
1001
AcDbBlockRepETag
1070
     1
1071
      380
1005
B3E
  0
LINE
  5
B3F
330
415
100
AcDbEntity
  8
0
  6
Continuous
 62
     7
370
    15
100
AcDbLine
 10
2424.893248627497
 20
877.7277650465586
 30
0.0
 11
2424.893248627497
 21
872.3385956881227
 31
0.0
1001
AcDbBlockRepETag
1070
     1
1071
      381
1005
B3F
  0
LINE
  5
B41
330
415
100
AcDbEntity
  8
0
  6
Continuous
 62
     7
370
    15
100
AcDbLine
 10
2423.196192352649
 20
873.3182854223096
 30
0.0
 11
2424.893248627497
 21
872.3385956881227
 31
0.0
1001
AcDbBlockRepETag
1070
     1
1071
      382
1005
B41
  0
LINE
  5
B42
330
415
100
AcDbEntity
  8
0
  6
Continuous
 62
     7
370
    15
100
AcDbLine
 10
2423.196192352649
 20
876.7480753123624
 30
0.0
 11
2423.196192352649
 21
873.3182854223096
 31
0.0
1001
AcDbBlockRepETag
1070
     1
1071
      383
1005
B42
  0
LINE
  5
B43
330
415
100
AcDbEntity
  8
0
  6
Continuous
 62
     7
370
    15
100
AcDbLine
 10
2425.176091339888
 20
875.1131748268418
 30
0.0
 11
2425.352868035185
 21
876.0726268683194
 31
0.0
1001
AcDbBlockRepETag
1070
     1
1071
      384
1005
B43
  0
LINE
  5
B44
330
415
100
AcDbEntity
  8
0
  6
Continuous
 62
     7
370
    15
100
AcDbLine
 10
2425.352868035185
 20
876.0726268683194
 30
0.0
 11
2425.176091339889
 21
876.1746778822972
 31
0.0
1001
AcDbBlockRepETag
1070
     1
1071
      385
1005
B44
  0
LINE
  5
B45
330
415
100
AcDbEntity
  8
0
  6
Continuous
 62
     7
370
    15
100
AcDbLine
 10
2427.120634988151
 20
877.0931370080978
 30
0.0
 11
2426.943858292855
 21
877.1951880220754
 31
0.0
1001
AcDbBlockRepETag
1070
     1
1071
      386
1005
B45
  0
LINE
  5
B46
330
415
100
AcDbEntity
  8
0
  6
Continuous
 62
     7
370
    15
100
AcDbLine
 10
2425.352868035185
 20
876.0726268683194
 30
0.0
 11
2427.120634988151
 21
877.0931370080978
 31
0.0
1001
AcDbBlockRepETag
1070
     1
1071
      387
1005
B46
  0
LINE
  5
B47
330
415
100
AcDbEntity
  8
0
  6
Continuous
 62
     7
370
    15
100
AcDbLine
 10
2427.120634988151
 20
877.0931370080978
 30
0.0
 11
2426.943858292855
 21
876.1336849666241
 31
0.0
1001
AcDbBlockRepETag
1070
     1
1071
      388
1005
B47
  0
LINE
  5
B48
330
415
100
AcDbEntity
  8
0
  6
Continuous
 62
     7
370
    15
100
AcDbLine
 10
2423.337613708895
 20
873.23661807111
 30
0.0
 11
2425.034669983743
 21
872.256928336923
 31
0.0
1001
AcDbBlockRepETag
1070
     1
1071
      389
1005
B48
  0
LINE
  5
B49
330
415
100
AcDbEntity
  8
0
  6
Continuous
 62
     7
370
    15
100
AcDbLine
 10
2423.337613708895
 20
873.23661807111
 30
0.0
 11
2423.196192352649
 21
873.3182854223096
 31
0.0
1001
AcDbBlockRepETag
1070
     1
1071
      390
1005
B49
  0
LINE
  5
B4A
330
415
100
AcDbEntity
  8
0
  6
Continuous
 62
     7
370
    15
100
AcDbLine
 10
2423.337613708895
 20
872.0918278528523
 30
0.0
 11
2425.034669983743
 21
871.112138118665
 31
0.0
1001
AcDbBlockRepETag
1070
     1
1071
      391
1005
B4A
  0
LINE
  5
B4B
330
415
100
AcDbEntity
  8
0
  6
Continuous
 62
     7
370
    15
100
AcDbLine
 10
2423.337613708895
 20
873.23661807111
 30
0.0
 11
2423.337613708895
 21
872.0918278528523
 31
0.0
1001
AcDbBlockRepETag
1070
     1
1071
      392
1005
B4B
  0
LINE
  5
B4C
330
415
100
AcDbEntity
  8
0
  6
Continuous
 62
     7
370
    15
100
AcDbLine
 10
2423.337613708895
 20
872.0918278528523
 30
0.0
 11
2423.62045642137
 21
871.9285196904751
 31
0.0
1001
AcDbBlockRepETag
1070
     1
1071
      393
1005
B4C
  0
LINE
  5
B4D
330
415
100
AcDbEntity
  8
0
  6
Continuous
 62
     7
370
    15
100
AcDbLine
 10
2425.034669983743
 20
871.112138118665
 30
0.0
 11
2425.034669983743
 21
871.1121115786523
 31
0.0
1001
AcDbBlockRepETag
1070
     1
1071
      394
1005
B4D
  0
LINE
  5
B4E
330
415
100
AcDbEntity
  8
0
  6
Continuous
 62
     7
370
    15
100
AcDbLine
 10
2425.034669983743
 20
871.1121115786523
 30
0.0
 11
2423.62045642137
 21
871.9285196904751
 31
0.0
1001
AcDbBlockRepETag
1070
     1
1071
      395
1005
B4E
  0
LINE
  5
B4F
330
415
100
AcDbEntity
  8
0
  6
Continuous
 62
     7
370
    15
100
AcDbLine
 10
2427.085279649091
 20
872.2959298807545
 30
0.0
 11
2426.802436936617
 21
872.1326217183776
 31
0.0
1001
AcDbBlockRepETag
1070
     1
1071
      396
1005
B4F
  0
LINE
  5
B50
330
415
100
AcDbEntity
  8
0
  6
Continuous
 62
     7
370
    15
100
AcDbLine
 10
2426.802436936617
 20
872.1326217183776
 30
0.0
 11
2425.034669983743
 21
871.1121115786523
 31
0.0
1001
AcDbBlockRepETag
1070
     1
1071
      397
1005
B50
  0
ARC
  5
B51
330
415
100
AcDbEntity
  8
0
  6
Continuous
 62
     7
370
    15
100
AcDbCircle
 10
2425.128560228873
 20
870.7280203125133
 30
0.0
 40
0.3842012018917073
100
AcDbArc
 50
182.6054784855653
 51
237.3945216600927
1001
AcDbBlockRepETag
1070
     1
1071
      398
1005
B51
  0
LINE
  5
B52
330
415
100
AcDbEntity
  8
0
  6
Continuous
 62
     7
370
    15
100
AcDbLine
 10
2425.064958047357
 20
870.3215713066503
 30
0.0
 11
2424.921532898828
 21
870.4043688824995
 31
0.0
1001
AcDbBlockRepETag
1070
     1
1071
      399
1005
B52
  0
ARC
  5
B53
330
415
100
AcDbEntity
  8
0
  6
Continuous
 62
     7
370
    15
100
AcDbCircle
 10
2424.857930717312
 20
869.997919876636
 30
0.0
 40
0.3842012018927381
100
AcDbArc
 50
2.605478485597822
 51
57.39452166000234
1001
AcDbBlockRepETag
1070
     1
1071
      400
1005
B53
  0
LINE
  5
B54
330
415
100
AcDbEntity
  8
0
  6
Continuous
 62
     7
370
    15
100
AcDbLine
 10
2425.241734742654
 20
870.0153850897008
 30
0.0
 11
2425.241734742654
 21
864.7937491988066
 31
0.0
1001
AcDbBlockRepETag
1070
     1
1071
      401
1005
B54
  0
LINE
  5
B55
330
415
100
AcDbEntity
  8
0
  6
Continuous
 62
     7
370
    15
100
AcDbLine
 10
2425.241734742654
 20
864.7937491988066
 30
0.0
 11
2423.547741951036
 21
865.7716704217691
 31
0.0
1001
AcDbBlockRepETag
1070
     1
1071
      402
1005
B55
  0
LINE
  5
B56
330
415
100
AcDbEntity
  8
0
  6
Continuous
 62
     7
370
    15
100
AcDbLine
 10
2423.547741951036
 20
865.7716704217691
 30
0.0
 11
2423.547741951036
 21
870.9933063126632
 31
0.0
1001
AcDbBlockRepETag
1070
     1
1071
      403
1005
B56
  0
ARC
  5
B57
330
415
100
AcDbEntity
  8
0
  6
Continuous
 62
     7
370
    15
100
AcDbCircle
 10
2423.655510542892
 20
871.0107881118883
 30
0.0
 40
0.1091772993572724
100
AcDbArc
 50
50.79671476440665
 51
189.2140369903814
1001
AcDbBlockRepETag
1070
     1
1071
      404
1005
B57
  0
LINE
  5
B58
330
415
100
AcDbEntity
  8
0
  6
Continuous
 62
     7
370
    15
100
AcDbLine
 10
2423.724518646333
 20
871.0953905016568
 30
0.0
 11
2423.867943794851
 21
871.0125929258039
 31
0.0
1001
AcDbBlockRepETag
1070
     1
1071
      405
1005
B58
  0
ARC
  5
B59
330
415
100
AcDbEntity
  8
0
  6
Continuous
 62
     7
370
    15
100
AcDbCircle
 10
2423.93695189829
 20
871.0971953155739
 30
0.0
 40
0.1091772993578319
100
AcDbArc
 50
230.7967147652449
 51
9.214036989391978
1001
AcDbBlockRepETag
1070
     1
1071
      406
1005
B59
  0
LINE
  5
B5A
330
415
100
AcDbEntity
  8
0
  6
Continuous
 62
     7
370
    15
100
AcDbLine
 10
2424.044720490148
 20
871.1146771147973
 30
0.0
 11
2424.044720490155
 21
871.6835972568862
 31
0.0
1001
AcDbBlockRepETag
1070
     1
1071
      407
1005
B5A
  0
LINE
  5
B5B
330
415
100
AcDbEntity
  8
0
  6
Continuous
 62
     7
370
    15
100
AcDbLine
 10
2424.744756203532
 20
870.7105550994487
 30
0.0
 11
2424.744756203532
 21
871.2794752415327
 31
0.0
1001
AcDbBlockRepETag
1070
     1
1071
      408
1005
B5B
  0
LINE
  5
B5C
330
415
100
AcDbEntity
  8
0
  6
Continuous
 62
     7
370
    15
100
AcDbLine
 10
2426.371101799996
 20
871.8836172442156
 30
0.0
 11
2426.3711018
 21
871.6494244278939
 31
0.0
1001
AcDbBlockRepETag
1070
     1
1071
      409
1005
B5C
  0
LINE
  5
B5D
330
415
100
AcDbEntity
  8
0
  6
Continuous
 62
     7
370
    15
100
AcDbLine
 10
2426.3711018
 20
871.6494244278939
 30
0.0
 11
2424.744756203532
 21
870.7105550994487
 31
0.0
1001
AcDbBlockRepETag
1070
     1
1071
      410
1005
B5D
  0
LINE
  5
B5E
330
415
100
AcDbEntity
  8
0
  6
Continuous
 62
     7
370
    15
100
AcDbLine
 10
2426.868080339141
 20
870.9542544181578
 30
0.0
 11
2425.241734742654
 21
870.0153850897008
 31
0.0
1001
AcDbBlockRepETag
1070
     1
1071
      411
1005
B5E
  0
LINE
  5
B5F
330
415
100
AcDbEntity
  8
0
  6
Continuous
 62
     7
370
    15
100
AcDbLine
 10
2426.691303643846
 20
871.2604406351076
 30
0.0
 11
2425.064958047357
 21
870.3215713066503
 31
0.0
1001
AcDbBlockRepETag
1070
     1
1071
      412
1005
B5F
  0
ARC
  5
B60
330
415
100
AcDbEntity
  8
0
  6
Continuous
 62
     7
370
    15
100
AcDbCircle
 10
2426.484276313795
 20
870.9367892050909
 30
0.0
 40
0.3842012018978607
100
AcDbArc
 50
2.605478485871072
 51
57.39452165947825
1001
AcDbBlockRepETag
1070
     1
1071
      413
1005
B60
  0
LINE
  5
B61
330
415
100
AcDbEntity
  8
0
  6
Continuous
 62
     7
370
    15
100
AcDbLine
 10
2426.547878495311
 20
871.3432382109534
 30
0.0
 11
2424.921532898828
 21
870.4043688824995
 31
0.0
1001
AcDbBlockRepETag
1070
     1
1071
      414
1005
B61
  0
ARC
  5
B62
330
415
100
AcDbEntity
  8
0
  6
Continuous
 62
     7
370
    15
100
AcDbCircle
 10
2426.754905825401
 20
871.6668896410125
 30
0.0
 40
0.3842012019544738
100
AcDbArc
 50
182.6054784932199
 51
237.394521658022
1001
AcDbBlockRepETag
1070
     1
1071
      415
1005
B62
  0
LINE
  5
B63
330
415
100
AcDbEntity
  8
0
  6
Continuous
 62
     7
370
    15
100
AcDbLine
 10
2426.669749120228
 20
864.319255793028
 30
0.0
 11
2426.868080339138
 21
865.7326185272642
 31
0.0
1001
AcDbBlockRepETag
1070
     1
1071
      416
1005
B63
  0
ARC
  5
B64
330
415
100
AcDbEntity
  8
0
  6
Continuous
 62
     7
370
    15
100
AcDbCircle
 10
2426.097712744057
 20
864.4066915216313
 30
0.0
 40
0.5786800690351719
100
AcDbArc
 50
302.9067666138763
 51
351.3096048992634
1001
AcDbBlockRepETag
1070
     1
1071
      417
1005
B64
  0
LINE
  5
B65
330
415
100
AcDbEntity
  8
0
  6
Continuous
 62
     7
370
    15
100
AcDbLine
 10
2425.697720730491
 20
863.5084582523056
 30
0.0
 11
2426.412094351309
 21
863.9208573654418
 31
0.0
1001
AcDbBlockRepETag
1070
     1
1071
      418
1005
B65
  0
LWPOLYLINE
  5
B66
330
415
100
AcDbEntity
  8
0
  6
Continuous
 62
     7
370
    15
100
AcDbPolyline
 90
        9
 70
   128
 43
0.0
 10
2425.440065961573
 20
863.609374815776
 10
2425.451869411467
 20
863.5653202471912
 10
2425.471142929283
 20
863.528717722036
 10
2425.497300898936
 20
863.5006793895152
 10
2425.529548523752
 20
863.4820571801746
 10
2425.566905975972
 20
863.4734169204214
 10
2425.608238168311
 20
863.4750211401762
 10
2425.652289243023
 20
863.4868210960334
 10
2425.697720730491
 20
863.5084582523056
1001
AcDbBlockRepETag
1070
     1
1071
      419
1005
B66
  0
LINE
  5
B67
330
415
100
AcDbEntity
  8
0
  6
Continuous
 62
     7
370
    15
100
AcDbLine
 10
2425.241734742654
 20
864.7937491988066
 30
0.0
 11
2425.440065961573
 21
863.609374815776
 31
0.0
1001
AcDbBlockRepETag
1070
     1
1071
      420
1005
B67
  0
LINE
  5
B68
330
415
100
AcDbEntity
  8
0
  6
Continuous
 62
     7
370
    15
100
AcDbLine
 10
2426.868080339138
 20
865.7326185272642
 30
0.0
 11
2426.868080339141
 21
870.9542544181578
 31
0.0
1001
AcDbBlockRepETag
1070
     1
1071
      421
1005
B68
  0
LINE
  5
B69
330
415
100
AcDbEntity
  8
0
  6
Continuous
 62
     7
370
    15
100
AcDbLine
 10
2426.547878495311
 20
871.3432382109534
 30
0.0
 11
2426.691303643846
 21
871.2604406351076
 31
0.0
1001
AcDbBlockRepETag
1070
     1
1071
      422
1005
B69
  0
LINE
  5
B6A
330
415
100
AcDbEntity
  8
0
  6
Continuous
 62
     7
370
    15
100
AcDbLine
 10
2425.440065961573
 20
863.609374815776
 30
0.0
 11
2423.746073169955
 21
864.5872960387382
 31
0.0
1001
AcDbBlockRepETag
1070
     1
1071
      423
1005
B6A
  0
LINE
  5
B6B
330
415
100
AcDbEntity
  8
0
  6
Continuous
 62
     7
370
    15
100
AcDbLine
 10
2423.746073169955
 20
864.5872960387382
 30
0.0
 11
2423.547741951036
 21
865.7716704217691
 31
0.0
1001
AcDbBlockRepETag
1070
     1
1071
      424
1005
B6B
  0
ARC
  5
B6C
330
415
100
AcDbEntity
  8
0
  6
Continuous
 62
     7
370
    15
100
AcDbCircle
 10
2423.905173832315
 20
864.6025007406286
 30
0.0
 40
0.1598255415222954
100
AcDbArc
 50
185.4589815370583
 51
237.2630757802571
1001
AcDbBlockRepETag
1070
     1
1071
      425
1005
B6C
  0
LINE
  5
B6D
330
415
100
AcDbEntity
  8
0
  6
Continuous
 62
     8
370
    15
100
AcDbLine
 10
2423.867943794851
 20
871.0125929258039
 30
0.0
 11
2424.044720487805
 21
871.114643938429
 31
0.0
1001
AcDbBlockRepETag
1070
     1
1071
      426
1005
B6D
  0
LINE
  5
B6E
330
415
100
AcDbEntity
  8
0
  6
Continuous
 62
     8
370
    15
100
AcDbLine
 10
2423.724518646333
 20
871.0953905016568
 30
0.0
 11
2424.04472049015
 21
871.2802390914797
 31
0.0
1001
AcDbBlockRepETag
1070
     1
1071
      427
1005
B6E
  0
LINE
  5
B6F
330
415
100
AcDbEntity
  8
0
  6
Continuous
 62
     7
370
    15
100
AcDbLine
 10
2423.196215339466
 20
876.7481059599203
 30
0.0
 11
2423.196215339466
 21
873.3183160698676
 31
0.0
1001
AcDbBlockRepETag
1070
     1
1071
      428
1005
B6F
  0
LINE
  5
B70
330
415
100
AcDbEntity
  8
0
  6
Continuous
 62
     7
370
    15
100
AcDbLine
 10
2423.196215339466
 20
876.74810595992
 30
0.0
 11
2423.196215339466
 21
873.3183160698672
 31
0.0
1001
AcDbBlockRepETag
1070
     1
1071
      429
1005
B70
  0
LINE
  5
B71
330
415
100
AcDbEntity
  8
0
  6
Continuous
 62
     7
370
    15
100
AcDbLine
 10
2420.014234824234
 20
869.0380387326538
 30
0.0
 11
2419.569043138836
 21
868.781035043151
 31
0.0
1001
AcDbBlockRepETag
1070
     1
1071
      430
1005
B71
  0
LINE
  5
B72
330
415
100
AcDbEntity
  8
0
  6
Continuous
 62
     7
370
    15
100
AcDbLine
 10
2419.788257307419
 20
862.1413290254555
 30
0.0
 11
2421.482250099037
 21
861.163407802493
 31
0.0
1001
AcDbBlockRepETag
1070
     1
1071
      431
1005
B72
  0
LINE
  5
B7B
330
415
100
AcDbEntity
  8
0
  6
Continuous
 62
     7
370
    15
100
AcDbLine
 10
2421.145605673971
 20
872.7864423557125
 30
0.0
 11
2421.145605673972
 21
873.8479454111679
 31
0.0
1001
AcDbBlockRepETag
1070
     1
1071
      432
1005
B7B
  0
LINE
  5
B7C
330
415
100
AcDbEntity
  8
0
  6
Continuous
 62
     7
370
    15
100
AcDbLine
 10
2422.913372626938
 20
873.8069524954948
 30
0.0
 11
2421.145605673971
 21
872.7864423557125
 31
0.0
1001
AcDbBlockRepETag
1070
     1
1071
      433
1005
B7C
  0
LINE
  5
B7D
330
415
100
AcDbEntity
  8
0
  6
Continuous
 62
     7
370
    15
100
AcDbLine
 10
2421.145605673972
 20
873.8479454111679
 30
0.0
 11
2422.913372626938
 21
874.8684555509461
 31
0.0
1001
AcDbBlockRepETag
1070
     1
1071
      434
1005
B7D
  0
LINE
  5
B7E
330
415
100
AcDbEntity
  8
0
  6
Continuous
 62
     7
370
    15
100
AcDbLine
 10
2423.196215339411
 20
871.3589366014479
 30
0.0
 11
2423.196215339412
 21
876.7481059598955
 31
0.0
1001
AcDbBlockRepETag
1070
     1
1071
      435
1005
B7E
  0
LINE
  5
B7F
330
415
100
AcDbEntity
  8
0
  6
Continuous
 62
     7
370
    15
100
AcDbLine
 10
2423.054793983175
 20
871.1139876278886
 30
0.0
 11
2423.196215339411
 21
871.3589366014479
 31
0.0
1001
AcDbBlockRepETag
1070
     1
1071
      436
1005
B7F
  0
LINE
  5
B80
330
415
100
AcDbEntity
  8
0
  6
Continuous
 62
     7
370
    15
100
AcDbLine
 10
2423.054793983175
 20
869.9691974096252
 30
0.0
 11
2423.054793983175
 21
871.1139876278886
 31
0.0
1001
AcDbBlockRepETag
1070
     1
1071
      437
1005
B80
  0
LINE
  5
B81
330
415
100
AcDbEntity
  8
0
  6
Continuous
 62
     7
370
    15
100
AcDbLine
 10
2421.004184317827
 20
868.7854056475357
 30
0.0
 11
2423.054793983175
 21
869.9691974096252
 31
0.0
1001
AcDbBlockRepETag
1070
     1
1071
      438
1005
B81
  0
LINE
  5
B82
330
415
100
AcDbEntity
  8
0
  6
Continuous
 62
     7
370
    15
100
AcDbLine
 10
2421.004184317827
 20
868.7854056475357
 30
0.0
 11
2421.004184317826
 21
869.9301958657937
 31
0.0
1001
AcDbBlockRepETag
1070
     1
1071
      439
1005
B82
  0
LINE
  5
B83
330
415
100
AcDbEntity
  8
0
  6
Continuous
 62
     7
370
    15
100
AcDbLine
 10
2421.004184317826
 20
869.9301958657937
 30
0.0
 11
2420.86276296158
 21
870.0118632169932
 31
0.0
1001
AcDbBlockRepETag
1070
     1
1071
      440
1005
B83
  0
LINE
  5
B84
330
415
100
AcDbEntity
  8
0
  6
Continuous
 62
     7
370
    15
100
AcDbLine
 10
2420.86276296158
 20
875.4010325754292
 30
0.0
 11
2420.86276296158
 21
870.0118632169932
 31
0.0
1001
AcDbBlockRepETag
1070
     1
1071
      441
1005
B84
  0
LINE
  5
B86
330
415
100
AcDbEntity
  8
0
  6
Continuous
 62
     7
370
    15
100
AcDbLine
 10
2419.165706686733
 20
870.9915529511803
 30
0.0
 11
2420.86276296158
 21
870.0118632169932
 31
0.0
1001
AcDbBlockRepETag
1070
     1
1071
      442
1005
B86
  0
LINE
  5
B87
330
415
100
AcDbEntity
  8
0
  6
Continuous
 62
     7
370
    15
100
AcDbLine
 10
2419.165706686733
 20
874.4213428412329
 30
0.0
 11
2419.165706686733
 21
870.9915529511803
 31
0.0
1001
AcDbBlockRepETag
1070
     1
1071
      443
1005
B87
  0
LINE
  5
B88
330
415
100
AcDbEntity
  8
0
  6
Continuous
 62
     7
370
    15
100
AcDbLine
 10
2421.145605673971
 20
872.7864423557125
 30
0.0
 11
2421.322382369269
 21
873.7458943971899
 31
0.0
1001
AcDbBlockRepETag
1070
     1
1071
      444
1005
B88
  0
LINE
  5
B89
330
415
100
AcDbEntity
  8
0
  6
Continuous
 62
     7
370
    15
100
AcDbLine
 10
2421.322382369269
 20
873.7458943971899
 30
0.0
 11
2421.145605673972
 21
873.8479454111679
 31
0.0
1001
AcDbBlockRepETag
1070
     1
1071
      445
1005
B89
  0
LINE
  5
B8A
330
415
100
AcDbEntity
  8
0
  6
Continuous
 62
     7
370
    15
100
AcDbLine
 10
2423.090149322235
 20
874.7664045369683
 30
0.0
 11
2422.913372626938
 21
874.8684555509461
 31
0.0
1001
AcDbBlockRepETag
1070
     1
1071
      446
1005
B8A
  0
LINE
  5
B8B
330
415
100
AcDbEntity
  8
0
  6
Continuous
 62
     7
370
    15
100
AcDbLine
 10
2421.322382369269
 20
873.7458943971899
 30
0.0
 11
2423.090149322235
 21
874.7664045369683
 31
0.0
1001
AcDbBlockRepETag
1070
     1
1071
      447
1005
B8B
  0
LINE
  5
B8C
330
415
100
AcDbEntity
  8
0
  6
Continuous
 62
     7
370
    15
100
AcDbLine
 10
2423.090149322235
 20
874.7664045369683
 30
0.0
 11
2422.913372626938
 21
873.8069524954948
 31
0.0
1001
AcDbBlockRepETag
1070
     1
1071
      448
1005
B8C
  0
LINE
  5
B8D
330
415
100
AcDbEntity
  8
0
  6
Continuous
 62
     7
370
    15
100
AcDbLine
 10
2419.307128042979
 20
870.9098855999807
 30
0.0
 11
2421.004184317826
 21
869.9301958657937
 31
0.0
1001
AcDbBlockRepETag
1070
     1
1071
      449
1005
B8D
  0
LINE
  5
B8E
330
415
100
AcDbEntity
  8
0
  6
Continuous
 62
     7
370
    15
100
AcDbLine
 10
2419.307128042979
 20
870.9098855999807
 30
0.0
 11
2419.165706686733
 21
870.9915529511803
 31
0.0
1001
AcDbBlockRepETag
1070
     1
1071
      450
1005
B8E
  0
LINE
  5
B8F
330
415
100
AcDbEntity
  8
0
  6
Continuous
 62
     7
370
    15
100
AcDbLine
 10
2419.307128042979
 20
869.7650953817229
 30
0.0
 11
2421.004184317827
 21
868.7854056475357
 31
0.0
1001
AcDbBlockRepETag
1070
     1
1071
      451
1005
B8F
  0
LINE
  5
B90
330
415
100
AcDbEntity
  8
0
  6
Continuous
 62
     7
370
    15
100
AcDbLine
 10
2419.307128042979
 20
870.9098855999807
 30
0.0
 11
2419.307128042979
 21
869.7650953817229
 31
0.0
1001
AcDbBlockRepETag
1070
     1
1071
      452
1005
B90
  0
LINE
  5
B91
330
415
100
AcDbEntity
  8
0
  6
Continuous
 62
     7
370
    15
100
AcDbLine
 10
2419.307128042979
 20
869.7650953817229
 30
0.0
 11
2419.589970755453
 21
869.6017872193458
 31
0.0
1001
AcDbBlockRepETag
1070
     1
1071
      453
1005
B91
  0
LINE
  5
B92
330
415
100
AcDbEntity
  8
0
  6
Continuous
 62
     7
370
    15
100
AcDbLine
 10
2421.004184317827
 20
868.7854056475357
 30
0.0
 11
2421.004184317826
 21
868.785379107523
 31
0.0
1001
AcDbBlockRepETag
1070
     1
1071
      454
1005
B92
  0
LINE
  5
B93
330
415
100
AcDbEntity
  8
0
  6
Continuous
 62
     7
370
    15
100
AcDbLine
 10
2421.004184317826
 20
868.785379107523
 30
0.0
 11
2419.589970755453
 21
869.6017872193458
 31
0.0
1001
AcDbBlockRepETag
1070
     1
1071
      455
1005
B93
  0
LINE
  5
B94
330
415
100
AcDbEntity
  8
0
  6
Continuous
 62
     7
370
    15
100
AcDbLine
 10
2423.054793983175
 20
869.9691974096252
 30
0.0
 11
2422.7719512707
 21
869.8058892472483
 31
0.0
1001
AcDbBlockRepETag
1070
     1
1071
      456
1005
B94
  0
LINE
  5
B95
330
415
100
AcDbEntity
  8
0
  6
Continuous
 62
     7
370
    15
100
AcDbLine
 10
2422.7719512707
 20
869.8058892472483
 30
0.0
 11
2421.004184317826
 21
868.785379107523
 31
0.0
1001
AcDbBlockRepETag
1070
     1
1071
      457
1005
B95
  0
ARC
  5
B96
330
415
100
AcDbEntity
  8
0
  6
Continuous
 62
     7
370
    15
100
AcDbCircle
 10
2421.098074562956
 20
868.4012878413838
 30
0.0
 40
0.3842012018917073
100
AcDbArc
 50
182.6054784855653
 51
237.3945216600928
1001
AcDbBlockRepETag
1070
     1
1071
      458
1005
B96
  0
LINE
  5
B97
330
415
100
AcDbEntity
  8
0
  6
Continuous
 62
     7
370
    15
100
AcDbLine
 10
2421.03447238144
 20
867.994838835521
 30
0.0
 11
2420.891047232912
 21
868.0776364113702
 31
0.0
1001
AcDbBlockRepETag
1070
     1
1071
      459
1005
B97
  0
ARC
  5
B98
330
415
100
AcDbEntity
  8
0
  6
Continuous
 62
     7
370
    15
100
AcDbCircle
 10
2420.827445051395
 20
867.6711874055067
 30
0.0
 40
0.3842012018927381
100
AcDbArc
 50
2.605478485597822
 51
57.39452166000234
1001
AcDbBlockRepETag
1070
     1
1071
      460
1005
B98
  0
LINE
  5
B99
330
415
100
AcDbEntity
  8
0
  6
Continuous
 62
     7
370
    15
100
AcDbLine
 10
2421.211249076737
 20
867.6886526185713
 30
0.0
 11
2421.211249076737
 21
862.4670167276772
 31
0.0
1001
AcDbBlockRepETag
1070
     1
1071
      461
1005
B99
  0
LINE
  5
B9A
330
415
100
AcDbEntity
  8
0
  6
Continuous
 62
     7
370
    15
100
AcDbLine
 10
2421.211249076737
 20
862.4670167276772
 30
0.0
 11
2419.517256285119
 21
863.4449379506396
 31
0.0
1001
AcDbBlockRepETag
1070
     1
1071
      462
1005
B9A
  0
LINE
  5
B9B
330
415
100
AcDbEntity
  8
0
  6
Continuous
 62
     7
370
    15
100
AcDbLine
 10
2419.517256285119
 20
863.4449379506396
 30
0.0
 11
2419.517256285119
 21
868.6665738415339
 31
0.0
1001
AcDbBlockRepETag
1070
     1
1071
      463
1005
B9B
  0
ARC
  5
B9C
330
415
100
AcDbEntity
  8
0
  6
Continuous
 62
     7
370
    15
100
AcDbCircle
 10
2419.625024876976
 20
868.6840556407588
 30
0.0
 40
0.1091772993572724
100
AcDbArc
 50
50.79671476440665
 51
189.2140369903814
1001
AcDbBlockRepETag
1070
     1
1071
      464
1005
B9C
  0
LINE
  5
B9D
330
415
100
AcDbEntity
  8
0
  6
Continuous
 62
     7
370
    15
100
AcDbLine
 10
2419.694032980416
 20
868.7686580305275
 30
0.0
 11
2419.837458128934
 21
868.6858604546744
 31
0.0
1001
AcDbBlockRepETag
1070
     1
1071
      465
1005
B9D
  0
ARC
  5
B9E
330
415
100
AcDbEntity
  8
0
  6
Continuous
 62
     7
370
    15
100
AcDbCircle
 10
2419.906466232373
 20
868.7704628444445
 30
0.0
 40
0.1091772993578319
100
AcDbArc
 50
230.7967147652449
 51
9.214036989391978
1001
AcDbBlockRepETag
1070
     1
1071
      466
1005
B9E
  0
LINE
  5
B9F
330
415
100
AcDbEntity
  8
0
  6
Continuous
 62
     7
370
    15
100
AcDbLine
 10
2420.014234824231
 20
868.7879446436678
 30
0.0
 11
2420.014234824238
 21
869.3568647857569
 31
0.0
1001
AcDbBlockRepETag
1070
     1
1071
      467
1005
B9F
  0
LINE
  5
BA0
330
415
100
AcDbEntity
  8
0
  6
Continuous
 62
     7
370
    15
100
AcDbLine
 10
2420.714270537615
 20
868.3838226283194
 30
0.0
 11
2420.714270537615
 21
868.9527427704032
 31
0.0
1001
AcDbBlockRepETag
1070
     1
1071
      468
1005
BA0
  0
LINE
  5
BA1
330
415
100
AcDbEntity
  8
0
  6
Continuous
 62
     7
370
    15
100
AcDbLine
 10
2422.340616134079
 20
869.5568847730861
 30
0.0
 11
2422.340616134083
 21
869.3226919567646
 31
0.0
1001
AcDbBlockRepETag
1070
     1
1071
      469
1005
BA1
  0
LINE
  5
BA2
330
415
100
AcDbEntity
  8
0
  6
Continuous
 62
     7
370
    15
100
AcDbLine
 10
2422.340616134083
 20
869.3226919567646
 30
0.0
 11
2420.714270537615
 21
868.3838226283194
 31
0.0
1001
AcDbBlockRepETag
1070
     1
1071
      470
1005
BA2
  0
LINE
  5
BA3
330
415
100
AcDbEntity
  8
0
  6
Continuous
 62
     7
370
    15
100
AcDbLine
 10
2422.837594673225
 20
868.6275219470283
 30
0.0
 11
2421.211249076737
 21
867.6886526185713
 31
0.0
1001
AcDbBlockRepETag
1070
     1
1071
      471
1005
BA3
  0
LINE
  5
BA4
330
415
100
AcDbEntity
  8
0
  6
Continuous
 62
     7
370
    15
100
AcDbLine
 10
2422.660817977929
 20
868.9337081639783
 30
0.0
 11
2421.03447238144
 21
867.994838835521
 31
0.0
1001
AcDbBlockRepETag
1070
     1
1071
      472
1005
BA4
  0
ARC
  5
BA5
330
415
100
AcDbEntity
  8
0
  6
Continuous
 62
     7
370
    15
100
AcDbCircle
 10
2422.453790647879
 20
868.6100567339614
 30
0.0
 40
0.3842012018978607
100
AcDbArc
 50
2.605478485871072
 51
57.39452165947827
1001
AcDbBlockRepETag
1070
     1
1071
      473
1005
BA5
  0
LINE
  5
BA6
330
415
100
AcDbEntity
  8
0
  6
Continuous
 62
     7
370
    15
100
AcDbLine
 10
2422.517392829395
 20
869.0165057398239
 30
0.0
 11
2420.891047232912
 21
868.0776364113702
 31
0.0
1001
AcDbBlockRepETag
1070
     1
1071
      474
1005
BA6
  0
ARC
  5
BA7
330
415
100
AcDbEntity
  8
0
  6
Continuous
 62
     7
370
    15
100
AcDbCircle
 10
2422.724420159484
 20
869.3401571698831
 30
0.0
 40
0.3842012019544738
100
AcDbArc
 50
182.6054784932199
 51
237.394521658022
1001
AcDbBlockRepETag
1070
     1
1071
      475
1005
BA7
  0
LINE
  5
BA8
330
415
100
AcDbEntity
  8
0
  6
Continuous
 62
     7
370
    15
100
AcDbLine
 10
2422.639263454311
 20
861.9925233218985
 30
0.0
 11
2422.837594673222
 21
863.4058860561347
 31
0.0
1001
AcDbBlockRepETag
1070
     1
1071
      476
1005
BA8
  0
ARC
  5
BA9
330
415
100
AcDbEntity
  8
0
  6
Continuous
 62
     7
370
    15
100
AcDbCircle
 10
2422.06722707814
 20
862.079959050502
 30
0.0
 40
0.5786800690351719
100
AcDbArc
 50
302.9067666138763
 51
351.3096048992634
1001
AcDbBlockRepETag
1070
     1
1071
      477
1005
BA9
  0
LINE
  5
BAA
330
415
100
AcDbEntity
  8
0
  6
Continuous
 62
     7
370
    15
100
AcDbLine
 10
2421.667235064574
 20
861.1817257811763
 30
0.0
 11
2422.381608685392
 21
861.5941248943125
 31
0.0
1001
AcDbBlockRepETag
1070
     1
1071
      478
1005
BAA
  0
LWPOLYLINE
  5
BAB
330
415
100
AcDbEntity
  8
0
  6
Continuous
 62
     7
370
    15
100
AcDbPolyline
 90
        9
 70
   128
 43
0.0
 10
2421.409580295656
 20
861.2826423446465
 10
2421.42138374555
 20
861.2385877760619
 10
2421.440657263367
 20
861.2019852509066
 10
2421.466815233019
 20
861.1739469183859
 10
2421.499062857835
 20
861.1553247090451
 10
2421.536420310055
 20
861.1466844492921
 10
2421.577752502394
 20
861.1482886690467
 10
2421.621803577106
 20
861.1600886249041
 10
2421.667235064574
 20
861.1817257811763
1001
AcDbBlockRepETag
1070
     1
1071
      479
1005
BAB
  0
LINE
  5
BAC
330
415
100
AcDbEntity
  8
0
  6
Continuous
 62
     7
370
    15
100
AcDbLine
 10
2421.211249076737
 20
862.4670167276772
 30
0.0
 11
2421.409580295656
 21
861.2826423446465
 31
0.0
1001
AcDbBlockRepETag
1070
     1
1071
      480
1005
BAC
  0
LINE
  5
BAD
330
415
100
AcDbEntity
  8
0
  6
Continuous
 62
     7
370
    15
100
AcDbLine
 10
2422.837594673222
 20
863.4058860561347
 30
0.0
 11
2422.837594673225
 21
868.6275219470283
 31
0.0
1001
AcDbBlockRepETag
1070
     1
1071
      481
1005
BAD
  0
LINE
  5
BAE
330
415
100
AcDbEntity
  8
0
  6
Continuous
 62
     7
370
    15
100
AcDbLine
 10
2422.517392829395
 20
869.0165057398239
 30
0.0
 11
2422.660817977929
 21
868.9337081639783
 31
0.0
1001
AcDbBlockRepETag
1070
     1
1071
      482
1005
BAE
  0
LINE
  5
BAF
330
415
100
AcDbEntity
  8
0
  6
Continuous
 62
     7
370
    15
100
AcDbLine
 10
2421.409580295656
 20
861.2826423446465
 30
0.0
 11
2419.715587504038
 21
862.2605635676089
 31
0.0
1001
AcDbBlockRepETag
1070
     1
1071
      483
1005
BAF
  0
LINE
  5
BB0
330
415
100
AcDbEntity
  8
0
  6
Continuous
 62
     7
370
    15
100
AcDbLine
 10
2419.715587504038
 20
862.2605635676089
 30
0.0
 11
2419.517256285119
 21
863.4449379506396
 31
0.0
1001
AcDbBlockRepETag
1070
     1
1071
      484
1005
BB0
  0
ARC
  5
BB1
330
415
100
AcDbEntity
  8
0
  6
Continuous
 62
     7
370
    15
100
AcDbCircle
 10
2419.874688166398
 20
862.2757682694993
 30
0.0
 40
0.1598255415222954
100
AcDbArc
 50
185.4589815370582
 51
237.2630757802571
1001
AcDbBlockRepETag
1070
     1
1071
      485
1005
BB1
  0
LINE
  5
BB2
330
415
100
AcDbEntity
  8
0
  6
Continuous
 62
     8
370
    15
100
AcDbLine
 10
2419.837458128934
 20
868.6858604546744
 30
0.0
 11
2420.014234821888
 21
868.7879114672995
 31
0.0
1001
AcDbBlockRepETag
1070
     1
1071
      486
1005
BB2
  0
LINE
  5
BB3
330
415
100
AcDbEntity
  8
0
  6
Continuous
 62
     8
370
    15
100
AcDbLine
 10
2419.694032980416
 20
868.7686580305275
 30
0.0
 11
2420.014234824233
 21
868.9535066203504
 31
0.0
1001
AcDbBlockRepETag
1070
     1
1071
      487
1005
BB3
  0
LINE
  5
BB4
330
415
100
AcDbEntity
  8
0
  6
Continuous
 62
     7
370
    15
100
AcDbLine
 10
2419.165752660364
 20
874.4213428412333
 30
0.0
 11
2419.165752660364
 21
870.9915529511805
 31
0.0
1001
AcDbBlockRepETag
1070
     1
1071
      488
1005
BB4
  0
LINE
  5
BB5
330
415
100
AcDbEntity
  8
0
  6
Continuous
 62
     7
370
    15
100
AcDbLine
 10
2419.165752660365
 20
874.4213428412329
 30
0.0
 11
2419.165752660365
 21
870.9915529511802
 31
0.0
1001
AcDbBlockRepETag
1070
     1
1071
      489
1005
BB5
  0
LINE
  5
BB6
330
415
100
AcDbEntity
  8
0
  6
Continuous
 62
     7
370
    15
100
AcDbLine
 10
2415.983772145132
 20
866.7112756139667
 30
0.0
 11
2415.538580459735
 21
866.4542719244639
 31
0.0
1001
AcDbBlockRepETag
1070
     1
1071
      490
1005
BB6
  0
LINE
  5
BB7
330
415
100
AcDbEntity
  8
0
  6
Continuous
 62
     7
370
    15
100
AcDbLine
 10
2415.757794628317
 20
859.8145659067684
 30
0.0
 11
2417.451787419935
 21
858.836644683806
 31
0.0
1001
AcDbBlockRepETag
1070
     1
1071
      491
1005
BB7
  0
LINE
  5
BC0
330
415
100
AcDbEntity
  8
0
  6
Continuous
 62
     7
370
    15
100
AcDbLine
 10
2417.115142994869
 20
870.4596792370255
 30
0.0
 11
2417.11514299487
 21
871.5211822924809
 31
0.0
1001
AcDbBlockRepETag
1070
     1
1071
      492
1005
BC0
  0
LINE
  5
BC1
330
415
100
AcDbEntity
  8
0
  6
Continuous
 62
     7
370
    15
100
AcDbLine
 10
2418.882909947836
 20
871.4801893768077
 30
0.0
 11
2417.115142994869
 21
870.4596792370255
 31
0.0
1001
AcDbBlockRepETag
1070
     1
1071
      493
1005
BC1
  0
LINE
  5
BC2
330
415
100
AcDbEntity
  8
0
  6
Continuous
 62
     7
370
    15
100
AcDbLine
 10
2417.11514299487
 20
871.5211822924809
 30
0.0
 11
2418.882909947836
 21
872.541692432259
 31
0.0
1001
AcDbBlockRepETag
1070
     1
1071
      494
1005
BC2
  0
LINE
  5
BC3
330
415
100
AcDbEntity
  8
0
  6
Continuous
 62
     7
370
    15
100
AcDbLine
 10
2419.16575266031
 20
869.0321734827609
 30
0.0
 11
2419.16575266031
 21
874.4213428412084
 31
0.0
1001
AcDbBlockRepETag
1070
     1
1071
      495
1005
BC3
  0
LINE
  5
BC4
330
415
100
AcDbEntity
  8
0
  6
Continuous
 62
     7
370
    15
100
AcDbLine
 10
2419.024331304073
 20
868.7872245092016
 30
0.0
 11
2419.16575266031
 21
869.0321734827609
 31
0.0
1001
AcDbBlockRepETag
1070
     1
1071
      496
1005
BC4
  0
LINE
  5
BC5
330
415
100
AcDbEntity
  8
0
  6
Continuous
 62
     7
370
    15
100
AcDbLine
 10
2419.024331304073
 20
867.6424342909381
 30
0.0
 11
2419.024331304073
 21
868.7872245092016
 31
0.0
1001
AcDbBlockRepETag
1070
     1
1071
      497
1005
BC5
  0
LINE
  5
BC6
330
415
100
AcDbEntity
  8
0
  6
Continuous
 62
     7
370
    15
100
AcDbLine
 10
2416.973721638725
 20
866.4586425288486
 30
0.0
 11
2419.024331304073
 21
867.6424342909381
 31
0.0
1001
AcDbBlockRepETag
1070
     1
1071
      498
1005
BC6
  0
LINE
  5
BC7
330
415
100
AcDbEntity
  8
0
  6
Continuous
 62
     7
370
    15
100
AcDbLine
 10
2416.973721638725
 20
866.4586425288486
 30
0.0
 11
2416.973721638724
 21
867.6034327471066
 31
0.0
1001
AcDbBlockRepETag
1070
     1
1071
      499
1005
BC7
  0
LINE
  5
BC8
330
415
100
AcDbEntity
  8
0
  6
Continuous
 62
     7
370
    15
100
AcDbLine
 10
2416.973721638724
 20
867.6034327471066
 30
0.0
 11
2416.832300282478
 21
867.6851000983061
 31
0.0
1001
AcDbBlockRepETag
1070
     1
1071
      500
1005
BC8
  0
LINE
  5
BC9
330
415
100
AcDbEntity
  8
0
  6
Continuous
 62
     7
370
    15
100
AcDbLine
 10
2416.832300282478
 20
873.0742694567421
 30
0.0
 11
2416.832300282478
 21
867.6851000983061
 31
0.0
1001
AcDbBlockRepETag
1070
     1
1071
      501
1005
BC9
  0
LINE
  5
BCA
330
415
100
AcDbEntity
  8
0
  6
Continuous
 62
     7
370
    15
100
AcDbLine
 10
2416.832300282478
 20
873.0742694567421
 30
0.0
 11
2415.135244007631
 21
872.0945797225459
 31
0.0
1001
AcDbBlockRepETag
1070
     1
1071
      201
1005
A6E
  0
LINE
  5
BCB
330
415
100
AcDbEntity
  8
0
  6
Continuous
 62
     7
370
    15
100
AcDbLine
 10
2415.135244007631
 20
868.6647898324933
 30
0.0
 11
2416.832300282478
 21
867.6851000983061
 31
0.0
1001
AcDbBlockRepETag
1070
     1
1071
      502
1005
BCB
  0
LINE
  5
BCC
330
415
100
AcDbEntity
  8
0
  6
Continuous
 62
     7
370
    15
100
AcDbLine
 10
2415.135244007631
 20
872.0945797225459
 30
0.0
 11
2415.135244007631
 21
868.6647898324933
 31
0.0
1001
AcDbBlockRepETag
1070
     1
1071
      503
1005
BCC
  0
LINE
  5
BCD
330
415
100
AcDbEntity
  8
0
  6
Continuous
 62
     7
370
    15
100
AcDbLine
 10
2417.115142994869
 20
870.4596792370255
 30
0.0
 11
2417.291919690167
 21
871.4191312785029
 31
0.0
1001
AcDbBlockRepETag
1070
     1
1071
      504
1005
BCD
  0
LINE
  5
BCE
330
415
100
AcDbEntity
  8
0
  6
Continuous
 62
     7
370
    15
100
AcDbLine
 10
2417.291919690167
 20
871.4191312785029
 30
0.0
 11
2417.11514299487
 21
871.5211822924809
 31
0.0
1001
AcDbBlockRepETag
1070
     1
1071
      505
1005
BCE
  0
LINE
  5
BCF
330
415
100
AcDbEntity
  8
0
  6
Continuous
 62
     7
370
    15
100
AcDbLine
 10
2419.059686643133
 20
872.4396414182812
 30
0.0
 11
2418.882909947836
 21
872.541692432259
 31
0.0
1001
AcDbBlockRepETag
1070
     1
1071
      506
1005
BCF
  0
LINE
  5
BD0
330
415
100
AcDbEntity
  8
0
  6
Continuous
 62
     7
370
    15
100
AcDbLine
 10
2417.291919690167
 20
871.4191312785029
 30
0.0
 11
2419.059686643133
 21
872.4396414182812
 31
0.0
1001
AcDbBlockRepETag
1070
     1
1071
      507
1005
BD0
  0
LINE
  5
BD1
330
415
100
AcDbEntity
  8
0
  6
Continuous
 62
     7
370
    15
100
AcDbLine
 10
2419.059686643133
 20
872.4396414182812
 30
0.0
 11
2418.882909947836
 21
871.4801893768077
 31
0.0
1001
AcDbBlockRepETag
1070
     1
1071
      508
1005
BD1
  0
LINE
  5
BD2
330
415
100
AcDbEntity
  8
0
  6
Continuous
 62
     7
370
    15
100
AcDbLine
 10
2415.276665363877
 20
868.5831224812936
 30
0.0
 11
2416.973721638724
 21
867.6034327471066
 31
0.0
1001
AcDbBlockRepETag
1070
     1
1071
      509
1005
BD2
  0
LINE
  5
BD3
330
415
100
AcDbEntity
  8
0
  6
Continuous
 62
     7
370
    15
100
AcDbLine
 10
2415.276665363877
 20
868.5831224812936
 30
0.0
 11
2415.135244007631
 21
868.6647898324933
 31
0.0
1001
AcDbBlockRepETag
1070
     1
1071
      510
1005
BD3
  0
LINE
  5
BD4
330
415
100
AcDbEntity
  8
0
  6
Continuous
 62
     7
370
    15
100
AcDbLine
 10
2415.276665363877
 20
867.438332263036
 30
0.0
 11
2416.973721638725
 21
866.4586425288486
 31
0.0
1001
AcDbBlockRepETag
1070
     1
1071
      511
1005
BD4
  0
LINE
  5
BD5
330
415
100
AcDbEntity
  8
0
  6
Continuous
 62
     7
370
    15
100
AcDbLine
 10
2415.276665363877
 20
868.5831224812936
 30
0.0
 11
2415.276665363877
 21
867.438332263036
 31
0.0
1001
AcDbBlockRepETag
1070
     1
1071
      512
1005
BD5
  0
LINE
  5
BD6
330
415
100
AcDbEntity
  8
0
  6
Continuous
 62
     7
370
    15
100
AcDbLine
 10
2415.276665363877
 20
867.438332263036
 30
0.0
 11
2415.559508076352
 21
867.2750241006587
 31
0.0
1001
AcDbBlockRepETag
1070
     1
1071
      513
1005
BD6
  0
LINE
  5
BD7
330
415
100
AcDbEntity
  8
0
  6
Continuous
 62
     7
370
    15
100
AcDbLine
 10
2416.973721638725
 20
866.4586425288486
 30
0.0
 11
2416.973721638724
 21
866.458615988836
 31
0.0
1001
AcDbBlockRepETag
1070
     1
1071
      514
1005
BD7
  0
LINE
  5
BD8
330
415
100
AcDbEntity
  8
0
  6
Continuous
 62
     7
370
    15
100
AcDbLine
 10
2416.973721638724
 20
866.458615988836
 30
0.0
 11
2415.559508076352
 21
867.2750241006587
 31
0.0
1001
AcDbBlockRepETag
1070
     1
1071
      515
1005
BD8
  0
LINE
  5
BD9
330
415
100
AcDbEntity
  8
0
  6
Continuous
 62
     7
370
    15
100
AcDbLine
 10
2419.024331304073
 20
867.6424342909381
 30
0.0
 11
2418.741488591599
 21
867.4791261285612
 31
0.0
1001
AcDbBlockRepETag
1070
     1
1071
      516
1005
BD9
  0
LINE
  5
BDA
330
415
100
AcDbEntity
  8
0
  6
Continuous
 62
     7
370
    15
100
AcDbLine
 10
2418.741488591599
 20
867.4791261285612
 30
0.0
 11
2416.973721638724
 21
866.458615988836
 31
0.0
1001
AcDbBlockRepETag
1070
     1
1071
      517
1005
BDA
  0
ARC
  5
BDB
330
415
100
AcDbEntity
  8
0
  6
Continuous
 62
     7
370
    15
100
AcDbCircle
 10
2417.067611883854
 20
866.0745247226968
 30
0.0
 40
0.3842012018917073
100
AcDbArc
 50
182.6054784855653
 51
237.3945216600928
1001
AcDbBlockRepETag
1070
     1
1071
      518
1005
BDB
  0
LINE
  5
BDC
330
415
100
AcDbEntity
  8
0
  6
Continuous
 62
     7
370
    15
100
AcDbLine
 10
2417.004009702339
 20
865.668075716834
 30
0.0
 11
2416.86058455381
 21
865.7508732926832
 31
0.0
1001
AcDbBlockRepETag
1070
     1
1071
      519
1005
BDC
  0
ARC
  5
BDD
330
415
100
AcDbEntity
  8
0
  6
Continuous
 62
     7
370
    15
100
AcDbCircle
 10
2416.796982372293
 20
865.3444242868197
 30
0.0
 40
0.3842012018927381
100
AcDbArc
 50
2.605478485597822
 51
57.39452166000226
1001
AcDbBlockRepETag
1070
     1
1071
      520
1005
BDD
  0
LINE
  5
BDE
330
415
100
AcDbEntity
  8
0
  6
Continuous
 62
     7
370
    15
100
AcDbLine
 10
2417.180786397635
 20
865.3618894998842
 30
0.0
 11
2417.180786397635
 21
860.1402536089901
 31
0.0
1001
AcDbBlockRepETag
1070
     1
1071
      521
1005
BDE
  0
LINE
  5
BDF
330
415
100
AcDbEntity
  8
0
  6
Continuous
 62
     7
370
    15
100
AcDbLine
 10
2417.180786397635
 20
860.1402536089901
 30
0.0
 11
2415.486793606018
 21
861.1181748319525
 31
0.0
1001
AcDbBlockRepETag
1070
     1
1071
      522
1005
BDF
  0
LINE
  5
BE0
330
415
100
AcDbEntity
  8
0
  6
Continuous
 62
     7
370
    15
100
AcDbLine
 10
2415.486793606018
 20
861.1181748319525
 30
0.0
 11
2415.486793606018
 21
866.3398107228468
 31
0.0
1001
AcDbBlockRepETag
1070
     1
1071
      523
1005
BE0
  0
ARC
  5
BE1
330
415
100
AcDbEntity
  8
0
  6
Continuous
 62
     7
370
    15
100
AcDbCircle
 10
2415.594562197874
 20
866.3572925220718
 30
0.0
 40
0.1091772993572724
100
AcDbArc
 50
50.79671476440665
 51
189.2140369903814
1001
AcDbBlockRepETag
1070
     1
1071
      524
1005
BE1
  0
LINE
  5
BE2
330
415
100
AcDbEntity
  8
0
  6
Continuous
 62
     7
370
    15
100
AcDbLine
 10
2415.663570301314
 20
866.4418949118404
 30
0.0
 11
2415.806995449833
 21
866.3590973359873
 31
0.0
1001
AcDbBlockRepETag
1070
     1
1071
      525
1005
BE2
  0
ARC
  5
BE3
330
415
100
AcDbEntity
  8
0
  6
Continuous
 62
     7
370
    15
100
AcDbCircle
 10
2415.876003553272
 20
866.4436997257574
 30
0.0
 40
0.1091772993578319
100
AcDbArc
 50
230.7967147652449
 51
9.214036989391996
1001
AcDbBlockRepETag
1070
     1
1071
      526
1005
BE3
  0
LINE
  5
BE4
330
415
100
AcDbEntity
  8
0
  6
Continuous
 62
     7
370
    15
100
AcDbLine
 10
2415.983772145129
 20
866.4611815249807
 30
0.0
 11
2415.983772145136
 21
867.0301016670698
 31
0.0
1001
AcDbBlockRepETag
1070
     1
1071
      527
1005
BE4
  0
LINE
  5
BE5
330
415
100
AcDbEntity
  8
0
  6
Continuous
 62
     7
370
    15
100
AcDbLine
 10
2416.683807858513
 20
866.0570595096324
 30
0.0
 11
2416.683807858513
 21
866.6259796517161
 31
0.0
1001
AcDbBlockRepETag
1070
     1
1071
      528
1005
BE5
  0
LINE
  5
BE6
330
415
100
AcDbEntity
  8
0
  6
Continuous
 62
     7
370
    15
100
AcDbLine
 10
2418.310153454978
 20
867.230121654399
 30
0.0
 11
2418.310153454981
 21
866.9959288380775
 31
0.0
1001
AcDbBlockRepETag
1070
     1
1071
      529
1005
BE6
  0
LINE
  5
BE7
330
415
100
AcDbEntity
  8
0
  6
Continuous
 62
     7
370
    15
100
AcDbLine
 10
2418.310153454981
 20
866.9959288380775
 30
0.0
 11
2416.683807858513
 21
866.0570595096324
 31
0.0
1001
AcDbBlockRepETag
1070
     1
1071
      530
1005
BE7
  0
LINE
  5
BE8
330
415
100
AcDbEntity
  8
0
  6
Continuous
 62
     7
370
    15
100
AcDbLine
 10
2418.807131994123
 20
866.3007588283413
 30
0.0
 11
2417.180786397635
 21
865.3618894998842
 31
0.0
1001
AcDbBlockRepETag
1070
     1
1071
      531
1005
BE8
  0
LINE
  5
BE9
330
415
100
AcDbEntity
  8
0
  6
Continuous
 62
     7
370
    15
100
AcDbLine
 10
2418.630355298827
 20
866.6069450452912
 30
0.0
 11
2417.004009702339
 21
865.668075716834
 31
0.0
1001
AcDbBlockRepETag
1070
     1
1071
      532
1005
BE9
  0
ARC
  5
BEA
330
415
100
AcDbEntity
  8
0
  6
Continuous
 62
     7
370
    15
100
AcDbCircle
 10
2418.423327968776
 20
866.2832936152744
 30
0.0
 40
0.3842012018978607
100
AcDbArc
 50
2.605478485871072
 51
57.39452165947836
1001
AcDbBlockRepETag
1070
     1
1071
      533
1005
BEA
  0
LINE
  5
BEB
330
415
100
AcDbEntity
  8
0
  6
Continuous
 62
     7
370
    15
100
AcDbLine
 10
2418.486930150293
 20
866.6897426211368
 30
0.0
 11
2416.86058455381
 21
865.7508732926832
 31
0.0
1001
AcDbBlockRepETag
1070
     1
1071
      534
1005
BEB
  0
ARC
  5
BEC
330
415
100
AcDbEntity
  8
0
  6
Continuous
 62
     7
370
    15
100
AcDbCircle
 10
2418.693957480382
 20
867.0133940511961
 30
0.0
 40
0.3842012019544738
100
AcDbArc
 50
182.6054784932199
 51
237.394521658022
1001
AcDbBlockRepETag
1070
     1
1071
      535
1005
BEC
  0
LINE
  5
BED
330
415
100
AcDbEntity
  8
0
  6
Continuous
 62
     7
370
    15
100
AcDbLine
 10
2418.608800775209
 20
859.6657602032115
 30
0.0
 11
2418.80713199412
 21
861.0791229374477
 31
0.0
1001
AcDbBlockRepETag
1070
     1
1071
      536
1005
BED
  0
ARC
  5
BEE
330
415
100
AcDbEntity
  8
0
  6
Continuous
 62
     7
370
    15
100
AcDbCircle
 10
2418.036764399039
 20
859.753195931815
 30
0.0
 40
0.5786800690351719
100
AcDbArc
 50
302.9067666138763
 51
351.3096048992635
1001
AcDbBlockRepETag
1070
     1
1071
      537
1005
BEE
  0
LINE
  5
BEF
330
415
100
AcDbEntity
  8
0
  6
Continuous
 62
     7
370
    15
100
AcDbLine
 10
2417.636772385473
 20
858.8549626624892
 30
0.0
 11
2418.351146006291
 21
859.2673617756254
 31
0.0
1001
AcDbBlockRepETag
1070
     1
1071
      538
1005
BEF
  0
LWPOLYLINE
  5
BF0
330
415
100
AcDbEntity
  8
0
  6
Continuous
 62
     7
370
    15
100
AcDbPolyline
 90
        9
 70
   128
 43
0.0
 10
2417.379117616554
 20
858.9558792259595
 10
2417.390921066449
 20
858.9118246573749
 10
2417.410194584265
 20
858.8752221322195
 10
2417.436352553917
 20
858.8471837996989
 10
2417.468600178734
 20
858.8285615903581
 10
2417.505957630953
 20
858.8199213306051
 10
2417.547289823293
 20
858.8215255503596
 10
2417.591340898004
 20
858.833325506217
 10
2417.636772385473
 20
858.8549626624892
1001
AcDbBlockRepETag
1070
     1
1071
      539
1005
BF0
  0
LINE
  5
BF1
330
415
100
AcDbEntity
  8
0
  6
Continuous
 62
     7
370
    15
100
AcDbLine
 10
2417.180786397635
 20
860.1402536089901
 30
0.0
 11
2417.379117616554
 21
858.9558792259595
 31
0.0
1001
AcDbBlockRepETag
1070
     1
1071
      540
1005
BF1
  0
LINE
  5
BF2
330
415
100
AcDbEntity
  8
0
  6
Continuous
 62
     7
370
    15
100
AcDbLine
 10
2418.80713199412
 20
861.0791229374477
 30
0.0
 11
2418.807131994123
 21
866.3007588283413
 31
0.0
1001
AcDbBlockRepETag
1070
     1
1071
      541
1005
BF2
  0
LINE
  5
BF3
330
415
100
AcDbEntity
  8
0
  6
Continuous
 62
     7
370
    15
100
AcDbLine
 10
2418.486930150293
 20
866.6897426211368
 30
0.0
 11
2418.630355298827
 21
866.6069450452912
 31
0.0
1001
AcDbBlockRepETag
1070
     1
1071
      542
1005
BF3
  0
LINE
  5
BF4
330
415
100
AcDbEntity
  8
0
  6
Continuous
 62
     7
370
    15
100
AcDbLine
 10
2417.379117616554
 20
858.9558792259595
 30
0.0
 11
2415.685124824936
 21
859.9338004489219
 31
0.0
1001
AcDbBlockRepETag
1070
     1
1071
      543
1005
BF4
  0
LINE
  5
BF5
330
415
100
AcDbEntity
  8
0
  6
Continuous
 62
     7
370
    15
100
AcDbLine
 10
2415.685124824936
 20
859.9338004489219
 30
0.0
 11
2415.486793606018
 21
861.1181748319525
 31
0.0
1001
AcDbBlockRepETag
1070
     1
1071
      544
1005
BF5
  0
ARC
  5
BF6
330
415
100
AcDbEntity
  8
0
  6
Continuous
 62
     7
370
    15
100
AcDbCircle
 10
2415.844225487296
 20
859.9490051508123
 30
0.0
 40
0.1598255415222954
100
AcDbArc
 50
185.4589815370582
 51
237.2630757802571
1001
AcDbBlockRepETag
1070
     1
1071
      545
1005
BF6
  0
LINE
  5
BF7
330
415
100
AcDbEntity
  8
0
  6
Continuous
 62
     8
370
    15
100
AcDbLine
 10
2415.806995449833
 20
866.3590973359873
 30
0.0
 11
2415.983772142786
 21
866.4611483486124
 31
0.0
1001
AcDbBlockRepETag
1070
     1
1071
      546
1005
BF7
  0
LINE
  5
BF8
330
415
100
AcDbEntity
  8
0
  6
Continuous
 62
     8
370
    15
100
AcDbLine
 10
2415.663570301314
 20
866.4418949118404
 30
0.0
 11
2415.983772145132
 21
866.6267435016633
 31
0.0
1001
AcDbBlockRepETag
1070
     1
1071
      547
1005
BF8
  0
LINE
  5
BF9
330
415
100
AcDbEntity
  8
0
  6
Continuous
 62
     7
370
    15
100
AcDbLine
 10
2415.135289981262
 20
872.0945797225462
 30
0.0
 11
2415.135289981262
 21
868.6647898324935
 31
0.0
1001
AcDbBlockRepETag
1070
     1
1071
      548
1005
BF9
  0
LINE
  5
BFA
330
415
100
AcDbEntity
  8
0
  6
Continuous
 62
     7
370
    15
100
AcDbLine
 10
2415.135289981263
 20
872.0945797225459
 30
0.0
 11
2415.135289981263
 21
868.6647898324931
 31
0.0
1001
AcDbBlockRepETag
1070
     1
1071
      549
1005
BFA
  0
LINE
  5
BFB
330
415
100
AcDbEntity
  8
0
  6
Continuous
 62
     7
370
    15
100
AcDbLine
 10
2411.953309466031
 20
864.3845124952797
 30
0.0
 11
2411.508117780633
 21
864.1275088057769
 31
0.0
1001
AcDbBlockRepETag
1070
     1
1071
      550
1005
BFB
  0
LINE
  5
BFC
330
415
100
AcDbEntity
  8
0
  6
Continuous
 62
     7
370
    15
100
AcDbLine
 10
2411.727331949216
 20
857.4878027880814
 30
0.0
 11
2413.421324740833
 21
856.509881565119
 31
0.0
1001
AcDbBlockRepETag
1070
     1
1071
      551
1005
BFC
  0
LINE
  5
BFD
330
415
100
AcDbEntity
  8
0
  6
Continuous
 62
     7
370
    15
100
AcDbLine
 10
2412.907903620585
 20
874.849080408723
 30
0.0
 11
2410.150187173957
 21
876.4410762267772
 31
0.0
1001
AcDbBlockRepETag
1070
     1
1071
      123
1005
715
  0
LINE
  5
BFE
330
415
100
AcDbEntity
  8
0
  6
Continuous
 62
     7
370
    15
100
AcDbLine
 10
2412.907903620585
 20
874.849080408723
 30
0.0
 11
2412.907903620585
 21
873.9100584750536
 31
0.0
1001
AcDbBlockRepETag
1070
     1
1071
      124
1005
716
  0
LINE
  5
BFF
330
415
100
AcDbEntity
  8
0
  6
Continuous
 62
     7
370
    15
100
AcDbLine
 10
2412.377573534694
 20
874.2162115169874
 30
0.0
 11
2412.907903620585
 21
873.9100584750536
 31
0.0
1001
AcDbBlockRepETag
1070
     1
1071
      125
1005
717
  0
LINE
  5
C00
330
415
100
AcDbEntity
  8
0
  6
Continuous
 62
     7
370
    15
100
AcDbLine
 10
2412.377573534694
 20
874.2162115169874
 30
0.0
 11
2412.377573534694
 21
870.502583904523
 31
0.0
1001
AcDbBlockRepETag
1070
     1
1071
      126
1005
718
  0
LINE
  5
C01
330
415
100
AcDbEntity
  8
0
  6
Continuous
 62
     7
370
    15
100
AcDbLine
 10
2410.680517259846
 20
871.4822736387104
 30
0.0
 11
2412.377573534694
 21
870.502583904523
 31
0.0
1001
AcDbBlockRepETag
1070
     1
1071
      127
1005
719
  0
LINE
  5
C02
330
415
100
AcDbEntity
  8
0
  6
Continuous
 62
     7
370
    15
100
AcDbLine
 10
2410.680517259846
 20
875.1959012511745
 30
0.0
 11
2410.680517259846
 21
871.4822736387104
 31
0.0
1001
AcDbBlockRepETag
1070
     1
1071
      128
1005
71A
  0
LINE
  5
C03
330
415
100
AcDbEntity
  8
0
  6
Continuous
 62
     7
370
    15
100
AcDbLine
 10
2410.150187173957
 20
875.5020542931079
 30
0.0
 11
2410.680517259846
 21
875.1959012511745
 31
0.0
1001
AcDbBlockRepETag
1070
     1
1071
      129
1005
71B
  0
LINE
  5
C04
330
415
100
AcDbEntity
  8
0
  6
Continuous
 62
     7
370
    15
100
AcDbLine
 10
2410.150187173957
 20
875.5020542931079
 30
0.0
 11
2410.150187173957
 21
876.4410762267772
 31
0.0
1001
AcDbBlockRepETag
1070
     1
1071
      130
1005
71C
  0
LINE
  5
C05
330
415
100
AcDbEntity
  8
0
  6
Continuous
 62
     7
370
    15
100
AcDbLine
 10
2413.084680315768
 20
868.1329161183384
 30
0.0
 11
2413.084680315769
 21
869.1944191737938
 31
0.0
1001
AcDbBlockRepETag
1070
     1
1071
      552
1005
C05
  0
LINE
  5
C06
330
415
100
AcDbEntity
  8
0
  6
Continuous
 62
     7
370
    15
100
AcDbLine
 10
2414.852447268735
 20
869.1534262581207
 30
0.0
 11
2413.084680315768
 21
868.1329161183384
 31
0.0
1001
AcDbBlockRepETag
1070
     1
1071
      553
1005
C06
  0
LINE
  5
C07
330
415
100
AcDbEntity
  8
0
  6
Continuous
 62
     7
370
    15
100
AcDbLine
 10
2413.084680315769
 20
869.1944191737938
 30
0.0
 11
2414.852447268735
 21
870.214929313572
 31
0.0
1001
AcDbBlockRepETag
1070
     1
1071
      554
1005
C07
  0
LINE
  5
C08
330
415
100
AcDbEntity
  8
0
  6
Continuous
 62
     7
370
    15
100
AcDbLine
 10
2415.135289981208
 20
866.7054103640738
 30
0.0
 11
2415.135289981209
 21
872.0945797225214
 31
0.0
1001
AcDbBlockRepETag
1070
     1
1071
      555
1005
C08
  0
LINE
  5
C09
330
415
100
AcDbEntity
  8
0
  6
Continuous
 62
     7
370
    15
100
AcDbLine
 10
2414.993868624971
 20
866.4604613905146
 30
0.0
 11
2415.135289981208
 21
866.7054103640738
 31
0.0
1001
AcDbBlockRepETag
1070
     1
1071
      556
1005
C09
  0
LINE
  5
C0A
330
415
100
AcDbEntity
  8
0
  6
Continuous
 62
     7
370
    15
100
AcDbLine
 10
2414.993868624971
 20
865.3156711722511
 30
0.0
 11
2414.993868624971
 21
866.4604613905146
 31
0.0
1001
AcDbBlockRepETag
1070
     1
1071
      557
1005
C0A
  0
LINE
  5
C0B
330
415
100
AcDbEntity
  8
0
  6
Continuous
 62
     7
370
    15
100
AcDbLine
 10
2412.943258959623
 20
864.1318794101616
 30
0.0
 11
2414.993868624971
 21
865.3156711722511
 31
0.0
1001
AcDbBlockRepETag
1070
     1
1071
      558
1005
C0B
  0
LINE
  5
C0C
330
415
100
AcDbEntity
  8
0
  6
Continuous
 62
     7
370
    15
100
AcDbLine
 10
2412.943258959623
 20
864.1318794101616
 30
0.0
 11
2412.943258959623
 21
865.2766696284196
 31
0.0
1001
AcDbBlockRepETag
1070
     1
1071
      559
1005
C0C
  0
LINE
  5
C0D
330
415
100
AcDbEntity
  8
0
  6
Continuous
 62
     7
370
    15
100
AcDbLine
 10
2412.943258959623
 20
865.2766696284196
 30
0.0
 11
2412.801837603377
 21
865.3583369796191
 31
0.0
1001
AcDbBlockRepETag
1070
     1
1071
      560
1005
C0D
  0
LINE
  5
C0E
330
415
100
AcDbEntity
  8
0
  6
Continuous
 62
     7
370
    15
100
AcDbLine
 10
2412.801837603377
 20
870.7475063380551
 30
0.0
 11
2412.801837603377
 21
865.3583369796191
 31
0.0
1001
AcDbBlockRepETag
1070
     1
1071
      561
1005
C0E
  0
LINE
  5
C0F
330
415
100
AcDbEntity
  8
0
  6
Continuous
 62
     7
370
    15
100
AcDbLine
 10
2412.801837603377
 20
870.7475063380551
 30
0.0
 11
2412.377573534694
 21
870.502583904523
 31
0.0
1001
AcDbBlockRepETag
1070
     1
1071
      562
1005
C0F
  0
LINE
  5
C10
330
415
100
AcDbEntity
  8
0
  6
Continuous
 62
     7
370
    15
100
AcDbLine
 10
2411.104781328529
 20
866.3380267138062
 30
0.0
 11
2412.801837603377
 21
865.3583369796191
 31
0.0
1001
AcDbBlockRepETag
1070
     1
1071
      563
1005
C10
  0
LINE
  5
C11
330
415
100
AcDbEntity
  8
0
  6
Continuous
 62
     7
370
    15
100
AcDbLine
 10
2411.104781328529
 20
871.2373512051804
 30
0.0
 11
2411.104781328529
 21
866.3380267138062
 31
0.0
1001
AcDbBlockRepETag
1070
     1
1071
      564
1005
C11
  0
LINE
  5
C12
330
415
100
AcDbEntity
  8
0
  6
Continuous
 62
     7
370
    15
100
AcDbLine
 10
2413.084680315768
 20
868.1329161183384
 30
0.0
 11
2413.261457011065
 21
869.0923681598158
 31
0.0
1001
AcDbBlockRepETag
1070
     1
1071
      565
1005
C12
  0
LINE
  5
C13
330
415
100
AcDbEntity
  8
0
  6
Continuous
 62
     7
370
    15
100
AcDbLine
 10
2413.261457011065
 20
869.0923681598158
 30
0.0
 11
2413.084680315769
 21
869.1944191737938
 31
0.0
1001
AcDbBlockRepETag
1070
     1
1071
      566
1005
C13
  0
LINE
  5
C14
330
415
100
AcDbEntity
  8
0
  6
Continuous
 62
     7
370
    15
100
AcDbLine
 10
2415.029223964031
 20
870.1128782995942
 30
0.0
 11
2414.852447268735
 21
870.214929313572
 31
0.0
1001
AcDbBlockRepETag
1070
     1
1071
      567
1005
C14
  0
LINE
  5
C15
330
415
100
AcDbEntity
  8
0
  6
Continuous
 62
     7
370
    15
100
AcDbLine
 10
2413.261457011065
 20
869.0923681598158
 30
0.0
 11
2415.029223964031
 21
870.1128782995942
 31
0.0
1001
AcDbBlockRepETag
1070
     1
1071
      568
1005
C15
  0
LINE
  5
C16
330
415
100
AcDbEntity
  8
0
  6
Continuous
 62
     7
370
    15
100
AcDbLine
 10
2415.029223964031
 20
870.1128782995942
 30
0.0
 11
2414.852447268735
 21
869.1534262581207
 31
0.0
1001
AcDbBlockRepETag
1070
     1
1071
      569
1005
C16
  0
LINE
  5
C17
330
415
100
AcDbEntity
  8
0
  6
Continuous
 62
     7
370
    15
100
AcDbLine
 10
2411.246202684775
 20
866.2563593626066
 30
0.0
 11
2412.943258959623
 21
865.2766696284196
 31
0.0
1001
AcDbBlockRepETag
1070
     1
1071
      570
1005
C17
  0
LINE
  5
C18
330
415
100
AcDbEntity
  8
0
  6
Continuous
 62
     7
370
    15
100
AcDbLine
 10
2411.246202684775
 20
866.2563593626066
 30
0.0
 11
2411.104781328529
 21
866.3380267138062
 31
0.0
1001
AcDbBlockRepETag
1070
     1
1071
      571
1005
C18
  0
LINE
  5
C19
330
415
100
AcDbEntity
  8
0
  6
Continuous
 62
     7
370
    15
100
AcDbLine
 10
2411.246202684775
 20
865.1115691443489
 30
0.0
 11
2412.943258959623
 21
864.1318794101616
 31
0.0
1001
AcDbBlockRepETag
1070
     1
1071
      572
1005
C19
  0
LINE
  5
C1A
330
415
100
AcDbEntity
  8
0
  6
Continuous
 62
     7
370
    15
100
AcDbLine
 10
2411.246202684775
 20
866.2563593626066
 30
0.0
 11
2411.246202684775
 21
865.1115691443489
 31
0.0
1001
AcDbBlockRepETag
1070
     1
1071
      573
1005
C1A
  0
LINE
  5
C1B
330
415
100
AcDbEntity
  8
0
  6
Continuous
 62
     7
370
    15
100
AcDbLine
 10
2411.246202684775
 20
865.1115691443489
 30
0.0
 11
2411.52904539725
 21
864.9482609819717
 31
0.0
1001
AcDbBlockRepETag
1070
     1
1071
      574
1005
C1B
  0
LINE
  5
C1C
330
415
100
AcDbEntity
  8
0
  6
Continuous
 62
     7
370
    15
100
AcDbLine
 10
2412.943258959623
 20
864.1318794101616
 30
0.0
 11
2412.943258959623
 21
864.1318528701489
 31
0.0
1001
AcDbBlockRepETag
1070
     1
1071
      575
1005
C1C
  0
LINE
  5
C1D
330
415
100
AcDbEntity
  8
0
  6
Continuous
 62
     7
370
    15
100
AcDbLine
 10
2412.943258959623
 20
864.1318528701489
 30
0.0
 11
2411.52904539725
 21
864.9482609819717
 31
0.0
1001
AcDbBlockRepETag
1070
     1
1071
      576
1005
C1D
  0
LINE
  5
C1E
330
415
100
AcDbEntity
  8
0
  6
Continuous
 62
     7
370
    15
100
AcDbLine
 10
2414.993868624971
 20
865.3156711722511
 30
0.0
 11
2414.711025912497
 21
865.1523630098742
 31
0.0
1001
AcDbBlockRepETag
1070
     1
1071
      577
1005
C1E
  0
LINE
  5
C1F
330
415
100
AcDbEntity
  8
0
  6
Continuous
 62
     7
370
    15
100
AcDbLine
 10
2414.711025912497
 20
865.1523630098742
 30
0.0
 11
2412.943258959623
 21
864.1318528701489
 31
0.0
1001
AcDbBlockRepETag
1070
     1
1071
      578
1005
C1F
  0
ARC
  5
C20
330
415
100
AcDbEntity
  8
0
  6
Continuous
 62
     7
370
    15
100
AcDbCircle
 10
2413.037149204753
 20
863.7477616040099
 30
0.0
 40
0.3842012018917073
100
AcDbArc
 50
182.6054784855653
 51
237.3945216600928
1001
AcDbBlockRepETag
1070
     1
1071
      579
1005
C20
  0
LINE
  5
C21
330
415
100
AcDbEntity
  8
0
  6
Continuous
 62
     7
370
    15
100
AcDbLine
 10
2412.973547023237
 20
863.3413125981469
 30
0.0
 11
2412.830121874709
 21
863.4241101739961
 31
0.0
1001
AcDbBlockRepETag
1070
     1
1071
      580
1005
C21
  0
ARC
  5
C22
330
415
100
AcDbEntity
  8
0
  6
Continuous
 62
     7
370
    15
100
AcDbCircle
 10
2412.766519693192
 20
863.0176611681326
 30
0.0
 40
0.3842012018927381
100
AcDbArc
 50
2.605478485597822
 51
57.39452166000226
1001
AcDbBlockRepETag
1070
     1
1071
      581
1005
C22
  0
LINE
  5
C23
330
415
100
AcDbEntity
  8
0
  6
Continuous
 62
     7
370
    15
100
AcDbLine
 10
2413.150323718534
 20
863.0351263811972
 30
0.0
 11
2413.150323718534
 21
857.8134904903031
 31
0.0
1001
AcDbBlockRepETag
1070
     1
1071
      582
1005
C23
  0
LINE
  5
C24
330
415
100
AcDbEntity
  8
0
  6
Continuous
 62
     7
370
    15
100
AcDbLine
 10
2413.150323718534
 20
857.8134904903031
 30
0.0
 11
2411.456330926916
 21
858.7914117132655
 31
0.0
1001
AcDbBlockRepETag
1070
     1
1071
      583
1005
C24
  0
LINE
  5
C25
330
415
100
AcDbEntity
  8
0
  6
Continuous
 62
     7
370
    15
100
AcDbLine
 10
2411.456330926916
 20
858.7914117132655
 30
0.0
 11
2411.456330926916
 21
864.0130476041598
 31
0.0
1001
AcDbBlockRepETag
1070
     1
1071
      584
1005
C25
  0
ARC
  5
C26
330
415
100
AcDbEntity
  8
0
  6
Continuous
 62
     7
370
    15
100
AcDbCircle
 10
2411.564099518773
 20
864.0305294033847
 30
0.0
 40
0.1091772993572724
100
AcDbArc
 50
50.79671476440665
 51
189.2140369903814
1001
AcDbBlockRepETag
1070
     1
1071
      585
1005
C26
  0
LINE
  5
C27
330
415
100
AcDbEntity
  8
0
  6
Continuous
 62
     7
370
    15
100
AcDbLine
 10
2411.633107622213
 20
864.1151317931534
 30
0.0
 11
2411.776532770731
 21
864.0323342173003
 31
0.0
1001
AcDbBlockRepETag
1070
     1
1071
      586
1005
C27
  0
ARC
  5
C28
330
415
100
AcDbEntity
  8
0
  6
Continuous
 62
     7
370
    15
100
AcDbCircle
 10
2411.84554087417
 20
864.1169366070704
 30
0.0
 40
0.1091772993578319
100
AcDbArc
 50
230.7967147652449
 51
9.214036989391996
1001
AcDbBlockRepETag
1070
     1
1071
      587
1005
C28
  0
LINE
  5
C29
330
415
100
AcDbEntity
  8
0
  6
Continuous
 62
     7
370
    15
100
AcDbLine
 10
2411.953309466027
 20
864.1344184062937
 30
0.0
 11
2411.953309466035
 21
864.7033385483828
 31
0.0
1001
AcDbBlockRepETag
1070
     1
1071
      588
1005
C29
  0
LINE
  5
C2A
330
415
100
AcDbEntity
  8
0
  6
Continuous
 62
     7
370
    15
100
AcDbLine
 10
2412.653345179412
 20
863.7302963909453
 30
0.0
 11
2412.653345179412
 21
864.2992165330291
 31
0.0
1001
AcDbBlockRepETag
1070
     1
1071
      589
1005
C2A
  0
LINE
  5
C2B
330
415
100
AcDbEntity
  8
0
  6
Continuous
 62
     7
370
    15
100
AcDbLine
 10
2414.279690775876
 20
864.903358535712
 30
0.0
 11
2414.27969077588
 21
864.6691657193905
 31
0.0
1001
AcDbBlockRepETag
1070
     1
1071
      590
1005
C2B
  0
LINE
  5
C2C
330
415
100
AcDbEntity
  8
0
  6
Continuous
 62
     7
370
    15
100
AcDbLine
 10
2414.27969077588
 20
864.6691657193905
 30
0.0
 11
2412.653345179412
 21
863.7302963909453
 31
0.0
1001
AcDbBlockRepETag
1070
     1
1071
      591
1005
C2C
  0
LINE
  5
C2D
330
415
100
AcDbEntity
  8
0
  6
Continuous
 62
     7
370
    15
100
AcDbLine
 10
2414.776669315021
 20
863.9739957096542
 30
0.0
 11
2413.150323718534
 21
863.0351263811972
 31
0.0
1001
AcDbBlockRepETag
1070
     1
1071
      592
1005
C2D
  0
LINE
  5
C2E
330
415
100
AcDbEntity
  8
0
  6
Continuous
 62
     7
370
    15
100
AcDbLine
 10
2414.599892619726
 20
864.2801819266042
 30
0.0
 11
2412.973547023237
 21
863.3413125981469
 31
0.0
1001
AcDbBlockRepETag
1070
     1
1071
      593
1005
C2E
  0
ARC
  5
C2F
330
415
100
AcDbEntity
  8
0
  6
Continuous
 62
     7
370
    15
100
AcDbCircle
 10
2414.392865289675
 20
863.9565304965874
 30
0.0
 40
0.3842012018978607
100
AcDbArc
 50
2.605478485871072
 51
57.39452165947836
1001
AcDbBlockRepETag
1070
     1
1071
      594
1005
C2F
  0
LINE
  5
C30
330
415
100
AcDbEntity
  8
0
  6
Continuous
 62
     7
370
    15
100
AcDbLine
 10
2414.456467471191
 20
864.3629795024498
 30
0.0
 11
2412.830121874709
 21
863.4241101739961
 31
0.0
1001
AcDbBlockRepETag
1070
     1
1071
      595
1005
C30
  0
ARC
  5
C31
330
415
100
AcDbEntity
  8
0
  6
Continuous
 62
     7
370
    15
100
AcDbCircle
 10
2414.66349480128
 20
864.6866309325091
 30
0.0
 40
0.3842012019544738
100
AcDbArc
 50
182.6054784932199
 51
237.394521658022
1001
AcDbBlockRepETag
1070
     1
1071
      596
1005
C31
  0
LINE
  5
C32
330
415
100
AcDbEntity
  8
0
  6
Continuous
 62
     7
370
    15
100
AcDbLine
 10
2414.578338096108
 20
857.3389970845244
 30
0.0
 11
2414.776669315018
 21
858.7523598187607
 31
0.0
1001
AcDbBlockRepETag
1070
     1
1071
      597
1005
C32
  0
ARC
  5
C33
330
415
100
AcDbEntity
  8
0
  6
Continuous
 62
     7
370
    15
100
AcDbCircle
 10
2414.006301719937
 20
857.4264328131279
 30
0.0
 40
0.5786800690351719
100
AcDbArc
 50
302.9067666138763
 51
351.3096048992635
1001
AcDbBlockRepETag
1070
     1
1071
      598
1005
C33
  0
LINE
  5
C34
330
415
100
AcDbEntity
  8
0
  6
Continuous
 62
     7
370
    15
100
AcDbLine
 10
2413.606309706371
 20
856.5281995438022
 30
0.0
 11
2414.320683327189
 21
856.9405986569384
 31
0.0
1001
AcDbBlockRepETag
1070
     1
1071
      599
1005
C34
  0
LWPOLYLINE
  5
C35
330
415
100
AcDbEntity
  8
0
  6
Continuous
 62
     7
370
    15
100
AcDbPolyline
 90
        9
 70
   128
 43
0.0
 10
2413.348654937453
 20
856.6291161072724
 10
2413.360458387347
 20
856.5850615386878
 10
2413.379731905163
 20
856.5484590135325
 10
2413.405889874816
 20
856.5204206810118
 10
2413.438137499632
 20
856.501798471671
 10
2413.475494951852
 20
856.493158211918
 10
2413.516827144191
 20
856.4947624316728
 10
2413.560878218902
 20
856.50656238753
 10
2413.606309706371
 20
856.5281995438022
1001
AcDbBlockRepETag
1070
     1
1071
      600
1005
C35
  0
LINE
  5
C36
330
415
100
AcDbEntity
  8
0
  6
Continuous
 62
     7
370
    15
100
AcDbLine
 10
2413.150323718534
 20
857.8134904903031
 30
0.0
 11
2413.348654937453
 21
856.6291161072724
 31
0.0
1001
AcDbBlockRepETag
1070
     1
1071
      601
1005
C36
  0
LINE
  5
C37
330
415
100
AcDbEntity
  8
0
  6
Continuous
 62
     7
370
    15
100
AcDbLine
 10
2414.776669315018
 20
858.7523598187607
 30
0.0
 11
2414.776669315021
 21
863.9739957096542
 31
0.0
1001
AcDbBlockRepETag
1070
     1
1071
      602
1005
C37
  0
LINE
  5
C38
330
415
100
AcDbEntity
  8
0
  6
Continuous
 62
     7
370
    15
100
AcDbLine
 10
2414.456467471191
 20
864.3629795024498
 30
0.0
 11
2414.599892619726
 21
864.2801819266042
 31
0.0
1001
AcDbBlockRepETag
1070
     1
1071
      603
1005
C38
  0
LINE
  5
C39
330
415
100
AcDbEntity
  8
0
  6
Continuous
 62
     7
370
    15
100
AcDbLine
 10
2413.348654937453
 20
856.6291161072724
 30
0.0
 11
2411.654662145835
 21
857.6070373302348
 31
0.0
1001
AcDbBlockRepETag
1070
     1
1071
      604
1005
C39
  0
LINE
  5
C3A
330
415
100
AcDbEntity
  8
0
  6
Continuous
 62
     7
370
    15
100
AcDbLine
 10
2411.654662145835
 20
857.6070373302348
 30
0.0
 11
2411.456330926916
 21
858.7914117132655
 31
0.0
1001
AcDbBlockRepETag
1070
     1
1071
      605
1005
C3A
  0
ARC
  5
C3B
330
415
100
AcDbEntity
  8
0
  6
Continuous
 62
     7
370
    15
100
AcDbCircle
 10
2411.813762808195
 20
857.6222420321252
 30
0.0
 40
0.1598255415222954
100
AcDbArc
 50
185.4589815370582
 51
237.2630757802571
1001
AcDbBlockRepETag
1070
     1
1071
      606
1005
C3B
  0
LINE
  5
C3C
330
415
100
AcDbEntity
  8
0
  6
Continuous
 62
     8
370
    15
100
AcDbLine
 10
2411.776532770731
 20
864.0323342173003
 30
0.0
 11
2411.953309463685
 21
864.1343852299254
 31
0.0
1001
AcDbBlockRepETag
1070
     1
1071
      607
1005
C3C
  0
LINE
  5
C3D
330
415
100
AcDbEntity
  8
0
  6
Continuous
 62
     8
370
    15
100
AcDbLine
 10
2411.633107622213
 20
864.1151317931534
 30
0.0
 11
2411.95330946603
 21
864.2999803829763
 31
0.0
1001
AcDbBlockRepETag
1070
     1
1071
      608
1005
C3D
  0
LINE
  5
C3E
330
415
100
AcDbEntity
  8
0
  6
Continuous
 62
     7
370
    15
100
AcDbLine
 10
2420.86276296158
 20
875.4010325754292
 30
0.0
 11
2419.165706686733
 21
874.4213428412329
 31
0.0
1001
AcDbBlockRepETag
1070
     1
1071
      609
1005
C3E
  0
LINE
  5
C3F
330
415
100
AcDbEntity
  8
0
  6
Continuous
 62
     7
370
    15
100
AcDbLine
 10
2424.893248627497
 20
877.7277650465586
 30
0.0
 11
2423.196192352649
 21
876.7480753123624
 31
0.0
1001
AcDbBlockRepETag
1070
     1
1071
      610
1005
C3F
  0
LINE
  5
C40
330
415
100
AcDbEntity
  8
0
  6
Continuous
 62
     7
370
    15
100
AcDbLine
 10
2428.92375728023
 20
880.0545281652459
 30
0.0
 11
2427.226701005383
 21
879.0748384310496
 31
0.0
1001
AcDbBlockRepETag
1070
     1
1071
      611
1005
C40
  0
LINE
  5
C41
330
415
100
AcDbEntity
  8
0
  6
Continuous
 62
     7
370
    15
100
AcDbLine
 10
2432.954265932963
 20
882.3812912839331
 30
0.0
 11
2431.257209658116
 21
881.4016015497369
 31
0.0
1001
AcDbBlockRepETag
1070
     1
1071
      612
1005
C41
  0
LINE
  5
C42
330
415
100
AcDbEntity
  8
0
  6
Continuous
 62
     7
370
    15
100
AcDbLine
 10
2436.984728612065
 20
884.7080544026201
 30
0.0
 11
2435.287672337218
 21
883.7283646684239
 31
0.0
1001
AcDbBlockRepETag
1070
     1
1071
      613
1005
C42
  0
ENDBLK
  5
417
330
415
100
AcDbEntity
  8
0
100
AcDbBlockEnd
  0
ENDSEC
  0
SECTION
  2
ENTITIES
  0
INSERT
  5
3DF
330
1F
100
AcDbEntity
  8
0
100
AcDbBlockReference
  2
1
 10
0.0
 20
0.0
 30
0.0
  0
INSERT
  5
40C
330
1F
100
AcDbEntity
  8
0
100
AcDbBlockReference
  2
2
 10
0.0
 20
0.0
 30
0.0
  0
INSERT
  5
414
330
1F
100
AcDbEntity
  8
0
100
AcDbBlockReference
  2
3
 10
0.0
 20
0.0
 30
0.0
  0
INSERT
  5
499
330
1F
100
AcDbEntity
  8
0
100
AcDbBlockReference
  2
4
 10
95.257027134503
 20
0.0
 30
0.0
  0
ENDSEC
  0
SECTION
  2
OBJECTS
  0
DICTIONARY
  5
C
330
0
100
AcDbDictionary
281
     1
  3
ACAD_COLOR
350
6B
  3
ACAD_GROUP
350
D
  3
ACAD_LAYOUT
350
1A
  3
ACAD_MATERIAL
350
6A
  3
ACAD_MLEADERSTYLE
350
12D
  3
ACAD_MLINESTYLE
350
17
  3
ACAD_PLOTSETTINGS
350
19
  3
ACAD_PLOTSTYLENAME
350
E
  3
ACAD_SCALELIST
350
10C
  3
ACAD_TABLESTYLE
350
7E
  3
ACAD_VISUALSTYLE
350
EF
  3
ACDB_RECOMPOSE_DATA
350
15D
  3
AcDbVariableDictionary
350
5E
  3
DWGPROPS
350
DCA
  0
DICTIONARY
  5
13C
330
10
100
AcDbDictionary
280
     1
281
     1
  3
ADSK_XREC_LAYER_RECONCILED
360
49A
  0
DICTIONARY
  5
D8A
330
397
100
AcDbDictionary
280
     1
281
     1
  0
DICTIONARY
  5
DBA
330
3E0
100
AcDbDictionary
280
     1
281
     1
  0
DICTIONARY
  5
99C
330
40D
100
AcDbDictionary
280
     1
281
     1
  3
ACAD_SORTENTS
360
99D
  0
DICTIONARY
  5
A9D
330
415
100
AcDbDictionary
280
     1
281
     1
  0
DICTIONARY
  5
6B
102
{ACAD_REACTORS
330
C
102
}
330
C
100
AcDbDictionary
281
     1
  0
DICTIONARY
  5
D
102
{ACAD_REACTORS
330
C
102
}
330
C
100
AcDbDictionary
281
     1
  0
DICTIONARY
  5
1A
102
{ACAD_REACTORS
330
C
102
}
330
C
100
AcDbDictionary
281
     1
  3
Layout1
350
D3
  3
Layout2
350
D7
  3
Model
350
22
  0
DICTIONARY
  5
6A
102
{ACAD_REACTORS
330
C
102
}
330
C
100
AcDbDictionary
281
     1
  3
ByBlock
350
ED
  3
ByLayer
350
EC
  3
Global
350
EE
  0
DICTIONARY
  5
12D
102
{ACAD_REACTORS
330
C
102
}
330
C
100
AcDbDictionary
281
     1
  3
Annotative
350
13B
  3
Standard
350
12E
  0
DICTIONARY
  5
17
102
{ACAD_REACTORS
330
C
102
}
330
C
100
AcDbDictionary
281
     1
  3
Standard
350
18
  0
DICTIONARY
  5
19
102
{ACAD_REACTORS
330
C
102
}
330
C
100
AcDbDictionary
281
     1
  0
ACDBDICTIONARYWDFLT
  5
E
102
{ACAD_REACTORS
330
C
102
}
330
C
100
AcDbDictionary
281
     1
  3
Normal
350
F
100
AcDbDictionaryWithDefault
340
F
  0
DICTIONARY
  5
10C
102
{ACAD_REACTORS
330
C
102
}
330
C
100
AcDbDictionary
281
     1
  3
A0
350
10D
  3
A1
350
188
  3
A2
350
189
  3
A3
350
18A
  3
A4
350
18B
  3
A5
350
18C
  3
A6
350
18D
  3
A7
350
18E
  3
A8
350
18F
  3
A9
350
190
  3
B0
350
191
  3
B1
350
192
  3
B2
350
193
  3
B3
350
194
  3
B4
350
195
  3
B5
350
196
  3
B6
350
197
  3
B7
350
198
  3
B8
350
199
  3
B9
350
19A
  3
C0
350
19B
  3
C1
350
19C
  3
C2
350
19D
  3
C3
350
19E
  3
C4
350
19F
  3
C5
350
1A0
  3
C6
350
1A1
  3
C7
350
1A2
  3
C8
350
1A3
  3
C9
350
1A4
  3
D0
350
1A5
  3
D1
350
1A6
  3
D2
350
1A7
  0
DICTIONARY
  5
7E
102
{ACAD_REACTORS
330
C
102
}
330
C
100
AcDbDictionary
281
     1
  3
Standard
350
7F
  0
DICTIONARY
  5
EF
102
{ACAD_REACTORS
330
C
102
}
330
C
100
AcDbDictionary
281
     1
  3
2dWireframe
350
F5
  3
3D Hidden
350
F7
  3
3dWireframe
350
F6
  3
Basic
350
F4
  3
Brighten
350
FB
  3
ColorChange
350
FF
  3
Conceptual
350
F8
  3
Dim
350
FA
  3
Facepattern
350
FE
  3
Flat
350
F0
  3
FlatWithEdges
350
F1
  3
Gouraud
350
F2
  3
GouraudWithEdges
350
F3
  3
Linepattern
350
FD
  3
Realistic
350
F9
  3
Thicken
350
FC
  0
XRECORD
  5
15D
102
{ACAD_REACTORS
330
C
102
}
330
C
100
AcDbXrecord
280
     1
 90
        1
330
7F
  0
DICTIONARY
  5
5E
102
{ACAD_REACTORS
330
C
102
}
330
C
100
AcDbDictionary
281
     1
  3
CANNOSCALE
350
146
  3
CMLEADERSTYLE
350
145
  3
CTABLESTYLE
350
84
  3
DIMASSOC
350
5F
  3
HIDETEXT
350
63
  3
INDEXCTL
350
DC6
  3
LIGHTINGUNITS
350
DC4
  3
MSLTSCALE
350
DC3
  3
PSOLHEIGHT
350
DC8
  3
PSOLWIDTH
350
DC7
  3
SORTENTS
350
DC5
  0
XRECORD
  5
DCA
102
{ACAD_REACTORS
330
C
102
}
330
C
100
AcDbXrecord
280
     1
  1
DWGPROPS COOKIE
  2

  3

  4

  6

  7

  8
orhan kara
  9

300
=
301
=
302
=
303
=
304
=
305
=
306
=
307
=
308
=
309
=
 40
0.0218667592592593
 41
2458929.545061111
 42
2458956.437543426
  1

 90
        0
  0
XRECORD
  5
49A
102
{ACAD_REACTORS
330
13C
102
}
330
13C
100
AcDbXrecord
280
     1
290
     1
  0
SORTENTSTABLE
  5
99D
102
{ACAD_REACTORS
330
99C
102
}
330
99C
100
AcDbSortentsTable
330
40D
331
9A0
  5
999
331
99A
  5
9A0
331
998
  5
998
331
999
  5
99B
  0
LAYOUT
  5
D3
102
{ACAD_XDICTIONARY
360
DCE
102
}
102
{ACAD_REACTORS
330
1A
102
}
330
1A
100
AcDbPlotSettings
  1

  2
C:\Documents and Settings\basas\Application Data\Autodesk\AutoCAD 2005\R16.1\enu\plotters\Default Windows System Printer.pc3
  4

  6

 40
0.0
 41
0.0
 42
0.0
 43
0.0
 44
0.0
 45
0.0
 46
0.0
 47
0.0
 48
0.0
 49
0.0
140
0.0
141
0.0
142
1.0
143
1.0
 70
   688
 72
     0
 73
     0
 74
     5
  7

 75
    16
147
1.0
148
0.0
149
0.0
100
AcDbLayout
  1
Layout1
 70
     1
 71
     1
 10
0.0
 20
0.0
 11
12.0
 21
9.0
 12
0.0
 22
0.0
 32
0.0
 14
0.0
 24
0.0
 34
0.0
 15
0.0
 25
0.0
 35
0.0
146
0.0
 13
0.0
 23
0.0
 33
0.0
 16
1.0
 26
0.0
 36
0.0
 17
0.0
 27
1.0
 37
0.0
 76
     0
330
D2
  0
LAYOUT
  5
D7
102
{ACAD_XDICTIONARY
360
DD0
102
}
102
{ACAD_REACTORS
330
1A
102
}
330
1A
100
AcDbPlotSettings
  1

  2
C:\Documents and Settings\basas\Application Data\Autodesk\AutoCAD 2005\R16.1\enu\plotters\Default Windows System Printer.pc3
  4

  6

 40
0.0
 41
0.0
 42
0.0
 43
0.0
 44
0.0
 45
0.0
 46
0.0
 47
0.0
 48
0.0
 49
0.0
140
0.0
141
0.0
142
1.0
143
1.0
 70
   688
 72
     0
 73
     0
 74
     5
  7

 75
    16
147
1.0
148
0.0
149
0.0
100
AcDbLayout
  1
Layout2
 70
     1
 71
     2
 10
0.0
 20
0.0
 11
12.0
 21
9.0
 12
0.0
 22
0.0
 32
0.0
 14
0.0
 24
0.0
 34
0.0
 15
0.0
 25
0.0
 35
0.0
146
0.0
 13
0.0
 23
0.0
 33
0.0
 16
1.0
 26
0.0
 36
0.0
 17
0.0
 27
1.0
 37
0.0
 76
     0
330
D6
  0
LAYOUT
  5
22
102
{ACAD_XDICTIONARY
360
DCB
102
}
102
{ACAD_REACTORS
330
1A
102
}
330
1A
100
AcDbPlotSettings
  1

  2
none_device
  4
ISO_A4_(210.00_x_297.00_MM)
  6

 40
7.5
 41
20.0
 42
7.5
 43
20.0
 44
210.0
 45
297.0
 46
11.54999923706054
 47
-13.65000009536743
 48
0.0
 49
0.0
140
0.0
141
0.0
142
1.0
143
8.704084754739808
 70
 11952
 72
     1
 73
     0
 74
     0
  7

 75
     0
147
0.1148885871608098
148
0.0
149
0.0
100
AcDbLayout
  1
Model
 70
     1
 71
     0
 10
0.0
 20
0.0
 11
12.0
 21
9.0
 12
0.0
 22
0.0
 32
0.0
 14
0.0
 24
0.0
 34
0.0
 15
0.0
 25
0.0
 35
0.0
146
0.0
 13
0.0
 23
0.0
 33
0.0
 16
1.0
 26
0.0
 36
0.0
 17
0.0
 27
1.0
 37
0.0
 76
     0
330
1F
331
EA
1001
ACAD_PSEXT
1000
None
1000
None
1000
Not applicable
1000
The layout will not be plotted unless a new plotter configuration name is selected.
1070
     0
  0
MATERIAL
  5
ED
102
{ACAD_XDICTIONARY
360
DD4
102
}
102
{ACAD_REACTORS
330
6A
102
}
330
6A
100
AcDbMaterial
  1
ByBlock
  0
MATERIAL
  5
EC
102
{ACAD_XDICTIONARY
360
DD2
102
}
102
{ACAD_REACTORS
330
6A
102
}
330
6A
100
AcDbMaterial
  1
ByLayer
  0
MATERIAL
  5
EE
102
{ACAD_XDICTIONARY
360
173
102
}
102
{ACAD_REACTORS
330
6A
102
}
330
6A
100
AcDbMaterial
  1
Global
 43
0.0007999999797903
 43
0.0
 43
0.0
 43
0.0
 43
0.0
 43
0.0007999999797903
 43
0.0
 43
0.0
 43
0.0
 43
0.0
 43
1.0
 43
0.0
 43
0.0
 43
0.0
 43
0.0
 43
1.0
 49
0.0007999999797903
 49
0.0
 49
0.0
 49
0.0
 49
0.0
 49
0.0007999999797903
 49
0.0
 49
0.0
 49
0.0
 49
0.0
 49
1.0
 49
0.0
 49
0.0
 49
0.0
 49
0.0
 49
1.0
142
0.0007999999797903
142
0.0
142
0.0
142
0.0
142
0.0
142
0.0007999999797903
142
0.0
142
0.0
142
0.0
142
0.0
142
1.0
142
0.0
142
0.0
142
0.0
142
0.0
142
1.0
144
0.0007999999797903
144
0.0
144
0.0
144
0.0
144
0.0
144
0.0007999999797903
144
0.0
144
0.0
144
0.0
144
0.0
144
1.0
144
0.0
144
0.0
144
0.0
144
0.0
144
1.0
1001
ACAD
1070
    -1
1070
     3
1070
     0
1000

1071
        0
1070
     0
  0
MLEADERSTYLE
  5
13B
102
{ACAD_REACTORS
330
12D
102
}
330
12D
100
AcDbMLeaderStyle
170
     2
171
     1
172
     0
 90
        2
 40
0.0
 41
0.0
173
     1
 91
-1056964608
340
14
 92
       -2
290
     1
 42
2.0
291
     1
 43
8.0
  3
Standard
 44
4.0
300

342
11
174
     1
178
     1
175
     1
176
     0
 93
-1056964608
 45
4.0
292
     0
297
     0
 46
4.0
 94
-1056964608
 47
1.0
 49
1.0
140
1.0
293
     1
141
0.0
294
     1
177
     0
142
1.0
295
     0
296
     1
143
3.75
1001
ACAD_MLEADERVER
1070
     2
  0
MLEADERSTYLE
  5
12E
102
{ACAD_REACTORS
330
12D
102
}
330
12D
100
AcDbMLeaderStyle
170
     2
171
     1
172
     0
 90
        2
 40
0.0
 41
0.0
173
     1
 91
-1056964608
340
14
 92
       -2
290
     1
 42
2.0
291
     1
 43
8.0
  3
Standard
 44
4.0
300

342
11
174
     1
178
     1
175
     1
176
     0
 93
-1056964608
 45
4.0
292
     0
297
     0
 46
4.0
 94
-1056964608
 47
1.0
 49
1.0
140
1.0
293
     1
141
0.0
294
     1
177
     0
142
1.0
295
     0
296
     0
143
3.75
1001
ACAD_MLEADERVER
1070
     2
  0
MLINESTYLE
  5
18
102
{ACAD_REACTORS
330
17
102
}
330
17
100
AcDbMlineStyle
  2
STANDARD
 70
     0
  3

 62
   256
 51
90.0
 52
90.0
 71
     2
 49
0.5
 62
   256
  6
BYLAYER
 49
-0.5
 62
   256
  6
BYLAYER
  0
ACDBPLACEHOLDER
  5
F
102
{ACAD_REACTORS
330
E
102
}
330
E
  0
SCALE
  5
10D
102
{ACAD_REACTORS
330
10C
102
}
330
10C
100
AcDbScale
 70
     0
300
1:1
140
1.0
141
1.0
290
     1
  0
SCALE
  5
188
102
{ACAD_REACTORS
330
10C
102
}
330
10C
100
AcDbScale
 70
     0
300
1:2
140
1.0
141
2.0
290
     0
  0
SCALE
  5
189
102
{ACAD_REACTORS
330
10C
102
}
330
10C
100
AcDbScale
 70
     0
300
1:4
140
1.0
141
4.0
290
     0
  0
SCALE
  5
18A
102
{ACAD_REACTORS
330
10C
102
}
330
10C
100
AcDbScale
 70
     0
300
1:5
140
1.0
141
5.0
290
     0
  0
SCALE
  5
18B
102
{ACAD_REACTORS
330
10C
102
}
330
10C
100
AcDbScale
 70
     0
300
1:8
140
1.0
141
8.0
290
     0
  0
SCALE
  5
18C
102
{ACAD_REACTORS
330
10C
102
}
330
10C
100
AcDbScale
 70
     0
300
1:10
140
1.0
141
10.0
290
     0
  0
SCALE
  5
18D
102
{ACAD_REACTORS
330
10C
102
}
330
10C
100
AcDbScale
 70
     0
300
1:16
140
1.0
141
16.0
290
     0
  0
SCALE
  5
18E
102
{ACAD_REACTORS
330
10C
102
}
330
10C
100
AcDbScale
 70
     0
300
1:20
140
1.0
141
20.0
290
     0
  0
SCALE
  5
18F
102
{ACAD_REACTORS
330
10C
102
}
330
10C
100
AcDbScale
 70
     0
300
1:30
140
1.0
141
30.0
290
     0
  0
SCALE
  5
190
102
{ACAD_REACTORS
330
10C
102
}
330
10C
100
AcDbScale
 70
     0
300
1:40
140
1.0
141
40.0
290
     0
  0
SCALE
  5
191
102
{ACAD_REACTORS
330
10C
102
}
330
10C
100
AcDbScale
 70
     0
300
1:50
140
1.0
141
50.0
290
     0
  0
SCALE
  5
192
102
{ACAD_REACTORS
330
10C
102
}
330
10C
100
AcDbScale
 70
     0
300
1:100
140
1.0
141
100.0
290
     0
  0
SCALE
  5
193
102
{ACAD_REACTORS
330
10C
102
}
330
10C
100
AcDbScale
 70
     0
300
2:1
140
2.0
141
1.0
290
     0
  0
SCALE
  5
194
102
{ACAD_REACTORS
330
10C
102
}
330
10C
100
AcDbScale
 70
     0
300
4:1
140
4.0
141
1.0
290
     0
  0
SCALE
  5
195
102
{ACAD_REACTORS
330
10C
102
}
330
10C
100
AcDbScale
 70
     0
300
8:1
140
8.0
141
1.0
290
     0
  0
SCALE
  5
196
102
{ACAD_REACTORS
330
10C
102
}
330
10C
100
AcDbScale
 70
     0
300
10:1
140
10.0
141
1.0
290
     0
  0
SCALE
  5
197
102
{ACAD_REACTORS
330
10C
102
}
330
10C
100
AcDbScale
 70
     0
300
100:1
140
100.0
141
1.0
290
     0
  0
SCALE
  5
198
102
{ACAD_REACTORS
330
10C
102
}
330
10C
100
AcDbScale
 70
     0
300
1/128" = 1'-0"
140
0.0078125
141
12.0
290
     0
  0
SCALE
  5
199
102
{ACAD_REACTORS
330
10C
102
}
330
10C
100
AcDbScale
 70
     0
300
1/64" = 1'-0"
140
0.015625
141
12.0
290
     0
  0
SCALE
  5
19A
102
{ACAD_REACTORS
330
10C
102
}
330
10C
100
AcDbScale
 70
     0
300
1/32" = 1'-0"
140
0.03125
141
12.0
290
     0
  0
SCALE
  5
19B
102
{ACAD_REACTORS
330
10C
102
}
330
10C
100
AcDbScale
 70
     0
300
1/16" = 1'-0"
140
0.0625
141
12.0
290
     0
  0
SCALE
  5
19C
102
{ACAD_REACTORS
330
10C
102
}
330
10C
100
AcDbScale
 70
     0
300
3/32" = 1'-0"
140
0.09375
141
12.0
290
     0
  0
SCALE
  5
19D
102
{ACAD_REACTORS
330
10C
102
}
330
10C
100
AcDbScale
 70
     0
300
1/8" = 1'-0"
140
0.125
141
12.0
290
     0
  0
SCALE
  5
19E
102
{ACAD_REACTORS
330
10C
102
}
330
10C
100
AcDbScale
 70
     0
300
3/16" = 1'-0"
140
0.1875
141
12.0
290
     0
  0
SCALE
  5
19F
102
{ACAD_REACTORS
330
10C
102
}
330
10C
100
AcDbScale
 70
     0
300
1/4" = 1'-0"
140
0.25
141
12.0
290
     0
  0
SCALE
  5
1A0
102
{ACAD_REACTORS
330
10C
102
}
330
10C
100
AcDbScale
 70
     0
300
3/8" = 1'-0"
140
0.375
141
12.0
290
     0
  0
SCALE
  5
1A1
102
{ACAD_REACTORS
330
10C
102
}
330
10C
100
AcDbScale
 70
     0
300
1/2" = 1'-0"
140
0.5
141
12.0
290
     0
  0
SCALE
  5
1A2
102
{ACAD_REACTORS
330
10C
102
}
330
10C
100
AcDbScale
 70
     0
300
3/4" = 1'-0"
140
0.75
141
12.0
290
     0
  0
SCALE
  5
1A3
102
{ACAD_REACTORS
330
10C
102
}
330
10C
100
AcDbScale
 70
     0
300
1" = 1'-0"
140
1.0
141
12.0
290
     0
  0
SCALE
  5
1A4
102
{ACAD_REACTORS
330
10C
102
}
330
10C
100
AcDbScale
 70
     0
300
1-1/2" = 1'-0"
140
1.5
141
12.0
290
     0
  0
SCALE
  5
1A5
102
{ACAD_REACTORS
330
10C
102
}
330
10C
100
AcDbScale
 70
     0
300
3" = 1'-0"
140
3.0
141
12.0
290
     0
  0
SCALE
  5
1A6
102
{ACAD_REACTORS
330
10C
102
}
330
10C
100
AcDbScale
 70
     0
300
6" = 1'-0"
140
6.0
141
12.0
290
     0
  0
SCALE
  5
1A7
102
{ACAD_REACTORS
330
10C
102
}
330
10C
100
AcDbScale
 70
     0
300
1'-0" = 1'-0"
140
12.0
141
12.0
290
     0
  0
TABLESTYLE
  5
7F
102
{ACAD_XDICTIONARY
360
162
102
}
102
{ACAD_REACTORS
330
7E
102
}
330
7E
100
AcDbTableStyle
  3
Standard
 70
     0
 71
     0
 40
1.5
 41
1.5
280
     0
281
     0
  7
Standard
140
4.5
170
     2
 62
     0
 63
     7
283
     0
274
    -2
284
     1
 64
     0
275
    -2
285
     1
 65
     0
276
    -2
286
     1
 66
     0
277
    -2
287
     1
 67
     0
278
    -2
288
     1
 68
     0
279
    -2
289
     1
 69
     0
  7
Standard
140
6.0
170
     5
 62
     0
 63
     7
283
     0
274
    -2
284
     1
 64
     0
275
    -2
285
     1
 65
     0
276
    -2
286
     1
 66
     0
277
    -2
287
     1
 67
     0
278
    -2
288
     1
 68
     0
279
    -2
289
     1
 69
     0
  7
Standard
140
4.5
170
     5
 62
     0
 63
     7
283
     0
274
    -2
284
     1
 64
     0
275
    -2
285
     1
 65
     0
276
    -2
286
     1
 66
     0
277
    -2
287
     1
 67
     0
278
    -2
288
     1
 68
     0
279
    -2
289
     1
 69
     0
  0
VISUALSTYLE
  5
F5
102
{ACAD_REACTORS
330
EF
102
}
330
EF
100
AcDbVisualStyle
  2
2dWireframe
 70
     4
 71
     0
 72
     2
 73
     1
 90
        0
 40
-0.6
 41
-30.0
 62
     5
 63
     7
 74
     1
 91
        4
 64
     7
 65
   257
 75
     1
175
     1
 42
1.0
 92
        0
 66
   257
 43
1.0
 76
     1
 77
     6
 78
     2
 67
     7
 79
     5
170
     0
171
     0
290
     0
174
     0
 93
        1
 44
0.0
173
     0
291
     0
 45
0.0
1001
ACAD
1000
AcDbSavedByObjectVersion
1070
     0
  0
VISUALSTYLE
  5
F7
102
{ACAD_REACTORS
330
EF
102
}
330
EF
100
AcDbVisualStyle
  2
3D Hidden
 70
     6
 71
     1
 72
     2
 73
     2
 90
        0
 40
-0.6
 41
-30.0
 62
     5
 63
     7
 74
     2
 91
        2
 64
     7
 65
   257
 75
     2
175
     1
 42
40.0
 92
        0
 66
   257
 43
1.0
 76
     1
 77
     6
 78
     2
 67
     7
 79
     3
170
     0
171
     0
290
     0
174
     0
 93
        1
 44
0.0
173
     0
291
     0
 45
0.0
1001
ACAD
1000
AcDbSavedByObjectVersion
1070
     0
  0
VISUALSTYLE
  5
F6
102
{ACAD_REACTORS
330
EF
102
}
330
EF
100
AcDbVisualStyle
  2
3dWireframe
 70
     5
 71
     0
 72
     2
 73
     1
 90
        0
 40
-0.6
 41
-30.0
 62
     5
 63
     7
 74
     1
 91
        4
 64
     7
 65
   257
 75
     1
175
     1
 42
1.0
 92
        0
 66
   257
 43
1.0
 76
     1
 77
     6
 78
     2
 67
     7
 79
     5
170
     0
171
     0
290
     0
174
     0
 93
        1
 44
0.0
173
     0
291
     0
 45
0.0
1001
ACAD
1000
AcDbSavedByObjectVersion
1070
     0
  0
VISUALSTYLE
  5
F4
102
{ACAD_REACTORS
330
EF
102
}
330
EF
100
AcDbVisualStyle
  2
Basic
 70
     7
 71
     1
 72
     0
 73
     1
 90
        0
 40
-0.6
 41
-30.0
 62
     5
 63
     7
 74
     0
 91
        4
 64
     7
 65
   257
 75
     1
175
     1
 42
1.0
 92
        8
 66
     7
 43
1.0
 76
     1
 77
     6
 78
     2
 67
     7
 79
     5
170
     0
171
     0
290
     0
174
     0
 93
        1
 44
0.0
173
     0
291
     1
 45
0.0
1001
ACAD
1000
AcDbSavedByObjectVersion
1070
     0
  0
VISUALSTYLE
  5
FB
102
{ACAD_REACTORS
330
EF
102
}
330
EF
100
AcDbVisualStyle
  2
Brighten
 70
    12
 71
     2
 72
     2
 73
     1
 90
        0
 40
-0.6
 41
-30.0
 62
     5
 63
     7
 74
     1
 91
        4
 64
     7
 65
   257
 75
     1
175
     1
 42
1.0
 92
        8
 66
     7
 43
1.0
 76
     1
 77
     6
 78
     2
 67
     7
 79
     5
170
     0
171
     0
290
     0
174
     0
 93
        1
 44
50.0
173
     0
291
     1
 45
0.0
1001
ACAD
1000
AcDbSavedByObjectVersion
1070
     0
  0
VISUALSTYLE
  5
FF
102
{ACAD_REACTORS
330
EF
102
}
330
EF
100
AcDbVisualStyle
  2
ColorChange
 70
    16
 71
     2
 72
     2
 73
     3
 90
        0
 40
-0.6
 41
-30.0
 62
     5
 63
     8
 74
     1
 91
        4
 64
     7
 65
   257
 75
     1
175
     1
 42
1.0
 92
        8
 66
     8
 43
1.0
 76
     1
 77
     6
 78
     2
 67
     7
 79
     5
170
     0
171
     0
290
     0
174
     0
 93
        1
 44
0.0
173
     0
291
     1
 45
0.0
1001
ACAD
1000
AcDbSavedByObjectVersion
1070
     0
  0
VISUALSTYLE
  5
F8
102
{ACAD_REACTORS
330
EF
102
}
330
EF
100
AcDbVisualStyle
  2
Conceptual
 70
     9
 71
     3
 72
     2
 73
     1
 90
        0
 40
-0.6
 41
-30.0
 62
     5
 63
     7
 74
     2
 91
        2
 64
     7
 65
   257
 75
     1
175
     1
 42
40.0
 92
        8
 66
     7
 43
1.0
 76
     1
 77
     6
 78
     2
 67
     7
 79
     3
170
     0
171
     0
290
     0
174
     0
 93
        1
 44
0.0
173
     0
291
     0
 45
0.0
1001
ACAD
1000
AcDbSavedByObjectVersion
1070
     0
  0
VISUALSTYLE
  5
FA
102
{ACAD_REACTORS
330
EF
102
}
330
EF
100
AcDbVisualStyle
  2
Dim
 70
    11
 71
     2
 72
     2
 73
     1
 90
        0
 40
-0.6
 41
-30.0
 62
     5
 63
     7
 74
     1
 91
        4
 64
     7
 65
   257
 75
     1
175
     1
 42
1.0
 92
        8
 66
     7
 43
1.0
 76
     1
 77
     6
 78
     2
 67
     7
 79
     5
170
     0
171
     0
290
     0
174
     0
 93
        1
 44
-50.0
173
     0
291
     1
 45
0.0
1001
ACAD
1000
AcDbSavedByObjectVersion
1070
     0
  0
VISUALSTYLE
  5
FE
102
{ACAD_REACTORS
330
EF
102
}
330
EF
100
AcDbVisualStyle
  2
Facepattern
 70
    15
 71
     2
 72
     2
 73
     1
 90
        0
 40
-0.6
 41
-30.0
 62
     5
 63
     7
 74
     1
 91
        4
 64
     7
 65
   257
 75
     1
175
     1
 42
1.0
 92
        8
 66
     7
 43
1.0
 76
     1
 77
     6
 78
     2
 67
     7
 79
     5
170
     0
171
     0
290
     0
174
     0
 93
        1
 44
0.0
173
     0
291
     1
 45
0.0
1001
ACAD
1000
AcDbSavedByObjectVersion
1070
     0
  0
VISUALSTYLE
  5
F0
102
{ACAD_REACTORS
330
EF
102
}
330
EF
100
AcDbVisualStyle
  2
Flat
 70
     0
 71
     2
 72
     1
 73
     1
 90
        2
 40
-0.6
 41
30.0
 62
     5
 63
     7
 74
     0
 91
        4
 64
     7
 65
   257
 75
     1
175
     1
 42
1.0
 92
        8
 66
     7
 43
1.0
 76
     1
 77
     6
 78
     2
 67
     7
 79
     5
170
     0
171
     0
290
     0
174
     0
 93
        1
 44
0.0
173
     0
291
     1
 45
0.0
1001
ACAD
1000
AcDbSavedByObjectVersion
1070
     0
  0
VISUALSTYLE
  5
F1
102
{ACAD_REACTORS
330
EF
102
}
330
EF
100
AcDbVisualStyle
  2
FlatWithEdges
 70
     1
 71
     2
 72
     1
 73
     1
 90
        2
 40
-0.6
 41
30.0
 62
     5
 63
     7
 74
     1
 91
        4
 64
     7
 65
   257
 75
     1
175
     1
 42
1.0
 92
        0
 66
   257
 43
1.0
 76
     1
 77
     6
 78
     2
 67
     7
 79
     5
170
     0
171
     0
290
     0
174
     0
 93
        1
 44
0.0
173
     0
291
     1
 45
0.0
1001
ACAD
1000
AcDbSavedByObjectVersion
1070
     0
  0
VISUALSTYLE
  5
F2
102
{ACAD_REACTORS
330
EF
102
}
330
EF
100
AcDbVisualStyle
  2
Gouraud
 70
     2
 71
     2
 72
     2
 73
     1
 90
        2
 40
-0.6
 41
30.0
 62
     5
 63
     7
 74
     0
 91
        4
 64
     7
 65
   257
 75
     1
175
     1
 42
1.0
 92
        0
 66
     7
 43
1.0
 76
     1
 77
     6
 78
     2
 67
     7
 79
     5
170
     0
171
     0
290
     0
174
     0
 93
        1
 44
0.0
173
     0
291
     1
 45
0.0
1001
ACAD
1000
AcDbSavedByObjectVersion
1070
     0
  0
VISUALSTYLE
  5
F3
102
{ACAD_REACTORS
330
EF
102
}
330
EF
100
AcDbVisualStyle
  2
GouraudWithEdges
 70
     3
 71
     2
 72
     2
 73
     1
 90
        2
 40
-0.6
 41
30.0
 62
     5
 63
     7
 74
     1
 91
        4
 64
     7
 65
   257
 75
     1
175
     1
 42
1.0
 92
        0
 66
   257
 43
1.0
 76
     1
 77
     6
 78
     2
 67
     7
 79
     5
170
     0
171
     0
290
     0
174
     0
 93
        1
 44
0.0
173
     0
291
     1
 45
0.0
1001
ACAD
1000
AcDbSavedByObjectVersion
1070
     0
  0
VISUALSTYLE
  5
FD
102
{ACAD_REACTORS
330
EF
102
}
330
EF
100
AcDbVisualStyle
  2
Linepattern
 70
    14
 71
     2
 72
     2
 73
     1
 90
        0
 40
-0.6
 41
-30.0
 62
     5
 63
     7
 74
     1
 91
        4
 64
     7
 65
   257
 75
     7
175
     7
 42
1.0
 92
        8
 66
     7
 43
1.0
 76
     1
 77
     6
 78
     2
 67
     7
 79
     5
170
     0
171
     0
290
     0
174
     0
 93
        1
 44
0.0
173
     0
291
     1
 45
0.0
1001
ACAD
1000
AcDbSavedByObjectVersion
1070
     0
  0
VISUALSTYLE
  5
F9
102
{ACAD_REACTORS
330
EF
102
}
330
EF
100
AcDbVisualStyle
  2
Realistic
 70
     8
 71
     2
 72
     2
 73
     1
 90
        0
 40
-0.6
 41
-30.0
 62
     5
 63
     7
 74
     1
 91
        0
 64
     7
 65
   257
 75
     1
175
     1
 42
1.0
 92
        8
 66
     8
 43
1.0
 76
     1
 77
     6
 78
     2
 67
     7
 79
     5
170
     0
171
     0
290
     0
174
     0
 93
       13
 44
0.0
173
     0
291
     0
 45
0.0
1001
ACAD
1000
AcDbSavedByObjectVersion
1070
     0
  0
VISUALSTYLE
  5
FC
102
{ACAD_REACTORS
330
EF
102
}
330
EF
100
AcDbVisualStyle
  2
Thicken
 70
    13
 71
     2
 72
     2
 73
     1
 90
        0
 40
-0.6
 41
-30.0
 62
     5
 63
     7
 74
     1
 91
        4
 64
     7
 65
   257
 75
     1
175
     1
 42
1.0
 92
       12
 66
     7
 43
1.0
 76
     1
 77
     6
 78
     2
 67
     7
 79
     5
170
     0
171
     0
290
     0
174
     0
 93
        1
 44
0.0
173
     0
291
     1
 45
0.0
1001
ACAD
1000
AcDbSavedByObjectVersion
1070
     0
  0
DICTIONARYVAR
  5
146
102
{ACAD_REACTORS
330
5E
102
}
330
5E
100
DictionaryVariables
280
     0
  1
1:1
  0
DICTIONARYVAR
  5
145
102
{ACAD_REACTORS
330
5E
102
}
330
5E
100
DictionaryVariables
280
     0
  1
STANDARD
  0
DICTIONARYVAR
  5
84
102
{ACAD_REACTORS
330
5E
102
}
330
5E
100
DictionaryVariables
280
     0
  1
STANDARD
  0
DICTIONARYVAR
  5
5F
102
{ACAD_REACTORS
330
5E
102
}
330
5E
100
DictionaryVariables
280
     0
  1
2
  0
DICTIONARYVAR
  5
63
102
{ACAD_REACTORS
330
5E
102
}
330
5E
100
DictionaryVariables
280
     0
  1
1
  0
DICTIONARYVAR
  5
DC6
102
{ACAD_REACTORS
330
5E
102
}
330
5E
100
DictionaryVariables
280
     0
  1
0
  0
DICTIONARYVAR
  5
DC4
102
{ACAD_REACTORS
330
5E
102
}
330
5E
100
DictionaryVariables
280
     0
  1
2
  0
DICTIONARYVAR
  5
DC3
102
{ACAD_REACTORS
330
5E
102
}
330
5E
100
DictionaryVariables
280
     0
  1
1
  0
DICTIONARYVAR
  5
DC8
102
{ACAD_REACTORS
330
5E
102
}
330
5E
100
DictionaryVariables
280
     0
  1
80.000000
  0
DICTIONARYVAR
  5
DC7
102
{ACAD_REACTORS
330
5E
102
}
330
5E
100
DictionaryVariables
280
     0
  1
5.000000
  0
DICTIONARYVAR
  5
DC5
102
{ACAD_REACTORS
330
5E
102
}
330
5E
100
DictionaryVariables
280
     0
  1
127
  0
DICTIONARY
  5
DCE
330
D3
100
AcDbDictionary
280
     1
281
     1
  3
ACAD_XREC_ROUNDTRIP
360
DCF
  0
DICTIONARY
  5
DD0
330
D7
100
AcDbDictionary
280
     1
281
     1
  3
ACAD_XREC_ROUNDTRIP
360
DD1
  0
DICTIONARY
  5
DCB
330
22
100
AcDbDictionary
280
     1
281
     1
  3
ACAD_XREC_ROUNDTRIP
360
DCC
  0
DICTIONARY
  5
DD4
330
ED
100
AcDbDictionary
280
     1
281
     1
  3
ACAD_XREC_ROUNDTRIP
360
DD5
  0
DICTIONARY
  5
DD2
330
EC
100
AcDbDictionary
280
     1
281
     1
  3
ACAD_XREC_ROUNDTRIP
360
DD3
  0
DICTIONARY
  5
173
330
EE
100
AcDbDictionary
280
     1
281
     1
  3
ACAD_XREC_ROUNDTRIP
360
DD6
  3
BUMPTILE
360
175
  3
DIFFUSETILE
360
174
  3
OPACITYTILE
360
176
  3
REFLECTIONTILE
360
177
  0
DICTIONARY
  5
162
330
7F
100
AcDbDictionary
280
     1
281
     1
  3
ACAD_ROUNDTRIP_2008_TABLESTYLE_CELLSTYLEMAP
360
DC9
  3
ACAD_XREC_ROUNDTRIP
360
DCD
  0
XRECORD
  5
DCF
102
{ACAD_REACTORS
330
DCE
102
}
330
DCE
100
AcDbXrecord
280
     1
102
SHADEPLOT
 70
     0
102
SHADEPLOTRESLEVEL
 70
     2
102
SHADEPLOTCUSTOMDPI
 70
   300
  0
XRECORD
  5
DD1
102
{ACAD_REACTORS
330
DD0
102
}
330
DD0
100
AcDbXrecord
280
     1
102
SHADEPLOT
 70
     0
102
SHADEPLOTRESLEVEL
 70
     2
102
SHADEPLOTCUSTOMDPI
 70
   300
  0
XRECORD
  5
DCC
102
{ACAD_REACTORS
330
DCB
102
}
330
DCB
100
AcDbXrecord
280
     1
102
SHADEPLOT
 70
     0
102
SHADEPLOTRESLEVEL
 70
     2
102
SHADEPLOTCUSTOMDPI
 70
   300
  0
XRECORD
  5
DD5
102
{ACAD_REACTORS
330
DD4
102
}
330
DD4
100
AcDbXrecord
280
     1
102
MATERIAL
148
0.0
149
0.0
149
0.0
 93
        0
 94
       63
282
     0
 72
     1
 77
     1
171
     1
175
     1
179
     1
273
     0
  0
XRECORD
  5
DD3
102
{ACAD_REACTORS
330
DD2
102
}
330
DD2
100
AcDbXrecord
280
     1
102
MATERIAL
148
0.0
149
0.0
149
0.0
 93
        0
 94
       63
282
     0
 72
     1
 77
     1
171
     1
175
     1
179
     1
273
     0
  0
XRECORD
  5
DD6
102
{ACAD_REACTORS
330
173
102
}
330
173
100
AcDbXrecord
280
     1
102
MATERIAL
148
0.0
149
0.0
149
0.0
 93
        0
 94
       63
282
     0
 72
     1
 77
     1
171
     1
175
     1
179
     1
273
     0
  0
XRECORD
  5
175
102
{ACAD_REACTORS
330
173
102
}
330
173
100
AcDbXrecord
280
     1
270
     1
271
     1
  0
XRECORD
  5
174
102
{ACAD_REACTORS
330
173
102
}
330
173
100
AcDbXrecord
280
     1
270
     1
271
     1
  0
XRECORD
  5
176
102
{ACAD_REACTORS
330
173
102
}
330
173
100
AcDbXrecord
280
     1
270
     1
271
     1
  0
XRECORD
  5
177
102
{ACAD_REACTORS
330
173
102
}
330
173
100
AcDbXrecord
280
     1
270
     1
271
     1
  0
CELLSTYLEMAP
  5
DC9
102
{ACAD_REACTORS
330
162
102
}
330
162
100
AcDbCellStyleMap
 90
        3
300
CELLSTYLE
  1
TABLEFORMAT_BEGIN
 90
        5
170
     1
 91
        0
 92
    32768
 62
   257
 93
        1
300
CONTENTFORMAT
  1
CONTENTFORMAT_BEGIN
 90
        0
 91
        0
 92
      512
 93
        0
300

 40
0.0
140
1.0
 94
        5
 62
     0
340
11
144
6.0
309
CONTENTFORMAT_END
171
     1
301
MARGIN
  1
CELLMARGIN_BEGIN
 40
1.5
 40
1.5
 40
1.5
 40
1.5
 40
4.5
 40
4.5
309
CELLMARGIN_END
 94
        6
 95
        1
302
GRIDFORMAT
  1
GRIDFORMAT_BEGIN
 90
        0
 91
        1
 62
     0
 92
       -2
340
14
 93
        0
 40
1.125
309
GRIDFORMAT_END
 95
        2
302
GRIDFORMAT
  1
GRIDFORMAT_BEGIN
 90
        0
 91
        1
 62
     0
 92
       -2
340
14
 93
        0
 40
1.125
309
GRIDFORMAT_END
 95
        4
302
GRIDFORMAT
  1
GRIDFORMAT_BEGIN
 90
        0
 91
        1
 62
     0
 92
       -2
340
14
 93
        0
 40
1.125
309
GRIDFORMAT_END
 95
        8
302
GRIDFORMAT
  1
GRIDFORMAT_BEGIN
 90
        0
 91
        1
 62
     0
 92
       -2
340
14
 93
        0
 40
1.125
309
GRIDFORMAT_END
 95
       16
302
GRIDFORMAT
  1
GRIDFORMAT_BEGIN
 90
        0
 91
        1
 62
     0
 92
       -2
340
14
 93
        0
 40
1.125
309
GRIDFORMAT_END
 95
       32
302
GRIDFORMAT
  1
GRIDFORMAT_BEGIN
 90
        0
 91
        1
 62
     0
 92
       -2
340
14
 93
        0
 40
1.125
309
GRIDFORMAT_END
309
TABLEFORMAT_END
  1
CELLSTYLE_BEGIN
 90
        1
 91
        1
300
_TITLE
309
CELLSTYLE_END
300
CELLSTYLE
  1
TABLEFORMAT_BEGIN
 90
        5
170
     1
 91
        0
 92
        0
 62
   257
 93
        1
300
CONTENTFORMAT
  1
CONTENTFORMAT_BEGIN
 90
        0
 91
        0
 92
      512
 93
        0
300

 40
0.0
140
1.0
 94
        5
 62
     0
340
11
144
4.5
309
CONTENTFORMAT_END
171
     1
301
MARGIN
  1
CELLMARGIN_BEGIN
 40
1.5
 40
1.5
 40
1.5
 40
1.5
 40
4.5
 40
4.5
309
CELLMARGIN_END
 94
        6
 95
        1
302
GRIDFORMAT
  1
GRIDFORMAT_BEGIN
 90
        0
 91
        1
 62
     0
 92
       -2
340
14
 93
        0
 40
1.125
309
GRIDFORMAT_END
 95
        2
302
GRIDFORMAT
  1
GRIDFORMAT_BEGIN
 90
        0
 91
        1
 62
     0
 92
       -2
340
14
 93
        0
 40
1.125
309
GRIDFORMAT_END
 95
        4
302
GRIDFORMAT
  1
GRIDFORMAT_BEGIN
 90
        0
 91
        1
 62
     0
 92
       -2
340
14
 93
        0
 40
1.125
309
GRIDFORMAT_END
 95
        8
302
GRIDFORMAT
  1
GRIDFORMAT_BEGIN
 90
        0
 91
        1
 62
     0
 92
       -2
340
14
 93
        0
 40
1.125
309
GRIDFORMAT_END
 95
       16
302
GRIDFORMAT
  1
GRIDFORMAT_BEGIN
 90
        0
 91
        1
 62
     0
 92
       -2
340
14
 93
        0
 40
1.125
309
GRIDFORMAT_END
 95
       32
302
GRIDFORMAT
  1
GRIDFORMAT_BEGIN
 90
        0
 91
        1
 62
     0
 92
       -2
340
14
 93
        0
 40
1.125
309
GRIDFORMAT_END
309
TABLEFORMAT_END
  1
CELLSTYLE_BEGIN
 90
        2
 91
        1
300
_HEADER
309
CELLSTYLE_END
300
CELLSTYLE
  1
TABLEFORMAT_BEGIN
 90
        5
170
     1
 91
        0
 92
        0
 62
   257
 93
        1
300
CONTENTFORMAT
  1
CONTENTFORMAT_BEGIN
 90
        0
 91
        0
 92
      512
 93
        0
300

 40
0.0
140
1.0
 94
        2
 62
     0
340
11
144
4.5
309
CONTENTFORMAT_END
171
     1
301
MARGIN
  1
CELLMARGIN_BEGIN
 40
1.5
 40
1.5
 40
1.5
 40
1.5
 40
4.5
 40
4.5
309
CELLMARGIN_END
 94
        6
 95
        1
302
GRIDFORMAT
  1
GRIDFORMAT_BEGIN
 90
        0
 91
        1
 62
     0
 92
       -2
340
14
 93
        0
 40
1.125
309
GRIDFORMAT_END
 95
        2
302
GRIDFORMAT
  1
GRIDFORMAT_BEGIN
 90
        0
 91
        1
 62
     0
 92
       -2
340
14
 93
        0
 40
1.125
309
GRIDFORMAT_END
 95
        4
302
GRIDFORMAT
  1
GRIDFORMAT_BEGIN
 90
        0
 91
        1
 62
     0
 92
       -2
340
14
 93
        0
 40
1.125
309
GRIDFORMAT_END
 95
        8
302
GRIDFORMAT
  1
GRIDFORMAT_BEGIN
 90
        0
 91
        1
 62
     0
 92
       -2
340
14
 93
        0
 40
1.125
309
GRIDFORMAT_END
 95
       16
302
GRIDFORMAT
  1
GRIDFORMAT_BEGIN
 90
        0
 91
        1
 62
     0
 92
       -2
340
14
 93
        0
 40
1.125
309
GRIDFORMAT_END
 95
       32
302
GRIDFORMAT
  1
GRIDFORMAT_BEGIN
 90
        0
 91
        1
 62
     0
 92
       -2
340
14
 93
        0
 40
1.125
309
GRIDFORMAT_END
309
TABLEFORMAT_END
  1
CELLSTYLE_BEGIN
 90
        3
 91
        2
300
_DATA
309
CELLSTYLE_END
  0
XRECORD
  5
DCD
102
{ACAD_REACTORS
330
162
102
}
330
162
100
AcDbXrecord
280
     1
102
ACAD_ROUNDTRIP_PRE2007_TABLESTYLE
 90
      512
 91
        0
  1

 92
      512
 93
        0
  2

 94
      512
 95
        0
  3

  0
ENDSEC
  0
EOF
