  0
SECTION
  2
HEADER
  9
$ACADVER
  1
AC1015
  9
$ACADMAINTVER
 70
    20
  9
$DWGCODEPAGE
  3
ANSI_1254
  9
$INSBASE
 10
0.0
 20
0.0
 30
0.0
  9
$EXTMIN
 10
2405.102242484257
 20
858.2132964628023
 30
0.0
  9
$EXTMAX
 10
2474.456111235879
 20
898.9739094653835
 30
0.0
  9
$LIMMIN
 10
0.0
 20
0.0
  9
$LIMMAX
 10
420.0
 20
297.0
  9
$ORTHOMODE
 70
     1
  9
$REGENMODE
 70
     1
  9
$FILLMODE
 70
     1
  9
$QTEXTMODE
 70
     0
  9
$MIRRTEXT
 70
     0
  9
$LTSCALE
 40
1.0
  9
$ATTMODE
 70
     1
  9
$TEXTSIZE
 40
2.5
  9
$TRACEWID
 40
1.0
  9
$TEXTSTYLE
  7
Standard
  9
$CLAYER
  8
0
  9
$CELTYPE
  6
ByLayer
  9
$CECOLOR
 62
   256
  9
$CELTSCALE
 40
1.0
  9
$DISPSILH
 70
     0
  9
$DIMSCALE
 40
1.0
  9
$DIMASZ
 40
2.5
  9
$DIMEXO
 40
0.625
  9
$DIMDLI
 40
3.75
  9
$DIMRND
 40
0.0
  9
$DIMDLE
 40
0.0
  9
$DIMEXE
 40
1.25
  9
$DIMTP
 40
0.0
  9
$DIMTM
 40
0.0
  9
$DIMTXT
 40
2.5
  9
$DIMCEN
 40
2.5
  9
$DIMTSZ
 40
0.0
  9
$DIMTOL
 70
     0
  9
$DIMLIM
 70
     0
  9
$DIMTIH
 70
     0
  9
$DIMTOH
 70
     0
  9
$DIMSE1
 70
     0
  9
$DIMSE2
 70
     0
  9
$DIMTAD
 70
     1
  9
$DIMZIN
 70
     8
  9
$DIMBLK
  1

  9
$DIMASO
 70
     1
  9
$DIMSHO
 70
     1
  9
$DIMPOST
  1

  9
$DIMAPOST
  1

  9
$DIMALT
 70
     0
  9
$DIMALTD
 70
     3
  9
$DIMALTF
 40
0.03937007874016
  9
$DIMLFAC
 40
1.0
  9
$DIMTOFL
 70
     1
  9
$DIMTVP
 40
0.0
  9
$DIMTIX
 70
     0
  9
$DIMSOXD
 70
     0
  9
$DIMSAH
 70
     0
  9
$DIMBLK1
  1

  9
$DIMBLK2
  1

  9
$DIMSTYLE
  2
ISO-25
  9
$DIMCLRD
 70
     0
  9
$DIMCLRE
 70
     0
  9
$DIMCLRT
 70
     0
  9
$DIMTFAC
 40
1.0
  9
$DIMGAP
 40
0.625
  9
$DIMJUST
 70
     0
  9
$DIMSD1
 70
     0
  9
$DIMSD2
 70
     0
  9
$DIMTOLJ
 70
     0
  9
$DIMTZIN
 70
     8
  9
$DIMALTZ
 70
     0
  9
$DIMALTTZ
 70
     0
  9
$DIMUPT
 70
     0
  9
$DIMDEC
 70
     2
  9
$DIMTDEC
 70
     2
  9
$DIMALTU
 70
     2
  9
$DIMALTTD
 70
     3
  9
$DIMTXSTY
  7
Standard
  9
$DIMAUNIT
 70
     0
  9
$DIMADEC
 70
     0
  9
$DIMALTRND
 40
0.0
  9
$DIMAZIN
 70
     0
  9
$DIMDSEP
 70
    44
  9
$DIMATFIT
 70
     3
  9
$DIMFRAC
 70
     0
  9
$DIMLDRBLK
  1

  9
$DIMLUNIT
 70
     2
  9
$DIMLWD
 70
    -2
  9
$DIMLWE
 70
    -2
  9
$DIMTMOVE
 70
     0
  9
$LUNITS
 70
     2
  9
$LUPREC
 70
     4
  9
$SKETCHINC
 40
1.0
  9
$FILLETRAD
 40
0.0
  9
$AUNITS
 70
     0
  9
$AUPREC
 70
     0
  9
$MENU
  1
.
  9
$ELEVATION
 40
0.0
  9
$PELEVATION
 40
0.0
  9
$THICKNESS
 40
0.0
  9
$LIMCHECK
 70
     0
  9
$CHAMFERA
 40
0.0
  9
$CHAMFERB
 40
0.0
  9
$CHAMFERC
 40
0.0
  9
$CHAMFERD
 40
0.0
  9
$SKPOLY
 70
     0
  9
$TDCREATE
 40
2458929.545061111
  9
$TDUCREATE
 40
2458929.420061111
  9
$TDUPDATE
 40
2458956.436770718
  9
$TDUUPDATE
 40
2458956.311770718
  9
$TDINDWG
 40
0.0180937616
  9
$TDUSRTIMER
 40
0.0180935764
  9
$USRTIMER
 70
     1
  9
$ANGBASE
 50
0.0
  9
$ANGDIR
 70
     0
  9
$PDMODE
 70
     0
  9
$PDSIZE
 40
0.0
  9
$PLINEWID
 40
0.0
  9
$SPLFRAME
 70
     0
  9
$SPLINETYPE
 70
     6
  9
$SPLINESEGS
 70
     8
  9
$HANDSEED
  5
7BF
  9
$SURFTAB1
 70
     6
  9
$SURFTAB2
 70
     6
  9
$SURFTYPE
 70
     6
  9
$SURFU
 70
     6
  9
$SURFV
 70
     6
  9
$UCSBASE
  2

  9
$UCSNAME
  2

  9
$UCSORG
 10
0.0
 20
0.0
 30
0.0
  9
$UCSXDIR
 10
1.0
 20
0.0
 30
0.0
  9
$UCSYDIR
 10
0.0
 20
1.0
 30
0.0
  9
$UCSORTHOREF
  2

  9
$UCSORTHOVIEW
 70
     0
  9
$UCSORGTOP
 10
0.0
 20
0.0
 30
0.0
  9
$UCSORGBOTTOM
 10
0.0
 20
0.0
 30
0.0
  9
$UCSORGLEFT
 10
0.0
 20
0.0
 30
0.0
  9
$UCSORGRIGHT
 10
0.0
 20
0.0
 30
0.0
  9
$UCSORGFRONT
 10
0.0
 20
0.0
 30
0.0
  9
$UCSORGBACK
 10
0.0
 20
0.0
 30
0.0
  9
$PUCSBASE
  2

  9
$PUCSNAME
  2

  9
$PUCSORG
 10
0.0
 20
0.0
 30
0.0
  9
$PUCSXDIR
 10
1.0
 20
0.0
 30
0.0
  9
$PUCSYDIR
 10
0.0
 20
1.0
 30
0.0
  9
$PUCSORTHOREF
  2

  9
$PUCSORTHOVIEW
 70
     0
  9
$PUCSORGTOP
 10
0.0
 20
0.0
 30
0.0
  9
$PUCSORGBOTTOM
 10
0.0
 20
0.0
 30
0.0
  9
$PUCSORGLEFT
 10
0.0
 20
0.0
 30
0.0
  9
$PUCSORGRIGHT
 10
0.0
 20
0.0
 30
0.0
  9
$PUCSORGFRONT
 10
0.0
 20
0.0
 30
0.0
  9
$PUCSORGBACK
 10
0.0
 20
0.0
 30
0.0
  9
$USERI1
 70
     0
  9
$USERI2
 70
     0
  9
$USERI3
 70
     0
  9
$USERI4
 70
     0
  9
$USERI5
 70
     0
  9
$USERR1
 40
0.0
  9
$USERR2
 40
0.0
  9
$USERR3
 40
0.0
  9
$USERR4
 40
0.0
  9
$USERR5
 40
0.0
  9
$WORLDVIEW
 70
     1
  9
$SHADEDGE
 70
     3
  9
$SHADEDIF
 70
    70
  9
$TILEMODE
 70
     1
  9
$MAXACTVP
 70
    64
  9
$PINSBASE
 10
0.0
 20
0.0
 30
0.0
  9
$PLIMCHECK
 70
     0
  9
$PEXTMIN
 10
0.0
 20
0.0
 30
0.0
  9
$PEXTMAX
 10
0.0
 20
0.0
 30
0.0
  9
$PLIMMIN
 10
0.0
 20
0.0
  9
$PLIMMAX
 10
12.0
 20
9.0
  9
$UNITMODE
 70
     0
  9
$VISRETAIN
 70
     1
  9
$PLINEGEN
 70
     0
  9
$PSLTSCALE
 70
     1
  9
$TREEDEPTH
 70
  3020
  9
$CMLSTYLE
  2
Standard
  9
$CMLJUST
 70
     0
  9
$CMLSCALE
 40
20.0
  9
$PROXYGRAPHICS
 70
     1
  9
$MEASUREMENT
 70
     1
  9
$CELWEIGHT
370
    -1
  9
$ENDCAPS
280
     0
  9
$JOINSTYLE
280
     0
  9
$LWDISPLAY
290
     0
  9
$INSUNITS
 70
     4
  9
$HYPERLINKBASE
  1

  9
$STYLESHEET
  1

  9
$XEDIT
290
     1
  9
$CEPSNTYPE
380
     0
  9
$PSTYLEMODE
290
     1
  9
$FINGERPRINTGUID
  2
{9D7D8EAF-396F-4362-B878-BB79C7BA4A29}
  9
$VERSIONGUID
  2
{1F57C013-7FF7-4BF6-9161-8DA9AA77553F}
  9
$EXTNAMES
290
     1
  9
$PSVPSCALE
 40
0.0
  9
$OLESTARTUP
290
     0
  0
ENDSEC
  0
SECTION
  2
CLASSES
  0
CLASS
  1
ACDBDICTIONARYWDFLT
  2
AcDbDictionaryWithDefault
  3
ObjectDBX Classes
 90
        0
280
     0
281
     0
  0
CLASS
  1
DICTIONARYVAR
  2
AcDbDictionaryVar
  3
ObjectDBX Classes
 90
        0
280
     0
281
     0
  0
CLASS
  1
TABLESTYLE
  2
AcDbTableStyle
  3
ObjectDBX Classes
 90
     4095
280
     0
281
     0
  0
CLASS
  1
MATERIAL
  2
AcDbMaterial
  3
ObjectDBX Classes
 90
     1153
280
     0
281
     0
  0
CLASS
  1
VISUALSTYLE
  2
AcDbVisualStyle
  3
ObjectDBX Classes
 90
     4095
280
     0
281
     0
  0
CLASS
  1
SCALE
  2
AcDbScale
  3
ObjectDBX Classes
 90
     1153
280
     0
281
     0
  0
CLASS
  1
MLEADERSTYLE
  2
AcDbMLeaderStyle
  3
ACDB_MLEADERSTYLE_CLASS
 90
     4095
280
     0
281
     0
  0
CLASS
  1
CELLSTYLEMAP
  2
AcDbCellStyleMap
  3
ObjectDBX Classes
 90
     1152
280
     0
281
     0
  0
CLASS
  1
ACAD_EVALUATION_GRAPH
  2
AcDbEvalGraph
  3
ObjectDBX Classes
 90
    33921
280
     0
281
     0
  0
CLASS
  1
ACAECUSTOBJ
  2
AcAeEditorObj
  3
AcAeEditorObj
 90
    33792
280
     0
281
     0
  0
CLASS
  1
ACDB_DYNAMICBLOCKPURGEPREVENTER_VERSION
  2
AcDbDynamicBlockPurgePreventer
  3
ObjectDBX Classes
 90
    33921
280
     0
281
     0
  0
CLASS
  1
SORTENTSTABLE
  2
AcDbSortentsTable
  3
ObjectDBX Classes
 90
        0
280
     0
281
     0
  0
CLASS
  1
ACDBPLACEHOLDER
  2
AcDbPlaceHolder
  3
ObjectDBX Classes
 90
        0
280
     0
281
     0
  0
CLASS
  1
LAYOUT
  2
AcDbLayout
  3
ObjectDBX Classes
 90
        0
280
     0
281
     0
  0
ENDSEC
  0
SECTION
  2
TABLES
  0
TABLE
  2
VPORT
  5
8
330
0
100
AcDbSymbolTable
 70
     1
  0
VPORT
  5
EA
330
8
100
AcDbSymbolTableRecord
100
AcDbViewportTableRecord
  2
*Active
 70
     0
 10
0.0
 20
0.0
 11
1.0
 21
1.0
 12
2437.656840282548
 22
887.7505340022567
 13
0.0
 23
0.0
 14
10.0
 24
10.0
 15
10.0
 25
10.0
 16
0.0
 26
0.0
 36
1.0
 17
0.0
 27
0.0
 37
0.0
 40
73.26039309513544
 41
1.903110047846889
 42
50.0
 43
0.0
 44
0.0
 50
0.0
 51
0.0
 71
     0
 72
  1000
 73
     1
 74
     3
 75
     0
 76
     0
 77
     0
 78
     0
281
     0
 65
     1
110
0.0
120
0.0
130
0.0
111
1.0
121
0.0
131
0.0
112
0.0
122
1.0
132
0.0
 79
     0
146
0.0
  0
ENDTAB
  0
TABLE
  2
LTYPE
  5
5
330
0
100
AcDbSymbolTable
 70
     1
  0
LTYPE
  5
14
330
5
100
AcDbSymbolTableRecord
100
AcDbLinetypeTableRecord
  2
ByBlock
 70
     0
  3

 72
    65
 73
     0
 40
0.0
  0
LTYPE
  5
15
330
5
100
AcDbSymbolTableRecord
100
AcDbLinetypeTableRecord
  2
ByLayer
 70
     0
  3

 72
    65
 73
     0
 40
0.0
  0
LTYPE
  5
16
330
5
100
AcDbSymbolTableRecord
100
AcDbLinetypeTableRecord
  2
Continuous
 70
     0
  3
Solid line
 72
    65
 73
     0
 40
0.0
  0
ENDTAB
  0
TABLE
  2
LAYER
  5
2
330
0
100
AcDbSymbolTable
 70
     1
  0
LAYER
  5
10
102
{ACAD_XDICTIONARY
360
13C
102
}
330
2
100
AcDbSymbolTableRecord
100
AcDbLayerTableRecord
  2
0
 70
     0
 62
     7
  6
Continuous
370
    -3
390
F
  0
ENDTAB
  0
TABLE
  2
STYLE
  5
3
330
0
100
AcDbSymbolTable
 70
     2
  0
STYLE
  5
11
330
3
100
AcDbSymbolTableRecord
100
AcDbTextStyleTableRecord
  2
Standard
 70
     0
 40
0.0
 41
1.0
 50
0.0
 71
     0
 42
2.5
  3
txt
  4

  0
STYLE
  5
132
330
3
100
AcDbSymbolTableRecord
100
AcDbTextStyleTableRecord
  2
Annotative
 70
     0
 40
0.0
 41
1.0
 50
0.0
 71
     0
 42
2.5
  3
txt.shx
  4

1001
AcadAnnotative
1000
AnnotativeData
1002
{
1070
     1
1070
     1
1002
}
  0
ENDTAB
  0
TABLE
  2
VIEW
  5
6
330
0
100
AcDbSymbolTable
 70
     0
  0
ENDTAB
  0
TABLE
  2
UCS
  5
7
330
0
100
AcDbSymbolTable
 70
     0
  0
ENDTAB
  0
TABLE
  2
APPID
  5
9
330
0
100
AcDbSymbolTable
 70
    12
  0
APPID
  5
12
330
9
100
AcDbSymbolTableRecord
100
AcDbRegAppTableRecord
  2
ACAD
 70
     0
  0
APPID
  5
9E
330
9
100
AcDbSymbolTableRecord
100
AcDbRegAppTableRecord
  2
ACAD_PSEXT
 70
     0
  0
APPID
  5
133
330
9
100
AcDbSymbolTableRecord
100
AcDbRegAppTableRecord
  2
AcadAnnoPO
 70
     0
  0
APPID
  5
134
330
9
100
AcDbSymbolTableRecord
100
AcDbRegAppTableRecord
  2
AcadAnnotative
 70
     0
  0
APPID
  5
135
330
9
100
AcDbSymbolTableRecord
100
AcDbRegAppTableRecord
  2
ACAD_DSTYLE_DIMJAG
 70
     0
  0
APPID
  5
136
330
9
100
AcDbSymbolTableRecord
100
AcDbRegAppTableRecord
  2
ACAD_DSTYLE_DIMTALN
 70
     0
  0
APPID
  5
165
330
9
100
AcDbSymbolTableRecord
100
AcDbRegAppTableRecord
  2
ACAD_MLEADERVER
 70
     0
  0
APPID
  5
4E8
330
9
100
AcDbSymbolTableRecord
100
AcDbRegAppTableRecord
  2
ACAUTHENVIRON
 70
     0
  0
APPID
  5
50E
330
9
100
AcDbSymbolTableRecord
100
AcDbRegAppTableRecord
  2
ACAD_EXEMPT_FROM_CAD_STANDARDS
 70
     0
  0
APPID
  5
514
330
9
100
AcDbSymbolTableRecord
100
AcDbRegAppTableRecord
  2
AcDbDynamicBlockTrueName
 70
     0
  0
APPID
  5
515
330
9
100
AcDbSymbolTableRecord
100
AcDbRegAppTableRecord
  2
AcDbDynamicBlockGUID
 70
     0
  0
APPID
  5
517
330
9
100
AcDbSymbolTableRecord
100
AcDbRegAppTableRecord
  2
AcDbBlockRepETag
 70
     0
  0
ENDTAB
  0
TABLE
  2
DIMSTYLE
  5
A
330
0
100
AcDbSymbolTable
 70
     2
100
AcDbDimStyleTable
 71
     2
340
27
340
137
  0
DIMSTYLE
105
27
330
A
100
AcDbSymbolTableRecord
100
AcDbDimStyleTableRecord
  2
ISO-25
 70
     0
 41
2.5
 42
0.625
 43
3.75
 44
1.25
 73
     0
 74
     0
 77
     1
 78
     8
140
2.5
141
2.5
143
0.03937007874016
147
0.625
171
     3
172
     1
271
     2
272
     2
274
     3
278
    44
283
     0
284
     8
340
11
  0
DIMSTYLE
105
137
330
A
100
AcDbSymbolTableRecord
100
AcDbDimStyleTableRecord
  2
Annotative
 70
     0
 40
0.0
 41
2.5
 42
0.625
 43
3.75
 44
1.25
 73
     0
 74
     0
 77
     1
 78
     8
140
2.5
141
2.5
143
0.03937007874016
147
0.625
171
     3
172
     1
271
     2
272
     2
274
     3
278
    44
283
     0
284
     8
340
11
1001
AcadAnnotative
1000
AnnotativeData
1002
{
1070
     1
1070
     1
1002
}
1001
ACAD_DSTYLE_DIMJAG
1070
   388
1040
1.5
1001
ACAD_DSTYLE_DIMTALN
1070
   392
1070
     0
  0
ENDTAB
  0
TABLE
  2
BLOCK_RECORD
  5
1
330
0
100
AcDbSymbolTable
 70
     5
  0
BLOCK_RECORD
  5
1F
330
1
100
AcDbSymbolTableRecord
100
AcDbBlockTableRecord
  2
*Model_Space
340
22
  0
BLOCK_RECORD
  5
D2
330
1
100
AcDbSymbolTableRecord
100
AcDbBlockTableRecord
  2
*Paper_Space
340
D3
  0
BLOCK_RECORD
  5
D6
330
1
100
AcDbSymbolTableRecord
100
AcDbBlockTableRecord
  2
*Paper_Space0
340
D7
  0
BLOCK_RECORD
  5
397
102
{ACAD_XDICTIONARY
360
665
102
}
330
1
100
AcDbSymbolTableRecord
100
AcDbBlockTableRecord
  2
1
340
0
310
2800000020000000200000000100080000000000000400000000000000000000000000000000000000000000000080000080000000808000800000008000800080800000C0C0C000C0DCC000F0CAA6000020400000206000002080000020A0000020C0000020E00000400000004020000040400000406000004080000040A0
310
000040C0000040E00000600000006020000060400000606000006080000060A0000060C0000060E00000800000008020000080400000806000008080000080A0000080C0000080E00000A0000000A0200000A0400000A0600000A0800000A0A00000A0C00000A0E00000C0000000C0200000C0400000C0600000C0800000C0
310
A00000C0C00000C0E00000E0000000E0200000E0400000E0600000E0800000E0A00000E0C00000E0E00040000000400020004000400040006000400080004000A0004000C0004000E00040200000402020004020400040206000402080004020A0004020C0004020E000404000004040200040404000404060004040800040
310
40A0004040C0004040E00040600000406020004060400040606000406080004060A0004060C0004060E00040800000408020004080400040806000408080004080A0004080C0004080E00040A0000040A0200040A0400040A0600040A0800040A0A00040A0C00040A0E00040C0000040C0200040C0400040C0600040C08000
310
40C0A00040C0C00040C0E00040E0000040E0200040E0400040E0600040E0800040E0A00040E0C00040E0E00080000000800020008000400080006000800080008000A0008000C0008000E00080200000802020008020400080206000802080008020A0008020C0008020E00080400000804020008040400080406000804080
310
008040A0008040C0008040E00080600000806020008060400080606000806080008060A0008060C0008060E00080800000808020008080400080806000808080008080A0008080C0008080E00080A0000080A0200080A0400080A0600080A0800080A0A00080A0C00080A0E00080C0000080C0200080C0400080C0600080C0
310
800080C0A00080C0C00080C0E00080E0000080E0200080E0400080E0600080E0800080E0A00080E0C00080E0E000C0000000C0002000C0004000C0006000C0008000C000A000C000C000C000E000C0200000C0202000C0204000C0206000C0208000C020A000C020C000C020E000C0400000C0402000C0404000C0406000C0
310
408000C040A000C040C000C040E000C0600000C0602000C0604000C0606000C0608000C060A000C060C000C060E000C0800000C0802000C0804000C0806000C0808000C080A000C080C000C080E000C0A00000C0A02000C0A04000C0A06000C0A08000C0A0A000C0A0C000C0A0E000C0C00000C0C02000C0C04000C0C06000
310
C0C08000C0C0A000F0FBFF00A4A0A000808080000000FF0000FF000000FFFF00FF000000FF00FF00FFFF0000FFFFFF000000000000000000000000000000000000000000000000000000000000000000000000000000000000000000FFFF00000000FFFF0000000000000000000000000000000000000000000000FF0000FF
310
0000FF0000FF00000000000000000000000000000000000000000000FF0000FF0000FF0000FF00000000000000000000000000000000000000000000FF0000FF0000FF0000FF00000000000000000000000000000000000000000000FF0000FF0000FF0000FF00000000000000000000000000000000000000000000FF0000
310
FF0000FF0000FF00000000000000000000000000000000000000000000FF0000FF0000FF0000FF00000000000000000000000000000000000000000000FF0000FF0000FF0000FF00000000000000000000000000000000000000000000FF0000FF0000FF0000FF00000000000000000000000000000000000000000000FF00
310
00FF0000FF0000FF00000000000000000000000000000000000000000000FFFFFFFF0000FFFFFFFF00000000000000000000000000000000000000000000FFFFFFFF0000FFFFFFFF00000000000000000000000000000000000000000000FFFFFFFF0000FFFFFFFF00000000000000000000000000000000000000000000FF
310
0000FF0000FF0000FF00000000000000000000000000000000000000000000FF0000FF0000FF0000FF00000000000000000000000000000000000000000000FF0000FF0000FF0000FF00000000000000000000000000000000000000000000FF0000FF0000FF0000FF00000000000000000000000000000000000000000000
310
FF0000FF0000FF0000FF00000000000000000000000000000000000000000000FFFFFFFF0000FFFFFFFF00000000000000000000000000000000000000000000FFFFFFFF0000FFFFFFFF00000000000000000000000000000000000000000000FF0000FF0000FF0000FF000000000000000000000000000000000000000000
310
00FF0000FF0000FF0000FF000000000000000000000000000000000000000000FFFF0000FFFFFFFF0000FFFF0000000000000000000000000000000000000000FF00000000000000000000FF0000000000000000000000000000000000000000FF00000000000000000000FF00000000000000000000000000000000000000
310
00FF00000000000000000000FF0000000000000000000000000000000000000000FF00000000000000000000FF0000000000000000000000000000000000000000FFFFFFFFFFFFFFFFFFFFFFFF0000000000000000000000000000000000000000FF00000000000000000000FF000000000000000000000000000000000000
310
0000FFFFFFFFFFFFFFFFFFFFFFFF000000000000000000000000000000000000000000000000000000000000000000000000000000000000
102
{BLKREFS
331
3DF
102
}
1001
AcDbDynamicBlockGUID
1000
{2CC0FFF9-FA1B-40A6-A63C-8B6CE15251BB}
1001
AcDbBlockRepETag
1070
     1
1071
      131
1001
ACAD
1000
DesignCenter Data
1002
{
1070
     1
1070
     4
1002
}
  0
BLOCK_RECORD
  5
3E0
330
1
100
AcDbSymbolTableRecord
100
AcDbBlockTableRecord
  2
2
340
0
310
2800000020000000200000000100080000000000000400000000000000000000000000000000000000000000000080000080000000808000800000008000800080800000C0C0C000C0DCC000F0CAA6000020400000206000002080000020A0000020C0000020E00000400000004020000040400000406000004080000040A0
310
000040C0000040E00000600000006020000060400000606000006080000060A0000060C0000060E00000800000008020000080400000806000008080000080A0000080C0000080E00000A0000000A0200000A0400000A0600000A0800000A0A00000A0C00000A0E00000C0000000C0200000C0400000C0600000C0800000C0
310
A00000C0C00000C0E00000E0000000E0200000E0400000E0600000E0800000E0A00000E0C00000E0E00040000000400020004000400040006000400080004000A0004000C0004000E00040200000402020004020400040206000402080004020A0004020C0004020E000404000004040200040404000404060004040800040
310
40A0004040C0004040E00040600000406020004060400040606000406080004060A0004060C0004060E00040800000408020004080400040806000408080004080A0004080C0004080E00040A0000040A0200040A0400040A0600040A0800040A0A00040A0C00040A0E00040C0000040C0200040C0400040C0600040C08000
310
40C0A00040C0C00040C0E00040E0000040E0200040E0400040E0600040E0800040E0A00040E0C00040E0E00080000000800020008000400080006000800080008000A0008000C0008000E00080200000802020008020400080206000802080008020A0008020C0008020E00080400000804020008040400080406000804080
310
008040A0008040C0008040E00080600000806020008060400080606000806080008060A0008060C0008060E00080800000808020008080400080806000808080008080A0008080C0008080E00080A0000080A0200080A0400080A0600080A0800080A0A00080A0C00080A0E00080C0000080C0200080C0400080C0600080C0
310
800080C0A00080C0C00080C0E00080E0000080E0200080E0400080E0600080E0800080E0A00080E0C00080E0E000C0000000C0002000C0004000C0006000C0008000C000A000C000C000C000E000C0200000C0202000C0204000C0206000C0208000C020A000C020C000C020E000C0400000C0402000C0404000C0406000C0
310
408000C040A000C040C000C040E000C0600000C0602000C0604000C0606000C0608000C060A000C060C000C060E000C0800000C0802000C0804000C0806000C0808000C080A000C080C000C080E000C0A00000C0A02000C0A04000C0A06000C0A08000C0A0A000C0A0C000C0A0E000C0C00000C0C02000C0C04000C0C06000
310
C0C08000C0C0A000F0FBFF00A4A0A000808080000000FF0000FF000000FFFF00FF000000FF00FF00FFFF0000FFFFFF0000000000000000000000000000000000000000000000000000000000000000000000000000000000000000000000FFFFFFFF00000000000000000000000000000000000000000000000000000000FF
310
FFFFFF00000000000000000000000000000000000000000000000000000000FF0000FF00000000000000000000000000000000000000000000000000000000FFFFFFFF00000000000000000000000000000000000000000000000000000000FF0000FF00000000000000000000000000000000000000000000000000000000
310
FF0000FF00000000000000000000000000000000000000000000000000000000FF0000FF00000000000000000000000000000000000000000000000000000000FF0000FF00000000000000000000000000000000000000000000000000000000FF0000FF000000000000000000000000000000000000000000000000000000
310
00FF0000FF00000000000000000000000000000000000000000000000000000000FF0000FF00000000000000000000000000000000000000000000000000000000FFFFFFFF00000000000000000000000000000000000000000000000000000000FFFFFFFF0000000000000000000000000000000000000000000000000000
310
0000FF0000FF00000000000000000000000000000000000000000000000000000000FFFFFFFF00000000000000000000000000000000000000000000000000000000FF0000FF00000000000000000000000000000000000000000000000000000000FF0000FF00000000000000000000000000000000000000000000000000
310
000000FF0000FF00000000000000000000000000000000000000000000000000000000FF0000FF00000000000000000000000000000000000000000000000000000000FF0000FF00000000000000000000000000000000000000000000000000000000FF0000FF000000000000000000000000000000000000000000000000
310
00000000FF0000FF00000000000000000000000000000000000000000000000000000000FFFFFFFF00000000000000000000000000000000000000000000000000000000FF0000FF00000000000000000000000000000000000000000000000000000000FF0000FF0000000000000000000000000000000000000000000000
310
0000000000FF0000FF00000000000000000000000000000000000000000000000000000000FF0000FF000000000000000000000000000000000000000000000000000000FFFF0000FFFF0000000000000000000000000000000000000000000000000000FF00000000FF000000000000000000000000000000000000000000
310
0000000000FFFFFFFFFFFF000000000000000000000000000000000000000000000000000000000000000000000000000000000000000000
102
{BLKREFS
331
40C
102
}
1001
ACAD
1000
DesignCenter Data
1002
{
1070
     1
1070
     4
1002
}
  0
BLOCK_RECORD
  5
40D
102
{ACAD_XDICTIONARY
360
691
102
}
330
1
100
AcDbSymbolTableRecord
100
AcDbBlockTableRecord
  2
3
340
0
310
2800000020000000200000000100080000000000000400000000000000000000000000000000000000000000000080000080000000808000800000008000800080800000C0C0C000C0DCC000F0CAA6000020400000206000002080000020A0000020C0000020E00000400000004020000040400000406000004080000040A0
310
000040C0000040E00000600000006020000060400000606000006080000060A0000060C0000060E00000800000008020000080400000806000008080000080A0000080C0000080E00000A0000000A0200000A0400000A0600000A0800000A0A00000A0C00000A0E00000C0000000C0200000C0400000C0600000C0800000C0
310
A00000C0C00000C0E00000E0000000E0200000E0400000E0600000E0800000E0A00000E0C00000E0E00040000000400020004000400040006000400080004000A0004000C0004000E00040200000402020004020400040206000402080004020A0004020C0004020E000404000004040200040404000404060004040800040
310
40A0004040C0004040E00040600000406020004060400040606000406080004060A0004060C0004060E00040800000408020004080400040806000408080004080A0004080C0004080E00040A0000040A0200040A0400040A0600040A0800040A0A00040A0C00040A0E00040C0000040C0200040C0400040C0600040C08000
310
40C0A00040C0C00040C0E00040E0000040E0200040E0400040E0600040E0800040E0A00040E0C00040E0E00080000000800020008000400080006000800080008000A0008000C0008000E00080200000802020008020400080206000802080008020A0008020C0008020E00080400000804020008040400080406000804080
310
008040A0008040C0008040E00080600000806020008060400080606000806080008060A0008060C0008060E00080800000808020008080400080806000808080008080A0008080C0008080E00080A0000080A0200080A0400080A0600080A0800080A0A00080A0C00080A0E00080C0000080C0200080C0400080C0600080C0
310
800080C0A00080C0C00080C0E00080E0000080E0200080E0400080E0600080E0800080E0A00080E0C00080E0E000C0000000C0002000C0004000C0006000C0008000C000A000C000C000C000E000C0200000C0202000C0204000C0206000C0208000C020A000C020C000C020E000C0400000C0402000C0404000C0406000C0
310
408000C040A000C040C000C040E000C0600000C0602000C0604000C0606000C0608000C060A000C060C000C060E000C0800000C0802000C0804000C0806000C0808000C080A000C080C000C080E000C0A00000C0A02000C0A04000C0A06000C0A08000C0A0A000C0A0C000C0A0E000C0C00000C0C02000C0C04000C0C06000
310
C0C08000C0C0A000F0FBFF00A4A0A000808080000000FF0000FF000000FFFF00FF000000FF00FF00FFFF0000FFFFFF0000000000000000000000000000000000000000000000000000000000000000000000000000000000000000000000000000000000000000000000000000000000000000000000000000000000000000
310
00000000000000000000000000000000000000000000000000000000000000000000000000000000000000000000000000000000000000000000000000000000000000000000000000000000000000000000000000000000000000000000000000000000000000000000000000000000000000000000000000000000000000
310
00000000000000000000000000000000000000000000000000000000000000000000000000000000000000000000000000000000000000000000000000000000000000000000000000000000000000000000000000000000000000000000000000000000000000000000000000000000000000FFFFFFFFFFFFFFFFFFFFFFFF
310
FFFFFFFFFFFFFFFFFFFFFFFFFFFFFFFFFFFF0000FF00000000000000000000000000000000000000000000000000000000FF0000FF00000000000000000000000000000000000000000000000000000000FF0000FF00000000000000000000000000000000000000000000000000000000FF0000FF00000000000000000000
310
000000000000000000000000000000000000FF0000FF00000000000000000000000000000000000000000000000000000000FF0000FF00000000000000000000000000000000000000000000000000000000FF0000FF00000000000000000000000000000000000000000000000000000000FF0000FF000000000000000000
310
00000000000000000000000000000000000000FF0000FF00000000000000000000000000000000000000000000000000000000FF0000FF00000000000000000000000000000000000000000000000000000000FF0000FFFFFFFFFFFFFFFFFFFFFFFFFFFFFFFFFFFFFFFFFFFFFFFFFFFFFFFFFFFF0000000000000000000000
310
00000000000000000000000000000000000000000000000000000000000000000000000000000000000000000000000000000000000000000000000000000000000000000000000000000000000000000000000000000000000000000000000000000000000000000000000000000000000000000000000000000000000000
310
00000000000000000000000000000000000000000000000000000000000000000000000000000000000000000000000000000000000000000000000000000000000000000000000000000000000000000000000000000000000000000000000000000000000000000000000000000000000000000000000000000000000000
310
0000000000000000000000000000000000000000000000000000000000000000000000000000000000000000000000000000000000000000
102
{BLKREFS
331
414
102
}
1001
AcDbDynamicBlockGUID
1000
{1843132A-F5F2-4B1D-8AEF-080AE58BF589}
1001
AcDbBlockRepETag
1070
     1
1071
        5
1001
ACAD
1000
DesignCenter Data
1002
{
1070
     1
1070
     4
1002
}
  0
BLOCK_RECORD
  5
415
102
{ACAD_XDICTIONARY
360
756
102
}
330
1
100
AcDbSymbolTableRecord
100
AcDbBlockTableRecord
  2
4
340
0
310
2800000020000000200000000100080000000000000400000000000000000000000000000000000000000000000080000080000000808000800000008000800080800000C0C0C000C0DCC000F0CAA6000020400000206000002080000020A0000020C0000020E00000400000004020000040400000406000004080000040A0
310
000040C0000040E00000600000006020000060400000606000006080000060A0000060C0000060E00000800000008020000080400000806000008080000080A0000080C0000080E00000A0000000A0200000A0400000A0600000A0800000A0A00000A0C00000A0E00000C0000000C0200000C0400000C0600000C0800000C0
310
A00000C0C00000C0E00000E0000000E0200000E0400000E0600000E0800000E0A00000E0C00000E0E00040000000400020004000400040006000400080004000A0004000C0004000E00040200000402020004020400040206000402080004020A0004020C0004020E000404000004040200040404000404060004040800040
310
40A0004040C0004040E00040600000406020004060400040606000406080004060A0004060C0004060E00040800000408020004080400040806000408080004080A0004080C0004080E00040A0000040A0200040A0400040A0600040A0800040A0A00040A0C00040A0E00040C0000040C0200040C0400040C0600040C08000
310
40C0A00040C0C00040C0E00040E0000040E0200040E0400040E0600040E0800040E0A00040E0C00040E0E00080000000800020008000400080006000800080008000A0008000C0008000E00080200000802020008020400080206000802080008020A0008020C0008020E00080400000804020008040400080406000804080
310
008040A0008040C0008040E00080600000806020008060400080606000806080008060A0008060C0008060E00080800000808020008080400080806000808080008080A0008080C0008080E00080A0000080A0200080A0400080A0600080A0800080A0A00080A0C00080A0E00080C0000080C0200080C0400080C0600080C0
310
800080C0A00080C0C00080C0E00080E0000080E0200080E0400080E0600080E0800080E0A00080E0C00080E0E000C0000000C0002000C0004000C0006000C0008000C000A000C000C000C000E000C0200000C0202000C0204000C0206000C0208000C020A000C020C000C020E000C0400000C0402000C0404000C0406000C0
310
408000C040A000C040C000C040E000C0600000C0602000C0604000C0606000C0608000C060A000C060C000C060E000C0800000C0802000C0804000C0806000C0808000C080A000C080C000C080E000C0A00000C0A02000C0A04000C0A06000C0A08000C0A0A000C0A0C000C0A0E000C0C00000C0C02000C0C04000C0C06000
310
C0C08000C0C0A000F0FBFF00A4A0A000808080000000FF0000FF000000FFFF00FF000000FF00FF00FFFF0000FFFFFF0000000000000000000000000000000000000000000000000000000000000000000000000000000000000000000000FF000000000000000000000000000000000000000000000000000000000000FFFF
310
FF00000000000000000000000000000000000000000000000000000000FFFF00FF000000000000000000000000000000000000000000000000000000FFFFFF00FF0000FFFF0000000000000000000000000000000000000000000000FF00FF00FFFFFFFFFF0000000000000000000000000000000000000000000000FF00FF
310
00FFFFFFFF00FF00000000000000000000000000000000000000000000FF00FF00FFFF00FF00FF00000000000000000000000000000000000000000000FF00FF00FFFF00FF00FF00000000000000000000000000000000000000000000FF00FF00FFFF00FF00FF00000000000000000000000000000000000000000000FFFF
310
FFFFFFFF00FF00FF00000000000000000000000000000000000000000000FFFFFFFFFFFF00FF00FF00000000000000000000000000000000000000000000FF00FF00FFFFFFFF00FF00000000000000000000000000000000000000000000FFFFFF0000FFFFFFFFFF00000000000000000000000000000000000000000000FF
310
00FF0000FFFF00FFFF00000000000000000000000000000000000000000000FF00FF0000FFFF0000FF00000000000000000000000000000000000000000000FF00FFFFFFFFFF0000FF00000000000000000000000000000000000000000000FF00FFFFFFFFFF0000FF00000000000000000000000000000000000000000000
310
FFFFFF00FFFFFFFF00FF000000000000000000000000000000000000000000FFFFFF000000FFFFFFFFFF000000000000000000000000000000000000000000FF00FF000000FFFF00FFFF000000000000000000000000000000000000000000FF00FF00000000FF0000FF000000000000000000000000000000000000000000
310
FF00FFFF000000000000FF000000000000000000000000000000000000000000FF0000FFFFFF0000000000FF0000000000000000000000000000000000000000FFFFFF00FFFFFF00000000FF0000000000000000000000000000000000000000FF0000000000FFFFFF0000FF00000000000000000000000000000000000000
310
0000FFFF00000000FFFFFFFFFF0000000000000000000000000000000000000000000000FFFF00000000FFFFFF00000000000000000000000000000000000000000000000000FF0000000000FF0000000000000000000000000000000000000000000000000000FFFF00FFFF00000000000000000000000000000000000000
310
00000000000000000000FF000000000000000000000000000000000000000000000000000000000000000000000000000000000000000000
102
{BLKREFS
331
499
102
}
1001
AcDbDynamicBlockGUID
1000
{3B7311B1-B84E-4D0F-884F-E77C0528892E}
1001
AcDbBlockRepETag
1070
     1
1071
      248
1001
ACAD
1000
DesignCenter Data
1002
{
1070
     1
1070
     4
1002
}
  0
ENDTAB
  0
ENDSEC
  0
SECTION
  2
BLOCKS
  0
BLOCK
  5
20
330
1F
100
AcDbEntity
  8
0
100
AcDbBlockBegin
  2
*Model_Space
 70
     0
 10
0.0
 20
0.0
 30
0.0
  3
*Model_Space
  1

  0
ENDBLK
  5
21
330
1F
100
AcDbEntity
  8
0
100
AcDbBlockEnd
  0
BLOCK
  5
D4
330
D2
100
AcDbEntity
 67
     1
  8
0
100
AcDbBlockBegin
  2
*Paper_Space
 70
     0
 10
0.0
 20
0.0
 30
0.0
  3
*Paper_Space
  1

  0
ENDBLK
  5
D5
330
D2
100
AcDbEntity
 67
     1
  8
0
100
AcDbBlockEnd
  0
BLOCK
  5
D8
330
D6
100
AcDbEntity
 67
     1
  8
0
100
AcDbBlockBegin
  2
*Paper_Space0
 70
     0
 10
0.0
 20
0.0
 30
0.0
  3
*Paper_Space0
  1

  0
ENDBLK
  5
D9
330
D6
100
AcDbEntity
 67
     1
  8
0
100
AcDbBlockEnd
  0
BLOCK
  5
398
330
397
100
AcDbEntity
  8
0
100
AcDbBlockBegin
  2
1
 70
     0
 10
0.0
 20
0.0
 30
0.0
  3
1
  1

  0
LINE
  5
601
330
397
100
AcDbEntity
  8
0
  6
Continuous
 62
     7
370
    15
100
AcDbLine
 10
2418.315432880437
 20
897.8335547357529
 30
0.0
 11
2438.115432880236
 21
897.8335547357533
 31
0.0
1001
AcDbBlockRepETag
1070
     1
1071
        0
1005
601
  0
LINE
  5
602
330
397
100
AcDbEntity
  8
0
  6
Continuous
 62
     7
370
    15
100
AcDbLine
 10
2418.315432880437
 20
897.8335547357529
 30
0.0
 11
2418.315432880437
 21
896.6835547357518
 31
0.0
1001
AcDbBlockRepETag
1070
     1
1071
        1
1005
602
  0
LINE
  5
603
330
397
100
AcDbEntity
  8
0
  6
Continuous
 62
     7
370
    15
100
AcDbLine
 10
2418.315432880437
 20
896.6835547357518
 30
0.0
 11
2438.115432880236
 21
896.6835547357518
 31
0.0
1001
AcDbBlockRepETag
1070
     1
1071
        2
1005
603
  0
LINE
  5
604
330
397
100
AcDbEntity
  8
0
  6
Continuous
 62
     7
370
    15
100
AcDbLine
 10
2424.415432880278
 20
890.0335547357526
 30
0.0
 11
2426.915432880278
 21
890.0335547357526
 31
0.0
1001
AcDbBlockRepETag
1070
     1
1071
        3
1005
604
  0
LINE
  5
605
330
397
100
AcDbEntity
  8
0
  6
Continuous
 62
     7
370
    15
100
AcDbLine
 10
2426.915432880278
 20
890.0335547357526
 30
0.0
 11
2426.915432880278
 21
888.7335547357526
 31
0.0
1001
AcDbBlockRepETag
1070
     1
1071
        4
1005
605
  0
LINE
  5
606
330
397
100
AcDbEntity
  8
0
  6
Continuous
 62
     7
370
    15
100
AcDbLine
 10
2426.915432880278
 20
888.7335547357526
 30
0.0
 11
2424.415432880278
 21
888.7335547357476
 31
0.0
1001
AcDbBlockRepETag
1070
     1
1071
        5
1005
606
  0
LINE
  5
607
330
397
100
AcDbEntity
  8
0
  6
Continuous
 62
     7
370
    15
100
AcDbLine
 10
2424.415432880278
 20
888.7335547357476
 30
0.0
 11
2424.415432880278
 21
890.0335547357526
 31
0.0
1001
AcDbBlockRepETag
1070
     1
1071
        6
1005
607
  0
LINE
  5
608
330
397
100
AcDbEntity
  8
0
  6
Continuous
 62
     7
370
    15
100
AcDbLine
 10
2419.315432880278
 20
890.0335547357526
 30
0.0
 11
2421.815432880278
 21
890.0335547357526
 31
0.0
1001
AcDbBlockRepETag
1070
     1
1071
        7
1005
608
  0
LINE
  5
609
330
397
100
AcDbEntity
  8
0
  6
Continuous
 62
     7
370
    15
100
AcDbLine
 10
2421.815432880278
 20
888.7335547357526
 30
0.0
 11
2419.315432880278
 21
888.7335547357475
 31
0.0
1001
AcDbBlockRepETag
1070
     1
1071
        8
1005
609
  0
LINE
  5
60A
330
397
100
AcDbEntity
  8
0
  6
Continuous
 62
     7
370
    15
100
AcDbLine
 10
2419.315432880278
 20
888.7335547357475
 30
0.0
 11
2419.315432880278
 21
890.0335547357526
 31
0.0
1001
AcDbBlockRepETag
1070
     1
1071
        9
1005
60A
  0
LINE
  5
60B
330
397
100
AcDbEntity
  8
0
  6
Continuous
 62
     7
370
    15
100
AcDbLine
 10
2421.815432880278
 20
890.0335547357526
 30
0.0
 11
2421.815432880278
 21
888.7335547357526
 31
0.0
1001
AcDbBlockRepETag
1070
     1
1071
       10
1005
60B
  0
LINE
  5
60C
330
397
100
AcDbEntity
  8
0
  6
Continuous
 62
     7
370
    15
100
AcDbLine
 10
2424.215432880397
 20
885.3355547357512
 30
0.0
 11
2424.215432880397
 21
883.9335547357519
 31
0.0
1001
AcDbBlockRepETag
1070
     1
1071
       11
1005
60C
  0
LINE
  5
60D
330
397
100
AcDbEntity
  8
0
  6
Continuous
 62
     7
370
    15
100
AcDbLine
 10
2424.015432880396
 20
885.5355547357511
 30
0.0
 11
2424.215432880397
 21
885.3355547357512
 31
0.0
1001
AcDbBlockRepETag
1070
     1
1071
       12
1005
60D
  0
LINE
  5
60E
330
397
100
AcDbEntity
  8
0
  6
Continuous
 62
     7
370
    15
100
AcDbLine
 10
2424.015432880396
 20
892.1355547357531
 30
0.0
 11
2424.015432880396
 21
885.5355547357511
 31
0.0
1001
AcDbBlockRepETag
1070
     1
1071
       13
1005
60E
  0
LINE
  5
60F
330
397
100
AcDbEntity
  8
0
  6
Continuous
 62
     7
370
    15
100
AcDbLine
 10
2422.215432880278
 20
892.1355547357531
 30
0.0
 11
2424.015432880396
 21
892.1355547357531
 31
0.0
1001
AcDbBlockRepETag
1070
     1
1071
       14
1005
60F
  0
LINE
  5
610
330
397
100
AcDbEntity
  8
0
  6
Continuous
 62
     7
370
    15
100
AcDbLine
 10
2422.215432880278
 20
885.5355547357511
 30
0.0
 11
2422.215432880278
 21
892.1355547357531
 31
0.0
1001
AcDbBlockRepETag
1070
     1
1071
       15
1005
610
  0
LINE
  5
611
330
397
100
AcDbEntity
  8
0
  6
Continuous
 62
     7
370
    15
100
AcDbLine
 10
2422.015432880278
 20
885.3355547357512
 30
0.0
 11
2422.215432880278
 21
885.5355547357511
 31
0.0
1001
AcDbBlockRepETag
1070
     1
1071
       16
1005
611
  0
LINE
  5
612
330
397
100
AcDbEntity
  8
0
  6
Continuous
 62
     7
370
    15
100
AcDbLine
 10
2422.015432880278
 20
883.9335547357519
 30
0.0
 11
2422.015432880278
 21
885.3355547357512
 31
0.0
1001
AcDbBlockRepETag
1070
     1
1071
       17
1005
612
  0
LINE
  5
613
330
397
100
AcDbEntity
  8
0
  6
Continuous
 62
     7
370
    15
100
AcDbLine
 10
2419.115432880409
 20
883.9335547357521
 30
0.0
 11
2422.015432880278
 21
883.9335547357519
 31
0.0
1001
AcDbBlockRepETag
1070
     1
1071
       18
1005
613
  0
LINE
  5
614
330
397
100
AcDbEntity
  8
0
  6
Continuous
 62
     7
370
    15
100
AcDbLine
 10
2419.115432880409
 20
883.9335547357521
 30
0.0
 11
2419.115432880409
 21
885.3355547357448
 31
0.0
1001
AcDbBlockRepETag
1070
     1
1071
       19
1005
614
  0
LINE
  5
615
330
397
100
AcDbEntity
  8
0
  6
Continuous
 62
     7
370
    15
100
AcDbLine
 10
2419.115432880409
 20
885.3355547357448
 30
0.0
 11
2418.915432880397
 21
885.535554735757
 31
0.0
1001
AcDbBlockRepETag
1070
     1
1071
       20
1005
615
  0
LINE
  5
616
330
397
100
AcDbEntity
  8
0
  6
Continuous
 62
     7
370
    15
100
AcDbLine
 10
2418.915432880397
 20
892.1355547357448
 30
0.0
 11
2418.915432880397
 21
885.535554735757
 31
0.0
1001
AcDbBlockRepETag
1070
     1
1071
       21
1005
616
  0
LINE
  5
617
330
397
100
AcDbEntity
  8
0
  6
Continuous
 62
     7
370
    15
100
AcDbLine
 10
2418.915432880397
 20
892.1355547357448
 30
0.0
 11
2418.315432880437
 21
892.1355547357421
 31
0.0
1001
AcDbBlockRepETag
1070
     1
1071
       22
1005
617
  0
LINE
  5
618
330
397
100
AcDbEntity
  8
0
  6
Continuous
 62
     7
370
    15
100
AcDbLine
 10
2429.115432880396
 20
892.1355547357443
 30
0.0
 11
2427.315432880278
 21
892.1355547357462
 31
0.0
1001
AcDbBlockRepETag
1070
     1
1071
       23
1005
618
  0
LINE
  5
619
330
397
100
AcDbEntity
  8
0
  6
Continuous
 62
     7
370
    15
100
AcDbLine
 10
2427.315432880277
 20
885.5355547357566
 30
0.0
 11
2427.315432880278
 21
892.1355547357448
 31
0.0
1001
AcDbBlockRepETag
1070
     1
1071
       24
1005
619
  0
LINE
  5
61A
330
397
100
AcDbEntity
  8
0
  6
Continuous
 62
     7
370
    15
100
AcDbLine
 10
2427.315432880277
 20
885.5355547357566
 30
0.0
 11
2427.115432880265
 21
885.3355547357448
 31
0.0
1001
AcDbBlockRepETag
1070
     1
1071
       25
1005
61A
  0
LINE
  5
61B
330
397
100
AcDbEntity
  8
0
  6
Continuous
 62
     7
370
    15
100
AcDbLine
 10
2427.115432880265
 20
885.3355547357448
 30
0.0
 11
2427.115432880265
 21
883.9335547357519
 31
0.0
1001
AcDbBlockRepETag
1070
     1
1071
       26
1005
61B
  0
LINE
  5
61C
330
397
100
AcDbEntity
  8
0
  6
Continuous
 62
     7
370
    15
100
AcDbLine
 10
2424.215432880397
 20
883.9335547357519
 30
0.0
 11
2427.115432880265
 21
883.9335547357519
 31
0.0
1001
AcDbBlockRepETag
1070
     1
1071
       27
1005
61C
  0
LINE
  5
61D
330
397
100
AcDbEntity
  8
0
  6
Continuous
 62
     7
370
    15
100
AcDbLine
 10
2418.315432880437
 20
896.6835547357518
 30
0.0
 11
2418.315432880437
 21
892.1355547357421
 31
0.0
1001
AcDbBlockRepETag
1070
     1
1071
       28
1005
61D
  0
LINE
  5
61E
330
397
100
AcDbEntity
  8
0
  6
Continuous
 62
     7
370
    15
100
AcDbLine
 10
2424.415432880396
 20
883.7335547357522
 30
0.0
 11
2424.215432880397
 21
883.9335547357519
 31
0.0
1001
AcDbBlockRepETag
1070
     1
1071
       29
1005
61E
  0
LINE
  5
61F
330
397
100
AcDbEntity
  8
0
  6
Continuous
 62
     7
370
    15
100
AcDbLine
 10
2426.915432880265
 20
883.7335547357522
 30
0.0
 11
2427.115432880265
 21
883.9335547357519
 31
0.0
1001
AcDbBlockRepETag
1070
     1
1071
       30
1005
61F
  0
LINE
  5
620
330
397
100
AcDbEntity
  8
0
  6
Continuous
 62
     7
370
    15
100
AcDbLine
 10
2426.915432880265
 20
883.7335547357522
 30
0.0
 11
2424.415432880396
 21
883.7335547357522
 31
0.0
1001
AcDbBlockRepETag
1070
     1
1071
       31
1005
620
  0
LINE
  5
621
330
397
100
AcDbEntity
  8
0
  6
Continuous
 62
     7
370
    15
100
AcDbLine
 10
2422.015432880278
 20
883.9335547357519
 30
0.0
 11
2421.815432880279
 21
883.7335547357522
 31
0.0
1001
AcDbBlockRepETag
1070
     1
1071
       32
1005
621
  0
LINE
  5
622
330
397
100
AcDbEntity
  8
0
  6
Continuous
 62
     7
370
    15
100
AcDbLine
 10
2421.815432880279
 20
883.7335547357522
 30
0.0
 11
2419.315432880408
 21
883.7335547357522
 31
0.0
1001
AcDbBlockRepETag
1070
     1
1071
       33
1005
622
  0
LINE
  5
623
330
397
100
AcDbEntity
  8
0
  6
Continuous
 62
     7
370
    15
100
AcDbLine
 10
2419.115432880409
 20
883.9335547357521
 30
0.0
 11
2419.315432880408
 21
883.7335547357522
 31
0.0
1001
AcDbBlockRepETag
1070
     1
1071
       34
1005
623
  0
LINE
  5
624
330
397
100
AcDbEntity
  8
0
  6
Continuous
 62
     7
370
    15
100
AcDbLine
 10
2426.534950180544
 20
874.451304910027
 30
0.0
 11
2426.81543288017
 21
876.0420013451954
 31
0.0
1001
AcDbBlockRepETag
1070
     1
1071
       35
1005
624
  0
ARC
  5
625
330
397
100
AcDbEntity
  8
0
  6
Continuous
 62
     7
370
    15
100
AcDbCircle
 10
2426.170571311929
 20
874.5155547357612
 30
0.0
 40
0.3699999999999761
100
AcDbArc
 50
270.0
 51
350.00000000039
1001
AcDbBlockRepETag
1070
     1
1071
       36
1005
625
  0
LINE
  5
626
330
397
100
AcDbEntity
  8
0
  6
Continuous
 62
     7
370
    15
100
AcDbLine
 10
2425.160294448768
 20
874.1455547357613
 30
0.0
 11
2426.170571311929
 21
874.1455547357613
 31
0.0
1001
AcDbBlockRepETag
1070
     1
1071
       37
1005
626
  0
ARC
  5
627
330
397
100
AcDbEntity
  8
0
  6
Continuous
 62
     7
370
    15
100
AcDbCircle
 10
2425.160294448768
 20
874.5155547357612
 30
0.0
 40
0.369999999999988
100
AcDbArc
 50
190.0000000000103
 51
270.0
1001
AcDbBlockRepETag
1070
     1
1071
       38
1005
627
  0
LINE
  5
628
330
397
100
AcDbEntity
  8
0
  6
Continuous
 62
     7
370
    15
100
AcDbLine
 10
2426.815432880174
 20
882.4368267046683
 30
0.0
 11
2424.515432880515
 21
882.4368267046683
 31
0.0
1001
AcDbBlockRepETag
1070
     1
1071
       39
1005
628
  0
LINE
  5
629
330
397
100
AcDbEntity
  8
0
  6
Continuous
 62
     7
370
    15
100
AcDbLine
 10
2426.81543288017
 20
876.0420013451954
 30
0.0
 11
2426.815432880174
 21
882.4368267046683
 31
0.0
1001
AcDbBlockRepETag
1070
     1
1071
       40
1005
629
  0
LINE
  5
62A
330
397
100
AcDbEntity
  8
0
  6
Continuous
 62
     7
370
    15
100
AcDbLine
 10
2424.515432880515
 20
876.0420013451922
 30
0.0
 11
2424.795915580153
 21
874.4513049100245
 31
0.0
1001
AcDbBlockRepETag
1070
     1
1071
       41
1005
62A
  0
LINE
  5
62B
330
397
100
AcDbEntity
  8
0
  6
Continuous
 62
     7
370
    15
100
AcDbLine
 10
2424.515432880515
 20
882.4368267046683
 30
0.0
 11
2424.515432880515
 21
876.0420013451922
 31
0.0
1001
AcDbBlockRepETag
1070
     1
1071
       42
1005
62B
  0
LINE
  5
62C
330
397
100
AcDbEntity
  8
0
  6
Continuous
 62
     7
370
    15
100
AcDbLine
 10
2421.434950180544
 20
874.451304910027
 30
0.0
 11
2421.71543288017
 21
876.0420013451954
 31
0.0
1001
AcDbBlockRepETag
1070
     1
1071
       43
1005
62C
  0
ARC
  5
62D
330
397
100
AcDbEntity
  8
0
  6
Continuous
 62
     7
370
    15
100
AcDbCircle
 10
2421.07057131193
 20
874.5155547357612
 30
0.0
 40
0.3699999999999966
100
AcDbArc
 50
270.0
 51
350.00000000039
1001
AcDbBlockRepETag
1070
     1
1071
       44
1005
62D
  0
LINE
  5
62E
330
397
100
AcDbEntity
  8
0
  6
Continuous
 62
     7
370
    15
100
AcDbLine
 10
2420.060294448767
 20
874.1455547357613
 30
0.0
 11
2421.07057131193
 21
874.1455547357613
 31
0.0
1001
AcDbBlockRepETag
1070
     1
1071
       45
1005
62E
  0
ARC
  5
62F
330
397
100
AcDbEntity
  8
0
  6
Continuous
 62
     7
370
    15
100
AcDbCircle
 10
2420.060294448767
 20
874.5155547357612
 30
0.0
 40
0.370000000000016
100
AcDbArc
 50
190.0000000000103
 51
270.0
1001
AcDbBlockRepETag
1070
     1
1071
       46
1005
62F
  0
LINE
  5
630
330
397
100
AcDbEntity
  8
0
  6
Continuous
 62
     7
370
    15
100
AcDbLine
 10
2421.715432880175
 20
882.4368267046683
 30
0.0
 11
2419.415432880516
 21
882.4368267046683
 31
0.0
1001
AcDbBlockRepETag
1070
     1
1071
       47
1005
630
  0
LINE
  5
631
330
397
100
AcDbEntity
  8
0
  6
Continuous
 62
     7
370
    15
100
AcDbLine
 10
2421.71543288017
 20
876.0420013451954
 30
0.0
 11
2421.715432880175
 21
882.4368267046683
 31
0.0
1001
AcDbBlockRepETag
1070
     1
1071
       48
1005
631
  0
LINE
  5
632
330
397
100
AcDbEntity
  8
0
  6
Continuous
 62
     7
370
    15
100
AcDbLine
 10
2419.415432880516
 20
882.4368267046683
 30
0.0
 11
2419.415432880516
 21
876.0420013451922
 31
0.0
1001
AcDbBlockRepETag
1070
     1
1071
       49
1005
632
  0
LINE
  5
633
330
397
100
AcDbEntity
  8
0
  6
Continuous
 62
     7
370
    15
100
AcDbLine
 10
2419.415432880516
 20
876.0420013451922
 30
0.0
 11
2419.695915580152
 21
874.4513049100245
 31
0.0
1001
AcDbBlockRepETag
1070
     1
1071
       50
1005
633
  0
LINE
  5
634
330
397
100
AcDbEntity
  8
0
  6
Continuous
 62
     7
370
    15
100
AcDbLine
 10
2421.715432880175
 20
882.6868267046686
 30
0.0
 11
2419.415432880516
 21
882.6868267046686
 31
0.0
1001
AcDbBlockRepETag
1070
     1
1071
       51
1005
634
  0
LINE
  5
635
330
397
100
AcDbEntity
  8
0
  6
Continuous
 62
     7
370
    15
100
AcDbLine
 10
2421.715432880175
 20
882.4368267046683
 30
0.0
 11
2421.715432880175
 21
882.6868267046686
 31
0.0
1001
AcDbBlockRepETag
1070
     1
1071
       52
1005
635
  0
LINE
  5
636
330
397
100
AcDbEntity
  8
0
  6
Continuous
 62
     7
370
    15
100
AcDbLine
 10
2419.415432880516
 20
882.6868267046686
 30
0.0
 11
2419.415432880516
 21
882.4368267046683
 31
0.0
1001
AcDbBlockRepETag
1070
     1
1071
       53
1005
636
  0
LINE
  5
637
330
397
100
AcDbEntity
  8
0
  6
Continuous
 62
     7
370
    15
100
AcDbLine
 10
2426.815432880176
 20
882.6868267046686
 30
0.0
 11
2424.515432880515
 21
882.6868267046686
 31
0.0
1001
AcDbBlockRepETag
1070
     1
1071
       54
1005
637
  0
LINE
  5
638
330
397
100
AcDbEntity
  8
0
  6
Continuous
 62
     7
370
    15
100
AcDbLine
 10
2426.815432880174
 20
882.4368267046683
 30
0.0
 11
2426.815432880176
 21
882.6868267046686
 31
0.0
1001
AcDbBlockRepETag
1070
     1
1071
       55
1005
638
  0
LINE
  5
639
330
397
100
AcDbEntity
  8
0
  6
Continuous
 62
     7
370
    15
100
AcDbLine
 10
2424.515432880515
 20
882.6868267046686
 30
0.0
 11
2424.515432880515
 21
882.4368267046683
 31
0.0
1001
AcDbBlockRepETag
1070
     1
1071
       56
1005
639
  0
LINE
  5
63A
330
397
100
AcDbEntity
  8
0
  6
Continuous
 62
     7
370
    15
100
AcDbLine
 10
2421.715432880145
 20
882.9368267046683
 30
0.0
 11
2419.415432880516
 21
882.9368267046683
 31
0.0
1001
AcDbBlockRepETag
1070
     1
1071
       57
1005
63A
  0
LINE
  5
63B
330
397
100
AcDbEntity
  8
0
  6
Continuous
 62
     7
370
    15
100
AcDbLine
 10
2421.715432880167
 20
882.6868267046686
 30
0.0
 11
2421.715432880145
 21
882.9368267046683
 31
0.0
1001
AcDbBlockRepETag
1070
     1
1071
       58
1005
63B
  0
LINE
  5
63C
330
397
100
AcDbEntity
  8
0
  6
Continuous
 62
     7
370
    15
100
AcDbLine
 10
2419.415432880516
 20
882.9368267046683
 30
0.0
 11
2419.415432880516
 21
882.6868267046684
 31
0.0
1001
AcDbBlockRepETag
1070
     1
1071
       59
1005
63C
  0
LINE
  5
63D
330
397
100
AcDbEntity
  8
0
  6
Continuous
 62
     7
370
    15
100
AcDbLine
 10
2426.815432880151
 20
882.9368267046683
 30
0.0
 11
2424.515432880515
 21
882.9368267046683
 31
0.0
1001
AcDbBlockRepETag
1070
     1
1071
       60
1005
63D
  0
LINE
  5
63E
330
397
100
AcDbEntity
  8
0
  6
Continuous
 62
     7
370
    15
100
AcDbLine
 10
2426.815432880167
 20
882.6868267046686
 30
0.0
 11
2426.815432880151
 21
882.9368267046683
 31
0.0
1001
AcDbBlockRepETag
1070
     1
1071
       61
1005
63E
  0
LINE
  5
63F
330
397
100
AcDbEntity
  8
0
  6
Continuous
 62
     7
370
    15
100
AcDbLine
 10
2424.515432880515
 20
882.9368267046683
 30
0.0
 11
2424.515432880515
 21
882.6868267046684
 31
0.0
1001
AcDbBlockRepETag
1070
     1
1071
       62
1005
63F
  0
LINE
  5
640
330
397
100
AcDbEntity
  8
0
  6
Continuous
 62
     7
370
    15
100
AcDbLine
 10
2426.815432880176
 20
883.7335547357522
 30
0.0
 11
2426.815432880151
 21
882.9368267046683
 31
0.0
1001
AcDbBlockRepETag
1070
     1
1071
       63
1005
640
  0
LINE
  5
641
330
397
100
AcDbEntity
  8
0
  6
Continuous
 62
     7
370
    15
100
AcDbLine
 10
2424.515432880515
 20
883.7335547357522
 30
0.0
 11
2424.515432880515
 21
882.9368267046683
 31
0.0
1001
AcDbBlockRepETag
1070
     1
1071
       64
1005
641
  0
LINE
  5
642
330
397
100
AcDbEntity
  8
0
  6
Continuous
 62
     7
370
    15
100
AcDbLine
 10
2421.715432880133
 20
883.7335547357522
 30
0.0
 11
2421.715432880145
 21
882.9368267046683
 31
0.0
1001
AcDbBlockRepETag
1070
     1
1071
       65
1005
642
  0
LINE
  5
643
330
397
100
AcDbEntity
  8
0
  6
Continuous
 62
     7
370
    15
100
AcDbLine
 10
2419.415432880516
 20
882.9368267046683
 30
0.0
 11
2419.415432880516
 21
883.7335547357522
 31
0.0
1001
AcDbBlockRepETag
1070
     1
1071
       66
1005
643
  0
LINE
  5
645
330
397
100
AcDbEntity
  8
0
  6
Continuous
 62
     7
370
    15
100
AcDbLine
 10
2429.515432880279
 20
890.0335547357526
 30
0.0
 11
2432.015432880278
 21
890.0335547357526
 31
0.0
1001
AcDbBlockRepETag
1070
     1
1071
       68
1005
645
  0
LINE
  5
646
330
397
100
AcDbEntity
  8
0
  6
Continuous
 62
     7
370
    15
100
AcDbLine
 10
2432.015432880278
 20
890.0335547357526
 30
0.0
 11
2432.015432880278
 21
888.7335547357526
 31
0.0
1001
AcDbBlockRepETag
1070
     1
1071
       69
1005
646
  0
LINE
  5
647
330
397
100
AcDbEntity
  8
0
  6
Continuous
 62
     7
370
    15
100
AcDbLine
 10
2432.015432880278
 20
888.7335547357526
 30
0.0
 11
2429.515432880279
 21
888.7335547357476
 31
0.0
1001
AcDbBlockRepETag
1070
     1
1071
       70
1005
647
  0
LINE
  5
648
330
397
100
AcDbEntity
  8
0
  6
Continuous
 62
     7
370
    15
100
AcDbLine
 10
2429.515432880279
 20
888.7335547357476
 30
0.0
 11
2429.515432880279
 21
890.0335547357526
 31
0.0
1001
AcDbBlockRepETag
1070
     1
1071
       71
1005
648
  0
LINE
  5
649
330
397
100
AcDbEntity
  8
0
  6
Continuous
 62
     7
370
    15
100
AcDbLine
 10
2429.315432880396
 20
885.3355547357512
 30
0.0
 11
2429.315432880396
 21
883.9335547357519
 31
0.0
1001
AcDbBlockRepETag
1070
     1
1071
       72
1005
649
  0
LINE
  5
64A
330
397
100
AcDbEntity
  8
0
  6
Continuous
 62
     7
370
    15
100
AcDbLine
 10
2429.115432880396
 20
885.5355547357511
 30
0.0
 11
2429.315432880396
 21
885.3355547357512
 31
0.0
1001
AcDbBlockRepETag
1070
     1
1071
       73
1005
64A
  0
LINE
  5
64B
330
397
100
AcDbEntity
  8
0
  6
Continuous
 62
     7
370
    15
100
AcDbLine
 10
2429.115432880396
 20
892.1355547357531
 30
0.0
 11
2429.115432880396
 21
885.5355547357511
 31
0.0
1001
AcDbBlockRepETag
1070
     1
1071
       74
1005
64B
  0
LINE
  5
64C
330
397
100
AcDbEntity
  8
0
  6
Continuous
 62
     7
370
    15
100
AcDbLine
 10
2434.215432880395
 20
892.1355547357448
 30
0.0
 11
2432.415432880278
 21
892.1355547357451
 31
0.0
1001
AcDbBlockRepETag
1070
     1
1071
       75
1005
64C
  0
LINE
  5
64D
330
397
100
AcDbEntity
  8
0
  6
Continuous
 62
     7
370
    15
100
AcDbLine
 10
2432.415432880278
 20
885.5355547357566
 30
0.0
 11
2432.415432880278
 21
892.1355547357448
 31
0.0
1001
AcDbBlockRepETag
1070
     1
1071
       76
1005
64D
  0
LINE
  5
64E
330
397
100
AcDbEntity
  8
0
  6
Continuous
 62
     7
370
    15
100
AcDbLine
 10
2432.415432880278
 20
885.5355547357566
 30
0.0
 11
2432.215432880265
 21
885.3355547357448
 31
0.0
1001
AcDbBlockRepETag
1070
     1
1071
       77
1005
64E
  0
LINE
  5
64F
330
397
100
AcDbEntity
  8
0
  6
Continuous
 62
     7
370
    15
100
AcDbLine
 10
2432.215432880265
 20
885.3355547357448
 30
0.0
 11
2432.215432880265
 21
883.9335547357519
 31
0.0
1001
AcDbBlockRepETag
1070
     1
1071
       78
1005
64F
  0
LINE
  5
650
330
397
100
AcDbEntity
  8
0
  6
Continuous
 62
     7
370
    15
100
AcDbLine
 10
2429.315432880396
 20
883.9335547357519
 30
0.0
 11
2432.215432880265
 21
883.9335547357519
 31
0.0
1001
AcDbBlockRepETag
1070
     1
1071
       79
1005
650
  0
LINE
  5
652
330
397
100
AcDbEntity
  8
0
  6
Continuous
 62
     7
370
    15
100
AcDbLine
 10
2429.515432880396
 20
883.7335547357522
 30
0.0
 11
2429.315432880396
 21
883.9335547357519
 31
0.0
1001
AcDbBlockRepETag
1070
     1
1071
       81
1005
652
  0
LINE
  5
653
330
397
100
AcDbEntity
  8
0
  6
Continuous
 62
     7
370
    15
100
AcDbLine
 10
2432.015432880265
 20
883.7335547357522
 30
0.0
 11
2432.215432880265
 21
883.9335547357519
 31
0.0
1001
AcDbBlockRepETag
1070
     1
1071
       82
1005
653
  0
LINE
  5
654
330
397
100
AcDbEntity
  8
0
  6
Continuous
 62
     7
370
    15
100
AcDbLine
 10
2432.015432880265
 20
883.7335547357522
 30
0.0
 11
2429.515432880396
 21
883.7335547357522
 31
0.0
1001
AcDbBlockRepETag
1070
     1
1071
       83
1005
654
  0
LINE
  5
655
330
397
100
AcDbEntity
  8
0
  6
Continuous
 62
     7
370
    15
100
AcDbLine
 10
2431.634950180544
 20
874.451304910027
 30
0.0
 11
2431.91543288017
 21
876.0420013451954
 31
0.0
1001
AcDbBlockRepETag
1070
     1
1071
       84
1005
655
  0
ARC
  5
656
330
397
100
AcDbEntity
  8
0
  6
Continuous
 62
     7
370
    15
100
AcDbCircle
 10
2431.270571311929
 20
874.5155547357612
 30
0.0
 40
0.3699999999999761
100
AcDbArc
 50
270.0
 51
350.00000000039
1001
AcDbBlockRepETag
1070
     1
1071
       85
1005
656
  0
LINE
  5
657
330
397
100
AcDbEntity
  8
0
  6
Continuous
 62
     7
370
    15
100
AcDbLine
 10
2430.260294448767
 20
874.1455547357613
 30
0.0
 11
2431.270571311929
 21
874.1455547357613
 31
0.0
1001
AcDbBlockRepETag
1070
     1
1071
       86
1005
657
  0
ARC
  5
658
330
397
100
AcDbEntity
  8
0
  6
Continuous
 62
     7
370
    15
100
AcDbCircle
 10
2430.260294448767
 20
874.5155547357612
 30
0.0
 40
0.369999999999988
100
AcDbArc
 50
190.0000000000103
 51
270.0
1001
AcDbBlockRepETag
1070
     1
1071
       87
1005
658
  0
LINE
  5
659
330
397
100
AcDbEntity
  8
0
  6
Continuous
 62
     7
370
    15
100
AcDbLine
 10
2431.915432880174
 20
882.4368267046683
 30
0.0
 11
2429.615432880515
 21
882.4368267046683
 31
0.0
1001
AcDbBlockRepETag
1070
     1
1071
       88
1005
659
  0
LINE
  5
65A
330
397
100
AcDbEntity
  8
0
  6
Continuous
 62
     7
370
    15
100
AcDbLine
 10
2431.91543288017
 20
876.0420013451954
 30
0.0
 11
2431.915432880174
 21
882.4368267046683
 31
0.0
1001
AcDbBlockRepETag
1070
     1
1071
       89
1005
65A
  0
LINE
  5
65B
330
397
100
AcDbEntity
  8
0
  6
Continuous
 62
     7
370
    15
100
AcDbLine
 10
2429.615432880515
 20
876.0420013451922
 30
0.0
 11
2429.895915580153
 21
874.4513049100245
 31
0.0
1001
AcDbBlockRepETag
1070
     1
1071
       90
1005
65B
  0
LINE
  5
65C
330
397
100
AcDbEntity
  8
0
  6
Continuous
 62
     7
370
    15
100
AcDbLine
 10
2429.615432880515
 20
882.4368267046683
 30
0.0
 11
2429.615432880515
 21
876.0420013451922
 31
0.0
1001
AcDbBlockRepETag
1070
     1
1071
       91
1005
65C
  0
LINE
  5
65D
330
397
100
AcDbEntity
  8
0
  6
Continuous
 62
     7
370
    15
100
AcDbLine
 10
2431.915432880175
 20
882.6868267046686
 30
0.0
 11
2429.615432880515
 21
882.6868267046686
 31
0.0
1001
AcDbBlockRepETag
1070
     1
1071
       92
1005
65D
  0
LINE
  5
65E
330
397
100
AcDbEntity
  8
0
  6
Continuous
 62
     7
370
    15
100
AcDbLine
 10
2431.915432880174
 20
882.4368267046683
 30
0.0
 11
2431.915432880175
 21
882.6868267046686
 31
0.0
1001
AcDbBlockRepETag
1070
     1
1071
       93
1005
65E
  0
LINE
  5
65F
330
397
100
AcDbEntity
  8
0
  6
Continuous
 62
     7
370
    15
100
AcDbLine
 10
2429.615432880515
 20
882.6868267046686
 30
0.0
 11
2429.615432880515
 21
882.4368267046683
 31
0.0
1001
AcDbBlockRepETag
1070
     1
1071
       94
1005
65F
  0
LINE
  5
660
330
397
100
AcDbEntity
  8
0
  6
Continuous
 62
     7
370
    15
100
AcDbLine
 10
2431.915432880151
 20
882.9368267046683
 30
0.0
 11
2429.615432880515
 21
882.9368267046683
 31
0.0
1001
AcDbBlockRepETag
1070
     1
1071
       95
1005
660
  0
LINE
  5
661
330
397
100
AcDbEntity
  8
0
  6
Continuous
 62
     7
370
    15
100
AcDbLine
 10
2431.915432880167
 20
882.6868267046686
 30
0.0
 11
2431.915432880151
 21
882.9368267046683
 31
0.0
1001
AcDbBlockRepETag
1070
     1
1071
       96
1005
661
  0
LINE
  5
662
330
397
100
AcDbEntity
  8
0
  6
Continuous
 62
     7
370
    15
100
AcDbLine
 10
2429.615432880515
 20
882.9368267046683
 30
0.0
 11
2429.615432880515
 21
882.6868267046684
 31
0.0
1001
AcDbBlockRepETag
1070
     1
1071
       97
1005
662
  0
LINE
  5
663
330
397
100
AcDbEntity
  8
0
  6
Continuous
 62
     7
370
    15
100
AcDbLine
 10
2431.915432880176
 20
883.7335547357522
 30
0.0
 11
2431.915432880151
 21
882.9368267046683
 31
0.0
1001
AcDbBlockRepETag
1070
     1
1071
       98
1005
663
  0
LINE
  5
664
330
397
100
AcDbEntity
  8
0
  6
Continuous
 62
     7
370
    15
100
AcDbLine
 10
2429.615432880515
 20
883.7335547357522
 30
0.0
 11
2429.615432880515
 21
882.9368267046683
 31
0.0
1001
AcDbBlockRepETag
1070
     1
1071
       99
1005
664
  0
LINE
  5
668
330
397
100
AcDbEntity
  8
0
  6
Continuous
 62
     7
370
    15
100
AcDbLine
 10
2438.115432880236
 20
897.8335547357529
 30
0.0
 11
2438.115432880236
 21
896.6835547357518
 31
0.0
1001
AcDbBlockRepETag
1070
     1
1071
       67
1005
644
  0
LINE
  5
669
330
397
100
AcDbEntity
  8
0
  6
Continuous
 62
     7
370
    15
100
AcDbLine
 10
2434.615432880278
 20
890.0335547357526
 30
0.0
 11
2437.115432880278
 21
890.0335547357526
 31
0.0
1001
AcDbBlockRepETag
1070
     1
1071
      100
1005
669
  0
LINE
  5
66A
330
397
100
AcDbEntity
  8
0
  6
Continuous
 62
     7
370
    15
100
AcDbLine
 10
2437.115432880278
 20
890.0335547357526
 30
0.0
 11
2437.115432880278
 21
888.7335547357526
 31
0.0
1001
AcDbBlockRepETag
1070
     1
1071
      101
1005
66A
  0
LINE
  5
66B
330
397
100
AcDbEntity
  8
0
  6
Continuous
 62
     7
370
    15
100
AcDbLine
 10
2437.115432880278
 20
888.7335547357526
 30
0.0
 11
2434.615432880278
 21
888.7335547357476
 31
0.0
1001
AcDbBlockRepETag
1070
     1
1071
      102
1005
66B
  0
LINE
  5
66C
330
397
100
AcDbEntity
  8
0
  6
Continuous
 62
     7
370
    15
100
AcDbLine
 10
2434.615432880278
 20
888.7335547357476
 30
0.0
 11
2434.615432880278
 21
890.0335547357526
 31
0.0
1001
AcDbBlockRepETag
1070
     1
1071
      103
1005
66C
  0
LINE
  5
66D
330
397
100
AcDbEntity
  8
0
  6
Continuous
 62
     7
370
    15
100
AcDbLine
 10
2434.415432880396
 20
885.3355547357512
 30
0.0
 11
2434.415432880396
 21
883.9335547357519
 31
0.0
1001
AcDbBlockRepETag
1070
     1
1071
      104
1005
66D
  0
LINE
  5
66E
330
397
100
AcDbEntity
  8
0
  6
Continuous
 62
     7
370
    15
100
AcDbLine
 10
2434.215432880395
 20
885.5355547357511
 30
0.0
 11
2434.415432880396
 21
885.3355547357512
 31
0.0
1001
AcDbBlockRepETag
1070
     1
1071
      105
1005
66E
  0
LINE
  5
66F
330
397
100
AcDbEntity
  8
0
  6
Continuous
 62
     7
370
    15
100
AcDbLine
 10
2434.215432880395
 20
892.1355547357531
 30
0.0
 11
2434.215432880395
 21
885.5355547357511
 31
0.0
1001
AcDbBlockRepETag
1070
     1
1071
      106
1005
66F
  0
LINE
  5
670
330
397
100
AcDbEntity
  8
0
  6
Continuous
 62
     7
370
    15
100
AcDbLine
 10
2438.115432880236
 20
892.1355547357448
 30
0.0
 11
2437.515432880279
 21
892.1355547357448
 31
0.0
1001
AcDbBlockRepETag
1070
     1
1071
      107
1005
670
  0
LINE
  5
671
330
397
100
AcDbEntity
  8
0
  6
Continuous
 62
     7
370
    15
100
AcDbLine
 10
2437.515432880279
 20
885.5355547357566
 30
0.0
 11
2437.515432880279
 21
892.1355547357448
 31
0.0
1001
AcDbBlockRepETag
1070
     1
1071
      108
1005
671
  0
LINE
  5
672
330
397
100
AcDbEntity
  8
0
  6
Continuous
 62
     7
370
    15
100
AcDbLine
 10
2437.515432880279
 20
885.5355547357566
 30
0.0
 11
2437.315432880265
 21
885.3355547357448
 31
0.0
1001
AcDbBlockRepETag
1070
     1
1071
      109
1005
672
  0
LINE
  5
673
330
397
100
AcDbEntity
  8
0
  6
Continuous
 62
     7
370
    15
100
AcDbLine
 10
2437.315432880265
 20
885.3355547357448
 30
0.0
 11
2437.315432880265
 21
883.9335547357519
 31
0.0
1001
AcDbBlockRepETag
1070
     1
1071
      110
1005
673
  0
LINE
  5
674
330
397
100
AcDbEntity
  8
0
  6
Continuous
 62
     7
370
    15
100
AcDbLine
 10
2434.415432880396
 20
883.9335547357519
 30
0.0
 11
2437.315432880265
 21
883.9335547357519
 31
0.0
1001
AcDbBlockRepETag
1070
     1
1071
      111
1005
674
  0
LINE
  5
675
330
397
100
AcDbEntity
  8
0
  6
Continuous
 62
     7
370
    15
100
AcDbLine
 10
2438.115432880236
 20
892.1355547357448
 30
0.0
 11
2438.115432880236
 21
896.6835547357518
 31
0.0
1001
AcDbBlockRepETag
1070
     1
1071
       80
1005
651
  0
LINE
  5
676
330
397
100
AcDbEntity
  8
0
  6
Continuous
 62
     7
370
    15
100
AcDbLine
 10
2434.615432880396
 20
883.7335547357522
 30
0.0
 11
2434.415432880396
 21
883.9335547357519
 31
0.0
1001
AcDbBlockRepETag
1070
     1
1071
      112
1005
676
  0
LINE
  5
677
330
397
100
AcDbEntity
  8
0
  6
Continuous
 62
     7
370
    15
100
AcDbLine
 10
2437.115432880265
 20
883.7335547357522
 30
0.0
 11
2437.315432880265
 21
883.9335547357519
 31
0.0
1001
AcDbBlockRepETag
1070
     1
1071
      113
1005
677
  0
LINE
  5
678
330
397
100
AcDbEntity
  8
0
  6
Continuous
 62
     7
370
    15
100
AcDbLine
 10
2437.115432880265
 20
883.7335547357522
 30
0.0
 11
2434.615432880396
 21
883.7335547357522
 31
0.0
1001
AcDbBlockRepETag
1070
     1
1071
      114
1005
678
  0
LINE
  5
679
330
397
100
AcDbEntity
  8
0
  6
Continuous
 62
     7
370
    15
100
AcDbLine
 10
2436.734950180544
 20
874.451304910027
 30
0.0
 11
2437.01543288017
 21
876.0420013451954
 31
0.0
1001
AcDbBlockRepETag
1070
     1
1071
      115
1005
679
  0
ARC
  5
67A
330
397
100
AcDbEntity
  8
0
  6
Continuous
 62
     7
370
    15
100
AcDbCircle
 10
2436.370571311929
 20
874.5155547357612
 30
0.0
 40
0.3699999999999761
100
AcDbArc
 50
270.0
 51
350.00000000039
1001
AcDbBlockRepETag
1070
     1
1071
      116
1005
67A
  0
LINE
  5
67B
330
397
100
AcDbEntity
  8
0
  6
Continuous
 62
     7
370
    15
100
AcDbLine
 10
2435.360294448767
 20
874.1455547357613
 30
0.0
 11
2436.370571311929
 21
874.1455547357613
 31
0.0
1001
AcDbBlockRepETag
1070
     1
1071
      117
1005
67B
  0
ARC
  5
67C
330
397
100
AcDbEntity
  8
0
  6
Continuous
 62
     7
370
    15
100
AcDbCircle
 10
2435.360294448767
 20
874.5155547357612
 30
0.0
 40
0.369999999999988
100
AcDbArc
 50
190.0000000000103
 51
270.0
1001
AcDbBlockRepETag
1070
     1
1071
      118
1005
67C
  0
LINE
  5
67D
330
397
100
AcDbEntity
  8
0
  6
Continuous
 62
     7
370
    15
100
AcDbLine
 10
2437.015432880174
 20
882.4368267046683
 30
0.0
 11
2434.715432880515
 21
882.4368267046683
 31
0.0
1001
AcDbBlockRepETag
1070
     1
1071
      119
1005
67D
  0
LINE
  5
67E
330
397
100
AcDbEntity
  8
0
  6
Continuous
 62
     7
370
    15
100
AcDbLine
 10
2437.01543288017
 20
876.0420013451954
 30
0.0
 11
2437.015432880174
 21
882.4368267046683
 31
0.0
1001
AcDbBlockRepETag
1070
     1
1071
      120
1005
67E
  0
LINE
  5
67F
330
397
100
AcDbEntity
  8
0
  6
Continuous
 62
     7
370
    15
100
AcDbLine
 10
2434.715432880515
 20
876.0420013451922
 30
0.0
 11
2434.995915580153
 21
874.4513049100245
 31
0.0
1001
AcDbBlockRepETag
1070
     1
1071
      121
1005
67F
  0
LINE
  5
680
330
397
100
AcDbEntity
  8
0
  6
Continuous
 62
     7
370
    15
100
AcDbLine
 10
2434.715432880515
 20
882.4368267046683
 30
0.0
 11
2434.715432880515
 21
876.0420013451922
 31
0.0
1001
AcDbBlockRepETag
1070
     1
1071
      122
1005
680
  0
LINE
  5
681
330
397
100
AcDbEntity
  8
0
  6
Continuous
 62
     7
370
    15
100
AcDbLine
 10
2437.015432880175
 20
882.6868267046686
 30
0.0
 11
2434.715432880515
 21
882.6868267046686
 31
0.0
1001
AcDbBlockRepETag
1070
     1
1071
      123
1005
681
  0
LINE
  5
682
330
397
100
AcDbEntity
  8
0
  6
Continuous
 62
     7
370
    15
100
AcDbLine
 10
2437.015432880174
 20
882.4368267046683
 30
0.0
 11
2437.015432880175
 21
882.6868267046686
 31
0.0
1001
AcDbBlockRepETag
1070
     1
1071
      124
1005
682
  0
LINE
  5
683
330
397
100
AcDbEntity
  8
0
  6
Continuous
 62
     7
370
    15
100
AcDbLine
 10
2434.715432880515
 20
882.6868267046686
 30
0.0
 11
2434.715432880515
 21
882.4368267046683
 31
0.0
1001
AcDbBlockRepETag
1070
     1
1071
      125
1005
683
  0
LINE
  5
684
330
397
100
AcDbEntity
  8
0
  6
Continuous
 62
     7
370
    15
100
AcDbLine
 10
2437.015432880151
 20
882.9368267046683
 30
0.0
 11
2434.715432880515
 21
882.9368267046683
 31
0.0
1001
AcDbBlockRepETag
1070
     1
1071
      126
1005
684
  0
LINE
  5
685
330
397
100
AcDbEntity
  8
0
  6
Continuous
 62
     7
370
    15
100
AcDbLine
 10
2437.015432880166
 20
882.6868267046686
 30
0.0
 11
2437.015432880151
 21
882.9368267046683
 31
0.0
1001
AcDbBlockRepETag
1070
     1
1071
      127
1005
685
  0
LINE
  5
686
330
397
100
AcDbEntity
  8
0
  6
Continuous
 62
     7
370
    15
100
AcDbLine
 10
2434.715432880515
 20
882.9368267046683
 30
0.0
 11
2434.715432880515
 21
882.6868267046684
 31
0.0
1001
AcDbBlockRepETag
1070
     1
1071
      128
1005
686
  0
LINE
  5
687
330
397
100
AcDbEntity
  8
0
  6
Continuous
 62
     7
370
    15
100
AcDbLine
 10
2437.015432880176
 20
883.7335547357522
 30
0.0
 11
2437.015432880151
 21
882.9368267046683
 31
0.0
1001
AcDbBlockRepETag
1070
     1
1071
      129
1005
687
  0
LINE
  5
688
330
397
100
AcDbEntity
  8
0
  6
Continuous
 62
     7
370
    15
100
AcDbLine
 10
2434.715432880515
 20
883.7335547357522
 30
0.0
 11
2434.715432880515
 21
882.9368267046683
 31
0.0
1001
AcDbBlockRepETag
1070
     1
1071
      130
1005
688
  0
ENDBLK
  5
399
330
397
100
AcDbEntity
  8
0
100
AcDbBlockEnd
  0
BLOCK
  5
3E1
330
3E0
100
AcDbEntity
  8
0
100
AcDbBlockBegin
  2
2
 70
     0
 10
0.0
 20
0.0
 30
0.0
  3
2
  1

  0
LINE
  5
3E3
330
3E0
100
AcDbEntity
  8
0
  6
Continuous
 62
     7
370
    15
100
AcDbLine
 10
2409.002242484257
 20
897.8335547357527
 30
0.0
 11
2405.102242484257
 21
897.8335547357529
 31
0.0
  0
LINE
  5
3E4
330
3E0
100
AcDbEntity
  8
0
  6
Continuous
 62
     7
370
    15
100
AcDbLine
 10
2409.002242484257
 20
897.8335547357527
 30
0.0
 11
2409.002242484257
 21
896.6835547357518
 31
0.0
  0
LINE
  5
3E5
330
3E0
100
AcDbEntity
  8
0
  6
Continuous
 62
     7
370
    15
100
AcDbLine
 10
2408.252242484258
 20
896.6835547357518
 30
0.0
 11
2409.002242484257
 21
896.6835547357518
 31
0.0
  0
LINE
  5
3E6
330
3E0
100
AcDbEntity
  8
0
  6
Continuous
 62
     7
370
    15
100
AcDbLine
 10
2408.252242484258
 20
892.1355547357448
 30
0.0
 11
2408.252242484258
 21
896.6835547357518
 31
0.0
  0
LINE
  5
3E7
330
3E0
100
AcDbEntity
  8
0
  6
Continuous
 62
     7
370
    15
100
AcDbLine
 10
2405.852242484257
 20
892.1355547357448
 30
0.0
 11
2408.252242484258
 21
892.1355547357448
 31
0.0
  0
LINE
  5
3E8
330
3E0
100
AcDbEntity
  8
0
  6
Continuous
 62
     7
370
    15
100
AcDbLine
 10
2405.852242484257
 20
892.1355547357448
 30
0.0
 11
2405.852242484257
 21
896.6835547357518
 31
0.0
  0
LINE
  5
3E9
330
3E0
100
AcDbEntity
  8
0
  6
Continuous
 62
     7
370
    15
100
AcDbLine
 10
2405.102242484257
 20
896.6835547357518
 30
0.0
 11
2405.852242484257
 21
896.6835547357518
 31
0.0
  0
LINE
  5
3EA
330
3E0
100
AcDbEntity
  8
0
  6
Continuous
 62
     7
370
    15
100
AcDbLine
 10
2405.102242484257
 20
897.8335547357529
 30
0.0
 11
2405.102242484257
 21
896.6835547357518
 31
0.0
  0
LINE
  5
3EB
330
3E0
100
AcDbEntity
  8
0
  6
Continuous
 62
     7
370
    15
100
AcDbLine
 10
2405.852242484257
 20
885.5355547357566
 30
0.0
 11
2408.252242484257
 21
885.5355547357566
 31
0.0
  0
LINE
  5
3EC
330
3E0
100
AcDbEntity
  8
0
  6
Continuous
 62
     7
370
    15
100
AcDbLine
 10
2405.852242484257
 20
885.5355547357566
 30
0.0
 11
2405.852242484257
 21
892.1355547357448
 31
0.0
  0
LINE
  5
3ED
330
3E0
100
AcDbEntity
  8
0
  6
Continuous
 62
     7
370
    15
100
AcDbLine
 10
2408.252242484257
 20
885.5355547357566
 30
0.0
 11
2408.252242484258
 21
892.1355547357414
 31
0.0
  0
LINE
  5
3EE
330
3E0
100
AcDbEntity
  8
0
  6
Continuous
 62
     7
370
    15
100
AcDbLine
 10
2405.852242484257
 20
885.3355547357445
 30
0.0
 11
2408.252242484257
 21
885.3355547357445
 31
0.0
  0
LINE
  5
3EF
330
3E0
100
AcDbEntity
  8
0
  6
Continuous
 62
     7
370
    15
100
AcDbLine
 10
2405.852242484257
 20
885.5355547357566
 30
0.0
 11
2405.852242484257
 21
885.3355547357445
 31
0.0
  0
LINE
  5
3F0
330
3E0
100
AcDbEntity
  8
0
  6
Continuous
 62
     7
370
    15
100
AcDbLine
 10
2408.252242484257
 20
885.5355547357566
 30
0.0
 11
2408.252242484257
 21
885.3355547357445
 31
0.0
  0
LINE
  5
3F1
330
3E0
100
AcDbEntity
  8
0
  6
Continuous
 62
     7
370
    15
100
AcDbLine
 10
2406.052242484257
 20
883.7335547357518
 30
0.0
 11
2405.852242484257
 21
883.9335547357519
 31
0.0
  0
LINE
  5
3F2
330
3E0
100
AcDbEntity
  8
0
  6
Continuous
 62
     7
370
    15
100
AcDbLine
 10
2405.852242484257
 20
883.9335547357519
 30
0.0
 11
2408.252242484258
 21
883.9335547357521
 31
0.0
  0
LINE
  5
3F3
330
3E0
100
AcDbEntity
  8
0
  6
Continuous
 62
     7
370
    15
100
AcDbLine
 10
2408.052242484257
 20
883.7335547357518
 30
0.0
 11
2408.252242484258
 21
883.9335547357521
 31
0.0
  0
LINE
  5
3F4
330
3E0
100
AcDbEntity
  8
0
  6
Continuous
 62
     7
370
    15
100
AcDbLine
 10
2408.052242484257
 20
883.7335547357518
 30
0.0
 11
2406.052242484257
 21
883.7335547357518
 31
0.0
  0
LINE
  5
3F5
330
3E0
100
AcDbEntity
  8
0
  6
Continuous
 62
     7
370
    15
100
AcDbLine
 10
2405.852242484257
 20
885.3355547357445
 30
0.0
 11
2405.852242484257
 21
883.9335547357519
 31
0.0
  0
LINE
  5
3F6
330
3E0
100
AcDbEntity
  8
0
  6
Continuous
 62
     7
370
    15
100
AcDbLine
 10
2408.252242484258
 20
883.9335547357521
 30
0.0
 11
2408.252242484257
 21
885.3355547357445
 31
0.0
  0
LINE
  5
3F7
330
3E0
100
AcDbEntity
  8
0
  6
Continuous
 62
     7
370
    15
100
AcDbLine
 10
2408.502242484257
 20
890.0335547357526
 30
0.0
 11
2408.252242484257
 21
890.0335547357526
 31
0.0
  0
LINE
  5
3F8
330
3E0
100
AcDbEntity
  8
0
  6
Continuous
 62
     7
370
    15
100
AcDbLine
 10
2408.502242484257
 20
890.0335547357526
 30
0.0
 11
2408.252242484258
 21
888.7335547357531
 31
0.0
  0
LINE
  5
3F9
330
3E0
100
AcDbEntity
  8
0
  6
Continuous
 62
     7
370
    15
100
AcDbLine
 10
2405.602242484257
 20
890.0335547357526
 30
0.0
 11
2405.852242484256
 21
890.0335547357526
 31
0.0
  0
LINE
  5
3FA
330
3E0
100
AcDbEntity
  8
0
  6
Continuous
 62
     7
370
    15
100
AcDbLine
 10
2405.602242484257
 20
890.0335547357526
 30
0.0
 11
2405.852242484256
 21
888.7335547357526
 31
0.0
  0
LINE
  5
3FB
330
3E0
100
AcDbEntity
  8
0
  6
Continuous
 62
     7
370
    15
100
AcDbLine
 10
2407.552242484259
 20
883.7335547357518
 30
0.0
 11
2407.552242484259
 21
882.9368267046683
 31
0.0
  0
ARC
  5
3FC
330
3E0
100
AcDbEntity
  8
0
  6
Continuous
 62
     7
370
    15
100
AcDbCircle
 10
2407.80224248426
 20
882.9368267046683
 30
0.0
 40
0.2500000000000853
100
AcDbArc
 50
179.9999999999088
 51
270.0
  0
LINE
  5
3FD
330
3E0
100
AcDbEntity
  8
0
  6
Continuous
 62
     7
370
    15
100
AcDbLine
 10
2407.80224248426
 20
882.6868267046679
 30
0.0
 11
2408.005076274491
 21
882.6868267046682
 31
0.0
  0
ARC
  5
3FE
330
3E0
100
AcDbEntity
  8
0
  6
Continuous
 62
     7
370
    15
100
AcDbCircle
 10
2408.005076274491
 20
882.4368267046681
 30
0.0
 40
0.2500000000000853
100
AcDbArc
 50
0.0000000001954133
 51
90.0
  0
LINE
  5
3FF
330
3E0
100
AcDbEntity
  8
0
  6
Continuous
 62
     7
370
    15
100
AcDbLine
 10
2408.255076274492
 20
882.4368267046681
 30
0.0
 11
2408.255076274492
 21
876.0420013451986
 31
0.0
  0
LINE
  5
400
330
3E0
100
AcDbEntity
  8
0
  6
Continuous
 62
     7
370
    15
100
AcDbLine
 10
2408.255076274492
 20
876.0420013451986
 30
0.0
 11
2405.859408694023
 21
876.0420013451954
 31
0.0
  0
LINE
  5
401
330
3E0
100
AcDbEntity
  8
0
  6
Continuous
 62
     7
370
    15
100
AcDbLine
 10
2405.859408694023
 20
876.0420013451954
 30
0.0
 11
2405.859408694023
 21
882.4368267046681
 31
0.0
  0
ARC
  5
402
330
3E0
100
AcDbEntity
  8
0
  6
Continuous
 62
     7
370
    15
100
AcDbCircle
 10
2406.109408694023
 20
882.4368267046681
 30
0.0
 40
0.2500000000003126
100
AcDbArc
 50
90.0
 51
179.9999999999348
  0
LINE
  5
403
330
3E0
100
AcDbEntity
  8
0
  6
Continuous
 62
     7
370
    15
100
AcDbLine
 10
2406.312242484257
 20
882.6868267046684
 30
0.0
 11
2406.109408694023
 21
882.6868267046686
 31
0.0
  0
ARC
  5
404
330
3E0
100
AcDbEntity
  8
0
  6
Continuous
 62
     7
370
    15
100
AcDbCircle
 10
2406.312242484257
 20
882.9368267046683
 30
0.0
 40
0.2500000000000853
100
AcDbArc
 50
270.0
 51
0.0000000015177098
  0
LINE
  5
405
330
3E0
100
AcDbEntity
  8
0
  6
Continuous
 62
     7
370
    15
100
AcDbLine
 10
2406.562242484258
 20
883.7335547357518
 30
0.0
 11
2406.562242484258
 21
882.9368267046683
 31
0.0
  0
LINE
  5
406
330
3E0
100
AcDbEntity
  8
0
  6
Continuous
 62
     7
370
    15
100
AcDbLine
 10
2408.255076274492
 20
874.4513049100266
 30
0.0
 11
2405.859408694023
 21
874.451304910027
 31
0.0
  0
LINE
  5
407
330
3E0
100
AcDbEntity
  8
0
  6
Continuous
 62
     7
370
    15
100
AcDbLine
 10
2408.255076274492
 20
876.0420013451986
 30
0.0
 11
2408.255076274492
 21
874.4513049100266
 31
0.0
  0
LINE
  5
408
330
3E0
100
AcDbEntity
  8
0
  6
Continuous
 62
     7
370
    15
100
AcDbLine
 10
2405.859408694023
 20
874.451304910027
 30
0.0
 11
2405.859408694023
 21
876.0420013451954
 31
0.0
  0
LINE
  5
409
330
3E0
100
AcDbEntity
  8
0
  6
Continuous
 62
     7
370
    15
100
AcDbLine
 10
2405.859408694023
 20
874.1455547357613
 30
0.0
 11
2408.255076274492
 21
874.1455547357613
 31
0.0
  0
LINE
  5
40A
330
3E0
100
AcDbEntity
  8
0
  6
Continuous
 62
     7
370
    15
100
AcDbLine
 10
2408.255076274492
 20
874.1455547357613
 30
0.0
 11
2408.255076274492
 21
874.4513049100266
 31
0.0
  0
LINE
  5
40B
330
3E0
100
AcDbEntity
  8
0
  6
Continuous
 62
     7
370
    15
100
AcDbLine
 10
2405.859408694023
 20
874.451304910027
 30
0.0
 11
2405.859408694023
 21
874.1455547357613
 31
0.0
  0
ENDBLK
  5
3E2
330
3E0
100
AcDbEntity
  8
0
100
AcDbBlockEnd
  0
BLOCK
  5
40E
330
40D
100
AcDbEntity
  8
0
100
AcDbBlockBegin
  2
3
 70
     0
 10
0.0
 20
0.0
 30
0.0
  3
3
  1

  0
LINE
  5
68D
330
40D
100
AcDbEntity
  8
0
  6
Continuous
 62
     7
370
    15
100
AcDbLine
 10
2418.315432880438
 20
858.2132964628025
 30
0.0
 11
2418.315432880438
 21
862.1132964628024
 31
0.0
1001
AcDbBlockRepETag
1070
     1
1071
        0
1005
68D
  0
LINE
  5
68E
330
40D
100
AcDbEntity
  8
0
  6
Continuous
 62
     7
370
    15
100
AcDbLine
 10
2438.115432880438
 20
862.1132964628023
 30
0.0
 11
2418.315432880438
 21
862.1132964628024
 31
0.0
1001
AcDbBlockRepETag
1070
     1
1071
        1
1005
68E
  0
LINE
  5
68F
330
40D
100
AcDbEntity
  8
0
  6
Continuous
 62
     7
370
    15
100
AcDbLine
 10
2418.315432880438
 20
858.2132964628025
 30
0.0
 11
2438.115432880438
 21
858.2132964628023
 31
0.0
1001
AcDbBlockRepETag
1070
     1
1071
        2
1005
68F
  0
LINE
  5
695
330
40D
100
AcDbEntity
  8
0
  6
Continuous
 62
     7
370
    15
100
AcDbLine
 10
2438.115432880438
 20
858.2132964628025
 30
0.0
 11
2438.115432880438
 21
862.1132964628024
 31
0.0
1001
AcDbBlockRepETag
1070
     1
1071
        4
1005
695
  0
ENDBLK
  5
40F
330
40D
100
AcDbEntity
  8
0
100
AcDbBlockEnd
  0
BLOCK
  5
416
330
415
100
AcDbEntity
  8
0
100
AcDbBlockBegin
  2
4
 70
     0
 10
0.0
 20
0.0
 30
0.0
  3
4
  1

  0
LINE
  5
69A
330
415
100
AcDbEntity
  8
0
  6
Continuous
 62
     7
370
    15
100
AcDbLine
 10
2444.197217780186
 20
882.9985867972188
 30
0.0
 11
2443.752026094788
 21
882.7415831077162
 31
0.0
1001
AcDbBlockRepETag
1070
     1
1071
        0
1005
69A
  0
LINE
  5
69B
330
415
100
AcDbEntity
  8
0
  6
Continuous
 62
     7
370
    15
100
AcDbLine
 10
2447.803462364237
 20
885.0804274823666
 30
0.0
 11
2447.35827067884
 21
884.8234237928641
 31
0.0
1001
AcDbBlockRepETag
1070
     1
1071
        1
1005
69B
  0
LINE
  5
69C
330
415
100
AcDbEntity
  8
0
  6
Continuous
 62
     7
370
    15
100
AcDbLine
 10
2443.971240263371
 20
876.1018770900207
 30
0.0
 11
2445.665233054989
 21
875.1239558670583
 31
0.0
1001
AcDbBlockRepETag
1070
     1
1071
        2
1005
69C
  0
LINE
  5
69D
330
415
100
AcDbEntity
  8
0
  6
Continuous
 62
     7
370
    15
100
AcDbLine
 10
2447.577484847422
 20
878.1837177751686
 30
0.0
 11
2449.27147763904
 21
877.2057965522062
 31
0.0
1001
AcDbBlockRepETag
1070
     1
1071
        3
1005
69D
  0
LINE
  5
69E
330
415
100
AcDbEntity
  8
0
  6
Continuous
 62
     7
370
    15
100
AcDbLine
 10
2449.182320587361
 20
898.9739094653835
 30
0.0
 11
2434.33307818263
 21
890.4016242913519
 31
0.0
1001
AcDbBlockRepETag
1070
     1
1071
        4
1005
69E
  0
LINE
  5
69F
330
415
100
AcDbEntity
  8
0
  6
Continuous
 62
     7
370
    15
100
AcDbLine
 10
2449.182320587361
 20
898.9739094653835
 30
0.0
 11
2451.940037033988
 21
897.3819136473293
 31
0.0
1001
AcDbBlockRepETag
1070
     1
1071
        5
1005
69F
  0
LINE
  5
6A0
330
415
100
AcDbEntity
  8
0
  6
Continuous
 62
     7
370
    15
100
AcDbLine
 10
2437.090794629257
 20
888.8096284732977
 30
0.0
 11
2451.940037033988
 21
897.3819136473293
 31
0.0
1001
AcDbBlockRepETag
1070
     1
1071
        6
1005
6A0
  0
LINE
  5
6A1
330
415
100
AcDbEntity
  8
0
  6
Continuous
 62
     7
370
    15
100
AcDbLine
 10
2451.940037033988
 20
897.3819136473293
 30
0.0
 11
2451.940037033988
 21
896.4428917136599
 31
0.0
1001
AcDbBlockRepETag
1070
     1
1071
        7
1005
6A1
  0
LINE
  5
6A2
330
415
100
AcDbEntity
  8
0
  6
Continuous
 62
     7
370
    15
100
AcDbLine
 10
2437.090794629273
 20
887.8706065396375
 30
0.0
 11
2451.940037033988
 21
896.4428917136599
 31
0.0
1001
AcDbBlockRepETag
1070
     1
1071
        8
1005
6A2
  0
LINE
  5
6A3
330
415
100
AcDbEntity
  8
0
  6
Continuous
 62
     7
370
    15
100
AcDbLine
 10
2445.328588629923
 20
886.7469904202776
 30
0.0
 11
2445.328588629924
 21
887.808493475733
 31
0.0
1001
AcDbBlockRepETag
1070
     1
1071
        9
1005
6A3
  0
LINE
  5
6A4
330
415
100
AcDbEntity
  8
0
  6
Continuous
 62
     7
370
    15
100
AcDbLine
 10
2447.09635558289
 20
887.7675005600599
 30
0.0
 11
2445.328588629923
 21
886.7469904202776
 31
0.0
1001
AcDbBlockRepETag
1070
     1
1071
       10
1005
6A4
  0
LINE
  5
6A5
330
415
100
AcDbEntity
  8
0
  6
Continuous
 62
     7
370
    15
100
AcDbLine
 10
2445.328588629924
 20
887.808493475733
 30
0.0
 11
2447.09635558289
 21
888.8290036155112
 31
0.0
1001
AcDbBlockRepETag
1070
     1
1071
       11
1005
6A5
  0
LINE
  5
6A6
330
415
100
AcDbEntity
  8
0
  6
Continuous
 62
     7
370
    15
100
AcDbLine
 10
2448.793411857821
 20
885.972584615507
 30
0.0
 11
2448.793411857821
 21
884.8277943972437
 31
0.0
1001
AcDbBlockRepETag
1070
     1
1071
       12
1005
6A6
  0
LINE
  5
6A7
330
415
100
AcDbEntity
  8
0
  6
Continuous
 62
     7
370
    15
100
AcDbLine
 10
2448.651990501583
 20
886.0542519667019
 30
0.0
 11
2448.793411857821
 21
885.972584615507
 31
0.0
1001
AcDbBlockRepETag
1070
     1
1071
       13
1005
6A7
  0
LINE
  5
6A8
330
415
100
AcDbEntity
  8
0
  6
Continuous
 62
     7
370
    15
100
AcDbLine
 10
2448.651990501583
 20
891.4434213251492
 30
0.0
 11
2448.651990501583
 21
886.0542519667019
 31
0.0
1001
AcDbBlockRepETag
1070
     1
1071
       14
1005
6A8
  0
LINE
  5
6A9
330
415
100
AcDbEntity
  8
0
  6
Continuous
 62
     7
370
    15
100
AcDbLine
 10
2447.379198295364
 20
890.7086540244604
 30
0.0
 11
2448.651990501583
 21
891.4434213251492
 31
0.0
1001
AcDbBlockRepETag
1070
     1
1071
       15
1005
6A9
  0
LINE
  5
6AA
330
415
100
AcDbEntity
  8
0
  6
Continuous
 62
     7
370
    15
100
AcDbLine
 10
2447.379198295364
 20
885.319484666013
 30
0.0
 11
2447.379198295364
 21
890.7086540244604
 31
0.0
1001
AcDbBlockRepETag
1070
     1
1071
       16
1005
6AA
  0
LINE
  5
6AB
330
415
100
AcDbEntity
  8
0
  6
Continuous
 62
     7
370
    15
100
AcDbLine
 10
2447.237776939127
 20
885.0745356924537
 30
0.0
 11
2447.379198295364
 21
885.319484666013
 31
0.0
1001
AcDbBlockRepETag
1070
     1
1071
       17
1005
6AB
  0
LINE
  5
6AC
330
415
100
AcDbEntity
  8
0
  6
Continuous
 62
     7
370
    15
100
AcDbLine
 10
2447.237776939127
 20
883.9297454741902
 30
0.0
 11
2447.237776939127
 21
885.0745356924537
 31
0.0
1001
AcDbBlockRepETag
1070
     1
1071
       18
1005
6AC
  0
LINE
  5
6AD
330
415
100
AcDbEntity
  8
0
  6
Continuous
 62
     7
370
    15
100
AcDbLine
 10
2445.187167273779
 20
882.7459537121006
 30
0.0
 11
2447.237776939127
 21
883.9297454741902
 31
0.0
1001
AcDbBlockRepETag
1070
     1
1071
       19
1005
6AD
  0
LINE
  5
6AE
330
415
100
AcDbEntity
  8
0
  6
Continuous
 62
     7
370
    15
100
AcDbLine
 10
2445.187167273779
 20
882.7459537121006
 30
0.0
 11
2445.187167273778
 21
883.8907439303588
 31
0.0
1001
AcDbBlockRepETag
1070
     1
1071
       20
1005
6AE
  0
LINE
  5
6AF
330
415
100
AcDbEntity
  8
0
  6
Continuous
 62
     7
370
    15
100
AcDbLine
 10
2445.187167273778
 20
883.8907439303588
 30
0.0
 11
2445.045745917532
 21
883.9724112815584
 31
0.0
1001
AcDbBlockRepETag
1070
     1
1071
       21
1005
6AF
  0
LINE
  5
6B0
330
415
100
AcDbEntity
  8
0
  6
Continuous
 62
     7
370
    15
100
AcDbLine
 10
2445.045745917532
 20
889.3615806399944
 30
0.0
 11
2445.045745917532
 21
883.9724112815584
 31
0.0
1001
AcDbBlockRepETag
1070
     1
1071
       22
1005
6B0
  0
LINE
  5
6B1
330
415
100
AcDbEntity
  8
0
  6
Continuous
 62
     7
370
    15
100
AcDbLine
 10
2445.045745917532
 20
889.3615806399944
 30
0.0
 11
2443.348689642685
 21
888.3818909057982
 31
0.0
1001
AcDbBlockRepETag
1070
     1
1071
       23
1005
6B1
  0
LINE
  5
6B2
330
415
100
AcDbEntity
  8
0
  6
Continuous
 62
     7
370
    15
100
AcDbLine
 10
2451.409706948098
 20
893.0354171431316
 30
0.0
 11
2451.409706948098
 21
896.1367386717261
 31
0.0
1001
AcDbBlockRepETag
1070
     1
1071
       24
1005
6B2
  0
LINE
  5
6B3
330
415
100
AcDbEntity
  8
0
  6
Continuous
 62
     7
370
    15
100
AcDbLine
 10
2451.409706948098
 20
893.0354171431316
 30
0.0
 11
2450.985442879416
 21
892.7904947096019
 31
0.0
1001
AcDbBlockRepETag
1070
     1
1071
       25
1005
6B3
  0
LINE
  5
6B4
330
415
100
AcDbEntity
  8
0
  6
Continuous
 62
     7
370
    15
100
AcDbLine
 10
2450.985442879415
 20
887.4013253511652
 30
0.0
 11
2450.985442879416
 21
892.7904947096019
 31
0.0
1001
AcDbBlockRepETag
1070
     1
1071
       26
1005
6B4
  0
LINE
  5
6B5
330
415
100
AcDbEntity
  8
0
  6
Continuous
 62
     7
370
    15
100
AcDbLine
 10
2450.985442879415
 20
887.4013253511652
 30
0.0
 11
2450.844021523169
 21
887.1563763775908
 31
0.0
1001
AcDbBlockRepETag
1070
     1
1071
       27
1005
6B5
  0
LINE
  5
6B6
330
415
100
AcDbEntity
  8
0
  6
Continuous
 62
     7
370
    15
100
AcDbLine
 10
2450.844021523169
 20
887.1563763775908
 30
0.0
 11
2450.844021523169
 21
886.0115861593326
 31
0.0
1001
AcDbBlockRepETag
1070
     1
1071
       28
1005
6B6
  0
LINE
  5
6B7
330
415
100
AcDbEntity
  8
0
  6
Continuous
 62
     7
370
    15
100
AcDbLine
 10
2448.793411857821
 20
884.8277943972437
 30
0.0
 11
2450.844021523169
 21
886.0115861593326
 31
0.0
1001
AcDbBlockRepETag
1070
     1
1071
       29
1005
6B7
  0
LINE
  5
6B8
330
415
100
AcDbEntity
  8
0
  6
Continuous
 62
     7
370
    15
100
AcDbLine
 10
2448.934833213974
 20
888.8288311054255
 30
0.0
 11
2448.934833213975
 21
889.8903341608809
 31
0.0
1001
AcDbBlockRepETag
1070
     1
1071
       30
1005
6B8
  0
LINE
  5
6B9
330
415
100
AcDbEntity
  8
0
  6
Continuous
 62
     7
370
    15
100
AcDbLine
 10
2450.702600166942
 20
889.8493412452078
 30
0.0
 11
2448.934833213974
 21
888.8288311054255
 31
0.0
1001
AcDbBlockRepETag
1070
     1
1071
       31
1005
6B9
  0
LINE
  5
6BA
330
415
100
AcDbEntity
  8
0
  6
Continuous
 62
     7
370
    15
100
AcDbLine
 10
2448.934833213975
 20
889.8903341608809
 30
0.0
 11
2450.702600166942
 21
890.9108443006591
 31
0.0
1001
AcDbBlockRepETag
1070
     1
1071
       32
1005
6BA
  0
LINE
  5
6BB
330
415
100
AcDbEntity
  8
0
  6
Continuous
 62
     7
370
    15
100
AcDbLine
 10
2443.348689642685
 20
884.9521010157454
 30
0.0
 11
2445.045745917532
 21
883.9724112815584
 31
0.0
1001
AcDbBlockRepETag
1070
     1
1071
       33
1005
6BB
  0
LINE
  5
6BC
330
415
100
AcDbEntity
  8
0
  6
Continuous
 62
     7
370
    15
100
AcDbLine
 10
2443.348689642685
 20
888.3818909057982
 30
0.0
 11
2443.348689642685
 21
884.9521010157454
 31
0.0
1001
AcDbBlockRepETag
1070
     1
1071
       34
1005
6BC
  0
LINE
  5
6BD
330
415
100
AcDbEntity
  8
0
  6
Continuous
 62
     7
370
    15
100
AcDbLine
 10
2445.328588629923
 20
886.7469904202776
 30
0.0
 11
2445.505365325221
 21
887.7064424617552
 31
0.0
1001
AcDbBlockRepETag
1070
     1
1071
       35
1005
6BD
  0
LINE
  5
6BE
330
415
100
AcDbEntity
  8
0
  6
Continuous
 62
     7
370
    15
100
AcDbLine
 10
2445.505365325221
 20
887.7064424617552
 30
0.0
 11
2445.328588629924
 21
887.808493475733
 31
0.0
1001
AcDbBlockRepETag
1070
     1
1071
       36
1005
6BE
  0
LINE
  5
6BF
330
415
100
AcDbEntity
  8
0
  6
Continuous
 62
     7
370
    15
100
AcDbLine
 10
2447.273132278187
 20
888.7269526015336
 30
0.0
 11
2447.09635558289
 21
888.8290036155112
 31
0.0
1001
AcDbBlockRepETag
1070
     1
1071
       37
1005
6BF
  0
LINE
  5
6C0
330
415
100
AcDbEntity
  8
0
  6
Continuous
 62
     7
370
    15
100
AcDbLine
 10
2445.505365325221
 20
887.7064424617552
 30
0.0
 11
2447.273132278187
 21
888.7269526015336
 31
0.0
1001
AcDbBlockRepETag
1070
     1
1071
       38
1005
6C0
  0
LINE
  5
6C1
330
415
100
AcDbEntity
  8
0
  6
Continuous
 62
     7
370
    15
100
AcDbLine
 10
2447.273132278187
 20
888.7269526015336
 30
0.0
 11
2447.09635558289
 21
887.7675005600599
 31
0.0
1001
AcDbBlockRepETag
1070
     1
1071
       39
1005
6C1
  0
LINE
  5
6C2
330
415
100
AcDbEntity
  8
0
  6
Continuous
 62
     7
370
    15
100
AcDbLine
 10
2447.379198295364
 20
886.7890192673904
 30
0.0
 11
2448.651990501583
 21
886.0542519667019
 31
0.0
1001
AcDbBlockRepETag
1070
     1
1071
       40
1005
6C2
  0
LINE
  5
6C3
330
415
100
AcDbEntity
  8
0
  6
Continuous
 62
     7
370
    15
100
AcDbLine
 10
2443.490110998931
 20
884.8704336645457
 30
0.0
 11
2445.187167273778
 21
883.8907439303588
 31
0.0
1001
AcDbBlockRepETag
1070
     1
1071
       41
1005
6C3
  0
LINE
  5
6C4
330
415
100
AcDbEntity
  8
0
  6
Continuous
 62
     7
370
    15
100
AcDbLine
 10
2443.490110998931
 20
884.8704336645457
 30
0.0
 11
2443.348689642685
 21
884.9521010157454
 31
0.0
1001
AcDbBlockRepETag
1070
     1
1071
       42
1005
6C4
  0
LINE
  5
6C5
330
415
100
AcDbEntity
  8
0
  6
Continuous
 62
     7
370
    15
100
AcDbLine
 10
2443.490110998931
 20
883.7256434462881
 30
0.0
 11
2445.187167273779
 21
882.7459537121006
 31
0.0
1001
AcDbBlockRepETag
1070
     1
1071
       43
1005
6C5
  0
LINE
  5
6C6
330
415
100
AcDbEntity
  8
0
  6
Continuous
 62
     7
370
    15
100
AcDbLine
 10
2443.490110998931
 20
884.8704336645457
 30
0.0
 11
2443.490110998931
 21
883.7256434462881
 31
0.0
1001
AcDbBlockRepETag
1070
     1
1071
       44
1005
6C6
  0
LINE
  5
6C7
330
415
100
AcDbEntity
  8
0
  6
Continuous
 62
     7
370
    15
100
AcDbLine
 10
2449.111609909272
 20
889.7882831469031
 30
0.0
 11
2450.879376862238
 21
890.8087932866814
 31
0.0
1001
AcDbBlockRepETag
1070
     1
1071
       45
1005
6C7
  0
LINE
  5
6C8
330
415
100
AcDbEntity
  8
0
  6
Continuous
 62
     7
370
    15
100
AcDbLine
 10
2450.879376862238
 20
890.8087932866814
 30
0.0
 11
2450.702600166942
 21
889.8493412452078
 31
0.0
1001
AcDbBlockRepETag
1070
     1
1071
       46
1005
6C8
  0
LINE
  5
6C9
330
415
100
AcDbEntity
  8
0
  6
Continuous
 62
     7
370
    15
100
AcDbLine
 10
2448.934833213974
 20
888.8288311054255
 30
0.0
 11
2449.111609909272
 21
889.7882831469031
 31
0.0
1001
AcDbBlockRepETag
1070
     1
1071
       47
1005
6C9
  0
LINE
  5
6CA
330
415
100
AcDbEntity
  8
0
  6
Continuous
 62
     7
370
    15
100
AcDbLine
 10
2450.879376862238
 20
890.8087932866814
 30
0.0
 11
2450.702600166942
 21
890.9108443006591
 31
0.0
1001
AcDbBlockRepETag
1070
     1
1071
       48
1005
6CA
  0
LINE
  5
6CB
330
415
100
AcDbEntity
  8
0
  6
Continuous
 62
     7
370
    15
100
AcDbLine
 10
2449.111609909272
 20
889.7882831469031
 30
0.0
 11
2448.934833213975
 21
889.8903341608809
 31
0.0
1001
AcDbBlockRepETag
1070
     1
1071
       49
1005
6CB
  0
LINE
  5
6CC
330
415
100
AcDbEntity
  8
0
  6
Continuous
 62
     7
370
    15
100
AcDbLine
 10
2443.490110998931
 20
883.7256434462881
 30
0.0
 11
2443.772953711405
 21
883.5623352839107
 31
0.0
1001
AcDbBlockRepETag
1070
     1
1071
       50
1005
6CC
  0
LINE
  5
6CD
330
415
100
AcDbEntity
  8
0
  6
Continuous
 62
     7
370
    15
100
AcDbLine
 10
2445.187167273779
 20
882.7459537121006
 30
0.0
 11
2445.187167273778
 21
882.7459271720881
 31
0.0
1001
AcDbBlockRepETag
1070
     1
1071
       51
1005
6CD
  0
LINE
  5
6CE
330
415
100
AcDbEntity
  8
0
  6
Continuous
 62
     7
370
    15
100
AcDbLine
 10
2445.187167273778
 20
882.7459271720881
 30
0.0
 11
2443.772953711405
 21
883.5623352839107
 31
0.0
1001
AcDbBlockRepETag
1070
     1
1071
       52
1005
6CE
  0
LINE
  5
6CF
330
415
100
AcDbEntity
  8
0
  6
Continuous
 62
     7
370
    15
100
AcDbLine
 10
2447.237776939127
 20
883.9297454741902
 30
0.0
 11
2446.954934226653
 21
883.7664373118132
 31
0.0
1001
AcDbBlockRepETag
1070
     1
1071
       53
1005
6CF
  0
LINE
  5
6D0
330
415
100
AcDbEntity
  8
0
  6
Continuous
 62
     7
370
    15
100
AcDbLine
 10
2446.954934226653
 20
883.7664373118132
 30
0.0
 11
2445.187167273778
 21
882.7459271720881
 31
0.0
1001
AcDbBlockRepETag
1070
     1
1071
       54
1005
6D0
  0
ARC
  5
6D1
330
415
100
AcDbEntity
  8
0
  6
Continuous
 62
     7
370
    15
100
AcDbCircle
 10
2445.281057518908
 20
882.3618359059491
 30
0.0
 40
0.3842012018917073
100
AcDbArc
 50
182.6054784855653
 51
237.3945216600927
1001
AcDbBlockRepETag
1070
     1
1071
       55
1005
6D1
  0
LINE
  5
6D2
330
415
100
AcDbEntity
  8
0
  6
Continuous
 62
     7
370
    15
100
AcDbLine
 10
2445.217455337392
 20
881.9553869000861
 30
0.0
 11
2445.074030188864
 21
882.0381844759351
 31
0.0
1001
AcDbBlockRepETag
1070
     1
1071
       56
1005
6D2
  0
ARC
  5
6D3
330
415
100
AcDbEntity
  8
0
  6
Continuous
 62
     7
370
    15
100
AcDbCircle
 10
2445.010428007347
 20
881.6317354700716
 30
0.0
 40
0.3842012018927381
100
AcDbArc
 50
2.605478485597803
 51
57.39452166000233
1001
AcDbBlockRepETag
1070
     1
1071
       57
1005
6D3
  0
LINE
  5
6D4
330
415
100
AcDbEntity
  8
0
  6
Continuous
 62
     7
370
    15
100
AcDbLine
 10
2445.394232032689
 20
881.6492006831364
 30
0.0
 11
2445.394232032689
 21
876.4275647922424
 31
0.0
1001
AcDbBlockRepETag
1070
     1
1071
       58
1005
6D4
  0
LINE
  5
6D5
330
415
100
AcDbEntity
  8
0
  6
Continuous
 62
     7
370
    15
100
AcDbLine
 10
2445.394232032689
 20
876.4275647922424
 30
0.0
 11
2443.700239241071
 21
877.4054860152048
 31
0.0
1001
AcDbBlockRepETag
1070
     1
1071
       59
1005
6D5
  0
LINE
  5
6D6
330
415
100
AcDbEntity
  8
0
  6
Continuous
 62
     7
370
    15
100
AcDbLine
 10
2443.700239241071
 20
877.4054860152048
 30
0.0
 11
2443.700239241071
 21
882.6271219060989
 31
0.0
1001
AcDbBlockRepETag
1070
     1
1071
       60
1005
6D6
  0
ARC
  5
6D7
330
415
100
AcDbEntity
  8
0
  6
Continuous
 62
     7
370
    15
100
AcDbCircle
 10
2443.808007832928
 20
882.6446037053241
 30
0.0
 40
0.1091772993572724
100
AcDbArc
 50
50.79671476440671
 51
189.2140369903814
1001
AcDbBlockRepETag
1070
     1
1071
       61
1005
6D7
  0
LINE
  5
6D8
330
415
100
AcDbEntity
  8
0
  6
Continuous
 62
     7
370
    15
100
AcDbLine
 10
2443.877015936368
 20
882.7292060950926
 30
0.0
 11
2444.020441084886
 21
882.6464085192396
 31
0.0
1001
AcDbBlockRepETag
1070
     1
1071
       62
1005
6D8
  0
ARC
  5
6D9
330
415
100
AcDbEntity
  8
0
  6
Continuous
 62
     7
370
    15
100
AcDbCircle
 10
2444.089449188326
 20
882.7310109090097
 30
0.0
 40
0.1091772993578319
100
AcDbArc
 50
230.7967147652449
 51
9.214036989391976
1001
AcDbBlockRepETag
1070
     1
1071
       63
1005
6D9
  0
LINE
  5
6DA
330
415
100
AcDbEntity
  8
0
  6
Continuous
 62
     7
370
    15
100
AcDbLine
 10
2444.197217780183
 20
882.7484927082331
 30
0.0
 11
2444.19721778019
 21
883.317412850322
 31
0.0
1001
AcDbBlockRepETag
1070
     1
1071
       64
1005
6DA
  0
LINE
  5
6DB
330
415
100
AcDbEntity
  8
0
  6
Continuous
 62
     7
370
    15
100
AcDbLine
 10
2444.897253493567
 20
882.3443706928845
 30
0.0
 11
2444.897253493567
 21
882.9132908349684
 31
0.0
1001
AcDbBlockRepETag
1070
     1
1071
       65
1005
6DB
  0
LINE
  5
6DC
330
415
100
AcDbEntity
  8
0
  6
Continuous
 62
     7
370
    15
100
AcDbLine
 10
2446.523599090032
 20
883.5174328376512
 30
0.0
 11
2446.523599090035
 21
883.2832400213296
 31
0.0
1001
AcDbBlockRepETag
1070
     1
1071
       66
1005
6DC
  0
LINE
  5
6DD
330
415
100
AcDbEntity
  8
0
  6
Continuous
 62
     7
370
    15
100
AcDbLine
 10
2446.523599090035
 20
883.2832400213296
 30
0.0
 11
2444.897253493567
 21
882.3443706928845
 31
0.0
1001
AcDbBlockRepETag
1070
     1
1071
       67
1005
6DD
  0
LINE
  5
6DE
330
415
100
AcDbEntity
  8
0
  6
Continuous
 62
     7
370
    15
100
AcDbLine
 10
2447.020577629177
 20
882.5880700115936
 30
0.0
 11
2445.394232032689
 21
881.6492006831364
 31
0.0
1001
AcDbBlockRepETag
1070
     1
1071
       68
1005
6DE
  0
LINE
  5
6DF
330
415
100
AcDbEntity
  8
0
  6
Continuous
 62
     7
370
    15
100
AcDbLine
 10
2446.843800933881
 20
882.8942562285432
 30
0.0
 11
2445.217455337392
 21
881.9553869000861
 31
0.0
1001
AcDbBlockRepETag
1070
     1
1071
       69
1005
6DF
  0
ARC
  5
6E0
330
415
100
AcDbEntity
  8
0
  6
Continuous
 62
     7
370
    15
100
AcDbCircle
 10
2446.63677360383
 20
882.5706047985267
 30
0.0
 40
0.3842012018978607
100
AcDbArc
 50
2.605478485871099
 51
57.39452165947827
1001
AcDbBlockRepETag
1070
     1
1071
       70
1005
6E0
  0
LINE
  5
6E1
330
415
100
AcDbEntity
  8
0
  6
Continuous
 62
     7
370
    15
100
AcDbLine
 10
2446.700375785346
 20
882.9770538043892
 30
0.0
 11
2445.074030188864
 21
882.0381844759351
 31
0.0
1001
AcDbBlockRepETag
1070
     1
1071
       71
1005
6E1
  0
ARC
  5
6E2
330
415
100
AcDbEntity
  8
0
  6
Continuous
 62
     7
370
    15
100
AcDbCircle
 10
2446.907403115436
 20
883.3007052344482
 30
0.0
 40
0.3842012019544738
100
AcDbArc
 50
182.6054784932199
 51
237.394521658022
1001
AcDbBlockRepETag
1070
     1
1071
       72
1005
6E2
  0
LINE
  5
6E3
330
415
100
AcDbEntity
  8
0
  6
Continuous
 62
     7
370
    15
100
AcDbLine
 10
2446.822246410264
 20
875.9530713864638
 30
0.0
 11
2447.020577629173
 21
877.3664341207
 31
0.0
1001
AcDbBlockRepETag
1070
     1
1071
       73
1005
6E3
  0
ARC
  5
6E4
330
415
100
AcDbEntity
  8
0
  6
Continuous
 62
     7
370
    15
100
AcDbCircle
 10
2446.250210034092
 20
876.0405071150671
 30
0.0
 40
0.5786800690351719
100
AcDbArc
 50
302.9067666138764
 51
351.3096048992636
1001
AcDbBlockRepETag
1070
     1
1071
       74
1005
6E4
  0
LINE
  5
6E5
330
415
100
AcDbEntity
  8
0
  6
Continuous
 62
     7
370
    15
100
AcDbLine
 10
2445.850218020526
 20
875.1422738457414
 30
0.0
 11
2446.564591641344
 21
875.5546729588775
 31
0.0
1001
AcDbBlockRepETag
1070
     1
1071
       75
1005
6E5
  0
LWPOLYLINE
  5
6E6
330
415
100
AcDbEntity
  8
0
  6
Continuous
 62
     7
370
    15
100
AcDbPolyline
 90
        9
 70
   128
 43
0.0
 10
2445.592563251608
 20
875.2431904092118
 10
2445.604366701502
 20
875.199135840627
 10
2445.623640219319
 20
875.1625333154718
 10
2445.649798188971
 20
875.134494982951
 10
2445.682045813788
 20
875.1158727736104
 10
2445.719403266008
 20
875.1072325138572
 10
2445.760735458347
 20
875.1088367336119
 10
2445.804786533058
 20
875.1206366894692
 10
2445.850218020526
 20
875.1422738457414
1001
AcDbBlockRepETag
1070
     1
1071
       76
1005
6E6
  0
LINE
  5
6E7
330
415
100
AcDbEntity
  8
0
  6
Continuous
 62
     7
370
    15
100
AcDbLine
 10
2445.394232032689
 20
876.4275647922424
 30
0.0
 11
2445.592563251608
 21
875.2431904092118
 31
0.0
1001
AcDbBlockRepETag
1070
     1
1071
       77
1005
6E7
  0
LINE
  5
6E8
330
415
100
AcDbEntity
  8
0
  6
Continuous
 62
     7
370
    15
100
AcDbLine
 10
2447.020577629173
 20
877.3664341207
 30
0.0
 11
2447.020577629177
 21
882.5880700115936
 31
0.0
1001
AcDbBlockRepETag
1070
     1
1071
       78
1005
6E8
  0
LINE
  5
6E9
330
415
100
AcDbEntity
  8
0
  6
Continuous
 62
     7
370
    15
100
AcDbLine
 10
2446.700375785346
 20
882.9770538043892
 30
0.0
 11
2446.843800933881
 21
882.8942562285432
 31
0.0
1001
AcDbBlockRepETag
1070
     1
1071
       79
1005
6E9
  0
LINE
  5
6EA
330
415
100
AcDbEntity
  8
0
  6
Continuous
 62
     7
370
    15
100
AcDbLine
 10
2448.793411857821
 20
885.972584615507
 30
0.0
 11
2447.379198295364
 21
886.7889927273777
 31
0.0
1001
AcDbBlockRepETag
1070
     1
1071
       80
1005
6EA
  0
LINE
  5
6EB
330
415
100
AcDbEntity
  8
0
  6
Continuous
 62
     7
370
    15
100
AcDbLine
 10
2448.793411857821
 20
884.8277943972437
 30
0.0
 11
2447.379198295364
 21
885.6442025091148
 31
0.0
1001
AcDbBlockRepETag
1070
     1
1071
       81
1005
6EB
  0
LINE
  5
6EC
330
415
100
AcDbEntity
  8
0
  6
Continuous
 62
     7
370
    15
100
AcDbLine
 10
2448.793411857821
 20
884.827767857231
 30
0.0
 11
2448.793411857821
 21
884.8277943972437
 31
0.0
1001
AcDbBlockRepETag
1070
     1
1071
       82
1005
6EC
  0
LINE
  5
6ED
330
415
100
AcDbEntity
  8
0
  6
Continuous
 62
     7
370
    15
100
AcDbLine
 10
2447.379198295448
 20
885.6441759690538
 30
0.0
 11
2448.793411857821
 21
884.827767857231
 31
0.0
1001
AcDbBlockRepETag
1070
     1
1071
       83
1005
6ED
  0
LINE
  5
6EE
330
415
100
AcDbEntity
  8
0
  6
Continuous
 62
     7
370
    15
100
AcDbLine
 10
2450.561178810695
 20
885.8482779969559
 30
0.0
 11
2450.844021523169
 21
886.0115861593326
 31
0.0
1001
AcDbBlockRepETag
1070
     1
1071
       84
1005
6EE
  0
LINE
  5
6EF
330
415
100
AcDbEntity
  8
0
  6
Continuous
 62
     7
370
    15
100
AcDbLine
 10
2450.561178810695
 20
885.8482779969559
 30
0.0
 11
2448.793411857821
 21
884.827767857231
 31
0.0
1001
AcDbBlockRepETag
1070
     1
1071
       85
1005
6EF
  0
LINE
  5
6F0
330
415
100
AcDbEntity
  8
0
  6
Continuous
 62
     7
370
    15
100
AcDbLine
 10
2448.503498077619
 20
884.9951315201062
 30
0.0
 11
2448.503498077619
 21
884.4262113780324
 31
0.0
1001
AcDbBlockRepETag
1070
     1
1071
       86
1005
6F0
  0
ARC
  5
6F1
330
415
100
AcDbEntity
  8
0
  6
Continuous
 62
     7
370
    15
100
AcDbCircle
 10
2448.887302102959
 20
884.443676591097
 30
0.0
 40
0.3842012018917937
100
AcDbArc
 50
182.6054784855718
 51
237.3945216600672
1001
AcDbBlockRepETag
1070
     1
1071
       87
1005
6F1
  0
LINE
  5
6F2
330
415
100
AcDbEntity
  8
0
  6
Continuous
 62
     7
370
    15
100
AcDbLine
 10
2448.823699921443
 20
884.037227585234
 30
0.0
 11
2448.680274772915
 21
884.1200251610832
 31
0.0
1001
AcDbBlockRepETag
1070
     1
1071
       88
1005
6F2
  0
ARC
  5
6F3
330
415
100
AcDbEntity
  8
0
  6
Continuous
 62
     7
370
    15
100
AcDbCircle
 10
2448.616672591398
 20
883.7135761552197
 30
0.0
 40
0.384201201892799
100
AcDbArc
 50
2.605478485597803
 51
57.39452166000233
1001
AcDbBlockRepETag
1070
     1
1071
       89
1005
6F3
  0
LINE
  5
6F4
330
415
100
AcDbEntity
  8
0
  6
Continuous
 62
     7
370
    15
100
AcDbLine
 10
2449.00047661674
 20
883.7310413682843
 30
0.0
 11
2449.000476616741
 21
878.5094054773903
 31
0.0
1001
AcDbBlockRepETag
1070
     1
1071
       90
1005
6F4
  0
LINE
  5
6F5
330
415
100
AcDbEntity
  8
0
  6
Continuous
 62
     7
370
    15
100
AcDbLine
 10
2449.000476616741
 20
878.5094054773903
 30
0.0
 11
2447.306483825122
 21
879.4873267003527
 31
0.0
1001
AcDbBlockRepETag
1070
     1
1071
       91
1005
6F5
  0
LINE
  5
6F6
330
415
100
AcDbEntity
  8
0
  6
Continuous
 62
     7
370
    15
100
AcDbLine
 10
2447.306483825122
 20
879.4873267003527
 30
0.0
 11
2447.306483825122
 21
884.7089625912467
 31
0.0
1001
AcDbBlockRepETag
1070
     1
1071
       92
1005
6F6
  0
ARC
  5
6F7
330
415
100
AcDbEntity
  8
0
  6
Continuous
 62
     7
370
    15
100
AcDbCircle
 10
2447.414252416979
 20
884.7264443904718
 30
0.0
 40
0.1091772993573239
100
AcDbArc
 50
50.79671476442689
 51
189.2140369903622
1001
AcDbBlockRepETag
1070
     1
1071
       93
1005
6F7
  0
LINE
  5
6F8
330
415
100
AcDbEntity
  8
0
  6
Continuous
 62
     7
370
    15
100
AcDbLine
 10
2447.483260520419
 20
884.8110467802403
 30
0.0
 11
2447.626685668937
 21
884.7282492043868
 31
0.0
1001
AcDbBlockRepETag
1070
     1
1071
       94
1005
6F8
  0
ARC
  5
6F9
330
415
100
AcDbEntity
  8
0
  6
Continuous
 62
     7
370
    15
100
AcDbCircle
 10
2447.695693772375
 20
884.8128515941573
 30
0.0
 40
0.1091772993579586
100
AcDbArc
 50
230.7967147654077
 51
9.214036989220627
1001
AcDbBlockRepETag
1070
     1
1071
       95
1005
6F9
  0
LINE
  5
6FA
330
415
100
AcDbEntity
  8
0
  6
Continuous
 62
     7
370
    15
100
AcDbLine
 10
2447.803462364241
 20
885.3992535354597
 30
0.0
 11
2447.803462364233
 21
884.8303333933802
 31
0.0
1001
AcDbBlockRepETag
1070
     1
1071
       96
1005
6FA
  0
LINE
  5
6FB
330
415
100
AcDbEntity
  8
0
  6
Continuous
 62
     7
370
    15
100
AcDbLine
 10
2450.129843674096
 20
885.599273522807
 30
0.0
 11
2450.12984367409
 21
885.3650807064799
 31
0.0
1001
AcDbBlockRepETag
1070
     1
1071
       97
1005
6FB
  0
LINE
  5
6FC
330
415
100
AcDbEntity
  8
0
  6
Continuous
 62
     7
370
    15
100
AcDbLine
 10
2450.12984367409
 20
885.3650807064799
 30
0.0
 11
2448.503498077619
 21
884.4262113780324
 31
0.0
1001
AcDbBlockRepETag
1070
     1
1071
       98
1005
6FC
  0
LINE
  5
6FD
330
415
100
AcDbEntity
  8
0
  6
Continuous
 62
     7
370
    15
100
AcDbLine
 10
2450.626822213228
 20
884.6699106967415
 30
0.0
 11
2449.00047661674
 21
883.7310413682843
 31
0.0
1001
AcDbBlockRepETag
1070
     1
1071
       99
1005
6FD
  0
LINE
  5
6FE
330
415
100
AcDbEntity
  8
0
  6
Continuous
 62
     7
370
    15
100
AcDbLine
 10
2450.450045517932
 20
884.9760969136912
 30
0.0
 11
2448.823699921443
 21
884.037227585234
 31
0.0
1001
AcDbBlockRepETag
1070
     1
1071
      100
1005
6FE
  0
ARC
  5
6FF
330
415
100
AcDbEntity
  8
0
  6
Continuous
 62
     7
370
    15
100
AcDbCircle
 10
2450.243018187882
 20
884.6524454836742
 30
0.0
 40
0.3842012018977523
100
AcDbArc
 50
2.605478485891805
 51
57.39452165953621
1001
AcDbBlockRepETag
1070
     1
1071
      101
1005
6FF
  0
LINE
  5
700
330
415
100
AcDbEntity
  8
0
  6
Continuous
 62
     7
370
    15
100
AcDbLine
 10
2450.306620369398
 20
885.058894489537
 30
0.0
 11
2448.680274772915
 21
884.1200251610832
 31
0.0
1001
AcDbBlockRepETag
1070
     1
1071
      102
1005
700
  0
ARC
  5
701
330
415
100
AcDbEntity
  8
0
  6
Continuous
 62
     7
370
    15
100
AcDbCircle
 10
2450.513647699469
 20
885.3825459195807
 30
0.0
 40
0.3842012019320017
100
AcDbArc
 50
182.6054784907165
 51
237.3945216590121
1001
AcDbBlockRepETag
1070
     1
1071
      103
1005
701
  0
LINE
  5
702
330
415
100
AcDbEntity
  8
0
  6
Continuous
 62
     7
370
    15
100
AcDbLine
 10
2450.428490994314
 20
878.0349120716117
 30
0.0
 11
2450.626822213225
 21
879.4482748058479
 31
0.0
1001
AcDbBlockRepETag
1070
     1
1071
      104
1005
702
  0
ARC
  5
703
330
415
100
AcDbEntity
  8
0
  6
Continuous
 62
     7
370
    15
100
AcDbCircle
 10
2449.856454618144
 20
878.1223478002146
 30
0.0
 40
0.5786800690343216
100
AcDbArc
 50
302.9067666138149
 51
351.3096048992892
1001
AcDbBlockRepETag
1070
     1
1071
      105
1005
703
  0
LINE
  5
704
330
415
100
AcDbEntity
  8
0
  6
Continuous
 62
     7
370
    15
100
AcDbLine
 10
2449.456462604578
 20
877.2241145308894
 30
0.0
 11
2450.170836225395
 21
877.6365136440256
 31
0.0
1001
AcDbBlockRepETag
1070
     1
1071
      106
1005
704
  0
LWPOLYLINE
  5
705
330
415
100
AcDbEntity
  8
0
  6
Continuous
 62
     7
370
    15
100
AcDbPolyline
 90
        9
 70
   128
 43
0.0
 10
2449.198807835659
 20
877.3250310943595
 10
2449.210611285554
 20
877.2809765257751
 10
2449.22988480337
 20
877.2443740006197
 10
2449.256042773023
 20
877.2163356680989
 10
2449.288290397839
 20
877.1977134587583
 10
2449.325647850058
 20
877.1890731990051
 10
2449.366980042399
 20
877.1906774187597
 10
2449.411031117109
 20
877.2024773746172
 10
2449.456462604578
 20
877.2241145308894
1001
AcDbBlockRepETag
1070
     1
1071
      107
1005
705
  0
LINE
  5
706
330
415
100
AcDbEntity
  8
0
  6
Continuous
 62
     7
370
    15
100
AcDbLine
 10
2449.000476616741
 20
878.5094054773903
 30
0.0
 11
2449.198807835659
 21
877.3250310943595
 31
0.0
1001
AcDbBlockRepETag
1070
     1
1071
      108
1005
706
  0
LINE
  5
707
330
415
100
AcDbEntity
  8
0
  6
Continuous
 62
     7
370
    15
100
AcDbLine
 10
2450.626822213225
 20
879.4482748058479
 30
0.0
 11
2450.626822213228
 21
884.6699106967415
 31
0.0
1001
AcDbBlockRepETag
1070
     1
1071
      109
1005
707
  0
LINE
  5
708
330
415
100
AcDbEntity
  8
0
  6
Continuous
 62
     7
370
    15
100
AcDbLine
 10
2450.306620369398
 20
885.058894489537
 30
0.0
 11
2450.450045517932
 21
884.9760969136912
 31
0.0
1001
AcDbBlockRepETag
1070
     1
1071
      110
1005
708
  0
LINE
  5
709
330
415
100
AcDbEntity
  8
0
  6
Continuous
 62
     7
370
    15
100
AcDbLine
 10
2445.592563251608
 20
875.2431904092118
 30
0.0
 11
2443.89857045999
 21
876.221111632174
 31
0.0
1001
AcDbBlockRepETag
1070
     1
1071
      111
1005
709
  0
LINE
  5
70A
330
415
100
AcDbEntity
  8
0
  6
Continuous
 62
     7
370
    15
100
AcDbLine
 10
2443.89857045999
 20
876.221111632174
 30
0.0
 11
2443.700239241071
 21
877.4054860152048
 31
0.0
1001
AcDbBlockRepETag
1070
     1
1071
      112
1005
70A
  0
ARC
  5
70B
330
415
100
AcDbEntity
  8
0
  6
Continuous
 62
     7
370
    15
100
AcDbCircle
 10
2444.05767112235
 20
876.2363163340642
 30
0.0
 40
0.1598255415222954
100
AcDbArc
 50
185.4589815370583
 51
237.2630757802572
1001
AcDbBlockRepETag
1070
     1
1071
      113
1005
70B
  0
LINE
  5
70C
330
415
100
AcDbEntity
  8
0
  6
Continuous
 62
     7
370
    15
100
AcDbLine
 10
2449.198807835659
 20
877.3250310943595
 30
0.0
 11
2447.504815044041
 21
878.3029523173221
 31
0.0
1001
AcDbBlockRepETag
1070
     1
1071
      114
1005
70C
  0
LINE
  5
70D
330
415
100
AcDbEntity
  8
0
  6
Continuous
 62
     7
370
    15
100
AcDbLine
 10
2447.504815044041
 20
878.3029523173221
 30
0.0
 11
2447.306483825122
 21
879.4873267003527
 31
0.0
1001
AcDbBlockRepETag
1070
     1
1071
      115
1005
70D
  0
ARC
  5
70E
330
415
100
AcDbEntity
  8
0
  6
Continuous
 62
     7
370
    15
100
AcDbCircle
 10
2447.663915706403
 20
878.3181570192127
 30
0.0
 40
0.1598255415234352
100
AcDbArc
 50
185.458981537175
 51
237.263075779921
1001
AcDbBlockRepETag
1070
     1
1071
      116
1005
70E
  0
LINE
  5
70F
330
415
100
AcDbEntity
  8
0
  6
Continuous
 62
     8
370
    15
100
AcDbLine
 10
2444.020441084886
 20
882.6464085192396
 30
0.0
 11
2444.19721777784
 21
882.7484595318647
 31
0.0
1001
AcDbBlockRepETag
1070
     1
1071
      117
1005
70F
  0
LINE
  5
710
330
415
100
AcDbEntity
  8
0
  6
Continuous
 62
     8
370
    15
100
AcDbLine
 10
2443.877015936368
 20
882.7292060950926
 30
0.0
 11
2444.197217780185
 21
882.9140546849155
 31
0.0
1001
AcDbBlockRepETag
1070
     1
1071
      118
1005
710
  0
LINE
  5
711
330
415
100
AcDbEntity
  8
0
  6
Continuous
 62
     8
370
    15
100
AcDbLine
 10
2447.626685668937
 20
884.7282492043868
 30
0.0
 11
2447.80346236189
 21
884.8303002170116
 31
0.0
1001
AcDbBlockRepETag
1070
     1
1071
      119
1005
711
  0
LINE
  5
712
330
415
100
AcDbEntity
  8
0
  6
Continuous
 62
     8
370
    15
100
AcDbLine
 10
2447.483260520419
 20
884.8110467802403
 30
0.0
 11
2447.803462364236
 21
884.995895370063
 31
0.0
1001
AcDbBlockRepETag
1070
     1
1071
      120
1005
712
  0
LINE
  5
713
330
415
100
AcDbEntity
  8
0
  6
Continuous
 62
     7
370
    15
100
AcDbLine
 10
2440.166709127452
 20
880.671823678532
 30
0.0
 11
2439.721517442055
 21
880.4148199890292
 31
0.0
1001
AcDbBlockRepETag
1070
     1
1071
      121
1005
713
  0
LINE
  5
714
330
415
100
AcDbEntity
  8
0
  6
Continuous
 62
     7
370
    15
100
AcDbLine
 10
2439.940731610637
 20
873.7751139713337
 30
0.0
 11
2441.634724402255
 21
872.7971927483713
 31
0.0
1001
AcDbBlockRepETag
1070
     1
1071
      122
1005
714
  0
LINE
  5
71D
330
415
100
AcDbEntity
  8
0
  6
Continuous
 62
     7
370
    15
100
AcDbLine
 10
2441.298079977189
 20
884.4202273015907
 30
0.0
 11
2441.29807997719
 21
885.4817303570461
 31
0.0
1001
AcDbBlockRepETag
1070
     1
1071
      131
1005
71D
  0
LINE
  5
71E
330
415
100
AcDbEntity
  8
0
  6
Continuous
 62
     7
370
    15
100
AcDbLine
 10
2443.065846930156
 20
885.440737441373
 30
0.0
 11
2441.298079977189
 21
884.4202273015907
 31
0.0
1001
AcDbBlockRepETag
1070
     1
1071
      132
1005
71E
  0
LINE
  5
71F
330
415
100
AcDbEntity
  8
0
  6
Continuous
 62
     7
370
    15
100
AcDbLine
 10
2441.29807997719
 20
885.4817303570461
 30
0.0
 11
2443.065846930156
 21
886.5022404968241
 31
0.0
1001
AcDbBlockRepETag
1070
     1
1071
      133
1005
71F
  0
LINE
  5
720
330
415
100
AcDbEntity
  8
0
  6
Continuous
 62
     7
370
    15
100
AcDbLine
 10
2443.34868964263
 20
882.992721547326
 30
0.0
 11
2443.34868964263
 21
888.3818909057737
 31
0.0
1001
AcDbBlockRepETag
1070
     1
1071
      134
1005
720
  0
LINE
  5
721
330
415
100
AcDbEntity
  8
0
  6
Continuous
 62
     7
370
    15
100
AcDbLine
 10
2443.207268286393
 20
882.7477725737669
 30
0.0
 11
2443.34868964263
 21
882.992721547326
 31
0.0
1001
AcDbBlockRepETag
1070
     1
1071
      135
1005
721
  0
LINE
  5
722
330
415
100
AcDbEntity
  8
0
  6
Continuous
 62
     7
370
    15
100
AcDbLine
 10
2443.207268286393
 20
881.6029823555034
 30
0.0
 11
2443.207268286393
 21
882.7477725737669
 31
0.0
1001
AcDbBlockRepETag
1070
     1
1071
      136
1005
722
  0
LINE
  5
723
330
415
100
AcDbEntity
  8
0
  6
Continuous
 62
     7
370
    15
100
AcDbLine
 10
2441.156658621045
 20
880.4191905934139
 30
0.0
 11
2443.207268286393
 21
881.6029823555034
 31
0.0
1001
AcDbBlockRepETag
1070
     1
1071
      137
1005
723
  0
LINE
  5
724
330
415
100
AcDbEntity
  8
0
  6
Continuous
 62
     7
370
    15
100
AcDbLine
 10
2441.156658621045
 20
880.4191905934139
 30
0.0
 11
2441.156658621045
 21
881.5639808116719
 31
0.0
1001
AcDbBlockRepETag
1070
     1
1071
      138
1005
724
  0
LINE
  5
725
330
415
100
AcDbEntity
  8
0
  6
Continuous
 62
     7
370
    15
100
AcDbLine
 10
2441.156658621045
 20
881.5639808116719
 30
0.0
 11
2441.015237264798
 21
881.6456481628714
 31
0.0
1001
AcDbBlockRepETag
1070
     1
1071
      139
1005
725
  0
LINE
  5
726
330
415
100
AcDbEntity
  8
0
  6
Continuous
 62
     7
370
    15
100
AcDbLine
 10
2441.015237264798
 20
887.0348175213074
 30
0.0
 11
2441.015237264798
 21
881.6456481628714
 31
0.0
1001
AcDbBlockRepETag
1070
     1
1071
      140
1005
726
  0
LINE
  5
727
330
415
100
AcDbEntity
  8
0
  6
Continuous
 62
     7
370
    15
100
AcDbLine
 10
2441.015237264798
 20
887.0348175213074
 30
0.0
 11
2439.318180989952
 21
886.055127787111
 31
0.0
1001
AcDbBlockRepETag
1070
     1
1071
      141
1005
727
  0
LINE
  5
728
330
415
100
AcDbEntity
  8
0
  6
Continuous
 62
     7
370
    15
100
AcDbLine
 10
2439.318180989952
 20
882.6253378970585
 30
0.0
 11
2441.015237264798
 21
881.6456481628714
 31
0.0
1001
AcDbBlockRepETag
1070
     1
1071
      142
1005
728
  0
LINE
  5
729
330
415
100
AcDbEntity
  8
0
  6
Continuous
 62
     7
370
    15
100
AcDbLine
 10
2439.318180989952
 20
886.0551277871111
 30
0.0
 11
2439.318180989952
 21
882.6253378970585
 31
0.0
1001
AcDbBlockRepETag
1070
     1
1071
      143
1005
729
  0
LINE
  5
72A
330
415
100
AcDbEntity
  8
0
  6
Continuous
 62
     7
370
    15
100
AcDbLine
 10
2441.298079977189
 20
884.4202273015907
 30
0.0
 11
2441.474856672487
 21
885.3796793430682
 31
0.0
1001
AcDbBlockRepETag
1070
     1
1071
      144
1005
72A
  0
LINE
  5
72B
330
415
100
AcDbEntity
  8
0
  6
Continuous
 62
     7
370
    15
100
AcDbLine
 10
2441.474856672487
 20
885.3796793430682
 30
0.0
 11
2441.29807997719
 21
885.4817303570461
 31
0.0
1001
AcDbBlockRepETag
1070
     1
1071
      145
1005
72B
  0
LINE
  5
72C
330
415
100
AcDbEntity
  8
0
  6
Continuous
 62
     7
370
    15
100
AcDbLine
 10
2443.242623625453
 20
886.4001894828465
 30
0.0
 11
2443.065846930156
 21
886.5022404968241
 31
0.0
1001
AcDbBlockRepETag
1070
     1
1071
      146
1005
72C
  0
LINE
  5
72D
330
415
100
AcDbEntity
  8
0
  6
Continuous
 62
     7
370
    15
100
AcDbLine
 10
2441.474856672487
 20
885.3796793430682
 30
0.0
 11
2443.242623625453
 21
886.4001894828465
 31
0.0
1001
AcDbBlockRepETag
1070
     1
1071
      147
1005
72D
  0
LINE
  5
72E
330
415
100
AcDbEntity
  8
0
  6
Continuous
 62
     7
370
    15
100
AcDbLine
 10
2443.242623625453
 20
886.4001894828465
 30
0.0
 11
2443.065846930156
 21
885.440737441373
 31
0.0
1001
AcDbBlockRepETag
1070
     1
1071
      148
1005
72E
  0
LINE
  5
72F
330
415
100
AcDbEntity
  8
0
  6
Continuous
 62
     7
370
    15
100
AcDbLine
 10
2439.459602346197
 20
882.5436705458589
 30
0.0
 11
2441.156658621045
 21
881.5639808116719
 31
0.0
1001
AcDbBlockRepETag
1070
     1
1071
      149
1005
72F
  0
LINE
  5
730
330
415
100
AcDbEntity
  8
0
  6
Continuous
 62
     7
370
    15
100
AcDbLine
 10
2439.459602346197
 20
882.5436705458589
 30
0.0
 11
2439.318180989952
 21
882.6253378970585
 31
0.0
1001
AcDbBlockRepETag
1070
     1
1071
      150
1005
730
  0
LINE
  5
731
330
415
100
AcDbEntity
  8
0
  6
Continuous
 62
     7
370
    15
100
AcDbLine
 10
2439.459602346197
 20
881.3988803276012
 30
0.0
 11
2441.156658621045
 21
880.4191905934139
 31
0.0
1001
AcDbBlockRepETag
1070
     1
1071
      151
1005
731
  0
LINE
  5
732
330
415
100
AcDbEntity
  8
0
  6
Continuous
 62
     7
370
    15
100
AcDbLine
 10
2439.459602346197
 20
882.5436705458589
 30
0.0
 11
2439.459602346197
 21
881.3988803276012
 31
0.0
1001
AcDbBlockRepETag
1070
     1
1071
      152
1005
732
  0
LINE
  5
733
330
415
100
AcDbEntity
  8
0
  6
Continuous
 62
     7
370
    15
100
AcDbLine
 10
2439.459602346197
 20
881.3988803276012
 30
0.0
 11
2439.742445058671
 21
881.235572165224
 31
0.0
1001
AcDbBlockRepETag
1070
     1
1071
      153
1005
733
  0
LINE
  5
734
330
415
100
AcDbEntity
  8
0
  6
Continuous
 62
     7
370
    15
100
AcDbLine
 10
2441.156658621045
 20
880.4191905934139
 30
0.0
 11
2441.156658621045
 21
880.4191640534012
 31
0.0
1001
AcDbBlockRepETag
1070
     1
1071
      154
1005
734
  0
LINE
  5
735
330
415
100
AcDbEntity
  8
0
  6
Continuous
 62
     7
370
    15
100
AcDbLine
 10
2441.156658621045
 20
880.4191640534012
 30
0.0
 11
2439.742445058671
 21
881.235572165224
 31
0.0
1001
AcDbBlockRepETag
1070
     1
1071
      155
1005
735
  0
LINE
  5
736
330
415
100
AcDbEntity
  8
0
  6
Continuous
 62
     7
370
    15
100
AcDbLine
 10
2443.207268286393
 20
881.6029823555034
 30
0.0
 11
2442.924425573919
 21
881.4396741931265
 31
0.0
1001
AcDbBlockRepETag
1070
     1
1071
      156
1005
736
  0
LINE
  5
737
330
415
100
AcDbEntity
  8
0
  6
Continuous
 62
     7
370
    15
100
AcDbLine
 10
2442.924425573919
 20
881.4396741931265
 30
0.0
 11
2441.156658621045
 21
880.4191640534012
 31
0.0
1001
AcDbBlockRepETag
1070
     1
1071
      157
1005
737
  0
ARC
  5
738
330
415
100
AcDbEntity
  8
0
  6
Continuous
 62
     7
370
    15
100
AcDbCircle
 10
2441.250548866174
 20
880.0350727872622
 30
0.0
 40
0.3842012018917073
100
AcDbArc
 50
182.6054784855653
 51
237.3945216600927
1001
AcDbBlockRepETag
1070
     1
1071
      158
1005
738
  0
LINE
  5
739
330
415
100
AcDbEntity
  8
0
  6
Continuous
 62
     7
370
    15
100
AcDbLine
 10
2441.186946684658
 20
879.6286237813992
 30
0.0
 11
2441.04352153613
 21
879.7114213572482
 31
0.0
1001
AcDbBlockRepETag
1070
     1
1071
      159
1005
739
  0
ARC
  5
73A
330
415
100
AcDbEntity
  8
0
  6
Continuous
 62
     7
370
    15
100
AcDbCircle
 10
2440.979919354613
 20
879.3049723513849
 30
0.0
 40
0.3842012018927381
100
AcDbArc
 50
2.605478485597795
 51
57.39452166000233
1001
AcDbBlockRepETag
1070
     1
1071
      160
1005
73A
  0
LINE
  5
73B
330
415
100
AcDbEntity
  8
0
  6
Continuous
 62
     7
370
    15
100
AcDbLine
 10
2441.363723379955
 20
879.3224375644497
 30
0.0
 11
2441.363723379955
 21
874.1008016735554
 31
0.0
1001
AcDbBlockRepETag
1070
     1
1071
      161
1005
73B
  0
LINE
  5
73C
330
415
100
AcDbEntity
  8
0
  6
Continuous
 62
     7
370
    15
100
AcDbLine
 10
2441.363723379955
 20
874.1008016735554
 30
0.0
 11
2439.669730588337
 21
875.0787228965178
 31
0.0
1001
AcDbBlockRepETag
1070
     1
1071
      162
1005
73C
  0
LINE
  5
73D
330
415
100
AcDbEntity
  8
0
  6
Continuous
 62
     7
370
    15
100
AcDbLine
 10
2439.669730588337
 20
875.0787228965178
 30
0.0
 11
2439.669730588337
 21
880.3003587874121
 31
0.0
1001
AcDbBlockRepETag
1070
     1
1071
      163
1005
73D
  0
ARC
  5
73E
330
415
100
AcDbEntity
  8
0
  6
Continuous
 62
     7
370
    15
100
AcDbCircle
 10
2439.777499180194
 20
880.317840586637
 30
0.0
 40
0.1091772993572724
100
AcDbArc
 50
50.79671476440671
 51
189.2140369903814
1001
AcDbBlockRepETag
1070
     1
1071
      164
1005
73E
  0
LINE
  5
73F
330
415
100
AcDbEntity
  8
0
  6
Continuous
 62
     7
370
    15
100
AcDbLine
 10
2439.846507283634
 20
880.4024429764059
 30
0.0
 11
2439.989932432153
 21
880.3196454005526
 31
0.0
1001
AcDbBlockRepETag
1070
     1
1071
      165
1005
73F
  0
ARC
  5
740
330
415
100
AcDbEntity
  8
0
  6
Continuous
 62
     7
370
    15
100
AcDbCircle
 10
2440.058940535591
 20
880.4042477903227
 30
0.0
 40
0.1091772993578319
100
AcDbArc
 50
230.7967147652449
 51
9.214036989391976
1001
AcDbBlockRepETag
1070
     1
1071
      166
1005
740
  0
LINE
  5
741
330
415
100
AcDbEntity
  8
0
  6
Continuous
 62
     7
370
    15
100
AcDbLine
 10
2440.166709127449
 20
880.421729589546
 30
0.0
 11
2440.166709127456
 21
880.9906497316351
 31
0.0
1001
AcDbBlockRepETag
1070
     1
1071
      167
1005
741
  0
LINE
  5
742
330
415
100
AcDbEntity
  8
0
  6
Continuous
 62
     7
370
    15
100
AcDbLine
 10
2440.866744840834
 20
880.0176075741976
 30
0.0
 11
2440.866744840834
 21
880.5865277162814
 31
0.0
1001
AcDbBlockRepETag
1070
     1
1071
      168
1005
742
  0
LINE
  5
743
330
415
100
AcDbEntity
  8
0
  6
Continuous
 62
     7
370
    15
100
AcDbLine
 10
2442.493090437298
 20
881.1906697189643
 30
0.0
 11
2442.493090437301
 21
880.9564769026428
 31
0.0
1001
AcDbBlockRepETag
1070
     1
1071
      169
1005
743
  0
LINE
  5
744
330
415
100
AcDbEntity
  8
0
  6
Continuous
 62
     7
370
    15
100
AcDbLine
 10
2442.493090437301
 20
880.9564769026428
 30
0.0
 11
2440.866744840834
 21
880.0176075741976
 31
0.0
1001
AcDbBlockRepETag
1070
     1
1071
      170
1005
744
  0
LINE
  5
745
330
415
100
AcDbEntity
  8
0
  6
Continuous
 62
     7
370
    15
100
AcDbLine
 10
2442.990068976443
 20
880.2613068929066
 30
0.0
 11
2441.363723379955
 21
879.3224375644497
 31
0.0
1001
AcDbBlockRepETag
1070
     1
1071
      171
1005
745
  0
LINE
  5
746
330
415
100
AcDbEntity
  8
0
  6
Continuous
 62
     7
370
    15
100
AcDbLine
 10
2442.813292281147
 20
880.5674931098565
 30
0.0
 11
2441.186946684658
 21
879.6286237813992
 31
0.0
1001
AcDbBlockRepETag
1070
     1
1071
      172
1005
746
  0
ARC
  5
747
330
415
100
AcDbEntity
  8
0
  6
Continuous
 62
     7
370
    15
100
AcDbCircle
 10
2442.606264951098
 20
880.2438416798397
 30
0.0
 40
0.3842012018978607
100
AcDbArc
 50
2.605478485871098
 51
57.39452165947827
1001
AcDbBlockRepETag
1070
     1
1071
      173
1005
747
  0
LINE
  5
748
330
415
100
AcDbEntity
  8
0
  6
Continuous
 62
     7
370
    15
100
AcDbLine
 10
2442.669867132613
 20
880.6502906857021
 30
0.0
 11
2441.04352153613
 21
879.7114213572482
 31
0.0
1001
AcDbBlockRepETag
1070
     1
1071
      174
1005
748
  0
ARC
  5
749
330
415
100
AcDbEntity
  8
0
  6
Continuous
 62
     7
370
    15
100
AcDbCircle
 10
2442.876894462703
 20
880.9739421157614
 30
0.0
 40
0.3842012019544738
100
AcDbArc
 50
182.6054784932199
 51
237.394521658022
1001
AcDbBlockRepETag
1070
     1
1071
      175
1005
749
  0
LINE
  5
74A
330
415
100
AcDbEntity
  8
0
  6
Continuous
 62
     7
370
    15
100
AcDbLine
 10
2442.791737757529
 20
873.6263082677767
 30
0.0
 11
2442.99006897644
 21
875.039671002013
 31
0.0
1001
AcDbBlockRepETag
1070
     1
1071
      176
1005
74A
  0
ARC
  5
74B
330
415
100
AcDbEntity
  8
0
  6
Continuous
 62
     7
370
    15
100
AcDbCircle
 10
2442.219701381358
 20
873.7137439963802
 30
0.0
 40
0.5786800690351719
100
AcDbArc
 50
302.9067666138764
 51
351.3096048992636
1001
AcDbBlockRepETag
1070
     1
1071
      177
1005
74B
  0
LINE
  5
74C
330
415
100
AcDbEntity
  8
0
  6
Continuous
 62
     7
370
    15
100
AcDbLine
 10
2441.819709367792
 20
872.8155107270543
 30
0.0
 11
2442.53408298861
 21
873.2279098401907
 31
0.0
1001
AcDbBlockRepETag
1070
     1
1071
      178
1005
74C
  0
LWPOLYLINE
  5
74D
330
415
100
AcDbEntity
  8
0
  6
Continuous
 62
     7
370
    15
100
AcDbPolyline
 90
        9
 70
   128
 43
0.0
 10
2441.562054598874
 20
872.9164272905247
 10
2441.573858048769
 20
872.8723727219401
 10
2441.593131566586
 20
872.8357701967848
 10
2441.619289536237
 20
872.807731864264
 10
2441.651537161054
 20
872.7891096549234
 10
2441.688894613273
 20
872.7804693951702
 10
2441.730226805612
 20
872.7820736149251
 10
2441.774277880324
 20
872.7938735707823
 10
2441.819709367792
 20
872.8155107270543
1001
AcDbBlockRepETag
1070
     1
1071
      179
1005
74D
  0
LINE
  5
74E
330
415
100
AcDbEntity
  8
0
  6
Continuous
 62
     7
370
    15
100
AcDbLine
 10
2441.363723379955
 20
874.1008016735554
 30
0.0
 11
2441.562054598874
 21
872.9164272905247
 31
0.0
1001
AcDbBlockRepETag
1070
     1
1071
      180
1005
74E
  0
LINE
  5
74F
330
415
100
AcDbEntity
  8
0
  6
Continuous
 62
     7
370
    15
100
AcDbLine
 10
2442.99006897644
 20
875.039671002013
 30
0.0
 11
2442.990068976443
 21
880.2613068929066
 31
0.0
1001
AcDbBlockRepETag
1070
     1
1071
      181
1005
74F
  0
LINE
  5
750
330
415
100
AcDbEntity
  8
0
  6
Continuous
 62
     7
370
    15
100
AcDbLine
 10
2442.669867132613
 20
880.6502906857021
 30
0.0
 11
2442.813292281147
 21
880.5674931098565
 31
0.0
1001
AcDbBlockRepETag
1070
     1
1071
      182
1005
750
  0
LINE
  5
751
330
415
100
AcDbEntity
  8
0
  6
Continuous
 62
     7
370
    15
100
AcDbLine
 10
2441.562054598874
 20
872.9164272905247
 30
0.0
 11
2439.868061807257
 21
873.8943485134871
 31
0.0
1001
AcDbBlockRepETag
1070
     1
1071
      183
1005
751
  0
LINE
  5
752
330
415
100
AcDbEntity
  8
0
  6
Continuous
 62
     7
370
    15
100
AcDbLine
 10
2439.868061807257
 20
873.8943485134871
 30
0.0
 11
2439.669730588337
 21
875.0787228965178
 31
0.0
1001
AcDbBlockRepETag
1070
     1
1071
      184
1005
752
  0
ARC
  5
753
330
415
100
AcDbEntity
  8
0
  6
Continuous
 62
     7
370
    15
100
AcDbCircle
 10
2440.027162469616
 20
873.9095532153775
 30
0.0
 40
0.1598255415222954
100
AcDbArc
 50
185.4589815370583
 51
237.2630757802572
1001
AcDbBlockRepETag
1070
     1
1071
      185
1005
753
  0
LINE
  5
754
330
415
100
AcDbEntity
  8
0
  6
Continuous
 62
     8
370
    15
100
AcDbLine
 10
2439.989932432153
 20
880.3196454005526
 30
0.0
 11
2440.166709125106
 21
880.4216964131777
 31
0.0
1001
AcDbBlockRepETag
1070
     1
1071
      186
1005
754
  0
LINE
  5
755
330
415
100
AcDbEntity
  8
0
  6
Continuous
 62
     8
370
    15
100
AcDbLine
 10
2439.846507283634
 20
880.4024429764059
 30
0.0
 11
2440.166709127451
 21
880.5872915662286
 31
0.0
1001
AcDbBlockRepETag
1070
     1
1071
      187
1005
755
  0
LINE
  5
759
330
415
100
AcDbEntity
  8
0
  6
Continuous
 62
     7
370
    15
100
AcDbLine
 10
2439.318180989952
 20
886.055127787111
 30
0.0
 11
2439.318180989952
 21
882.6253378970582
 31
0.0
1001
AcDbBlockRepETag
1070
     1
1071
      188
1005
759
  0
LINE
  5
75A
330
415
100
AcDbEntity
  8
0
  6
Continuous
 62
     7
370
    15
100
AcDbLine
 10
2436.136200474719
 20
878.3450605598448
 30
0.0
 11
2435.691008789321
 21
878.088056870342
 31
0.0
1001
AcDbBlockRepETag
1070
     1
1071
      189
1005
75A
  0
LINE
  5
75B
330
415
100
AcDbEntity
  8
0
  6
Continuous
 62
     7
370
    15
100
AcDbLine
 10
2435.910222957904
 20
871.4483508526463
 30
0.0
 11
2437.604215749522
 21
870.4704296296839
 31
0.0
1001
AcDbBlockRepETag
1070
     1
1071
      190
1005
75B
  0
LINE
  5
75C
330
415
100
AcDbEntity
  8
0
  6
Continuous
 62
     7
370
    15
100
AcDbLine
 10
2437.090794629273
 20
888.8096284732878
 30
0.0
 11
2434.333078182645
 21
890.4016242913423
 31
0.0
1001
AcDbBlockRepETag
1070
     1
1071
      123
1005
715
  0
LINE
  5
75D
330
415
100
AcDbEntity
  8
0
  6
Continuous
 62
     7
370
    15
100
AcDbLine
 10
2437.090794629273
 20
888.8096284732878
 30
0.0
 11
2437.090794629273
 21
887.8706065396187
 31
0.0
1001
AcDbBlockRepETag
1070
     1
1071
      124
1005
716
  0
LINE
  5
75E
330
415
100
AcDbEntity
  8
0
  6
Continuous
 62
     7
370
    15
100
AcDbLine
 10
2436.560464543382
 20
888.1767595815524
 30
0.0
 11
2437.090794629273
 21
887.8706065396187
 31
0.0
1001
AcDbBlockRepETag
1070
     1
1071
      125
1005
717
  0
LINE
  5
75F
330
415
100
AcDbEntity
  8
0
  6
Continuous
 62
     7
370
    15
100
AcDbLine
 10
2436.560464543382
 20
888.1767595815524
 30
0.0
 11
2436.560464543382
 21
884.4631319690881
 31
0.0
1001
AcDbBlockRepETag
1070
     1
1071
      126
1005
718
  0
LINE
  5
760
330
415
100
AcDbEntity
  8
0
  6
Continuous
 62
     7
370
    15
100
AcDbLine
 10
2434.863408268534
 20
885.4428217032753
 30
0.0
 11
2436.560464543382
 21
884.4631319690881
 31
0.0
1001
AcDbBlockRepETag
1070
     1
1071
      127
1005
719
  0
LINE
  5
761
330
415
100
AcDbEntity
  8
0
  6
Continuous
 62
     7
370
    15
100
AcDbLine
 10
2434.863408268534
 20
889.1564493157396
 30
0.0
 11
2434.863408268534
 21
885.4428217032753
 31
0.0
1001
AcDbBlockRepETag
1070
     1
1071
      128
1005
71A
  0
LINE
  5
762
330
415
100
AcDbEntity
  8
0
  6
Continuous
 62
     7
370
    15
100
AcDbLine
 10
2434.333078182645
 20
889.462602357673
 30
0.0
 11
2434.863408268534
 21
889.1564493157396
 31
0.0
1001
AcDbBlockRepETag
1070
     1
1071
      129
1005
71B
  0
LINE
  5
763
330
415
100
AcDbEntity
  8
0
  6
Continuous
 62
     7
370
    15
100
AcDbLine
 10
2434.333078182645
 20
889.462602357673
 30
0.0
 11
2434.333078182645
 21
890.4016242913423
 31
0.0
1001
AcDbBlockRepETag
1070
     1
1071
      130
1005
71C
  0
LINE
  5
764
330
415
100
AcDbEntity
  8
0
  6
Continuous
 62
     7
370
    15
100
AcDbLine
 10
2437.267571324456
 20
882.0934641829033
 30
0.0
 11
2437.267571324457
 21
883.1549672383587
 31
0.0
1001
AcDbBlockRepETag
1070
     1
1071
      191
1005
764
  0
LINE
  5
765
330
415
100
AcDbEntity
  8
0
  6
Continuous
 62
     7
370
    15
100
AcDbLine
 10
2439.035338277423
 20
883.1139743226858
 30
0.0
 11
2437.267571324456
 21
882.0934641829033
 31
0.0
1001
AcDbBlockRepETag
1070
     1
1071
      192
1005
765
  0
LINE
  5
766
330
415
100
AcDbEntity
  8
0
  6
Continuous
 62
     7
370
    15
100
AcDbLine
 10
2437.267571324457
 20
883.1549672383587
 30
0.0
 11
2439.035338277423
 21
884.1754773781371
 31
0.0
1001
AcDbBlockRepETag
1070
     1
1071
      193
1005
766
  0
LINE
  5
767
330
415
100
AcDbEntity
  8
0
  6
Continuous
 62
     7
370
    15
100
AcDbLine
 10
2439.318180989897
 20
880.6659584286389
 30
0.0
 11
2439.318180989897
 21
886.0551277870865
 31
0.0
1001
AcDbBlockRepETag
1070
     1
1071
      194
1005
767
  0
LINE
  5
768
330
415
100
AcDbEntity
  8
0
  6
Continuous
 62
     7
370
    15
100
AcDbLine
 10
2439.176759633661
 20
880.4210094550795
 30
0.0
 11
2439.318180989897
 21
880.6659584286389
 31
0.0
1001
AcDbBlockRepETag
1070
     1
1071
      195
1005
768
  0
LINE
  5
769
330
415
100
AcDbEntity
  8
0
  6
Continuous
 62
     7
370
    15
100
AcDbLine
 10
2439.176759633661
 20
879.2762192368162
 30
0.0
 11
2439.176759633661
 21
880.4210094550795
 31
0.0
1001
AcDbBlockRepETag
1070
     1
1071
      196
1005
769
  0
LINE
  5
76A
330
415
100
AcDbEntity
  8
0
  6
Continuous
 62
     7
370
    15
100
AcDbLine
 10
2437.126149968312
 20
878.0924274747265
 30
0.0
 11
2439.176759633661
 21
879.2762192368162
 31
0.0
1001
AcDbBlockRepETag
1070
     1
1071
      197
1005
76A
  0
LINE
  5
76B
330
415
100
AcDbEntity
  8
0
  6
Continuous
 62
     7
370
    15
100
AcDbLine
 10
2437.126149968312
 20
878.0924274747265
 30
0.0
 11
2437.126149968311
 21
879.2372176929845
 31
0.0
1001
AcDbBlockRepETag
1070
     1
1071
      198
1005
76B
  0
LINE
  5
76C
330
415
100
AcDbEntity
  8
0
  6
Continuous
 62
     7
370
    15
100
AcDbLine
 10
2437.126149968311
 20
879.2372176929845
 30
0.0
 11
2436.984728612066
 21
879.3188850441843
 31
0.0
1001
AcDbBlockRepETag
1070
     1
1071
      199
1005
76C
  0
LINE
  5
76D
330
415
100
AcDbEntity
  8
0
  6
Continuous
 62
     7
370
    15
100
AcDbLine
 10
2436.984728612066
 20
884.70805440262
 30
0.0
 11
2436.984728612066
 21
879.3188850441843
 31
0.0
1001
AcDbBlockRepETag
1070
     1
1071
      200
1005
76D
  0
LINE
  5
76E
330
415
100
AcDbEntity
  8
0
  6
Continuous
 62
     7
370
    15
100
AcDbLine
 10
2436.984728612066
 20
884.70805440262
 30
0.0
 11
2436.560464543382
 21
884.4631319690881
 31
0.0
1001
AcDbBlockRepETag
1070
     1
1071
      201
1005
76E
  0
LINE
  5
76F
330
415
100
AcDbEntity
  8
0
  6
Continuous
 62
     7
370
    15
100
AcDbLine
 10
2435.287672337218
 20
880.2985747783713
 30
0.0
 11
2436.984728612066
 21
879.3188850441843
 31
0.0
1001
AcDbBlockRepETag
1070
     1
1071
      202
1005
76F
  0
LINE
  5
770
330
415
100
AcDbEntity
  8
0
  6
Continuous
 62
     7
370
    15
100
AcDbLine
 10
2435.287672337218
 20
885.1978992697453
 30
0.0
 11
2435.287672337218
 21
880.2985747783713
 31
0.0
1001
AcDbBlockRepETag
1070
     1
1071
      203
1005
770
  0
LINE
  5
771
330
415
100
AcDbEntity
  8
0
  6
Continuous
 62
     7
370
    15
100
AcDbLine
 10
2437.267571324456
 20
882.0934641829033
 30
0.0
 11
2437.444348019754
 21
883.0529162243809
 31
0.0
1001
AcDbBlockRepETag
1070
     1
1071
      204
1005
771
  0
LINE
  5
772
330
415
100
AcDbEntity
  8
0
  6
Continuous
 62
     7
370
    15
100
AcDbLine
 10
2437.444348019754
 20
883.0529162243809
 30
0.0
 11
2437.267571324457
 21
883.1549672383587
 31
0.0
1001
AcDbBlockRepETag
1070
     1
1071
      205
1005
772
  0
LINE
  5
773
330
415
100
AcDbEntity
  8
0
  6
Continuous
 62
     7
370
    15
100
AcDbLine
 10
2439.21211497272
 20
884.0734263641591
 30
0.0
 11
2439.035338277423
 21
884.1754773781371
 31
0.0
1001
AcDbBlockRepETag
1070
     1
1071
      206
1005
773
  0
LINE
  5
774
330
415
100
AcDbEntity
  8
0
  6
Continuous
 62
     7
370
    15
100
AcDbLine
 10
2437.444348019754
 20
883.0529162243809
 30
0.0
 11
2439.21211497272
 21
884.0734263641591
 31
0.0
1001
AcDbBlockRepETag
1070
     1
1071
      207
1005
774
  0
LINE
  5
775
330
415
100
AcDbEntity
  8
0
  6
Continuous
 62
     7
370
    15
100
AcDbLine
 10
2439.21211497272
 20
884.0734263641591
 30
0.0
 11
2439.035338277423
 21
883.1139743226858
 31
0.0
1001
AcDbBlockRepETag
1070
     1
1071
      208
1005
775
  0
LINE
  5
776
330
415
100
AcDbEntity
  8
0
  6
Continuous
 62
     7
370
    15
100
AcDbLine
 10
2435.429093693464
 20
880.2169074271715
 30
0.0
 11
2437.126149968311
 21
879.2372176929845
 31
0.0
1001
AcDbBlockRepETag
1070
     1
1071
      209
1005
776
  0
LINE
  5
777
330
415
100
AcDbEntity
  8
0
  6
Continuous
 62
     7
370
    15
100
AcDbLine
 10
2435.429093693464
 20
880.2169074271715
 30
0.0
 11
2435.287672337218
 21
880.2985747783713
 31
0.0
1001
AcDbBlockRepETag
1070
     1
1071
      210
1005
777
  0
LINE
  5
778
330
415
100
AcDbEntity
  8
0
  6
Continuous
 62
     7
370
    15
100
AcDbLine
 10
2435.429093693464
 20
879.0721172089137
 30
0.0
 11
2437.126149968312
 21
878.0924274747265
 31
0.0
1001
AcDbBlockRepETag
1070
     1
1071
      211
1005
778
  0
LINE
  5
779
330
415
100
AcDbEntity
  8
0
  6
Continuous
 62
     7
370
    15
100
AcDbLine
 10
2435.429093693464
 20
880.2169074271715
 30
0.0
 11
2435.429093693464
 21
879.0721172089137
 31
0.0
1001
AcDbBlockRepETag
1070
     1
1071
      212
1005
779
  0
LINE
  5
77A
330
415
100
AcDbEntity
  8
0
  6
Continuous
 62
     7
370
    15
100
AcDbLine
 10
2435.429093693464
 20
879.0721172089137
 30
0.0
 11
2435.711936405938
 21
878.9088090465368
 31
0.0
1001
AcDbBlockRepETag
1070
     1
1071
      213
1005
77A
  0
LINE
  5
77B
330
415
100
AcDbEntity
  8
0
  6
Continuous
 62
     7
370
    15
100
AcDbLine
 10
2437.126149968312
 20
878.0924274747265
 30
0.0
 11
2437.126149968311
 21
878.092400934714
 31
0.0
1001
AcDbBlockRepETag
1070
     1
1071
      214
1005
77B
  0
LINE
  5
77C
330
415
100
AcDbEntity
  8
0
  6
Continuous
 62
     7
370
    15
100
AcDbLine
 10
2437.126149968311
 20
878.092400934714
 30
0.0
 11
2435.711936405938
 21
878.9088090465368
 31
0.0
1001
AcDbBlockRepETag
1070
     1
1071
      215
1005
77C
  0
LINE
  5
77D
330
415
100
AcDbEntity
  8
0
  6
Continuous
 62
     7
370
    15
100
AcDbLine
 10
2439.176759633661
 20
879.2762192368162
 30
0.0
 11
2438.893916921185
 21
879.1129110744392
 31
0.0
1001
AcDbBlockRepETag
1070
     1
1071
      216
1005
77D
  0
LINE
  5
77E
330
415
100
AcDbEntity
  8
0
  6
Continuous
 62
     7
370
    15
100
AcDbLine
 10
2438.893916921185
 20
879.1129110744392
 30
0.0
 11
2437.126149968311
 21
878.092400934714
 31
0.0
1001
AcDbBlockRepETag
1070
     1
1071
      217
1005
77E
  0
ARC
  5
77F
330
415
100
AcDbEntity
  8
0
  6
Continuous
 62
     7
370
    15
100
AcDbCircle
 10
2437.220040213441
 20
877.7083096685746
 30
0.0
 40
0.3842012018917073
100
AcDbArc
 50
182.6054784855653
 51
237.3945216600927
1001
AcDbBlockRepETag
1070
     1
1071
      218
1005
77F
  0
LINE
  5
780
330
415
100
AcDbEntity
  8
0
  6
Continuous
 62
     7
370
    15
100
AcDbLine
 10
2437.156438031925
 20
877.301860662712
 30
0.0
 11
2437.013012883397
 21
877.3846582385612
 31
0.0
1001
AcDbBlockRepETag
1070
     1
1071
      219
1005
780
  0
ARC
  5
781
330
415
100
AcDbEntity
  8
0
  6
Continuous
 62
     7
370
    15
100
AcDbCircle
 10
2436.94941070188
 20
876.9782092326973
 30
0.0
 40
0.3842012018927381
100
AcDbArc
 50
2.605478485597795
 51
57.39452166000233
1001
AcDbBlockRepETag
1070
     1
1071
      220
1005
781
  0
LINE
  5
782
330
415
100
AcDbEntity
  8
0
  6
Continuous
 62
     7
370
    15
100
AcDbLine
 10
2437.333214727222
 20
876.9956744457621
 30
0.0
 11
2437.333214727222
 21
871.7740385548681
 31
0.0
1001
AcDbBlockRepETag
1070
     1
1071
      221
1005
782
  0
LINE
  5
783
330
415
100
AcDbEntity
  8
0
  6
Continuous
 62
     7
370
    15
100
AcDbLine
 10
2437.333214727222
 20
871.7740385548681
 30
0.0
 11
2435.639221935604
 21
872.7519597778305
 31
0.0
1001
AcDbBlockRepETag
1070
     1
1071
      222
1005
783
  0
LINE
  5
784
330
415
100
AcDbEntity
  8
0
  6
Continuous
 62
     7
370
    15
100
AcDbLine
 10
2435.639221935604
 20
872.7519597778305
 30
0.0
 11
2435.639221935604
 21
877.9735956687247
 31
0.0
1001
AcDbBlockRepETag
1070
     1
1071
      223
1005
784
  0
ARC
  5
785
330
415
100
AcDbEntity
  8
0
  6
Continuous
 62
     7
370
    15
100
AcDbCircle
 10
2435.746990527461
 20
877.9910774679496
 30
0.0
 40
0.1091772993572724
100
AcDbArc
 50
50.79671476440671
 51
189.2140369903814
1001
AcDbBlockRepETag
1070
     1
1071
      224
1005
785
  0
LINE
  5
786
330
415
100
AcDbEntity
  8
0
  6
Continuous
 62
     7
370
    15
100
AcDbLine
 10
2435.8159986309
 20
878.0756798577185
 30
0.0
 11
2435.959423779419
 21
877.9928822818654
 31
0.0
1001
AcDbBlockRepETag
1070
     1
1071
      225
1005
786
  0
ARC
  5
787
330
415
100
AcDbEntity
  8
0
  6
Continuous
 62
     7
370
    15
100
AcDbCircle
 10
2436.028431882858
 20
878.0774846716354
 30
0.0
 40
0.1091772993578319
100
AcDbArc
 50
230.7967147652449
 51
9.214036989391976
1001
AcDbBlockRepETag
1070
     1
1071
      226
1005
787
  0
LINE
  5
788
330
415
100
AcDbEntity
  8
0
  6
Continuous
 62
     7
370
    15
100
AcDbLine
 10
2436.136200474716
 20
878.0949664708586
 30
0.0
 11
2436.136200474723
 21
878.6638866129479
 31
0.0
1001
AcDbBlockRepETag
1070
     1
1071
      227
1005
788
  0
LINE
  5
789
330
415
100
AcDbEntity
  8
0
  6
Continuous
 62
     7
370
    15
100
AcDbLine
 10
2436.8362361881
 20
877.6908444555104
 30
0.0
 11
2436.8362361881
 21
878.2597645975943
 31
0.0
1001
AcDbBlockRepETag
1070
     1
1071
      228
1005
789
  0
LINE
  5
78A
330
415
100
AcDbEntity
  8
0
  6
Continuous
 62
     7
370
    15
100
AcDbLine
 10
2438.462581784565
 20
878.8639066002771
 30
0.0
 11
2438.462581784568
 21
878.6297137839554
 31
0.0
1001
AcDbBlockRepETag
1070
     1
1071
      229
1005
78A
  0
LINE
  5
78B
330
415
100
AcDbEntity
  8
0
  6
Continuous
 62
     7
370
    15
100
AcDbLine
 10
2438.462581784568
 20
878.6297137839554
 30
0.0
 11
2436.8362361881
 21
877.6908444555104
 31
0.0
1001
AcDbBlockRepETag
1070
     1
1071
      230
1005
78B
  0
LINE
  5
78C
330
415
100
AcDbEntity
  8
0
  6
Continuous
 62
     7
370
    15
100
AcDbLine
 10
2438.95956032371
 20
877.9345437742192
 30
0.0
 11
2437.333214727222
 21
876.9956744457621
 31
0.0
1001
AcDbBlockRepETag
1070
     1
1071
      231
1005
78C
  0
LINE
  5
78D
330
415
100
AcDbEntity
  8
0
  6
Continuous
 62
     7
370
    15
100
AcDbLine
 10
2438.782783628414
 20
878.2407299911692
 30
0.0
 11
2437.156438031925
 21
877.301860662712
 31
0.0
1001
AcDbBlockRepETag
1070
     1
1071
      232
1005
78D
  0
ARC
  5
78E
330
415
100
AcDbEntity
  8
0
  6
Continuous
 62
     7
370
    15
100
AcDbCircle
 10
2438.575756298363
 20
877.9170785611524
 30
0.0
 40
0.3842012018978607
100
AcDbArc
 50
2.605478485871098
 51
57.39452165947827
1001
AcDbBlockRepETag
1070
     1
1071
      233
1005
78E
  0
LINE
  5
78F
330
415
100
AcDbEntity
  8
0
  6
Continuous
 62
     7
370
    15
100
AcDbLine
 10
2438.639358479879
 20
878.3235275670149
 30
0.0
 11
2437.013012883397
 21
877.3846582385612
 31
0.0
1001
AcDbBlockRepETag
1070
     1
1071
      234
1005
78F
  0
ARC
  5
790
330
415
100
AcDbEntity
  8
0
  6
Continuous
 62
     7
370
    15
100
AcDbCircle
 10
2438.846385809969
 20
878.6471789970741
 30
0.0
 40
0.3842012019544738
100
AcDbArc
 50
182.6054784932199
 51
237.394521658022
1001
AcDbBlockRepETag
1070
     1
1071
      235
1005
790
  0
LINE
  5
791
330
415
100
AcDbEntity
  8
0
  6
Continuous
 62
     7
370
    15
100
AcDbLine
 10
2438.761229104796
 20
871.2995451490895
 30
0.0
 11
2438.959560323706
 21
872.7129078833257
 31
0.0
1001
AcDbBlockRepETag
1070
     1
1071
      236
1005
791
  0
ARC
  5
792
330
415
100
AcDbEntity
  8
0
  6
Continuous
 62
     7
370
    15
100
AcDbCircle
 10
2438.189192728625
 20
871.386980877693
 30
0.0
 40
0.5786800690351719
100
AcDbArc
 50
302.9067666138764
 51
351.3096048992636
1001
AcDbBlockRepETag
1070
     1
1071
      237
1005
792
  0
LINE
  5
793
330
415
100
AcDbEntity
  8
0
  6
Continuous
 62
     7
370
    15
100
AcDbLine
 10
2437.789200715059
 20
870.4887476083673
 30
0.0
 11
2438.503574335877
 21
870.9011467215034
 31
0.0
1001
AcDbBlockRepETag
1070
     1
1071
      238
1005
793
  0
LWPOLYLINE
  5
794
330
415
100
AcDbEntity
  8
0
  6
Continuous
 62
     7
370
    15
100
AcDbPolyline
 90
        9
 70
   128
 43
0.0
 10
2437.531545946141
 20
870.5896641718375
 10
2437.543349396035
 20
870.5456096032529
 10
2437.562622913852
 20
870.5090070780975
 10
2437.588780883504
 20
870.4809687455769
 10
2437.621028508321
 20
870.4623465362361
 10
2437.65838596054
 20
870.4537062764831
 10
2437.69971815288
 20
870.4553104962377
 10
2437.743769227591
 20
870.4671104520953
 10
2437.789200715059
 20
870.4887476083673
1001
AcDbBlockRepETag
1070
     1
1071
      239
1005
794
  0
LINE
  5
795
330
415
100
AcDbEntity
  8
0
  6
Continuous
 62
     7
370
    15
100
AcDbLine
 10
2437.333214727222
 20
871.7740385548681
 30
0.0
 11
2437.531545946141
 21
870.5896641718375
 31
0.0
1001
AcDbBlockRepETag
1070
     1
1071
      240
1005
795
  0
LINE
  5
796
330
415
100
AcDbEntity
  8
0
  6
Continuous
 62
     7
370
    15
100
AcDbLine
 10
2438.959560323706
 20
872.7129078833257
 30
0.0
 11
2438.95956032371
 21
877.9345437742192
 31
0.0
1001
AcDbBlockRepETag
1070
     1
1071
      241
1005
796
  0
LINE
  5
797
330
415
100
AcDbEntity
  8
0
  6
Continuous
 62
     7
370
    15
100
AcDbLine
 10
2438.639358479879
 20
878.3235275670149
 30
0.0
 11
2438.782783628414
 21
878.2407299911692
 31
0.0
1001
AcDbBlockRepETag
1070
     1
1071
      242
1005
797
  0
LINE
  5
798
330
415
100
AcDbEntity
  8
0
  6
Continuous
 62
     7
370
    15
100
AcDbLine
 10
2437.531545946141
 20
870.5896641718375
 30
0.0
 11
2435.837553154523
 21
871.5675853947997
 31
0.0
1001
AcDbBlockRepETag
1070
     1
1071
      243
1005
798
  0
LINE
  5
799
330
415
100
AcDbEntity
  8
0
  6
Continuous
 62
     7
370
    15
100
AcDbLine
 10
2435.837553154523
 20
871.5675853947997
 30
0.0
 11
2435.639221935604
 21
872.7519597778305
 31
0.0
1001
AcDbBlockRepETag
1070
     1
1071
      244
1005
799
  0
ARC
  5
79A
330
415
100
AcDbEntity
  8
0
  6
Continuous
 62
     7
370
    15
100
AcDbCircle
 10
2435.996653816883
 20
871.58279009669
 30
0.0
 40
0.1598255415222954
100
AcDbArc
 50
185.4589815370583
 51
237.2630757802572
1001
AcDbBlockRepETag
1070
     1
1071
      245
1005
79A
  0
LINE
  5
79B
330
415
100
AcDbEntity
  8
0
  6
Continuous
 62
     8
370
    15
100
AcDbLine
 10
2435.959423779419
 20
877.9928822818654
 30
0.0
 11
2436.136200472373
 21
878.0949332944905
 31
0.0
1001
AcDbBlockRepETag
1070
     1
1071
      246
1005
79B
  0
LINE
  5
79C
330
415
100
AcDbEntity
  8
0
  6
Continuous
 62
     8
370
    15
100
AcDbLine
 10
2435.8159986309
 20
878.0756798577185
 30
0.0
 11
2436.136200474718
 21
878.2605284475414
 31
0.0
1001
AcDbBlockRepETag
1070
     1
1071
      247
1005
79C
  0
ENDBLK
  5
417
330
415
100
AcDbEntity
  8
0
100
AcDbBlockEnd
  0
ENDSEC
  0
SECTION
  2
ENTITIES
  0
INSERT
  5
3DF
330
1F
100
AcDbEntity
  8
0
100
AcDbBlockReference
  2
1
 10
0.0
 20
0.0
 30
0.0
  0
INSERT
  5
40C
330
1F
100
AcDbEntity
  8
0
100
AcDbBlockReference
  2
2
 10
0.0
 20
0.0
 30
0.0
  0
INSERT
  5
414
330
1F
100
AcDbEntity
  8
0
100
AcDbBlockReference
  2
3
 10
0.0
 20
0.0
 30
0.0
  0
INSERT
  5
499
330
1F
100
AcDbEntity
  8
0
100
AcDbBlockReference
  2
4
 10
22.51607420189021
 20
0.0
 30
0.0
  0
ENDSEC
  0
SECTION
  2
OBJECTS
  0
DICTIONARY
  5
C
330
0
100
AcDbDictionary
281
     1
  3
ACAD_COLOR
350
6B
  3
ACAD_GROUP
350
D
  3
ACAD_LAYOUT
350
1A
  3
ACAD_MATERIAL
350
6A
  3
ACAD_MLEADERSTYLE
350
12D
  3
ACAD_MLINESTYLE
350
17
  3
ACAD_PLOTSETTINGS
350
19
  3
ACAD_PLOTSTYLENAME
350
E
  3
ACAD_SCALELIST
350
10C
  3
ACAD_TABLESTYLE
350
7E
  3
ACAD_VISUALSTYLE
350
EF
  3
ACDB_RECOMPOSE_DATA
350
15D
  3
AcDbVariableDictionary
350
5E
  3
DWGPROPS
350
7B2
  0
DICTIONARY
  5
13C
330
10
100
AcDbDictionary
280
     1
281
     1
  3
ADSK_XREC_LAYER_RECONCILED
360
49A
  0
DICTIONARY
  5
665
330
397
100
AcDbDictionary
280
     1
281
     1
  0
DICTIONARY
  5
691
330
40D
100
AcDbDictionary
280
     1
281
     1
  3
ACAD_SORTENTS
360
692
  0
DICTIONARY
  5
756
330
415
100
AcDbDictionary
280
     1
281
     1
  0
DICTIONARY
  5
6B
102
{ACAD_REACTORS
330
C
102
}
330
C
100
AcDbDictionary
281
     1
  0
DICTIONARY
  5
D
102
{ACAD_REACTORS
330
C
102
}
330
C
100
AcDbDictionary
281
     1
  0
DICTIONARY
  5
1A
102
{ACAD_REACTORS
330
C
102
}
330
C
100
AcDbDictionary
281
     1
  3
Layout1
350
D3
  3
Layout2
350
D7
  3
Model
350
22
  0
DICTIONARY
  5
6A
102
{ACAD_REACTORS
330
C
102
}
330
C
100
AcDbDictionary
281
     1
  3
ByBlock
350
ED
  3
ByLayer
350
EC
  3
Global
350
EE
  0
DICTIONARY
  5
12D
102
{ACAD_REACTORS
330
C
102
}
330
C
100
AcDbDictionary
281
     1
  3
Annotative
350
13B
  3
Standard
350
12E
  0
DICTIONARY
  5
17
102
{ACAD_REACTORS
330
C
102
}
330
C
100
AcDbDictionary
281
     1
  3
Standard
350
18
  0
DICTIONARY
  5
19
102
{ACAD_REACTORS
330
C
102
}
330
C
100
AcDbDictionary
281
     1
  0
ACDBDICTIONARYWDFLT
  5
E
102
{ACAD_REACTORS
330
C
102
}
330
C
100
AcDbDictionary
281
     1
  3
Normal
350
F
100
AcDbDictionaryWithDefault
340
F
  0
DICTIONARY
  5
10C
102
{ACAD_REACTORS
330
C
102
}
330
C
100
AcDbDictionary
281
     1
  3
A0
350
10D
  3
A1
350
188
  3
A2
350
189
  3
A3
350
18A
  3
A4
350
18B
  3
A5
350
18C
  3
A6
350
18D
  3
A7
350
18E
  3
A8
350
18F
  3
A9
350
190
  3
B0
350
191
  3
B1
350
192
  3
B2
350
193
  3
B3
350
194
  3
B4
350
195
  3
B5
350
196
  3
B6
350
197
  3
B7
350
198
  3
B8
350
199
  3
B9
350
19A
  3
C0
350
19B
  3
C1
350
19C
  3
C2
350
19D
  3
C3
350
19E
  3
C4
350
19F
  3
C5
350
1A0
  3
C6
350
1A1
  3
C7
350
1A2
  3
C8
350
1A3
  3
C9
350
1A4
  3
D0
350
1A5
  3
D1
350
1A6
  3
D2
350
1A7
  0
DICTIONARY
  5
7E
102
{ACAD_REACTORS
330
C
102
}
330
C
100
AcDbDictionary
281
     1
  3
Standard
350
7F
  0
DICTIONARY
  5
EF
102
{ACAD_REACTORS
330
C
102
}
330
C
100
AcDbDictionary
281
     1
  3
2dWireframe
350
F5
  3
3D Hidden
350
F7
  3
3dWireframe
350
F6
  3
Basic
350
F4
  3
Brighten
350
FB
  3
ColorChange
350
FF
  3
Conceptual
350
F8
  3
Dim
350
FA
  3
Facepattern
350
FE
  3
Flat
350
F0
  3
FlatWithEdges
350
F1
  3
Gouraud
350
F2
  3
GouraudWithEdges
350
F3
  3
Linepattern
350
FD
  3
Realistic
350
F9
  3
Thicken
350
FC
  0
XRECORD
  5
15D
102
{ACAD_REACTORS
330
C
102
}
330
C
100
AcDbXrecord
280
     1
 90
        1
330
7F
  0
DICTIONARY
  5
5E
102
{ACAD_REACTORS
330
C
102
}
330
C
100
AcDbDictionary
281
     1
  3
CANNOSCALE
350
146
  3
CMLEADERSTYLE
350
145
  3
CTABLESTYLE
350
84
  3
DIMASSOC
350
5F
  3
HIDETEXT
350
63
  3
INDEXCTL
350
7AB
  3
LIGHTINGUNITS
350
7A9
  3
LOFTANG1
350
7AE
  3
LOFTANG2
350
7AF
  3
LONGITUDE
350
7B0
  3
MSLTSCALE
350
7A8
  3
PSOLHEIGHT
350
7AD
  3
PSOLWIDTH
350
7AC
  3
SORTENTS
350
7AA
  0
XRECORD
  5
7B2
102
{ACAD_REACTORS
330
C
102
}
330
C
100
AcDbXrecord
280
     1
  1
DWGPROPS COOKIE
  2

  3

  4

  6

  7

  8
orhan kara
  9

300
=
301
=
302
=
303
=
304
=
305
=
306
=
307
=
308
=
309
=
 40
0.0180937615740741
 41
2458929.545061111
 42
2458956.436770718
  1

 90
        0
  0
XRECORD
  5
49A
102
{ACAD_REACTORS
330
13C
102
}
330
13C
100
AcDbXrecord
280
     1
290
     1
  0
SORTENTSTABLE
  5
692
102
{ACAD_REACTORS
330
691
102
}
330
691
100
AcDbSortentsTable
330
40D
331
68E
  5
690
331
695
  5
68E
331
68F
  5
695
331
68D
  5
68D
  0
LAYOUT
  5
D3
102
{ACAD_XDICTIONARY
360
7B6
102
}
102
{ACAD_REACTORS
330
1A
102
}
330
1A
100
AcDbPlotSettings
  1

  2
C:\Documents and Settings\basas\Application Data\Autodesk\AutoCAD 2005\R16.1\enu\plotters\Default Windows System Printer.pc3
  4

  6

 40
0.0
 41
0.0
 42
0.0
 43
0.0
 44
0.0
 45
0.0
 46
0.0
 47
0.0
 48
0.0
 49
0.0
140
0.0
141
0.0
142
1.0
143
1.0
 70
   688
 72
     0
 73
     0
 74
     5
  7

 75
    16
147
1.0
148
0.0
149
0.0
100
AcDbLayout
  1
Layout1
 70
     1
 71
     1
 10
0.0
 20
0.0
 11
12.0
 21
9.0
 12
0.0
 22
0.0
 32
0.0
 14
0.0
 24
0.0
 34
0.0
 15
0.0
 25
0.0
 35
0.0
146
0.0
 13
0.0
 23
0.0
 33
0.0
 16
1.0
 26
0.0
 36
0.0
 17
0.0
 27
1.0
 37
0.0
 76
     0
330
D2
  0
LAYOUT
  5
D7
102
{ACAD_XDICTIONARY
360
7B8
102
}
102
{ACAD_REACTORS
330
1A
102
}
330
1A
100
AcDbPlotSettings
  1

  2
C:\Documents and Settings\basas\Application Data\Autodesk\AutoCAD 2005\R16.1\enu\plotters\Default Windows System Printer.pc3
  4

  6

 40
0.0
 41
0.0
 42
0.0
 43
0.0
 44
0.0
 45
0.0
 46
0.0
 47
0.0
 48
0.0
 49
0.0
140
0.0
141
0.0
142
1.0
143
1.0
 70
   688
 72
     0
 73
     0
 74
     5
  7

 75
    16
147
1.0
148
0.0
149
0.0
100
AcDbLayout
  1
Layout2
 70
     1
 71
     2
 10
0.0
 20
0.0
 11
12.0
 21
9.0
 12
0.0
 22
0.0
 32
0.0
 14
0.0
 24
0.0
 34
0.0
 15
0.0
 25
0.0
 35
0.0
146
0.0
 13
0.0
 23
0.0
 33
0.0
 16
1.0
 26
0.0
 36
0.0
 17
0.0
 27
1.0
 37
0.0
 76
     0
330
D6
  0
LAYOUT
  5
22
102
{ACAD_XDICTIONARY
360
7B3
102
}
102
{ACAD_REACTORS
330
1A
102
}
330
1A
100
AcDbPlotSettings
  1

  2
none_device
  4
ISO_A4_(210.00_x_297.00_MM)
  6

 40
7.5
 41
20.0
 42
7.5
 43
20.0
 44
210.0
 45
297.0
 46
11.54999923706054
 47
-13.65000009536743
 48
0.0
 49
0.0
140
0.0
141
0.0
142
1.0
143
8.704084754739808
 70
 11952
 72
     1
 73
     0
 74
     0
  7

 75
     0
147
0.1148885871608098
148
0.0
149
0.0
100
AcDbLayout
  1
Model
 70
     1
 71
     0
 10
0.0
 20
0.0
 11
12.0
 21
9.0
 12
0.0
 22
0.0
 32
0.0
 14
0.0
 24
0.0
 34
0.0
 15
0.0
 25
0.0
 35
0.0
146
0.0
 13
0.0
 23
0.0
 33
0.0
 16
1.0
 26
0.0
 36
0.0
 17
0.0
 27
1.0
 37
0.0
 76
     0
330
1F
331
EA
1001
ACAD_PSEXT
1000
None
1000
None
1000
Not applicable
1000
The layout will not be plotted unless a new plotter configuration name is selected.
1070
     0
  0
MATERIAL
  5
ED
102
{ACAD_XDICTIONARY
360
7BC
102
}
102
{ACAD_REACTORS
330
6A
102
}
330
6A
100
AcDbMaterial
  1
ByBlock
  0
MATERIAL
  5
EC
102
{ACAD_XDICTIONARY
360
7BA
102
}
102
{ACAD_REACTORS
330
6A
102
}
330
6A
100
AcDbMaterial
  1
ByLayer
  0
MATERIAL
  5
EE
102
{ACAD_XDICTIONARY
360
173
102
}
102
{ACAD_REACTORS
330
6A
102
}
330
6A
100
AcDbMaterial
  1
Global
 43
0.0007999999797903
 43
0.0
 43
0.0
 43
0.0
 43
0.0
 43
0.0007999999797903
 43
0.0
 43
0.0
 43
0.0
 43
0.0
 43
1.0
 43
0.0
 43
0.0
 43
0.0
 43
0.0
 43
1.0
 49
0.0007999999797903
 49
0.0
 49
0.0
 49
0.0
 49
0.0
 49
0.0007999999797903
 49
0.0
 49
0.0
 49
0.0
 49
0.0
 49
1.0
 49
0.0
 49
0.0
 49
0.0
 49
0.0
 49
1.0
142
0.0007999999797903
142
0.0
142
0.0
142
0.0
142
0.0
142
0.0007999999797903
142
0.0
142
0.0
142
0.0
142
0.0
142
1.0
142
0.0
142
0.0
142
0.0
142
0.0
142
1.0
144
0.0007999999797903
144
0.0
144
0.0
144
0.0
144
0.0
144
0.0007999999797903
144
0.0
144
0.0
144
0.0
144
0.0
144
1.0
144
0.0
144
0.0
144
0.0
144
0.0
144
1.0
1001
ACAD
1070
    -1
1070
     3
1070
     0
1000

1071
        0
1070
     0
  0
MLEADERSTYLE
  5
13B
102
{ACAD_REACTORS
330
12D
102
}
330
12D
100
AcDbMLeaderStyle
170
     2
171
     1
172
     0
 90
        2
 40
0.0
 41
0.0
173
     1
 91
-1056964608
340
14
 92
       -2
290
     1
 42
2.0
291
     1
 43
8.0
  3
Standard
 44
4.0
300

342
11
174
     1
178
     1
175
     1
176
     0
 93
-1056964608
 45
4.0
292
     0
297
     0
 46
4.0
 94
-1056964608
 47
1.0
 49
1.0
140
1.0
293
     1
141
0.0
294
     1
177
     0
142
1.0
295
     0
296
     1
143
3.75
1001
ACAD_MLEADERVER
1070
     2
  0
MLEADERSTYLE
  5
12E
102
{ACAD_REACTORS
330
12D
102
}
330
12D
100
AcDbMLeaderStyle
170
     2
171
     1
172
     0
 90
        2
 40
0.0
 41
0.0
173
     1
 91
-1056964608
340
14
 92
       -2
290
     1
 42
2.0
291
     1
 43
8.0
  3
Standard
 44
4.0
300

342
11
174
     1
178
     1
175
     1
176
     0
 93
-1056964608
 45
4.0
292
     0
297
     0
 46
4.0
 94
-1056964608
 47
1.0
 49
1.0
140
1.0
293
     1
141
0.0
294
     1
177
     0
142
1.0
295
     0
296
     0
143
3.75
1001
ACAD_MLEADERVER
1070
     2
  0
MLINESTYLE
  5
18
102
{ACAD_REACTORS
330
17
102
}
330
17
100
AcDbMlineStyle
  2
STANDARD
 70
     0
  3

 62
   256
 51
90.0
 52
90.0
 71
     2
 49
0.5
 62
   256
  6
BYLAYER
 49
-0.5
 62
   256
  6
BYLAYER
  0
ACDBPLACEHOLDER
  5
F
102
{ACAD_REACTORS
330
E
102
}
330
E
  0
SCALE
  5
10D
102
{ACAD_REACTORS
330
10C
102
}
330
10C
100
AcDbScale
 70
     0
300
1:1
140
1.0
141
1.0
290
     1
  0
SCALE
  5
188
102
{ACAD_REACTORS
330
10C
102
}
330
10C
100
AcDbScale
 70
     0
300
1:2
140
1.0
141
2.0
290
     0
  0
SCALE
  5
189
102
{ACAD_REACTORS
330
10C
102
}
330
10C
100
AcDbScale
 70
     0
300
1:4
140
1.0
141
4.0
290
     0
  0
SCALE
  5
18A
102
{ACAD_REACTORS
330
10C
102
}
330
10C
100
AcDbScale
 70
     0
300
1:5
140
1.0
141
5.0
290
     0
  0
SCALE
  5
18B
102
{ACAD_REACTORS
330
10C
102
}
330
10C
100
AcDbScale
 70
     0
300
1:8
140
1.0
141
8.0
290
     0
  0
SCALE
  5
18C
102
{ACAD_REACTORS
330
10C
102
}
330
10C
100
AcDbScale
 70
     0
300
1:10
140
1.0
141
10.0
290
     0
  0
SCALE
  5
18D
102
{ACAD_REACTORS
330
10C
102
}
330
10C
100
AcDbScale
 70
     0
300
1:16
140
1.0
141
16.0
290
     0
  0
SCALE
  5
18E
102
{ACAD_REACTORS
330
10C
102
}
330
10C
100
AcDbScale
 70
     0
300
1:20
140
1.0
141
20.0
290
     0
  0
SCALE
  5
18F
102
{ACAD_REACTORS
330
10C
102
}
330
10C
100
AcDbScale
 70
     0
300
1:30
140
1.0
141
30.0
290
     0
  0
SCALE
  5
190
102
{ACAD_REACTORS
330
10C
102
}
330
10C
100
AcDbScale
 70
     0
300
1:40
140
1.0
141
40.0
290
     0
  0
SCALE
  5
191
102
{ACAD_REACTORS
330
10C
102
}
330
10C
100
AcDbScale
 70
     0
300
1:50
140
1.0
141
50.0
290
     0
  0
SCALE
  5
192
102
{ACAD_REACTORS
330
10C
102
}
330
10C
100
AcDbScale
 70
     0
300
1:100
140
1.0
141
100.0
290
     0
  0
SCALE
  5
193
102
{ACAD_REACTORS
330
10C
102
}
330
10C
100
AcDbScale
 70
     0
300
2:1
140
2.0
141
1.0
290
     0
  0
SCALE
  5
194
102
{ACAD_REACTORS
330
10C
102
}
330
10C
100
AcDbScale
 70
     0
300
4:1
140
4.0
141
1.0
290
     0
  0
SCALE
  5
195
102
{ACAD_REACTORS
330
10C
102
}
330
10C
100
AcDbScale
 70
     0
300
8:1
140
8.0
141
1.0
290
     0
  0
SCALE
  5
196
102
{ACAD_REACTORS
330
10C
102
}
330
10C
100
AcDbScale
 70
     0
300
10:1
140
10.0
141
1.0
290
     0
  0
SCALE
  5
197
102
{ACAD_REACTORS
330
10C
102
}
330
10C
100
AcDbScale
 70
     0
300
100:1
140
100.0
141
1.0
290
     0
  0
SCALE
  5
198
102
{ACAD_REACTORS
330
10C
102
}
330
10C
100
AcDbScale
 70
     0
300
1/128" = 1'-0"
140
0.0078125
141
12.0
290
     0
  0
SCALE
  5
199
102
{ACAD_REACTORS
330
10C
102
}
330
10C
100
AcDbScale
 70
     0
300
1/64" = 1'-0"
140
0.015625
141
12.0
290
     0
  0
SCALE
  5
19A
102
{ACAD_REACTORS
330
10C
102
}
330
10C
100
AcDbScale
 70
     0
300
1/32" = 1'-0"
140
0.03125
141
12.0
290
     0
  0
SCALE
  5
19B
102
{ACAD_REACTORS
330
10C
102
}
330
10C
100
AcDbScale
 70
     0
300
1/16" = 1'-0"
140
0.0625
141
12.0
290
     0
  0
SCALE
  5
19C
102
{ACAD_REACTORS
330
10C
102
}
330
10C
100
AcDbScale
 70
     0
300
3/32" = 1'-0"
140
0.09375
141
12.0
290
     0
  0
SCALE
  5
19D
102
{ACAD_REACTORS
330
10C
102
}
330
10C
100
AcDbScale
 70
     0
300
1/8" = 1'-0"
140
0.125
141
12.0
290
     0
  0
SCALE
  5
19E
102
{ACAD_REACTORS
330
10C
102
}
330
10C
100
AcDbScale
 70
     0
300
3/16" = 1'-0"
140
0.1875
141
12.0
290
     0
  0
SCALE
  5
19F
102
{ACAD_REACTORS
330
10C
102
}
330
10C
100
AcDbScale
 70
     0
300
1/4" = 1'-0"
140
0.25
141
12.0
290
     0
  0
SCALE
  5
1A0
102
{ACAD_REACTORS
330
10C
102
}
330
10C
100
AcDbScale
 70
     0
300
3/8" = 1'-0"
140
0.375
141
12.0
290
     0
  0
SCALE
  5
1A1
102
{ACAD_REACTORS
330
10C
102
}
330
10C
100
AcDbScale
 70
     0
300
1/2" = 1'-0"
140
0.5
141
12.0
290
     0
  0
SCALE
  5
1A2
102
{ACAD_REACTORS
330
10C
102
}
330
10C
100
AcDbScale
 70
     0
300
3/4" = 1'-0"
140
0.75
141
12.0
290
     0
  0
SCALE
  5
1A3
102
{ACAD_REACTORS
330
10C
102
}
330
10C
100
AcDbScale
 70
     0
300
1" = 1'-0"
140
1.0
141
12.0
290
     0
  0
SCALE
  5
1A4
102
{ACAD_REACTORS
330
10C
102
}
330
10C
100
AcDbScale
 70
     0
300
1-1/2" = 1'-0"
140
1.5
141
12.0
290
     0
  0
SCALE
  5
1A5
102
{ACAD_REACTORS
330
10C
102
}
330
10C
100
AcDbScale
 70
     0
300
3" = 1'-0"
140
3.0
141
12.0
290
     0
  0
SCALE
  5
1A6
102
{ACAD_REACTORS
330
10C
102
}
330
10C
100
AcDbScale
 70
     0
300
6" = 1'-0"
140
6.0
141
12.0
290
     0
  0
SCALE
  5
1A7
102
{ACAD_REACTORS
330
10C
102
}
330
10C
100
AcDbScale
 70
     0
300
1'-0" = 1'-0"
140
12.0
141
12.0
290
     0
  0
TABLESTYLE
  5
7F
102
{ACAD_XDICTIONARY
360
162
102
}
102
{ACAD_REACTORS
330
7E
102
}
330
7E
100
AcDbTableStyle
  3
Standard
 70
     0
 71
     0
 40
1.5
 41
1.5
280
     0
281
     0
  7
Standard
140
4.5
170
     2
 62
     0
 63
     7
283
     0
274
    -2
284
     1
 64
     0
275
    -2
285
     1
 65
     0
276
    -2
286
     1
 66
     0
277
    -2
287
     1
 67
     0
278
    -2
288
     1
 68
     0
279
    -2
289
     1
 69
     0
  7
Standard
140
6.0
170
     5
 62
     0
 63
     7
283
     0
274
    -2
284
     1
 64
     0
275
    -2
285
     1
 65
     0
276
    -2
286
     1
 66
     0
277
    -2
287
     1
 67
     0
278
    -2
288
     1
 68
     0
279
    -2
289
     1
 69
     0
  7
Standard
140
4.5
170
     5
 62
     0
 63
     7
283
     0
274
    -2
284
     1
 64
     0
275
    -2
285
     1
 65
     0
276
    -2
286
     1
 66
     0
277
    -2
287
     1
 67
     0
278
    -2
288
     1
 68
     0
279
    -2
289
     1
 69
     0
  0
VISUALSTYLE
  5
F5
102
{ACAD_REACTORS
330
EF
102
}
330
EF
100
AcDbVisualStyle
  2
2dWireframe
 70
     4
 71
     0
 72
     2
 73
     1
 90
        0
 40
-0.6
 41
-30.0
 62
     5
 63
     7
 74
     1
 91
        4
 64
     7
 65
   257
 75
     1
175
     1
 42
1.0
 92
        0
 66
   257
 43
1.0
 76
     1
 77
     6
 78
     2
 67
     7
 79
     5
170
     0
171
     0
290
     0
174
     0
 93
        1
 44
0.0
173
     0
291
     0
 45
0.0
1001
ACAD
1000
AcDbSavedByObjectVersion
1070
     0
  0
VISUALSTYLE
  5
F7
102
{ACAD_REACTORS
330
EF
102
}
330
EF
100
AcDbVisualStyle
  2
3D Hidden
 70
     6
 71
     1
 72
     2
 73
     2
 90
        0
 40
-0.6
 41
-30.0
 62
     5
 63
     7
 74
     2
 91
        2
 64
     7
 65
   257
 75
     2
175
     1
 42
40.0
 92
        0
 66
   257
 43
1.0
 76
     1
 77
     6
 78
     2
 67
     7
 79
     3
170
     0
171
     0
290
     0
174
     0
 93
        1
 44
0.0
173
     0
291
     0
 45
0.0
1001
ACAD
1000
AcDbSavedByObjectVersion
1070
     0
  0
VISUALSTYLE
  5
F6
102
{ACAD_REACTORS
330
EF
102
}
330
EF
100
AcDbVisualStyle
  2
3dWireframe
 70
     5
 71
     0
 72
     2
 73
     1
 90
        0
 40
-0.6
 41
-30.0
 62
     5
 63
     7
 74
     1
 91
        4
 64
     7
 65
   257
 75
     1
175
     1
 42
1.0
 92
        0
 66
   257
 43
1.0
 76
     1
 77
     6
 78
     2
 67
     7
 79
     5
170
     0
171
     0
290
     0
174
     0
 93
        1
 44
0.0
173
     0
291
     0
 45
0.0
1001
ACAD
1000
AcDbSavedByObjectVersion
1070
     0
  0
VISUALSTYLE
  5
F4
102
{ACAD_REACTORS
330
EF
102
}
330
EF
100
AcDbVisualStyle
  2
Basic
 70
     7
 71
     1
 72
     0
 73
     1
 90
        0
 40
-0.6
 41
-30.0
 62
     5
 63
     7
 74
     0
 91
        4
 64
     7
 65
   257
 75
     1
175
     1
 42
1.0
 92
        8
 66
     7
 43
1.0
 76
     1
 77
     6
 78
     2
 67
     7
 79
     5
170
     0
171
     0
290
     0
174
     0
 93
        1
 44
0.0
173
     0
291
     1
 45
0.0
1001
ACAD
1000
AcDbSavedByObjectVersion
1070
     0
  0
VISUALSTYLE
  5
FB
102
{ACAD_REACTORS
330
EF
102
}
330
EF
100
AcDbVisualStyle
  2
Brighten
 70
    12
 71
     2
 72
     2
 73
     1
 90
        0
 40
-0.6
 41
-30.0
 62
     5
 63
     7
 74
     1
 91
        4
 64
     7
 65
   257
 75
     1
175
     1
 42
1.0
 92
        8
 66
     7
 43
1.0
 76
     1
 77
     6
 78
     2
 67
     7
 79
     5
170
     0
171
     0
290
     0
174
     0
 93
        1
 44
50.0
173
     0
291
     1
 45
0.0
1001
ACAD
1000
AcDbSavedByObjectVersion
1070
     0
  0
VISUALSTYLE
  5
FF
102
{ACAD_REACTORS
330
EF
102
}
330
EF
100
AcDbVisualStyle
  2
ColorChange
 70
    16
 71
     2
 72
     2
 73
     3
 90
        0
 40
-0.6
 41
-30.0
 62
     5
 63
     8
 74
     1
 91
        4
 64
     7
 65
   257
 75
     1
175
     1
 42
1.0
 92
        8
 66
     8
 43
1.0
 76
     1
 77
     6
 78
     2
 67
     7
 79
     5
170
     0
171
     0
290
     0
174
     0
 93
        1
 44
0.0
173
     0
291
     1
 45
0.0
1001
ACAD
1000
AcDbSavedByObjectVersion
1070
     0
  0
VISUALSTYLE
  5
F8
102
{ACAD_REACTORS
330
EF
102
}
330
EF
100
AcDbVisualStyle
  2
Conceptual
 70
     9
 71
     3
 72
     2
 73
     1
 90
        0
 40
-0.6
 41
-30.0
 62
     5
 63
     7
 74
     2
 91
        2
 64
     7
 65
   257
 75
     1
175
     1
 42
40.0
 92
        8
 66
     7
 43
1.0
 76
     1
 77
     6
 78
     2
 67
     7
 79
     3
170
     0
171
     0
290
     0
174
     0
 93
        1
 44
0.0
173
     0
291
     0
 45
0.0
1001
ACAD
1000
AcDbSavedByObjectVersion
1070
     0
  0
VISUALSTYLE
  5
FA
102
{ACAD_REACTORS
330
EF
102
}
330
EF
100
AcDbVisualStyle
  2
Dim
 70
    11
 71
     2
 72
     2
 73
     1
 90
        0
 40
-0.6
 41
-30.0
 62
     5
 63
     7
 74
     1
 91
        4
 64
     7
 65
   257
 75
     1
175
     1
 42
1.0
 92
        8
 66
     7
 43
1.0
 76
     1
 77
     6
 78
     2
 67
     7
 79
     5
170
     0
171
     0
290
     0
174
     0
 93
        1
 44
-50.0
173
     0
291
     1
 45
0.0
1001
ACAD
1000
AcDbSavedByObjectVersion
1070
     0
  0
VISUALSTYLE
  5
FE
102
{ACAD_REACTORS
330
EF
102
}
330
EF
100
AcDbVisualStyle
  2
Facepattern
 70
    15
 71
     2
 72
     2
 73
     1
 90
        0
 40
-0.6
 41
-30.0
 62
     5
 63
     7
 74
     1
 91
        4
 64
     7
 65
   257
 75
     1
175
     1
 42
1.0
 92
        8
 66
     7
 43
1.0
 76
     1
 77
     6
 78
     2
 67
     7
 79
     5
170
     0
171
     0
290
     0
174
     0
 93
        1
 44
0.0
173
     0
291
     1
 45
0.0
1001
ACAD
1000
AcDbSavedByObjectVersion
1070
     0
  0
VISUALSTYLE
  5
F0
102
{ACAD_REACTORS
330
EF
102
}
330
EF
100
AcDbVisualStyle
  2
Flat
 70
     0
 71
     2
 72
     1
 73
     1
 90
        2
 40
-0.6
 41
30.0
 62
     5
 63
     7
 74
     0
 91
        4
 64
     7
 65
   257
 75
     1
175
     1
 42
1.0
 92
        8
 66
     7
 43
1.0
 76
     1
 77
     6
 78
     2
 67
     7
 79
     5
170
     0
171
     0
290
     0
174
     0
 93
        1
 44
0.0
173
     0
291
     1
 45
0.0
1001
ACAD
1000
AcDbSavedByObjectVersion
1070
     0
  0
VISUALSTYLE
  5
F1
102
{ACAD_REACTORS
330
EF
102
}
330
EF
100
AcDbVisualStyle
  2
FlatWithEdges
 70
     1
 71
     2
 72
     1
 73
     1
 90
        2
 40
-0.6
 41
30.0
 62
     5
 63
     7
 74
     1
 91
        4
 64
     7
 65
   257
 75
     1
175
     1
 42
1.0
 92
        0
 66
   257
 43
1.0
 76
     1
 77
     6
 78
     2
 67
     7
 79
     5
170
     0
171
     0
290
     0
174
     0
 93
        1
 44
0.0
173
     0
291
     1
 45
0.0
1001
ACAD
1000
AcDbSavedByObjectVersion
1070
     0
  0
VISUALSTYLE
  5
F2
102
{ACAD_REACTORS
330
EF
102
}
330
EF
100
AcDbVisualStyle
  2
Gouraud
 70
     2
 71
     2
 72
     2
 73
     1
 90
        2
 40
-0.6
 41
30.0
 62
     5
 63
     7
 74
     0
 91
        4
 64
     7
 65
   257
 75
     1
175
     1
 42
1.0
 92
        0
 66
     7
 43
1.0
 76
     1
 77
     6
 78
     2
 67
     7
 79
     5
170
     0
171
     0
290
     0
174
     0
 93
        1
 44
0.0
173
     0
291
     1
 45
0.0
1001
ACAD
1000
AcDbSavedByObjectVersion
1070
     0
  0
VISUALSTYLE
  5
F3
102
{ACAD_REACTORS
330
EF
102
}
330
EF
100
AcDbVisualStyle
  2
GouraudWithEdges
 70
     3
 71
     2
 72
     2
 73
     1
 90
        2
 40
-0.6
 41
30.0
 62
     5
 63
     7
 74
     1
 91
        4
 64
     7
 65
   257
 75
     1
175
     1
 42
1.0
 92
        0
 66
   257
 43
1.0
 76
     1
 77
     6
 78
     2
 67
     7
 79
     5
170
     0
171
     0
290
     0
174
     0
 93
        1
 44
0.0
173
     0
291
     1
 45
0.0
1001
ACAD
1000
AcDbSavedByObjectVersion
1070
     0
  0
VISUALSTYLE
  5
FD
102
{ACAD_REACTORS
330
EF
102
}
330
EF
100
AcDbVisualStyle
  2
Linepattern
 70
    14
 71
     2
 72
     2
 73
     1
 90
        0
 40
-0.6
 41
-30.0
 62
     5
 63
     7
 74
     1
 91
        4
 64
     7
 65
   257
 75
     7
175
     7
 42
1.0
 92
        8
 66
     7
 43
1.0
 76
     1
 77
     6
 78
     2
 67
     7
 79
     5
170
     0
171
     0
290
     0
174
     0
 93
        1
 44
0.0
173
     0
291
     1
 45
0.0
1001
ACAD
1000
AcDbSavedByObjectVersion
1070
     0
  0
VISUALSTYLE
  5
F9
102
{ACAD_REACTORS
330
EF
102
}
330
EF
100
AcDbVisualStyle
  2
Realistic
 70
     8
 71
     2
 72
     2
 73
     1
 90
        0
 40
-0.6
 41
-30.0
 62
     5
 63
     7
 74
     1
 91
        0
 64
     7
 65
   257
 75
     1
175
     1
 42
1.0
 92
        8
 66
     8
 43
1.0
 76
     1
 77
     6
 78
     2
 67
     7
 79
     5
170
     0
171
     0
290
     0
174
     0
 93
       13
 44
0.0
173
     0
291
     0
 45
0.0
1001
ACAD
1000
AcDbSavedByObjectVersion
1070
     0
  0
VISUALSTYLE
  5
FC
102
{ACAD_REACTORS
330
EF
102
}
330
EF
100
AcDbVisualStyle
  2
Thicken
 70
    13
 71
     2
 72
     2
 73
     1
 90
        0
 40
-0.6
 41
-30.0
 62
     5
 63
     7
 74
     1
 91
        4
 64
     7
 65
   257
 75
     1
175
     1
 42
1.0
 92
       12
 66
     7
 43
1.0
 76
     1
 77
     6
 78
     2
 67
     7
 79
     5
170
     0
171
     0
290
     0
174
     0
 93
        1
 44
0.0
173
     0
291
     1
 45
0.0
1001
ACAD
1000
AcDbSavedByObjectVersion
1070
     0
  0
DICTIONARYVAR
  5
146
102
{ACAD_REACTORS
330
5E
102
}
330
5E
100
DictionaryVariables
280
     0
  1
1:1
  0
DICTIONARYVAR
  5
145
102
{ACAD_REACTORS
330
5E
102
}
330
5E
100
DictionaryVariables
280
     0
  1
STANDARD
  0
DICTIONARYVAR
  5
84
102
{ACAD_REACTORS
330
5E
102
}
330
5E
100
DictionaryVariables
280
     0
  1
STANDARD
  0
DICTIONARYVAR
  5
5F
102
{ACAD_REACTORS
330
5E
102
}
330
5E
100
DictionaryVariables
280
     0
  1
2
  0
DICTIONARYVAR
  5
63
102
{ACAD_REACTORS
330
5E
102
}
330
5E
100
DictionaryVariables
280
     0
  1
1
  0
DICTIONARYVAR
  5
7AB
102
{ACAD_REACTORS
330
5E
102
}
330
5E
100
DictionaryVariables
280
     0
  1
0
  0
DICTIONARYVAR
  5
7A9
102
{ACAD_REACTORS
330
5E
102
}
330
5E
100
DictionaryVariables
280
     0
  1
2
  0
DICTIONARYVAR
  5
7AE
102
{ACAD_REACTORS
330
5E
102
}
330
5E
100
DictionaryVariables
280
     0
  1
1.570796
  0
DICTIONARYVAR
  5
7AF
102
{ACAD_REACTORS
330
5E
102
}
330
5E
100
DictionaryVariables
280
     0
  1
1.570796
  0
DICTIONARYVAR
  5
7B0
102
{ACAD_REACTORS
330
5E
102
}
330
5E
100
DictionaryVariables
280
     0
  1
-122.394000
  0
DICTIONARYVAR
  5
7A8
102
{ACAD_REACTORS
330
5E
102
}
330
5E
100
DictionaryVariables
280
     0
  1
1
  0
DICTIONARYVAR
  5
7AD
102
{ACAD_REACTORS
330
5E
102
}
330
5E
100
DictionaryVariables
280
     0
  1
80.000000
  0
DICTIONARYVAR
  5
7AC
102
{ACAD_REACTORS
330
5E
102
}
330
5E
100
DictionaryVariables
280
     0
  1
5.000000
  0
DICTIONARYVAR
  5
7AA
102
{ACAD_REACTORS
330
5E
102
}
330
5E
100
DictionaryVariables
280
     0
  1
127
  0
DICTIONARY
  5
7B6
330
D3
100
AcDbDictionary
280
     1
281
     1
  3
ACAD_XREC_ROUNDTRIP
360
7B7
  0
DICTIONARY
  5
7B8
330
D7
100
AcDbDictionary
280
     1
281
     1
  3
ACAD_XREC_ROUNDTRIP
360
7B9
  0
DICTIONARY
  5
7B3
330
22
100
AcDbDictionary
280
     1
281
     1
  3
ACAD_XREC_ROUNDTRIP
360
7B4
  0
DICTIONARY
  5
7BC
330
ED
100
AcDbDictionary
280
     1
281
     1
  3
ACAD_XREC_ROUNDTRIP
360
7BD
  0
DICTIONARY
  5
7BA
330
EC
100
AcDbDictionary
280
     1
281
     1
  3
ACAD_XREC_ROUNDTRIP
360
7BB
  0
DICTIONARY
  5
173
330
EE
100
AcDbDictionary
280
     1
281
     1
  3
ACAD_XREC_ROUNDTRIP
360
7BE
  3
BUMPTILE
360
175
  3
DIFFUSETILE
360
174
  3
OPACITYTILE
360
176
  3
REFLECTIONTILE
360
177
  0
DICTIONARY
  5
162
330
7F
100
AcDbDictionary
280
     1
281
     1
  3
ACAD_ROUNDTRIP_2008_TABLESTYLE_CELLSTYLEMAP
360
7B1
  3
ACAD_XREC_ROUNDTRIP
360
7B5
  0
XRECORD
  5
7B7
102
{ACAD_REACTORS
330
7B6
102
}
330
7B6
100
AcDbXrecord
280
     1
102
SHADEPLOT
 70
     0
102
SHADEPLOTRESLEVEL
 70
     2
102
SHADEPLOTCUSTOMDPI
 70
   300
  0
XRECORD
  5
7B9
102
{ACAD_REACTORS
330
7B8
102
}
330
7B8
100
AcDbXrecord
280
     1
102
SHADEPLOT
 70
     0
102
SHADEPLOTRESLEVEL
 70
     2
102
SHADEPLOTCUSTOMDPI
 70
   300
  0
XRECORD
  5
7B4
102
{ACAD_REACTORS
330
7B3
102
}
330
7B3
100
AcDbXrecord
280
     1
102
SHADEPLOT
 70
     0
102
SHADEPLOTRESLEVEL
 70
     2
102
SHADEPLOTCUSTOMDPI
 70
   300
  0
XRECORD
  5
7BD
102
{ACAD_REACTORS
330
7BC
102
}
330
7BC
100
AcDbXrecord
280
     1
102
MATERIAL
148
0.0
149
0.0
149
0.0
 93
        0
 94
       63
282
     0
 72
     1
 77
     1
171
     1
175
     1
179
     1
273
     0
  0
XRECORD
  5
7BB
102
{ACAD_REACTORS
330
7BA
102
}
330
7BA
100
AcDbXrecord
280
     1
102
MATERIAL
148
0.0
149
0.0
149
0.0
 93
        0
 94
       63
282
     0
 72
     1
 77
     1
171
     1
175
     1
179
     1
273
     0
  0
XRECORD
  5
7BE
102
{ACAD_REACTORS
330
173
102
}
330
173
100
AcDbXrecord
280
     1
102
MATERIAL
148
0.0
149
0.0
149
0.0
 93
        0
 94
       63
282
     0
 72
     1
 77
     1
171
     1
175
     1
179
     1
273
     0
  0
XRECORD
  5
175
102
{ACAD_REACTORS
330
173
102
}
330
173
100
AcDbXrecord
280
     1
270
     1
271
     1
  0
XRECORD
  5
174
102
{ACAD_REACTORS
330
173
102
}
330
173
100
AcDbXrecord
280
     1
270
     1
271
     1
  0
XRECORD
  5
176
102
{ACAD_REACTORS
330
173
102
}
330
173
100
AcDbXrecord
280
     1
270
     1
271
     1
  0
XRECORD
  5
177
102
{ACAD_REACTORS
330
173
102
}
330
173
100
AcDbXrecord
280
     1
270
     1
271
     1
  0
CELLSTYLEMAP
  5
7B1
102
{ACAD_REACTORS
330
162
102
}
330
162
100
AcDbCellStyleMap
 90
        3
300
CELLSTYLE
  1
TABLEFORMAT_BEGIN
 90
        5
170
     1
 91
        0
 92
    32768
 62
   257
 93
        1
300
CONTENTFORMAT
  1
CONTENTFORMAT_BEGIN
 90
        0
 91
        0
 92
      512
 93
        0
300

 40
0.0
140
1.0
 94
        5
 62
     0
340
11
144
6.0
309
CONTENTFORMAT_END
171
     1
301
MARGIN
  1
CELLMARGIN_BEGIN
 40
1.5
 40
1.5
 40
1.5
 40
1.5
 40
0.18
 40
0.18
309
CELLMARGIN_END
 94
        6
 95
        1
302
GRIDFORMAT
  1
GRIDFORMAT_BEGIN
 90
        0
 91
        1
 62
     0
 92
       -2
340
14
 93
        0
 40
1.125
309
GRIDFORMAT_END
 95
        2
302
GRIDFORMAT
  1
GRIDFORMAT_BEGIN
 90
        0
 91
        1
 62
     0
 92
       -2
340
14
 93
        0
 40
1.125
309
GRIDFORMAT_END
 95
        4
302
GRIDFORMAT
  1
GRIDFORMAT_BEGIN
 90
        0
 91
        1
 62
     0
 92
       -2
340
14
 93
        0
 40
1.125
309
GRIDFORMAT_END
 95
        8
302
GRIDFORMAT
  1
GRIDFORMAT_BEGIN
 90
        0
 91
        1
 62
     0
 92
       -2
340
14
 93
        0
 40
1.125
309
GRIDFORMAT_END
 95
       16
302
GRIDFORMAT
  1
GRIDFORMAT_BEGIN
 90
        0
 91
        1
 62
     0
 92
       -2
340
14
 93
        0
 40
1.125
309
GRIDFORMAT_END
 95
       32
302
GRIDFORMAT
  1
GRIDFORMAT_BEGIN
 90
        0
 91
        1
 62
     0
 92
       -2
340
14
 93
        0
 40
1.125
309
GRIDFORMAT_END
309
TABLEFORMAT_END
  1
CELLSTYLE_BEGIN
 90
        1
 91
        1
300
_TITLE
309
CELLSTYLE_END
300
CELLSTYLE
  1
TABLEFORMAT_BEGIN
 90
        5
170
     1
 91
        0
 92
        0
 62
   257
 93
        1
300
CONTENTFORMAT
  1
CONTENTFORMAT_BEGIN
 90
        0
 91
        0
 92
      512
 93
        0
300

 40
0.0
140
1.0
 94
        5
 62
     0
340
11
144
4.5
309
CONTENTFORMAT_END
171
     1
301
MARGIN
  1
CELLMARGIN_BEGIN
 40
1.5
 40
1.5
 40
1.5
 40
1.5
 40
0.18
 40
0.18
309
CELLMARGIN_END
 94
        6
 95
        1
302
GRIDFORMAT
  1
GRIDFORMAT_BEGIN
 90
        0
 91
        1
 62
     0
 92
       -2
340
14
 93
        0
 40
1.125
309
GRIDFORMAT_END
 95
        2
302
GRIDFORMAT
  1
GRIDFORMAT_BEGIN
 90
        0
 91
        1
 62
     0
 92
       -2
340
14
 93
        0
 40
1.125
309
GRIDFORMAT_END
 95
        4
302
GRIDFORMAT
  1
GRIDFORMAT_BEGIN
 90
        0
 91
        1
 62
     0
 92
       -2
340
14
 93
        0
 40
1.125
309
GRIDFORMAT_END
 95
        8
302
GRIDFORMAT
  1
GRIDFORMAT_BEGIN
 90
        0
 91
        1
 62
     0
 92
       -2
340
14
 93
        0
 40
1.125
309
GRIDFORMAT_END
 95
       16
302
GRIDFORMAT
  1
GRIDFORMAT_BEGIN
 90
        0
 91
        1
 62
     0
 92
       -2
340
14
 93
        0
 40
1.125
309
GRIDFORMAT_END
 95
       32
302
GRIDFORMAT
  1
GRIDFORMAT_BEGIN
 90
        0
 91
        1
 62
     0
 92
       -2
340
14
 93
        0
 40
1.125
309
GRIDFORMAT_END
309
TABLEFORMAT_END
  1
CELLSTYLE_BEGIN
 90
        2
 91
        1
300
_HEADER
309
CELLSTYLE_END
300
CELLSTYLE
  1
TABLEFORMAT_BEGIN
 90
        5
170
     1
 91
        0
 92
        0
 62
   257
 93
        1
300
CONTENTFORMAT
  1
CONTENTFORMAT_BEGIN
 90
        0
 91
        0
 92
      512
 93
        0
300

 40
0.0
140
1.0
 94
        2
 62
     0
340
11
144
4.5
309
CONTENTFORMAT_END
171
     1
301
MARGIN
  1
CELLMARGIN_BEGIN
 40
1.5
 40
1.5
 40
1.5
 40
1.5
 40
0.18
 40
0.18
309
CELLMARGIN_END
 94
        6
 95
        1
302
GRIDFORMAT
  1
GRIDFORMAT_BEGIN
 90
        0
 91
        1
 62
     0
 92
       -2
340
14
 93
        0
 40
1.125
309
GRIDFORMAT_END
 95
        2
302
GRIDFORMAT
  1
GRIDFORMAT_BEGIN
 90
        0
 91
        1
 62
     0
 92
       -2
340
14
 93
        0
 40
1.125
309
GRIDFORMAT_END
 95
        4
302
GRIDFORMAT
  1
GRIDFORMAT_BEGIN
 90
        0
 91
        1
 62
     0
 92
       -2
340
14
 93
        0
 40
1.125
309
GRIDFORMAT_END
 95
        8
302
GRIDFORMAT
  1
GRIDFORMAT_BEGIN
 90
        0
 91
        1
 62
     0
 92
       -2
340
14
 93
        0
 40
1.125
309
GRIDFORMAT_END
 95
       16
302
GRIDFORMAT
  1
GRIDFORMAT_BEGIN
 90
        0
 91
        1
 62
     0
 92
       -2
340
14
 93
        0
 40
1.125
309
GRIDFORMAT_END
 95
       32
302
GRIDFORMAT
  1
GRIDFORMAT_BEGIN
 90
        0
 91
        1
 62
     0
 92
       -2
340
14
 93
        0
 40
1.125
309
GRIDFORMAT_END
309
TABLEFORMAT_END
  1
CELLSTYLE_BEGIN
 90
        3
 91
        2
300
_DATA
309
CELLSTYLE_END
  0
XRECORD
  5
7B5
102
{ACAD_REACTORS
330
162
102
}
330
162
100
AcDbXrecord
280
     1
102
ACAD_ROUNDTRIP_PRE2007_TABLESTYLE
 90
      512
 91
        0
  1

 92
      512
 93
        0
  2

 94
      512
 95
        0
  3

  0
ENDSEC
  0
EOF
