  0
SECTION
  2
HEADER
  9
$ACADVER
  1
AC1015
  9
$ACADMAINTVER
 70
    20
  9
$DWGCODEPAGE
  3
ANSI_1254
  9
$INSBASE
 10
0.0
 20
0.0
 30
0.0
  9
$EXTMIN
 10
2119.085757169595
 20
1022.018060332391
 30
0.0
  9
$EXTMAX
 10
2255.61473087213
 20
1080.07093782875
 30
0.0
  9
$LIMMIN
 10
0.0
 20
0.0
  9
$LIMMAX
 10
420.0
 20
297.0
  9
$ORTHOMODE
 70
     0
  9
$REGENMODE
 70
     1
  9
$FILLMODE
 70
     1
  9
$QTEXTMODE
 70
     0
  9
$MIRRTEXT
 70
     0
  9
$LTSCALE
 40
1.0
  9
$ATTMODE
 70
     1
  9
$TEXTSIZE
 40
2.5
  9
$TRACEWID
 40
1.0
  9
$TEXTSTYLE
  7
Standard
  9
$CLAYER
  8
0
  9
$CELTYPE
  6
ByLayer
  9
$CECOLOR
 62
   256
  9
$CELTSCALE
 40
1.0
  9
$DISPSILH
 70
     0
  9
$DIMSCALE
 40
1.0
  9
$DIMASZ
 40
2.5
  9
$DIMEXO
 40
0.625
  9
$DIMDLI
 40
3.75
  9
$DIMRND
 40
0.0
  9
$DIMDLE
 40
0.0
  9
$DIMEXE
 40
1.25
  9
$DIMTP
 40
0.0
  9
$DIMTM
 40
0.0
  9
$DIMTXT
 40
2.5
  9
$DIMCEN
 40
2.5
  9
$DIMTSZ
 40
0.0
  9
$DIMTOL
 70
     0
  9
$DIMLIM
 70
     0
  9
$DIMTIH
 70
     0
  9
$DIMTOH
 70
     0
  9
$DIMSE1
 70
     0
  9
$DIMSE2
 70
     0
  9
$DIMTAD
 70
     1
  9
$DIMZIN
 70
     8
  9
$DIMBLK
  1

  9
$DIMASO
 70
     1
  9
$DIMSHO
 70
     1
  9
$DIMPOST
  1

  9
$DIMAPOST
  1

  9
$DIMALT
 70
     0
  9
$DIMALTD
 70
     3
  9
$DIMALTF
 40
0.03937007874016
  9
$DIMLFAC
 40
1.0
  9
$DIMTOFL
 70
     1
  9
$DIMTVP
 40
0.0
  9
$DIMTIX
 70
     0
  9
$DIMSOXD
 70
     0
  9
$DIMSAH
 70
     0
  9
$DIMBLK1
  1

  9
$DIMBLK2
  1

  9
$DIMSTYLE
  2
ISO-25
  9
$DIMCLRD
 70
     0
  9
$DIMCLRE
 70
     0
  9
$DIMCLRT
 70
     0
  9
$DIMTFAC
 40
1.0
  9
$DIMGAP
 40
0.625
  9
$DIMJUST
 70
     0
  9
$DIMSD1
 70
     0
  9
$DIMSD2
 70
     0
  9
$DIMTOLJ
 70
     0
  9
$DIMTZIN
 70
     8
  9
$DIMALTZ
 70
     0
  9
$DIMALTTZ
 70
     0
  9
$DIMUPT
 70
     0
  9
$DIMDEC
 70
     2
  9
$DIMTDEC
 70
     2
  9
$DIMALTU
 70
     2
  9
$DIMALTTD
 70
     3
  9
$DIMTXSTY
  7
Standard
  9
$DIMAUNIT
 70
     0
  9
$DIMADEC
 70
     0
  9
$DIMALTRND
 40
0.0
  9
$DIMAZIN
 70
     0
  9
$DIMDSEP
 70
    44
  9
$DIMATFIT
 70
     3
  9
$DIMFRAC
 70
     0
  9
$DIMLDRBLK
  1

  9
$DIMLUNIT
 70
     2
  9
$DIMLWD
 70
    -2
  9
$DIMLWE
 70
    -2
  9
$DIMTMOVE
 70
     0
  9
$LUNITS
 70
     2
  9
$LUPREC
 70
     4
  9
$SKETCHINC
 40
1.0
  9
$FILLETRAD
 40
0.0
  9
$AUNITS
 70
     0
  9
$AUPREC
 70
     0
  9
$MENU
  1
.
  9
$ELEVATION
 40
0.0
  9
$PELEVATION
 40
0.0
  9
$THICKNESS
 40
0.0
  9
$LIMCHECK
 70
     0
  9
$CHAMFERA
 40
0.0
  9
$CHAMFERB
 40
0.0
  9
$CHAMFERC
 40
0.0
  9
$CHAMFERD
 40
0.0
  9
$SKPOLY
 70
     0
  9
$TDCREATE
 40
2458559.597197396
  9
$TDUCREATE
 40
2458559.472197396
  9
$TDUPDATE
 40
2458956.424376470
  9
$TDUUPDATE
 40
2458956.299376470
  9
$TDINDWG
 40
0.0006729167
  9
$TDUSRTIMER
 40
0.0006729167
  9
$USRTIMER
 70
     1
  9
$ANGBASE
 50
0.0
  9
$ANGDIR
 70
     0
  9
$PDMODE
 70
     0
  9
$PDSIZE
 40
0.0
  9
$PLINEWID
 40
0.0
  9
$SPLFRAME
 70
     0
  9
$SPLINETYPE
 70
     6
  9
$SPLINESEGS
 70
     8
  9
$HANDSEED
  5
109D
  9
$SURFTAB1
 70
     6
  9
$SURFTAB2
 70
     6
  9
$SURFTYPE
 70
     6
  9
$SURFU
 70
     6
  9
$SURFV
 70
     6
  9
$UCSBASE
  2

  9
$UCSNAME
  2

  9
$UCSORG
 10
0.0
 20
0.0
 30
0.0
  9
$UCSXDIR
 10
1.0
 20
0.0
 30
0.0
  9
$UCSYDIR
 10
0.0
 20
1.0
 30
0.0
  9
$UCSORTHOREF
  2

  9
$UCSORTHOVIEW
 70
     0
  9
$UCSORGTOP
 10
0.0
 20
0.0
 30
0.0
  9
$UCSORGBOTTOM
 10
0.0
 20
0.0
 30
0.0
  9
$UCSORGLEFT
 10
0.0
 20
0.0
 30
0.0
  9
$UCSORGRIGHT
 10
0.0
 20
0.0
 30
0.0
  9
$UCSORGFRONT
 10
0.0
 20
0.0
 30
0.0
  9
$UCSORGBACK
 10
0.0
 20
0.0
 30
0.0
  9
$PUCSBASE
  2

  9
$PUCSNAME
  2

  9
$PUCSORG
 10
0.0
 20
0.0
 30
0.0
  9
$PUCSXDIR
 10
1.0
 20
0.0
 30
0.0
  9
$PUCSYDIR
 10
0.0
 20
1.0
 30
0.0
  9
$PUCSORTHOREF
  2

  9
$PUCSORTHOVIEW
 70
     0
  9
$PUCSORGTOP
 10
0.0
 20
0.0
 30
0.0
  9
$PUCSORGBOTTOM
 10
0.0
 20
0.0
 30
0.0
  9
$PUCSORGLEFT
 10
0.0
 20
0.0
 30
0.0
  9
$PUCSORGRIGHT
 10
0.0
 20
0.0
 30
0.0
  9
$PUCSORGFRONT
 10
0.0
 20
0.0
 30
0.0
  9
$PUCSORGBACK
 10
0.0
 20
0.0
 30
0.0
  9
$USERI1
 70
     0
  9
$USERI2
 70
     0
  9
$USERI3
 70
     0
  9
$USERI4
 70
     0
  9
$USERI5
 70
     0
  9
$USERR1
 40
0.0
  9
$USERR2
 40
0.0
  9
$USERR3
 40
0.0
  9
$USERR4
 40
0.0
  9
$USERR5
 40
0.0
  9
$WORLDVIEW
 70
     1
  9
$SHADEDGE
 70
     3
  9
$SHADEDIF
 70
    70
  9
$TILEMODE
 70
     1
  9
$MAXACTVP
 70
    64
  9
$PINSBASE
 10
0.0
 20
0.0
 30
0.0
  9
$PLIMCHECK
 70
     0
  9
$PEXTMIN
 10
0.0
 20
0.0
 30
0.0
  9
$PEXTMAX
 10
0.0
 20
0.0
 30
0.0
  9
$PLIMMIN
 10
0.0
 20
0.0
  9
$PLIMMAX
 10
12.0
 20
9.0
  9
$UNITMODE
 70
     0
  9
$VISRETAIN
 70
     1
  9
$PLINEGEN
 70
     0
  9
$PSLTSCALE
 70
     1
  9
$TREEDEPTH
 70
  3020
  9
$CMLSTYLE
  2
Standard
  9
$CMLJUST
 70
     0
  9
$CMLSCALE
 40
20.0
  9
$PROXYGRAPHICS
 70
     1
  9
$MEASUREMENT
 70
     1
  9
$CELWEIGHT
370
    -1
  9
$ENDCAPS
280
     0
  9
$JOINSTYLE
280
     0
  9
$LWDISPLAY
290
     0
  9
$INSUNITS
 70
     4
  9
$HYPERLINKBASE
  1

  9
$STYLESHEET
  1

  9
$XEDIT
290
     1
  9
$CEPSNTYPE
380
     0
  9
$PSTYLEMODE
290
     1
  9
$FINGERPRINTGUID
  2
{0E983537-D3DF-4EA9-BCE8-90B326CE0474}
  9
$VERSIONGUID
  2
{7430E2FF-EE2D-49E4-A58B-8DCDBDC0BE2F}
  9
$EXTNAMES
290
     1
  9
$PSVPSCALE
 40
0.0
  9
$OLESTARTUP
290
     0
  0
ENDSEC
  0
SECTION
  2
CLASSES
  0
CLASS
  1
ACDBDICTIONARYWDFLT
  2
AcDbDictionaryWithDefault
  3
ObjectDBX Classes
 90
        0
280
     0
281
     0
  0
CLASS
  1
ACDBPLACEHOLDER
  2
AcDbPlaceHolder
  3
ObjectDBX Classes
 90
        0
280
     0
281
     0
  0
CLASS
  1
LAYOUT
  2
AcDbLayout
  3
ObjectDBX Classes
 90
        0
280
     0
281
     0
  0
CLASS
  1
DICTIONARYVAR
  2
AcDbDictionaryVar
  3
ObjectDBX Classes
 90
        0
280
     0
281
     0
  0
CLASS
  1
TABLESTYLE
  2
AcDbTableStyle
  3
ObjectDBX Classes
 90
     4095
280
     0
281
     0
  0
CLASS
  1
MATERIAL
  2
AcDbMaterial
  3
ObjectDBX Classes
 90
     1153
280
     0
281
     0
  0
CLASS
  1
VISUALSTYLE
  2
AcDbVisualStyle
  3
ObjectDBX Classes
 90
     4095
280
     0
281
     0
  0
CLASS
  1
SCALE
  2
AcDbScale
  3
ObjectDBX Classes
 90
     1153
280
     0
281
     0
  0
CLASS
  1
MLEADERSTYLE
  2
AcDbMLeaderStyle
  3
ACDB_MLEADERSTYLE_CLASS
 90
     4095
280
     0
281
     0
  0
CLASS
  1
CELLSTYLEMAP
  2
AcDbCellStyleMap
  3
ObjectDBX Classes
 90
     1152
280
     0
281
     0
  0
ENDSEC
  0
SECTION
  2
TABLES
  0
TABLE
  2
VPORT
  5
8
330
0
100
AcDbSymbolTable
 70
     1
  0
VPORT
  5
EA
330
8
100
AcDbSymbolTableRecord
100
AcDbViewportTableRecord
  2
*Active
 70
     0
 10
0.0
 20
0.0
 11
1.0
 21
1.0
 12
2195.40418255644
 22
1047.155723751612
 13
0.0
 23
0.0
 14
10.0
 24
10.0
 15
10.0
 25
10.0
 16
0.0
 26
0.0
 36
1.0
 17
0.0
 27
0.0
 37
0.0
 40
113.5057231833788
 41
1.903110047846889
 42
50.0
 43
0.0
 44
0.0
 50
0.0
 51
0.0
 71
     0
 72
  1000
 73
     1
 74
     3
 75
     0
 76
     0
 77
     0
 78
     0
281
     0
 65
     1
110
0.0
120
0.0
130
0.0
111
1.0
121
0.0
131
0.0
112
0.0
122
1.0
132
0.0
 79
     0
146
0.0
  0
ENDTAB
  0
TABLE
  2
LTYPE
  5
5
330
0
100
AcDbSymbolTable
 70
     1
  0
LTYPE
  5
14
330
5
100
AcDbSymbolTableRecord
100
AcDbLinetypeTableRecord
  2
ByBlock
 70
     0
  3

 72
    65
 73
     0
 40
0.0
  0
LTYPE
  5
15
330
5
100
AcDbSymbolTableRecord
100
AcDbLinetypeTableRecord
  2
ByLayer
 70
     0
  3

 72
    65
 73
     0
 40
0.0
  0
LTYPE
  5
16
330
5
100
AcDbSymbolTableRecord
100
AcDbLinetypeTableRecord
  2
Continuous
 70
     0
  3
Solid line
 72
    65
 73
     0
 40
0.0
  0
ENDTAB
  0
TABLE
  2
LAYER
  5
2
330
0
100
AcDbSymbolTable
 70
     1
  0
LAYER
  5
10
102
{ACAD_XDICTIONARY
360
13C
102
}
330
2
100
AcDbSymbolTableRecord
100
AcDbLayerTableRecord
  2
0
 70
     0
 62
     7
  6
Continuous
370
    -3
390
F
  0
ENDTAB
  0
TABLE
  2
STYLE
  5
3
330
0
100
AcDbSymbolTable
 70
     2
  0
STYLE
  5
11
330
3
100
AcDbSymbolTableRecord
100
AcDbTextStyleTableRecord
  2
Standard
 70
     0
 40
0.0
 41
1.0
 50
0.0
 71
     0
 42
2.5
  3
txt
  4

  0
STYLE
  5
132
330
3
100
AcDbSymbolTableRecord
100
AcDbTextStyleTableRecord
  2
Annotative
 70
     0
 40
0.0
 41
1.0
 50
0.0
 71
     0
 42
2.5
  3
txt.shx
  4

1001
AcadAnnotative
1000
AnnotativeData
1002
{
1070
     1
1070
     1
1002
}
  0
ENDTAB
  0
TABLE
  2
VIEW
  5
6
330
0
100
AcDbSymbolTable
 70
     0
  0
ENDTAB
  0
TABLE
  2
UCS
  5
7
330
0
100
AcDbSymbolTable
 70
     0
  0
ENDTAB
  0
TABLE
  2
APPID
  5
9
330
0
100
AcDbSymbolTable
 70
     7
  0
APPID
  5
12
330
9
100
AcDbSymbolTableRecord
100
AcDbRegAppTableRecord
  2
ACAD
 70
     0
  0
APPID
  5
9E
330
9
100
AcDbSymbolTableRecord
100
AcDbRegAppTableRecord
  2
ACAD_PSEXT
 70
     0
  0
APPID
  5
133
330
9
100
AcDbSymbolTableRecord
100
AcDbRegAppTableRecord
  2
AcadAnnoPO
 70
     0
  0
APPID
  5
134
330
9
100
AcDbSymbolTableRecord
100
AcDbRegAppTableRecord
  2
AcadAnnotative
 70
     0
  0
APPID
  5
135
330
9
100
AcDbSymbolTableRecord
100
AcDbRegAppTableRecord
  2
ACAD_DSTYLE_DIMJAG
 70
     0
  0
APPID
  5
136
330
9
100
AcDbSymbolTableRecord
100
AcDbRegAppTableRecord
  2
ACAD_DSTYLE_DIMTALN
 70
     0
  0
APPID
  5
165
330
9
100
AcDbSymbolTableRecord
100
AcDbRegAppTableRecord
  2
ACAD_MLEADERVER
 70
     0
  0
ENDTAB
  0
TABLE
  2
DIMSTYLE
  5
A
330
0
100
AcDbSymbolTable
 70
     2
100
AcDbDimStyleTable
 71
     2
340
27
340
137
  0
DIMSTYLE
105
27
330
A
100
AcDbSymbolTableRecord
100
AcDbDimStyleTableRecord
  2
ISO-25
 70
     0
 41
2.5
 42
0.625
 43
3.75
 44
1.25
 73
     0
 74
     0
 77
     1
 78
     8
140
2.5
141
2.5
143
0.03937007874016
147
0.625
171
     3
172
     1
271
     2
272
     2
274
     3
278
    44
283
     0
284
     8
340
11
  0
DIMSTYLE
105
137
330
A
100
AcDbSymbolTableRecord
100
AcDbDimStyleTableRecord
  2
Annotative
 70
     0
 40
0.0
 41
2.5
 42
0.625
 43
3.75
 44
1.25
 73
     0
 74
     0
 77
     1
 78
     8
140
2.5
141
2.5
143
0.03937007874016
147
0.625
171
     3
172
     1
271
     2
272
     2
274
     3
278
    44
283
     0
284
     8
340
11
1001
AcadAnnotative
1000
AnnotativeData
1002
{
1070
     1
1070
     1
1002
}
1001
ACAD_DSTYLE_DIMJAG
1070
   388
1040
1.5
1001
ACAD_DSTYLE_DIMTALN
1070
   392
1070
     0
  0
ENDTAB
  0
TABLE
  2
BLOCK_RECORD
  5
1
330
0
100
AcDbSymbolTable
 70
     5
  0
BLOCK_RECORD
  5
1F
330
1
100
AcDbSymbolTableRecord
100
AcDbBlockTableRecord
  2
*Model_Space
340
22
  0
BLOCK_RECORD
  5
D2
330
1
100
AcDbSymbolTableRecord
100
AcDbBlockTableRecord
  2
*Paper_Space
340
D3
  0
BLOCK_RECORD
  5
D6
330
1
100
AcDbSymbolTableRecord
100
AcDbBlockTableRecord
  2
*Paper_Space0
340
D7
  0
BLOCK_RECORD
  5
B89
330
1
100
AcDbSymbolTableRecord
100
AcDbBlockTableRecord
  2
1
340
0
310
2800000020000000200000000100080000000000000400000000000000000000000000000000000000000000000080000080000000808000800000008000800080800000C0C0C000C0DCC000F0CAA6000020400000206000002080000020A0000020C0000020E00000400000004020000040400000406000004080000040A0
310
000040C0000040E00000600000006020000060400000606000006080000060A0000060C0000060E00000800000008020000080400000806000008080000080A0000080C0000080E00000A0000000A0200000A0400000A0600000A0800000A0A00000A0C00000A0E00000C0000000C0200000C0400000C0600000C0800000C0
310
A00000C0C00000C0E00000E0000000E0200000E0400000E0600000E0800000E0A00000E0C00000E0E00040000000400020004000400040006000400080004000A0004000C0004000E00040200000402020004020400040206000402080004020A0004020C0004020E000404000004040200040404000404060004040800040
310
40A0004040C0004040E00040600000406020004060400040606000406080004060A0004060C0004060E00040800000408020004080400040806000408080004080A0004080C0004080E00040A0000040A0200040A0400040A0600040A0800040A0A00040A0C00040A0E00040C0000040C0200040C0400040C0600040C08000
310
40C0A00040C0C00040C0E00040E0000040E0200040E0400040E0600040E0800040E0A00040E0C00040E0E00080000000800020008000400080006000800080008000A0008000C0008000E00080200000802020008020400080206000802080008020A0008020C0008020E00080400000804020008040400080406000804080
310
008040A0008040C0008040E00080600000806020008060400080606000806080008060A0008060C0008060E00080800000808020008080400080806000808080008080A0008080C0008080E00080A0000080A0200080A0400080A0600080A0800080A0A00080A0C00080A0E00080C0000080C0200080C0400080C0600080C0
310
800080C0A00080C0C00080C0E00080E0000080E0200080E0400080E0600080E0800080E0A00080E0C00080E0E000C0000000C0002000C0004000C0006000C0008000C000A000C000C000C000E000C0200000C0202000C0204000C0206000C0208000C020A000C020C000C020E000C0400000C0402000C0404000C0406000C0
310
408000C040A000C040C000C040E000C0600000C0602000C0604000C0606000C0608000C060A000C060C000C060E000C0800000C0802000C0804000C0806000C0808000C080A000C080C000C080E000C0A00000C0A02000C0A04000C0A06000C0A08000C0A0A000C0A0C000C0A0E000C0C00000C0C02000C0C04000C0C06000
310
C0C08000C0C0A000F0FBFF00A4A0A000808080000000FF0000FF000000FFFF00FF000000FF00FF00FFFF0000FFFFFF0000000000000000000000000000000000000000000000000000000000000000000000000000000000000000000000000000000000000000000000000000000000000000000000000000000000000000
310
00000000000000000000000000000000000000000000000000000000000000000000000000000000000000000000000000000000000000000000000000000000000000000000000000000000000000000000000000000000000000000000000000000000000000000000000000000000000000000000000000000000000000
310
00000000000000000000000000000000000000FFFFFFFF00000000000000000000000000000000000000000000FFFFFFFF0000FFFFFF00FFFF000000000000000000000000000000000000FFFF00FFFFFF000000FFFF0000FFFF00000000000000000000000000000000FFFF0000FFFF0000000000FF0000FFFFFFFFFF0000
310
0000000000000000FFFFFFFFFF0000FF000000000000FF00FFFFFF0000FFFFFFFFFFFFFFFFFFFFFFFF0000FFFFFF00FF0000000000FFFF00FFFFFF00000000000000000000000000000000FFFFFF00FFFF00000000FFFF00FFFFFF00000000000000000000000000000000FFFFFF00FFFF00000000FFFFFFFF00FF00000000
310
000000000000000000000000FF00FFFFFFFF00000000FF0000000000000000000000000000000000000000000000000000FF000000FFFF0000000000000000000000000000000000000000000000000000FFFF0000FFFF0000000000000000000000000000000000000000000000000000FFFF0000FFFF0000000000000000
310
000000000000000000000000000000000000FFFF000000FF0000000000000000000000000000000000000000000000000000FF00000000FFFF000000000000000000000000000000000000000000000000FFFF0000000000FF00000000000000000000FFFFFFFF00000000000000000000FF0000000000FFFF000000000000
310
FFFFFFFFFF0000FFFFFFFFFF000000000000FFFF0000000000FF000000000000FF00FFFF00000000FFFF0000FF000000000000FF0000000000FFFFFFFFFFFFFF000000000000000000000000FFFFFFFFFFFFFF0000000000000000000000000000000000000000000000000000000000000000000000000000000000000000
310
00000000000000000000000000000000000000000000000000000000000000000000000000000000000000000000000000000000000000000000000000000000000000000000000000000000000000000000000000000000000000000000000000000000000000000000000000000000000000000000000000000000000000
310
0000000000000000000000000000000000000000000000000000000000000000000000000000000000000000000000000000000000000000
102
{BLKREFS
331
C80
102
}
1001
ACAD
1000
DesignCenter Data
1002
{
1070
     1
1070
     4
1002
}
  0
BLOCK_RECORD
  5
C81
330
1
100
AcDbSymbolTableRecord
100
AcDbBlockTableRecord
  2
2
340
0
310
2800000020000000200000000100080000000000000400000000000000000000000000000000000000000000000080000080000000808000800000008000800080800000C0C0C000C0DCC000F0CAA6000020400000206000002080000020A0000020C0000020E00000400000004020000040400000406000004080000040A0
310
000040C0000040E00000600000006020000060400000606000006080000060A0000060C0000060E00000800000008020000080400000806000008080000080A0000080C0000080E00000A0000000A0200000A0400000A0600000A0800000A0A00000A0C00000A0E00000C0000000C0200000C0400000C0600000C0800000C0
310
A00000C0C00000C0E00000E0000000E0200000E0400000E0600000E0800000E0A00000E0C00000E0E00040000000400020004000400040006000400080004000A0004000C0004000E00040200000402020004020400040206000402080004020A0004020C0004020E000404000004040200040404000404060004040800040
310
40A0004040C0004040E00040600000406020004060400040606000406080004060A0004060C0004060E00040800000408020004080400040806000408080004080A0004080C0004080E00040A0000040A0200040A0400040A0600040A0800040A0A00040A0C00040A0E00040C0000040C0200040C0400040C0600040C08000
310
40C0A00040C0C00040C0E00040E0000040E0200040E0400040E0600040E0800040E0A00040E0C00040E0E00080000000800020008000400080006000800080008000A0008000C0008000E00080200000802020008020400080206000802080008020A0008020C0008020E00080400000804020008040400080406000804080
310
008040A0008040C0008040E00080600000806020008060400080606000806080008060A0008060C0008060E00080800000808020008080400080806000808080008080A0008080C0008080E00080A0000080A0200080A0400080A0600080A0800080A0A00080A0C00080A0E00080C0000080C0200080C0400080C0600080C0
310
800080C0A00080C0C00080C0E00080E0000080E0200080E0400080E0600080E0800080E0A00080E0C00080E0E000C0000000C0002000C0004000C0006000C0008000C000A000C000C000C000E000C0200000C0202000C0204000C0206000C0208000C020A000C020C000C020E000C0400000C0402000C0404000C0406000C0
310
408000C040A000C040C000C040E000C0600000C0602000C0604000C0606000C0608000C060A000C060C000C060E000C0800000C0802000C0804000C0806000C0808000C080A000C080C000C080E000C0A00000C0A02000C0A04000C0A06000C0A08000C0A0A000C0A0C000C0A0E000C0C00000C0C02000C0C04000C0C06000
310
C0C08000C0C0A000F0FBFF00A4A0A000808080000000FF0000FF000000FFFF00FF000000FF00FF00FFFF0000FFFFFF00000000000000000000000000000000000000000000000000000000000000000000000000000000000000000000FFFFFFFFFFFF0000000000000000000000000000000000000000000000000000FFFF
310
FFFFFFFF0000000000000000000000000000000000000000000000000000FF00000000FF0000000000000000000000000000000000000000000000000000FFFFFFFFFFFF0000000000000000000000000000000000000000000000000000FFFFFFFFFFFF0000000000000000000000000000000000000000000000000000FF
310
FFFFFFFFFF0000000000000000000000000000000000000000000000000000FF00000000FF0000000000000000000000000000000000000000000000000000FF00000000FF0000000000000000000000000000000000000000000000000000FF00000000FF0000000000000000000000000000000000000000000000000000
310
FF00000000FF0000000000000000000000000000000000000000000000000000FF00000000FF0000000000000000000000000000000000000000000000000000FF00000000FF0000000000000000000000000000000000000000000000000000FFFFFFFFFFFF00000000000000000000000000000000000000000000000000
310
00FFFFFFFFFFFF0000000000000000000000000000000000000000000000000000FFFFFFFFFFFF0000000000000000000000000000000000000000000000000000FFFFFFFFFFFF0000000000000000000000000000000000000000000000000000FFFFFFFFFFFF000000000000000000000000000000000000000000000000
310
0000FFFFFFFFFFFF0000000000000000000000000000000000000000000000000000FFFFFFFFFFFF0000000000000000000000000000000000000000000000000000FFFFFFFFFFFF0000000000000000000000000000000000000000000000000000FF00000000FF0000000000000000000000000000000000000000000000
310
000000FFFFFFFFFFFF0000000000000000000000000000000000000000000000000000FFFFFFFFFFFF0000000000000000000000000000000000000000000000000000FF00000000FF0000000000000000000000000000000000000000000000000000FFFFFFFFFFFF00000000000000000000000000000000000000000000
310
00000000FFFFFFFFFFFF0000000000000000000000000000000000000000000000000000FF00000000FF0000000000000000000000000000000000000000000000000000FF00000000FF0000000000000000000000000000000000000000000000000000FFFFFFFFFFFF000000000000000000000000000000000000000000
310
0000000000FFFFFFFFFFFF000000000000000000000000000000000000000000000000000000000000000000000000000000000000000000
102
{BLKREFS
331
D16
102
}
1001
ACAD
1000
DesignCenter Data
1002
{
1070
     1
1070
     4
1002
}
  0
BLOCK_RECORD
  5
D17
330
1
100
AcDbSymbolTableRecord
100
AcDbBlockTableRecord
  2
3
340
0
310
2800000020000000200000000100080000000000000400000000000000000000000000000000000000000000000080000080000000808000800000008000800080800000C0C0C000C0DCC000F0CAA6000020400000206000002080000020A0000020C0000020E00000400000004020000040400000406000004080000040A0
310
000040C0000040E00000600000006020000060400000606000006080000060A0000060C0000060E00000800000008020000080400000806000008080000080A0000080C0000080E00000A0000000A0200000A0400000A0600000A0800000A0A00000A0C00000A0E00000C0000000C0200000C0400000C0600000C0800000C0
310
A00000C0C00000C0E00000E0000000E0200000E0400000E0600000E0800000E0A00000E0C00000E0E00040000000400020004000400040006000400080004000A0004000C0004000E00040200000402020004020400040206000402080004020A0004020C0004020E000404000004040200040404000404060004040800040
310
40A0004040C0004040E00040600000406020004060400040606000406080004060A0004060C0004060E00040800000408020004080400040806000408080004080A0004080C0004080E00040A0000040A0200040A0400040A0600040A0800040A0A00040A0C00040A0E00040C0000040C0200040C0400040C0600040C08000
310
40C0A00040C0C00040C0E00040E0000040E0200040E0400040E0600040E0800040E0A00040E0C00040E0E00080000000800020008000400080006000800080008000A0008000C0008000E00080200000802020008020400080206000802080008020A0008020C0008020E00080400000804020008040400080406000804080
310
008040A0008040C0008040E00080600000806020008060400080606000806080008060A0008060C0008060E00080800000808020008080400080806000808080008080A0008080C0008080E00080A0000080A0200080A0400080A0600080A0800080A0A00080A0C00080A0E00080C0000080C0200080C0400080C0600080C0
310
800080C0A00080C0C00080C0E00080E0000080E0200080E0400080E0600080E0800080E0A00080E0C00080E0E000C0000000C0002000C0004000C0006000C0008000C000A000C000C000C000E000C0200000C0202000C0204000C0206000C0208000C020A000C020C000C020E000C0400000C0402000C0404000C0406000C0
310
408000C040A000C040C000C040E000C0600000C0602000C0604000C0606000C0608000C060A000C060C000C060E000C0800000C0802000C0804000C0806000C0808000C080A000C080C000C080E000C0A00000C0A02000C0A04000C0A06000C0A08000C0A0A000C0A0C000C0A0E000C0C00000C0C02000C0C04000C0C06000
310
C0C08000C0C0A000F0FBFF00A4A0A000808080000000FF0000FF000000FFFF00FF000000FF00FF00FFFF0000FFFFFF0000000000000000000000000000000000000000000000000000000000000000000000000000000000000000000000000000000000000000000000000000000000000000000000000000000000000000
310
00000000000000000000000000000000000000000000000000000000000000000000000000000000000000000000000000000000000000000000000000000000000000000000000000000000000000000000000000000000000000000000000000000000000000000000000000000000000000000000000000000000000000
310
00000000000000000000000000000000000000000000000000000000000000000000000000000000000000000000000000000000000000000000000000000000000000000000000000000000000000000000000000000000000000000000000000000000000000000000000000000000000000000000000000000000000000
310
0000000000000000000000000000000000000000000000000000000000000000000000000000000000000000000000000000000000000000000000000000000000000000000000000000000000000000000000000000000000000000000000000000000000000000000000000000000000000000FFFFFFFFFFFFFFFFFFFFFF
310
FFFFFFFFFFFFFFFFFFFFFFFFFFFFFFFFFFFFFF0000FFFFFF00FFFFFFFFFFFF00FFFFFFFFFFFFFFFF00FFFFFFFFFFFF00FFFFFF0000FFFFFF00FFFFFFFFFFFF00FFFFFFFFFFFFFFFF00FFFFFFFFFFFF00FFFFFF0000FFFFFFFFFFFFFFFFFFFFFFFFFFFFFFFFFFFFFFFFFFFFFFFFFFFFFFFFFFFF000000000000000000000000
310
00000000000000000000000000000000000000000000000000000000000000000000000000000000000000000000000000000000000000000000000000000000000000000000000000000000000000000000000000000000000000000000000000000000000000000000000000000000000000000000000000000000000000
310
00000000000000000000000000000000000000000000000000000000000000000000000000000000000000000000000000000000000000000000000000000000000000000000000000000000000000000000000000000000000000000000000000000000000000000000000000000000000000000000000000000000000000
310
00000000000000000000000000000000000000000000000000000000000000000000000000000000000000000000000000000000000000000000000000000000000000000000000000000000000000000000000000000000000000000000000000000000000000000000000000000000000000000000000000000000000000
310
0000000000000000000000000000000000000000000000000000000000000000000000000000000000000000000000000000000000000000
102
{BLKREFS
331
E34
102
}
1001
ACAD
1000
DesignCenter Data
1002
{
1070
     1
1070
     4
1002
}
  0
BLOCK_RECORD
  5
E35
330
1
100
AcDbSymbolTableRecord
100
AcDbBlockTableRecord
  2
4
340
0
310
2800000020000000200000000100080000000000000400000000000000000000000000000000000000000000000080000080000000808000800000008000800080800000C0C0C000C0DCC000F0CAA6000020400000206000002080000020A0000020C0000020E00000400000004020000040400000406000004080000040A0
310
000040C0000040E00000600000006020000060400000606000006080000060A0000060C0000060E00000800000008020000080400000806000008080000080A0000080C0000080E00000A0000000A0200000A0400000A0600000A0800000A0A00000A0C00000A0E00000C0000000C0200000C0400000C0600000C0800000C0
310
A00000C0C00000C0E00000E0000000E0200000E0400000E0600000E0800000E0A00000E0C00000E0E00040000000400020004000400040006000400080004000A0004000C0004000E00040200000402020004020400040206000402080004020A0004020C0004020E000404000004040200040404000404060004040800040
310
40A0004040C0004040E00040600000406020004060400040606000406080004060A0004060C0004060E00040800000408020004080400040806000408080004080A0004080C0004080E00040A0000040A0200040A0400040A0600040A0800040A0A00040A0C00040A0E00040C0000040C0200040C0400040C0600040C08000
310
40C0A00040C0C00040C0E00040E0000040E0200040E0400040E0600040E0800040E0A00040E0C00040E0E00080000000800020008000400080006000800080008000A0008000C0008000E00080200000802020008020400080206000802080008020A0008020C0008020E00080400000804020008040400080406000804080
310
008040A0008040C0008040E00080600000806020008060400080606000806080008060A0008060C0008060E00080800000808020008080400080806000808080008080A0008080C0008080E00080A0000080A0200080A0400080A0600080A0800080A0A00080A0C00080A0E00080C0000080C0200080C0400080C0600080C0
310
800080C0A00080C0C00080C0E00080E0000080E0200080E0400080E0600080E0800080E0A00080E0C00080E0E000C0000000C0002000C0004000C0006000C0008000C000A000C000C000C000E000C0200000C0202000C0204000C0206000C0208000C020A000C020C000C020E000C0400000C0402000C0404000C0406000C0
310
408000C040A000C040C000C040E000C0600000C0602000C0604000C0606000C0608000C060A000C060C000C060E000C0800000C0802000C0804000C0806000C0808000C080A000C080C000C080E000C0A00000C0A02000C0A04000C0A06000C0A08000C0A0A000C0A0C000C0A0E000C0C00000C0C02000C0C04000C0C06000
310
C0C08000C0C0A000F0FBFF00A4A0A000808080000000FF0000FF000000FFFF00FF000000FF00FF00FFFF0000FFFFFF00000000000000000000000000000000000000000000000000000000000000000000000000000000000000000000000000000000000000000000FF000000000000000000000000000000000000000000
310
0000000000000000FFFFFFFF000000000000000000000000000000000000000000000000000000FFFFFFFFFFFF0000000000000000000000000000000000000000000000000000FFFFFF00FFFF00000000000000000000000000000000000000000000000000FFFF00FFFFFF00000000000000000000000000000000000000
310
00000000000000FFFFA4FFFFFF00000000000000000000000000000000000000000000000000FFFFFF00FFFF00FF0000000000000000000000000000000000000000000000FF00FFFF00FFFF00FF00000000000000000000000000000000000000000000FF0000FFFFFF00FFFFFF0000000000000000000000000000000000
310
000000FFFF000000FF000000FFFFFF000000000000000000000000000000000000FFFF000000000000000000FFFFFF00000000000000000000FFFFFF000000FFFF0000000000000000000000FFFFFF0000000000000000FFFFFFFFFFFFFFFF000000000000000000000000FFFFFFFF0000000000000000FFFF00FFFF000000
310
000000000000000000000000FFFFFFFF0000000000000000FFFFA4FFFF000000000000000000000000000000FFFFFF00000000000000000000FFA4FFFF000000000000000000000000000000FFFFFF00000000000000000000FF00FFFF000000000000000000000000000000FF0000FF0000000000000000FFFF00FF000000
310
0000000000000000000000FFFFFFFFFF000000000000000000FFFFFF0000000000000000FFFFFFFFFFFFFFFFA4FFFFFF000000000000000000FF000000000000000000FFFFFFFFFFFFFFFFFFFFFF0000000000000000000000FF0000000000000000FFFFFFFFFFFFFFFFFFFF00000000000000000000000000FF0000000000
310
00FFFFFFFFFFFF00000000000000000000000000000000000000FF0000000000FFFFFFFFFFFFFF00000000000000000000000000000000000000FFFF00000000FF00FFFFFF000000000000000000000000000000000000000000FFFF00000000FF0000FF0000000000000000000000000000000000000000000000FF000000
310
FFFFFFFF0000000000000000000000000000000000000000000000FFFF00FFFFFFFFFFFF000000000000000000000000000000000000000000000000FFFFFFA4FFFFFF0000000000000000000000000000000000000000000000000000FFFFFFFF0000000000000000000000000000000000000000000000000000000000FF
310
0000000000000000000000000000000000000000000000000000000000000000000000000000000000000000000000000000000000000000
102
{BLKREFS
331
1082
102
}
1001
ACAD
1000
DesignCenter Data
1002
{
1070
     1
1070
     4
1002
}
  0
ENDTAB
  0
ENDSEC
  0
SECTION
  2
BLOCKS
  0
BLOCK
  5
20
330
1F
100
AcDbEntity
  8
0
100
AcDbBlockBegin
  2
*Model_Space
 70
     0
 10
0.0
 20
0.0
 30
0.0
  3
*Model_Space
  1

  0
ENDBLK
  5
21
330
1F
100
AcDbEntity
  8
0
100
AcDbBlockEnd
  0
BLOCK
  5
D4
330
D2
100
AcDbEntity
 67
     1
  8
0
100
AcDbBlockBegin
  2
*Paper_Space
 70
     0
 10
0.0
 20
0.0
 30
0.0
  3
*Paper_Space
  1

  0
ENDBLK
  5
D5
330
D2
100
AcDbEntity
 67
     1
  8
0
100
AcDbBlockEnd
  0
BLOCK
  5
D8
330
D6
100
AcDbEntity
 67
     1
  8
0
100
AcDbBlockBegin
  2
*Paper_Space0
 70
     0
 10
0.0
 20
0.0
 30
0.0
  3
*Paper_Space0
  1

  0
ENDBLK
  5
D9
330
D6
100
AcDbEntity
 67
     1
  8
0
100
AcDbBlockEnd
  0
BLOCK
  5
B8A
330
B89
100
AcDbEntity
  8
0
100
AcDbBlockBegin
  2
1
 70
     0
 10
0.0
 20
0.0
 30
0.0
  3
1
  1

  0
LINE
  5
B8C
330
B89
100
AcDbEntity
  8
0
  6
Continuous
 62
     7
370
    15
100
AcDbLine
 10
2138.711868202623
 20
1063.064016662115
 30
0.0
 11
2138.104020035204
 21
1063.144006095403
 31
0.0
  0
ARC
  5
B8D
330
B89
100
AcDbEntity
  8
0
  6
Continuous
 62
     7
370
    15
100
AcDbCircle
 10
2138.685889956578
 20
1062.866689227072
 30
0.0
 40
0.1990147783275938
100
AcDbArc
 50
349.9999973589657
 51
82.49999735914441
  0
LINE
  5
B8E
330
B89
100
AcDbEntity
  8
0
  6
Continuous
 62
     7
370
    15
100
AcDbLine
 10
2138.875661766466
 20
1062.796630225652
 30
0.0
 11
2138.881860649523
 21
1062.832154593938
 31
0.0
  0
ARC
  5
B8F
330
B89
100
AcDbEntity
  8
0
  6
Continuous
 62
     7
370
    15
100
AcDbCircle
 10
2139.021160204763
 20
1062.770971043592
 30
0.0
 40
0.1477832512314531
100
AcDbArc
 50
169.9999973584325
 51
259.9999973588404
  0
LINE
  5
B90
330
B89
100
AcDbEntity
  8
0
  6
Continuous
 62
     7
370
    15
100
AcDbLine
 10
2139.437971985277
 20
1062.547423205846
 30
0.0
 11
2138.995467102465
 21
1062.625445685857
 31
0.0
  0
ARC
  5
B91
330
B89
100
AcDbEntity
  8
0
  6
Continuous
 62
     7
370
    15
100
AcDbCircle
 10
2139.472490681298
 20
1062.743401259262
 30
0.0
 40
0.1990147783261783
100
AcDbArc
 50
260.0000000000475
 51
350.0000000006172
  0
LINE
  5
B92
330
B89
100
AcDbEntity
  8
0
  6
Continuous
 62
     7
370
    15
100
AcDbLine
 10
2139.677940285143
 20
1062.762297950262
 30
0.0
 11
2139.668522751268
 21
1062.708832583898
 31
0.0
  0
ARC
  5
B93
330
B89
100
AcDbEntity
  8
0
  6
Continuous
 62
     7
370
    15
100
AcDbCircle
 10
2138.397399133673
 20
1062.898055165415
 30
0.0
 40
1.287684729070057
100
AcDbArc
 50
353.9482249778069
 51
34.95551514815566
  0
ARC
  5
B94
330
B89
100
AcDbEntity
  8
0
  6
Continuous
 62
     7
370
    15
100
AcDbCircle
 10
2140.272378963233
 20
1064.208761867294
 30
0.0
 40
1.00000000000186
100
AcDbArc
 50
175.0961188311536
 51
214.955515148161
  0
ARC
  5
B95
330
B89
100
AcDbEntity
  8
0
  6
Continuous
 62
     7
370
    15
100
AcDbCircle
 10
2149.092192241933
 20
1063.452035301049
 30
0.0
 40
9.852216748771377
100
AcDbArc
 50
164.903881169076
 51
175.0961188311082
  0
ARC
  5
B96
330
B89
100
AcDbEntity
  8
0
  6
Continuous
 62
     7
370
    15
100
AcDbCircle
 10
2140.545463058578
 20
1065.757498732456
 30
0.0
 40
1.000000000001717
100
AcDbArc
 50
125.0444848519022
 51
164.9038811691012
  0
ARC
  5
B97
330
B89
100
AcDbEntity
  8
0
  6
Continuous
 62
     7
370
    15
100
AcDbCircle
 10
2139.231846442653
 20
1067.630441018267
 30
0.0
 40
1.287684729070727
100
AcDbArc
 50
305.0444848517757
 51
346.0517750222562
  0
LINE
  5
B98
330
B89
100
AcDbEntity
  8
0
  6
Continuous
 62
     7
370
    15
100
AcDbLine
 10
2140.490947639879
 20
1067.37349208402
 30
0.0
 11
2140.481530106005
 21
1067.320026717657
 31
0.0
  0
ARC
  5
B99
330
B89
100
AcDbEntity
  8
0
  6
Continuous
 62
     7
370
    15
100
AcDbCircle
 10
2140.294996787773
 20
1067.408065187447
 30
0.0
 40
0.1990147783265797
100
AcDbArc
 50
350.0000000000538
 51
79.99999999999499
  0
LINE
  5
B9A
330
B89
100
AcDbEntity
  8
0
  6
Continuous
 62
     7
370
    15
100
AcDbLine
 10
2139.887152588304
 20
1067.682065330022
 30
0.0
 11
2140.329538261827
 21
1067.604042850011
 31
0.0
  0
ARC
  5
B9B
330
B89
100
AcDbEntity
  8
0
  6
Continuous
 62
     7
370
    15
100
AcDbCircle
 10
2139.861455447848
 20
1067.536522178827
 30
0.0
 40
0.147783251232873
100
AcDbArc
 50
80.00000264011717
 51
170.0000026407673
  0
LINE
  5
B9C
330
B89
100
AcDbEntity
  8
0
  6
Continuous
 62
     7
370
    15
100
AcDbLine
 10
2139.709649956163
 20
1067.526676021093
 30
0.0
 11
2139.71596804851
 21
1067.562200389379
 31
0.0
  0
ARC
  5
B9D
330
B89
100
AcDbEntity
  8
0
  6
Continuous
 62
     7
370
    15
100
AcDbCircle
 10
2139.513666922828
 20
1067.561245686474
 30
0.0
 40
0.199014778328508
100
AcDbArc
 50
257.5000026419649
 51
350.0000026411677
  0
LINE
  5
B9E
330
B89
100
AcDbEntity
  8
0
  6
Continuous
 62
     7
370
    15
100
AcDbLine
 10
2138.87208548778
 20
1067.499615512365
 30
0.0
 11
2139.470635330614
 21
1067.366935573095
 31
0.0
  0
ARC
  5
B9F
330
B89
100
AcDbEntity
  8
0
  6
Continuous
 62
     7
370
    15
100
AcDbCircle
 10
2138.915354575473
 20
1067.694890670623
 30
0.0
 40
0.2000000000026837
100
AcDbArc
 50
170.0000000002508
 51
257.5006215749106
  0
ARC
  5
BA0
330
B89
100
AcDbEntity
  8
0
  6
Continuous
 62
     7
370
    15
100
AcDbCircle
 10
2154.308909435354
 20
1067.847063148373
 30
0.0
 40
1.0
100
AcDbArc
 50
200.0000000000349
 51
270.0
  0
LINE
  5
BA1
330
B89
100
AcDbEntity
  8
0
  6
Continuous
 62
     7
370
    15
100
AcDbLine
 10
2155.79455939525
 20
1066.847063861364
 30
0.0
 11
2154.308854019579
 21
1066.847063861364
 31
0.0
  0
ARC
  5
BA2
330
B89
100
AcDbEntity
  8
0
  6
Continuous
 62
     7
370
    15
100
AcDbCircle
 10
2155.794602292314
 20
1067.847063148373
 30
0.0
 40
1.0
100
AcDbArc
 50
270.0
 51
350.0000000000346
  0
LINE
  5
BA3
330
B89
100
AcDbEntity
  8
0
  6
Continuous
 62
     7
370
    15
100
AcDbLine
 10
2156.925259506639
 20
1068.500735126012
 30
0.0
 11
2156.779466545519
 21
1067.67342265653
 31
0.0
  0
ARC
  5
BA4
330
B89
100
AcDbEntity
  8
0
  6
Continuous
 62
     7
370
    15
100
AcDbCircle
 10
2157.220733707748
 20
1068.448654689056
 30
0.0
 40
0.2999999999999545
100
AcDbArc
 50
90.0
 51
169.9999999998889
  0
LINE
  5
BA5
330
B89
100
AcDbEntity
  8
0
  6
Continuous
 62
     7
370
    15
100
AcDbLine
 10
2157.688198959764
 20
1068.748630843633
 30
0.0
 11
2157.220779335436
 21
1068.748630843633
 31
0.0
  0
ARC
  5
BA6
330
B89
100
AcDbEntity
  8
0
  6
Continuous
 62
     7
370
    15
100
AcDbCircle
 10
2157.688234928258
 20
1068.498658548914
 30
0.0
 40
0.2499961405571817
100
AcDbArc
 50
299.997004481416
 51
90.00330220264162
  0
LINE
  5
BA7
330
B89
100
AcDbEntity
  8
0
  6
Continuous
 62
     7
370
    15
100
AcDbLine
 10
2157.638250267443
 20
1068.181135020727
 30
0.0
 11
2157.813249504503
 21
1068.282164893621
 31
0.0
  0
LINE
  5
BA8
330
B89
100
AcDbEntity
  8
0
  6
Continuous
 62
     7
370
    15
100
AcDbLine
 10
2157.638250267443
 20
1067.679502330297
 30
0.0
 11
2157.638250267443
 21
1068.181135020727
 31
0.0
  0
ARC
  5
BA9
330
B89
100
AcDbEntity
  8
0
  6
Continuous
 62
     7
370
    15
100
AcDbCircle
 10
2157.788202284368
 20
1067.679493343432
 30
0.0
 40
0.1500000000000945
100
AcDbArc
 50
180.0
 51
254.9982442327927
  0
LINE
  5
BAA
330
B89
100
AcDbEntity
  8
0
  6
Continuous
 62
     7
370
    15
100
AcDbLine
 10
2158.422647392687
 20
1067.354239783758
 30
0.0
 11
2157.749353325304
 21
1067.534603438848
 31
0.0
  0
ARC
  5
BAB
330
B89
100
AcDbEntity
  8
0
  6
Continuous
 62
     7
370
    15
100
AcDbCircle
 10
2160.364065213119
 20
1074.598514570614
 30
0.0
 40
7.499916811230323
100
AcDbArc
 50
254.9981156549923
 51
269.9982984731819
  0
LINE
  5
BAC
330
B89
100
AcDbEntity
  8
0
  6
Continuous
 62
     7
370
    15
100
AcDbLine
 10
2160.777269279894
 20
1067.098595462316
 30
0.0
 11
2160.363851463732
 21
1067.098595462316
 31
0.0
  0
ARC
  5
BAD
330
B89
100
AcDbEntity
  8
0
  6
Continuous
 62
     7
370
    15
100
AcDbCircle
 10
2160.777264127253
 20
1066.901553427716
 30
0.0
 40
0.1970443349750326
100
AcDbArc
 50
2.495928328471824
 51
90.0
  0
LINE
  5
BAE
330
B89
100
AcDbEntity
  8
0
  6
Continuous
 62
     7
370
    15
100
AcDbLine
 10
2161.001025116381
 20
1066.294767222875
 30
0.0
 11
2160.974083816942
 21
1066.910125575536
 31
0.0
  0
ARC
  5
BAF
330
B89
100
AcDbEntity
  8
0
  6
Continuous
 62
     7
370
    15
100
AcDbCircle
 10
2160.802156342363
 20
1066.286101200113
 30
0.0
 40
0.1990147783279499
100
AcDbArc
 50
269.9999973585075
 51
2.499997358877834
  0
LINE
  5
BB0
330
B89
100
AcDbEntity
  8
0
  6
Continuous
 62
     7
370
    15
100
AcDbLine
 10
2160.766063606676
 20
1066.087104640478
 30
0.0
 11
2160.80218402141
 21
1066.087104640478
 31
0.0
  0
ARC
  5
BB1
330
B89
100
AcDbEntity
  8
0
  6
Continuous
 62
     7
370
    15
100
AcDbCircle
 10
2160.766111400793
 20
1065.939303170552
 30
0.0
 40
0.1477832512350973
100
AcDbArc
 50
89.9999973597842
 51
179.9999973585922
  0
LINE
  5
BB2
330
B89
100
AcDbEntity
  8
0
  6
Continuous
 62
     7
370
    15
100
AcDbLine
 10
2160.618363296923
 20
1065.490044913762
 30
0.0
 11
2160.618363296923
 21
1065.939285121435
 31
0.0
  0
ARC
  5
BB3
330
B89
100
AcDbEntity
  8
0
  6
Continuous
 62
     7
370
    15
100
AcDbCircle
 10
2160.817333178208
 20
1065.490041975283
 30
0.0
 40
0.1990147783260738
100
AcDbArc
 50
180.0
 51
270.0
  0
LINE
  5
BB4
330
B89
100
AcDbEntity
  8
0
  6
Continuous
 62
     7
370
    15
100
AcDbLine
 10
2160.871563827928
 20
1065.291025004857
 30
0.0
 11
2160.817323601183
 21
1065.291025004857
 31
0.0
  0
ARC
  5
BB5
330
B89
100
AcDbEntity
  8
0
  6
Continuous
 62
     7
370
    15
100
AcDbCircle
 10
2160.782949855949
 20
1066.575655835553
 30
0.0
 40
1.287684729068859
100
AcDbArc
 50
273.9482249780095
 51
314.9555151482186
  0
ARC
  5
BB6
330
B89
100
AcDbEntity
  8
0
  6
Continuous
 62
     7
370
    15
100
AcDbCircle
 10
2162.399330808453
 20
1064.956762992899
 30
0.0
 40
1.000000000000278
100
AcDbArc
 50
95.09611883101515
 51
134.9555151482186
  0
ARC
  5
BB7
330
B89
100
AcDbEntity
  8
0
  6
Continuous
 62
     7
370
    15
100
AcDbCircle
 10
2163.185645122308
 20
1056.139538306697
 30
0.0
 40
9.852216748766498
100
AcDbArc
 50
84.90388116911519
 51
95.09611883106762
  0
ARC
  5
BB8
330
B89
100
AcDbEntity
  8
0
  6
Continuous
 62
     7
370
    15
100
AcDbCircle
 10
2163.971959436128
 20
1064.956762992899
 30
0.0
 40
1.000000000000329
100
AcDbArc
 50
45.04448485178135
 51
84.90388116869707
  0
ARC
  5
BB9
330
B89
100
AcDbEntity
  8
0
  6
Continuous
 62
     7
370
    15
100
AcDbCircle
 10
2165.588340388633
 20
1066.575655835553
 30
0.0
 40
1.287684729068999
100
AcDbArc
 50
225.0444848517583
 51
266.0517750221998
  0
LINE
  5
BBA
330
B89
100
AcDbEntity
  8
0
  6
Continuous
 62
     7
370
    15
100
AcDbLine
 10
2165.499626076158
 20
1065.291025004857
 30
0.0
 11
2165.553985512194
 21
1065.291025004857
 31
0.0
  0
ARC
  5
BBB
330
B89
100
AcDbEntity
  8
0
  6
Continuous
 62
     7
370
    15
100
AcDbCircle
 10
2165.553957066373
 20
1065.490041975283
 30
0.0
 40
0.1990147783260738
100
AcDbArc
 50
270.0
 51
0.0
  0
LINE
  5
BBC
330
B89
100
AcDbEntity
  8
0
  6
Continuous
 62
     7
370
    15
100
AcDbLine
 10
2165.752945816454
 20
1065.490044913762
 30
0.0
 11
2165.752945816454
 21
1065.939285121435
 31
0.0
  0
ARC
  5
BBD
330
B89
100
AcDbEntity
  8
0
  6
Continuous
 62
     7
370
    15
100
AcDbCircle
 10
2165.605178843794
 20
1065.939303170552
 30
0.0
 40
0.1477832512318856
100
AcDbArc
 50
0.0000026414078145
 51
90.00000264216993
  0
LINE
  5
BBE
330
B89
100
AcDbEntity
  8
0
  6
Continuous
 62
     7
370
    15
100
AcDbLine
 10
2165.605126297411
 20
1066.087104640478
 30
0.0
 11
2165.569125091967
 21
1066.087104640478
 31
0.0
  0
ARC
  5
BBF
330
B89
100
AcDbEntity
  8
0
  6
Continuous
 62
     7
370
    15
100
AcDbCircle
 10
2165.569133902218
 20
1066.286101200113
 30
0.0
 40
0.1990147783279499
100
AcDbArc
 50
177.5000026411222
 51
270.0000026414143
  0
LINE
  5
BC0
330
B89
100
AcDbEntity
  8
0
  6
Continuous
 62
     7
370
    15
100
AcDbLine
 10
2165.370283996996
 20
1066.294767222875
 30
0.0
 11
2165.397225296434
 21
1066.910125575536
 31
0.0
  0
ARC
  5
BC1
330
B89
100
AcDbEntity
  8
0
  6
Continuous
 62
     7
370
    15
100
AcDbCircle
 10
2165.594026117333
 20
1066.901553427716
 30
0.0
 40
0.1970443349752594
100
AcDbArc
 50
90.00000000148514
 51
177.5040716715281
  0
LINE
  5
BC2
330
B89
100
AcDbEntity
  8
0
  6
Continuous
 62
     7
370
    15
100
AcDbLine
 10
2165.594039833483
 20
1067.098595462316
 30
0.0
 11
2166.007457649645
 21
1067.098595462316
 31
0.0
  0
ARC
  5
BC3
330
B89
100
AcDbEntity
  8
0
  6
Continuous
 62
     7
370
    15
100
AcDbCircle
 10
2166.007225031464
 20
1074.598514570614
 30
0.0
 40
7.499916811230382
100
AcDbArc
 50
270.0017015268701
 51
285.0018843450077
  0
LINE
  5
BC4
330
B89
100
AcDbEntity
  8
0
  6
Continuous
 62
     7
370
    15
100
AcDbLine
 10
2167.9485425114
 20
1067.354239783758
 30
0.0
 11
2168.621955788073
 21
1067.534603438848
 31
0.0
  0
ARC
  5
BC5
330
B89
100
AcDbEntity
  8
0
  6
Continuous
 62
     7
370
    15
100
AcDbCircle
 10
2168.583087960214
 20
1067.679493343432
 30
0.0
 40
0.1500000000000871
100
AcDbArc
 50
285.0017557671822
 51
0.0
  0
LINE
  5
BC6
330
B89
100
AcDbEntity
  8
0
  6
Continuous
 62
     7
370
    15
100
AcDbLine
 10
2168.733058845934
 20
1067.679502330297
 30
0.0
 11
2168.733058845934
 21
1068.181135020727
 31
0.0
  0
LINE
  5
BC7
330
B89
100
AcDbEntity
  8
0
  6
Continuous
 62
     7
370
    15
100
AcDbLine
 10
2168.733058845934
 20
1068.181135020727
 30
0.0
 11
2168.558059608873
 21
1068.282164893621
 31
0.0
  0
ARC
  5
BC8
330
B89
100
AcDbEntity
  8
0
  6
Continuous
 62
     7
370
    15
100
AcDbCircle
 10
2168.683055316328
 20
1068.498658548914
 30
0.0
 40
0.2499961405588039
100
AcDbArc
 50
89.99669779842665
 51
240.0029955176532
  0
LINE
  5
BC9
330
B89
100
AcDbEntity
  8
0
  6
Continuous
 62
     7
370
    15
100
AcDbLine
 10
2168.683110153612
 20
1068.748630843633
 30
0.0
 11
2169.150529777941
 21
1068.748630843633
 31
0.0
  0
ARC
  5
BCA
330
B89
100
AcDbEntity
  8
0
  6
Continuous
 62
     7
370
    15
100
AcDbCircle
 10
2169.150556536834
 20
1068.448654689056
 30
0.0
 40
0.3000000000012644
100
AcDbArc
 50
9.999999999946158
 51
90.0
  0
LINE
  5
BCB
330
B89
100
AcDbEntity
  8
0
  6
Continuous
 62
     7
370
    15
100
AcDbLine
 10
2169.446049606737
 20
1068.500735126012
 30
0.0
 11
2169.591842567858
 21
1067.67342265653
 31
0.0
  0
ARC
  5
BCC
330
B89
100
AcDbEntity
  8
0
  6
Continuous
 62
     7
370
    15
100
AcDbCircle
 10
2170.576687952273
 20
1067.847063148373
 30
0.0
 40
1.000000000002377
100
AcDbArc
 50
189.9999999999205
 51
270.0
  0
LINE
  5
BCD
330
B89
100
AcDbEntity
  8
0
  6
Continuous
 62
     7
370
    15
100
AcDbLine
 10
2170.576630508837
 20
1066.847063861364
 30
0.0
 11
2172.062335884508
 21
1066.847063861364
 31
0.0
  0
ARC
  5
BCE
330
B89
100
AcDbEntity
  8
0
  6
Continuous
 62
     7
370
    15
100
AcDbCircle
 10
2172.062380809228
 20
1067.847063148373
 30
0.0
 40
1.0
100
AcDbArc
 50
270.0
 51
339.999999999959
  0
ARC
  5
BCF
330
B89
100
AcDbEntity
  8
0
  6
Continuous
 62
     7
370
    15
100
AcDbCircle
 10
2187.455935669113
 20
1067.694890670623
 30
0.0
 40
0.2000000000001859
100
AcDbArc
 50
282.4993784235958
 51
10.0000000000103
  0
LINE
  5
BD0
330
B89
100
AcDbEntity
  8
0
  6
Continuous
 62
     7
370
    15
100
AcDbLine
 10
2187.499223625597
 20
1067.499615512365
 30
0.0
 11
2186.900673782762
 21
1067.366935573095
 31
0.0
  0
ARC
  5
BD1
330
B89
100
AcDbEntity
  8
0
  6
Continuous
 62
     7
370
    15
100
AcDbCircle
 10
2186.857623321753
 20
1067.561245686474
 30
0.0
 40
0.1990147783284866
100
AcDbArc
 50
189.9999973590915
 51
282.4999973594764
  0
LINE
  5
BD2
330
B89
100
AcDbEntity
  8
0
  6
Continuous
 62
     7
370
    15
100
AcDbLine
 10
2186.661659157213
 20
1067.526676021093
 30
0.0
 11
2186.655341064867
 21
1067.562200389379
 31
0.0
  0
ARC
  5
BD3
330
B89
100
AcDbEntity
  8
0
  6
Continuous
 62
     7
370
    15
100
AcDbCircle
 10
2186.509834796733
 20
1067.536522178827
 30
0.0
 40
0.1477832512328385
100
AcDbArc
 50
9.999997359232692
 51
99.99999735980361
  0
LINE
  5
BD4
330
B89
100
AcDbEntity
  8
0
  6
Continuous
 62
     7
370
    15
100
AcDbLine
 10
2186.484156525072
 20
1067.682065330022
 30
0.0
 11
2186.041770851549
 21
1067.604042850011
 31
0.0
  0
ARC
  5
BD5
330
B89
100
AcDbEntity
  8
0
  6
Continuous
 62
     7
370
    15
100
AcDbCircle
 10
2186.076293456808
 20
1067.408065187447
 30
0.0
 40
0.1990147783265518
100
AcDbArc
 50
99.99999999992578
 51
189.9999999999461
  0
LINE
  5
BD6
330
B89
100
AcDbEntity
  8
0
  6
Continuous
 62
     7
370
    15
100
AcDbLine
 10
2185.880361473497
 20
1067.37349208402
 30
0.0
 11
2185.889779007372
 21
1067.320026717657
 31
0.0
  0
ARC
  5
BD7
330
B89
100
AcDbEntity
  8
0
  6
Continuous
 62
     7
370
    15
100
AcDbCircle
 10
2187.139443801928
 20
1067.630441018267
 30
0.0
 40
1.287684729066654
100
AcDbArc
 50
193.9482249778006
 51
234.9555151482281
  0
ARC
  5
BD8
330
B89
100
AcDbEntity
  8
0
  6
Continuous
 62
     7
370
    15
100
AcDbCircle
 10
2185.825827186008
 20
1065.757498732456
 30
0.0
 40
0.999999999999278
100
AcDbArc
 50
15.09611883089882
 51
54.95551514832569
  0
ARC
  5
BD9
330
B89
100
AcDbEntity
  8
0
  6
Continuous
 62
     7
370
    15
100
AcDbCircle
 10
2177.279098002653
 20
1063.452035301049
 30
0.0
 40
9.85221674876695
100
AcDbArc
 50
4.903881168891762
 51
15.09611883092398
  0
ARC
  5
BDA
330
B89
100
AcDbEntity
  8
0
  6
Continuous
 62
     7
370
    15
100
AcDbCircle
 10
2186.098911281348
 20
1064.208761867294
 30
0.0
 40
1.000000000002114
100
AcDbArc
 50
325.044484851839
 51
4.903881168846333
  0
ARC
  5
BDB
330
B89
100
AcDbEntity
  8
0
  6
Continuous
 62
     7
370
    15
100
AcDbCircle
 10
2187.973891110909
 20
1062.898055165415
 30
0.0
 40
1.287684729067033
100
AcDbArc
 50
145.0444848518443
 51
186.0517750222255
  0
LINE
  5
BDC
330
B89
100
AcDbEntity
  8
0
  6
Continuous
 62
     7
370
    15
100
AcDbLine
 10
2186.693368828234
 20
1062.762297950262
 30
0.0
 11
2186.702786362108
 21
1062.708832583898
 31
0.0
  0
ARC
  5
BDD
330
B89
100
AcDbEntity
  8
0
  6
Continuous
 62
     7
370
    15
100
AcDbCircle
 10
2187.685400288004
 20
1062.866689227072
 30
0.0
 40
0.1990147783276161
100
AcDbArc
 50
97.50000264090811
 51
190.0000026410407
  0
LINE
  5
BDE
330
B89
100
AcDbEntity
  8
0
  6
Continuous
 62
     7
370
    15
100
AcDbLine
 10
2187.659440910753
 20
1063.064016662115
 30
0.0
 11
2188.267289078173
 21
1063.144006095403
 31
0.0
  0
ARC
  5
BDF
330
B89
100
AcDbEntity
  8
0
  6
Continuous
 62
     7
370
    15
100
AcDbCircle
 10
2188.293339262378
 20
1062.94573889646
 30
0.0
 40
0.1999999999999708
100
AcDbArc
 50
10.00000000003596
 51
97.50062157601924
  0
ARC
  5
BE0
330
B89
100
AcDbEntity
  8
0
  6
Continuous
 62
     7
370
    15
100
AcDbCircle
 10
2188.715087615348
 20
1060.265946605635
 30
0.0
 40
0.2500000000022277
100
AcDbArc
 50
310.0000000005297
 51
9.999999999742774
  0
ARC
  5
BE1
330
B89
100
AcDbEntity
  8
0
  6
Continuous
 62
     7
370
    15
100
AcDbCircle
 10
2189.036481420194
 20
1059.882924384075
 30
0.0
 40
0.2500000000019278
100
AcDbArc
 50
129.9999999997115
 51
189.999999999991
  0
LINE
  5
BE2
330
B89
100
AcDbEntity
  8
0
  6
Continuous
 62
     7
370
    15
100
AcDbLine
 10
2188.790260231432
 20
1059.839524589055
 30
0.0
 11
2188.856898224291
 21
1059.4613927226
 31
0.0
  0
ARC
  5
BE3
330
B89
100
AcDbEntity
  8
0
  6
Continuous
 62
     7
370
    15
100
AcDbCircle
 10
2189.103157909098
 20
1059.504783224762
 30
0.0
 40
0.250000000001979
100
AcDbArc
 50
189.999999999762
 51
249.9999999991805
  0
ARC
  5
BE4
330
B89
100
AcDbEntity
  8
0
  6
Continuous
 62
     7
370
    15
100
AcDbCircle
 10
2188.932147837434
 20
1059.034936914369
 30
0.0
 40
0.2499999999999897
100
AcDbArc
 50
300.463846081585
 51
70.00000000036916
  0
ARC
  5
BE5
330
B89
100
AcDbEntity
  8
0
  6
Continuous
 62
     7
370
    15
100
AcDbCircle
 10
2189.185645122293
 20
1058.603962290327
 30
0.0
 40
0.2500000000005095
100
AcDbArc
 50
120.4638460814687
 51
180.0
  0
LINE
  5
BE6
330
B89
100
AcDbEntity
  8
0
  6
Continuous
 62
     7
370
    15
100
AcDbLine
 10
2188.935695564684
 20
1058.603979907506
 30
0.0
 11
2188.935695564684
 21
1058.220006785863
 31
0.0
  0
ARC
  5
BE7
330
B89
100
AcDbEntity
  8
0
  6
Continuous
 62
     7
370
    15
100
AcDbCircle
 10
2189.185645122293
 20
1058.21998769411
 30
0.0
 40
0.2500000000000568
100
AcDbArc
 50
180.0
 51
240.0000000000027
  0
ARC
  5
BE8
330
B89
100
AcDbEntity
  8
0
  6
Continuous
 62
     7
370
    15
100
AcDbCircle
 10
2188.935645122293
 20
1057.786974992219
 30
0.0
 40
0.2500000000000424
100
AcDbArc
 50
300.0000000000296
 51
59.9999999999413
  0
ARC
  5
BE9
330
B89
100
AcDbEntity
  8
0
  6
Continuous
 62
     7
370
    15
100
AcDbCircle
 10
2189.185645122293
 20
1057.353962290326
 30
0.0
 40
0.2500000000000568
100
AcDbArc
 50
120.0000000000005
 51
180.0
  0
LINE
  5
BEA
330
B89
100
AcDbEntity
  8
0
  6
Continuous
 62
     7
370
    15
100
AcDbLine
 10
2188.935695564684
 20
1057.353951297277
 30
0.0
 11
2188.935695564684
 21
1056.970514617437
 31
0.0
  0
ARC
  5
BEB
330
B89
100
AcDbEntity
  8
0
  6
Continuous
 62
     7
370
    15
100
AcDbCircle
 10
2189.185645122293
 20
1056.970541072534
 30
0.0
 40
0.2500000000049454
100
AcDbArc
 50
180.0000000002279
 51
230.9112597059724
  0
ARC
  5
BEC
330
B89
100
AcDbEntity
  8
0
  6
Continuous
 62
     7
370
    15
100
AcDbCircle
 10
2188.870383478573
 20
1056.582455906623
 30
0.0
 40
0.2500000000011787
100
AcDbArc
 50
287.5000000008691
 51
50.9112597056387
  0
ARC
  5
BED
330
B89
100
AcDbEntity
  8
0
  6
Continuous
 62
     7
370
    15
100
AcDbCircle
 10
2189.020736378328
 20
1056.105597431248
 30
0.0
 40
0.2500000000000949
100
AcDbArc
 50
107.4999999997733
 51
167.5000000001079
  0
LINE
  5
BEE
330
B89
100
AcDbEntity
  8
0
  6
Continuous
 62
     7
370
    15
100
AcDbLine
 10
2188.776670372423
 20
1056.159712634557
 30
0.0
 11
2188.693581497606
 21
1055.784859023565
 31
0.0
  0
ARC
  5
BEF
330
B89
100
AcDbEntity
  8
0
  6
Continuous
 62
     7
370
    15
100
AcDbCircle
 10
2188.937629064958
 20
1055.730724566127
 30
0.0
 40
0.2500000000000949
100
AcDbArc
 50
167.5000000001079
 51
227.5000000007123
  0
ARC
  5
BF0
330
B89
100
AcDbEntity
  8
0
  6
Continuous
 62
     7
370
    15
100
AcDbCircle
 10
2188.599833961153
 20
1055.362085897722
 30
0.0
 40
0.2500000000005125
100
AcDbArc
 50
287.4999999998021
 51
47.49999999971672
  0
ARC
  5
BF1
330
B89
100
AcDbEntity
  8
0
  6
Continuous
 62
     7
370
    15
100
AcDbCircle
 10
2188.750186860903
 20
1054.885227422348
 30
0.0
 40
0.2500000000004891
100
AcDbArc
 50
107.4999999997177
 51
167.499999999874
  0
LINE
  5
BF2
330
B89
100
AcDbEntity
  8
0
  6
Continuous
 62
     7
370
    15
100
AcDbLine
 10
2188.506065285143
 20
1054.939307532781
 30
0.0
 11
2188.422976410326
 21
1054.564453921789
 31
0.0
  0
ARC
  5
BF3
330
B89
100
AcDbEntity
  8
0
  6
Continuous
 62
     7
370
    15
100
AcDbCircle
 10
2188.667079547538
 20
1054.510354557226
 30
0.0
 40
0.250000000000378
100
AcDbArc
 50
167.4999999998804
 51
227.4999999997491
  0
ARC
  5
BF4
330
B89
100
AcDbEntity
  8
0
  6
Continuous
 62
     7
370
    15
100
AcDbCircle
 10
2188.329284443728
 20
1054.141715888822
 30
0.0
 40
0.2500000000011872
100
AcDbArc
 50
287.5000000008939
 51
47.49999999968429
  0
ARC
  5
BF5
330
B89
100
AcDbEntity
  8
0
  6
Continuous
 62
     7
370
    15
100
AcDbCircle
 10
2188.479637343483
 20
1053.664857413447
 30
0.0
 40
0.2500000000005975
100
AcDbArc
 50
107.4999999996928
 51
167.4999999998867
  0
LINE
  5
BF6
330
B89
100
AcDbEntity
  8
0
  6
Continuous
 62
     7
370
    15
100
AcDbLine
 10
2188.235579407152
 20
1053.71896203565
 30
0.0
 11
2188.152490532335
 21
1053.344108424657
 31
0.0
  0
ARC
  5
BF7
330
B89
100
AcDbEntity
  8
0
  6
Continuous
 62
     7
370
    15
100
AcDbCircle
 10
2188.396530030114
 20
1053.289984548327
 30
0.0
 40
0.2500000000005125
100
AcDbArc
 50
167.4999999998804
 51
227.4999999997167
  0
ARC
  5
BF8
330
B89
100
AcDbEntity
  8
0
  6
Continuous
 62
     7
370
    15
100
AcDbCircle
 10
2188.058734926308
 20
1052.921345879922
 30
0.0
 40
0.2499999999996217
100
AcDbArc
 50
287.4999999997733
 51
47.50000000071226
  0
ARC
  5
BF9
330
B89
100
AcDbEntity
  8
0
  6
Continuous
 62
     7
370
    15
100
AcDbCircle
 10
2188.209087826058
 20
1052.444487404549
 30
0.0
 40
0.2499999999998694
100
AcDbArc
 50
107.4999999997733
 51
167.4999999998867
  0
LINE
  5
BFA
330
B89
100
AcDbEntity
  8
0
  6
Continuous
 62
     7
370
    15
100
AcDbLine
 10
2187.964974319872
 20
1052.498616538518
 30
0.0
 11
2187.881885445055
 21
1052.123703322881
 31
0.0
  0
ARC
  5
BFB
330
B89
100
AcDbEntity
  8
0
  6
Continuous
 62
     7
370
    15
100
AcDbCircle
 10
2188.125980512694
 20
1052.069614539427
 30
0.0
 40
0.2500000000002541
100
AcDbArc
 50
167.4999999998995
 51
227.4999999997211
  0
ARC
  5
BFC
330
B89
100
AcDbEntity
  8
0
  6
Continuous
 62
     7
370
    15
100
AcDbCircle
 10
2187.788185408884
 20
1051.700975871022
 30
0.0
 40
0.2500000000010922
100
AcDbArc
 50
347.4999999998995
 51
47.49999999990078
  0
ARC
  5
BFD
330
B89
100
AcDbEntity
  8
0
  6
Continuous
 62
     7
370
    15
100
AcDbCircle
 10
2138.583104835699
 20
1051.700975871022
 30
0.0
 40
0.2500000000010731
100
AcDbArc
 50
132.5000000000992
 51
192.4999999998794
  0
ARC
  5
BFE
330
B89
100
AcDbEntity
  8
0
  6
Continuous
 62
     7
370
    15
100
AcDbCircle
 10
2138.245309731888
 20
1052.069614539427
 30
0.0
 40
0.2500000000004269
100
AcDbArc
 50
312.5000000003157
 51
12.50000000008853
  0
LINE
  5
BFF
330
B89
100
AcDbEntity
  8
0
  6
Continuous
 62
     7
370
    15
100
AcDbLine
 10
2138.489423668322
 20
1052.123703322881
 30
0.0
 11
2138.406334793505
 21
1052.498616538518
 31
0.0
  0
ARC
  5
C00
330
B89
100
AcDbEntity
  8
0
  6
Continuous
 62
     7
370
    15
100
AcDbCircle
 10
2138.162202418524
 20
1052.444487404549
 30
0.0
 40
0.2500000000000636
100
AcDbArc
 50
12.50000000010053
 51
72.5000000002267
  0
ARC
  5
C01
330
B89
100
AcDbEntity
  8
0
  6
Continuous
 62
     7
370
    15
100
AcDbCircle
 10
2138.312555318278
 20
1052.921345879922
 30
0.0
 40
0.2500000000011002
100
AcDbArc
 50
132.5000000000756
 51
252.4999999991596
  0
ARC
  5
C02
330
B89
100
AcDbEntity
  8
0
  6
Continuous
 62
     7
370
    15
100
AcDbCircle
 10
2137.974760214468
 20
1053.289984548327
 30
0.0
 40
0.250000000000378
100
AcDbArc
 50
312.5000000002509
 51
12.50000000012596
  0
LINE
  5
C03
330
B89
100
AcDbEntity
  8
0
  6
Continuous
 62
     7
370
    15
100
AcDbLine
 10
2138.218818581041
 20
1053.344108424657
 30
0.0
 11
2138.135729706224
 21
1053.71896203565
 31
0.0
  0
ARC
  5
C04
330
B89
100
AcDbEntity
  8
0
  6
Continuous
 62
     7
370
    15
100
AcDbCircle
 10
2137.891652901103
 20
1053.664857413447
 30
0.0
 40
0.2500000000006061
100
AcDbArc
 50
12.50000000010053
 51
72.50000000030714
  0
ARC
  5
C05
330
B89
100
AcDbEntity
  8
0
  6
Continuous
 62
     7
370
    15
100
AcDbCircle
 10
2138.042005800853
 20
1054.141715888822
 30
0.0
 40
0.2500000000002733
100
AcDbArc
 50
132.5000000002789
 51
252.5000000002516
  0
ARC
  5
C06
330
B89
100
AcDbEntity
  8
0
  6
Continuous
 62
     7
370
    15
100
AcDbCircle
 10
2137.704210697044
 20
1054.510354557226
 30
0.0
 40
0.2500000000003397
100
AcDbArc
 50
312.5000000002465
 51
12.50000000012596
  0
LINE
  5
C07
330
B89
100
AcDbEntity
  8
0
  6
Continuous
 62
     7
370
    15
100
AcDbLine
 10
2137.948332703051
 20
1054.564453921789
 30
0.0
 11
2137.865124618944
 21
1054.939307532781
 31
0.0
  0
ARC
  5
C08
330
B89
100
AcDbEntity
  8
0
  6
Continuous
 62
     7
370
    15
100
AcDbCircle
 10
2137.621103383679
 20
1054.885227422348
 30
0.0
 40
0.2500000000004805
100
AcDbArc
 50
12.50000000012596
 51
72.50000000030714
  0
ARC
  5
C09
330
B89
100
AcDbEntity
  8
0
  6
Continuous
 62
     7
370
    15
100
AcDbCircle
 10
2137.771456283429
 20
1055.362085897722
 30
0.0
 40
0.2499999999996131
100
AcDbArc
 50
132.4999999994261
 51
252.5000000002267
  0
ARC
  5
C0A
330
B89
100
AcDbEntity
  8
0
  6
Continuous
 62
     7
370
    15
100
AcDbCircle
 10
2137.433661179624
 20
1055.730724566127
 30
0.0
 40
0.2500000000010276
100
AcDbArc
 50
312.5000000001124
 51
12.49999999990482
  0
LINE
  5
C0B
330
B89
100
AcDbEntity
  8
0
  6
Continuous
 62
     7
370
    15
100
AcDbLine
 10
2137.67772761577
 20
1055.784859023565
 30
0.0
 11
2137.594638740953
 21
1056.159712634557
 31
0.0
  0
ARC
  5
C0C
330
B89
100
AcDbEntity
  8
0
  6
Continuous
 62
     7
370
    15
100
AcDbCircle
 10
2137.350553866253
 20
1056.105597431248
 30
0.0
 40
0.2500000000011103
100
AcDbArc
 50
12.49999999990482
 51
72.49999999916162
  0
ARC
  5
C0D
330
B89
100
AcDbEntity
  8
0
  6
Continuous
 62
     7
370
    15
100
AcDbCircle
 10
2137.500906766009
 20
1056.582455906623
 30
0.0
 40
0.2500000000009938
100
AcDbArc
 50
129.0887402942229
 51
252.5000000001711
  0
ARC
  5
C0E
330
B89
100
AcDbEntity
  8
0
  6
Continuous
 62
     7
370
    15
100
AcDbCircle
 10
2137.185645122293
 20
1056.970541072534
 30
0.0
 40
0.2500000000001137
100
AcDbArc
 50
309.0887402933562
 51
0.0
  0
LINE
  5
C0F
330
B89
100
AcDbEntity
  8
0
  6
Continuous
 62
     7
370
    15
100
AcDbLine
 10
2137.435613548693
 20
1056.970514617437
 30
0.0
 11
2137.435613548693
 21
1057.353951297277
 31
0.0
  0
ARC
  5
C10
330
B89
100
AcDbEntity
  8
0
  6
Continuous
 62
     7
370
    15
100
AcDbCircle
 10
2137.185645122293
 20
1057.353962290326
 30
0.0
 40
0.2500000000001137
100
AcDbArc
 50
0.0
 51
59.9999999999413
  0
ARC
  5
C11
330
B89
100
AcDbEntity
  8
0
  6
Continuous
 62
     7
370
    15
100
AcDbCircle
 10
2137.435645122293
 20
1057.786974992219
 30
0.0
 40
0.2499999999999428
100
AcDbArc
 50
120.0000000000005
 51
240.0000000000027
  0
ARC
  5
C12
330
B89
100
AcDbEntity
  8
0
  6
Continuous
 62
     7
370
    15
100
AcDbCircle
 10
2137.185645122293
 20
1058.21998769411
 30
0.0
 40
0.2500000000001137
100
AcDbArc
 50
300.0000000000329
 51
0.0
  0
LINE
  5
C13
330
B89
100
AcDbEntity
  8
0
  6
Continuous
 62
     7
370
    15
100
AcDbLine
 10
2137.435613548693
 20
1058.220006785863
 30
0.0
 11
2137.435613548693
 21
1058.603979907506
 31
0.0
  0
ARC
  5
C14
330
B89
100
AcDbEntity
  8
0
  6
Continuous
 62
     7
370
    15
100
AcDbCircle
 10
2137.185645122293
 20
1058.603962290327
 30
0.0
 40
0.2500000000001137
100
AcDbArc
 50
0.0
 51
59.53615391947517
  0
ARC
  5
C15
330
B89
100
AcDbEntity
  8
0
  6
Continuous
 62
     7
370
    15
100
AcDbCircle
 10
2137.439142407148
 20
1059.034936914369
 30
0.0
 40
0.2500000000000578
100
AcDbArc
 50
109.9999999996843
 51
239.5361539183569
  0
ARC
  5
C16
330
B89
100
AcDbEntity
  8
0
  6
Continuous
 62
     7
370
    15
100
AcDbCircle
 10
2137.268132335488
 20
1059.504783224762
 30
0.0
 40
0.2499999999990914
100
AcDbArc
 50
289.9999999997132
 51
350.0000000000346
  0
LINE
  5
C17
330
B89
100
AcDbEntity
  8
0
  6
Continuous
 62
     7
370
    15
100
AcDbLine
 10
2137.514291679796
 20
1059.4613927226
 30
0.0
 11
2137.581048881945
 21
1059.839524589055
 31
0.0
  0
ARC
  5
C18
330
B89
100
AcDbEntity
  8
0
  6
Continuous
 62
     7
370
    15
100
AcDbCircle
 10
2137.334808824393
 20
1059.882924384075
 30
0.0
 40
0.2499999999989392
100
AcDbArc
 50
349.9999999998075
 51
50.0000000003619
  0
ARC
  5
C19
330
B89
100
AcDbEntity
  8
0
  6
Continuous
 62
     7
370
    15
100
AcDbCircle
 10
2137.656202629233
 20
1060.265946605635
 30
0.0
 40
0.2500000000017354
100
AcDbArc
 50
170.0000000002572
 51
230.0000000002885
  0
ARC
  5
C1A
330
B89
100
AcDbEntity
  8
0
  6
Continuous
 62
     7
370
    15
100
AcDbCircle
 10
2138.077950982209
 20
1062.94573889646
 30
0.0
 40
0.2000000000024746
100
AcDbArc
 50
82.49937842542617
 51
170.0000000002187
  0
LINE
  5
C1B
330
B89
100
AcDbEntity
  8
0
  6
Continuous
 62
     7
370
    15
100
AcDbLine
 10
2183.51787177318
 20
1039.767541251653
 30
0.0
 11
2184.435664093431
 21
1039.767541251653
 31
0.0
  0
ARC
  5
C1C
330
B89
100
AcDbEntity
  8
0
  6
Continuous
 62
     7
370
    15
100
AcDbCircle
 10
2184.435697379198
 20
1040.767549686847
 30
0.0
 40
0.9999999999999431
100
AcDbArc
 50
270.0
 51
0.0
  0
LINE
  5
C1D
330
B89
100
AcDbEntity
  8
0
  6
Continuous
 62
     7
370
    15
100
AcDbLine
 10
2185.435710823473
 20
1040.767558179372
 30
0.0
 11
2185.435710823473
 21
1043.466396890157
 31
0.0
  0
ARC
  5
C1E
330
B89
100
AcDbEntity
  8
0
  6
Continuous
 62
     7
370
    15
100
AcDbCircle
 10
2186.935697379198
 20
1043.466409770253
 30
0.0
 40
1.500000000000056
100
AcDbArc
 50
167.5000000000443
 51
180.0000000000391
  0
LINE
  5
C1F
330
B89
100
AcDbEntity
  8
0
  6
Continuous
 62
     7
370
    15
100
AcDbLine
 10
2185.471235191759
 20
1043.791063390249
 30
0.0
 11
2187.028942978319
 21
1050.817199311727
 31
0.0
  0
ARC
  5
C20
330
B89
100
AcDbEntity
  8
0
  6
Continuous
 62
     7
370
    15
100
AcDbCircle
 10
2186.443128693913
 20
1050.947051275132
 30
0.0
 40
0.5999999999999375
100
AcDbArc
 50
347.4999999999433
 51
90.0
  0
LINE
  5
C21
330
B89
100
AcDbEntity
  8
0
  6
Continuous
 62
     7
370
    15
100
AcDbLine
 10
2186.443148529467
 20
1051.547028384679
 30
0.0
 11
2182.585059082445
 21
1051.547028384679
 31
0.0
  0
ARC
  5
C22
330
B89
100
AcDbEntity
  8
0
  6
Continuous
 62
     7
370
    15
100
AcDbCircle
 10
2182.585013090418
 20
1050.697051275131
 30
0.0
 40
0.8499999999996816
100
AcDbArc
 50
90.0
 51
178.6218101319419
  0
LINE
  5
C23
330
B89
100
AcDbEntity
  8
0
  6
Continuous
 62
     7
370
    15
100
AcDbLine
 10
2181.735216057238
 20
1050.717480741018
 30
0.0
 11
2181.521116173204
 21
1041.815646253103
 31
0.0
  0
ARC
  5
C24
330
B89
100
AcDbEntity
  8
0
  6
Continuous
 62
     7
370
    15
100
AcDbCircle
 10
2183.520514591938
 20
1041.767547954406
 30
0.0
 40
2.000000000008656
100
AcDbArc
 50
178.621810132177
 51
269.9245858257894
  0
LINE
  5
C25
330
B89
100
AcDbEntity
  8
0
  6
Continuous
 62
     7
370
    15
100
AcDbLine
 10
2144.850192940172
 20
1041.815646253103
 30
0.0
 11
2144.635973846849
 21
1050.717480741018
 31
0.0
  0
ARC
  5
C26
330
B89
100
AcDbEntity
  8
0
  6
Continuous
 62
     7
370
    15
100
AcDbCircle
 10
2143.786277154163
 20
1050.697051275131
 30
0.0
 40
0.8500000000000227
100
AcDbArc
 50
1.378189868051554
 51
90.0
  0
LINE
  5
C27
330
B89
100
AcDbEntity
  8
0
  6
Continuous
 62
     7
370
    15
100
AcDbLine
 10
2143.786250030931
 20
1051.547028384679
 30
0.0
 11
2139.92816058391
 21
1051.547028384679
 31
0.0
  0
ARC
  5
C28
330
B89
100
AcDbEntity
  8
0
  6
Continuous
 62
     7
370
    15
100
AcDbCircle
 10
2139.928161550669
 20
1050.947051275132
 30
0.0
 40
0.5999999999990564
100
AcDbArc
 50
89.99999999953102
 51
192.5000000000631
  0
LINE
  5
C29
330
B89
100
AcDbEntity
  8
0
  6
Continuous
 62
     7
370
    15
100
AcDbLine
 10
2139.342366135057
 20
1050.817199311727
 30
0.0
 11
2140.900073921617
 21
1043.791063390249
 31
0.0
  0
ARC
  5
C2A
330
B89
100
AcDbEntity
  8
0
  6
Continuous
 62
     7
370
    15
100
AcDbCircle
 10
2139.435592865389
 20
1043.466409770253
 30
0.0
 40
1.499999999999829
100
AcDbArc
 50
359.9999999999609
 51
12.4999999999557
  0
LINE
  5
C2B
330
B89
100
AcDbEntity
  8
0
  6
Continuous
 62
     7
370
    15
100
AcDbLine
 10
2140.935598289904
 20
1043.466396890157
 30
0.0
 11
2140.935598289904
 21
1040.767558179372
 31
0.0
  0
ARC
  5
C2C
330
B89
100
AcDbEntity
  8
0
  6
Continuous
 62
     7
370
    15
100
AcDbCircle
 10
2141.935592865388
 20
1040.767549686847
 30
0.0
 40
1.000000000000113
100
AcDbArc
 50
180.0
 51
270.0
  0
LINE
  5
C2D
330
B89
100
AcDbEntity
  8
0
  6
Continuous
 62
     7
370
    15
100
AcDbLine
 10
2141.935645019945
 20
1039.767541251653
 30
0.0
 11
2142.853437340197
 21
1039.767541251653
 31
0.0
  0
ARC
  5
C2E
330
B89
100
AcDbEntity
  8
0
  6
Continuous
 62
     7
370
    15
100
AcDbCircle
 10
2142.850775652643
 20
1041.767547954406
 30
0.0
 40
2.000000000012219
100
AcDbArc
 50
270.0754141743409
 51
1.378189867823011
  0
LINE
  5
C2F
330
B89
100
AcDbEntity
  8
0
  6
Continuous
 62
     7
370
    15
100
AcDbLine
 10
2138.338981544908
 20
1051.646866164678
 30
0.0
 11
2140.123783028063
 21
1043.596543632024
 31
0.0
  0
ARC
  5
C30
330
B89
100
AcDbEntity
  8
0
  6
Continuous
 62
     7
370
    15
100
AcDbCircle
 10
2139.635598513683
 20
1043.488313951181
 30
0.0
 40
0.5000000000001706
100
AcDbArc
 50
0.0
 51
12.49999999998678
  0
LINE
  5
C31
330
B89
100
AcDbEntity
  8
0
  6
Continuous
 62
     7
370
    15
100
AcDbLine
 10
2140.135584747728
 20
1043.488301597112
 30
0.0
 11
2140.135584747728
 21
1040.092952809804
 31
0.0
  0
LINE
  5
C32
330
B89
100
AcDbEntity
  8
0
  6
Continuous
 62
     7
370
    15
100
AcDbLine
 10
2137.235580360826
 20
1041.793085895055
 30
0.0
 11
2137.235699570116
 21
1039.547033868307
 31
0.0
  0
ARC
  5
C33
330
B89
100
AcDbEntity
  8
0
  6
Continuous
 62
     7
370
    15
100
AcDbCircle
 10
2138.235653560618
 20
1039.547051275127
 30
0.0
 40
1.000000000001181
100
AcDbArc
 50
180.0014177596581
 51
270.0
  0
LINE
  5
C34
330
B89
100
AcDbEntity
  8
0
  6
Continuous
 62
     7
370
    15
100
AcDbLine
 10
2138.235627090868
 20
1038.54704674291
 30
0.0
 11
2142.110644257006
 21
1038.54704674291
 31
0.0
  0
ARC
  5
C35
330
B89
100
AcDbEntity
  8
0
  6
Continuous
 62
     7
370
    15
100
AcDbCircle
 10
2142.110697132574
 20
1043.547051275129
 30
0.0
 40
5.000000000002125
100
AcDbArc
 50
269.9999614740374
 51
349.5008154133938
  0
ARC
  5
C36
330
B89
100
AcDbEntity
  8
0
  6
Continuous
 62
     7
370
    15
100
AcDbCircle
 10
2146.830333137259
 20
1042.672387920879
 30
0.0
 40
0.2000000000015258
100
AcDbArc
 50
349.5008154133938
 51
75.00042737690897
  0
LINE
  5
C37
330
B89
100
AcDbEntity
  8
0
  6
Continuous
 62
     7
370
    15
100
AcDbLine
 10
2146.882115280565
 20
1042.865582070821
 30
0.0
 11
2145.935593521532
 21
1043.119170032018
 31
0.0
  0
LINE
  5
C38
330
B89
100
AcDbEntity
  8
0
  6
Continuous
 62
     7
370
    15
100
AcDbLine
 10
2145.935593521532
 20
1043.119170032018
 30
0.0
 11
2145.746646797594
 21
1044.19148739385
 31
0.0
  0
LINE
  5
C39
330
B89
100
AcDbEntity
  8
0
  6
Continuous
 62
     7
370
    15
100
AcDbLine
 10
2145.746646797594
 20
1044.19148739385
 30
0.0
 11
2145.995913422045
 21
1050.509639344686
 31
0.0
  0
ARC
  5
C3A
330
B89
100
AcDbEntity
  8
0
  6
Continuous
 62
     7
370
    15
100
AcDbCircle
 10
2147.075080166038
 20
1050.467051275127
 30
0.0
 40
1.080000000000028
100
AcDbArc
 50
90.0
 51
177.7401841042871
  0
LINE
  5
C3B
330
B89
100
AcDbEntity
  8
0
  6
Continuous
 62
     7
370
    15
100
AcDbLine
 10
2147.075115120348
 20
1051.547028384679
 30
0.0
 11
2147.087274467882
 21
1051.547028384679
 31
0.0
  0
ARC
  5
C3C
330
B89
100
AcDbEntity
  8
0
  6
Continuous
 62
     7
370
    15
100
AcDbCircle
 10
2147.087277426163
 20
1050.467051275128
 30
0.0
 40
1.080000000000161
100
AcDbArc
 50
358.0636678117275
 51
90.0
  0
LINE
  5
C3D
330
B89
100
AcDbEntity
  8
0
  6
Continuous
 62
     7
370
    15
100
AcDbLine
 10
2148.166714584764
 20
1050.430573783391
 30
0.0
 11
2147.963820373949
 21
1044.429309926504
 31
0.0
  0
ARC
  5
C3E
330
B89
100
AcDbEntity
  8
0
  6
Continuous
 62
     7
370
    15
100
AcDbCircle
 10
2148.263597530648
 20
1044.419167292361
 30
0.0
 40
0.3000000000009992
100
AcDbArc
 50
178.0636678117014
 51
270.0
  0
LINE
  5
C3F
330
B89
100
AcDbEntity
  8
0
  6
Continuous
 62
     7
370
    15
100
AcDbLine
 10
2148.263631737169
 20
1044.119157157415
 30
0.0
 11
2149.344144737658
 21
1044.119157157415
 31
0.0
  0
ARC
  5
C40
330
B89
100
AcDbEntity
  8
0
  6
Continuous
 62
     7
370
    15
100
AcDbCircle
 10
2149.344108513593
 20
1044.719167292361
 30
0.0
 40
0.6000000000001983
100
AcDbArc
 50
270.0
 51
299.9999999999973
  0
LINE
  5
C41
330
B89
100
AcDbEntity
  8
0
  6
Continuous
 62
     7
370
    15
100
AcDbLine
 10
2149.644075310167
 20
1044.199563823217
 30
0.0
 11
2152.321158325609
 21
1045.745142064565
 31
0.0
  0
ARC
  5
C42
330
B89
100
AcDbEntity
  8
0
  6
Continuous
 62
     7
370
    15
100
AcDbCircle
 10
2153.821144206068
 20
1043.147063116418
 30
0.0
 40
3.000000000000619
100
AcDbArc
 50
90.0
 51
120.0000000000005
  0
LINE
  5
C43
330
B89
100
AcDbEntity
  8
0
  6
Continuous
 62
     7
370
    15
100
AcDbLine
 10
2153.821168816027
 20
1046.147056184286
 30
0.0
 11
2172.55014029735
 21
1046.147056184286
 31
0.0
  0
ARC
  5
C44
330
B89
100
AcDbEntity
  8
0
  6
Continuous
 62
     7
370
    15
100
AcDbCircle
 10
2172.550146038519
 20
1043.147063116418
 30
0.0
 40
3.000000000000308
100
AcDbArc
 50
60.00000000000272
 51
90.0
  0
LINE
  5
C45
330
B89
100
AcDbEntity
  8
0
  6
Continuous
 62
     7
370
    15
100
AcDbLine
 10
2174.050150787767
 20
1045.745142064565
 30
0.0
 11
2176.727233803209
 21
1044.199563823217
 31
0.0
  0
ARC
  5
C46
330
B89
100
AcDbEntity
  8
0
  6
Continuous
 62
     7
370
    15
100
AcDbCircle
 10
2177.027181730988
 20
1044.719167292361
 30
0.0
 40
0.6000000000002826
100
AcDbArc
 50
240.0000000000285
 51
270.000000000495
  0
LINE
  5
C47
330
B89
100
AcDbEntity
  8
0
  6
Continuous
 62
     7
370
    15
100
AcDbLine
 10
2177.027164375719
 20
1044.119157157415
 30
0.0
 11
2178.107677376207
 21
1044.119157157415
 31
0.0
  0
ARC
  5
C48
330
B89
100
AcDbEntity
  8
0
  6
Continuous
 62
     7
370
    15
100
AcDbCircle
 10
2178.107692713938
 20
1044.419167292361
 30
0.0
 40
0.3000000000000114
100
AcDbArc
 50
270.0
 51
1.936332188331096
  0
LINE
  5
C49
330
B89
100
AcDbEntity
  8
0
  6
Continuous
 62
     7
370
    15
100
AcDbLine
 10
2178.407488739428
 20
1044.429309926504
 30
0.0
 11
2178.204594528612
 21
1050.430573783391
 31
0.0
  0
ARC
  5
C4A
330
B89
100
AcDbEntity
  8
0
  6
Continuous
 62
     7
370
    15
100
AcDbCircle
 10
2179.284012818419
 20
1050.467051275128
 30
0.0
 40
1.080000000001497
100
AcDbArc
 50
90.0
 51
181.9363321882725
  0
LINE
  5
C4B
330
B89
100
AcDbEntity
  8
0
  6
Continuous
 62
     7
370
    15
100
AcDbLine
 10
2179.284034645494
 20
1051.547028384679
 30
0.0
 11
2179.296193993029
 21
1051.547028384679
 31
0.0
  0
ARC
  5
C4C
330
B89
100
AcDbEntity
  8
0
  6
Continuous
 62
     7
370
    15
100
AcDbCircle
 10
2179.296210078543
 20
1050.467051275127
 30
0.0
 40
1.080000000000227
100
AcDbArc
 50
2.259815895712872
 51
90.0
  0
LINE
  5
C4D
330
B89
100
AcDbEntity
  8
0
  6
Continuous
 62
     7
370
    15
100
AcDbLine
 10
2180.375395691332
 20
1050.509639344686
 30
0.0
 11
2180.624662315783
 21
1044.19148739385
 31
0.0
  0
LINE
  5
C4E
330
B89
100
AcDbEntity
  8
0
  6
Continuous
 62
     7
370
    15
100
AcDbLine
 10
2180.624662315783
 20
1044.19148739385
 30
0.0
 11
2180.435596382555
 21
1043.119170032018
 31
0.0
  0
LINE
  5
C4F
330
B89
100
AcDbEntity
  8
0
  6
Continuous
 62
     7
370
    15
100
AcDbLine
 10
2180.435596382555
 20
1043.119170032018
 30
0.0
 11
2179.489193832811
 21
1042.865582070821
 31
0.0
  0
ARC
  5
C50
330
B89
100
AcDbEntity
  8
0
  6
Continuous
 62
     7
370
    15
100
AcDbCircle
 10
2179.540957107323
 20
1042.672387920879
 30
0.0
 40
0.2000000000003262
100
AcDbArc
 50
104.9995726230641
 51
190.4991845866062
  0
ARC
  5
C51
330
B89
100
AcDbEntity
  8
0
  6
Continuous
 62
     7
370
    15
100
AcDbCircle
 10
2184.260593112013
 20
1043.547051275129
 30
0.0
 40
5.000000000003416
100
AcDbArc
 50
190.4991845865934
 51
270.0000385259104
  0
LINE
  5
C52
330
B89
100
AcDbEntity
  8
0
  6
Continuous
 62
     7
370
    15
100
AcDbLine
 10
2184.260545647081
 20
1038.54704674291
 30
0.0
 11
2188.135682022509
 21
1038.54704674291
 31
0.0
  0
ARC
  5
C53
330
B89
100
AcDbEntity
  8
0
  6
Continuous
 62
     7
370
    15
100
AcDbCircle
 10
2188.135636683963
 20
1039.547051275127
 30
0.0
 40
1.000000000000727
100
AcDbArc
 50
270.0
 51
359.9985822403418
  0
ARC
  5
C54
330
B89
100
AcDbEntity
  8
0
  6
Continuous
 62
     7
370
    15
100
AcDbCircle
 10
2137.985598248528
 20
1041.793072591868
 30
0.0
 40
0.7500002651534379
100
AcDbArc
 50
319.4644437939748
 51
179.9997354822858
  0
ARC
  5
C55
330
B89
100
AcDbEntity
  8
0
  6
Continuous
 62
     7
370
    15
100
AcDbCircle
 10
2187.435688307713
 20
1040.980672656409
 30
0.0
 40
0.500000000044139
100
AcDbArc
 50
359.9999999862494
 51
40.53555619247489
  0
ARC
  5
C56
330
B89
100
AcDbEntity
  8
0
  6
Continuous
 62
     7
370
    15
100
AcDbCircle
 10
2186.735691730904
 20
1043.488313951181
 30
0.0
 40
0.4999999999999716
100
AcDbArc
 50
167.5000000000068
 51
180.0
  0
LINE
  5
C57
330
B89
100
AcDbEntity
  8
0
  6
Continuous
 62
     7
370
    15
100
AcDbLine
 10
2186.247526085314
 20
1043.596543632024
 30
0.0
 11
2188.032208359178
 21
1051.646866164678
 31
0.0
  0
LINE
  5
C58
330
B89
100
AcDbEntity
  8
0
  6
Continuous
 62
     7
370
    15
100
AcDbLine
 10
2188.961325561937
 20
1060.30938800382
 30
0.0
 11
2188.490329658922
 21
1062.980450950139
 31
0.0
  0
LINE
  5
C59
330
B89
100
AcDbEntity
  8
0
  6
Continuous
 62
     7
370
    15
100
AcDbLine
 10
2187.652884399828
 20
1067.729629836553
 30
0.0
 11
2187.089024460253
 21
1070.927299819463
 31
0.0
  0
ARC
  5
C5A
330
B89
100
AcDbEntity
  8
0
  6
Continuous
 62
     7
370
    15
100
AcDbCircle
 10
2186.350456419508
 20
1070.797051275127
 30
0.0
 40
0.7500000000010106
100
AcDbArc
 50
10.00000000005332
 51
90.0
  0
LINE
  5
C5B
330
B89
100
AcDbEntity
  8
0
  6
Continuous
 62
     7
370
    15
100
AcDbLine
 10
2186.350403702196
 20
1071.547068915838
 30
0.0
 11
2174.823342239794
 21
1071.547068915838
 31
0.0
  0
ARC
  5
C5C
330
B89
100
AcDbEntity
  8
0
  6
Continuous
 62
     7
370
    15
100
AcDbCircle
 10
2174.823347896088
 20
1071.047051275128
 30
0.0
 40
0.50000000000092
100
AcDbArc
 50
90.0
 51
160.0000000000809
  0
LINE
  5
C5D
330
B89
100
AcDbEntity
  8
0
  6
Continuous
 62
     7
370
    15
100
AcDbLine
 10
2174.353538429674
 20
1071.218051276678
 30
0.0
 11
2173.002062714037
 21
1067.505039535039
 31
0.0
  0
LINE
  5
C5E
330
B89
100
AcDbEntity
  8
0
  6
Continuous
 62
     7
370
    15
100
AcDbLine
 10
2153.36924639934
 20
1067.505039535039
 30
0.0
 11
2152.017770683702
 21
1071.218051276678
 31
0.0
  0
ARC
  5
C5F
330
B89
100
AcDbEntity
  8
0
  6
Continuous
 62
     7
370
    15
100
AcDbCircle
 10
2151.547942348499
 20
1071.047051275128
 30
0.0
 40
0.4999999999984937
100
AcDbArc
 50
20.00000000012948
 51
90.0
  0
LINE
  5
C60
330
B89
100
AcDbEntity
  8
0
  6
Continuous
 62
     7
370
    15
100
AcDbLine
 10
2151.547966873583
 20
1071.547068915838
 30
0.0
 11
2140.020786201891
 21
1071.547068915838
 31
0.0
  0
ARC
  5
C61
330
B89
100
AcDbEntity
  8
0
  6
Continuous
 62
     7
370
    15
100
AcDbCircle
 10
2140.020833825073
 20
1070.797051275127
 30
0.0
 40
0.7500000000005431
100
AcDbArc
 50
90.0
 51
169.9999999999467
  0
LINE
  5
C62
330
B89
100
AcDbEntity
  8
0
  6
Continuous
 62
     7
370
    15
100
AcDbLine
 10
2139.282284653124
 20
1070.927299819463
 30
0.0
 11
2138.718424713549
 21
1067.729629836553
 31
0.0
  0
LINE
  5
C63
330
B89
100
AcDbEntity
  8
0
  6
Continuous
 62
     7
370
    15
100
AcDbLine
 10
2137.880979454454
 20
1062.980450950139
 30
0.0
 11
2137.409983551439
 21
1060.30938800382
 31
0.0
  0
ARC
  5
C64
330
B89
100
AcDbEntity
  8
0
  6
Continuous
 62
     7
370
    15
100
AcDbCircle
 10
2139.835598513683
 20
1040.092962962873
 30
0.0
 40
0.2999999999999545
100
AcDbArc
 50
270.0
 51
0.0000000001888995
  0
LINE
  5
C65
330
B89
100
AcDbEntity
  8
0
  6
Continuous
 62
     7
370
    15
100
AcDbLine
 10
2139.835654175219
 20
1039.79296263265
 30
0.0
 11
2138.735590851244
 21
1039.79296263265
 31
0.0
  0
ARC
  5
C66
330
B89
100
AcDbEntity
  8
0
  6
Continuous
 62
     7
370
    15
100
AcDbCircle
 10
2138.735601936824
 20
1040.092962962875
 30
0.0
 40
0.3000000000001819
100
AcDbArc
 50
180.0
 51
270.0
  0
LINE
  5
C67
330
B89
100
AcDbEntity
  8
0
  6
Continuous
 62
     7
370
    15
100
AcDbLine
 10
2138.435660278734
 20
1040.092952809804
 30
0.0
 11
2138.435660278734
 21
1040.980674586767
 31
0.0
  0
ARC
  5
C68
330
B89
100
AcDbEntity
  8
0
  6
Continuous
 62
     7
370
    15
100
AcDbCircle
 10
2138.935601936868
 20
1040.980672656409
 30
0.0
 40
0.50000000004502
100
AcDbArc
 50
139.4644438075668
 51
180.000000013744
  0
ARC
  5
C69
330
B89
100
AcDbEntity
  8
0
  6
Continuous
 62
     7
370
    15
100
AcDbCircle
 10
2186.898799563283
 20
1062.743401259262
 30
0.0
 40
0.1990147783254651
100
AcDbArc
 50
189.9999999996292
 51
280.000000000005
  0
LINE
  5
C6A
330
B89
100
AcDbEntity
  8
0
  6
Continuous
 62
     7
370
    15
100
AcDbLine
 10
2186.235724365648
 20
1040.092952809804
 30
0.0
 11
2186.235724365648
 21
1043.488301597112
 31
0.0
  0
LINE
  5
C6B
330
B89
100
AcDbEntity
  8
0
  6
Continuous
 62
     7
370
    15
100
AcDbLine
 10
2187.935648834642
 20
1040.980674586767
 30
0.0
 11
2187.935648834642
 21
1040.092952809804
 31
0.0
  0
ARC
  5
C6C
330
B89
100
AcDbEntity
  8
0
  6
Continuous
 62
     7
370
    15
100
AcDbCircle
 10
2187.635688307759
 20
1040.092962962875
 30
0.0
 40
0.2999999999999829
100
AcDbArc
 50
270.0
 51
0.0
  0
LINE
  5
C6D
330
B89
100
AcDbEntity
  8
0
  6
Continuous
 62
     7
370
    15
100
AcDbLine
 10
2187.635718262133
 20
1039.79296263265
 30
0.0
 11
2186.535654938158
 21
1039.79296263265
 31
0.0
  0
ARC
  5
C6E
330
B89
100
AcDbEntity
  8
0
  6
Continuous
 62
     7
370
    15
100
AcDbCircle
 10
2186.535691730898
 20
1040.092962962873
 30
0.0
 40
0.299999999999045
100
AcDbArc
 50
179.9999999998111
 51
270.000000000938
  0
ARC
  5
C6F
330
B89
100
AcDbEntity
  8
0
  6
Continuous
 62
     7
370
    15
100
AcDbCircle
 10
2187.350130039824
 20
1062.770971043592
 30
0.0
 40
0.1477832512312572
100
AcDbArc
 50
280.0000026412389
 51
10.00000264158032
  0
LINE
  5
C70
330
B89
100
AcDbEntity
  8
0
  6
Continuous
 62
     7
370
    15
100
AcDbLine
 10
2187.49564734691
 20
1062.796630225652
 30
0.0
 11
2187.489448463854
 21
1062.832154593938
 31
0.0
  0
LINE
  5
C71
330
B89
100
AcDbEntity
  8
0
  6
Continuous
 62
     7
370
    15
100
AcDbLine
 10
2186.933337128099
 20
1062.547423205846
 30
0.0
 11
2187.375842010912
 21
1062.625445685857
 31
0.0
  0
ARC
  5
C72
330
B89
100
AcDbEntity
  8
0
  6
Continuous
 62
     7
370
    15
100
AcDbCircle
 10
2188.385691996053
 20
1041.793072591868
 30
0.0
 40
0.7500002651535054
100
AcDbArc
 50
0.0002645177141282
 51
220.5355562060203
  0
LINE
  5
C73
330
B89
100
AcDbEntity
  8
0
  6
Continuous
 62
     7
370
    15
100
AcDbLine
 10
2189.135609543261
 20
1039.547033868307
 30
0.0
 11
2189.13572875255
 21
1041.793085895055
 31
0.0
  0
LINE
  5
C74
330
B89
100
AcDbEntity
  8
0
  6
Continuous
 62
     7
370
    15
100
AcDbLine
 10
2186.985670006212
 20
1042.543061337942
 30
0.0
 11
2188.385663902697
 21
1042.543061337942
 31
0.0
  0
ARC
  5
C75
330
B89
100
AcDbEntity
  8
0
  6
Continuous
 62
     7
370
    15
100
AcDbCircle
 10
2186.985691730904
 20
1043.293072857019
 30
0.0
 40
0.7500000000000285
100
AcDbArc
 50
180.0
 51
270.0
  0
LINE
  5
C76
330
B89
100
AcDbEntity
  8
0
  6
Continuous
 62
     7
370
    15
100
AcDbLine
 10
2139.385639107164
 20
1042.543061337942
 30
0.0
 11
2137.98564521068
 21
1042.543061337942
 31
0.0
  0
ARC
  5
C77
330
B89
100
AcDbEntity
  8
0
  6
Continuous
 62
     7
370
    15
100
AcDbCircle
 10
2139.385598513683
 20
1043.293072857019
 30
0.0
 40
0.7500000000000569
100
AcDbArc
 50
270.0
 51
0.0
  0
LINE
  5
C78
330
B89
100
AcDbEntity
  8
0
  6
Continuous
 62
     7
370
    15
100
AcDbLine
 10
2160.69334594005
 20
1065.334417186254
 30
0.0
 11
2161.125598823961
 21
1065.334417186254
 31
0.0
  0
LINE
  5
C79
330
B89
100
AcDbEntity
  8
0
  6
Continuous
 62
     7
370
    15
100
AcDbLine
 10
2165.245710289415
 20
1065.334417186254
 30
0.0
 11
2165.677963173326
 21
1065.334417186254
 31
0.0
  0
ARC
  5
C7A
330
B89
100
AcDbEntity
  8
0
  6
Continuous
 62
     7
370
    15
100
AcDbCircle
 10
2149.092192241933
 20
1063.452035301049
 30
0.0
 40
9.852216748771377
100
AcDbArc
 50
175.0961188311082
 51
185.1046763217066
  0
ARC
  5
C7B
330
B89
100
AcDbEntity
  8
0
  6
Continuous
 62
     7
370
    15
100
AcDbCircle
 10
2149.092192241933
 20
1063.452035301049
 30
0.0
 40
9.852216748771501
100
AcDbArc
 50
154.895323678457
 51
164.903881169076
  0
ARC
  5
C7C
330
B89
100
AcDbEntity
  8
0
  6
Continuous
 62
     7
370
    15
100
AcDbCircle
 10
2177.279098002653
 20
1063.452035301049
 30
0.0
 40
9.85221674876695
100
AcDbArc
 50
15.09611883092398
 51
25.1046763215599
  0
ARC
  5
C7D
330
B89
100
AcDbEntity
  8
0
  6
Continuous
 62
     7
370
    15
100
AcDbCircle
 10
2177.279098002653
 20
1063.452035301049
 30
0.0
 40
9.852216748766281
100
AcDbArc
 50
354.8953236782933
 51
4.903881168891762
  0
ARC
  5
C7E
330
B89
100
AcDbEntity
  8
0
  6
Continuous
 62
     7
370
    15
100
AcDbCircle
 10
2163.185645122308
 20
1056.139538306697
 30
0.0
 40
9.852216748766498
100
AcDbArc
 50
95.09611883106762
 51
105.1046763216724
  0
ARC
  5
C7F
330
B89
100
AcDbEntity
  8
0
  6
Continuous
 62
     7
370
    15
100
AcDbCircle
 10
2163.185645122274
 20
1056.139538306697
 30
0.0
 40
9.852216748767361
100
AcDbArc
 50
74.89532367830076
 51
84.90388116890642
  0
ENDBLK
  5
B8B
330
B89
100
AcDbEntity
  8
0
100
AcDbBlockEnd
  0
BLOCK
  5
C82
330
C81
100
AcDbEntity
  8
0
100
AcDbBlockBegin
  2
2
 70
     0
 10
0.0
 20
0.0
 30
0.0
  3
2
  1

  0
LINE
  5
C84
330
C81
100
AcDbEntity
  8
0
  6
Continuous
 62
     7
370
    15
100
AcDbLine
 10
2123.385757082796
 20
1042.543061337942
 30
0.0
 11
2119.085757169595
 21
1042.543061337942
 31
0.0
  0
LINE
  5
C85
330
C81
100
AcDbEntity
  8
0
  6
Continuous
 62
     7
370
    15
100
AcDbLine
 10
2124.085757057836
 20
1063.145734630102
 30
0.0
 11
2119.085757169595
 21
1063.145734630102
 31
0.0
  0
LINE
  5
C86
330
C81
100
AcDbEntity
  8
0
  6
Continuous
 62
     7
370
    15
100
AcDbLine
 10
2119.085757169595
 20
1067.362226806157
 30
0.0
 11
2124.085757057836
 21
1067.362226806157
 31
0.0
  0
LINE
  5
C87
330
C81
100
AcDbEntity
  8
0
  6
Continuous
 62
     7
370
    15
100
AcDbLine
 10
2124.085757057836
 20
1057.570494971746
 30
0.0
 11
2119.085757169595
 21
1057.570494971746
 31
0.0
  0
LINE
  5
C88
330
C81
100
AcDbEntity
  8
0
  6
Continuous
 62
     7
370
    15
100
AcDbLine
 10
2119.085757169595
 20
1058.003463111394
 30
0.0
 11
2119.085757169595
 21
1057.570494971746
 31
0.0
  0
LINE
  5
C89
330
C81
100
AcDbEntity
  8
0
  6
Continuous
 62
     7
370
    15
100
AcDbLine
 10
2124.085757057836
 20
1058.003463111394
 30
0.0
 11
2119.085757169595
 21
1058.003463111394
 31
0.0
  0
LINE
  5
C8A
330
C81
100
AcDbEntity
  8
0
  6
Continuous
 62
     7
370
    15
100
AcDbLine
 10
2124.085757057836
 20
1058.003463111394
 30
0.0
 11
2124.085757057836
 21
1057.570494971746
 31
0.0
  0
LINE
  5
C8B
330
C81
100
AcDbEntity
  8
0
  6
Continuous
 62
     7
370
    15
100
AcDbLine
 10
2124.085757057836
 20
1058.819450698369
 30
0.0
 11
2119.085757169595
 21
1058.819450698369
 31
0.0
  0
LINE
  5
C8C
330
C81
100
AcDbEntity
  8
0
  6
Continuous
 62
     7
370
    15
100
AcDbLine
 10
2124.085757057836
 20
1059.269882998937
 30
0.0
 11
2119.085757169595
 21
1059.269882998937
 31
0.0
  0
LINE
  5
C8D
330
C81
100
AcDbEntity
  8
0
  6
Continuous
 62
     7
370
    15
100
AcDbLine
 10
2119.085757169595
 20
1059.269882998937
 30
0.0
 11
2119.085757169595
 21
1058.819450698369
 31
0.0
  0
LINE
  5
C8E
330
C81
100
AcDbEntity
  8
0
  6
Continuous
 62
     7
370
    15
100
AcDbLine
 10
2124.085757057836
 20
1059.269882998937
 30
0.0
 11
2124.085757057836
 21
1058.819450698369
 31
0.0
  0
LINE
  5
C8F
330
C81
100
AcDbEntity
  8
0
  6
Continuous
 62
     7
370
    15
100
AcDbLine
 10
2124.085757057836
 20
1041.793085895055
 30
0.0
 11
2119.085757169595
 21
1041.793085895055
 31
0.0
  0
LINE
  5
C90
330
C81
100
AcDbEntity
  8
0
  6
Continuous
 62
     7
370
    15
100
AcDbLine
 10
2124.085757057836
 20
1042.543061337942
 30
0.0
 11
2123.385757082796
 21
1042.543061337942
 31
0.0
  0
LINE
  5
C91
330
C81
100
AcDbEntity
  8
0
  6
Continuous
 62
     7
370
    15
100
AcDbLine
 10
2119.085757169595
 20
1041.793085895055
 30
0.0
 11
2119.085757169595
 21
1042.543061337942
 31
0.0
  0
LINE
  5
C92
330
C81
100
AcDbEntity
  8
0
  6
Continuous
 62
     7
370
    15
100
AcDbLine
 10
2124.085757057836
 20
1042.543061337942
 30
0.0
 11
2124.085757057836
 21
1041.793056092733
 31
0.0
  0
LINE
  5
C93
330
C81
100
AcDbEntity
  8
0
  6
Continuous
 62
     7
370
    15
100
AcDbLine
 10
2124.085757057836
 20
1039.547033868307
 30
0.0
 11
2119.085757169595
 21
1039.547033868307
 31
0.0
  0
LINE
  5
C94
330
C81
100
AcDbEntity
  8
0
  6
Continuous
 62
     7
370
    15
100
AcDbLine
 10
2119.085757169595
 20
1039.547033868307
 30
0.0
 11
2119.085757169595
 21
1041.793085895055
 31
0.0
  0
LINE
  5
C95
330
C81
100
AcDbEntity
  8
0
  6
Continuous
 62
     7
370
    15
100
AcDbLine
 10
2124.085757057836
 20
1041.793056092733
 30
0.0
 11
2124.085757057836
 21
1039.547033868307
 31
0.0
  0
LINE
  5
C96
330
C81
100
AcDbEntity
  8
0
  6
Continuous
 62
     7
370
    15
100
AcDbLine
 10
2124.085757057836
 20
1038.54704674291
 30
0.0
 11
2119.085757169595
 21
1038.54704674291
 31
0.0
  0
LINE
  5
C97
330
C81
100
AcDbEntity
  8
0
  6
Continuous
 62
     7
370
    15
100
AcDbLine
 10
2119.085757169595
 20
1038.54704674291
 30
0.0
 11
2119.085757169595
 21
1039.547033868307
 31
0.0
  0
LINE
  5
C98
330
C81
100
AcDbEntity
  8
0
  6
Continuous
 62
     7
370
    15
100
AcDbLine
 10
2124.085757057836
 20
1039.547033868307
 30
0.0
 11
2124.085757057836
 21
1038.54704674291
 31
0.0
  0
LINE
  5
C99
330
C81
100
AcDbEntity
  8
0
  6
Continuous
 62
     7
370
    15
100
AcDbLine
 10
2124.085757057836
 20
1056.344010196203
 30
0.0
 11
2119.085757169595
 21
1056.344010196203
 31
0.0
  0
LINE
  5
C9A
330
C81
100
AcDbEntity
  8
0
  6
Continuous
 62
     7
370
    15
100
AcDbLine
 10
2124.085757057836
 20
1056.776501498693
 30
0.0
 11
2119.085757169595
 21
1056.776501498693
 31
0.0
  0
LINE
  5
C9B
330
C81
100
AcDbEntity
  8
0
  6
Continuous
 62
     7
370
    15
100
AcDbLine
 10
2119.085757169595
 20
1056.776501498693
 30
0.0
 11
2119.085757169595
 21
1056.344010196203
 31
0.0
  0
LINE
  5
C9C
330
C81
100
AcDbEntity
  8
0
  6
Continuous
 62
     7
370
    15
100
AcDbLine
 10
2124.085757057836
 20
1056.776501498693
 30
0.0
 11
2124.085757057836
 21
1056.344010196203
 31
0.0
  0
LINE
  5
C9D
330
C81
100
AcDbEntity
  8
0
  6
Continuous
 62
     7
370
    15
100
AcDbLine
 10
2124.085757057836
 20
1058.220006785863
 30
0.0
 11
2119.085757169595
 21
1058.220006785863
 31
0.0
  0
LINE
  5
C9E
330
C81
100
AcDbEntity
  8
0
  6
Continuous
 62
     7
370
    15
100
AcDbLine
 10
2119.085757169595
 20
1058.220006785863
 30
0.0
 11
2119.085757169595
 21
1058.003463111394
 31
0.0
  0
LINE
  5
C9F
330
C81
100
AcDbEntity
  8
0
  6
Continuous
 62
     7
370
    15
100
AcDbLine
 10
2124.085757057836
 20
1058.220006785863
 30
0.0
 11
2124.085757057836
 21
1058.003463111394
 31
0.0
  0
LINE
  5
CA0
330
C81
100
AcDbEntity
  8
0
  6
Continuous
 62
     7
370
    15
100
AcDbLine
 10
2124.085757057836
 20
1057.353951297277
 30
0.0
 11
2119.085757169595
 21
1057.353951297277
 31
0.0
  0
LINE
  5
CA1
330
C81
100
AcDbEntity
  8
0
  6
Continuous
 62
     7
370
    15
100
AcDbLine
 10
2119.085757169595
 20
1057.570494971746
 30
0.0
 11
2119.085757169595
 21
1057.353951297277
 31
0.0
  0
LINE
  5
CA2
330
C81
100
AcDbEntity
  8
0
  6
Continuous
 62
     7
370
    15
100
AcDbLine
 10
2124.085757057836
 20
1057.570494971746
 30
0.0
 11
2124.085757057836
 21
1057.353951297277
 31
0.0
  0
LINE
  5
CA3
330
C81
100
AcDbEntity
  8
0
  6
Continuous
 62
     7
370
    15
100
AcDbLine
 10
2124.085757057836
 20
1058.603979907506
 30
0.0
 11
2119.085757169595
 21
1058.603979907506
 31
0.0
  0
LINE
  5
CA4
330
C81
100
AcDbEntity
  8
0
  6
Continuous
 62
     7
370
    15
100
AcDbLine
 10
2119.085757169595
 20
1058.819450698369
 30
0.0
 11
2119.085757169595
 21
1058.603979907506
 31
0.0
  0
LINE
  5
CA5
330
C81
100
AcDbEntity
  8
0
  6
Continuous
 62
     7
370
    15
100
AcDbLine
 10
2124.085757057836
 20
1058.819450698369
 30
0.0
 11
2124.085757057836
 21
1058.603979907506
 31
0.0
  0
LINE
  5
CA6
330
C81
100
AcDbEntity
  8
0
  6
Continuous
 62
     7
370
    15
100
AcDbLine
 10
2124.085757057836
 20
1056.970514617437
 30
0.0
 11
2119.085757169595
 21
1056.970514617437
 31
0.0
  0
LINE
  5
CA7
330
C81
100
AcDbEntity
  8
0
  6
Continuous
 62
     7
370
    15
100
AcDbLine
 10
2119.085757169595
 20
1056.970514617437
 30
0.0
 11
2119.085757169595
 21
1056.776501498693
 31
0.0
  0
LINE
  5
CA8
330
C81
100
AcDbEntity
  8
0
  6
Continuous
 62
     7
370
    15
100
AcDbLine
 10
2124.085757057836
 20
1056.970514617437
 30
0.0
 11
2124.085757057836
 21
1056.776501498693
 31
0.0
  0
LINE
  5
CA9
330
C81
100
AcDbEntity
  8
0
  6
Continuous
 62
     7
370
    15
100
AcDbLine
 10
2124.085757057836
 20
1059.4613927226
 30
0.0
 11
2119.085757169595
 21
1059.4613927226
 31
0.0
  0
LINE
  5
CAA
330
C81
100
AcDbEntity
  8
0
  6
Continuous
 62
     7
370
    15
100
AcDbLine
 10
2119.085757169595
 20
1059.4613927226
 30
0.0
 11
2119.085757169595
 21
1059.269882998937
 31
0.0
  0
LINE
  5
CAB
330
C81
100
AcDbEntity
  8
0
  6
Continuous
 62
     7
370
    15
100
AcDbLine
 10
2124.085757057836
 20
1059.4613927226
 30
0.0
 11
2124.085757057836
 21
1059.269882998937
 31
0.0
  0
LINE
  5
CAC
330
C81
100
AcDbEntity
  8
0
  6
Continuous
 62
     7
370
    15
100
AcDbLine
 10
2124.085757057836
 20
1060.074426494115
 30
0.0
 11
2119.085757169595
 21
1060.074426494115
 31
0.0
  0
LINE
  5
CAD
330
C81
100
AcDbEntity
  8
0
  6
Continuous
 62
     7
370
    15
100
AcDbLine
 10
2119.085757169595
 20
1060.30938800382
 30
0.0
 11
2124.085757057836
 21
1060.30938800382
 31
0.0
  0
LINE
  5
CAE
330
C81
100
AcDbEntity
  8
0
  6
Continuous
 62
     7
370
    15
100
AcDbLine
 10
2119.085757169595
 20
1060.30938800382
 30
0.0
 11
2119.085757169595
 21
1060.074426494115
 31
0.0
  0
LINE
  5
CAF
330
C81
100
AcDbEntity
  8
0
  6
Continuous
 62
     7
370
    15
100
AcDbLine
 10
2124.085757057836
 20
1060.30938800382
 30
0.0
 11
2124.085757057836
 21
1060.074426494115
 31
0.0
  0
LINE
  5
CB0
330
C81
100
AcDbEntity
  8
0
  6
Continuous
 62
     7
370
    15
100
AcDbLine
 10
2119.085757169595
 20
1062.980450950139
 30
0.0
 11
2124.085757057836
 21
1062.980450950139
 31
0.0
  0
LINE
  5
CB1
330
C81
100
AcDbEntity
  8
0
  6
Continuous
 62
     7
370
    15
100
AcDbLine
 10
2119.085757169595
 20
1060.30938800382
 30
0.0
 11
2119.085757169595
 21
1062.980450950139
 31
0.0
  0
LINE
  5
CB2
330
C81
100
AcDbEntity
  8
0
  6
Continuous
 62
     7
370
    15
100
AcDbLine
 10
2124.085757057836
 20
1062.980450950139
 30
0.0
 11
2124.085757057836
 21
1060.30938800382
 31
0.0
  0
LINE
  5
CB3
330
C81
100
AcDbEntity
  8
0
  6
Continuous
 62
     7
370
    15
100
AcDbLine
 10
2124.085757057836
 20
1056.159712634557
 30
0.0
 11
2119.085757169595
 21
1056.159712634557
 31
0.0
  0
LINE
  5
CB4
330
C81
100
AcDbEntity
  8
0
  6
Continuous
 62
     7
370
    15
100
AcDbLine
 10
2119.085757169595
 20
1056.344010196203
 30
0.0
 11
2119.085757169595
 21
1056.159712634557
 31
0.0
  0
LINE
  5
CB5
330
C81
100
AcDbEntity
  8
0
  6
Continuous
 62
     7
370
    15
100
AcDbLine
 10
2124.085757057836
 20
1056.344010196203
 30
0.0
 11
2124.085757057836
 21
1056.159712634557
 31
0.0
  0
LINE
  5
CB6
330
C81
100
AcDbEntity
  8
0
  6
Continuous
 62
     7
370
    15
100
AcDbLine
 10
2119.085757169595
 20
1058.603979907506
 30
0.0
 11
2119.085757169595
 21
1058.220006785863
 31
0.0
  0
LINE
  5
CB7
330
C81
100
AcDbEntity
  8
0
  6
Continuous
 62
     7
370
    15
100
AcDbLine
 10
2124.085757057836
 20
1058.603979907506
 30
0.0
 11
2124.085757057836
 21
1058.220006785863
 31
0.0
  0
LINE
  5
CB8
330
C81
100
AcDbEntity
  8
0
  6
Continuous
 62
     7
370
    15
100
AcDbLine
 10
2119.085757169595
 20
1057.353951297277
 30
0.0
 11
2119.085757169595
 21
1056.970514617437
 31
0.0
  0
LINE
  5
CB9
330
C81
100
AcDbEntity
  8
0
  6
Continuous
 62
     7
370
    15
100
AcDbLine
 10
2124.085757057836
 20
1057.353951297277
 30
0.0
 11
2124.085757057836
 21
1056.970514617437
 31
0.0
  0
LINE
  5
CBA
330
C81
100
AcDbEntity
  8
0
  6
Continuous
 62
     7
370
    15
100
AcDbLine
 10
2124.085757057836
 20
1059.839524589055
 30
0.0
 11
2119.085757169595
 21
1059.839524589055
 31
0.0
  0
LINE
  5
CBB
330
C81
100
AcDbEntity
  8
0
  6
Continuous
 62
     7
370
    15
100
AcDbLine
 10
2119.085757169595
 20
1060.074426494115
 30
0.0
 11
2119.085757169595
 21
1059.839524589055
 31
0.0
  0
LINE
  5
CBC
330
C81
100
AcDbEntity
  8
0
  6
Continuous
 62
     7
370
    15
100
AcDbLine
 10
2124.085757057836
 20
1060.074426494115
 30
0.0
 11
2124.085757057836
 21
1059.839524589055
 31
0.0
  0
LINE
  5
CBD
330
C81
100
AcDbEntity
  8
0
  6
Continuous
 62
     7
370
    15
100
AcDbLine
 10
2119.085757169595
 20
1059.839524589055
 30
0.0
 11
2119.085757169595
 21
1059.4613927226
 31
0.0
  0
LINE
  5
CBE
330
C81
100
AcDbEntity
  8
0
  6
Continuous
 62
     7
370
    15
100
AcDbLine
 10
2124.085757057836
 20
1059.839524589055
 30
0.0
 11
2124.085757057836
 21
1059.4613927226
 31
0.0
  0
LINE
  5
CBF
330
C81
100
AcDbEntity
  8
0
  6
Continuous
 62
     7
370
    15
100
AcDbLine
 10
2124.085757057836
 20
1055.123664699071
 30
0.0
 11
2119.085757169595
 21
1055.123664699071
 31
0.0
  0
LINE
  5
CC0
330
C81
100
AcDbEntity
  8
0
  6
Continuous
 62
     7
370
    15
100
AcDbLine
 10
2124.085757057836
 20
1055.546380839818
 30
0.0
 11
2119.085757169595
 21
1055.546380839818
 31
0.0
  0
LINE
  5
CC1
330
C81
100
AcDbEntity
  8
0
  6
Continuous
 62
     7
370
    15
100
AcDbLine
 10
2119.085757169595
 20
1055.546380839818
 30
0.0
 11
2119.085757169595
 21
1055.123664699071
 31
0.0
  0
LINE
  5
CC2
330
C81
100
AcDbEntity
  8
0
  6
Continuous
 62
     7
370
    15
100
AcDbLine
 10
2124.085757057836
 20
1055.546380839818
 30
0.0
 11
2124.085757057836
 21
1055.123664699071
 31
0.0
  0
LINE
  5
CC3
330
C81
100
AcDbEntity
  8
0
  6
Continuous
 62
     7
370
    15
100
AcDbLine
 10
2124.085757057836
 20
1055.784859023565
 30
0.0
 11
2119.085757169595
 21
1055.784859023565
 31
0.0
  0
LINE
  5
CC4
330
C81
100
AcDbEntity
  8
0
  6
Continuous
 62
     7
370
    15
100
AcDbLine
 10
2119.085757169595
 20
1056.159712634557
 30
0.0
 11
2119.085757169595
 21
1055.784859023565
 31
0.0
  0
LINE
  5
CC5
330
C81
100
AcDbEntity
  8
0
  6
Continuous
 62
     7
370
    15
100
AcDbLine
 10
2124.085757057836
 20
1056.159712634557
 30
0.0
 11
2124.085757057836
 21
1055.784859023565
 31
0.0
  0
LINE
  5
CC6
330
C81
100
AcDbEntity
  8
0
  6
Continuous
 62
     7
370
    15
100
AcDbLine
 10
2119.085757169595
 20
1055.784859023565
 30
0.0
 11
2119.085757169595
 21
1055.546380839818
 31
0.0
  0
LINE
  5
CC7
330
C81
100
AcDbEntity
  8
0
  6
Continuous
 62
     7
370
    15
100
AcDbLine
 10
2124.085757057836
 20
1055.784859023565
 30
0.0
 11
2124.085757057836
 21
1055.546380839818
 31
0.0
  0
LINE
  5
CC8
330
C81
100
AcDbEntity
  8
0
  6
Continuous
 62
     7
370
    15
100
AcDbLine
 10
2124.085757057836
 20
1054.939307532781
 30
0.0
 11
2119.085757169595
 21
1054.939307532781
 31
0.0
  0
LINE
  5
CC9
330
C81
100
AcDbEntity
  8
0
  6
Continuous
 62
     7
370
    15
100
AcDbLine
 10
2119.085757169595
 20
1055.123664699071
 30
0.0
 11
2119.085757169595
 21
1054.939307532781
 31
0.0
  0
LINE
  5
CCA
330
C81
100
AcDbEntity
  8
0
  6
Continuous
 62
     7
370
    15
100
AcDbLine
 10
2124.085757057836
 20
1055.123664699071
 30
0.0
 11
2124.085757057836
 21
1054.939307532781
 31
0.0
  0
LINE
  5
CCB
330
C81
100
AcDbEntity
  8
0
  6
Continuous
 62
     7
370
    15
100
AcDbLine
 10
2124.085757057836
 20
1053.903259597295
 30
0.0
 11
2119.085757169595
 21
1053.903259597295
 31
0.0
  0
LINE
  5
CCC
330
C81
100
AcDbEntity
  8
0
  6
Continuous
 62
     7
370
    15
100
AcDbLine
 10
2124.085757057836
 20
1054.326035342687
 30
0.0
 11
2119.085757169595
 21
1054.326035342687
 31
0.0
  0
LINE
  5
CCD
330
C81
100
AcDbEntity
  8
0
  6
Continuous
 62
     7
370
    15
100
AcDbLine
 10
2119.085757169595
 20
1054.326035342687
 30
0.0
 11
2119.085757169595
 21
1053.903259597295
 31
0.0
  0
LINE
  5
CCE
330
C81
100
AcDbEntity
  8
0
  6
Continuous
 62
     7
370
    15
100
AcDbLine
 10
2124.085757057836
 20
1054.326035342687
 30
0.0
 11
2124.085757057836
 21
1053.903259597295
 31
0.0
  0
LINE
  5
CCF
330
C81
100
AcDbEntity
  8
0
  6
Continuous
 62
     7
370
    15
100
AcDbLine
 10
2124.085757057836
 20
1054.564453921789
 30
0.0
 11
2119.085757169595
 21
1054.564453921789
 31
0.0
  0
LINE
  5
CD0
330
C81
100
AcDbEntity
  8
0
  6
Continuous
 62
     7
370
    15
100
AcDbLine
 10
2119.085757169595
 20
1054.939307532781
 30
0.0
 11
2119.085757169595
 21
1054.564453921789
 31
0.0
  0
LINE
  5
CD1
330
C81
100
AcDbEntity
  8
0
  6
Continuous
 62
     7
370
    15
100
AcDbLine
 10
2124.085757057836
 20
1054.939307532781
 30
0.0
 11
2124.085757057836
 21
1054.564453921789
 31
0.0
  0
LINE
  5
CD2
330
C81
100
AcDbEntity
  8
0
  6
Continuous
 62
     7
370
    15
100
AcDbLine
 10
2119.085757169595
 20
1054.564453921789
 30
0.0
 11
2119.085757169595
 21
1054.326035342687
 31
0.0
  0
LINE
  5
CD3
330
C81
100
AcDbEntity
  8
0
  6
Continuous
 62
     7
370
    15
100
AcDbLine
 10
2124.085757057836
 20
1054.564453921789
 30
0.0
 11
2124.085757057836
 21
1054.326035342687
 31
0.0
  0
LINE
  5
CD4
330
C81
100
AcDbEntity
  8
0
  6
Continuous
 62
     7
370
    15
100
AcDbLine
 10
2119.085757169595
 20
1063.145734630102
 30
0.0
 11
2119.085757169595
 21
1062.980450950139
 31
0.0
  0
LINE
  5
CD5
330
C81
100
AcDbEntity
  8
0
  6
Continuous
 62
     7
370
    15
100
AcDbLine
 10
2124.085757057836
 20
1063.145734630102
 30
0.0
 11
2124.085757057836
 21
1062.980450950139
 31
0.0
  0
LINE
  5
CD6
330
C81
100
AcDbEntity
  8
0
  6
Continuous
 62
     7
370
    15
100
AcDbLine
 10
2124.085757057836
 20
1053.71896203565
 30
0.0
 11
2119.085757169595
 21
1053.71896203565
 31
0.0
  0
LINE
  5
CD7
330
C81
100
AcDbEntity
  8
0
  6
Continuous
 62
     7
370
    15
100
AcDbLine
 10
2119.085757169595
 20
1053.903259597295
 30
0.0
 11
2119.085757169595
 21
1053.71896203565
 31
0.0
  0
LINE
  5
CD8
330
C81
100
AcDbEntity
  8
0
  6
Continuous
 62
     7
370
    15
100
AcDbLine
 10
2124.085757057836
 20
1053.903259597295
 30
0.0
 11
2124.085757057836
 21
1053.71896203565
 31
0.0
  0
LINE
  5
CD9
330
C81
100
AcDbEntity
  8
0
  6
Continuous
 62
     7
370
    15
100
AcDbLine
 10
2124.085757057836
 20
1052.682914100164
 30
0.0
 11
2119.085757169595
 21
1052.682914100164
 31
0.0
  0
LINE
  5
CDA
330
C81
100
AcDbEntity
  8
0
  6
Continuous
 62
     7
370
    15
100
AcDbLine
 10
2124.085757057836
 20
1053.105689845556
 30
0.0
 11
2119.085757169595
 21
1053.105689845556
 31
0.0
  0
LINE
  5
CDB
330
C81
100
AcDbEntity
  8
0
  6
Continuous
 62
     7
370
    15
100
AcDbLine
 10
2119.085757169595
 20
1053.105689845556
 30
0.0
 11
2119.085757169595
 21
1052.682914100164
 31
0.0
  0
LINE
  5
CDC
330
C81
100
AcDbEntity
  8
0
  6
Continuous
 62
     7
370
    15
100
AcDbLine
 10
2124.085757057836
 20
1053.105689845556
 30
0.0
 11
2124.085757057836
 21
1052.682914100164
 31
0.0
  0
LINE
  5
CDD
330
C81
100
AcDbEntity
  8
0
  6
Continuous
 62
     7
370
    15
100
AcDbLine
 10
2124.085757057836
 20
1053.344108424657
 30
0.0
 11
2119.085757169595
 21
1053.344108424657
 31
0.0
  0
LINE
  5
CDE
330
C81
100
AcDbEntity
  8
0
  6
Continuous
 62
     7
370
    15
100
AcDbLine
 10
2119.085757169595
 20
1053.71896203565
 30
0.0
 11
2119.085757169595
 21
1053.344108424657
 31
0.0
  0
LINE
  5
CDF
330
C81
100
AcDbEntity
  8
0
  6
Continuous
 62
     7
370
    15
100
AcDbLine
 10
2124.085757057836
 20
1053.71896203565
 30
0.0
 11
2124.085757057836
 21
1053.344108424657
 31
0.0
  0
LINE
  5
CE0
330
C81
100
AcDbEntity
  8
0
  6
Continuous
 62
     7
370
    15
100
AcDbLine
 10
2119.085757169595
 20
1053.344108424657
 30
0.0
 11
2119.085757169595
 21
1053.105689845556
 31
0.0
  0
LINE
  5
CE1
330
C81
100
AcDbEntity
  8
0
  6
Continuous
 62
     7
370
    15
100
AcDbLine
 10
2124.085757057836
 20
1053.344108424657
 30
0.0
 11
2124.085757057836
 21
1053.105689845556
 31
0.0
  0
LINE
  5
CE2
330
C81
100
AcDbEntity
  8
0
  6
Continuous
 62
     7
370
    15
100
AcDbLine
 10
2124.085757057836
 20
1052.498616538518
 30
0.0
 11
2119.085757169595
 21
1052.498616538518
 31
0.0
  0
LINE
  5
CE3
330
C81
100
AcDbEntity
  8
0
  6
Continuous
 62
     7
370
    15
100
AcDbLine
 10
2119.085757169595
 20
1052.682914100164
 30
0.0
 11
2119.085757169595
 21
1052.498616538518
 31
0.0
  0
LINE
  5
CE4
330
C81
100
AcDbEntity
  8
0
  6
Continuous
 62
     7
370
    15
100
AcDbLine
 10
2124.085757057836
 20
1052.682914100164
 30
0.0
 11
2124.085757057836
 21
1052.498616538518
 31
0.0
  0
LINE
  5
CE5
330
C81
100
AcDbEntity
  8
0
  6
Continuous
 62
     7
370
    15
100
AcDbLine
 10
2119.085757169595
 20
1051.646866164678
 30
0.0
 11
2124.085757057836
 21
1051.646866164678
 31
0.0
  0
LINE
  5
CE6
330
C81
100
AcDbEntity
  8
0
  6
Continuous
 62
     7
370
    15
100
AcDbLine
 10
2124.085757057836
 20
1051.88528474378
 30
0.0
 11
2119.085757169595
 21
1051.88528474378
 31
0.0
  0
LINE
  5
CE7
330
C81
100
AcDbEntity
  8
0
  6
Continuous
 62
     7
370
    15
100
AcDbLine
 10
2119.085757169595
 20
1051.88528474378
 30
0.0
 11
2119.085757169595
 21
1051.646866164678
 31
0.0
  0
LINE
  5
CE8
330
C81
100
AcDbEntity
  8
0
  6
Continuous
 62
     7
370
    15
100
AcDbLine
 10
2124.085757057836
 20
1051.88528474378
 30
0.0
 11
2124.085757057836
 21
1051.646866164678
 31
0.0
  0
LINE
  5
CE9
330
C81
100
AcDbEntity
  8
0
  6
Continuous
 62
     7
370
    15
100
AcDbLine
 10
2124.085757057836
 20
1043.596543632024
 30
0.0
 11
2119.085757169595
 21
1043.596543632024
 31
0.0
  0
LINE
  5
CEA
330
C81
100
AcDbEntity
  8
0
  6
Continuous
 62
     7
370
    15
100
AcDbLine
 10
2119.085757169595
 20
1043.596543632024
 30
0.0
 11
2119.085757169595
 21
1051.646866164678
 31
0.0
  0
LINE
  5
CEB
330
C81
100
AcDbEntity
  8
0
  6
Continuous
 62
     7
370
    15
100
AcDbLine
 10
2124.085757057836
 20
1051.646866164678
 30
0.0
 11
2124.085757057836
 21
1043.596543632024
 31
0.0
  0
LINE
  5
CEC
330
C81
100
AcDbEntity
  8
0
  6
Continuous
 62
     7
370
    15
100
AcDbLine
 10
2124.085757057836
 20
1052.123703322881
 30
0.0
 11
2119.085757169595
 21
1052.123703322881
 31
0.0
  0
LINE
  5
CED
330
C81
100
AcDbEntity
  8
0
  6
Continuous
 62
     7
370
    15
100
AcDbLine
 10
2119.085757169595
 20
1052.498616538518
 30
0.0
 11
2119.085757169595
 21
1052.123703322881
 31
0.0
  0
LINE
  5
CEE
330
C81
100
AcDbEntity
  8
0
  6
Continuous
 62
     7
370
    15
100
AcDbLine
 10
2124.085757057836
 20
1052.498616538518
 30
0.0
 11
2124.085757057836
 21
1052.123703322881
 31
0.0
  0
LINE
  5
CEF
330
C81
100
AcDbEntity
  8
0
  6
Continuous
 62
     7
370
    15
100
AcDbLine
 10
2119.085757169595
 20
1052.123703322881
 30
0.0
 11
2119.085757169595
 21
1051.88528474378
 31
0.0
  0
LINE
  5
CF0
330
C81
100
AcDbEntity
  8
0
  6
Continuous
 62
     7
370
    15
100
AcDbLine
 10
2124.085757057836
 20
1052.123703322881
 30
0.0
 11
2124.085757057836
 21
1051.88528474378
 31
0.0
  0
LINE
  5
CF1
330
C81
100
AcDbEntity
  8
0
  6
Continuous
 62
     7
370
    15
100
AcDbLine
 10
2119.085757169595
 20
1067.499615512365
 30
0.0
 11
2124.085757057836
 21
1067.499615512365
 31
0.0
  0
LINE
  5
CF2
330
C81
100
AcDbEntity
  8
0
  6
Continuous
 62
     7
370
    15
100
AcDbLine
 10
2119.085757169595
 20
1067.729629836553
 30
0.0
 11
2124.085757057836
 21
1067.729629836553
 31
0.0
  0
LINE
  5
CF3
330
C81
100
AcDbEntity
  8
0
  6
Continuous
 62
     7
370
    15
100
AcDbLine
 10
2119.085757169595
 20
1067.729629836553
 30
0.0
 11
2119.085757169595
 21
1067.499615512365
 31
0.0
  0
LINE
  5
CF4
330
C81
100
AcDbEntity
  8
0
  6
Continuous
 62
     7
370
    15
100
AcDbLine
 10
2124.085757057836
 20
1067.729629836553
 30
0.0
 11
2124.085757057836
 21
1067.499615512365
 31
0.0
  0
LINE
  5
CF5
330
C81
100
AcDbEntity
  8
0
  6
Continuous
 62
     7
370
    15
100
AcDbLine
 10
2124.085757057836
 20
1070.927299819463
 30
0.0
 11
2119.085757169595
 21
1070.927299819463
 31
0.0
  0
LINE
  5
CF6
330
C81
100
AcDbEntity
  8
0
  6
Continuous
 62
     7
370
    15
100
AcDbLine
 10
2119.085757169595
 20
1067.729629836553
 30
0.0
 11
2119.085757169595
 21
1070.927299819463
 31
0.0
  0
LINE
  5
CF7
330
C81
100
AcDbEntity
  8
0
  6
Continuous
 62
     7
370
    15
100
AcDbLine
 10
2124.085757057836
 20
1070.927299819463
 30
0.0
 11
2124.085757057836
 21
1067.729629836553
 31
0.0
  0
LINE
  5
CF8
330
C81
100
AcDbEntity
  8
0
  6
Continuous
 62
     7
370
    15
100
AcDbLine
 10
2119.085757169595
 20
1067.366935573095
 30
0.0
 11
2124.085757057836
 21
1067.366935573095
 31
0.0
  0
LINE
  5
CF9
330
C81
100
AcDbEntity
  8
0
  6
Continuous
 62
     7
370
    15
100
AcDbLine
 10
2119.085757169595
 20
1067.499615512365
 30
0.0
 11
2119.085757169595
 21
1067.366935573095
 31
0.0
  0
LINE
  5
CFA
330
C81
100
AcDbEntity
  8
0
  6
Continuous
 62
     7
370
    15
100
AcDbLine
 10
2124.085757057836
 20
1067.499615512365
 30
0.0
 11
2124.085757057836
 21
1067.366935573095
 31
0.0
  0
LINE
  5
CFB
330
C81
100
AcDbEntity
  8
0
  6
Continuous
 62
     7
370
    15
100
AcDbLine
 10
2123.585757208711
 20
1063.145734630102
 30
0.0
 11
2123.585757208711
 21
1064.294256530279
 31
0.0
  0
LINE
  5
CFC
330
C81
100
AcDbEntity
  8
0
  6
Continuous
 62
     7
370
    15
100
AcDbLine
 10
2119.085757169595
 20
1064.294256530279
 30
0.0
 11
2123.585757208711
 21
1064.294256530279
 31
0.0
  0
LINE
  5
CFD
330
C81
100
AcDbEntity
  8
0
  6
Continuous
 62
     7
370
    15
100
AcDbLine
 10
2119.085757169595
 20
1066.017963252538
 30
0.0
 11
2123.585757208711
 21
1066.017963252538
 31
0.0
  0
LINE
  5
CFE
330
C81
100
AcDbEntity
  8
0
  6
Continuous
 62
     7
370
    15
100
AcDbLine
 10
2123.585757208711
 20
1066.017963252538
 30
0.0
 11
2123.585757208711
 21
1067.362226806157
 31
0.0
  0
LINE
  5
CFF
330
C81
100
AcDbEntity
  8
0
  6
Continuous
 62
     7
370
    15
100
AcDbLine
 10
2119.085757169595
 20
1066.017963252538
 30
0.0
 11
2119.085757169595
 21
1064.294256530279
 31
0.0
  0
LINE
  5
D00
330
C81
100
AcDbEntity
  8
0
  6
Continuous
 62
     7
370
    15
100
AcDbLine
 10
2124.085757057836
 20
1067.362226806157
 30
0.0
 11
2124.085757057836
 21
1063.145734630102
 31
0.0
  0
LINE
  5
D01
330
C81
100
AcDbEntity
  8
0
  6
Continuous
 62
     7
370
    15
100
AcDbLine
 10
2119.085757169595
 20
1063.635804019445
 30
0.0
 11
2123.585757208711
 21
1063.635804019445
 31
0.0
  0
LINE
  5
D02
330
C81
100
AcDbEntity
  8
0
  6
Continuous
 62
     7
370
    15
100
AcDbLine
 10
2119.085757169595
 20
1064.294256530279
 30
0.0
 11
2119.085757169595
 21
1063.635804019445
 31
0.0
  0
LINE
  5
D03
330
C81
100
AcDbEntity
  8
0
  6
Continuous
 62
     7
370
    15
100
AcDbLine
 10
2124.085757057836
 20
1071.547068915838
 30
0.0
 11
2119.085757169595
 21
1071.547068915838
 31
0.0
  0
LINE
  5
D04
330
C81
100
AcDbEntity
  8
0
  6
Continuous
 62
     7
370
    15
100
AcDbLine
 10
2119.085757169595
 20
1070.927299819463
 30
0.0
 11
2119.085757169595
 21
1071.547068915838
 31
0.0
  0
LINE
  5
D05
330
C81
100
AcDbEntity
  8
0
  6
Continuous
 62
     7
370
    15
100
AcDbLine
 10
2124.085757057836
 20
1071.547068915838
 30
0.0
 11
2124.085757057836
 21
1070.927299819463
 31
0.0
  0
LINE
  5
D06
330
C81
100
AcDbEntity
  8
0
  6
Continuous
 62
     7
370
    15
100
AcDbLine
 10
2124.085757057836
 20
1043.29306658315
 30
0.0
 11
2123.385757082796
 21
1043.29306658315
 31
0.0
  0
LINE
  5
D07
330
C81
100
AcDbEntity
  8
0
  6
Continuous
 62
     7
370
    15
100
AcDbLine
 10
2123.385757082796
 20
1043.29306658315
 30
0.0
 11
2123.385757082796
 21
1042.543061337942
 31
0.0
  0
LINE
  5
D08
330
C81
100
AcDbEntity
  8
0
  6
Continuous
 62
     7
370
    15
100
AcDbLine
 10
2124.085757057836
 20
1042.543061337942
 30
0.0
 11
2124.085757057836
 21
1043.29306658315
 31
0.0
  0
LINE
  5
D09
330
C81
100
AcDbEntity
  8
0
  6
Continuous
 62
     7
370
    15
100
AcDbLine
 10
2119.085757169595
 20
1063.144006095403
 30
0.0
 11
2119.085757169595
 21
1063.635804019445
 31
0.0
  0
LINE
  5
D0A
330
C81
100
AcDbEntity
  8
0
  6
Continuous
 62
     7
370
    15
100
AcDbLine
 10
2119.085757169595
 20
1067.366935573095
 30
0.0
 11
2119.085757169595
 21
1067.362226806157
 31
0.0
  0
LINE
  5
D0B
330
C81
100
AcDbEntity
  8
0
  6
Continuous
 62
     7
370
    15
100
AcDbLine
 10
2124.085757057836
 20
1067.366935573095
 30
0.0
 11
2124.085757057836
 21
1067.362226806157
 31
0.0
  0
LINE
  5
D0C
330
C81
100
AcDbEntity
  8
0
  6
Continuous
 62
     7
370
    15
100
AcDbLine
 10
2119.085757169595
 20
1066.576220355504
 30
0.0
 11
2123.585757208711
 21
1066.576220355504
 31
0.0
  0
LINE
  5
D0D
330
C81
100
AcDbEntity
  8
0
  6
Continuous
 62
     7
370
    15
100
AcDbLine
 10
2119.085757169595
 20
1066.576220355504
 30
0.0
 11
2119.085757169595
 21
1066.017963252538
 31
0.0
  0
LINE
  5
D0E
330
C81
100
AcDbEntity
  8
0
  6
Continuous
 62
     7
370
    15
100
AcDbLine
 10
2119.085757169595
 20
1067.320026717657
 30
0.0
 11
2123.585757208711
 21
1067.320026717657
 31
0.0
  0
LINE
  5
D0F
330
C81
100
AcDbEntity
  8
0
  6
Continuous
 62
     7
370
    15
100
AcDbLine
 10
2119.085757169595
 20
1066.576220355504
 30
0.0
 11
2119.085757169595
 21
1067.320026717657
 31
0.0
  0
LINE
  5
D10
330
C81
100
AcDbEntity
  8
0
  6
Continuous
 62
     7
370
    15
100
AcDbLine
 10
2124.085757057836
 20
1043.488301597112
 30
0.0
 11
2119.085757169595
 21
1043.488301597112
 31
0.0
  0
LINE
  5
D11
330
C81
100
AcDbEntity
  8
0
  6
Continuous
 62
     7
370
    15
100
AcDbLine
 10
2119.085757169595
 20
1043.488301597112
 30
0.0
 11
2119.085757169595
 21
1043.596543632024
 31
0.0
  0
LINE
  5
D12
330
C81
100
AcDbEntity
  8
0
  6
Continuous
 62
     7
370
    15
100
AcDbLine
 10
2124.085757057836
 20
1043.596543632024
 30
0.0
 11
2124.085757057836
 21
1043.488301597112
 31
0.0
  0
LINE
  5
D13
330
C81
100
AcDbEntity
  8
0
  6
Continuous
 62
     7
370
    15
100
AcDbLine
 10
2119.085757169595
 20
1042.543061337942
 30
0.0
 11
2119.085757169595
 21
1043.488301597112
 31
0.0
  0
LINE
  5
D14
330
C81
100
AcDbEntity
  8
0
  6
Continuous
 62
     7
370
    15
100
AcDbLine
 10
2124.085757057836
 20
1043.488301597112
 30
0.0
 11
2124.085757057836
 21
1043.29306658315
 31
0.0
  0
LINE
  5
D15
330
C81
100
AcDbEntity
  8
0
  6
Continuous
 62
     7
370
    15
100
AcDbLine
 10
2119.085757169595
 20
1067.362226806157
 30
0.0
 11
2119.085757169595
 21
1067.320026717657
 31
0.0
  0
ENDBLK
  5
C83
330
C81
100
AcDbEntity
  8
0
100
AcDbBlockEnd
  0
BLOCK
  5
D18
330
D17
100
AcDbEntity
  8
0
100
AcDbBlockBegin
  2
3
 70
     0
 10
0.0
 20
0.0
 30
0.0
  3
3
  1

  0
LINE
  5
D1A
330
D17
100
AcDbEntity
  8
0
  6
Continuous
 62
     7
370
    15
100
AcDbLine
 10
2157.938180839952
 20
1022.018060332391
 30
0.0
 11
2157.938180839952
 21
1027.018060220632
 31
0.0
  0
LINE
  5
D1B
330
D17
100
AcDbEntity
  8
0
  6
Continuous
 62
     7
370
    15
100
AcDbLine
 10
2168.433009064135
 20
1027.018060220632
 30
0.0
 11
2168.433009064135
 21
1022.018060332391
 31
0.0
  0
LINE
  5
D1C
330
D17
100
AcDbEntity
  8
0
  6
Continuous
 62
     7
370
    15
100
AcDbLine
 10
2187.655983841356
 20
1022.018060332391
 30
0.0
 11
2187.655983841356
 21
1027.018060220632
 31
0.0
  0
LINE
  5
D1D
330
D17
100
AcDbEntity
  8
0
  6
Continuous
 62
     7
370
    15
100
AcDbLine
 10
2138.71532527202
 20
1027.018060220632
 30
0.0
 11
2138.71532527202
 21
1022.018060332391
 31
0.0
  0
LINE
  5
D1E
330
D17
100
AcDbEntity
  8
0
  6
Continuous
 62
     7
370
    15
100
AcDbLine
 10
2161.00114432567
 20
1022.018060332391
 30
0.0
 11
2161.00114432567
 21
1027.018060220632
 31
0.0
  0
LINE
  5
D1F
330
D17
100
AcDbEntity
  8
0
  6
Continuous
 62
     7
370
    15
100
AcDbLine
 10
2165.370164787706
 20
1027.018060220632
 30
0.0
 11
2165.370164787706
 21
1022.018060332391
 31
0.0
  0
LINE
  5
D20
330
D17
100
AcDbEntity
  8
0
  6
Continuous
 62
     7
370
    15
100
AcDbLine
 10
2137.406168854174
 20
1027.018060220632
 30
0.0
 11
2137.406168854174
 21
1022.018060332391
 31
0.0
  0
LINE
  5
D21
330
D17
100
AcDbEntity
  8
0
  6
Continuous
 62
     7
370
    15
100
AcDbLine
 10
2188.965140259203
 20
1022.018060332391
 30
0.0
 11
2188.965140259203
 21
1027.018060220632
 31
0.0
  0
LINE
  5
D22
330
D17
100
AcDbEntity
  8
0
  6
Continuous
 62
     7
370
    15
100
AcDbLine
 10
2137.189088737902
 20
1027.018060220632
 30
0.0
 11
2137.189088737902
 21
1022.018060332391
 31
0.0
  0
LINE
  5
D23
330
D17
100
AcDbEntity
  8
0
  6
Continuous
 62
     7
370
    15
100
AcDbLine
 10
2189.182101166185
 20
1022.018060332391
 30
0.0
 11
2189.182101166185
 21
1027.018060220632
 31
0.0
  0
LINE
  5
D24
330
D17
100
AcDbEntity
  8
0
  6
Continuous
 62
     7
370
    15
100
AcDbLine
 10
2137.185631668505
 20
1027.018060220632
 30
0.0
 11
2137.185631668505
 21
1022.018060332391
 31
0.0
  0
LINE
  5
D25
330
D17
100
AcDbEntity
  8
0
  6
Continuous
 62
     7
370
    15
100
AcDbLine
 10
2189.185677444872
 20
1022.018060332391
 30
0.0
 11
2189.185677444872
 21
1027.018060220632
 31
0.0
  0
LINE
  5
D26
330
D17
100
AcDbEntity
  8
0
  6
Continuous
 62
     7
370
    15
100
AcDbLine
 10
2174.823342239794
 20
1027.018060220632
 30
0.0
 11
2174.823342239794
 21
1022.018060332391
 31
0.0
  0
LINE
  5
D27
330
D17
100
AcDbEntity
  8
0
  6
Continuous
 62
     7
370
    15
100
AcDbLine
 10
2174.823342239794
 20
1022.018060332391
 30
0.0
 11
2174.353538429674
 21
1022.018060332391
 31
0.0
  0
LINE
  5
D28
330
D17
100
AcDbEntity
  8
0
  6
Continuous
 62
     7
370
    15
100
AcDbLine
 10
2174.353538429674
 20
1027.018060220632
 30
0.0
 11
2174.353538429674
 21
1022.018060332391
 31
0.0
  0
LINE
  5
D29
330
D17
100
AcDbEntity
  8
0
  6
Continuous
 62
     7
370
    15
100
AcDbLine
 10
2174.353538429674
 20
1027.018060220632
 30
0.0
 11
2174.823342239794
 21
1027.018060220632
 31
0.0
  0
LINE
  5
D2A
330
D17
100
AcDbEntity
  8
0
  6
Continuous
 62
     7
370
    15
100
AcDbLine
 10
2175.821481621202
 20
1026.418060308549
 30
0.0
 11
2175.821481621202
 21
1022.768060222495
 31
0.0
  0
LINE
  5
D2B
330
D17
100
AcDbEntity
  8
0
  6
Continuous
 62
     7
370
    15
100
AcDbLine
 10
2175.821481621202
 20
1022.768060222495
 30
0.0
 11
2178.805409347948
 21
1022.768060222495
 31
0.0
  0
LINE
  5
D2C
330
D17
100
AcDbEntity
  8
0
  6
Continuous
 62
     7
370
    15
100
AcDbLine
 10
2178.805409347948
 20
1022.768060222495
 30
0.0
 11
2178.805409347948
 21
1026.418060308549
 31
0.0
  0
LINE
  5
D2D
330
D17
100
AcDbEntity
  8
0
  6
Continuous
 62
     7
370
    15
100
AcDbLine
 10
2175.821481621202
 20
1026.418060308549
 30
0.0
 11
2178.805409347948
 21
1026.418060308549
 31
0.0
  0
SPLINE
  5
D2E
330
D17
100
AcDbEntity
  8
0
  6
Continuous
 62
     7
370
    15
100
AcDbSpline
210
0.0
220
0.0
230
1.0
 70
     8
 71
     3
 72
     9
 73
     5
 74
     0
 42
0.0000000001
 43
0.0000000001
 40
0.0
 40
0.0
 40
0.0
 40
0.0
 40
0.4995030328531485
 40
1.0
 40
1.0
 40
1.0
 40
1.0
 10
2180.53513613933
 20
1026.319629989791
 30
0.0
 10
2180.62676361571
 20
1026.376818116869
 30
0.0
 10
2180.810200893071
 20
1026.491308166611
 30
0.0
 10
2181.025706746721
 20
1026.509137062957
 30
0.0
 10
2181.133566772875
 20
1026.518060371507
 30
0.0
  0
ARC
  5
D2F
330
D17
100
AcDbEntity
  8
0
  6
Continuous
 62
     7
370
    15
100
AcDbCircle
 10
2181.877650560274
 20
1024.518060276512
 30
0.0
 40
2.24678193749773
100
AcDbArc
 50
126.6934012020011
 51
233.3065987980028
  0
SPLINE
  5
D30
330
D17
100
AcDbEntity
  8
0
  6
Continuous
 62
     7
370
    15
100
AcDbSpline
210
0.0
220
0.0
230
1.0
 70
     8
 71
     3
 72
     9
 73
     5
 74
     0
 42
0.0000000001
 43
0.0000000001
 40
0.0
 40
0.0
 40
0.0
 40
0.0
 40
0.4989535511004386
 40
1.0
 40
1.0
 40
1.0
 40
1.0
 10
2181.133566772875
 20
1022.518060181517
 30
0.0
 10
2181.026046105346
 20
1022.52693606298
 30
0.0
 10
2180.810553766847
 20
1022.54472505645
 30
0.0
 10
2180.627070019413
 20
1022.659155563852
 30
0.0
 10
2180.53513613933
 20
1022.716490563232
 30
0.0
  0
LINE
  5
D31
330
D17
100
AcDbEntity
  8
0
  6
Continuous
 62
     7
370
    15
100
AcDbLine
 10
2181.133566772875
 20
1022.518060181517
 30
0.0
 11
2182.621656334337
 21
1022.518060181517
 31
0.0
  0
SPLINE
  5
D32
330
D17
100
AcDbEntity
  8
0
  6
Continuous
 62
     7
370
    15
100
AcDbSpline
210
0.0
220
0.0
230
1.0
 70
     8
 71
     3
 72
     9
 73
     5
 74
     0
 42
0.0000000001
 43
0.0000000001
 40
0.0
 40
0.0
 40
0.0
 40
0.0
 40
0.4995858674642826
 40
1.0
 40
1.0
 40
1.0
 40
1.0
 10
2183.220206177172
 20
1022.716490563232
 30
0.0
 10
2183.128538170453
 20
1022.659302507
 30
0.0
 10
2182.945050180323
 20
1022.544831582269
 30
0.0
 10
2182.729513790087
 20
1022.526988907922
 30
0.0
 10
2182.621656334337
 20
1022.518060181517
 30
0.0
  0
ARC
  5
D33
330
D17
100
AcDbEntity
  8
0
  6
Continuous
 62
     7
370
    15
100
AcDbCircle
 10
2181.877650560274
 20
1024.518060276512
 30
0.0
 40
2.246781937497595
100
AcDbArc
 50
306.6934012019972
 51
53.30659879800279
  0
SPLINE
  5
D34
330
D17
100
AcDbEntity
  8
0
  6
Continuous
 62
     7
370
    15
100
AcDbSpline
210
0.0
220
0.0
230
1.0
 70
     8
 71
     3
 72
     9
 73
     5
 74
     0
 42
0.0000000001
 43
0.0000000001
 40
0.0
 40
0.0
 40
0.0
 40
0.0
 40
0.4990458699975717
 40
1.0
 40
1.0
 40
1.0
 40
1.0
 10
2182.621656334337
 20
1026.518060371507
 30
0.0
 10
2182.729218461844
 20
1026.509190493629
 30
0.0
 10
2182.944754014734
 20
1026.491416821085
 30
0.0
 10
2183.128272056313
 20
1026.376965068124
 30
0.0
 10
2183.220206177172
 20
1026.319629989791
 30
0.0
  0
LINE
  5
D35
330
D17
100
AcDbEntity
  8
0
  6
Continuous
 62
     7
370
    15
100
AcDbLine
 10
2182.621656334337
 20
1026.518060371507
 30
0.0
 11
2181.133566772875
 21
1026.518060371507
 31
0.0
  0
LINE
  5
D36
330
D17
100
AcDbEntity
  8
0
  6
Continuous
 62
     7
370
    15
100
AcDbLine
 10
2186.350403702196
 20
1027.018060220632
 30
0.0
 11
2186.350403702196
 21
1022.018060332391
 31
0.0
  0
LINE
  5
D37
330
D17
100
AcDbEntity
  8
0
  6
Continuous
 62
     7
370
    15
100
AcDbLine
 10
2174.823342239794
 20
1027.018060220632
 30
0.0
 11
2186.350403702196
 21
1027.018060220632
 31
0.0
  0
LINE
  5
D38
330
D17
100
AcDbEntity
  8
0
  6
Continuous
 62
     7
370
    15
100
AcDbLine
 10
2186.350403702196
 20
1022.018060332391
 30
0.0
 11
2174.823342239794
 21
1022.018060332391
 31
0.0
  0
LINE
  5
D39
330
D17
100
AcDbEntity
  8
0
  6
Continuous
 62
     7
370
    15
100
AcDbLine
 10
2187.089024460253
 20
1027.018060220632
 30
0.0
 11
2187.089024460253
 21
1022.018060332391
 31
0.0
  0
LINE
  5
D3A
330
D17
100
AcDbEntity
  8
0
  6
Continuous
 62
     7
370
    15
100
AcDbLine
 10
2186.350403702196
 20
1027.018060220632
 30
0.0
 11
2187.089024460253
 21
1027.018060220632
 31
0.0
  0
LINE
  5
D3B
330
D17
100
AcDbEntity
  8
0
  6
Continuous
 62
     7
370
    15
100
AcDbLine
 10
2187.089024460253
 20
1022.018060332391
 30
0.0
 11
2186.350403702196
 21
1022.018060332391
 31
0.0
  0
LINE
  5
D3C
330
D17
100
AcDbEntity
  8
0
  6
Continuous
 62
     7
370
    15
100
AcDbLine
 10
2140.020786201891
 20
1027.018060220632
 30
0.0
 11
2140.020786201891
 21
1022.018060332391
 31
0.0
  0
LINE
  5
D3D
330
D17
100
AcDbEntity
  8
0
  6
Continuous
 62
     7
370
    15
100
AcDbLine
 10
2139.282284653124
 20
1027.018060220632
 30
0.0
 11
2139.282284653124
 21
1022.018060332391
 31
0.0
  0
LINE
  5
D3E
330
D17
100
AcDbEntity
  8
0
  6
Continuous
 62
     7
370
    15
100
AcDbLine
 10
2139.282284653124
 20
1027.018060220632
 30
0.0
 11
2140.020786201891
 21
1027.018060220632
 31
0.0
  0
LINE
  5
D3F
330
D17
100
AcDbEntity
  8
0
  6
Continuous
 62
     7
370
    15
100
AcDbLine
 10
2140.020786201891
 20
1022.018060332391
 30
0.0
 11
2139.282284653124
 21
1022.018060332391
 31
0.0
  0
LINE
  5
D40
330
D17
100
AcDbEntity
  8
0
  6
Continuous
 62
     7
370
    15
100
AcDbLine
 10
2147.565780556139
 20
1022.768060222495
 30
0.0
 11
2147.565780556139
 21
1026.418060308549
 31
0.0
  0
LINE
  5
D41
330
D17
100
AcDbEntity
  8
0
  6
Continuous
 62
     7
370
    15
100
AcDbLine
 10
2150.549827492174
 20
1022.768060222495
 30
0.0
 11
2147.565780556139
 21
1022.768060222495
 31
0.0
  0
LINE
  5
D42
330
D17
100
AcDbEntity
  8
0
  6
Continuous
 62
     7
370
    15
100
AcDbLine
 10
2150.549827492174
 20
1026.418060308549
 30
0.0
 11
2150.549827492174
 21
1022.768060222495
 31
0.0
  0
LINE
  5
D43
330
D17
100
AcDbEntity
  8
0
  6
Continuous
 62
     7
370
    15
100
AcDbLine
 10
2150.549827492174
 20
1026.418060308549
 30
0.0
 11
2147.565780556139
 21
1026.418060308549
 31
0.0
  0
SPLINE
  5
D44
330
D17
100
AcDbEntity
  8
0
  6
Continuous
 62
     7
370
    15
100
AcDbSpline
210
0.0
220
0.0
230
1.0
 70
     8
 71
     3
 72
     9
 73
     5
 74
     0
 42
0.0000000001
 43
0.0000000001
 40
0.0
 40
0.0
 40
0.0
 40
0.0
 40
0.4989535511004386
 40
1.0
 40
1.0
 40
1.0
 40
1.0
 10
2145.237742340502
 20
1026.518060371507
 30
0.0
 10
2145.345263008031
 20
1026.509184490044
 30
0.0
 10
2145.56075534653
 20
1026.491395496573
 30
0.0
 10
2145.744239093964
 20
1026.376964989171
 30
0.0
 10
2145.836172974047
 20
1026.319629989791
 30
0.0
  0
LINE
  5
D45
330
D17
100
AcDbEntity
  8
0
  6
Continuous
 62
     7
370
    15
100
AcDbLine
 10
2143.74953356975
 20
1026.518060371507
 30
0.0
 11
2145.237742340502
 21
1026.518060371507
 31
0.0
  0
SPLINE
  5
D46
330
D17
100
AcDbEntity
  8
0
  6
Continuous
 62
     7
370
    15
100
AcDbSpline
210
0.0
220
0.0
230
1.0
 70
     8
 71
     3
 72
     9
 73
     5
 74
     0
 42
0.0000000001
 43
0.0000000001
 40
0.0
 40
0.0
 40
0.0
 40
0.0
 40
0.4996779276412444
 40
1.0
 40
1.0
 40
1.0
 40
1.0
 10
2143.151102936206
 20
1026.319629989791
 30
0.0
 10
2143.242770703894
 20
1026.376817966195
 30
0.0
 10
2143.426224410007
 20
1026.491267641155
 30
0.0
 10
2143.64171758024
 20
1026.509125627014
 30
0.0
 10
2143.74953356975
 20
1026.518060371507
 30
0.0
  0
ARC
  5
D47
330
D17
100
AcDbEntity
  8
0
  6
Continuous
 62
     7
370
    15
100
AcDbCircle
 10
2144.493639684308
 20
1024.518060276512
 30
0.0
 40
2.246781937497595
100
AcDbArc
 50
126.6934012019972
 51
233.3065987980237
  0
SPLINE
  5
D48
330
D17
100
AcDbEntity
  8
0
  6
Continuous
 62
     7
370
    15
100
AcDbSpline
210
0.0
220
0.0
230
1.0
 70
     8
 71
     3
 72
     9
 73
     5
 74
     0
 42
0.0000000001
 43
0.0000000001
 40
0.0
 40
0.0
 40
0.0
 40
0.0
 40
0.4989535511004386
 40
1.0
 40
1.0
 40
1.0
 40
1.0
 10
2143.74953356975
 20
1022.518060181517
 30
0.0
 10
2143.642012902221
 20
1022.52693606298
 30
0.0
 10
2143.426520563722
 20
1022.54472505645
 30
0.0
 10
2143.243036816288
 20
1022.659155563852
 30
0.0
 10
2143.151102936205
 20
1022.716490563232
 30
0.0
  0
LINE
  5
D49
330
D17
100
AcDbEntity
  8
0
  6
Continuous
 62
     7
370
    15
100
AcDbLine
 10
2145.237742340502
 20
1022.518060181517
 30
0.0
 11
2143.74953356975
 21
1022.518060181517
 31
0.0
  0
SPLINE
  5
D4A
330
D17
100
AcDbEntity
  8
0
  6
Continuous
 62
     7
370
    15
100
AcDbSpline
210
0.0
220
0.0
230
1.0
 70
     8
 71
     3
 72
     9
 73
     5
 74
     0
 42
0.0000000001
 43
0.0000000001
 40
0.0
 40
0.0
 40
0.0
 40
0.0
 40
0.4996779276412444
 40
1.0
 40
1.0
 40
1.0
 40
1.0
 10
2145.836172974048
 20
1022.716490563232
 30
0.0
 10
2145.744505206359
 20
1022.659302586829
 30
0.0
 10
2145.561051500246
 20
1022.544852911868
 30
0.0
 10
2145.345558330012
 20
1022.52699492601
 30
0.0
 10
2145.237742340502
 20
1022.518060181517
 30
0.0
  0
ARC
  5
D4B
330
D17
100
AcDbEntity
  8
0
  6
Continuous
 62
     7
370
    15
100
AcDbCircle
 10
2144.493639684308
 20
1024.518060276512
 30
0.0
 40
2.246781937497611
100
AcDbArc
 50
306.6934012019972
 51
53.30659879800279
  0
LINE
  5
D4C
330
D17
100
AcDbEntity
  8
0
  6
Continuous
 62
     7
370
    15
100
AcDbLine
 10
2151.547966873583
 20
1027.018060220632
 30
0.0
 11
2151.547966873583
 21
1022.018060332391
 31
0.0
  0
LINE
  5
D4D
330
D17
100
AcDbEntity
  8
0
  6
Continuous
 62
     7
370
    15
100
AcDbLine
 10
2151.547966873583
 20
1027.018060220632
 30
0.0
 11
2140.020786201891
 21
1027.018060220632
 31
0.0
  0
LINE
  5
D4E
330
D17
100
AcDbEntity
  8
0
  6
Continuous
 62
     7
370
    15
100
AcDbLine
 10
2151.547966873583
 20
1022.018060332391
 30
0.0
 11
2140.020786201891
 21
1022.018060332391
 31
0.0
  0
SPLINE
  5
D4F
330
D17
100
AcDbEntity
  8
0
  6
Continuous
 62
     7
370
    15
100
AcDbSpline
210
0.0
220
0.0
230
1.0
 70
     8
 71
     3
 72
     9
 73
     5
 74
     0
 42
0.0000000001
 43
0.0000000001
 40
0.0
 40
0.0
 40
0.0
 40
0.0
 40
0.6854541393762929
 40
1.0
 40
1.0
 40
1.0
 40
1.0
 10
2182.884751236376
 20
1022.63674385589
 30
0.0
 10
2182.78020977997
 20
1022.591902575889
 30
0.0
 10
2182.627695628546
 20
1022.526484224136
 30
0.0
 10
2182.463224172538
 20
1022.520075894939
 30
0.0
 10
2182.411490356859
 20
1022.518060181517
 30
0.0
  0
SPLINE
  5
D50
330
D17
100
AcDbEntity
  8
0
  6
Continuous
 62
     7
370
    15
100
AcDbSpline
210
0.0
220
0.0
230
1.0
 70
     8
 71
     3
 72
     9
 73
     5
 74
     0
 42
0.0000000001
 43
0.0000000001
 40
0.0
 40
0.0
 40
0.0
 40
0.0
 40
0.1513976825606721
 40
1.0
 40
1.0
 40
1.0
 40
1.0
 10
2182.884751236376
 20
1022.63674385589
 30
0.0
 10
2182.90462195195
 20
1022.641127937508
 30
0.0
 10
2183.035870431035
 20
1022.670085326712
 30
0.0
 10
2183.13558671095
 20
1022.695188203671
 30
0.0
 10
2183.220206177173
 20
1022.716490563232
 30
0.0
  0
SPLINE
  5
D51
330
D17
100
AcDbEntity
  8
0
  6
Continuous
 62
     7
370
    15
100
AcDbSpline
210
0.0
220
0.0
230
1.0
 70
     8
 71
     3
 72
     9
 73
     5
 74
     0
 42
0.0000000001
 43
0.0000000001
 40
0.0
 40
0.0
 40
0.0
 40
0.0
 40
0.6856924405511405
 40
1.0
 40
1.0
 40
1.0
 40
1.0
 10
2180.870471870836
 20
1026.399376697134
 30
0.0
 10
2180.97505333047
 20
1026.44421791608
 30
0.0
 10
2181.127572817996
 20
1026.509613443716
 30
0.0
 10
2181.292039598091
 20
1026.516040347168
 30
0.0
 10
2181.343732750353
 20
1026.518060371507
 30
0.0
  0
SPLINE
  5
D52
330
D17
100
AcDbEntity
  8
0
  6
Continuous
 62
     7
370
    15
100
AcDbSpline
210
0.0
220
0.0
230
1.0
 70
     8
 71
     3
 72
     9
 73
     5
 74
     0
 42
0.0000000001
 43
0.0000000001
 40
0.0
 40
0.0
 40
0.0
 40
0.0
 40
0.1418033044872448
 40
1.0
 40
1.0
 40
1.0
 40
1.0
 10
2180.870471870836
 20
1026.399376697134
 30
0.0
 10
2180.851863445603
 20
1026.395268049113
 30
0.0
 10
2180.720636424474
 20
1026.366293773541
 30
0.0
 10
2180.62080830316
 20
1026.341181370821
 30
0.0
 10
2180.53513613933
 20
1026.319629989791
 30
0.0
  0
ARC
  5
D53
330
D17
100
AcDbEntity
  8
0
  6
Continuous
 62
     7
370
    15
100
AcDbCircle
 10
2144.493639684308
 20
1024.518060276512
 30
0.0
 40
2.133934697700685
100
AcDbArc
 50
298.1617717052026
 51
61.83822829479733
  0
SPLINE
  5
D54
330
D17
100
AcDbEntity
  8
0
  6
Continuous
 62
     7
370
    15
100
AcDbSpline
210
0.0
220
0.0
230
1.0
 70
     8
 71
     3
 72
     9
 73
     5
 74
     0
 42
0.0000000001
 43
0.0000000001
 40
0.0
 40
0.0
 40
0.0
 40
0.0
 40
0.8581945625485404
 40
1.0
 40
1.0
 40
1.0
 40
1.0
 10
2145.836172974047
 20
1026.319629989791
 30
0.0
 10
2145.750603143634
 20
1026.341181559007
 30
0.0
 10
2145.650894016883
 20
1026.366294243422
 30
0.0
 10
2145.519368996327
 20
1026.395268053343
 30
0.0
 10
2145.500718033251
 20
1026.399376697134
 30
0.0
  0
SPLINE
  5
D55
330
D17
100
AcDbEntity
  8
0
  6
Continuous
 62
     7
370
    15
100
AcDbSpline
210
0.0
220
0.0
230
1.0
 70
     8
 71
     3
 72
     9
 73
     5
 74
     0
 42
0.0000000001
 43
0.0000000001
 40
0.0
 40
0.0
 40
0.0
 40
0.0
 40
0.2273586609264772
 40
1.0
 40
1.0
 40
1.0
 40
1.0
 10
2145.500718033251
 20
1022.63674385589
 30
0.0
 10
2145.530298634337
 20
1022.643301967255
 30
0.0
 10
2145.660404085192
 20
1022.672146750818
 30
0.0
 10
2145.759560572734
 20
1022.697162421748
 30
0.0
 10
2145.836172974047
 20
1022.716490563232
 30
0.0
  0
SPLINE
  5
D56
330
D17
100
AcDbEntity
  8
0
  6
Continuous
 62
     7
370
    15
100
AcDbSpline
210
0.0
220
0.0
230
1.0
 70
     8
 71
     3
 72
     9
 73
     5
 74
     0
 42
0.0000000001
 43
0.0000000001
 40
0.0
 40
0.0
 40
0.0
 40
0.0
 40
0.7726432267251039
 40
1.0
 40
1.0
 40
1.0
 40
1.0
 10
2180.53513613933
 20
1022.716490563232
 30
0.0
 10
2180.611800284383
 20
1022.697162515197
 30
0.0
 10
2180.711023499448
 20
1022.672147026332
 30
0.0
 10
2180.840935498029
 20
1022.643301973929
 30
0.0
 10
2180.870471870836
 20
1022.63674385589
 30
0.0
  0
SPLINE
  5
D57
330
D17
100
AcDbEntity
  8
0
  6
Continuous
 62
     7
370
    15
100
AcDbSpline
210
0.0
220
0.0
230
1.0
 70
     8
 71
     3
 72
     9
 73
     5
 74
     0
 42
0.0000000001
 43
0.0000000001
 40
0.0
 40
0.0
 40
0.0
 40
0.0
 40
0.6855067259751864
 40
1.0
 40
1.0
 40
1.0
 40
1.0
 10
2181.343732750354
 20
1022.518060181517
 30
0.0
 10
2181.230398176675
 20
1022.52786972581
 30
0.0
 10
2181.065068546222
 20
1022.542179642725
 30
0.0
 10
2180.917029237668
 20
1022.614119313344
 30
0.0
 10
2180.870471870836
 20
1022.63674385589
 30
0.0
  0
ARC
  5
D58
330
D17
100
AcDbEntity
  8
0
  6
Continuous
 62
     7
370
    15
100
AcDbCircle
 10
2181.877650560274
 20
1024.518060276512
 30
0.0
 40
2.133934697700685
100
AcDbArc
 50
118.1617717052026
 51
241.8382282947973
  0
ARC
  5
D59
330
D17
100
AcDbEntity
  8
0
  6
Continuous
 62
     7
370
    15
100
AcDbCircle
 10
2181.877650560274
 20
1024.518060276512
 30
0.0
 40
2.133934697700722
100
AcDbArc
 50
298.1617717052026
 51
61.83822829479733
  0
SPLINE
  5
D5A
330
D17
100
AcDbEntity
  8
0
  6
Continuous
 62
     7
370
    15
100
AcDbSpline
210
0.0
220
0.0
230
1.0
 70
     8
 71
     3
 72
     9
 73
     5
 74
     0
 42
0.0000000001
 43
0.0000000001
 40
0.0
 40
0.0
 40
0.0
 40
0.0
 40
0.8581533555776257
 40
0.9999999999999998
 40
0.9999999999999998
 40
0.9999999999999998
 40
0.9999999999999998
 10
2183.220206177173
 20
1026.319629989791
 30
0.0
 10
2183.134619764797
 20
1026.341181132423
 30
0.0
 10
2183.034886527354
 20
1026.366294525607
 30
0.0
 10
2182.903401890857
 20
1026.395267042791
 30
0.0
 10
2182.884751236377
 20
1026.399376697134
 30
0.0
  0
SPLINE
  5
D5B
330
D17
100
AcDbEntity
  8
0
  6
Continuous
 62
     7
370
    15
100
AcDbSpline
210
0.0
220
0.0
230
1.0
 70
     8
 71
     3
 72
     9
 73
     5
 74
     0
 42
0.0000000001
 43
0.0000000001
 40
0.0
 40
0.0
 40
0.0
 40
0.0
 40
0.6857342883609975
 40
1.0
 40
1.0
 40
1.0
 40
1.0
 10
2182.411490356859
 20
1026.518060371507
 30
0.0
 10
2182.524871714734
 20
1026.508270184633
 30
0.0
 10
2182.690214705159
 20
1026.493993245242
 30
0.0
 10
2182.838233883849
 20
1026.422001297746
 30
0.0
 10
2182.884751236376
 20
1026.399376697134
 30
0.0
  0
SPLINE
  5
D5C
330
D17
100
AcDbEntity
  8
0
  6
Continuous
 62
     7
370
    15
100
AcDbSpline
210
0.0
220
0.0
230
1.0
 70
     8
 71
     3
 72
     9
 73
     5
 74
     0
 42
0.0000000001
 43
0.0000000001
 40
0.0
 40
0.0
 40
0.0
 40
0.0
 40
0.8485998952008563
 40
1.0
 40
1.0
 40
1.0
 40
1.0
 10
2143.151102936205
 20
1022.716490563232
 30
0.0
 10
2143.235572206112
 20
1022.695188005777
 30
0.0
 10
2143.33511177757
 20
1022.670084823966
 30
0.0
 10
2143.466643899896
 20
1022.641127932319
 30
0.0
 10
2143.486557877001
 20
1022.63674385589
 30
0.0
  0
SPLINE
  5
D5D
330
D17
100
AcDbEntity
  8
0
  6
Continuous
 62
     7
370
    15
100
AcDbSpline
210
0.0
220
0.0
230
1.0
 70
     8
 71
     3
 72
     9
 73
     5
 74
     0
 42
0.0000000001
 43
0.0000000001
 40
0.0
 40
0.0
 40
0.0
 40
0.0
 40
0.6856590696625713
 40
1.0
 40
1.0
 40
1.0
 40
1.0
 10
2143.959699547228
 20
1022.518060181517
 30
0.0
 10
2143.846359554721
 20
1022.527856770633
 30
0.0
 10
2143.681058755065
 20
1022.5421446136
 30
0.0
 10
2143.533075173656
 20
1022.614119274136
 30
0.0
 10
2143.486557877002
 20
1022.63674385589
 30
0.0
  0
SPLINE
  5
D5E
330
D17
100
AcDbEntity
  8
0
  6
Continuous
 62
     7
370
    15
100
AcDbSpline
210
0.0
220
0.0
230
1.0
 70
     8
 71
     3
 72
     9
 73
     5
 74
     0
 42
0.0000000001
 43
0.0000000001
 40
0.0
 40
0.0
 40
0.0
 40
0.0
 40
0.6856200695506431
 40
1.0
 40
1.0
 40
1.0
 40
1.0
 10
2145.500718033251
 20
1022.63674385589
 30
0.0
 10
2145.396176854241
 20
1022.591902617636
 30
0.0
 10
2145.243700018085
 20
1022.52650015898
 30
0.0
 10
2145.079269893999
 20
1022.520078897313
 30
0.0
 10
2145.027576363024
 20
1022.518060181517
 30
0.0
  0
SPLINE
  5
D5F
330
D17
100
AcDbEntity
  8
0
  6
Continuous
 62
     7
370
    15
100
AcDbSpline
210
0.0
220
0.0
230
1.0
 70
     8
 71
     3
 72
     9
 73
     5
 74
     0
 42
0.0000000001
 43
0.0000000001
 40
0.0
 40
0.0
 40
0.0
 40
0.0
 40
0.6856200695506431
 40
1.0
 40
1.0
 40
1.0
 40
1.0
 10
2143.486557877001
 20
1026.399376697134
 30
0.0
 10
2143.591099056011
 20
1026.444217935387
 30
0.0
 10
2143.743575892167
 20
1026.509620394044
 30
0.0
 10
2143.908006016254
 20
1026.51604165571
 30
0.0
 10
2143.959699547228
 20
1026.518060371507
 30
0.0
  0
SPLINE
  5
D60
330
D17
100
AcDbEntity
  8
0
  6
Continuous
 62
     7
370
    15
100
AcDbSpline
210
0.0
220
0.0
230
1.0
 70
     8
 71
     3
 72
     9
 73
     5
 74
     0
 42
0.0000000001
 43
0.0000000001
 40
0.0
 40
0.0
 40
0.0
 40
0.0
 40
0.1418466444223741
 40
0.9999999999999998
 40
0.9999999999999998
 40
0.9999999999999998
 40
0.9999999999999998
 10
2143.486557877002
 20
1026.399376697134
 30
0.0
 10
2143.467907222521
 20
1026.395267042791
 30
0.0
 10
2143.336422586024
 20
1026.366294525607
 30
0.0
 10
2143.236689348581
 20
1026.341181132423
 30
0.0
 10
2143.151102936206
 20
1026.319629989791
 30
0.0
  0
ARC
  5
D61
330
D17
100
AcDbEntity
  8
0
  6
Continuous
 62
     7
370
    15
100
AcDbCircle
 10
2144.493639684308
 20
1024.518060276512
 30
0.0
 40
2.133934697700722
100
AcDbArc
 50
118.1617717052026
 51
241.8382282948004
  0
SPLINE
  5
D62
330
D17
100
AcDbEntity
  8
0
  6
Continuous
 62
     7
370
    15
100
AcDbSpline
210
0.0
220
0.0
230
1.0
 70
     8
 71
     3
 72
     9
 73
     5
 74
     0
 42
0.0000000001
 43
0.0000000001
 40
0.0
 40
0.0
 40
0.0
 40
0.0
 40
0.6856590696625713
 40
1.0
 40
1.0
 40
1.0
 40
1.0
 10
2145.027576363024
 20
1026.518060371507
 30
0.0
 10
2145.140916355531
 20
1026.50826378239
 30
0.0
 10
2145.306217155186
 20
1026.493975939423
 30
0.0
 10
2145.454200736597
 20
1026.422001278887
 30
0.0
 10
2145.500718033252
 20
1026.399376697134
 30
0.0
  0
LINE
  5
D63
330
D17
100
AcDbEntity
  8
0
  6
Continuous
 62
     7
370
    15
100
AcDbLine
 10
2152.017770683702
 20
1027.018060220632
 30
0.0
 11
2152.017770683702
 21
1022.018060332391
 31
0.0
  0
LINE
  5
D64
330
D17
100
AcDbEntity
  8
0
  6
Continuous
 62
     7
370
    15
100
AcDbLine
 10
2151.547966873583
 20
1027.018060220632
 30
0.0
 11
2152.017770683702
 21
1027.018060220632
 31
0.0
  0
LINE
  5
D65
330
D17
100
AcDbEntity
  8
0
  6
Continuous
 62
     7
370
    15
100
AcDbLine
 10
2152.017770683702
 20
1022.018060332391
 30
0.0
 11
2151.547966873583
 21
1022.018060332391
 31
0.0
  0
LINE
  5
D66
330
D17
100
AcDbEntity
  8
0
  6
Continuous
 62
     7
370
    15
100
AcDbLine
 10
2177.068172371324
 20
1024.243060278002
 30
0.0
 11
2176.005421554979
 21
1024.243060278002
 31
0.0
  0
ARC
  5
D67
330
D17
100
AcDbEntity
  8
0
  6
Continuous
 62
     7
370
    15
100
AcDbCircle
 10
2177.555457012219
 20
1024.593060276512
 30
0.0
 40
0.5999999999997267
100
AcDbArc
 50
215.6853347126819
 51
234.3146652873401
  0
LINE
  5
D68
330
D17
100
AcDbEntity
  8
0
  6
Continuous
 62
     7
370
    15
100
AcDbLine
 10
2177.205501472887
 20
1022.843060327921
 30
0.0
 11
2177.205501472887
 21
1024.105720553541
 31
0.0
  0
LINE
  5
D69
330
D17
100
AcDbEntity
  8
0
  6
Continuous
 62
     7
370
    15
100
AcDbLine
 10
2176.005421554979
 20
1022.843060327921
 30
0.0
 11
2177.205501472887
 21
1022.843060327921
 31
0.0
  0
LINE
  5
D6A
330
D17
100
AcDbEntity
  8
0
  6
Continuous
 62
     7
370
    15
100
AcDbLine
 10
2176.005421554979
 20
1022.843060327921
 30
0.0
 11
2176.005421554979
 21
1024.243060278002
 31
0.0
  0
LINE
  5
D6B
330
D17
100
AcDbEntity
  8
0
  6
Continuous
 62
     7
370
    15
100
AcDbLine
 10
2176.005421554979
 20
1024.943060282146
 30
0.0
 11
2177.068172371324
 21
1024.943060282146
 31
0.0
  0
LINE
  5
D6C
330
D17
100
AcDbEntity
  8
0
  6
Continuous
 62
     7
370
    15
100
AcDbLine
 10
2176.005421554979
 20
1024.943060282146
 30
0.0
 11
2176.005421554979
 21
1026.343060319539
 31
0.0
  0
LINE
  5
D6D
330
D17
100
AcDbEntity
  8
0
  6
Continuous
 62
     7
370
    15
100
AcDbLine
 10
2176.005421554979
 20
1026.343060319539
 30
0.0
 11
2177.205501472887
 21
1026.343060319539
 31
0.0
  0
LINE
  5
D6E
330
D17
100
AcDbEntity
  8
0
  6
Continuous
 62
     7
370
    15
100
AcDbLine
 10
2177.205501472887
 20
1025.080400006607
 30
0.0
 11
2177.205501472887
 21
1026.343060319539
 31
0.0
  0
ARC
  5
D6F
330
D17
100
AcDbEntity
  8
0
  6
Continuous
 62
     7
370
    15
100
AcDbCircle
 10
2177.555457012219
 20
1024.593060276512
 30
0.0
 40
0.5999999999997267
100
AcDbArc
 50
125.6853347126599
 51
144.3146652873181
  0
LINE
  5
D70
330
D17
100
AcDbEntity
  8
0
  6
Continuous
 62
     7
370
    15
100
AcDbLine
 10
2150.365887558397
 20
1026.343060319539
 30
0.0
 11
2149.16580764049
 21
1026.343060319539
 31
0.0
  0
LINE
  5
D71
330
D17
100
AcDbEntity
  8
0
  6
Continuous
 62
     7
370
    15
100
AcDbLine
 10
2150.365887558397
 20
1024.943060282146
 30
0.0
 11
2149.303136742052
 21
1024.943060282146
 31
0.0
  0
ARC
  5
D72
330
D17
100
AcDbEntity
  8
0
  6
Continuous
 62
     7
370
    15
100
AcDbCircle
 10
2148.815833232363
 20
1024.593060276512
 30
0.0
 40
0.5999999999998594
100
AcDbArc
 50
35.68533471268189
 51
54.31466528733629
  0
LINE
  5
D73
330
D17
100
AcDbEntity
  8
0
  6
Continuous
 62
     7
370
    15
100
AcDbLine
 10
2149.16580764049
 20
1025.080400006607
 30
0.0
 11
2149.16580764049
 21
1026.343060319539
 31
0.0
  0
LINE
  5
D74
330
D17
100
AcDbEntity
  8
0
  6
Continuous
 62
     7
370
    15
100
AcDbLine
 10
2150.365887558397
 20
1024.943060282146
 30
0.0
 11
2150.365887558397
 21
1026.343060319539
 31
0.0
  0
LINE
  5
D75
330
D17
100
AcDbEntity
  8
0
  6
Continuous
 62
     7
370
    15
100
AcDbLine
 10
2147.665797150072
 20
1022.843060327921
 30
0.0
 11
2147.665797150072
 21
1026.343060319539
 31
0.0
  0
LINE
  5
D76
330
D17
100
AcDbEntity
  8
0
  6
Continuous
 62
     7
370
    15
100
AcDbLine
 10
2148.465810692247
 20
1026.343060319539
 30
0.0
 11
2147.665797150072
 21
1026.343060319539
 31
0.0
  0
ARC
  5
D77
330
D17
100
AcDbEntity
  8
0
  6
Continuous
 62
     7
370
    15
100
AcDbCircle
 10
2148.815833232363
 20
1024.593060276512
 30
0.0
 40
0.5999999999998594
100
AcDbArc
 50
125.6853347126637
 51
234.3146652873363
  0
LINE
  5
D78
330
D17
100
AcDbEntity
  8
0
  6
Continuous
 62
     7
370
    15
100
AcDbLine
 10
2148.465810692247
 20
1026.343060319539
 30
0.0
 11
2148.465810692247
 21
1025.080400006607
 31
0.0
  0
LINE
  5
D79
330
D17
100
AcDbEntity
  8
0
  6
Continuous
 62
     7
370
    15
100
AcDbLine
 10
2148.465810692247
 20
1022.843060327921
 30
0.0
 11
2147.665797150072
 21
1022.843060327921
 31
0.0
  0
LINE
  5
D7A
330
D17
100
AcDbEntity
  8
0
  6
Continuous
 62
     7
370
    15
100
AcDbLine
 10
2148.465810692247
 20
1024.105720553541
 30
0.0
 11
2148.465810692247
 21
1022.843060327921
 31
0.0
  0
LINE
  5
D7B
330
D17
100
AcDbEntity
  8
0
  6
Continuous
 62
     7
370
    15
100
AcDbLine
 10
2177.905498421129
 20
1026.343060319539
 30
0.0
 11
2177.905498421129
 21
1025.080400006607
 31
0.0
  0
LINE
  5
D7C
330
D17
100
AcDbEntity
  8
0
  6
Continuous
 62
     7
370
    15
100
AcDbLine
 10
2177.905498421129
 20
1026.343060319539
 30
0.0
 11
2178.705511963304
 21
1026.343060319539
 31
0.0
  0
LINE
  5
D7D
330
D17
100
AcDbEntity
  8
0
  6
Continuous
 62
     7
370
    15
100
AcDbLine
 10
2178.705511963304
 20
1022.843060327921
 30
0.0
 11
2178.705511963304
 21
1026.343060319539
 31
0.0
  0
LINE
  5
D7E
330
D17
100
AcDbEntity
  8
0
  6
Continuous
 62
     7
370
    15
100
AcDbLine
 10
2177.905498421129
 20
1022.843060327921
 30
0.0
 11
2178.705511963304
 21
1022.843060327921
 31
0.0
  0
LINE
  5
D7F
330
D17
100
AcDbEntity
  8
0
  6
Continuous
 62
     7
370
    15
100
AcDbLine
 10
2177.905498421129
 20
1024.105720553541
 30
0.0
 11
2177.905498421129
 21
1022.843060327921
 31
0.0
  0
ARC
  5
D80
330
D17
100
AcDbEntity
  8
0
  6
Continuous
 62
     7
370
    15
100
AcDbCircle
 10
2177.555457012219
 20
1024.593060276512
 30
0.0
 40
0.5999999999998594
100
AcDbArc
 50
305.6853347126637
 51
54.31466528733629
  0
LINE
  5
D81
330
D17
100
AcDbEntity
  8
0
  6
Continuous
 62
     7
370
    15
100
AcDbLine
 10
2149.303136742052
 20
1024.243060278002
 30
0.0
 11
2150.365887558397
 21
1024.243060278002
 31
0.0
  0
LINE
  5
D82
330
D17
100
AcDbEntity
  8
0
  6
Continuous
 62
     7
370
    15
100
AcDbLine
 10
2149.16580764049
 20
1022.843060327921
 30
0.0
 11
2149.16580764049
 21
1024.105720553541
 31
0.0
  0
ARC
  5
D83
330
D17
100
AcDbEntity
  8
0
  6
Continuous
 62
     7
370
    15
100
AcDbCircle
 10
2148.815833232363
 20
1024.593060276512
 30
0.0
 40
0.5999999999998594
100
AcDbArc
 50
305.6853347126637
 51
324.3146652873181
  0
LINE
  5
D84
330
D17
100
AcDbEntity
  8
0
  6
Continuous
 62
     7
370
    15
100
AcDbLine
 10
2150.365887558397
 20
1022.843060327921
 30
0.0
 11
2149.16580764049
 21
1022.843060327921
 31
0.0
  0
LINE
  5
D85
330
D17
100
AcDbEntity
  8
0
  6
Continuous
 62
     7
370
    15
100
AcDbLine
 10
2150.365887558397
 20
1022.843060327921
 30
0.0
 11
2150.365887558397
 21
1024.243060278002
 31
0.0
  0
LINE
  5
D86
330
D17
100
AcDbEntity
  8
0
  6
Continuous
 62
     7
370
    15
100
AcDbLine
 10
2153.36924639934
 20
1022.018060332391
 30
0.0
 11
2153.36924639934
 21
1027.018060220632
 31
0.0
  0
LINE
  5
D87
330
D17
100
AcDbEntity
  8
0
  6
Continuous
 62
     7
370
    15
100
AcDbLine
 10
2153.36924639934
 20
1027.018060220632
 30
0.0
 11
2152.017770683702
 21
1027.018060220632
 31
0.0
  0
LINE
  5
D88
330
D17
100
AcDbEntity
  8
0
  6
Continuous
 62
     7
370
    15
100
AcDbLine
 10
2153.36924639934
 20
1022.018060332391
 30
0.0
 11
2152.017770683702
 21
1022.018060332391
 31
0.0
  0
LINE
  5
D89
330
D17
100
AcDbEntity
  8
0
  6
Continuous
 62
     7
370
    15
100
AcDbLine
 10
2173.002062714037
 20
1022.018060332391
 30
0.0
 11
2173.002062714037
 21
1027.018060220632
 31
0.0
  0
LINE
  5
D8A
330
D17
100
AcDbEntity
  8
0
  6
Continuous
 62
     7
370
    15
100
AcDbLine
 10
2173.002062714037
 20
1027.018060220632
 30
0.0
 11
2174.353538429674
 21
1027.018060220632
 31
0.0
  0
LINE
  5
D8B
330
D17
100
AcDbEntity
  8
0
  6
Continuous
 62
     7
370
    15
100
AcDbLine
 10
2174.353538429674
 20
1022.018060332391
 30
0.0
 11
2173.002062714037
 21
1022.018060332391
 31
0.0
  0
LINE
  5
D8C
330
D17
100
AcDbEntity
  8
0
  6
Continuous
 62
     7
370
    15
100
AcDbLine
 10
2187.652884399828
 20
1022.018060332391
 30
0.0
 11
2187.652884399828
 21
1027.018060220632
 31
0.0
  0
LINE
  5
D8D
330
D17
100
AcDbEntity
  8
0
  6
Continuous
 62
     7
370
    15
100
AcDbLine
 10
2187.089024460253
 20
1027.018060220632
 30
0.0
 11
2187.652884399828
 21
1027.018060220632
 31
0.0
  0
LINE
  5
D8E
330
D17
100
AcDbEntity
  8
0
  6
Continuous
 62
     7
370
    15
100
AcDbLine
 10
2187.652884399828
 20
1022.018060332391
 30
0.0
 11
2187.089024460253
 21
1022.018060332391
 31
0.0
  0
LINE
  5
D8F
330
D17
100
AcDbEntity
  8
0
  6
Continuous
 62
     7
370
    15
100
AcDbLine
 10
2138.718424713549
 20
1022.018060332391
 30
0.0
 11
2138.718424713549
 21
1027.018060220632
 31
0.0
  0
LINE
  5
D90
330
D17
100
AcDbEntity
  8
0
  6
Continuous
 62
     7
370
    15
100
AcDbLine
 10
2139.282284653124
 20
1027.018060220632
 30
0.0
 11
2138.718424713549
 21
1027.018060220632
 31
0.0
  0
LINE
  5
D91
330
D17
100
AcDbEntity
  8
0
  6
Continuous
 62
     7
370
    15
100
AcDbLine
 10
2139.282284653124
 20
1022.018060332391
 30
0.0
 11
2138.718424713549
 21
1022.018060332391
 31
0.0
  0
LINE
  5
D92
330
D17
100
AcDbEntity
  8
0
  6
Continuous
 62
     7
370
    15
100
AcDbLine
 10
2177.205501472887
 20
1026.343060319539
 30
0.0
 11
2177.905498421129
 21
1026.343060319539
 31
0.0
  0
LINE
  5
D93
330
D17
100
AcDbEntity
  8
0
  6
Continuous
 62
     7
370
    15
100
AcDbLine
 10
2177.205501472887
 20
1022.843060327921
 30
0.0
 11
2177.905498421129
 21
1022.843060327921
 31
0.0
  0
LINE
  5
D94
330
D17
100
AcDbEntity
  8
0
  6
Continuous
 62
     7
370
    15
100
AcDbLine
 10
2176.005421554979
 20
1024.943060282146
 30
0.0
 11
2176.005421554979
 21
1024.243060278002
 31
0.0
  0
LINE
  5
D95
330
D17
100
AcDbEntity
  8
0
  6
Continuous
 62
     7
370
    15
100
AcDbLine
 10
2149.16580764049
 20
1026.343060319539
 30
0.0
 11
2148.465810692247
 21
1026.343060319539
 31
0.0
  0
LINE
  5
D96
330
D17
100
AcDbEntity
  8
0
  6
Continuous
 62
     7
370
    15
100
AcDbLine
 10
2149.16580764049
 20
1022.843060327921
 30
0.0
 11
2148.465810692247
 21
1022.843060327921
 31
0.0
  0
LINE
  5
D97
330
D17
100
AcDbEntity
  8
0
  6
Continuous
 62
     7
370
    15
100
AcDbLine
 10
2150.365887558397
 20
1024.943060282146
 30
0.0
 11
2150.365887558397
 21
1024.243060278002
 31
0.0
  0
LINE
  5
D98
330
D17
100
AcDbEntity
  8
0
  6
Continuous
 62
     7
370
    15
100
AcDbLine
 10
2157.688198959764
 20
1022.018060332391
 30
0.0
 11
2157.688198959764
 21
1027.018060220632
 31
0.0
  0
LINE
  5
D99
330
D17
100
AcDbEntity
  8
0
  6
Continuous
 62
     7
370
    15
100
AcDbLine
 10
2157.938180839952
 20
1027.018060220632
 30
0.0
 11
2157.688198959764
 21
1027.018060220632
 31
0.0
  0
LINE
  5
D9A
330
D17
100
AcDbEntity
  8
0
  6
Continuous
 62
     7
370
    15
100
AcDbLine
 10
2157.938180839952
 20
1022.018060332391
 30
0.0
 11
2157.688198959764
 21
1022.018060332391
 31
0.0
  0
LINE
  5
D9B
330
D17
100
AcDbEntity
  8
0
  6
Continuous
 62
     7
370
    15
100
AcDbLine
 10
2168.683110153612
 20
1022.018060332391
 30
0.0
 11
2168.683110153612
 21
1027.018060220632
 31
0.0
  0
LINE
  5
D9C
330
D17
100
AcDbEntity
  8
0
  6
Continuous
 62
     7
370
    15
100
AcDbLine
 10
2168.433009064135
 20
1027.018060220632
 30
0.0
 11
2168.683110153612
 21
1027.018060220632
 31
0.0
  0
LINE
  5
D9D
330
D17
100
AcDbEntity
  8
0
  6
Continuous
 62
     7
370
    15
100
AcDbLine
 10
2168.433009064135
 20
1022.018060332391
 30
0.0
 11
2168.683110153612
 21
1022.018060332391
 31
0.0
  0
LINE
  5
D9E
330
D17
100
AcDbEntity
  8
0
  6
Continuous
 62
     7
370
    15
100
AcDbLine
 10
2169.446049606737
 20
1022.018060332391
 30
0.0
 11
2169.446049606737
 21
1027.018060220632
 31
0.0
  0
LINE
  5
D9F
330
D17
100
AcDbEntity
  8
0
  6
Continuous
 62
     7
370
    15
100
AcDbLine
 10
2169.150529777941
 20
1022.018060332391
 30
0.0
 11
2169.150529777941
 21
1027.018060220632
 31
0.0
  0
LINE
  5
DA0
330
D17
100
AcDbEntity
  8
0
  6
Continuous
 62
     7
370
    15
100
AcDbLine
 10
2169.150529777941
 20
1027.018060220632
 30
0.0
 11
2169.446049606737
 21
1027.018060220632
 31
0.0
  0
LINE
  5
DA1
330
D17
100
AcDbEntity
  8
0
  6
Continuous
 62
     7
370
    15
100
AcDbLine
 10
2169.150529777941
 20
1022.018060332391
 30
0.0
 11
2169.446049606737
 21
1022.018060332391
 31
0.0
  0
LINE
  5
DA2
330
D17
100
AcDbEntity
  8
0
  6
Continuous
 62
     7
370
    15
100
AcDbLine
 10
2157.220779335436
 20
1022.018060332391
 30
0.0
 11
2157.220779335436
 21
1027.018060220632
 31
0.0
  0
LINE
  5
DA3
330
D17
100
AcDbEntity
  8
0
  6
Continuous
 62
     7
370
    15
100
AcDbLine
 10
2156.925259506639
 20
1022.018060332391
 30
0.0
 11
2156.925259506639
 21
1027.018060220632
 31
0.0
  0
LINE
  5
DA4
330
D17
100
AcDbEntity
  8
0
  6
Continuous
 62
     7
370
    15
100
AcDbLine
 10
2157.220779335436
 20
1027.018060220632
 30
0.0
 11
2156.925259506639
 21
1027.018060220632
 31
0.0
  0
LINE
  5
DA5
330
D17
100
AcDbEntity
  8
0
  6
Continuous
 62
     7
370
    15
100
AcDbLine
 10
2157.220779335436
 20
1022.018060332391
 30
0.0
 11
2156.925259506639
 21
1022.018060332391
 31
0.0
  0
LINE
  5
DA6
330
D17
100
AcDbEntity
  8
0
  6
Continuous
 62
     7
370
    15
100
AcDbLine
 10
2168.683110153612
 20
1027.018060220632
 30
0.0
 11
2169.150529777941
 21
1027.018060220632
 31
0.0
  0
LINE
  5
DA7
330
D17
100
AcDbEntity
  8
0
  6
Continuous
 62
     7
370
    15
100
AcDbLine
 10
2168.683110153612
 20
1022.018060332391
 30
0.0
 11
2169.150529777941
 21
1022.018060332391
 31
0.0
  0
LINE
  5
DA8
330
D17
100
AcDbEntity
  8
0
  6
Continuous
 62
     7
370
    15
100
AcDbLine
 10
2157.688198959764
 20
1027.018060220632
 30
0.0
 11
2157.220779335436
 21
1027.018060220632
 31
0.0
  0
LINE
  5
DA9
330
D17
100
AcDbEntity
  8
0
  6
Continuous
 62
     7
370
    15
100
AcDbLine
 10
2157.688198959764
 20
1022.018060332391
 30
0.0
 11
2157.220779335436
 21
1022.018060332391
 31
0.0
  0
LINE
  5
DAA
330
D17
100
AcDbEntity
  8
0
  6
Continuous
 62
     7
370
    15
100
AcDbLine
 10
2169.591842567858
 20
1022.018060332391
 30
0.0
 11
2169.591842567858
 21
1027.018060220632
 31
0.0
  0
LINE
  5
DAB
330
D17
100
AcDbEntity
  8
0
  6
Continuous
 62
     7
370
    15
100
AcDbLine
 10
2169.446049606737
 20
1027.018060220632
 30
0.0
 11
2169.591842567858
 21
1027.018060220632
 31
0.0
  0
LINE
  5
DAC
330
D17
100
AcDbEntity
  8
0
  6
Continuous
 62
     7
370
    15
100
AcDbLine
 10
2169.446049606737
 20
1022.018060332391
 30
0.0
 11
2169.591842567858
 21
1022.018060332391
 31
0.0
  0
LINE
  5
DAD
330
D17
100
AcDbEntity
  8
0
  6
Continuous
 62
     7
370
    15
100
AcDbLine
 10
2156.779466545519
 20
1022.018060332391
 30
0.0
 11
2156.779466545519
 21
1027.018060220632
 31
0.0
  0
LINE
  5
DAE
330
D17
100
AcDbEntity
  8
0
  6
Continuous
 62
     7
370
    15
100
AcDbLine
 10
2156.925259506639
 20
1027.018060220632
 30
0.0
 11
2156.779466545519
 21
1027.018060220632
 31
0.0
  0
LINE
  5
DAF
330
D17
100
AcDbEntity
  8
0
  6
Continuous
 62
     7
370
    15
100
AcDbLine
 10
2156.925259506639
 20
1022.018060332391
 30
0.0
 11
2156.779466545519
 21
1022.018060332391
 31
0.0
  0
LINE
  5
DB0
330
D17
100
AcDbEntity
  8
0
  6
Continuous
 62
     7
370
    15
100
AcDbLine
 10
2187.652884399828
 20
1027.018060220632
 30
0.0
 11
2187.655983841356
 21
1027.018060220632
 31
0.0
  0
LINE
  5
DB1
330
D17
100
AcDbEntity
  8
0
  6
Continuous
 62
     7
370
    15
100
AcDbLine
 10
2187.652884399828
 20
1022.018060332391
 30
0.0
 11
2187.655983841356
 21
1022.018060332391
 31
0.0
  0
LINE
  5
DB2
330
D17
100
AcDbEntity
  8
0
  6
Continuous
 62
     7
370
    15
100
AcDbLine
 10
2138.718424713549
 20
1027.018060220632
 30
0.0
 11
2138.71532527202
 21
1027.018060220632
 31
0.0
  0
LINE
  5
DB3
330
D17
100
AcDbEntity
  8
0
  6
Continuous
 62
     7
370
    15
100
AcDbLine
 10
2138.718424713549
 20
1022.018060332391
 30
0.0
 11
2138.71532527202
 21
1022.018060332391
 31
0.0
  0
LINE
  5
DB4
330
D17
100
AcDbEntity
  8
0
  6
Continuous
 62
     7
370
    15
100
AcDbLine
 10
2170.576630508837
 20
1026.368060277071
 30
0.0
 11
2169.737635528978
 21
1026.368060277071
 31
0.0
  0
LINE
  5
DB5
330
D17
100
AcDbEntity
  8
0
  6
Continuous
 62
     7
370
    15
100
AcDbLine
 10
2169.737635528978
 20
1026.368060277071
 30
0.0
 11
2169.737635528978
 21
1022.668060275953
 31
0.0
  0
LINE
  5
DB6
330
D17
100
AcDbEntity
  8
0
  6
Continuous
 62
     7
370
    15
100
AcDbLine
 10
2170.576630508837
 20
1022.668060275953
 30
0.0
 11
2169.737635528978
 21
1022.668060275953
 31
0.0
  0
LINE
  5
DB7
330
D17
100
AcDbEntity
  8
0
  6
Continuous
 62
     7
370
    15
100
AcDbLine
 10
2170.576630508837
 20
1022.018060332391
 30
0.0
 11
2170.576630508837
 21
1022.668060275953
 31
0.0
  0
LINE
  5
DB8
330
D17
100
AcDbEntity
  8
0
  6
Continuous
 62
     7
370
    15
100
AcDbLine
 10
2170.576630508837
 20
1026.368060277071
 30
0.0
 11
2170.576630508837
 21
1027.018060220632
 31
0.0
  0
LINE
  5
DB9
330
D17
100
AcDbEntity
  8
0
  6
Continuous
 62
     7
370
    15
100
AcDbLine
 10
2169.591842567858
 20
1027.018060220632
 30
0.0
 11
2170.576630508837
 21
1027.018060220632
 31
0.0
  0
LINE
  5
DBA
330
D17
100
AcDbEntity
  8
0
  6
Continuous
 62
     7
370
    15
100
AcDbLine
 10
2169.591842567858
 20
1022.018060332391
 30
0.0
 11
2170.576630508837
 21
1022.018060332391
 31
0.0
  0
LINE
  5
DBB
330
D17
100
AcDbEntity
  8
0
  6
Continuous
 62
     7
370
    15
100
AcDbLine
 10
2155.79455939525
 20
1022.018060332391
 30
0.0
 11
2155.79455939525
 21
1022.668060275953
 31
0.0
  0
LINE
  5
DBC
330
D17
100
AcDbEntity
  8
0
  6
Continuous
 62
     7
370
    15
100
AcDbLine
 10
2155.79455939525
 20
1022.668060275953
 30
0.0
 11
2156.633673584398
 21
1022.668060275953
 31
0.0
  0
LINE
  5
DBD
330
D17
100
AcDbEntity
  8
0
  6
Continuous
 62
     7
370
    15
100
AcDbLine
 10
2156.633673584398
 20
1026.368060277071
 30
0.0
 11
2156.633673584398
 21
1022.668060275953
 31
0.0
  0
LINE
  5
DBE
330
D17
100
AcDbEntity
  8
0
  6
Continuous
 62
     7
370
    15
100
AcDbLine
 10
2155.79455939525
 20
1026.368060277071
 30
0.0
 11
2156.633673584398
 21
1026.368060277071
 31
0.0
  0
LINE
  5
DBF
330
D17
100
AcDbEntity
  8
0
  6
Continuous
 62
     7
370
    15
100
AcDbLine
 10
2155.79455939525
 20
1026.368060277071
 30
0.0
 11
2155.79455939525
 21
1027.018060220632
 31
0.0
  0
LINE
  5
DC0
330
D17
100
AcDbEntity
  8
0
  6
Continuous
 62
     7
370
    15
100
AcDbLine
 10
2156.779466545519
 20
1027.018060220632
 30
0.0
 11
2155.79455939525
 21
1027.018060220632
 31
0.0
  0
LINE
  5
DC1
330
D17
100
AcDbEntity
  8
0
  6
Continuous
 62
     7
370
    15
100
AcDbLine
 10
2156.779466545519
 20
1022.018060332391
 30
0.0
 11
2155.79455939525
 21
1022.018060332391
 31
0.0
  0
LINE
  5
DC2
330
D17
100
AcDbEntity
  8
0
  6
Continuous
 62
     7
370
    15
100
AcDbLine
 10
2158.422647392687
 20
1022.018060332391
 30
0.0
 11
2158.422647392687
 21
1027.018060220632
 31
0.0
  0
LINE
  5
DC3
330
D17
100
AcDbEntity
  8
0
  6
Continuous
 62
     7
370
    15
100
AcDbLine
 10
2158.422647392687
 20
1027.018060220632
 30
0.0
 11
2157.938180839952
 21
1027.018060220632
 31
0.0
  0
LINE
  5
DC4
330
D17
100
AcDbEntity
  8
0
  6
Continuous
 62
     7
370
    15
100
AcDbLine
 10
2158.422647392687
 20
1022.018060332391
 30
0.0
 11
2157.938180839952
 21
1022.018060332391
 31
0.0
  0
LINE
  5
DC5
330
D17
100
AcDbEntity
  8
0
  6
Continuous
 62
     7
370
    15
100
AcDbLine
 10
2167.9485425114
 20
1022.018060332391
 30
0.0
 11
2167.9485425114
 21
1027.018060220632
 31
0.0
  0
LINE
  5
DC6
330
D17
100
AcDbEntity
  8
0
  6
Continuous
 62
     7
370
    15
100
AcDbLine
 10
2167.9485425114
 20
1027.018060220632
 30
0.0
 11
2168.433009064135
 21
1027.018060220632
 31
0.0
  0
LINE
  5
DC7
330
D17
100
AcDbEntity
  8
0
  6
Continuous
 62
     7
370
    15
100
AcDbLine
 10
2167.9485425114
 20
1022.018060332391
 30
0.0
 11
2168.433009064135
 21
1022.018060332391
 31
0.0
  0
LINE
  5
DC8
330
D17
100
AcDbEntity
  8
0
  6
Continuous
 62
     7
370
    15
100
AcDbLine
 10
2172.062335884508
 20
1026.368060277071
 30
0.0
 11
2172.062335884508
 21
1027.018060220632
 31
0.0
  0
LINE
  5
DC9
330
D17
100
AcDbEntity
  8
0
  6
Continuous
 62
     7
370
    15
100
AcDbLine
 10
2172.062335884508
 20
1022.018060332391
 30
0.0
 11
2172.062335884508
 21
1022.668060275953
 31
0.0
  0
LINE
  5
DCA
330
D17
100
AcDbEntity
  8
0
  6
Continuous
 62
     7
370
    15
100
AcDbLine
 10
2172.062335884508
 20
1022.668060275953
 30
0.0
 11
2172.63763991588
 21
1022.668060275953
 31
0.0
  0
LINE
  5
DCB
330
D17
100
AcDbEntity
  8
0
  6
Continuous
 62
     7
370
    15
100
AcDbLine
 10
2172.63763991588
 20
1026.368060277071
 30
0.0
 11
2172.63763991588
 21
1022.668060275953
 31
0.0
  0
LINE
  5
DCC
330
D17
100
AcDbEntity
  8
0
  6
Continuous
 62
     7
370
    15
100
AcDbLine
 10
2172.062335884508
 20
1026.368060277071
 30
0.0
 11
2172.63763991588
 21
1026.368060277071
 31
0.0
  0
LINE
  5
DCD
330
D17
100
AcDbEntity
  8
0
  6
Continuous
 62
     7
370
    15
100
AcDbLine
 10
2173.002062714037
 20
1027.018060220632
 30
0.0
 11
2172.062335884508
 21
1027.018060220632
 31
0.0
  0
LINE
  5
DCE
330
D17
100
AcDbEntity
  8
0
  6
Continuous
 62
     7
370
    15
100
AcDbLine
 10
2173.002062714037
 20
1022.018060332391
 30
0.0
 11
2172.062335884508
 21
1022.018060332391
 31
0.0
  0
LINE
  5
DCF
330
D17
100
AcDbEntity
  8
0
  6
Continuous
 62
     7
370
    15
100
AcDbLine
 10
2153.733669197496
 20
1026.368060277071
 30
0.0
 11
2153.733669197496
 21
1022.668060275953
 31
0.0
  0
LINE
  5
DD0
330
D17
100
AcDbEntity
  8
0
  6
Continuous
 62
     7
370
    15
100
AcDbLine
 10
2154.308854019579
 20
1022.668060275953
 30
0.0
 11
2153.733669197496
 21
1022.668060275953
 31
0.0
  0
LINE
  5
DD1
330
D17
100
AcDbEntity
  8
0
  6
Continuous
 62
     7
370
    15
100
AcDbLine
 10
2154.308854019579
 20
1022.018060332391
 30
0.0
 11
2154.308854019579
 21
1022.668060275953
 31
0.0
  0
LINE
  5
DD2
330
D17
100
AcDbEntity
  8
0
  6
Continuous
 62
     7
370
    15
100
AcDbLine
 10
2154.308854019579
 20
1026.368060277071
 30
0.0
 11
2154.308854019579
 21
1027.018060220632
 31
0.0
  0
LINE
  5
DD3
330
D17
100
AcDbEntity
  8
0
  6
Continuous
 62
     7
370
    15
100
AcDbLine
 10
2154.308854019579
 20
1026.368060277071
 30
0.0
 11
2153.733669197496
 21
1026.368060277071
 31
0.0
  0
LINE
  5
DD4
330
D17
100
AcDbEntity
  8
0
  6
Continuous
 62
     7
370
    15
100
AcDbLine
 10
2153.36924639934
 20
1027.018060220632
 30
0.0
 11
2154.308854019579
 21
1027.018060220632
 31
0.0
  0
LINE
  5
DD5
330
D17
100
AcDbEntity
  8
0
  6
Continuous
 62
     7
370
    15
100
AcDbLine
 10
2153.36924639934
 20
1022.018060332391
 30
0.0
 11
2154.308854019579
 21
1022.018060332391
 31
0.0
  0
LINE
  5
DD6
330
D17
100
AcDbEntity
  8
0
  6
Continuous
 62
     7
370
    15
100
AcDbLine
 10
2166.007457649645
 20
1022.018060332391
 30
0.0
 11
2166.007457649645
 21
1027.018060220632
 31
0.0
  0
LINE
  5
DD7
330
D17
100
AcDbEntity
  8
0
  6
Continuous
 62
     7
370
    15
100
AcDbLine
 10
2167.9485425114
 20
1027.018060220632
 30
0.0
 11
2166.007457649645
 21
1027.018060220632
 31
0.0
  0
LINE
  5
DD8
330
D17
100
AcDbEntity
  8
0
  6
Continuous
 62
     7
370
    15
100
AcDbLine
 10
2167.9485425114
 20
1022.018060332391
 30
0.0
 11
2166.007457649645
 21
1022.018060332391
 31
0.0
  0
LINE
  5
DD9
330
D17
100
AcDbEntity
  8
0
  6
Continuous
 62
     7
370
    15
100
AcDbLine
 10
2160.363851463732
 20
1022.018060332391
 30
0.0
 11
2160.363851463732
 21
1027.018060220632
 31
0.0
  0
LINE
  5
DDA
330
D17
100
AcDbEntity
  8
0
  6
Continuous
 62
     7
370
    15
100
AcDbLine
 10
2158.422647392687
 20
1027.018060220632
 30
0.0
 11
2160.363851463732
 21
1027.018060220632
 31
0.0
  0
LINE
  5
DDB
330
D17
100
AcDbEntity
  8
0
  6
Continuous
 62
     7
370
    15
100
AcDbLine
 10
2158.422647392687
 20
1022.018060332391
 30
0.0
 11
2160.363851463732
 21
1022.018060332391
 31
0.0
  0
LINE
  5
DDC
330
D17
100
AcDbEntity
  8
0
  6
Continuous
 62
     7
370
    15
100
AcDbLine
 10
2165.594039833483
 20
1022.018060332391
 30
0.0
 11
2165.594039833483
 21
1027.018060220632
 31
0.0
  0
LINE
  5
DDD
330
D17
100
AcDbEntity
  8
0
  6
Continuous
 62
     7
370
    15
100
AcDbLine
 10
2165.594039833483
 20
1027.018060220632
 30
0.0
 11
2166.007457649645
 21
1027.018060220632
 31
0.0
  0
LINE
  5
DDE
330
D17
100
AcDbEntity
  8
0
  6
Continuous
 62
     7
370
    15
100
AcDbLine
 10
2165.594039833483
 20
1022.018060332391
 30
0.0
 11
2166.007457649645
 21
1022.018060332391
 31
0.0
  0
LINE
  5
DDF
330
D17
100
AcDbEntity
  8
0
  6
Continuous
 62
     7
370
    15
100
AcDbLine
 10
2160.974083816942
 20
1022.018060332391
 30
0.0
 11
2160.974083816942
 21
1027.018060220632
 31
0.0
  0
LINE
  5
DE0
330
D17
100
AcDbEntity
  8
0
  6
Continuous
 62
     7
370
    15
100
AcDbLine
 10
2160.777269279894
 20
1022.018060332391
 30
0.0
 11
2160.777269279894
 21
1027.018060220632
 31
0.0
  0
LINE
  5
DE1
330
D17
100
AcDbEntity
  8
0
  6
Continuous
 62
     7
370
    15
100
AcDbLine
 10
2160.974083816942
 20
1027.018060220632
 30
0.0
 11
2160.777269279894
 21
1027.018060220632
 31
0.0
  0
LINE
  5
DE2
330
D17
100
AcDbEntity
  8
0
  6
Continuous
 62
     7
370
    15
100
AcDbLine
 10
2160.974083816942
 20
1022.018060332391
 30
0.0
 11
2160.777269279894
 21
1022.018060332391
 31
0.0
  0
LINE
  5
DE3
330
D17
100
AcDbEntity
  8
0
  6
Continuous
 62
     7
370
    15
100
AcDbLine
 10
2165.397225296434
 20
1022.018060332391
 30
0.0
 11
2165.397225296434
 21
1027.018060220632
 31
0.0
  0
LINE
  5
DE4
330
D17
100
AcDbEntity
  8
0
  6
Continuous
 62
     7
370
    15
100
AcDbLine
 10
2165.397225296434
 20
1027.018060220632
 30
0.0
 11
2165.594039833483
 21
1027.018060220632
 31
0.0
  0
LINE
  5
DE5
330
D17
100
AcDbEntity
  8
0
  6
Continuous
 62
     7
370
    15
100
AcDbLine
 10
2165.397225296434
 20
1022.018060332391
 30
0.0
 11
2165.594039833483
 21
1022.018060332391
 31
0.0
  0
LINE
  5
DE6
330
D17
100
AcDbEntity
  8
0
  6
Continuous
 62
     7
370
    15
100
AcDbLine
 10
2160.777269279894
 20
1027.018060220632
 30
0.0
 11
2160.363851463732
 21
1027.018060220632
 31
0.0
  0
LINE
  5
DE7
330
D17
100
AcDbEntity
  8
0
  6
Continuous
 62
     7
370
    15
100
AcDbLine
 10
2160.777269279894
 20
1022.018060332391
 30
0.0
 11
2160.363851463732
 21
1022.018060332391
 31
0.0
  0
LINE
  5
DE8
330
D17
100
AcDbEntity
  8
0
  6
Continuous
 62
     7
370
    15
100
AcDbLine
 10
2161.001025116381
 20
1022.018060332391
 30
0.0
 11
2161.001025116381
 21
1027.018060220632
 31
0.0
  0
LINE
  5
DE9
330
D17
100
AcDbEntity
  8
0
  6
Continuous
 62
     7
370
    15
100
AcDbLine
 10
2161.001025116381
 20
1027.018060220632
 30
0.0
 11
2160.974083816942
 21
1027.018060220632
 31
0.0
  0
LINE
  5
DEA
330
D17
100
AcDbEntity
  8
0
  6
Continuous
 62
     7
370
    15
100
AcDbLine
 10
2161.001025116381
 20
1022.018060332391
 30
0.0
 11
2160.974083816942
 21
1022.018060332391
 31
0.0
  0
LINE
  5
DEB
330
D17
100
AcDbEntity
  8
0
  6
Continuous
 62
     7
370
    15
100
AcDbLine
 10
2165.370283996996
 20
1022.018060332391
 30
0.0
 11
2165.370283996996
 21
1027.018060220632
 31
0.0
  0
LINE
  5
DEC
330
D17
100
AcDbEntity
  8
0
  6
Continuous
 62
     7
370
    15
100
AcDbLine
 10
2165.370283996996
 20
1027.018060220632
 30
0.0
 11
2165.397225296434
 21
1027.018060220632
 31
0.0
  0
LINE
  5
DED
330
D17
100
AcDbEntity
  8
0
  6
Continuous
 62
     7
370
    15
100
AcDbLine
 10
2165.370283996996
 20
1022.018060332391
 30
0.0
 11
2165.397225296434
 21
1022.018060332391
 31
0.0
  0
LINE
  5
DEE
330
D17
100
AcDbEntity
  8
0
  6
Continuous
 62
     7
370
    15
100
AcDbLine
 10
2172.062335884508
 20
1026.368060277071
 30
0.0
 11
2170.576630508837
 21
1026.368060277071
 31
0.0
  0
LINE
  5
DEF
330
D17
100
AcDbEntity
  8
0
  6
Continuous
 62
     7
370
    15
100
AcDbLine
 10
2170.576630508837
 20
1027.018060220632
 30
0.0
 11
2172.062335884508
 21
1027.018060220632
 31
0.0
  0
LINE
  5
DF0
330
D17
100
AcDbEntity
  8
0
  6
Continuous
 62
     7
370
    15
100
AcDbLine
 10
2154.308854019579
 20
1026.368060277071
 30
0.0
 11
2155.79455939525
 21
1026.368060277071
 31
0.0
  0
LINE
  5
DF1
330
D17
100
AcDbEntity
  8
0
  6
Continuous
 62
     7
370
    15
100
AcDbLine
 10
2155.79455939525
 20
1027.018060220632
 30
0.0
 11
2154.308854019579
 21
1027.018060220632
 31
0.0
  0
LINE
  5
DF2
330
D17
100
AcDbEntity
  8
0
  6
Continuous
 62
     7
370
    15
100
AcDbLine
 10
2154.308854019579
 20
1022.668060275953
 30
0.0
 11
2155.79455939525
 21
1022.668060275953
 31
0.0
  0
LINE
  5
DF3
330
D17
100
AcDbEntity
  8
0
  6
Continuous
 62
     7
370
    15
100
AcDbLine
 10
2155.79455939525
 20
1022.018060332391
 30
0.0
 11
2154.308854019579
 21
1022.018060332391
 31
0.0
  0
LINE
  5
DF4
330
D17
100
AcDbEntity
  8
0
  6
Continuous
 62
     7
370
    15
100
AcDbLine
 10
2172.062335884508
 20
1022.668060275953
 30
0.0
 11
2170.576630508837
 21
1022.668060275953
 31
0.0
  0
LINE
  5
DF5
330
D17
100
AcDbEntity
  8
0
  6
Continuous
 62
     7
370
    15
100
AcDbLine
 10
2170.576630508837
 20
1022.018060332391
 30
0.0
 11
2172.062335884508
 21
1022.018060332391
 31
0.0
  0
LINE
  5
DF6
330
D17
100
AcDbEntity
  8
0
  6
Continuous
 62
     7
370
    15
100
AcDbLine
 10
2161.00114432567
 20
1027.018060220632
 30
0.0
 11
2161.001025116381
 21
1027.018060220632
 31
0.0
  0
LINE
  5
DF7
330
D17
100
AcDbEntity
  8
0
  6
Continuous
 62
     7
370
    15
100
AcDbLine
 10
2161.00114432567
 20
1022.018060332391
 30
0.0
 11
2161.001025116381
 21
1022.018060332391
 31
0.0
  0
LINE
  5
DF8
330
D17
100
AcDbEntity
  8
0
  6
Continuous
 62
     7
370
    15
100
AcDbLine
 10
2165.370164787706
 20
1027.018060220632
 30
0.0
 11
2165.370283996996
 21
1027.018060220632
 31
0.0
  0
LINE
  5
DF9
330
D17
100
AcDbEntity
  8
0
  6
Continuous
 62
     7
370
    15
100
AcDbLine
 10
2165.370164787706
 20
1022.018060332391
 30
0.0
 11
2165.370283996996
 21
1022.018060332391
 31
0.0
  0
LINE
  5
DFA
330
D17
100
AcDbEntity
  8
0
  6
Continuous
 62
     7
370
    15
100
AcDbLine
 10
2162.310539162096
 20
1022.018060332391
 30
0.0
 11
2162.310539162096
 21
1026.518060371507
 31
0.0
  0
LINE
  5
DFB
330
D17
100
AcDbEntity
  8
0
  6
Continuous
 62
     7
370
    15
100
AcDbLine
 10
2161.00114432567
 20
1026.518060371507
 30
0.0
 11
2162.310539162096
 21
1026.518060371507
 31
0.0
  0
LINE
  5
DFC
330
D17
100
AcDbEntity
  8
0
  6
Continuous
 62
     7
370
    15
100
AcDbLine
 10
2165.370164787706
 20
1026.518060371507
 30
0.0
 11
2164.060769951281
 21
1026.518060371507
 31
0.0
  0
LINE
  5
DFD
330
D17
100
AcDbEntity
  8
0
  6
Continuous
 62
     7
370
    15
100
AcDbLine
 10
2164.060769951281
 20
1022.018060332391
 30
0.0
 11
2164.060769951281
 21
1026.518060371507
 31
0.0
  0
LINE
  5
DFE
330
D17
100
AcDbEntity
  8
0
  6
Continuous
 62
     7
370
    15
100
AcDbLine
 10
2165.370164787706
 20
1027.018060220632
 30
0.0
 11
2161.00114432567
 21
1027.018060220632
 31
0.0
  0
LINE
  5
DFF
330
D17
100
AcDbEntity
  8
0
  6
Continuous
 62
     7
370
    15
100
AcDbLine
 10
2164.060769951281
 20
1022.018060332391
 30
0.0
 11
2162.310539162096
 21
1022.018060332391
 31
0.0
  0
LINE
  5
E00
330
D17
100
AcDbEntity
  8
0
  6
Continuous
 62
     7
370
    15
100
AcDbLine
 10
2164.678512489733
 20
1022.018060332391
 30
0.0
 11
2164.678512489733
 21
1026.518060371507
 31
0.0
  0
LINE
  5
E01
330
D17
100
AcDbEntity
  8
0
  6
Continuous
 62
     7
370
    15
100
AcDbLine
 10
2164.060769951281
 20
1022.018060332391
 30
0.0
 11
2164.678512489733
 21
1022.018060332391
 31
0.0
  0
LINE
  5
E02
330
D17
100
AcDbEntity
  8
0
  6
Continuous
 62
     7
370
    15
100
AcDbLine
 10
2161.692796623644
 20
1022.018060332391
 30
0.0
 11
2161.692796623644
 21
1026.518060371507
 31
0.0
  0
LINE
  5
E03
330
D17
100
AcDbEntity
  8
0
  6
Continuous
 62
     7
370
    15
100
AcDbLine
 10
2162.310539162096
 20
1022.018060332391
 30
0.0
 11
2161.692796623644
 21
1022.018060332391
 31
0.0
  0
LINE
  5
E04
330
D17
100
AcDbEntity
  8
0
  6
Continuous
 62
     7
370
    15
100
AcDbLine
 10
2161.125598823961
 20
1026.368060277071
 30
0.0
 11
2161.125598823961
 21
1026.518060371507
 31
0.0
  0
LINE
  5
E05
330
D17
100
AcDbEntity
  8
0
  6
Continuous
 62
     7
370
    15
100
AcDbLine
 10
2161.00114432567
 20
1022.018060332391
 30
0.0
 11
2161.692796623644
 21
1022.018060332391
 31
0.0
  0
LINE
  5
E06
330
D17
100
AcDbEntity
  8
0
  6
Continuous
 62
     7
370
    15
100
AcDbLine
 10
2165.245710289415
 20
1026.518060371507
 30
0.0
 11
2165.245710289415
 21
1026.368060277071
 31
0.0
  0
LINE
  5
E07
330
D17
100
AcDbEntity
  8
0
  6
Continuous
 62
     7
370
    15
100
AcDbLine
 10
2165.370164787706
 20
1022.018060332391
 30
0.0
 11
2164.678512489733
 21
1022.018060332391
 31
0.0
  0
LINE
  5
E08
330
D17
100
AcDbEntity
  8
0
  6
Continuous
 62
     7
370
    15
100
AcDbLine
 10
2165.245710289415
 20
1026.368060277071
 30
0.0
 11
2165.370164787706
 21
1026.368060277071
 31
0.0
  0
LINE
  5
E09
330
D17
100
AcDbEntity
  8
0
  6
Continuous
 62
     7
370
    15
100
AcDbLine
 10
2161.00114432567
 20
1026.368060277071
 30
0.0
 11
2161.125598823961
 21
1026.368060277071
 31
0.0
  0
LINE
  5
E0A
330
D17
100
AcDbEntity
  8
0
  6
Continuous
 62
     7
370
    15
100
AcDbLine
 10
2138.104020035204
 20
1022.018060332391
 30
0.0
 11
2138.104020035204
 21
1027.018060220632
 31
0.0
  0
LINE
  5
E0B
330
D17
100
AcDbEntity
  8
0
  6
Continuous
 62
     7
370
    15
100
AcDbLine
 10
2137.880979454454
 20
1022.018060332391
 30
0.0
 11
2137.880979454454
 21
1027.018060220632
 31
0.0
  0
LINE
  5
E0C
330
D17
100
AcDbEntity
  8
0
  6
Continuous
 62
     7
370
    15
100
AcDbLine
 10
2138.104020035204
 20
1027.018060220632
 30
0.0
 11
2137.880979454454
 21
1027.018060220632
 31
0.0
  0
LINE
  5
E0D
330
D17
100
AcDbEntity
  8
0
  6
Continuous
 62
     7
370
    15
100
AcDbLine
 10
2138.104020035204
 20
1022.018060332391
 30
0.0
 11
2137.880979454454
 21
1022.018060332391
 31
0.0
  0
LINE
  5
E0E
330
D17
100
AcDbEntity
  8
0
  6
Continuous
 62
     7
370
    15
100
AcDbLine
 10
2188.490329658922
 20
1022.018060332391
 30
0.0
 11
2188.490329658922
 21
1027.018060220632
 31
0.0
  0
LINE
  5
E0F
330
D17
100
AcDbEntity
  8
0
  6
Continuous
 62
     7
370
    15
100
AcDbLine
 10
2188.267289078173
 20
1022.018060332391
 30
0.0
 11
2188.267289078173
 21
1027.018060220632
 31
0.0
  0
LINE
  5
E10
330
D17
100
AcDbEntity
  8
0
  6
Continuous
 62
     7
370
    15
100
AcDbLine
 10
2188.267289078173
 20
1027.018060220632
 30
0.0
 11
2188.490329658922
 21
1027.018060220632
 31
0.0
  0
LINE
  5
E11
330
D17
100
AcDbEntity
  8
0
  6
Continuous
 62
     7
370
    15
100
AcDbLine
 10
2188.267289078173
 20
1022.018060332391
 30
0.0
 11
2188.490329658922
 21
1022.018060332391
 31
0.0
  0
LINE
  5
E12
330
D17
100
AcDbEntity
  8
0
  6
Continuous
 62
     7
370
    15
100
AcDbLine
 10
2138.711868202623
 20
1022.018060332391
 30
0.0
 11
2138.711868202623
 21
1027.018060220632
 31
0.0
  0
LINE
  5
E13
330
D17
100
AcDbEntity
  8
0
  6
Continuous
 62
     7
370
    15
100
AcDbLine
 10
2138.711868202623
 20
1027.018060220632
 30
0.0
 11
2138.104020035204
 21
1027.018060220632
 31
0.0
  0
LINE
  5
E14
330
D17
100
AcDbEntity
  8
0
  6
Continuous
 62
     7
370
    15
100
AcDbLine
 10
2138.711868202623
 20
1022.018060332391
 30
0.0
 11
2138.104020035204
 21
1022.018060332391
 31
0.0
  0
LINE
  5
E15
330
D17
100
AcDbEntity
  8
0
  6
Continuous
 62
     7
370
    15
100
AcDbLine
 10
2187.659440910753
 20
1022.018060332391
 30
0.0
 11
2187.659440910753
 21
1027.018060220632
 31
0.0
  0
LINE
  5
E16
330
D17
100
AcDbEntity
  8
0
  6
Continuous
 62
     7
370
    15
100
AcDbLine
 10
2187.659440910753
 20
1027.018060220632
 30
0.0
 11
2188.267289078173
 21
1027.018060220632
 31
0.0
  0
LINE
  5
E17
330
D17
100
AcDbEntity
  8
0
  6
Continuous
 62
     7
370
    15
100
AcDbLine
 10
2187.659440910753
 20
1022.018060332391
 30
0.0
 11
2188.267289078173
 21
1022.018060332391
 31
0.0
  0
LINE
  5
E18
330
D17
100
AcDbEntity
  8
0
  6
Continuous
 62
     7
370
    15
100
AcDbLine
 10
2187.652884399828
 20
1027.018060220632
 30
0.0
 11
2187.659440910753
 21
1027.018060220632
 31
0.0
  0
LINE
  5
E19
330
D17
100
AcDbEntity
  8
0
  6
Continuous
 62
     7
370
    15
100
AcDbLine
 10
2187.652884399828
 20
1022.018060332391
 30
0.0
 11
2187.659440910753
 21
1022.018060332391
 31
0.0
  0
LINE
  5
E1A
330
D17
100
AcDbEntity
  8
0
  6
Continuous
 62
     7
370
    15
100
AcDbLine
 10
2138.718424713549
 20
1027.018060220632
 30
0.0
 11
2138.711868202623
 21
1027.018060220632
 31
0.0
  0
LINE
  5
E1B
330
D17
100
AcDbEntity
  8
0
  6
Continuous
 62
     7
370
    15
100
AcDbLine
 10
2138.718424713549
 20
1022.018060332391
 30
0.0
 11
2138.711868202623
 21
1022.018060332391
 31
0.0
  0
LINE
  5
E1C
330
D17
100
AcDbEntity
  8
0
  6
Continuous
 62
     7
370
    15
100
AcDbLine
 10
2137.409983551439
 20
1027.018060220632
 30
0.0
 11
2137.409983551439
 21
1022.018060332391
 31
0.0
  0
LINE
  5
E1D
330
D17
100
AcDbEntity
  8
0
  6
Continuous
 62
     7
370
    15
100
AcDbLine
 10
2137.880979454454
 20
1027.018060220632
 30
0.0
 11
2137.409983551439
 21
1027.018060220632
 31
0.0
  0
LINE
  5
E1E
330
D17
100
AcDbEntity
  8
0
  6
Continuous
 62
     7
370
    15
100
AcDbLine
 10
2137.880979454454
 20
1022.018060332391
 30
0.0
 11
2137.409983551439
 21
1022.018060332391
 31
0.0
  0
LINE
  5
E1F
330
D17
100
AcDbEntity
  8
0
  6
Continuous
 62
     7
370
    15
100
AcDbLine
 10
2188.961325561937
 20
1022.018060332391
 30
0.0
 11
2188.961325561937
 21
1027.018060220632
 31
0.0
  0
LINE
  5
E20
330
D17
100
AcDbEntity
  8
0
  6
Continuous
 62
     7
370
    15
100
AcDbLine
 10
2188.490329658922
 20
1027.018060220632
 30
0.0
 11
2188.961325561937
 21
1027.018060220632
 31
0.0
  0
LINE
  5
E21
330
D17
100
AcDbEntity
  8
0
  6
Continuous
 62
     7
370
    15
100
AcDbLine
 10
2188.961325561937
 20
1022.018060332391
 30
0.0
 11
2188.490329658922
 21
1022.018060332391
 31
0.0
  0
LINE
  5
E22
330
D17
100
AcDbEntity
  8
0
  6
Continuous
 62
     7
370
    15
100
AcDbLine
 10
2137.406168854174
 20
1027.018060220632
 30
0.0
 11
2137.409983551439
 21
1027.018060220632
 31
0.0
  0
LINE
  5
E23
330
D17
100
AcDbEntity
  8
0
  6
Continuous
 62
     7
370
    15
100
AcDbLine
 10
2137.406168854174
 20
1022.018060332391
 30
0.0
 11
2137.409983551439
 21
1022.018060332391
 31
0.0
  0
LINE
  5
E24
330
D17
100
AcDbEntity
  8
0
  6
Continuous
 62
     7
370
    15
100
AcDbLine
 10
2188.961325561937
 20
1027.018060220632
 30
0.0
 11
2188.965140259203
 21
1027.018060220632
 31
0.0
  0
LINE
  5
E25
330
D17
100
AcDbEntity
  8
0
  6
Continuous
 62
     7
370
    15
100
AcDbLine
 10
2188.961325561937
 20
1022.018060332391
 30
0.0
 11
2188.965140259203
 21
1022.018060332391
 31
0.0
  0
LINE
  5
E26
330
D17
100
AcDbEntity
  8
0
  6
Continuous
 62
     7
370
    15
100
AcDbLine
 10
2137.353597557482
 20
1027.018060220632
 30
0.0
 11
2137.353597557482
 21
1022.018060332391
 31
0.0
  0
LINE
  5
E27
330
D17
100
AcDbEntity
  8
0
  6
Continuous
 62
     7
370
    15
100
AcDbLine
 10
2137.353597557482
 20
1027.018060220632
 30
0.0
 11
2137.406168854174
 21
1027.018060220632
 31
0.0
  0
LINE
  5
E28
330
D17
100
AcDbEntity
  8
0
  6
Continuous
 62
     7
370
    15
100
AcDbLine
 10
2137.353597557482
 20
1022.018060332391
 30
0.0
 11
2137.406168854174
 21
1022.018060332391
 31
0.0
  0
LINE
  5
E29
330
D17
100
AcDbEntity
  8
0
  6
Continuous
 62
     7
370
    15
100
AcDbLine
 10
2189.017711555895
 20
1027.018060220632
 30
0.0
 11
2189.017711555895
 21
1022.018060332391
 31
0.0
  0
LINE
  5
E2A
330
D17
100
AcDbEntity
  8
0
  6
Continuous
 62
     7
370
    15
100
AcDbLine
 10
2188.965140259203
 20
1027.018060220632
 30
0.0
 11
2189.017711555895
 21
1027.018060220632
 31
0.0
  0
LINE
  5
E2B
330
D17
100
AcDbEntity
  8
0
  6
Continuous
 62
     7
370
    15
100
AcDbLine
 10
2188.965140259203
 20
1022.018060332391
 30
0.0
 11
2189.017711555895
 21
1022.018060332391
 31
0.0
  0
LINE
  5
E2C
330
D17
100
AcDbEntity
  8
0
  6
Continuous
 62
     7
370
    15
100
AcDbLine
 10
2137.189088737902
 20
1027.018060220632
 30
0.0
 11
2137.353597557482
 21
1027.018060220632
 31
0.0
  0
LINE
  5
E2D
330
D17
100
AcDbEntity
  8
0
  6
Continuous
 62
     7
370
    15
100
AcDbLine
 10
2137.189088737902
 20
1022.018060332391
 30
0.0
 11
2137.353597557482
 21
1022.018060332391
 31
0.0
  0
LINE
  5
E2E
330
D17
100
AcDbEntity
  8
0
  6
Continuous
 62
     7
370
    15
100
AcDbLine
 10
2189.017711555895
 20
1027.018060220632
 30
0.0
 11
2189.182101166185
 21
1027.018060220632
 31
0.0
  0
LINE
  5
E2F
330
D17
100
AcDbEntity
  8
0
  6
Continuous
 62
     7
370
    15
100
AcDbLine
 10
2189.017711555895
 20
1022.018060332391
 30
0.0
 11
2189.182101166185
 21
1022.018060332391
 31
0.0
  0
LINE
  5
E30
330
D17
100
AcDbEntity
  8
0
  6
Continuous
 62
     7
370
    15
100
AcDbLine
 10
2137.185631668505
 20
1027.018060220632
 30
0.0
 11
2137.189088737902
 21
1027.018060220632
 31
0.0
  0
LINE
  5
E31
330
D17
100
AcDbEntity
  8
0
  6
Continuous
 62
     7
370
    15
100
AcDbLine
 10
2137.185631668505
 20
1022.018060332391
 30
0.0
 11
2137.189088737902
 21
1022.018060332391
 31
0.0
  0
LINE
  5
E32
330
D17
100
AcDbEntity
  8
0
  6
Continuous
 62
     7
370
    15
100
AcDbLine
 10
2189.182101166185
 20
1027.018060220632
 30
0.0
 11
2189.185677444872
 21
1027.018060220632
 31
0.0
  0
LINE
  5
E33
330
D17
100
AcDbEntity
  8
0
  6
Continuous
 62
     7
370
    15
100
AcDbLine
 10
2189.182101166185
 20
1022.018060332391
 30
0.0
 11
2189.185677444872
 21
1022.018060332391
 31
0.0
  0
ENDBLK
  5
D19
330
D17
100
AcDbEntity
  8
0
100
AcDbBlockEnd
  0
BLOCK
  5
E36
330
E35
100
AcDbEntity
  8
0
100
AcDbBlockBegin
  2
4
 70
     0
 10
0.0
 20
0.0
 30
0.0
  3
4
  1

  0
LINE
  5
E38
330
E35
100
AcDbEntity
  8
0
  6
Continuous
 62
     7
370
    15
100
AcDbLine
 10
2250.956067826105
 20
1055.27738173438
 30
0.0
 11
2254.491601653012
 21
1057.318401968317
 31
0.0
  0
LINE
  5
E39
330
E35
100
AcDbEntity
  8
0
  6
Continuous
 62
     7
370
    15
100
AcDbLine
 10
2254.454343838928
 20
1053.627926814615
 30
0.0
 11
2250.918810012021
 21
1051.586906580679
 31
0.0
  0
LINE
  5
E3A
330
E35
100
AcDbEntity
  8
0
  6
Continuous
 62
     7
370
    15
100
AcDbLine
 10
2251.871413082064
 20
1048.654067022408
 30
0.0
 11
2255.406946908971
 21
1050.695087256345
 31
0.0
  0
LINE
  5
E3B
330
E35
100
AcDbEntity
  8
0
  6
Continuous
 62
     7
370
    15
100
AcDbLine
 10
2252.02491190434
 20
1047.560280272598
 30
0.0
 11
2255.560445731248
 21
1049.601300506534
 31
0.0
  0
LINE
  5
E3C
330
E35
100
AcDbEntity
  8
0
  6
Continuous
 62
     7
370
    15
100
AcDbLine
 10
2252.027356421554
 20
1046.539873143448
 30
0.0
 11
2255.562890248462
 21
1048.580893377384
 31
0.0
  0
LINE
  5
E3D
330
E35
100
AcDbEntity
  8
0
  6
Continuous
 62
     7
370
    15
100
AcDbLine
 10
2245.209011149579
 20
1065.818508350288
 30
0.0
 11
2241.673477322672
 21
1063.777488116351
 31
0.0
  0
LINE
  5
E3E
330
E35
100
AcDbEntity
  8
0
  6
Continuous
 62
     7
370
    15
100
AcDbLine
 10
2251.981247769283
 20
1045.58292664945
 30
0.0
 11
2255.516781596191
 21
1047.623946883387
 31
0.0
  0
LINE
  5
E3F
330
E35
100
AcDbEntity
  8
0
  6
Continuous
 62
     7
370
    15
100
AcDbLine
 10
2251.789901077044
 20
1044.69692684062
 30
0.0
 11
2255.325434903951
 21
1046.737947074556
 31
0.0
  0
LINE
  5
E40
330
E35
100
AcDbEntity
  8
0
  6
Continuous
 62
     7
370
    15
100
AcDbLine
 10
2251.598638678502
 20
1043.810878370074
 30
0.0
 11
2255.134172505409
 21
1045.85189860401
 31
0.0
  0
LINE
  5
E41
330
E35
100
AcDbEntity
  8
0
  6
Continuous
 62
     7
370
    15
100
AcDbLine
 10
2251.407291986262
 20
1042.924829891618
 30
0.0
 11
2254.94282581317
 21
1044.965850125554
 31
0.0
  0
LINE
  5
E42
330
E35
100
AcDbEntity
  8
0
  6
Continuous
 62
     7
370
    15
100
AcDbLine
 10
2240.992218956064
 20
1066.027586741703
 30
0.0
 11
2237.456685129156
 21
1063.986566507766
 31
0.0
  0
LINE
  5
E43
330
E35
100
AcDbEntity
  8
0
  6
Continuous
 62
     7
370
    15
100
AcDbLine
 10
2238.834384606003
 20
1065.938610869318
 30
0.0
 11
2235.298850779096
 21
1063.897590635381
 31
0.0
  0
LINE
  5
E44
330
E35
100
AcDbEntity
  8
0
  6
Continuous
 62
     7
370
    15
100
AcDbLine
 10
2254.179122777883
 20
1036.325989613005
 30
0.0
 11
2251.138563680157
 21
1034.570712208018
 31
0.0
  0
LINE
  5
E45
330
E35
100
AcDbEntity
  8
0
  6
Continuous
 62
     7
370
    15
100
AcDbLine
 10
2251.836684078891
 20
1031.323223979794
 30
0.0
 11
2255.372217905799
 21
1033.36424421373
 31
0.0
  0
LINE
  5
E46
330
E35
100
AcDbEntity
  8
0
  6
Continuous
 62
     7
370
    15
100
AcDbLine
 10
2232.108502934215
 20
1065.008078127328
 30
0.0
 11
2235.644036761122
 21
1067.049098361264
 31
0.0
  0
LINE
  5
E47
330
E35
100
AcDbEntity
  8
0
  6
Continuous
 62
     7
370
    15
100
AcDbLine
 10
2229.932123970809
 20
1068.041694987597
 30
0.0
 11
2233.467657797717
 21
1070.082715221533
 31
0.0
  0
LINE
  5
E48
330
E35
100
AcDbEntity
  8
0
  6
Continuous
 62
     7
370
    15
100
AcDbLine
 10
2232.862091878312
 20
1070.709085143249
 30
0.0
 11
2229.326558051405
 21
1068.668064909312
 31
0.0
  0
LINE
  5
E49
330
E35
100
AcDbEntity
  8
0
  6
Continuous
 62
     7
370
    15
100
AcDbLine
 10
2244.395826561687
 20
1040.00122031313
 30
0.0
 11
2245.963347768067
 21
1040.906131044006
 31
0.0
  0
LINE
  5
E4A
330
E35
100
AcDbEntity
  8
0
  6
Continuous
 62
     7
370
    15
100
AcDbLine
 10
2246.002558269514
 20
1038.909607331118
 30
0.0
 11
2245.15935886931
 21
1038.422838678542
 31
0.0
  0
LINE
  5
E4B
330
E35
100
AcDbEntity
  8
0
  6
Continuous
 62
     7
370
    15
100
AcDbLine
 10
2220.474964513567
 20
1080.037403243863
 30
0.0
 11
2216.939430686659
 21
1077.996383009926
 31
0.0
  0
LINE
  5
E4C
330
E35
100
AcDbEntity
  8
0
  6
Continuous
 62
     7
370
    15
100
AcDbLine
 10
2217.055250226367
 20
1074.739373900529
 30
0.0
 11
2217.237165902707
 21
1074.844391585117
 31
0.0
  0
LINE
  5
E4D
330
E35
100
AcDbEntity
  8
0
  6
Continuous
 62
     7
370
    15
100
AcDbLine
 10
2217.530945241897
 20
1074.083204633521
 30
0.0
 11
2217.185399694568
 21
1073.883725435083
 31
0.0
  0
LINE
  5
E4E
330
E35
100
AcDbEntity
  8
0
  6
Continuous
 62
     7
370
    15
100
AcDbLine
 10
2216.797364608631
 20
1072.454551263464
 30
0.0
 11
2215.840578052283
 21
1071.902210141396
 31
0.0
  0
LINE
  5
E4F
330
E35
100
AcDbEntity
  8
0
  6
Continuous
 62
     7
370
    15
100
AcDbLine
 10
2215.542399306508
 20
1069.115988867441
 30
0.0
 11
2215.363897195625
 21
1069.012941792247
 31
0.0
  0
LINE
  5
E50
330
E35
100
AcDbEntity
  8
0
  6
Continuous
 62
     7
370
    15
100
AcDbLine
 10
2215.471403928008
 20
1068.058927871347
 30
0.0
 11
2215.361368384714
 21
1067.995405704311
 31
0.0
  0
LINE
  5
E51
330
E35
100
AcDbEntity
  8
0
  6
Continuous
 62
     7
370
    15
100
AcDbLine
 10
2215.451459084404
 20
1067.010564935281
 30
0.0
 11
2215.407561330682
 21
1066.98522330147
 31
0.0
  0
LINE
  5
E52
330
E35
100
AcDbEntity
  8
0
  6
Continuous
 62
     7
370
    15
100
AcDbLine
 10
2215.617404397881
 20
1065.889025688071
 30
0.0
 11
2215.598823729225
 21
1065.878299296373
 31
0.0
  0
LINE
  5
E53
330
E35
100
AcDbEntity
  8
0
  6
Continuous
 62
     7
370
    15
100
AcDbLine
 10
2215.80875109012
 20
1064.782101690884
 30
0.0
 11
2215.790170421464
 21
1064.771375299186
 31
0.0
  0
LINE
  5
E54
330
E35
100
AcDbEntity
  8
0
  6
Continuous
 62
     7
370
    15
100
AcDbLine
 10
2216.000097782361
 20
1063.675129024073
 30
0.0
 11
2215.981517113704
 21
1063.664402632374
 31
0.0
  0
LINE
  5
E55
330
E35
100
AcDbEntity
  8
0
  6
Continuous
 62
     7
370
    15
100
AcDbLine
 10
2216.191360180903
 20
1062.568253688601
 30
0.0
 11
2216.172779512246
 21
1062.557527296903
 31
0.0
  0
LINE
  5
E56
330
E35
100
AcDbEntity
  8
0
  6
Continuous
 62
     7
370
    15
100
AcDbLine
 10
2221.291935732379
 20
1049.912787340208
 30
0.0
 11
2224.438414140952
 21
1051.72921066182
 31
0.0
  0
LINE
  5
E57
330
E35
100
AcDbEntity
  8
0
  6
Continuous
 62
     7
370
    15
100
AcDbLine
 10
2217.208159435224
 20
1056.130188190932
 30
0.0
 11
2215.500284397406
 21
1055.144252917822
 31
0.0
  0
LINE
  5
E58
330
E35
100
AcDbEntity
  8
0
  6
Continuous
 62
     7
370
    15
100
AcDbLine
 10
2216.388824257712
 20
1071.56683052929
 30
0.0
 11
2215.959010696598
 21
1071.880271253408
 31
0.0
  0
ARC
  5
E59
330
E35
100
AcDbEntity
  8
0
  6
Continuous
 62
     7
370
    15
100
AcDbCircle
 10
2216.21271816673
 20
1071.32772742609
 30
0.0
 40
0.2969573188876156
100
AcDbArc
 50
356.212989447959
 51
53.62732011951823
  0
LINE
  5
E5A
330
E35
100
AcDbEntity
  8
0
  6
Continuous
 62
     7
370
    15
100
AcDbLine
 10
2216.504643797421
 20
1071.281637394281
 30
0.0
 11
2216.509027069665
 21
1071.308114081597
 31
0.0
  0
ARC
  5
E5B
330
E35
100
AcDbEntity
  8
0
  6
Continuous
 62
     7
370
    15
100
AcDbCircle
 10
2216.724335137662
 20
1071.266914365965
 30
0.0
 40
0.220184133260683
100
AcDbArc
 50
176.1659486378686
 51
232.1921727369691
  0
LINE
  5
E5C
330
E35
100
AcDbEntity
  8
0
  6
Continuous
 62
     7
370
    15
100
AcDbLine
 10
2216.902257166272
 20
1070.848612380002
 30
0.0
 11
2216.589358962928
 21
1071.0929532071
 31
0.0
  0
LWPOLYLINE
  5
E5D
330
E35
100
AcDbEntity
  8
0
  6
Continuous
 62
     7
370
    15
100
AcDbPolyline
 90
        9
 70
   128
 43
0.0
 10
2216.902257166272
 20
1070.848612380002
 10
2216.929736911501
 20
1070.830315179498
 10
2216.957132363034
 20
1070.818296352714
 10
2216.983347702807
 20
1070.813091162702
 10
2217.007371406458
 20
1070.814845523422
 10
2217.028360537017
 20
1070.82346201653
 10
2217.045387863815
 20
1070.838697206893
 10
2217.057863330975
 20
1070.859918334021
 10
2217.065281176313
 20
1070.886297966831
  0
LINE
  5
E5E
330
E35
100
AcDbEntity
  8
0
  6
Continuous
 62
     7
370
    15
100
AcDbLine
 10
2217.071940378378
 20
1070.926110344965
 30
0.0
 11
2217.065281176313
 21
1070.886297966831
 31
0.0
  0
ARC
  5
E5F
330
E35
100
AcDbEntity
  8
0
  6
Continuous
 62
     7
370
    15
100
AcDbCircle
 10
2215.431341322338
 20
1071.019999203879
 30
0.0
 40
1.643283414540559
100
AcDbArc
 50
356.7246268115645
 51
25.64822633835427
  0
ARC
  5
E60
330
E35
100
AcDbEntity
  8
0
  6
Continuous
 62
     7
370
    15
100
AcDbCircle
 10
2218.077396053655
 20
1072.287575866444
 30
0.0
 40
1.290718149708231
100
AcDbArc
 50
177.6253176203967
 51
205.5305801012299
  0
ARC
  5
E61
330
E35
100
AcDbEntity
  8
0
  6
Continuous
 62
     7
370
    15
100
AcDbCircle
 10
2223.777521808846
 20
1071.830585619231
 30
0.0
 40
7.008350862926568
100
AcDbArc
 50
165.1690936347879
 51
175.8230253480142
  0
ARC
  5
E62
330
E35
100
AcDbEntity
  8
0
  6
Continuous
 62
     7
370
    15
100
AcDbCircle
 10
2217.379417851157
 20
1073.54980394268
 30
0.0
 40
0.3840987829835039
100
AcDbArc
 50
105.1085772118087
 51
168.7871131309633
  0
ARC
  5
E63
330
E35
100
AcDbEntity
  8
0
  6
Continuous
 62
     7
370
    15
100
AcDbCircle
 10
2217.147431811149
 20
1074.402570268
 30
0.0
 40
0.4996603105228764
100
AcDbArc
 50
285.3028736375088
 51
350.4477631340116
  0
LINE
  5
E64
330
E35
100
AcDbEntity
  8
0
  6
Continuous
 62
     7
370
    15
100
AcDbLine
 10
2217.646823392066
 20
1074.359465647018
 30
0.0
 11
2217.640164190001
 21
1074.319653268884
 31
0.0
  0
ARC
  5
E65
330
E35
100
AcDbEntity
  8
0
  6
Continuous
 62
     7
370
    15
100
AcDbCircle
 10
2217.350646844883
 20
1074.37915395847
 30
0.0
 40
0.296830215289412
100
AcDbArc
 50
356.1968631270825
 51
52.17225619138616
  0
LINE
  5
E66
330
E35
100
AcDbEntity
  8
0
  6
Continuous
 62
     7
370
    15
100
AcDbLine
 10
2217.219875816651
 20
1074.857899884827
 30
0.0
 11
2217.532689726299
 21
1074.613607719444
 31
0.0
  0
LWPOLYLINE
  5
E67
330
E35
100
AcDbEntity
  8
0
  6
Continuous
 62
     7
370
    15
100
AcDbPolyline
 90
        9
 70
   128
 43
0.0
 10
2217.219875816651
 20
1074.857899884827
 10
2217.199392448274
 20
1074.871525457819
 10
2217.179077667292
 20
1074.880430093001
 10
2217.15960582328
 20
1074.8843218359
 10
2217.141735559511
 20
1074.883006079202
 10
2217.126225519259
 20
1074.876580233342
 10
2217.113581464706
 20
1074.865239024277
 10
2217.104309158034
 20
1074.849517865341
 10
2217.098830067727
 20
1074.829903492331
  0
LINE
  5
E68
330
E35
100
AcDbEntity
  8
0
  6
Continuous
 62
     7
370
    15
100
AcDbLine
 10
2217.094362501785
 20
1074.80347546673
 30
0.0
 11
2217.098830067727
 21
1074.829903492331
 31
0.0
  0
LWPOLYLINE
  5
E69
330
E35
100
AcDbEntity
  8
0
  6
Continuous
 62
     7
370
    15
100
AcDbPolyline
 90
        9
 70
   128
 43
0.0
 10
2216.925353639256
 20
1074.770607611202
 10
2216.953507734062
 20
1074.750558367473
 10
2216.981746122564
 20
1074.736982191784
 10
2217.008888693005
 20
1074.730560348151
 10
2217.03392392102
 20
1074.73148742016
 10
2217.055840282246
 20
1074.739665973647
 10
2217.073626252318
 20
1074.754852565571
 10
2217.086691775356
 20
1074.776414435441
 10
2217.094362501785
 20
1074.80347546673
  0
LINE
  5
E6A
330
E35
100
AcDbEntity
  8
0
  6
Continuous
 62
     7
370
    15
100
AcDbLine
 10
2216.50211498651
 20
1075.123276670045
 30
0.0
 11
2216.925353639256
 21
1074.770607611202
 31
0.0
  0
ARC
  5
E6B
330
E35
100
AcDbEntity
  8
0
  6
Continuous
 62
     7
370
    15
100
AcDbCircle
 10
2216.690811868162
 20
1075.353941850487
 30
0.0
 40
0.298014997296326
100
AcDbArc
 50
176.1758686728393
 51
230.7149343742153
  0
LINE
  5
E6C
330
E35
100
AcDbEntity
  8
0
  6
Continuous
 62
     7
370
    15
100
AcDbLine
 10
2216.792169597962
 20
1077.754675834026
 30
0.0
 11
2216.393460411049
 21
1075.373817704338
 31
0.0
  0
LWPOLYLINE
  5
E6D
330
E35
100
AcDbEntity
  8
0
  6
Continuous
 62
     7
370
    15
100
AcDbPolyline
 90
        9
 70
   128
 43
0.0
 10
2217.314369051012
 20
1077.959283267658
 10
2217.222320333864
 20
1078.003125962598
 10
2217.133053308718
 20
1078.027014372288
 10
2217.049265373878
 20
1078.030267375083
 10
2216.973485340256
 20
1078.012787869018
 10
2216.908157725064
 20
1077.975014110096
 10
2216.855136989638
 20
1077.918163012952
 10
2216.816024714219
 20
1077.843986834369
 10
2216.792169597962
 20
1077.754675834026
  0
LINE
  5
E6E
330
E35
100
AcDbEntity
  8
0
  6
Continuous
 62
     7
370
    15
100
AcDbLine
 10
2225.465316671928
 20
1073.25384136425
 30
0.0
 11
2217.314369051012
 21
1077.959283267658
 31
0.0
  0
ARC
  5
E6F
330
E35
100
AcDbEntity
  8
0
  6
Continuous
 62
     7
370
    15
100
AcDbCircle
 10
2225.040700006411
 20
1072.597423120226
 30
0.0
 40
0.781782721555538
100
AcDbArc
 50
14.51842096415387
 51
57.10242082986713
  0
LINE
  5
E70
330
E35
100
AcDbEntity
  8
0
  6
Continuous
 62
     7
370
    15
100
AcDbLine
 10
2226.753155775027
 20
1069.209905722625
 30
0.0
 11
2225.797518131891
 21
1072.793409213272
 31
0.0
  0
ARC
  5
E71
330
E35
100
AcDbEntity
  8
0
  6
Continuous
 62
     7
370
    15
100
AcDbCircle
 10
2228.266351636934
 20
1069.601629540108
 30
0.0
 40
1.563076858531129
100
AcDbArc
 50
194.5136544025981
 51
237.1100612280468
  0
LINE
  5
E72
330
E35
100
AcDbEntity
  8
0
  6
Continuous
 62
     7
370
    15
100
AcDbLine
 10
2228.468111040935
 20
1067.682619130055
 30
0.0
 11
2227.417558694952
 21
1068.289090090293
 31
0.0
  0
LWPOLYLINE
  5
E73
330
E35
100
AcDbEntity
  8
0
  6
Continuous
 62
     7
370
    15
100
AcDbPolyline
 90
        9
 70
   128
 43
0.0
 10
2229.164545565728
 20
1067.955331718133
 10
2229.132598254558
 20
1067.836282817577
 10
2229.080504749798
 20
1067.737381251406
 10
2229.009782337997
 20
1067.661596009119
 10
2228.922622655276
 20
1067.611263438366
 10
2228.821723099941
 20
1067.587892550629
 10
2228.70994965769
 20
1067.592262328832
 10
2228.590926957496
 20
1067.624129764961
 10
2228.468111040935
 20
1067.682619130055
  0
LINE
  5
E74
330
E35
100
AcDbEntity
  8
0
  6
Continuous
 62
     7
370
    15
100
AcDbLine
 10
2229.267636757186
 20
1068.571352835595
 30
0.0
 11
2229.164545565728
 21
1067.955331718133
 31
0.0
  0
LWPOLYLINE
  5
E75
330
E35
100
AcDbEntity
  8
0
  6
Continuous
 62
     7
370
    15
100
AcDbPolyline
 90
        9
 70
   128
 43
0.0
 10
2229.476600832104
 20
1068.653137413407
 10
2229.439764486505
 20
1068.670703691577
 10
2229.404023958968
 20
1068.680288254064
 10
2229.370475067554
 20
1068.681599185943
 10
2229.340213630322
 20
1068.674587920412
 10
2229.314082584246
 20
1068.659449215069
 10
2229.292840572596
 20
1068.636767176597
 10
2229.277246238647
 20
1068.60707724206
 10
2229.267636757186
 20
1068.571352835595
  0
LINE
  5
E76
330
E35
100
AcDbEntity
  8
0
  6
Continuous
 62
     7
370
    15
100
AcDbLine
 10
2229.807116418126
 20
1068.462334826944
 30
0.0
 11
2229.476600832104
 21
1068.653137413407
 31
0.0
  0
LWPOLYLINE
  5
E77
330
E35
100
AcDbEntity
  8
0
  6
Continuous
 62
     7
370
    15
100
AcDbPolyline
 90
        9
 70
   128
 43
0.0
 10
2229.895540506302
 20
1068.030400201847
 10
2229.940047578329
 20
1068.046903380972
 10
2229.970477602954
 20
1068.085793266721
 10
2229.983543125992
 20
1068.143029971743
 10
2229.977895448292
 20
1068.212480996732
 10
2229.954124625732
 20
1068.286748614048
 10
2229.914759469223
 20
1068.358045920972
 10
2229.863930369919
 20
1068.418732173941
 10
2229.807116418126
 20
1068.462334826944
  0
LINE
  5
E78
330
E35
100
AcDbEntity
  8
0
  6
Continuous
 62
     7
370
    15
100
AcDbLine
 10
2229.771797359074
 20
1068.019340585759
 30
0.0
 11
2229.895540506302
 21
1068.030400201847
 31
0.0
  0
LINE
  5
E79
330
E35
100
AcDbEntity
  8
0
  6
Continuous
 62
     7
370
    15
100
AcDbLine
 10
2229.771797359074
 20
1067.609737021447
 30
0.0
 11
2229.771797359074
 21
1068.019340585759
 31
0.0
  0
ARC
  5
E7A
330
E35
100
AcDbEntity
  8
0
  6
Continuous
 62
     7
370
    15
100
AcDbCircle
 10
2230.006305818617
 20
1067.62161294364
 30
0.0
 40
0.2348089758191665
100
AcDbArc
 50
182.8990827505851
 51
228.3833889733581
  0
LINE
  5
E7B
330
E35
100
AcDbEntity
  8
0
  6
Continuous
 62
     7
370
    15
100
AcDbLine
 10
2230.326449885477
 20
1067.02395278965
 30
0.0
 11
2229.850359084698
 21
1067.446068444139
 31
0.0
  0
ARC
  5
E7C
330
E35
100
AcDbEntity
  8
0
  6
Continuous
 62
     7
370
    15
100
AcDbCircle
 10
2235.976074527064
 20
1073.328366181809
 30
0.0
 40
8.465452546087293
100
AcDbArc
 50
228.1352734583149
 51
239.6534923381838
  0
LINE
  5
E7D
330
E35
100
AcDbEntity
  8
0
  6
Continuous
 62
     7
370
    15
100
AcDbLine
 10
2231.991418989052
 20
1065.854042563371
 30
0.0
 11
2231.69908844778
 21
1066.022801392714
 31
0.0
  0
ARC
  5
E7E
330
E35
100
AcDbEntity
  8
0
  6
Continuous
 62
     7
370
    15
100
AcDbCircle
 10
2231.826975652069
 20
1065.597879177453
 30
0.0
 40
0.3044031723927556
100
AcDbArc
 50
4.131229686736935
 51
57.30168433778121
  0
LINE
  5
E7F
330
E35
100
AcDbEntity
  8
0
  6
Continuous
 62
     7
370
    15
100
AcDbLine
 10
2232.149638258361
 20
1065.106345960133
 30
0.0
 11
2232.130587882835
 21
1065.619808716718
 31
0.0
  0
LWPOLYLINE
  5
E80
330
E35
100
AcDbEntity
  8
0
  6
Continuous
 62
     7
370
    15
100
AcDbPolyline
 90
        9
 70
   128
 43
0.0
 10
2232.009036371729
 20
1065.017948727953
 10
2232.037190466535
 20
1065.004956579854
 10
2232.064248743279
 20
1064.999118763812
 10
2232.089115383899
 20
1065.000581185878
 10
2232.110694570337
 20
1065.009392412852
 10
2232.128143365621
 20
1065.025114339014
 10
2232.140703126477
 20
1065.047162857677
 10
2232.147952384421
 20
1065.074661876043
 10
2232.149638258361
 20
1065.106345960133
  0
LINE
  5
E81
330
E35
100
AcDbEntity
  8
0
  6
Continuous
 62
     7
370
    15
100
AcDbLine
 10
2231.983495381532
 20
1065.032693227748
 30
0.0
 11
2232.009036371729
 21
1065.017948727953
 31
0.0
  0
ARC
  5
E82
330
E35
100
AcDbEntity
  8
0
  6
Continuous
 62
     7
370
    15
100
AcDbCircle
 10
2231.942748604885
 20
1064.982653033506
 30
0.0
 40
0.0645315492370125
100
AcDbArc
 50
50.84473019591754
 51
189.2460811002884
  0
LINE
  5
E83
330
E35
100
AcDbEntity
  8
0
  6
Continuous
 62
     7
370
    15
100
AcDbLine
 10
2231.879055490921
 20
1064.605461459253
 30
0.0
 11
2231.879055490921
 21
1064.972284423157
 31
0.0
  0
ARC
  5
E84
330
E35
100
AcDbEntity
  8
0
  6
Continuous
 62
     7
370
    15
100
AcDbCircle
 10
2232.184504149561
 20
1064.619310476563
 30
0.0
 40
0.3057624541132636
100
AcDbArc
 50
182.5960080732523
 51
237.3940829738019
  0
LINE
  5
E85
330
E35
100
AcDbEntity
  8
0
  6
Continuous
 62
     7
370
    15
100
AcDbLine
 10
2232.058095303396
 20
1064.339596097539
 30
0.0
 11
2232.019741671251
 21
1064.36173717809
 31
0.0
  0
ARC
  5
E86
330
E35
100
AcDbEntity
  8
0
  6
Continuous
 62
     7
370
    15
100
AcDbCircle
 10
2232.376608771569
 20
1064.863924559666
 30
0.0
 40
0.6134909661967231
100
AcDbArc
 50
238.7226021951591
 51
295.3005807712564
  0
ARC
  5
E87
330
E35
100
AcDbEntity
  8
0
  6
Continuous
 62
     7
370
    15
100
AcDbCircle
 10
2232.841346738814
 20
1063.886313260007
 30
0.0
 40
0.4689657402998652
100
AcDbArc
 50
60.03174938823065
 51
115.5889923821567
  0
ARC
  5
E88
330
E35
100
AcDbEntity
  8
0
  6
Continuous
 62
     7
370
    15
100
AcDbCircle
 10
2229.068914862184
 20
1055.922902408156
 30
0.0
 40
9.279280929612779
100
AcDbArc
 50
55.58651263719367
 51
64.4188638955222
  0
ARC
  5
E89
330
E35
100
AcDbEntity
  8
0
  6
Continuous
 62
     7
370
    15
100
AcDbCircle
 10
2233.441670385618
 20
1062.357963700127
 30
0.0
 40
1.499457548675819
100
AcDbArc
 50
29.24425884344602
 51
54.46268861526664
  0
ARC
  5
E8A
330
E35
100
AcDbEntity
  8
0
  6
Continuous
 62
     7
370
    15
100
AcDbCircle
 10
2236.421413544771
 20
1064.023202118578
 30
0.0
 40
1.914029530213309
100
AcDbArc
 50
209.1631391666961
 51
235.2575263833163
  0
LINE
  5
E8B
330
E35
100
AcDbEntity
  8
0
  6
Continuous
 62
     7
370
    15
100
AcDbLine
 10
2235.330629502872
 20
1062.450402316801
 30
0.0
 11
2235.369067428715
 21
1062.428212574535
 31
0.0
  0
ARC
  5
E8C
330
E35
100
AcDbEntity
  8
0
  6
Continuous
 62
     7
370
    15
100
AcDbCircle
 10
2235.42398499502
 20
1062.495554322029
 30
0.0
 40
0.0868956273037773
100
AcDbArc
 50
230.8025664843242
 51
9.237909343894774
  0
LINE
  5
E8D
330
E35
100
AcDbEntity
  8
0
  6
Continuous
 62
     7
370
    15
100
AcDbLine
 10
2235.509753609044
 20
1062.509504049369
 30
0.0
 11
2235.509753609044
 21
1062.876327013273
 31
0.0
  0
ARC
  5
E8E
330
E35
100
AcDbEntity
  8
0
  6
Continuous
 62
     7
370
    15
100
AcDbCircle
 10
2235.282909904372
 20
1062.866052870648
 30
0.0
 40
0.2270762522936629
100
AcDbArc
 50
2.593252427403177
 51
57.40674771830277
  0
LINE
  5
E8F
330
E35
100
AcDbEntity
  8
0
  6
Continuous
 62
     7
370
    15
100
AcDbLine
 10
2235.405229424737
 20
1063.057368210581
 30
0.0
 11
2235.379772728236
 21
1063.072064048661
 31
0.0
  0
ARC
  5
E90
330
E35
100
AcDbEntity
  8
0
  6
Continuous
 62
     7
370
    15
100
AcDbCircle
 10
2235.542856334904
 20
1063.328304065939
 30
0.0
 40
0.3037354263470202
100
AcDbArc
 50
181.0389386216815
 51
237.5253419111939
  0
LINE
  5
E91
330
E35
100
AcDbEntity
  8
0
  6
Continuous
 62
     7
370
    15
100
AcDbLine
 10
2235.239170841604
 20
1063.322796763739
 30
0.0
 11
2235.258221217131
 21
1063.814264424919
 31
0.0
  0
ARC
  5
E92
330
E35
100
AcDbEntity
  8
0
  6
Continuous
 62
     7
370
    15
100
AcDbCircle
 10
2235.342933766283
 20
1063.822417071692
 30
0.0
 40
0.085103946049145
100
AcDbArc
 50
50.21710030257716
 51
185.4971559332995
  0
LINE
  5
E93
330
E35
100
AcDbEntity
  8
0
  6
Continuous
 62
     7
370
    15
100
AcDbLine
 10
2235.397390110914
 20
1063.887817287001
 30
0.0
 11
2235.689720652185
 21
1063.719058457658
 31
0.0
  0
ARC
  5
E94
330
E35
100
AcDbEntity
  8
0
  6
Continuous
 62
     7
370
    15
100
AcDbCircle
 10
2238.601336641247
 20
1068.660838250536
 30
0.0
 40
5.735738417070511
100
AcDbArc
 50
239.4941022014061
 51
254.4351767447752
  0
LINE
  5
E95
330
E35
100
AcDbEntity
  8
0
  6
Continuous
 62
     7
370
    15
100
AcDbLine
 10
2237.062274920791
 20
1063.135443766005
 30
0.0
 11
2237.538450015267
 21
1063.007828020525
 31
0.0
  0
LWPOLYLINE
  5
E96
330
E35
100
AcDbEntity
  8
0
  6
Continuous
 62
     7
370
    15
100
AcDbPolyline
 90
        9
 70
   128
 43
0.0
 10
2237.617011740892
 20
1063.080791160147
 10
2237.615578748042
 20
1063.061663863045
 10
2237.611364063191
 20
1063.04467776843
 10
2237.604536273732
 20
1063.030270918747
 10
2237.595095379666
 20
1063.018881340619
 10
2237.583462849477
 20
1063.010752421722
 10
2237.569891564257
 20
1063.006127533907
 10
2237.554718698792
 20
1063.005201387314
 10
2237.538450015267
 20
1063.007828020525
  0
LINE
  5
E97
330
E35
100
AcDbEntity
  8
0
  6
Continuous
 62
     7
370
    15
100
AcDbLine
 10
2237.617011740892
 20
1063.080791160147
 30
0.0
 11
2237.617011740892
 21
1063.490394724459
 31
0.0
  0
LINE
  5
E98
330
E35
100
AcDbEntity
  8
0
  6
Continuous
 62
     7
370
    15
100
AcDbLine
 10
2237.617011740892
 20
1063.490394724459
 30
0.0
 11
2237.493268593664
 21
1063.644325137246
 31
0.0
  0
LWPOLYLINE
  5
E99
330
E35
100
AcDbEntity
  8
0
  6
Continuous
 62
     7
370
    15
100
AcDbPolyline
 90
        9
 70
   128
 43
0.0
 10
2237.493268593664
 20
1063.644325137246
 10
2237.448761521636
 20
1063.712215087936
 10
2237.418331497011
 20
1063.786238732273
 10
2237.405265973973
 20
1063.858560569099
 10
2237.410913651673
 20
1063.921490924212
 10
2237.434684474234
 20
1063.968313333988
 10
2237.474049630743
 20
1063.994160598637
 10
2237.524878730047
 20
1063.996160822717
 10
2237.581692681839
 20
1063.97416748323
  0
LINE
  5
E9A
330
E35
100
AcDbEntity
  8
0
  6
Continuous
 62
     7
370
    15
100
AcDbLine
 10
2237.581692681839
 20
1063.97416748323
 30
0.0
 11
2237.912208267862
 21
1063.783364896766
 31
0.0
  0
ARC
  5
E9B
330
E35
100
AcDbEntity
  8
0
  6
Continuous
 62
     7
370
    15
100
AcDbCircle
 10
2237.657447575306
 20
1063.389464506385
 30
0.0
 40
0.4691060946253705
100
AcDbArc
 50
8.686860187920373
 51
57.1066552754595
  0
LINE
  5
E9C
330
E35
100
AcDbEntity
  8
0
  6
Continuous
 62
     7
370
    15
100
AcDbLine
 10
2238.121172342779
 20
1063.46031553352
 30
0.0
 11
2238.224263534237
 21
1062.725267859953
 31
0.0
  0
ARC
  5
E9D
330
E35
100
AcDbEntity
  8
0
  6
Continuous
 62
     7
370
    15
100
AcDbCircle
 10
2239.770496975835
 20
1062.961694850681
 30
0.0
 40
1.564204455261843
100
AcDbArc
 50
188.693483506061
 51
237.0892099138344
  0
LINE
  5
E9E
330
E35
100
AcDbEntity
  8
0
  6
Continuous
 62
     7
370
    15
100
AcDbLine
 10
2238.920613765333
 20
1061.648517746719
 30
0.0
 11
2239.971166111316
 21
1061.042046786481
 31
0.0
  0
LWPOLYLINE
  5
E9F
330
E35
100
AcDbEntity
  8
0
  6
Continuous
 62
     7
370
    15
100
AcDbPolyline
 90
        9
 70
   128
 43
0.0
 10
2240.635653324939
 20
1061.195710474003
 10
2240.591146252911
 20
1061.107954963824
 10
2240.532224958693
 20
1061.037621826876
 10
2240.46015384774
 20
1060.986463288306
 10
2240.376787381385
 20
1060.955550253872
 10
2240.283980020964
 20
1060.945661611586
 10
2240.183839108902
 20
1060.957040907311
 10
2240.078724868716
 20
1060.989445014389
 10
2239.971166111316
 20
1061.042046786481
  0
LINE
  5
EA0
330
E35
100
AcDbEntity
  8
0
  6
Continuous
 62
     7
370
    15
100
AcDbLine
 10
2241.591290968075
 20
1063.675858227473
 30
0.0
 11
2240.635653324939
 21
1061.195710474003
 31
0.0
  0
LWPOLYLINE
  5
EA1
330
E35
100
AcDbEntity
  8
0
  6
Continuous
 62
     7
370
    15
100
AcDbPolyline
 90
        9
 70
   128
 43
0.0
 10
2241.923492428038
 20
1063.752738736903
 10
2241.869713049338
 20
1063.779015288137
 10
2241.817198076093
 20
1063.795168676006
 10
2241.767127620062
 20
1063.800906993493
 10
2241.720681793003
 20
1063.795987003208
 10
2241.679040706674
 20
1063.780506155133
 10
2241.64296300435
 20
1063.754951216706
 10
2241.613544504089
 20
1063.719760317374
 10
2241.591290968075
 20
1063.675858227473
  0
LINE
  5
EA2
330
E35
100
AcDbEntity
  8
0
  6
Continuous
 62
     7
370
    15
100
AcDbLine
 10
2250.074355755256
 20
1059.047345495211
 30
0.0
 11
2241.923492428038
 21
1063.752738736903
 31
0.0
  0
ARC
  5
EA3
330
E35
100
AcDbEntity
  8
0
  6
Continuous
 62
     7
370
    15
100
AcDbCircle
 10
2249.437241696884
 20
1058.062628028592
 30
0.0
 40
1.172852425687824
100
AcDbArc
 50
8.68695803142782
 51
57.0970566343862
  0
LINE
  5
EA4
330
E35
100
AcDbEntity
  8
0
  6
Continuous
 62
     7
370
    15
100
AcDbLine
 10
2250.995348688916
 20
1055.398572786568
 30
0.0
 11
2250.596639502004
 21
1058.239770744857
 31
0.0
  0
LWPOLYLINE
  5
EA5
330
E35
100
AcDbEntity
  8
0
  6
Continuous
 62
     7
370
    15
100
AcDbPolyline
 90
        9
 70
   128
 43
0.0
 10
2250.995348688916
 20
1055.398572786568
 10
2250.997456031342
 20
1055.366305022907
 10
2250.994505751946
 20
1055.337102971051
 10
2250.986413557033
 20
1055.312037354841
 10
2250.973685208782
 20
1055.291984274985
 10
2250.956657881983
 20
1055.277673807498
 10
2250.935921632516
 20
1055.269738712869
 10
2250.91231939735
 20
1055.268325079072
 10
2250.886694113455
 20
1055.273481654826
  0
LINE
  5
EA6
330
E35
100
AcDbEntity
  8
0
  6
Continuous
 62
     7
370
    15
100
AcDbLine
 10
2250.886694113455
 20
1055.273481654826
 30
0.0
 11
2250.463455460709
 21
1055.409473543003
 31
0.0
  0
ARC
  5
EA7
330
E35
100
AcDbEntity
  8
0
  6
Continuous
 62
     7
370
    15
100
AcDbCircle
 10
2250.584593258576
 20
1055.675909104124
 30
0.0
 40
0.2926811820076827
100
AcDbArc
 50
187.5457451297702
 51
245.5505696316402
  0
LINE
  5
EA8
330
E35
100
AcDbEntity
  8
0
  6
Continuous
 62
     7
370
    15
100
AcDbLine
 10
2250.29444659818
 20
1055.637474877674
 30
0.0
 11
2250.289979032238
 21
1055.669061045118
 31
0.0
  0
ARC
  5
EA9
330
E35
100
AcDbEntity
  8
0
  6
Continuous
 62
     7
370
    15
100
AcDbCircle
 10
2250.071537304604
 20
1055.638987644838
 30
0.0
 40
0.2205021491418221
100
AcDbArc
 50
7.838771659205969
 51
63.78754980943415
  0
LINE
  5
EAA
330
E35
100
AcDbEntity
  8
0
  6
Continuous
 62
     7
370
    15
100
AcDbLine
 10
2250.168933283315
 20
1055.836813884521
 30
0.0
 11
2249.856119373667
 21
1055.953688971556
 31
0.0
  0
LWPOLYLINE
  5
EAB
330
E35
100
AcDbEntity
  8
0
  6
Continuous
 62
     7
370
    15
100
AcDbPolyline
 90
        9
 70
   128
 43
0.0
 10
2249.741985707899
 20
1055.831322824696
 10
2249.739878365474
 20
1055.864320632732
 10
2249.743165819658
 20
1055.894058082102
 10
2249.751763776754
 20
1055.919367093894
 10
2249.765250768278
 20
1055.939322905686
 10
2249.783205325744
 20
1055.953146763929
 10
2249.804953099575
 20
1055.960254569846
 10
2249.829566859105
 20
1055.960451557931
 10
2249.856119373667
 20
1055.953688971556
  0
LINE
  5
EAC
330
E35
100
AcDbEntity
  8
0
  6
Continuous
 62
     7
370
    15
100
AcDbLine
 10
2249.741985707899
 20
1055.831322824696
 30
0.0
 11
2249.748644909964
 21
1055.783821895513
 31
0.0
  0
ARC
  5
EAD
330
E35
100
AcDbEntity
  8
0
  6
Continuous
 62
     7
370
    15
100
AcDbCircle
 10
2251.807744717485
 20
1056.207030484834
 30
0.0
 40
2.102141176849719
100
AcDbArc
 50
191.6143134649628
 51
216.1086043549033
  0
ARC
  5
EAE
330
E35
100
AcDbEntity
  8
0
  6
Continuous
 62
     7
370
    15
100
AcDbCircle
 10
2248.781196462479
 20
1054.001108280714
 30
0.0
 40
1.643000973964903
100
AcDbArc
 50
12.35311387071015
 51
36.05870837766031
  0
ARC
  5
EAF
330
E35
100
AcDbEntity
  8
0
  6
Continuous
 62
     7
370
    15
100
AcDbCircle
 10
2238.880741552646
 20
1051.957617996316
 30
0.0
 40
11.75204558533929
100
AcDbArc
 50
4.213556732854052
 51
11.75886528488521
  0
ARC
  5
EB0
330
E35
100
AcDbEntity
  8
0
  6
Continuous
 62
     7
370
    15
100
AcDbCircle
 10
2249.992456462136
 20
1052.734864513801
 30
0.0
 40
0.6146444120725291
100
AcDbArc
 50
321.8936310741327
 51
8.064326801253885
  0
ARC
  5
EB1
330
E35
100
AcDbEntity
  8
0
  6
Continuous
 62
     7
370
    15
100
AcDbCircle
 10
2251.11064603778
 20
1051.861866603946
 30
0.0
 40
0.8039749021360288
100
AcDbArc
 50
142.1165608866236
 51
189.1353499924856
  0
LINE
  5
EB2
330
E35
100
AcDbEntity
  8
0
  6
Continuous
 62
     7
370
    15
100
AcDbLine
 10
2250.316868721588
 20
1051.734221723265
 30
0.0
 11
2250.323527923653
 21
1051.686720794082
 31
0.0
  0
ARC
  5
EB3
330
E35
100
AcDbEntity
  8
0
  6
Continuous
 62
     7
370
    15
100
AcDbCircle
 10
2250.617712175976
 20
1051.727238069466
 30
0.0
 40
0.296961317210375
100
AcDbArc
 50
187.8418716730145
 51
243.7892300696492
  0
LINE
  5
EB4
330
E35
100
AcDbEntity
  8
0
  6
Continuous
 62
     7
370
    15
100
AcDbLine
 10
2250.486551933693
 20
1051.460811691711
 30
0.0
 11
2250.799450137038
 21
1051.34388794296
 31
0.0
  0
LWPOLYLINE
  5
EB5
330
E35
100
AcDbEntity
  8
0
  6
Continuous
 62
     7
370
    15
100
AcDbPolyline
 90
        9
 70
   128
 43
0.0
 10
2250.884165302545
 20
1051.434762081991
 10
2250.885766882788
 20
1051.410232741254
 10
2250.883322365575
 20
1051.388185171736
 10
2250.876916044601
 20
1051.369398095347
 10
2250.866885094655
 20
1051.354552918475
 10
2250.853566690526
 20
1051.344282377885
 10
2250.837382300698
 20
1051.339024539749
 10
2250.819174862141
 20
1051.338876822413
 10
2250.799450137038
 20
1051.34388794296
  0
LINE
  5
EB6
330
E35
100
AcDbEntity
  8
0
  6
Continuous
 62
     7
370
    15
100
AcDbLine
 10
2250.884165302545
 20
1051.434762081991
 30
0.0
 11
2250.8797820303
 21
1051.466299587719
 31
0.0
  0
LWPOLYLINE
  5
EB7
330
E35
100
AcDbEntity
  8
0
  6
Continuous
 62
     7
370
    15
100
AcDbPolyline
 90
        9
 70
   128
 43
0.0
 10
2250.8797820303
 20
1051.466299587719
 10
2250.877674687874
 20
1051.500124779382
 10
2250.881299316846
 20
1051.53054363514
 10
2250.890487329822
 20
1051.556193389674
 10
2250.904817258315
 20
1051.576149280561
 10
2250.923867633842
 20
1051.589437875753
 10
2250.946626932038
 20
1051.595767062583
 10
2250.972420803327
 20
1051.594601411902
 10
2250.999984842253
 20
1051.586232822815
  0
LINE
  5
EB8
330
E35
100
AcDbEntity
  8
0
  6
Continuous
 62
     7
370
    15
100
AcDbLine
 10
2250.999984842253
 20
1051.586232822815
 30
0.0
 11
2251.429798403367
 21
1051.403421372296
 31
0.0
  0
ARC
  5
EB9
330
E35
100
AcDbEntity
  8
0
  6
Continuous
 62
     7
370
    15
100
AcDbCircle
 10
2251.288123225553
 20
1051.136263603079
 30
0.0
 40
0.3023989577720624
100
AcDbArc
 50
8.091170342353882
 51
62.06275619881111
  0
LINE
  5
EBA
330
E35
100
AcDbEntity
  8
0
  6
Continuous
 62
     7
370
    15
100
AcDbLine
 10
2251.920556307428
 20
1048.805531506785
 30
0.0
 11
2251.587511910495
 21
1051.178825851499
 31
0.0
  0
ARC
  5
EBB
330
E35
100
AcDbEntity
  8
0
  6
Continuous
 62
     7
370
    15
100
AcDbCircle
 10
2251.790347811862
 20
1048.765622914688
 30
0.0
 40
0.1361871801632615
100
AcDbArc
 50
300.776466911518
 51
17.04017671175461
  0
ARC
  5
EBC
330
E35
100
AcDbEntity
  8
0
  6
Continuous
 62
     7
370
    15
100
AcDbCircle
 10
2251.929999607564
 20
1048.531568865302
 30
0.0
 40
0.1363636794740995
100
AcDbArc
 50
120.8695473016578
 51
197.0006895949135
  0
LINE
  5
EBD
330
E35
100
AcDbEntity
  8
0
  6
Continuous
 62
     7
370
    15
100
AcDbLine
 10
2251.799594852201
 20
1048.491698414356
 30
0.0
 11
2251.846715028837
 21
1048.155736414158
 31
0.0
  0
ARC
  5
EBE
330
E35
100
AcDbEntity
  8
0
  6
Continuous
 62
     7
370
    15
100
AcDbCircle
 10
2252.24872594015
 20
1048.221504480386
 30
0.0
 40
0.407355141553514
100
AcDbArc
 50
189.2911518936154
 51
224.9492284610806
  0
LWPOLYLINE
  5
EBF
330
E35
100
AcDbEntity
  8
0
  6
Continuous
 62
     7
370
    15
100
AcDbPolyline
 90
        9
 70
   128
 43
0.0
 10
2251.960427226119
 20
1047.933716254709
 10
2252.004344242267
 20
1047.881254519789
 10
2252.039916182411
 20
1047.820566835194
 10
2252.064445648244
 20
1047.756373901447
 10
2252.075993884736
 20
1047.693785847256
 10
2252.073465073825
 20
1047.637815541177
 10
2252.0571963903
 20
1047.592843281101
 10
2252.028452239616
 20
1047.562470737925
 10
2251.989508551591
 20
1047.549131606458
  0
ARC
  5
EC0
330
E35
100
AcDbEntity
  8
0
  6
Continuous
 62
     7
370
    15
100
AcDbCircle
 10
2252.011302798266
 20
1047.441028369001
 30
0.0
 40
0.1102782804399331
100
AcDbArc
 50
101.3983755477598
 51
189.1676231617688
  0
LINE
  5
EC1
330
E35
100
AcDbEntity
  8
0
  6
Continuous
 62
     7
370
    15
100
AcDbLine
 10
2251.902433162568
 20
1047.423458464057
 30
0.0
 11
2251.902433162568
 21
1047.109928739568
 31
0.0
  0
ARC
  5
EC2
330
E35
100
AcDbEntity
  8
0
  6
Continuous
 62
     7
370
    15
100
AcDbCircle
 10
2252.285798130936
 20
1047.127551704807
 30
0.0
 40
0.3837698110531633
100
AcDbArc
 50
182.6319859110789
 51
219.75773012122
  0
LWPOLYLINE
  5
EC3
330
E35
100
AcDbEntity
  8
0
  6
Continuous
 62
     7
370
    15
100
AcDbPolyline
 90
        9
 70
   128
 43
0.0
 10
2251.990772957047
 20
1046.882114513968
 10
2252.027356421554
 20
1046.828581359167
 10
2252.05551051636
 20
1046.770034442034
 10
2252.073127899037
 20
1046.710610482958
 10
2252.079197045223
 20
1046.654300296277
 10
2252.073127899037
 20
1046.604948727002
 10
2252.05551051636
 20
1046.565914034629
 10
2252.027356421554
 20
1046.539873143448
 10
2251.990772957047
 20
1046.528578357698
  0
ARC
  5
EC4
330
E35
100
AcDbEntity
  8
0
  6
Continuous
 62
     7
370
    15
100
AcDbCircle
 10
2252.010999952784
 20
1046.420454596999
 30
0.0
 40
0.1099994499273748
100
AcDbArc
 50
100.5959982880927
 51
189.2573437437861
  0
LINE
  5
EC5
330
E35
100
AcDbEntity
  8
0
  6
Continuous
 62
     7
370
    15
100
AcDbLine
 10
2251.902433162568
 20
1046.40275908778
 30
0.0
 11
2251.902433162568
 21
1046.089667389916
 31
0.0
  0
ARC
  5
EC6
330
E35
100
AcDbEntity
  8
0
  6
Continuous
 62
     7
370
    15
100
AcDbCircle
 10
2252.273027028713
 20
1046.104079603022
 30
0.0
 40
0.3708740022038533
100
AcDbArc
 50
182.2270823837637
 51
214.5807700027959
  0
LWPOLYLINE
  5
EC7
330
E35
100
AcDbEntity
  8
0
  6
Continuous
 62
     7
370
    15
100
AcDbPolyline
 90
        9
 70
   128
 43
0.0
 10
2251.967676484063
 20
1045.893583592626
 10
2252.000213851113
 20
1045.834842408289
 10
2252.022298799733
 20
1045.773618092292
 10
2252.032414043375
 20
1045.714242098891
 10
2252.029885232465
 20
1045.660997291815
 10
2252.014796660698
 20
1045.617728579349
 10
2251.988328439833
 20
1045.58755092823
 10
2251.952335031205
 20
1045.572654645595
 10
2251.909429539421
 20
1045.574062038766
  0
ARC
  5
EC8
330
E35
100
AcDbEntity
  8
0
  6
Continuous
 62
     7
370
    15
100
AcDbCircle
 10
2251.885352698529
 20
1045.481075966067
 30
0.0
 40
0.096052610497109
100
AcDbArc
 50
75.48324811280878
 51
173.1517993928646
  0
LINE
  5
EC9
330
E35
100
AcDbEntity
  8
0
  6
Continuous
 62
     7
370
    15
100
AcDbLine
 10
2251.789985370741
 20
1045.49252920901
 30
0.0
 11
2251.731232663917
 21
1045.220363152853
 31
0.0
  0
ARC
  5
ECA
330
E35
100
AcDbEntity
  8
0
  6
Continuous
 62
     7
370
    15
100
AcDbCircle
 10
2252.055911311229
 20
1045.177915658751
 30
0.0
 40
0.3274416188820238
100
AcDbArc
 50
172.5515697372066
 51
213.9648707433806
  0
LWPOLYLINE
  5
ECB
330
E35
100
AcDbEntity
  8
0
  6
Continuous
 62
     7
370
    15
100
AcDbPolyline
 90
        9
 70
   128
 43
0.0
 10
2251.78433769304
 20
1044.994979102317
 10
2251.814009074392
 20
1044.937065032681
 10
2251.833565212101
 20
1044.877446577024
 10
2251.841573113318
 20
1044.820357858262
 10
2251.837527015862
 20
1044.76959505969
 10
2251.821764094518
 20
1044.728613756325
 10
2251.795295873654
 20
1044.700236881333
 10
2251.759892520904
 20
1044.68646005544
 10
2251.718082847181
 20
1044.688062229935
  0
ARC
  5
ECC
330
E35
100
AcDbEntity
  8
0
  6
Continuous
 62
     7
370
    15
100
AcDbCircle
 10
2251.694197755167
 20
1044.59480223429
 30
0.0
 40
0.096270059770121
100
AcDbArc
 50
75.63459043526245
 51
173.032302377867
  0
LINE
  5
ECD
330
E35
100
AcDbEntity
  8
0
  6
Continuous
 62
     7
370
    15
100
AcDbLine
 10
2251.598638678502
 20
1044.606480730554
 30
0.0
 11
2251.539885971677
 21
1044.334314674397
 31
0.0
  0
ARC
  5
ECE
330
E35
100
AcDbEntity
  8
0
  6
Continuous
 62
     7
370
    15
100
AcDbCircle
 10
2251.86538358512
 20
1044.292162010806
 30
0.0
 40
0.3282156964627517
100
AcDbArc
 50
172.6211363500703
 51
213.9359047551501
  0
LWPOLYLINE
  5
ECF
330
E35
100
AcDbEntity
  8
0
  6
Continuous
 62
     7
370
    15
100
AcDbPolyline
 90
        9
 70
   128
 43
0.0
 10
2251.593075294498
 20
1044.108930631771
 10
2251.62274667585
 20
1044.05096789251
 10
2251.642218519862
 20
1043.991446768193
 10
2251.650226421079
 20
1043.934358049431
 10
2251.646180323621
 20
1043.88359525086
 10
2251.630417402279
 20
1043.842613947494
 10
2251.603949181414
 20
1043.814237072502
 10
2251.568630122362
 20
1043.800362915269
 10
2251.526820448639
 20
1043.801965089763
  0
ARC
  5
ED0
330
E35
100
AcDbEntity
  8
0
  6
Continuous
 62
     7
370
    15
100
AcDbCircle
 10
2251.502743607747
 20
1043.708979017065
 30
0.0
 40
0.0960526104970611
100
AcDbArc
 50
75.48324811278192
 51
173.1517993928323
  0
LINE
  5
ED1
330
E35
100
AcDbEntity
  8
0
  6
Continuous
 62
     7
370
    15
100
AcDbLine
 10
2251.407376279959
 20
1043.720432260008
 30
0.0
 11
2251.348623573135
 21
1043.448266203852
 31
0.0
  0
ARC
  5
ED2
330
E35
100
AcDbEntity
  8
0
  6
Continuous
 62
     7
370
    15
100
AcDbCircle
 10
2251.673053325968
 20
1043.405799559276
 30
0.0
 40
0.3271973111521732
100
AcDbArc
 50
172.5425946066091
 51
213.9793707636261
  0
LWPOLYLINE
  5
ED3
330
E35
100
AcDbEntity
  8
0
  6
Continuous
 62
     7
370
    15
100
AcDbPolyline
 90
        9
 70
   128
 43
0.0
 10
2251.401728602258
 20
1043.22293082294
 10
2251.43139998361
 20
1043.164968083679
 10
2251.45095612132
 20
1043.105349628022
 10
2251.458964022536
 20
1043.04826090926
 10
2251.454917925079
 20
1042.997498110688
 10
2251.439155003736
 20
1042.956565476948
 10
2251.412686782872
 20
1042.928188601956
 10
2251.377283430122
 20
1042.914363106439
 10
2251.3354737564
 20
1042.915965280933
  0
ARC
  5
ED4
330
E35
100
AcDbEntity
  8
0
  6
Continuous
 62
     7
370
    15
100
AcDbCircle
 10
2251.311571345055
 20
1042.822723671998
 30
0.0
 40
0.0962565473343688
100
AcDbArc
 50
75.62188821808298
 51
173.0131592875598
  0
LINE
  5
ED5
330
E35
100
AcDbEntity
  8
0
  6
Continuous
 62
     7
370
    15
100
AcDbLine
 10
2251.21602958772
 20
1042.834432451178
 30
0.0
 11
2251.157276880896
 21
1042.562217725396
 31
0.0
  0
ARC
  5
ED6
330
E35
100
AcDbEntity
  8
0
  6
Continuous
 62
     7
370
    15
100
AcDbCircle
 10
2251.482249535112
 20
1042.519941174481
 30
0.0
 40
0.3277110506920887
100
AcDbArc
 50
172.5878681954278
 51
213.9691729097567
  0
ARC
  5
ED7
330
E35
100
AcDbEntity
  8
0
  6
Continuous
 62
     7
370
    15
100
AcDbCircle
 10
2250.939008593491
 20
1042.153933628927
 30
0.0
 40
0.3273250125557762
100
AcDbArc
 50
352.5510491286931
 51
33.97091624143592
  0
LINE
  5
ED8
330
E35
100
AcDbEntity
  8
0
  6
Continuous
 62
     7
370
    15
100
AcDbLine
 10
2250.001610294727
 20
1036.266595947807
 30
0.0
 11
2251.26357123284
 21
1042.111498301857
 31
0.0
  0
ARC
  5
ED9
330
E35
100
AcDbEntity
  8
0
  6
Continuous
 62
     7
370
    15
100
AcDbCircle
 10
2250.393125054756
 20
1036.185298770065
 30
0.0
 40
0.3998662756845823
100
AcDbArc
 50
168.2693606341242
 51
180.3251711098578
  0
LINE
  5
EDA
330
E35
100
AcDbEntity
  8
0
  6
Continuous
 62
     7
370
    15
100
AcDbLine
 10
2249.993265218722
 20
1033.41058856315
 30
0.0
 11
2249.993265218722
 21
1036.183029418574
 31
0.0
  0
ARC
  5
EDB
330
E35
100
AcDbEntity
  8
0
  6
Continuous
 62
     7
370
    15
100
AcDbCircle
 10
2250.453620862182
 20
1033.431431297637
 30
0.0
 40
0.4608272323184628
100
AcDbArc
 50
182.5923126185852
 51
237.4011139501872
  0
LINE
  5
EDC
330
E35
100
AcDbEntity
  8
0
  6
Continuous
 62
     7
370
    15
100
AcDbLine
 10
2250.983210396546
 20
1032.594151153543
 30
0.0
 11
2250.205348160429
 21
1033.043201464149
 31
0.0
  0
ARC
  5
EDD
330
E35
100
AcDbEntity
  8
0
  6
Continuous
 62
     7
370
    15
100
AcDbCircle
 10
2251.066012758277
 20
1032.69563843847
 30
0.0
 40
0.1309805333251291
100
AcDbArc
 50
230.7893720419947
 51
9.241098306257857
  0
LINE
  5
EDE
330
E35
100
AcDbEntity
  8
0
  6
Continuous
 62
     7
370
    15
100
AcDbLine
 10
2251.195293338252
 20
1033.441533560653
 30
0.0
 11
2251.195293338252
 21
1032.716672500164
 31
0.0
  0
ARC
  5
EDF
330
E35
100
AcDbEntity
  8
0
  6
Continuous
 62
     7
370
    15
100
AcDbCircle
 10
2250.494015555071
 20
1033.420916009382
 30
0.0
 40
0.7015807954924832
100
AcDbArc
 50
1.684009562571185
 51
28.51418270549154
  0
LWPOLYLINE
  5
EE0
330
E35
100
AcDbEntity
  8
0
  6
Continuous
 62
     7
370
    15
100
AcDbPolyline
 90
       17
 70
   128
 43
0.0
 10
2252.043877986171
 20
1033.615023060001
 10
2252.02862082701
 20
1033.769742366367
 10
2251.9836079928
 20
1033.933219413172
 10
2251.911621175544
 20
1034.095963884549
 10
2251.816706472697
 20
1034.248631592148
 10
2251.70425868087
 20
1034.382486844486
 10
2251.580937002127
 20
1034.489694456785
 10
2251.453653519624
 20
1034.564220044124
 10
2251.329826078699
 20
1034.6017083711
 10
2251.216535349902
 20
1034.600018638615
 10
2251.120440535297
 20
1034.559200141145
 10
2251.046936431494
 20
1034.48163819653
 10
2251.000322017041
 20
1034.371786478845
 10
2250.983210396546
 20
1034.236020954168
 10
2250.996697388069
 20
1034.082104530515
 10
2251.039940054641
 20
1033.918919335359
 10
2251.110493879048
 20
1033.755834042145
  0
LINE
  5
EE1
330
E35
100
AcDbEntity
  8
0
  6
Continuous
 62
     7
370
    15
100
AcDbLine
 10
2252.043793692473
 20
1031.781078576257
 30
0.0
 11
2252.043877986171
 21
1033.615023060001
 31
0.0
  0
ARC
  5
EE2
330
E35
100
AcDbEntity
  8
0
  6
Continuous
 62
     7
370
    15
100
AcDbCircle
 10
2251.612755854657
 20
1031.711106962562
 30
0.0
 40
0.4366802541366088
100
AcDbArc
 50
230.7961097235638
 51
9.220557080421809
  0
LINE
  5
EE3
330
E35
100
AcDbEntity
  8
0
  6
Continuous
 62
     7
370
    15
100
AcDbLine
 10
2248.596602952768
 20
1032.954569132258
 30
0.0
 11
2251.336738161855
 21
1031.372722746599
 31
0.0
  0
ARC
  5
EE4
330
E35
100
AcDbEntity
  8
0
  6
Continuous
 62
     7
370
    15
100
AcDbCircle
 10
2252.812844420617
 20
1039.499539223618
 30
0.0
 40
7.785456031088279
100
AcDbArc
 50
188.8620821317383
 51
237.2105405136561
  0
LWPOLYLINE
  5
EE5
330
E35
100
AcDbEntity
  8
0
  6
Continuous
 62
     7
370
    15
100
AcDbPolyline
 90
        9
 70
   128
 43
0.0
 10
2245.222747729471
 20
1038.428514637833
 10
2245.198049676243
 20
1038.432186877028
 10
2245.175458965442
 20
1038.429556597519
 10
2245.155818534035
 20
1038.420648213215
 10
2245.139718437904
 20
1038.405851136481
 10
2245.127833026624
 20
1038.385579122408
 10
2245.120499474984
 20
1038.360610916634
 10
2245.117970664072
 20
1038.331798261326
 10
2245.120330887589
 20
1038.300138891706
  0
LINE
  5
EE6
330
E35
100
AcDbEntity
  8
0
  6
Continuous
 62
     7
370
    15
100
AcDbLine
 10
2245.891955390126
 20
1038.249254198223
 30
0.0
 11
2245.222747729471
 21
1038.428514637833
 31
0.0
  0
LINE
  5
EE7
330
E35
100
AcDbEntity
  8
0
  6
Continuous
 62
     7
370
    15
100
AcDbLine
 10
2246.025645193603
 20
1039.047667606674
 30
0.0
 11
2245.891955390126
 21
1038.249254198223
 31
0.0
  0
LINE
  5
EE8
330
E35
100
AcDbEntity
  8
0
  6
Continuous
 62
     7
370
    15
100
AcDbLine
 10
2245.84938707313
 20
1044.308448177331
 30
0.0
 11
2246.025645193603
 21
1039.047667606674
 31
0.0
  0
ARC
  5
EE9
330
E35
100
AcDbEntity
  8
0
  6
Continuous
 62
     7
370
    15
100
AcDbCircle
 10
2244.184540019407
 20
1044.191696193068
 30
0.0
 40
1.668935810066559
100
AcDbArc
 50
4.011456936304883
 51
57.29552052154087
  0
LINE
  5
EEA
330
E35
100
AcDbEntity
  8
0
  6
Continuous
 62
     7
370
    15
100
AcDbLine
 10
2245.077678276896
 20
1045.601016671664
 30
0.0
 11
2245.086276233992
 21
1045.596053176683
 31
0.0
  0
LWPOLYLINE
  5
EEB
330
E35
100
AcDbEntity
  8
0
  6
Continuous
 62
     7
370
    15
100
AcDbPolyline
 90
        9
 70
   128
 43
0.0
 10
2244.314398850364
 20
1045.130017758919
 10
2244.324598387703
 20
1045.300313733978
 10
2244.364975068577
 20
1045.447324125072
 10
2244.433843019044
 20
1045.565184084194
 10
2244.528589134496
 20
1045.649099408081
 10
2244.645335904871
 20
1045.695735863579
 10
2244.779447176833
 20
1045.703194900288
 10
2244.925528153772
 20
1045.671183994247
 10
2245.077678276896
 20
1045.601016671664
  0
LINE
  5
EEC
330
E35
100
AcDbEntity
  8
0
  6
Continuous
 62
     7
370
    15
100
AcDbLine
 10
2244.457866722695
 20
1040.1469186571
 30
0.0
 11
2244.314398850364
 21
1045.130017758919
 31
0.0
  0
LWPOLYLINE
  5
EED
330
E35
100
AcDbEntity
  8
0
  6
Continuous
 62
     7
370
    15
100
AcDbPolyline
 90
        9
 70
   128
 43
0.0
 10
2244.245868074685
 20
1040.016050477694
 10
2244.28818351059
 20
1039.996537928643
 10
2244.328728778857
 20
1039.987659526563
 10
2244.365986592941
 20
1039.989731481644
 10
2244.398355372597
 20
1040.002729308792
 10
2244.424739299765
 20
1040.025995865246
 10
2244.443873968989
 20
1040.058727983549
 10
2244.455085030693
 20
1040.099587185736
 10
2244.457866722695
 20
1040.1469186571
  0
LINE
  5
EEE
330
E35
100
AcDbEntity
  8
0
  6
Continuous
 62
     7
370
    15
100
AcDbLine
 10
2243.481830004879
 20
1040.457120266958
 30
0.0
 11
2244.245868074685
 21
1040.016050477694
 31
0.0
  0
ARC
  5
EEF
330
E35
100
AcDbEntity
  8
0
  6
Continuous
 62
     7
370
    15
100
AcDbCircle
 10
2243.884982319243
 20
1041.12531689589
 30
0.0
 40
0.7803963886984781
100
AcDbArc
 50
217.9672522091843
 51
238.8955781469086
  0
LINE
  5
EF0
330
E35
100
AcDbEntity
  8
0
  6
Continuous
 62
     7
370
    15
100
AcDbLine
 10
2241.376763509155
 20
1043.000032324262
 30
0.0
 11
2243.269747063172
 21
1040.645208467323
 31
0.0
  0
ARC
  5
EF1
330
E35
100
AcDbEntity
  8
0
  6
Continuous
 62
     7
370
    15
100
AcDbCircle
 10
2238.298927218643
 20
1040.597248892874
 30
0.0
 40
3.904669569803001
100
AcDbArc
 50
37.97819422847438
 51
58.89525762403764
  0
LINE
  5
EF2
330
E35
100
AcDbEntity
  8
0
  6
Continuous
 62
     7
370
    15
100
AcDbLine
 10
2227.072713180436
 20
1051.585764093709
 30
0.0
 11
2240.31609591953
 21
1043.940521971985
 31
0.0
  0
ARC
  5
EF3
330
E35
100
AcDbEntity
  8
0
  6
Continuous
 62
     7
370
    15
100
AcDbCircle
 10
2226.087840081945
 20
1050.031024414805
 30
0.0
 40
1.840432147428961
100
AcDbArc
 50
57.64717446153618
 51
92.36027878658989
  0
LINE
  5
EF4
330
E35
100
AcDbEntity
  8
0
  6
Continuous
 62
     7
370
    15
100
AcDbLine
 10
2224.119062036793
 20
1051.700663611073
 30
0.0
 11
2226.012045590811
 21
1051.869895178182
 31
0.0
  0
ARC
  5
EF5
330
E35
100
AcDbEntity
  8
0
  6
Continuous
 62
     7
370
    15
100
AcDbCircle
 10
2224.103831612651
 20
1052.068261691504
 30
0.0
 40
0.3679134606888366
100
AcDbArc
 50
237.6526201471946
 51
272.372537425881
  0
LINE
  5
EF6
330
E35
100
AcDbEntity
  8
0
  6
Continuous
 62
     7
370
    15
100
AcDbLine
 10
2223.14294102528
 20
1052.198510952353
 30
0.0
 11
2223.906979095086
 21
1051.757441163089
 31
0.0
  0
ARC
  5
EF7
330
E35
100
AcDbEntity
  8
0
  6
Continuous
 62
     7
370
    15
100
AcDbCircle
 10
2223.389094689011
 20
1052.585074415101
 30
0.0
 40
0.4582825950224762
100
AcDbArc
 50
181.366235551108
 51
237.5120650503888
  0
LINE
  5
EF8
330
E35
100
AcDbEntity
  8
0
  6
Continuous
 62
     7
370
    15
100
AcDbLine
 10
2223.074410249601
 20
1057.391602182976
 30
0.0
 11
2222.930942377271
 21
1052.574147560708
 31
0.0
  0
ARC
  5
EF9
330
E35
100
AcDbEntity
  8
0
  6
Continuous
 62
     7
370
    15
100
AcDbCircle
 10
2221.424067984322
 20
1057.351619184143
 30
0.0
 40
1.650826530185179
100
AcDbArc
 50
1.387838803834001
 51
57.49693861725125
  0
LINE
  5
EFA
330
E35
100
AcDbEntity
  8
0
  6
Continuous
 62
     7
370
    15
100
AcDbLine
 10
2222.302532865974
 20
1058.748828258351
 30
0.0
 11
2222.31113082307
 21
1058.74386476337
 31
0.0
  0
ARC
  5
EFB
330
E35
100
AcDbEntity
  8
0
  6
Continuous
 62
     7
370
    15
100
AcDbCircle
 10
2222.004089574989
 20
1058.389550052185
 30
0.0
 40
0.4670644788028685
100
AcDbArc
 50
50.28444767338018
 51
185.807147399411
  0
LINE
  5
EFC
330
E35
100
AcDbEntity
  8
0
  6
Continuous
 62
     7
370
    15
100
AcDbLine
 10
2221.363163906362
 20
1053.285015003337
 30
0.0
 11
2221.539422026835
 21
1058.342292279787
 31
0.0
  0
LINE
  5
EFD
330
E35
100
AcDbEntity
  8
0
  6
Continuous
 62
     7
370
    15
100
AcDbLine
 10
2221.496769416142
 20
1052.332295295046
 30
0.0
 11
2221.363163906362
 21
1053.285015003337
 31
0.0
  0
LINE
  5
EFE
330
E35
100
AcDbEntity
  8
0
  6
Continuous
 62
     7
370
    15
100
AcDbLine
 10
2222.166061370495
 20
1051.73885635428
 30
0.0
 11
2221.496769416142
 21
1052.332295295046
 31
0.0
  0
ARC
  5
EFF
330
E35
100
AcDbEntity
  8
0
  6
Continuous
 62
     7
370
    15
100
AcDbCircle
 10
2221.973088167536
 20
1051.514141796069
 30
0.0
 40
0.2962014343860925
100
AcDbArc
 50
355.7581242380918
 51
49.34572684443427
  0
LWPOLYLINE
  5
F00
330
E35
100
AcDbEntity
  8
0
  6
Continuous
 62
     7
370
    15
100
AcDbPolyline
 90
       16
 70
   128
 43
0.0
 10
2218.792121853501
 20
1050.16032983595
 10
2219.118759929461
 20
1049.989213748976
 10
2219.442532019721
 20
1049.854526607417
 10
2219.760740725979
 20
1049.757363224732
 10
2220.070688649927
 20
1049.698550731441
 10
2220.369678393264
 20
1049.678599905502
 10
2220.655265438773
 20
1049.697607856788
 10
2220.924836681849
 20
1049.755574340104
 10
2221.176200486368
 20
1049.851866444676
 10
2221.407165216208
 20
1049.985729585668
 10
2221.615792116337
 20
1050.155971175347
 10
2221.800226725421
 20
1050.361179620577
 10
2221.95903605061
 20
1050.599554010769
 10
2222.090702805358
 20
1050.869098748926
 10
2222.194131171603
 20
1051.167501925034
 10
2222.268478212376
 20
1051.492232639496
  0
LINE
  5
F01
330
E35
100
AcDbEntity
  8
0
  6
Continuous
 62
     7
370
    15
100
AcDbLine
 10
2216.052070938111
 20
1051.742127559894
 30
0.0
 11
2218.792121853501
 21
1050.16032983595
 31
0.0
  0
ARC
  5
F02
330
E35
100
AcDbEntity
  8
0
  6
Continuous
 62
     7
370
    15
100
AcDbCircle
 10
2216.880060078803
 20
1053.03660194152
 30
0.0
 40
1.536629409385873
100
AcDbArc
 50
182.6023705606462
 51
237.3956576882311
  0
LINE
  5
F03
330
E35
100
AcDbEntity
  8
0
  6
Continuous
 62
     7
370
    15
100
AcDbLine
 10
2215.344931113795
 20
1054.800874135904
 30
0.0
 11
2215.345015407492
 21
1052.966832328729
 31
0.0
  0
LWPOLYLINE
  5
F04
330
E35
100
AcDbEntity
  8
0
  6
Continuous
 62
     7
370
    15
100
AcDbPolyline
 90
       17
 70
   128
 43
0.0
 10
2216.278315220917
 20
1053.864022766653
 10
2216.348869045324
 20
1053.945648348125
 10
2216.392111711897
 20
1054.05890662318
 10
2216.405514409723
 20
1054.19729995959
 10
2216.388487082924
 20
1054.352773479044
 10
2216.341872668472
 20
1054.516445054068
 10
2216.268368564668
 20
1054.67887303051
 10
2216.172189456367
 20
1054.830688901028
 10
2216.058983021267
 20
1054.963132663054
 10
2215.935155580341
 20
1055.068612456207
 10
2215.807872097839
 20
1055.141045249669
 10
2215.684466125399
 20
1055.17627047863
 10
2215.572102627269
 20
1055.172196021522
 10
2215.477187924422
 20
1055.129114497222
 10
2215.405116813468
 20
1055.049532897629
 10
2215.360188272956
 20
1054.93797790126
 10
2215.344931113795
 20
1054.800874135904
  0
ARC
  5
F05
330
E35
100
AcDbEntity
  8
0
  6
Continuous
 62
     7
370
    15
100
AcDbCircle
 10
2216.458018508352
 20
1053.668789171839
 30
0.0
 40
0.2653477493005863
100
AcDbArc
 50
132.6281002452868
 51
184.573769595123
  0
LINE
  5
F06
330
E35
100
AcDbEntity
  8
0
  6
Continuous
 62
     7
370
    15
100
AcDbLine
 10
2216.193515761713
 20
1052.922768596251
 30
0.0
 11
2216.193515761713
 21
1053.647629656741
 31
0.0
  0
ARC
  5
F07
330
E35
100
AcDbEntity
  8
0
  6
Continuous
 62
     7
370
    15
100
AcDbCircle
 10
2216.653871405174
 20
1052.943611330738
 30
0.0
 40
0.4608272323189622
100
AcDbArc
 50
182.5923126185982
 51
237.4011139501222
  0
LINE
  5
F08
330
E35
100
AcDbEntity
  8
0
  6
Continuous
 62
     7
370
    15
100
AcDbLine
 10
2217.183460939537
 20
1052.106331186644
 30
0.0
 11
2216.40559870342
 21
1052.555381497249
 31
0.0
  0
ARC
  5
F09
330
E35
100
AcDbEntity
  8
0
  6
Continuous
 62
     7
370
    15
100
AcDbCircle
 10
2217.266263301269
 20
1052.207818471571
 30
0.0
 40
0.1309805333251291
100
AcDbArc
 50
230.7893720419947
 51
9.241098306219281
  0
LINE
  5
F0A
330
E35
100
AcDbEntity
  8
0
  6
Continuous
 62
     7
370
    15
100
AcDbLine
 10
2217.395543881244
 20
1055.001293388689
 30
0.0
 11
2217.395543881244
 21
1052.228852533265
 31
0.0
  0
ARC
  5
F0B
330
E35
100
AcDbEntity
  8
0
  6
Continuous
 62
     7
370
    15
100
AcDbCircle
 10
2216.842905996045
 20
1054.998785698071
 30
0.0
 40
0.5526435747106148
100
AcDbArc
 50
0.2599877902157014
 51
9.973018020831769
  0
LINE
  5
F0C
330
E35
100
AcDbEntity
  8
0
  6
Continuous
 62
     7
370
    15
100
AcDbLine
 10
2216.125153573429
 20
1062.396475038765
 30
0.0
 11
2217.387198805239
 21
1055.09449493759
 31
0.0
  0
ARC
  5
F0D
330
E35
100
AcDbEntity
  8
0
  6
Continuous
 62
     7
370
    15
100
AcDbCircle
 10
2216.262866330708
 20
1062.442417182263
 30
0.0
 40
0.145173978614838
100
AcDbArc
 50
125.6069543849372
 51
198.4491358695783
  0
ARC
  5
F0E
330
E35
100
AcDbEntity
  8
0
  6
Continuous
 62
     7
370
    15
100
AcDbCircle
 10
2216.093807479278
 20
1062.678482697478
 30
0.0
 40
0.1451841154279957
100
AcDbArc
 50
305.6099059621441
 51
18.44618429217027
  0
LINE
  5
F0F
330
E35
100
AcDbEntity
  8
0
  6
Continuous
 62
     7
370
    15
100
AcDbLine
 10
2216.23153221907
 20
1062.724420954105
 30
0.0
 11
2216.172779512246
 21
1063.064470111289
 31
0.0
  0
ARC
  5
F10
330
E35
100
AcDbEntity
  8
0
  6
Continuous
 62
     7
370
    15
100
AcDbCircle
 10
2215.76948879456
 20
1062.987181221468
 30
0.0
 40
0.4106299738958966
100
AcDbArc
 50
10.84894012560424
 51
46.2711354508605
  0
LWPOLYLINE
  5
F11
330
E35
100
AcDbEntity
  8
0
  6
Continuous
 62
     7
370
    15
100
AcDbPolyline
 90
        9
 70
   128
 43
0.0
 10
2216.053335343566
 20
1063.283910242763
 10
2216.011525669843
 20
1063.330580490042
 10
2215.976122317094
 20
1063.385281826576
 10
2215.949654096229
 20
1063.444218258901
 10
2215.933891174886
 20
1063.503350374237
 10
2215.929845077429
 20
1063.558784697496
 10
2215.937852978646
 20
1063.606627690314
 10
2215.957409116355
 20
1063.64366710998
 10
2215.987080497707
 20
1063.667372001531
  0
ARC
  5
F12
330
E35
100
AcDbEntity
  8
0
  6
Continuous
 62
     7
370
    15
100
AcDbCircle
 10
2215.902605777189
 20
1063.785329929504
 30
0.0
 40
0.1450863576568071
100
AcDbArc
 50
305.6080719841265
 51
18.5112916174323
  0
LINE
  5
F13
330
E35
100
AcDbEntity
  8
0
  6
Continuous
 62
     7
370
    15
100
AcDbLine
 10
2216.04018552683
 20
1063.831393620917
 30
0.0
 11
2215.981432820006
 21
1064.171394108476
 31
0.0
  0
ARC
  5
F14
330
E35
100
AcDbEntity
  8
0
  6
Continuous
 62
     7
370
    15
100
AcDbCircle
 10
2215.579375694616
 20
1064.094776679273
 30
0.0
 40
0.40929227030891
100
AcDbArc
 50
10.7891273424457
 51
46.33094823401381
  0
LWPOLYLINE
  5
F15
330
E35
100
AcDbEntity
  8
0
  6
Continuous
 62
     7
370
    15
100
AcDbPolyline
 90
        9
 70
   128
 43
0.0
 10
2215.861988651326
 20
1064.39083423995
 10
2215.820178977604
 20
1064.437504487228
 10
2215.784859918551
 20
1064.492157162048
 10
2215.758391697686
 20
1064.551093594372
 10
2215.742544482647
 20
1064.610323041049
 10
2215.738582678886
 20
1064.665708702593
 10
2215.746590580104
 20
1064.71355169541
 10
2215.766062424116
 20
1064.750591107167
 10
2215.795733805467
 20
1064.774295998718
  0
ARC
  5
F16
330
E35
100
AcDbEntity
  8
0
  6
Continuous
 62
     7
370
    15
100
AcDbCircle
 10
2215.711210371007
 20
1064.89232681289
 30
0.0
 40
0.1451739786151618
100
AcDbArc
 50
305.6069543849372
 51
18.44913586941356
  0
LINE
  5
F17
330
E35
100
AcDbEntity
  8
0
  6
Continuous
 62
     7
370
    15
100
AcDbLine
 10
2215.848923128288
 20
1064.938268956388
 30
0.0
 11
2215.790086127767
 21
1065.278318105663
 31
0.0
  0
ARC
  5
F18
330
E35
100
AcDbEntity
  8
0
  6
Continuous
 62
     7
370
    15
100
AcDbCircle
 10
2215.387632245534
 20
1065.201593456049
 30
0.0
 40
0.4097020858897255
100
AcDbArc
 50
10.79347019104841
 51
46.29264081664117
  0
LWPOLYLINE
  5
F19
330
E35
100
AcDbEntity
  8
0
  6
Continuous
 62
     7
370
    15
100
AcDbPolyline
 90
        9
 70
   128
 43
0.0
 10
2215.670726252784
 20
1065.497758245046
 10
2215.628832285364
 20
1065.54447715404
 10
2215.593513226312
 20
1065.599081159235
 10
2215.567045005447
 20
1065.658017591559
 10
2215.551282084104
 20
1065.71719837652
 10
2215.547235986647
 20
1065.772632699779
 10
2215.555243887864
 20
1065.820475692597
 10
2215.574800025573
 20
1065.857515112264
 10
2215.604387113228
 20
1065.881219995905
  0
ARC
  5
F1A
330
E35
100
AcDbEntity
  8
0
  6
Continuous
 62
     7
370
    15
100
AcDbCircle
 10
2215.520163007042
 20
1065.999167382683
 30
0.0
 40
0.1449320051289126
100
AcDbArc
 50
305.5299484208898
 51
18.53612169895327
  0
LINE
  5
F1B
330
E35
100
AcDbEntity
  8
0
  6
Continuous
 62
     7
370
    15
100
AcDbLine
 10
2215.657576436049
 20
1066.0452416232
 30
0.0
 11
2215.598823729225
 21
1066.385242110759
 31
0.0
  0
ARC
  5
F1C
330
E35
100
AcDbEntity
  8
0
  6
Continuous
 62
     7
370
    15
100
AcDbCircle
 10
2215.196766603834
 20
1066.308624681556
 30
0.0
 40
0.4092922703093049
100
AcDbArc
 50
10.78912734246489
 51
46.33094823400031
  0
LWPOLYLINE
  5
F1D
330
E35
100
AcDbEntity
  8
0
  6
Continuous
 62
     7
370
    15
100
AcDbPolyline
 90
        9
 70
   128
 43
0.0
 10
2215.479379560544
 20
1066.604682242233
 10
2215.436474068761
 20
1066.652812475439
 10
2215.400480660132
 20
1066.709265863108
 10
2215.37392814557
 20
1066.770051733274
 10
2215.3589238675
 20
1066.830692678172
 10
2215.356310762893
 20
1066.886905849894
 10
2215.366510300232
 20
1066.93455436986
 10
2215.388595248852
 20
1066.970279946937
 10
2215.421048322205
 20
1066.991502948626
  0
ARC
  5
F1E
330
E35
100
AcDbEntity
  8
0
  6
Continuous
 62
     7
370
    15
100
AcDbCircle
 10
2215.369534121549
 20
1067.097414250339
 30
0.0
 40
0.1177748559750386
100
AcDbArc
 50
295.9378261757166
 51
7.216865851817362
  0
LINE
  5
F1F
330
E35
100
AcDbEntity
  8
0
  6
Continuous
 62
     7
370
    15
100
AcDbLine
 10
2215.486375937397
 20
1067.112209748611
 30
0.0
 11
2215.486375937397
 21
1067.425301446474
 31
0.0
  0
ARC
  5
F20
330
E35
100
AcDbEntity
  8
0
  6
Continuous
 62
     7
370
    15
100
AcDbCircle
 10
2215.103010969027
 20
1067.407678481234
 30
0.0
 40
0.3837698110555041
100
AcDbArc
 50
2.631985911150533
 51
39.75773012105321
  0
LWPOLYLINE
  5
F21
330
E35
100
AcDbEntity
  8
0
  6
Continuous
 62
     7
370
    15
100
AcDbPolyline
 90
        9
 70
   128
 43
0.0
 10
2215.398036142918
 20
1067.653115672075
 10
2215.361368384714
 20
1067.706697488591
 10
2215.333298583606
 20
1067.765195744009
 10
2215.315681200928
 20
1067.82457103346
 10
2215.309612054742
 20
1067.880929889766
 10
2215.315681200928
 20
1067.930232789415
 10
2215.333298583606
 20
1067.969316151414
 10
2215.361368384714
 20
1067.995405704311
 10
2215.398036142918
 20
1068.006651828344
  0
ARC
  5
F22
330
E35
100
AcDbEntity
  8
0
  6
Continuous
 62
     7
370
    15
100
AcDbCircle
 10
2215.377809147181
 20
1068.114775589044
 30
0.0
 40
0.1099994499275265
100
AcDbArc
 50
280.595998288278
 51
9.257343743728222
  0
LINE
  5
F23
330
E35
100
AcDbEntity
  8
0
  6
Continuous
 62
     7
370
    15
100
AcDbLine
 10
2215.486375937397
 20
1068.132471098263
 30
0.0
 11
2215.486375937397
 21
1068.446000822752
 31
0.0
  0
ARC
  5
F24
330
E35
100
AcDbEntity
  8
0
  6
Continuous
 62
     7
370
    15
100
AcDbCircle
 10
2215.104065835702
 20
1068.428642114178
 30
0.0
 40
0.3827039830229397
100
AcDbArc
 50
2.599717100687224
 51
39.53608768664039
  0
LWPOLYLINE
  5
F25
330
E35
100
AcDbEntity
  8
0
  6
Continuous
 62
     7
370
    15
100
AcDbPolyline
 90
        9
 70
   128
 43
0.0
 10
2215.399216254676
 20
1068.672257731084
 10
2215.360272566653
 20
1068.730560287671
 10
2215.331612709666
 20
1068.794071459101
 10
2215.31534402614
 20
1068.857827141359
 10
2215.312815215229
 20
1068.916717150367
 10
2215.324279158025
 20
1068.966020556227
 10
2215.348808623858
 20
1069.001892371556
 10
2215.384464857698
 20
1069.021460906556
 10
2215.428381873846
 20
1069.023217133928
  0
ARC
  5
F26
330
E35
100
AcDbEntity
  8
0
  6
Continuous
 62
     7
370
    15
100
AcDbCircle
 10
2215.445013192093
 20
1069.118903133056
 30
0.0
 40
0.0971206011916069
100
AcDbArc
 50
260.1398454716181
 51
357.1042119169854
  0
LINE
  5
F27
330
E35
100
AcDbEntity
  8
0
  6
Continuous
 62
     7
370
    15
100
AcDbLine
 10
2215.542009777432
 20
1069.113996646682
 30
0.0
 11
2215.589214247764
 21
1069.395506187239
 31
0.0
  0
ARC
  5
F28
330
E35
100
AcDbEntity
  8
0
  6
Continuous
 62
     7
370
    15
100
AcDbCircle
 10
2215.250073211459
 20
1069.426433363128
 30
0.0
 40
0.3405482825017659
100
AcDbArc
 50
354.7894569193443
 51
35.10038601005929
  0
ARC
  5
F29
330
E35
100
AcDbEntity
  8
0
  6
Continuous
 62
     7
370
    15
100
AcDbCircle
 10
2215.807929472284
 20
1069.818110401787
 30
0.0
 40
0.341078166101732
100
AcDbArc
 50
174.8041820134531
 51
215.0458896120468
  0
LINE
  5
F2A
330
E35
100
AcDbEntity
  8
0
  6
Continuous
 62
     7
370
    15
100
AcDbLine
 10
2215.801297189471
 20
1071.837767872001
 30
0.0
 11
2215.468252792538
 21
1069.848998403144
 31
0.0
  0
LWPOLYLINE
  5
F2B
330
E35
100
AcDbEntity
  8
0
  6
Continuous
 62
     7
370
    15
100
AcDbPolyline
 90
        9
 70
   128
 43
0.0
 10
2215.959010696598
 20
1071.880271253408
 10
2215.932121007249
 20
1071.896913742028
 10
2215.90548419899
 20
1071.907472551246
 10
2215.880111796186
 20
1071.911558418978
 10
2215.856931029505
 20
1071.909025423352
 10
2215.836869129614
 20
1071.899873651374
 10
2215.820516152392
 20
1071.884589854662
 10
2215.808462153717
 20
1071.863660784832
 10
2215.801297189471
 20
1071.837767872001
  0
LINE
  5
F2C
330
E35
100
AcDbEntity
  8
0
  6
Continuous
 62
     7
370
    15
100
AcDbLine
 10
2248.071453220322
 20
1034.254315196875
 30
0.0
 11
2248.720430393692
 21
1033.879668649264
 31
0.0
  0
ARC
  5
F2D
330
E35
100
AcDbEntity
  8
0
  6
Continuous
 62
     7
370
    15
100
AcDbCircle
 10
2248.996464806089
 20
1034.218108732428
 30
0.0
 40
0.436734114443452
100
AcDbArc
 50
230.7990427191043
 51
9.208751731331318
  0
LINE
  5
F2E
330
E35
100
AcDbEntity
  8
0
  6
Continuous
 62
     7
370
    15
100
AcDbLine
 10
2249.427570218009
 20
1034.28800015202
 30
0.0
 11
2249.427570218009
 21
1036.491712104073
 31
0.0
  0
ARC
  5
F2F
330
E35
100
AcDbEntity
  8
0
  6
Continuous
 62
     7
370
    15
100
AcDbCircle
 10
2250.622959489859
 20
1036.49845040678
 30
0.0
 40
1.195408263304868
100
AcDbArc
 50
168.2290010305966
 51
180.3229677781354
  0
LINE
  5
F30
330
E35
100
AcDbEntity
  8
0
  6
Continuous
 62
     7
370
    15
100
AcDbLine
 10
2249.452689739721
 20
1036.742314360431
 30
0.0
 11
2250.554155478705
 21
1041.843578453776
 31
0.0
  0
ARC
  5
F31
330
E35
100
AcDbEntity
  8
0
  6
Continuous
 62
     7
370
    15
100
AcDbCircle
 10
2249.678188283522
 20
1041.929330498326
 30
0.0
 40
0.8801544979037847
100
AcDbArc
 50
354.4088945627296
 51
58.35723406050992
  0
LINE
  5
F32
330
E35
100
AcDbEntity
  8
0
  6
Continuous
 62
     7
370
    15
100
AcDbLine
 10
2250.13993625154
 20
1042.678637347495
 30
0.0
 11
2247.411855041126
 21
1044.253525107838
 31
0.0
  0
ARC
  5
F33
330
E35
100
AcDbEntity
  8
0
  6
Continuous
 62
     7
370
    15
100
AcDbCircle
 10
2247.177036944354
 20
1043.968920128484
 30
0.0
 40
0.3689709105672157
100
AcDbArc
 50
50.47509419333083
 51
187.1375279438301
  0
LINE
  5
F34
330
E35
100
AcDbEntity
  8
0
  6
Continuous
 62
     7
370
    15
100
AcDbLine
 10
2246.810925275058
 20
1043.923074971162
 30
0.0
 11
2246.659533795207
 21
1036.74176025216
 31
0.0
  0
ARC
  5
F35
330
E35
100
AcDbEntity
  8
0
  6
Continuous
 62
     7
370
    15
100
AcDbCircle
 10
2249.697862460918
 20
1036.821933110467
 30
0.0
 40
3.039386248585889
100
AcDbArc
 50
181.5115220318759
 51
237.6485554906797
  0
LINE
  5
F36
330
E35
100
AcDbEntity
  8
0
  6
Continuous
 62
     7
370
    15
100
AcDbLine
 10
2220.729275304758
 20
1051.710979849898
 30
0.0
 11
2220.577799531211
 21
1059.06713611268
 31
0.0
  0
ARC
  5
F37
330
E35
100
AcDbEntity
  8
0
  6
Continuous
 62
     7
370
    15
100
AcDbCircle
 10
2219.269473708633
 20
1058.987972978632
 30
0.0
 40
1.3107186043598
100
AcDbArc
 50
3.462585739234287
 51
57.33234042999318
  0
LINE
  5
F38
330
E35
100
AcDbEntity
  8
0
  6
Continuous
 62
     7
370
    15
100
AcDbLine
 10
2219.976954058839
 20
1060.091356327196
 30
0.0
 11
2217.248872848426
 21
1061.666244087539
 31
0.0
  0
LWPOLYLINE
  5
F39
330
E35
100
AcDbEntity
  8
0
  6
Continuous
 62
     7
370
    15
100
AcDbPolyline
 90
        9
 70
   128
 43
0.0
 10
2217.248872848426
 20
1061.666244087539
 10
2217.15480108255
 20
1061.708383155774
 10
2217.06536547001
 20
1061.723997713389
 10
2216.985117870445
 20
1061.712358143123
 10
2216.918020087615
 20
1061.6740001826
 10
2216.867359575706
 20
1061.610870925293
 10
2216.835665145625
 20
1061.526134134116
 10
2216.824622671316
 20
1061.423926885389
 10
2216.834653621261
 20
1061.309432533724
  0
LINE
  5
F3A
330
E35
100
AcDbEntity
  8
0
  6
Continuous
 62
     7
370
    15
100
AcDbLine
 10
2216.834653621261
 20
1061.309432533724
 30
0.0
 11
2217.936119360245
 21
1054.936443167582
 31
0.0
  0
ARC
  5
F3B
330
E35
100
AcDbEntity
  8
0
  6
Continuous
 62
     7
370
    15
100
AcDbCircle
 10
2216.307250962512
 20
1054.649175876048
 30
0.0
 40
1.654005669252142
100
AcDbArc
 50
0.2654399803388771
 51
10.00183688682876
  0
LINE
  5
F3C
330
E35
100
AcDbEntity
  8
0
  6
Continuous
 62
     7
370
    15
100
AcDbLine
 10
2217.961238881957
 20
1054.656838528787
 30
0.0
 11
2217.961238881957
 21
1052.453126576734
 31
0.0
  0
ARC
  5
F3D
330
E35
100
AcDbEntity
  8
0
  6
Continuous
 62
     7
370
    15
100
AcDbCircle
 10
2219.496278214673
 20
1052.522872936964
 30
0.0
 40
1.536623020701651
100
AcDbArc
 50
182.6015134789882
 51
237.3994725415649
  0
LINE
  5
F3E
330
E35
100
AcDbEntity
  8
0
  6
Continuous
 62
     7
370
    15
100
AcDbLine
 10
2218.668378706273
 20
1051.228348811371
 30
0.0
 11
2219.317355879644
 21
1050.85370226376
 31
0.0
  0
LWPOLYLINE
  5
F3F
330
E35
100
AcDbEntity
  8
0
  6
Continuous
 62
     7
370
    15
100
AcDbPolyline
 90
       11
 70
   128
 43
0.0
 10
2219.317355879644
 20
1050.85370226376
 10
2219.541745701115
 20
1050.745214389936
 10
2219.760403551191
 20
1050.680844993359
 10
2219.967766045864
 20
1050.662321323689
 10
2220.158606975921
 20
1050.690007912721
 10
2220.328037306935
 20
1050.763320266203
 10
2220.471926647751
 20
1050.880238207126
 10
2220.586397488307
 20
1051.037962868215
 10
2220.668752430297
 20
1051.232381413046
 10
2220.7167998376
 20
1051.458626673468
 10
2220.729275304758
 20
1051.710979849898
  0
LINE
  5
F40
330
E35
100
AcDbEntity
  8
0
  6
Continuous
 62
     7
370
    15
100
AcDbLine
 10
2254.132173328911
 20
1060.280790978793
 30
0.0
 11
2250.596639502004
 21
1058.239770744857
 31
0.0
  0
LINE
  5
F41
330
E35
100
AcDbEntity
  8
0
  6
Continuous
 62
     7
370
    15
100
AcDbLine
 10
2253.609889582164
 20
1061.088365729148
 30
0.0
 11
2250.074355755256
 21
1059.047345495211
 31
0.0
  0
ARC
  5
F42
330
E35
100
AcDbEntity
  8
0
  6
Continuous
 62
     7
370
    15
100
AcDbCircle
 10
2252.972775523792
 20
1060.103648262528
 30
0.0
 40
1.172852425687558
100
AcDbArc
 50
8.68695803142782
 51
57.09705663441162
  0
LINE
  5
F43
330
E35
100
AcDbEntity
  8
0
  6
Continuous
 62
     7
370
    15
100
AcDbLine
 10
2250.995348688916
 20
1055.398572786568
 30
0.0
 11
2254.530882515824
 21
1057.439593020505
 31
0.0
  0
LINE
  5
F44
330
E35
100
AcDbEntity
  8
0
  6
Continuous
 62
     7
370
    15
100
AcDbLine
 10
2254.132173328911
 20
1060.280790978793
 30
0.0
 11
2254.530882515824
 21
1057.439593020505
 31
0.0
  0
LINE
  5
F45
330
E35
100
AcDbEntity
  8
0
  6
Continuous
 62
     7
370
    15
100
AcDbLine
 10
2245.740553373563
 20
1065.141392029325
 30
0.0
 11
2243.159613561383
 21
1063.651447190121
 31
0.0
  0
LINE
  5
F46
330
E35
100
AcDbEntity
  8
0
  6
Continuous
 62
     7
370
    15
100
AcDbLine
 10
2243.159613561383
 20
1063.651447190121
 30
0.0
 11
2245.269569091535
 21
1062.433395789517
 31
0.0
  0
LINE
  5
F47
330
E35
100
AcDbEntity
  8
0
  6
Continuous
 62
     7
370
    15
100
AcDbLine
 10
2245.269569091535
 20
1062.433395789517
 30
0.0
 11
2247.850508903716
 21
1063.923340628721
 31
0.0
  0
LINE
  5
F48
330
E35
100
AcDbEntity
  8
0
  6
Continuous
 62
     7
370
    15
100
AcDbLine
 10
2245.740553373563
 20
1065.141392029325
 30
0.0
 11
2247.850508903716
 21
1063.923340628721
 31
0.0
  0
SPLINE
  5
F49
330
E35
100
AcDbEntity
  8
0
  6
Continuous
 62
     7
370
    15
100
AcDbSpline
210
0.0
220
0.0
230
1.0
 70
     8
 71
     3
 72
     9
 73
     5
 74
     0
 42
0.0000000001
 43
0.0000000001
 40
0.0
 40
0.0
 40
0.0
 40
0.0
 40
0.4995030328531485
 40
1.0
 40
1.0
 40
1.0
 40
1.0
 10
2249.004009701634
 20
1063.177079481519
 30
0.0
 10
2249.109238223985
 20
1063.163021199451
 30
0.0
 10
2249.31990465728
 20
1063.134876661493
 30
0.0
 10
2249.484897241289
 20
1063.054184125761
 30
0.0
 10
2249.567475529188
 20
1063.013797756356
 30
0.0
  0
LWPOLYLINE
  5
F4A
330
E35
100
AcDbEntity
  8
0
  6
Continuous
 62
     7
370
    15
100
AcDbPolyline
 90
       14
 70
   128
 43
0.0
 10
2249.004009701634
 20
1063.177079481519
 10
2248.683523336878
 20
1063.190703763913
 10
2248.363030633631
 20
1063.177755090512
 10
2248.048904327097
 20
1063.138603366389
 10
2247.747747766533
 20
1063.073946274138
 10
2247.465640490784
 20
1062.985152341344
 10
2247.208389030829
 20
1062.874016432098
 10
2246.981182861451
 20
1062.742853102406
 10
2246.788668960809
 20
1062.594344995658
 10
2246.634856691926
 20
1062.431487931877
 10
2246.522855187481
 20
1062.257633950051
 10
2246.455035063644
 20
1062.076292693246
 10
2246.432604873067
 20
1061.891276193848
 10
2246.456205379553
 20
1061.706263353584
  0
SPLINE
  5
F4B
330
E35
100
AcDbEntity
  8
0
  6
Continuous
 62
     7
370
    15
100
AcDbSpline
210
0.0
220
0.0
230
1.0
 70
     8
 71
     3
 72
     9
 73
     5
 74
     0
 42
0.0000000001
 43
0.0000000001
 40
0.0
 40
0.0
 40
0.0
 40
0.0
 40
0.4989535511004386
 40
1.0
 40
1.0
 40
1.0
 40
1.0
 10
2246.739048270098
 20
1061.380981455157
 30
0.0
 10
2246.669295872942
 20
1061.428494998549
 30
0.0
 10
2246.529498497009
 20
1061.523721384427
 30
0.0
 10
2246.48067048272
 20
1061.645331191566
 30
0.0
 10
2246.456205379553
 20
1061.706263353584
 30
0.0
  0
LINE
  5
F4C
330
E35
100
AcDbEntity
  8
0
  6
Continuous
 62
     7
370
    15
100
AcDbLine
 10
2246.739048270098
 20
1061.380981455157
 30
0.0
 11
2247.791286490021
 21
1060.773537260608
 31
0.0
  0
SPLINE
  5
F4D
330
E35
100
AcDbEntity
  8
0
  6
Continuous
 62
     7
370
    15
100
AcDbSpline
210
0.0
220
0.0
230
1.0
 70
     8
 71
     3
 72
     9
 73
     5
 74
     0
 42
0.0000000001
 43
0.0000000001
 40
0.0
 40
0.0
 40
0.0
 40
0.0
 40
0.4995858674642826
 40
1.0
 40
1.0
 40
1.0
 40
1.0
 10
2248.354836611272
 20
1060.610206873731
 30
0.0
 10
2248.249579479739
 20
1060.624281729367
 30
0.0
 10
2248.038890710525
 20
1060.652454775389
 30
0.0
 10
2247.873866791372
 20
1060.733154152044
 30
0.0
 10
2247.791286490021
 20
1060.773537260608
 30
0.0
  0
LWPOLYLINE
  5
F4E
330
E35
100
AcDbEntity
  8
0
  6
Continuous
 62
     7
370
    15
100
AcDbPolyline
 90
       14
 70
   128
 43
0.0
 10
2248.354836611272
 20
1060.610206873731
 10
2248.675238682331
 20
1060.596631253052
 10
2248.995815679275
 20
1060.609531264737
 10
2249.309857692112
 20
1060.648731650575
 10
2249.611014252675
 20
1060.713388742827
 10
2249.893121528425
 20
1060.802182675621
 10
2250.150457282076
 20
1060.913269923152
 10
2250.377663451455
 20
1061.044433252844
 10
2250.570093058399
 20
1061.192990021307
 10
2250.723905327282
 20
1061.355847085087
 10
2250.835906831728
 20
1061.529701066914
 10
2250.903811249262
 20
1061.710993662003
 10
2250.926157146142
 20
1061.896058823117
 10
2250.902640933353
 20
1062.081023001666
  0
SPLINE
  5
F4F
330
E35
100
AcDbEntity
  8
0
  6
Continuous
 62
     7
370
    15
100
AcDbSpline
210
0.0
220
0.0
230
1.0
 70
     8
 71
     3
 72
     9
 73
     5
 74
     0
 42
0.0000000001
 43
0.0000000001
 40
0.0
 40
0.0
 40
0.0
 40
0.0
 40
0.4990458699975717
 40
1.0
 40
1.0
 40
1.0
 40
1.0
 10
2250.61971374911
 20
1062.406353561808
 30
0.0
 10
2250.689499708073
 20
1062.358825544972
 30
0.0
 10
2250.829338474726
 20
1062.263587772869
 30
0.0
 10
2250.878175715759
 20
1062.141955294198
 30
0.0
 10
2250.902640933353
 20
1062.081023001666
 30
0.0
  0
LINE
  5
F50
330
E35
100
AcDbEntity
  8
0
  6
Continuous
 62
     7
370
    15
100
AcDbLine
 10
2250.61971374911
 20
1062.406353561808
 30
0.0
 11
2249.567475529188
 21
1063.013797756356
 31
0.0
  0
LINE
  5
F51
330
E35
100
AcDbEntity
  8
0
  6
Continuous
 62
     7
370
    15
100
AcDbLine
 10
2245.459026254945
 20
1065.79375897084
 30
0.0
 11
2241.923492428038
 21
1063.752738736903
 31
0.0
  0
LINE
  5
F52
330
E35
100
AcDbEntity
  8
0
  6
Continuous
 62
     7
370
    15
100
AcDbLine
 10
2245.459026254945
 20
1065.79375897084
 30
0.0
 11
2253.609889582164
 21
1061.088365729148
 31
0.0
  0
ARC
  5
F53
330
E35
100
AcDbEntity
  8
0
  6
Continuous
 62
     7
370
    15
100
AcDbCircle
 10
2254.426265926882
 20
1057.406540260367
 30
0.0
 40
0.1097137896278574
100
AcDbArc
 50
306.5490411155898
 51
17.53350760181251
  0
LINE
  5
F54
330
E35
100
AcDbEntity
  8
0
  6
Continuous
 62
     7
370
    15
100
AcDbLine
 10
2253.780895974822
 20
1053.255738616289
 30
0.0
 11
2254.134449258731
 21
1053.459840582657
 31
0.0
  0
ARC
  5
F55
330
E35
100
AcDbEntity
  8
0
  6
Continuous
 62
     7
370
    15
100
AcDbCircle
 10
2244.563368067188
 20
1053.970727096199
 30
0.0
 40
9.245216560709287
100
AcDbArc
 50
355.564542215601
 51
4.263248745084121
  0
LINE
  5
F56
330
E35
100
AcDbEntity
  8
0
  6
Continuous
 62
     7
370
    15
100
AcDbLine
 10
2250.601022774249
 20
1052.821089783027
 30
0.0
 11
2253.783003317247
 21
1054.658008050595
 31
0.0
  0
LINE
  5
F57
330
E35
100
AcDbEntity
  8
0
  6
Continuous
 62
     7
370
    15
100
AcDbLine
 10
2250.38615814054
 20
1054.352605382276
 30
0.0
 11
2253.568138683538
 21
1056.189523649844
 31
0.0
  0
ARC
  5
F58
330
E35
100
AcDbEntity
  8
0
  6
Continuous
 62
     7
370
    15
100
AcDbCircle
 10
2240.552689577318
 20
1053.508551281851
 30
0.0
 40
13.288699269476
100
AcDbArc
 50
11.63921298322085
 51
13.96817040041675
  0
ARC
  5
F59
330
E35
100
AcDbEntity
  8
0
  6
Continuous
 62
     7
370
    15
100
AcDbCircle
 10
2243.323914865445
 20
1054.167460650645
 30
0.0
 40
10.8336688166581
100
AcDbArc
 50
356.254959609915
 51
14.72037823773921
  0
LINE
  5
F5A
330
E35
100
AcDbEntity
  8
0
  6
Continuous
 62
     7
370
    15
100
AcDbLine
 10
2249.748644909964
 20
1055.783821895513
 30
0.0
 11
2249.969488469261
 21
1055.911312168588
 31
0.0
  0
ARC
  5
F5B
330
E35
100
AcDbEntity
  8
0
  6
Continuous
 62
     7
370
    15
100
AcDbCircle
 10
2251.980643207177
 20
1055.843344867879
 30
0.0
 40
1.624802029956386
100
AcDbArc
 50
12.30168108113016
 51
30.77654850410775
  0
LINE
  5
F5C
330
E35
100
AcDbEntity
  8
0
  6
Continuous
 62
     7
370
    15
100
AcDbLine
 10
2251.587511910495
 20
1051.178825851499
 30
0.0
 11
2255.123045737402
 21
1053.219846085436
 31
0.0
  0
LINE
  5
F5D
330
E35
100
AcDbEntity
  8
0
  6
Continuous
 62
     7
370
    15
100
AcDbLine
 10
2251.920556307428
 20
1048.805531506785
 30
0.0
 11
2255.456090134336
 21
1050.846551740722
 31
0.0
  0
LINE
  5
F5E
330
E35
100
AcDbEntity
  8
0
  6
Continuous
 62
     7
370
    15
100
AcDbLine
 10
2255.123045737402
 20
1053.219846085436
 30
0.0
 11
2255.456090134336
 21
1050.846551740722
 31
0.0
  0
LINE
  5
F5F
330
E35
100
AcDbEntity
  8
0
  6
Continuous
 62
     7
370
    15
100
AcDbLine
 10
2251.429798403367
 20
1051.403421372296
 30
0.0
 11
2254.965332230274
 21
1053.444441606232
 31
0.0
  0
ARC
  5
F60
330
E35
100
AcDbEntity
  8
0
  6
Continuous
 62
     7
370
    15
100
AcDbCircle
 10
2254.82365705246
 20
1053.177283837015
 30
0.0
 40
0.3023989577721659
100
AcDbArc
 50
8.091170342370446
 51
62.06275619880808
  0
LINE
  5
F61
330
E35
100
AcDbEntity
  8
0
  6
Continuous
 62
     7
370
    15
100
AcDbLine
 10
2250.999984842253
 20
1051.586232822815
 30
0.0
 11
2254.535518669161
 21
1053.627253056752
 31
0.0
  0
LINE
  5
F62
330
E35
100
AcDbEntity
  8
0
  6
Continuous
 62
     7
370
    15
100
AcDbLine
 10
2254.535518669161
 20
1053.627253056752
 30
0.0
 11
2254.965332230274
 21
1053.444441606232
 31
0.0
  0
LINE
  5
F63
330
E35
100
AcDbEntity
  8
0
  6
Continuous
 62
     7
370
    15
100
AcDbLine
 10
2250.476099515262
 20
1052.355553097609
 30
0.0
 11
2253.658080058261
 21
1054.192471365177
 31
0.0
  0
ARC
  5
F64
330
E35
100
AcDbEntity
  8
0
  6
Continuous
 62
     7
370
    15
100
AcDbCircle
 10
2253.174437005134
 20
1054.57178278137
 30
0.0
 40
0.6146444120722923
100
AcDbArc
 50
321.8936310741275
 51
8.064326801253885
  0
ARC
  5
F65
330
E35
100
AcDbEntity
  8
0
  6
Continuous
 62
     7
370
    15
100
AcDbCircle
 10
2254.494275476512
 20
1053.54858138863
 30
0.0
 40
0.0888269795993629
100
AcDbArc
 50
62.33446976380862
 51
116.7144325762373
  0
ARC
  5
F66
330
E35
100
AcDbEntity
  8
0
  6
Continuous
 62
     7
370
    15
100
AcDbCircle
 10
2254.292626580778
 20
1053.698784871514
 30
0.0
 40
0.8039749021360568
100
AcDbArc
 50
142.1165608866236
 51
189.1353499924856
  0
LINE
  5
F67
330
E35
100
AcDbEntity
  8
0
  6
Continuous
 62
     7
370
    15
100
AcDbLine
 10
2250.316868721588
 20
1051.734221723265
 30
0.0
 11
2253.498849264587
 21
1053.571139990833
 31
0.0
  0
LINE
  5
F68
330
E35
100
AcDbEntity
  8
0
  6
Continuous
 62
     7
370
    15
100
AcDbLine
 10
2250.486551933693
 20
1051.460811691711
 30
0.0
 11
2253.668532476692
 21
1053.297729959279
 31
0.0
  0
LINE
  5
F69
330
E35
100
AcDbEntity
  8
0
  6
Continuous
 62
     7
370
    15
100
AcDbLine
 10
2253.780895974822
 20
1053.255738616289
 30
0.0
 11
2253.668532476692
 21
1053.297729959279
 31
0.0
  0
LINE
  5
F6A
330
E35
100
AcDbEntity
  8
0
  6
Continuous
 62
     7
370
    15
100
AcDbLine
 10
2254.134449258731
 20
1053.459840582657
 30
0.0
 11
2254.151982347711
 21
1053.453271828462
 31
0.0
  0
ARC
  5
F6B
330
E35
100
AcDbEntity
  8
0
  6
Continuous
 62
     7
370
    15
100
AcDbCircle
 10
2253.799692718974
 20
1053.564156337034
 30
0.0
 40
0.2969613172103244
100
AcDbArc
 50
187.8418716730145
 51
243.7892300696726
  0
LINE
  5
F6C
330
E35
100
AcDbEntity
  8
0
  6
Continuous
 62
     7
370
    15
100
AcDbLine
 10
2250.323527923653
 20
1051.686720794082
 30
0.0
 11
2253.505508466651
 21
1053.52363906165
 31
0.0
  0
LINE
  5
F6D
330
E35
100
AcDbEntity
  8
0
  6
Continuous
 62
     7
370
    15
100
AcDbLine
 10
2253.505508466651
 20
1053.52363906165
 30
0.0
 11
2253.498849264587
 21
1053.571139990833
 31
0.0
  0
ARC
  5
F6E
330
E35
100
AcDbEntity
  8
0
  6
Continuous
 62
     7
370
    15
100
AcDbCircle
 10
2255.319888764192
 20
1050.807038195944
 30
0.0
 40
0.1418172537101167
100
AcDbArc
 50
307.8702611952527
 51
16.17803658836423
  0
LINE
  5
F6F
330
E35
100
AcDbEntity
  8
0
  6
Continuous
 62
     7
370
    15
100
AcDbLine
 10
2247.16114278408
 20
1064.107298666309
 30
0.0
 11
2246.268307114471
 21
1063.591875605332
 31
0.0
  0
LINE
  5
F70
330
E35
100
AcDbEntity
  8
0
  6
Continuous
 62
     7
370
    15
100
AcDbLine
 10
2247.16114278408
 20
1064.107298666309
 30
0.0
 11
2247.665219092271
 21
1063.816301607637
 31
0.0
  0
LINE
  5
F71
330
E35
100
AcDbEntity
  8
0
  6
Continuous
 62
     7
370
    15
100
AcDbLine
 10
2245.579104663725
 20
1063.194007499377
 30
0.0
 11
2244.76553336615
 21
1062.724342786382
 31
0.0
  0
LWPOLYLINE
  5
F72
330
E35
100
AcDbEntity
  8
0
  6
Continuous
 62
     7
370
    15
100
AcDbPolyline
 90
        9
 70
   128
 43
0.0
 10
2246.268307114471
 20
1063.591875605332
 10
2246.274495416053
 20
1063.510095386813
 10
2246.24733592925
 20
1063.429696467204
 10
2246.188193158282
 20
1063.355262171833
 10
2246.100469771752
 20
1063.290897934958
 10
2245.988975557517
 20
1063.240256298881
 10
2245.860037600271
 20
1063.206113900973
 10
2245.720767506719
 20
1063.190435068915
 10
2245.579104663725
 20
1063.194007499377
  0
LINE
  5
F73
330
E35
100
AcDbEntity
  8
0
  6
Continuous
 62
     7
370
    15
100
AcDbLine
 10
2255.335128679109
 20
1050.532718648293
 30
0.0
 11
2251.799594852201
 21
1048.491698414356
 31
0.0
  0
ARC
  5
F74
330
E35
100
AcDbEntity
  8
0
  6
Continuous
 62
     7
370
    15
100
AcDbCircle
 10
2255.49200445466
 20
1050.568892570524
 30
0.0
 40
0.1609924271655981
100
AcDbArc
 50
139.3967929275531
 51
192.9848446730904
  0
LINE
  5
F75
330
E35
100
AcDbEntity
  8
0
  6
Continuous
 62
     7
370
    15
100
AcDbLine
 10
2255.382248855744
 20
1050.196756648095
 30
0.0
 11
2251.846715028837
 21
1048.155736414158
 31
0.0
  0
LINE
  5
F76
330
E35
100
AcDbEntity
  8
0
  6
Continuous
 62
     7
370
    15
100
AcDbLine
 10
2255.335128679109
 20
1050.532718648293
 30
0.0
 11
2255.382248855744
 21
1050.196756648095
 31
0.0
  0
LINE
  5
F77
330
E35
100
AcDbEntity
  8
0
  6
Continuous
 62
     7
370
    15
100
AcDbLine
 10
2255.495961053027
 20
1049.974736488646
 30
0.0
 11
2251.960427226119
 21
1047.933716254709
 31
0.0
  0
ARC
  5
F78
330
E35
100
AcDbEntity
  8
0
  6
Continuous
 62
     7
370
    15
100
AcDbCircle
 10
2255.784259767057
 20
1050.262524714323
 30
0.0
 40
0.407355141553514
100
AcDbArc
 50
189.2911518936154
 51
224.9492284610806
  0
LWPOLYLINE
  5
F79
330
E35
100
AcDbEntity
  8
0
  6
Continuous
 62
     7
370
    15
100
AcDbPolyline
 90
        9
 70
   128
 43
0.0
 10
2255.495961053027
 20
1049.974736488646
 10
2255.539878069175
 20
1049.922274753726
 10
2255.575450009318
 20
1049.861587069131
 10
2255.599979475151
 20
1049.797394135383
 10
2255.611527711643
 20
1049.734806081192
 10
2255.608998900733
 20
1049.678835775113
 10
2255.592730217207
 20
1049.633863515038
 10
2255.563986066523
 20
1049.603490971861
 10
2255.560445731248
 20
1049.601300506534
  0
LINE
  5
F7A
330
E35
100
AcDbEntity
  8
0
  6
Continuous
 62
     7
370
    15
100
AcDbLine
 10
2244.827636027148
 20
1063.903191241264
 30
0.0
 11
2244.686272132492
 21
1063.821583601947
 31
0.0
  0
LINE
  5
F7B
330
E35
100
AcDbEntity
  8
0
  6
Continuous
 62
     7
370
    15
100
AcDbLine
 10
2245.579114336097
 20
1063.469372047609
 30
0.0
 11
2244.827636027148
 21
1063.903191241264
 31
0.0
  0
ARC
  5
F7C
330
E35
100
AcDbEntity
  8
0
  6
Continuous
 62
     7
370
    15
100
AcDbCircle
 10
2245.676247228709
 20
1062.448273618608
 30
0.0
 40
1.025707950897613
100
AcDbArc
 50
84.56859782991973
 51
95.43396062980846
  0
LINE
  5
F7D
330
E35
100
AcDbEntity
  8
0
  6
Continuous
 62
     7
370
    15
100
AcDbLine
 10
2245.773334525559
 20
1063.469376383919
 30
0.0
 11
2246.666170195168
 21
1063.984799444896
 31
0.0
  0
LINE
  5
F7E
330
E35
100
AcDbEntity
  8
0
  6
Continuous
 62
     7
370
    15
100
AcDbLine
 10
2246.666170195168
 20
1063.984799444896
 30
0.0
 11
2246.807530725074
 21
1063.903193748008
 31
0.0
  0
LINE
  5
F7F
330
E35
100
AcDbEntity
  8
0
  6
Continuous
 62
     7
370
    15
100
AcDbLine
 10
2244.624171601474
 20
1062.80597874866
 30
0.0
 11
2245.084132074813
 21
1063.071508277964
 31
0.0
  0
LINE
  5
F80
330
E35
100
AcDbEntity
  8
0
  6
Continuous
 62
     7
370
    15
100
AcDbLine
 10
2255.437966989476
 20
1049.464478697993
 30
0.0
 11
2251.902433162568
 21
1047.423458464057
 31
0.0
  0
ARC
  5
F81
330
E35
100
AcDbEntity
  8
0
  6
Continuous
 62
     7
370
    15
100
AcDbCircle
 10
2255.599200551023
 20
1049.4699303919
 30
0.0
 40
0.1613257026510738
100
AcDbArc
 50
154.3851054187546
 51
181.9365701088464
  0
LINE
  5
F82
330
E35
100
AcDbEntity
  8
0
  6
Continuous
 62
     7
370
    15
100
AcDbLine
 10
2244.270560777238
 20
1063.01008437978
 30
0.0
 11
2245.084132074813
 21
1063.479749092775
 31
0.0
  0
LINE
  5
F83
330
E35
100
AcDbEntity
  8
0
  6
Continuous
 62
     7
370
    15
100
AcDbLine
 10
2245.084132074813
 20
1063.071508277964
 30
0.0
 11
2245.084132074813
 21
1063.479749092775
 31
0.0
  0
LINE
  5
F84
330
E35
100
AcDbEntity
  8
0
  6
Continuous
 62
     7
370
    15
100
AcDbLine
 10
2245.084139586337
 20
1063.59187002159
 30
0.0
 11
2244.332661277387
 21
1064.025689215245
 31
0.0
  0
ARC
  5
F85
330
E35
100
AcDbEntity
  8
0
  6
Continuous
 62
     7
370
    15
100
AcDbCircle
 10
2245.277631631967
 20
1063.535796593963
 30
0.0
 40
0.2014532228786211
100
AcDbArc
 50
163.8385666940207
 51
196.1537562630859
  0
LINE
  5
F86
330
E35
100
AcDbEntity
  8
0
  6
Continuous
 62
     7
370
    15
100
AcDbLine
 10
2243.42197612932
 20
1063.499961869688
 30
0.0
 11
2244.332661277387
 21
1064.025689215245
 31
0.0
  0
LINE
  5
F87
330
E35
100
AcDbEntity
  8
0
  6
Continuous
 62
     7
370
    15
100
AcDbLine
 10
2255.437966989476
 20
1049.150948973505
 30
0.0
 11
2251.902433162568
 21
1047.109928739568
 31
0.0
  0
LINE
  5
F88
330
E35
100
AcDbEntity
  8
0
  6
Continuous
 62
     7
370
    15
100
AcDbLine
 10
2255.437966989476
 20
1049.464478697993
 30
0.0
 11
2255.437966989476
 21
1049.150948973505
 31
0.0
  0
LINE
  5
F89
330
E35
100
AcDbEntity
  8
0
  6
Continuous
 62
     7
370
    15
100
AcDbLine
 10
2246.268307114471
 20
1063.479740789246
 30
0.0
 11
2246.268307114471
 21
1063.591875605332
 31
0.0
  0
LINE
  5
F8A
330
E35
100
AcDbEntity
  8
0
  6
Continuous
 62
     7
370
    15
100
AcDbLine
 10
2255.526306783954
 20
1048.923134747904
 30
0.0
 11
2251.990772957047
 21
1046.882114513968
 31
0.0
  0
ARC
  5
F8B
330
E35
100
AcDbEntity
  8
0
  6
Continuous
 62
     7
370
    15
100
AcDbCircle
 10
2255.821331957843
 20
1049.168571938744
 30
0.0
 40
0.383769811053164
100
AcDbArc
 50
182.631985911092
 51
219.757730121225
  0
LWPOLYLINE
  5
F8C
330
E35
100
AcDbEntity
  8
0
  6
Continuous
 62
     7
370
    15
100
AcDbPolyline
 90
        9
 70
   128
 43
0.0
 10
2255.526306783954
 20
1048.923134747904
 10
2255.562890248462
 20
1048.869601593104
 10
2255.591044343267
 20
1048.811054675971
 10
2255.608661725944
 20
1048.751630716894
 10
2255.61473087213
 20
1048.695320530213
 10
2255.608661725944
 20
1048.645968960939
 10
2255.591044343267
 20
1048.606934268565
 10
2255.562890248462
 20
1048.580893377384
 10
2255.562890248462
 20
1048.580893377384
  0
LINE
  5
F8D
330
E35
100
AcDbEntity
  8
0
  6
Continuous
 62
     7
370
    15
100
AcDbLine
 10
2255.437966989476
 20
1048.443779321716
 30
0.0
 11
2251.902433162568
 21
1046.40275908778
 31
0.0
  0
ARC
  5
F8E
330
E35
100
AcDbEntity
  8
0
  6
Continuous
 62
     7
370
    15
100
AcDbCircle
 10
2255.600731734736
 20
1048.449086984337
 30
0.0
 40
0.1628512621452069
100
AcDbArc
 50
155.2101115717547
 51
181.867719833909
  0
LINE
  5
F8F
330
E35
100
AcDbEntity
  8
0
  6
Continuous
 62
     7
370
    15
100
AcDbLine
 10
2245.740553373563
 20
1064.83842361347
 30
0.0
 11
2245.740553373563
 21
1065.141392029325
 31
0.0
  0
LINE
  5
F90
330
E35
100
AcDbEntity
  8
0
  6
Continuous
 62
     7
370
    15
100
AcDbLine
 10
2245.084139586337
 20
1063.59187002159
 30
0.0
 11
2245.084139586337
 21
1063.479735205504
 31
0.0
  0
ARC
  5
F91
330
E35
100
AcDbEntity
  8
0
  6
Continuous
 62
     7
370
    15
100
AcDbCircle
 10
2245.313019145823
 20
1065.593998793642
 30
0.0
 40
0.2474312112652312
100
AcDbArc
 50
53.83648277565428
 51
114.8567595603715
  0
LINE
  5
F92
330
E35
100
AcDbEntity
  8
0
  6
Continuous
 62
     7
370
    15
100
AcDbLine
 10
2255.437966989476
 20
1048.130687623852
 30
0.0
 11
2251.902433162568
 21
1046.089667389916
 31
0.0
  0
LINE
  5
F93
330
E35
100
AcDbEntity
  8
0
  6
Continuous
 62
     7
370
    15
100
AcDbLine
 10
2255.437966989476
 20
1048.443779321716
 30
0.0
 11
2255.437966989476
 21
1048.130687623852
 31
0.0
  0
LINE
  5
F94
330
E35
100
AcDbEntity
  8
0
  6
Continuous
 62
     7
370
    15
100
AcDbLine
 10
2255.50321031097
 20
1047.934603826562
 30
0.0
 11
2251.967676484063
 21
1045.893583592626
 31
0.0
  0
ARC
  5
F95
330
E35
100
AcDbEntity
  8
0
  6
Continuous
 62
     7
370
    15
100
AcDbCircle
 10
2255.808560855621
 20
1048.145099836959
 30
0.0
 40
0.3708740022039714
100
AcDbArc
 50
182.2270823837768
 51
214.5807700028067
  0
LWPOLYLINE
  5
F96
330
E35
100
AcDbEntity
  8
0
  6
Continuous
 62
     7
370
    15
100
AcDbPolyline
 90
        8
 70
   128
 43
0.0
 10
2255.50321031097
 20
1047.934603826562
 10
2255.53574767802
 20
1047.875862642225
 10
2255.557832626641
 20
1047.814638326228
 10
2255.567947870283
 20
1047.755262332828
 10
2255.565419059372
 20
1047.702017525751
 10
2255.550330487606
 20
1047.658748813285
 10
2255.523862266741
 20
1047.628571162167
 10
2255.516781596191
 20
1047.623946883387
  0
LINE
  5
F97
330
E35
100
AcDbEntity
  8
0
  6
Continuous
 62
     7
370
    15
100
AcDbLine
 10
2245.579114336097
 20
1063.469372047609
 30
0.0
 11
2245.579114336097
 21
1063.87761286242
 31
0.0
  0
ARC
  5
F98
330
E35
100
AcDbEntity
  8
0
  6
Continuous
 62
     7
370
    15
100
AcDbCircle
 10
2245.676247228709
 20
1062.856514433418
 30
0.0
 40
1.025707950898679
100
AcDbArc
 50
84.56859782991973
 51
95.43396062980846
  0
LINE
  5
F99
330
E35
100
AcDbEntity
  8
0
  6
Continuous
 62
     7
370
    15
100
AcDbLine
 10
2245.773334525559
 20
1063.469376383919
 30
0.0
 11
2245.773334525559
 21
1063.87761719873
 31
0.0
  0
LINE
  5
F9A
330
E35
100
AcDbEntity
  8
0
  6
Continuous
 62
     7
370
    15
100
AcDbLine
 10
2244.827636027148
 20
1064.311432056075
 30
0.0
 11
2245.579114336097
 21
1063.87761286242
 31
0.0
  0
LINE
  5
F9B
330
E35
100
AcDbEntity
  8
0
  6
Continuous
 62
     7
370
    15
100
AcDbLine
 10
2245.773334525559
 20
1063.87761719873
 30
0.0
 11
2246.666170195168
 21
1064.393040259707
 31
0.0
  0
LINE
  5
F9C
330
E35
100
AcDbEntity
  8
0
  6
Continuous
 62
     7
370
    15
100
AcDbLine
 10
2245.81758554725
 20
1064.882917749615
 30
0.0
 11
2246.666170195168
 21
1064.393040259707
 31
0.0
  0
LINE
  5
F9D
330
E35
100
AcDbEntity
  8
0
  6
Continuous
 62
     7
370
    15
100
AcDbLine
 10
2244.827636027148
 20
1064.311432056075
 30
0.0
 11
2245.81758554725
 21
1064.882917749615
 31
0.0
  0
LINE
  5
F9E
330
E35
100
AcDbEntity
  8
0
  6
Continuous
 62
     7
370
    15
100
AcDbLine
 10
2246.666170195168
 20
1063.984799444896
 30
0.0
 11
2246.666170195168
 21
1064.393040259707
 31
0.0
  0
LINE
  5
F9F
330
E35
100
AcDbEntity
  8
0
  6
Continuous
 62
     7
370
    15
100
AcDbLine
 10
2244.827636027148
 20
1063.903191241264
 30
0.0
 11
2244.827636027148
 21
1064.311432056075
 31
0.0
  0
LINE
  5
FA0
330
E35
100
AcDbEntity
  8
0
  6
Continuous
 62
     7
370
    15
100
AcDbLine
 10
2255.266766490824
 20
1047.26138338679
 30
0.0
 11
2251.731232663917
 21
1045.220363152853
 31
0.0
  0
LINE
  5
FA1
330
E35
100
AcDbEntity
  8
0
  6
Continuous
 62
     7
370
    15
100
AcDbLine
 10
2255.320545869524
 20
1047.510722922141
 30
0.0
 11
2255.266766490824
 21
1047.26138338679
 31
0.0
  0
LINE
  5
FA2
330
E35
100
AcDbEntity
  8
0
  6
Continuous
 62
     7
370
    15
100
AcDbLine
 10
2255.319871519948
 20
1047.035999336253
 30
0.0
 11
2251.78433769304
 21
1044.994979102317
 31
0.0
  0
ARC
  5
FA3
330
E35
100
AcDbEntity
  8
0
  6
Continuous
 62
     7
370
    15
100
AcDbCircle
 10
2255.591445138136
 20
1047.218935892687
 30
0.0
 40
0.3274416188818359
100
AcDbArc
 50
172.5515697371774
 51
213.9648707433806
  0
LWPOLYLINE
  5
FA4
330
E35
100
AcDbEntity
  8
0
  6
Continuous
 62
     7
370
    15
100
AcDbPolyline
 90
        8
 70
   128
 43
0.0
 10
2255.319871519948
 20
1047.035999336253
 10
2255.3495429013
 20
1046.978085266617
 10
2255.369099039009
 20
1046.91846681096
 10
2255.377106940226
 20
1046.861378092198
 10
2255.373060842769
 20
1046.810615293627
 10
2255.357297921426
 20
1046.769633990261
 10
2255.330829700561
 20
1046.741257115269
 10
2255.325434903951
 20
1046.737947074556
  0
LINE
  5
FA5
330
E35
100
AcDbEntity
  8
0
  6
Continuous
 62
     7
370
    15
100
AcDbLine
 10
2255.075419798585
 20
1046.375334908334
 30
0.0
 11
2251.539885971677
 21
1044.334314674397
 31
0.0
  0
LINE
  5
FA6
330
E35
100
AcDbEntity
  8
0
  6
Continuous
 62
     7
370
    15
100
AcDbLine
 10
2255.129283470981
 20
1046.624674451595
 30
0.0
 11
2255.075419798585
 21
1046.375334908334
 31
0.0
  0
LINE
  5
FA7
330
E35
100
AcDbEntity
  8
0
  6
Continuous
 62
     7
370
    15
100
AcDbLine
 10
2255.128609121406
 20
1046.149950865707
 30
0.0
 11
2251.593075294498
 21
1044.108930631771
 31
0.0
  0
ARC
  5
FA8
330
E35
100
AcDbEntity
  8
0
  6
Continuous
 62
     7
370
    15
100
AcDbCircle
 10
2255.400917412027
 20
1046.333182244743
 30
0.0
 40
0.3282156964626646
100
AcDbArc
 50
172.6211363500573
 51
213.9359047551355
  0
LWPOLYLINE
  5
FA9
330
E35
100
AcDbEntity
  8
0
  6
Continuous
 62
     7
370
    15
100
AcDbPolyline
 90
        8
 70
   128
 43
0.0
 10
2255.128609121406
 20
1046.149950865707
 10
2255.158280502758
 20
1046.091988126446
 10
2255.177752346769
 20
1046.03246700213
 10
2255.185760247986
 20
1045.975378283368
 10
2255.181714150529
 20
1045.924615484796
 10
2255.165951229186
 20
1045.883634181431
 10
2255.139483008322
 20
1045.855257306438
 10
2255.134172505409
 20
1045.85189860401
  0
LINE
  5
FAA
330
E35
100
AcDbEntity
  8
0
  6
Continuous
 62
     7
370
    15
100
AcDbLine
 10
2254.884157400042
 20
1045.489286437788
 30
0.0
 11
2251.348623573135
 21
1043.448266203852
 31
0.0
  0
LINE
  5
FAB
330
E35
100
AcDbEntity
  8
0
  6
Continuous
 62
     7
370
    15
100
AcDbLine
 10
2254.937936778742
 20
1045.738625973139
 30
0.0
 11
2254.884157400042
 21
1045.489286437788
 31
0.0
  0
LINE
  5
FAC
330
E35
100
AcDbEntity
  8
0
  6
Continuous
 62
     7
370
    15
100
AcDbLine
 10
2254.937262429166
 20
1045.263951056877
 30
0.0
 11
2251.401728602258
 21
1043.22293082294
 31
0.0
  0
ARC
  5
FAD
330
E35
100
AcDbEntity
  8
0
  6
Continuous
 62
     7
370
    15
100
AcDbCircle
 10
2255.208587152876
 20
1045.446819793212
 30
0.0
 40
0.3271973111524459
100
AcDbArc
 50
172.5425946066156
 51
213.9793707636153
  0
LWPOLYLINE
  5
FAE
330
E35
100
AcDbEntity
  8
0
  6
Continuous
 62
     7
370
    15
100
AcDbPolyline
 90
        8
 70
   128
 43
0.0
 10
2254.937262429166
 20
1045.263951056877
 10
2254.966933810518
 20
1045.205988317616
 10
2254.986489948227
 20
1045.146369861958
 10
2254.994497849444
 20
1045.089281143196
 10
2254.990451751987
 20
1045.038518344625
 10
2254.974688830644
 20
1044.997585710885
 10
2254.948220609779
 20
1044.969208835892
 10
2254.94282581317
 20
1044.965850125554
  0
LINE
  5
FAF
330
E35
100
AcDbEntity
  8
0
  6
Continuous
 62
     7
370
    15
100
AcDbLine
 10
2239.971166111316
 20
1061.042046786481
 30
0.0
 11
2240.43078547918
 21
1061.307379399785
 31
0.0
  0
ARC
  5
FB0
330
E35
100
AcDbEntity
  8
0
  6
Continuous
 62
     7
370
    15
100
AcDbCircle
 10
2240.799914095868
 20
1061.922895488645
 30
0.0
 40
0.7177158151413361
100
AcDbArc
 50
239.0486362015633
 51
257.5950344900825
  0
LINE
  5
FB1
330
E35
100
AcDbEntity
  8
0
  6
Continuous
 62
     7
370
    15
100
AcDbLine
 10
2254.692810707803
 20
1044.603237959332
 30
0.0
 11
2251.157276880896
 21
1042.562217725396
 31
0.0
  0
LINE
  5
FB2
330
E35
100
AcDbEntity
  8
0
  6
Continuous
 62
     7
370
    15
100
AcDbLine
 10
2254.7466743802
 20
1044.852577502593
 30
0.0
 11
2254.692810707803
 21
1044.603237959332
 31
0.0
  0
LINE
  5
FB3
330
E35
100
AcDbEntity
  8
0
  6
Continuous
 62
     7
370
    15
100
AcDbLine
 10
2254.746000030624
 20
1044.377853916705
 30
0.0
 11
2251.210466203716
 21
1042.336833682769
 31
0.0
  0
ARC
  5
FB4
330
E35
100
AcDbEntity
  8
0
  6
Continuous
 62
     7
370
    15
100
AcDbCircle
 10
2255.017783362019
 20
1044.560961408418
 30
0.0
 40
0.3277110506921599
100
AcDbArc
 50
172.5878681954407
 51
213.9691729097766
  0
LINE
  5
FB5
330
E35
100
AcDbEntity
  8
0
  6
Continuous
 62
     7
370
    15
100
AcDbLine
 10
2251.26357123284
 20
1042.111498301857
 30
0.0
 11
2254.799105059747
 21
1044.152518535794
 31
0.0
  0
ARC
  5
FB6
330
E35
100
AcDbEntity
  8
0
  6
Continuous
 62
     7
370
    15
100
AcDbCircle
 10
2254.474542420398
 20
1044.194953862863
 30
0.0
 40
0.3273250125555466
100
AcDbArc
 50
352.5510491286802
 51
33.97091624146128
  0
LINE
  5
FB7
330
E35
100
AcDbEntity
  8
0
  6
Continuous
 62
     7
370
    15
100
AcDbLine
 10
2253.537144121634
 20
1038.307616181743
 30
0.0
 11
2250.001610294727
 21
1036.266595947807
 31
0.0
  0
LINE
  5
FB8
330
E35
100
AcDbEntity
  8
0
  6
Continuous
 62
     7
370
    15
100
AcDbLine
 10
2254.799105059747
 20
1044.152518535794
 30
0.0
 11
2253.537144121634
 21
1038.307616181743
 31
0.0
  0
LINE
  5
FB9
330
E35
100
AcDbEntity
  8
0
  6
Continuous
 62
     7
370
    15
100
AcDbLine
 10
2238.920613765333
 20
1061.648517746719
 30
0.0
 11
2239.380233133197
 21
1061.913850360023
 31
0.0
  0
LINE
  5
FBA
330
E35
100
AcDbEntity
  8
0
  6
Continuous
 62
     7
370
    15
100
AcDbLine
 10
2240.43078547918
 20
1061.307379399785
 30
0.0
 11
2239.380233133197
 21
1061.913850360023
 31
0.0
  0
ARC
  5
FBB
330
E35
100
AcDbEntity
  8
0
  6
Continuous
 62
     7
370
    15
100
AcDbCircle
 10
2242.976379319602
 20
1064.806447984067
 30
0.0
 40
1.708825656583691
100
AcDbArc
 50
202.9890286979043
 51
218.3818152815402
  0
LINE
  5
FBC
330
E35
100
AcDbEntity
  8
0
  6
Continuous
 62
     7
370
    15
100
AcDbLine
 10
2241.403269184738
 20
1064.139057822178
 30
0.0
 11
2238.786974093557
 21
1062.628702814849
 31
0.0
  0
LINE
  5
FBD
330
E35
100
AcDbEntity
  8
0
  6
Continuous
 62
     7
370
    15
100
AcDbLine
 10
2238.224263534237
 20
1062.725267859953
 30
0.0
 11
2241.759797361144
 21
1064.76628809389
 31
0.0
  0
ARC
  5
FBE
330
E35
100
AcDbEntity
  8
0
  6
Continuous
 62
     7
370
    15
100
AcDbCircle
 10
2240.198019784215
 20
1063.196135224777
 30
0.0
 40
1.520864714877703
100
AcDbArc
 50
201.9068398747354
 51
237.472004683968
  0
ARC
  5
FBF
330
E35
100
AcDbEntity
  8
0
  6
Continuous
 62
     7
370
    15
100
AcDbCircle
 10
2243.358181880361
 20
1065.025872327673
 30
0.0
 40
1.619326108509358
100
AcDbArc
 50
189.2245340623423
 51
218.4819087982793
  0
LINE
  5
FC0
330
E35
100
AcDbEntity
  8
0
  6
Continuous
 62
     7
370
    15
100
AcDbLine
 10
2238.121172342779
 20
1063.46031553352
 30
0.0
 11
2241.656706169687
 21
1065.501335767457
 31
0.0
  0
LINE
  5
FC1
330
E35
100
AcDbEntity
  8
0
  6
Continuous
 62
     7
370
    15
100
AcDbLine
 10
2237.912208267862
 20
1063.783364896766
 30
0.0
 11
2241.447742094769
 21
1065.824385130703
 31
0.0
  0
ARC
  5
FC2
330
E35
100
AcDbEntity
  8
0
  6
Continuous
 62
     7
370
    15
100
AcDbCircle
 10
2241.192981402213
 20
1065.430484740321
 30
0.0
 40
0.4691060946252214
100
AcDbArc
 50
8.686860187913936
 51
57.10665527548492
  0
LINE
  5
FC3
330
E35
100
AcDbEntity
  8
0
  6
Continuous
 62
     7
370
    15
100
AcDbLine
 10
2241.656706169687
 20
1065.501335767457
 30
0.0
 11
2241.759797361144
 21
1064.76628809389
 31
0.0
  0
LINE
  5
FC4
330
E35
100
AcDbEntity
  8
0
  6
Continuous
 62
     7
370
    15
100
AcDbLine
 10
2237.581692681839
 20
1063.97416748323
 30
0.0
 11
2241.117226508747
 21
1066.015187717166
 31
0.0
  0
LINE
  5
FC5
330
E35
100
AcDbEntity
  8
0
  6
Continuous
 62
     7
370
    15
100
AcDbLine
 10
2241.117226508747
 20
1066.015187717166
 30
0.0
 11
2241.447742094769
 21
1065.824385130703
 31
0.0
  0
ARC
  5
FC6
330
E35
100
AcDbEntity
  8
0
  6
Continuous
 62
     7
370
    15
100
AcDbCircle
 10
2241.044598795232
 20
1065.919317215307
 30
0.0
 40
0.1202744274454163
100
AcDbArc
 50
52.85386562048388
 51
115.8172864462362
  0
LINE
  5
FC7
330
E35
100
AcDbEntity
  8
0
  6
Continuous
 62
     7
370
    15
100
AcDbLine
 10
2241.403269184738
 20
1063.187858670453
 30
0.0
 11
2241.403269184738
 21
1064.139057822178
 31
0.0
  0
LINE
  5
FC8
330
E35
100
AcDbEntity
  8
0
  6
Continuous
 62
     7
370
    15
100
AcDbLine
 10
2240.960492174984
 20
1062.038674627848
 30
0.0
 11
2240.062253939998
 21
1061.520132732265
 31
0.0
  0
LINE
  5
FC9
330
E35
100
AcDbEntity
  8
0
  6
Continuous
 62
     7
370
    15
100
AcDbLine
 10
2235.689720652185
 20
1063.719058457658
 30
0.0
 11
2239.225254479093
 21
1065.760078691594
 31
0.0
  0
ARC
  5
FCA
330
E35
100
AcDbEntity
  8
0
  6
Continuous
 62
     7
370
    15
100
AcDbCircle
 10
2242.413022871768
 20
1071.252297696501
 30
0.0
 40
6.35030211275037
100
AcDbArc
 50
239.8684612859298
 51
246.9161116796873
  0
LINE
  5
FCB
330
E35
100
AcDbEntity
  8
0
  6
Continuous
 62
     7
370
    15
100
AcDbLine
 10
2235.397390110914
 20
1063.887817287001
 30
0.0
 11
2238.932923937821
 21
1065.928837520938
 31
0.0
  0
LINE
  5
FCC
330
E35
100
AcDbEntity
  8
0
  6
Continuous
 62
     7
370
    15
100
AcDbLine
 10
2238.932923937821
 20
1065.928837520938
 30
0.0
 11
2239.225254479093
 21
1065.760078691594
 31
0.0
  0
ARC
  5
FCD
330
E35
100
AcDbEntity
  8
0
  6
Continuous
 62
     7
370
    15
100
AcDbCircle
 10
2238.875279047004
 20
1065.849281378385
 30
0.0
 40
0.0982451691188629
100
AcDbArc
 50
54.0736169146593
 51
114.5979886647675
  0
LINE
  5
FCE
330
E35
100
AcDbEntity
  8
0
  6
Continuous
 62
     7
370
    15
100
AcDbLine
 10
2250.227689282862
 20
1040.331816037955
 30
0.0
 11
2250.275062340588
 21
1042.57514950995
 31
0.0
  0
LINE
  5
FCF
330
E35
100
AcDbEntity
  8
0
  6
Continuous
 62
     7
370
    15
100
AcDbLine
 10
2233.075604520146
 20
1064.292579376561
 30
0.0
 11
2236.257585063144
 21
1066.12949764413
 31
0.0
  0
ARC
  5
FD0
330
E35
100
AcDbEntity
  8
0
  6
Continuous
 62
     7
370
    15
100
AcDbCircle
 10
2233.23557323681
 20
1059.829276114686
 30
0.0
 40
6.987513634946885
100
AcDbArc
 50
64.37447730675512
 51
74.85596790910182
  0
LINE
  5
FD1
330
E35
100
AcDbEntity
  8
0
  6
Continuous
 62
     7
370
    15
100
AcDbLine
 10
2235.06103603392
 20
1066.574128401796
 30
0.0
 11
2235.414589317829
 21
1066.778230368164
 31
0.0
  0
LWPOLYLINE
  5
FD2
330
E35
100
AcDbEntity
  8
0
  6
Continuous
 62
     7
370
    15
100
AcDbPolyline
 90
        3
 70
   128
 43
0.0
 10
2237.691083674697
 20
1065.278546420746
 10
2237.646576602669
 20
1065.310128831158
 10
2237.495185122819
 20
1065.415046337204
  0
LINE
  5
FD3
330
E35
100
AcDbEntity
  8
0
  6
Continuous
 62
     7
370
    15
100
AcDbLine
 10
2234.313204579819
 20
1063.578128069636
 30
0.0
 11
2237.495185122819
 21
1065.415046337204
 31
0.0
  0
ARC
  5
FD4
330
E35
100
AcDbEntity
  8
0
  6
Continuous
 62
     7
370
    15
100
AcDbCircle
 10
2233.121374605369
 20
1058.805669984827
 30
0.0
 40
8.295815377852093
100
AcDbArc
 50
53.59683511462113
 51
73.95273130246549
  0
LINE
  5
FD5
330
E35
100
AcDbEntity
  8
0
  6
Continuous
 62
     7
370
    15
100
AcDbLine
 10
2255.579411813078
 20
1035.656043293937
 30
0.0
 11
2252.043877986171
 21
1033.615023060001
 31
0.0
  0
ARC
  5
FD6
330
E35
100
AcDbEntity
  8
0
  6
Continuous
 62
     7
370
    15
100
AcDbCircle
 10
2254.336262178727
 20
1036.001108885956
 30
0.0
 40
0.3608881795034802
100
AcDbArc
 50
52.87843308836206
 51
115.8122813390345
  0
LINE
  5
FD7
330
E35
100
AcDbEntity
  8
0
  6
Continuous
 62
     7
370
    15
100
AcDbLine
 10
2255.049035871417
 20
1036.574608364873
 30
0.0
 11
2254.554061142235
 21
1036.288865535923
 31
0.0
  0
ARC
  5
FD8
330
E35
100
AcDbEntity
  8
0
  6
Continuous
 62
     7
370
    15
100
AcDbCircle
 10
2254.427980410008
 20
1035.60361366636
 30
0.0
 40
1.152623351613978
100
AcDbArc
 50
2.605914185778146
 51
57.39671492046744
  0
LINE
  5
FD9
330
E35
100
AcDbEntity
  8
0
  6
Continuous
 62
     7
370
    15
100
AcDbLine
 10
2235.330629502872
 20
1062.450402316801
 30
0.0
 11
2235.509735169798
 21
1062.553797817482
 31
0.0
  0
LINE
  5
FDA
330
E35
100
AcDbEntity
  8
0
  6
Continuous
 62
     7
370
    15
100
AcDbLine
 10
2255.579327519381
 20
1033.822098810194
 30
0.0
 11
2252.043793692473
 21
1031.781078576257
 31
0.0
  0
LINE
  5
FDB
330
E35
100
AcDbEntity
  8
0
  6
Continuous
 62
     7
370
    15
100
AcDbLine
 10
2255.579411813078
 20
1035.656018959125
 30
0.0
 11
2255.579327519381
 21
1033.822098810194
 31
0.0
  0
ARC
  5
FDC
330
E35
100
AcDbEntity
  8
0
  6
Continuous
 62
     7
370
    15
100
AcDbCircle
 10
2236.78430812563
 20
1064.381071596786
 30
0.0
 40
1.254770843204158
100
AcDbArc
 50
44.95886375514312
 51
55.49074842175024
  0
LINE
  5
FDD
330
E35
100
AcDbEntity
  8
0
  6
Continuous
 62
     7
370
    15
100
AcDbLine
 10
2253.528799045629
 20
1038.22404965251
 30
0.0
 11
2249.993265218722
 21
1036.183029418574
 31
0.0
  0
ARC
  5
FDE
330
E35
100
AcDbEntity
  8
0
  6
Continuous
 62
     7
370
    15
100
AcDbCircle
 10
2253.928658881667
 20
1038.226319004
 30
0.0
 40
0.3998662756881606
100
AcDbArc
 50
168.2693606341625
 51
180.3251711097862
  0
LINE
  5
FDF
330
E35
100
AcDbEntity
  8
0
  6
Continuous
 62
     7
370
    15
100
AcDbLine
 10
2253.528799045629
 20
1038.064632295701
 30
0.0
 11
2253.033824316448
 21
1037.778889466752
 31
0.0
  0
LINE
  5
FE0
330
E35
100
AcDbEntity
  8
0
  6
Continuous
 62
     7
370
    15
100
AcDbLine
 10
2253.033824316448
 20
1035.664802629205
 30
0.0
 11
2253.033824316448
 21
1037.778889466752
 31
0.0
  0
LINE
  5
FE1
330
E35
100
AcDbEntity
  8
0
  6
Continuous
 62
     7
370
    15
100
AcDbLine
 10
2253.528799045629
 20
1038.22404965251
 30
0.0
 11
2253.528799045629
 21
1038.064632295701
 31
0.0
  0
LWPOLYLINE
  5
FE2
330
E35
100
AcDbEntity
  8
0
  6
Continuous
 62
     7
370
    15
100
AcDbPolyline
 90
        6
 70
   128
 43
0.0
 10
2255.579327519381
 20
1033.822098810194
 10
2255.56575623416
 20
1033.670637663642
 10
2255.525548140681
 20
1033.54066165713
 10
2255.460136231792
 20
1033.437256900936
 10
2255.372217905799
 20
1033.364292883355
 10
2255.372217905799
 20
1033.36424421373
  0
LINE
  5
FE3
330
E35
100
AcDbEntity
  8
0
  6
Continuous
 62
     7
370
    15
100
AcDbLine
 10
2232.638794582179
 20
1064.309280740338
 30
0.0
 11
2235.820775125177
 21
1066.146199007905
 31
0.0
  0
ARC
  5
FE4
330
E35
100
AcDbEntity
  8
0
  6
Continuous
 62
     7
370
    15
100
AcDbCircle
 10
2236.023327281813
 20
1065.723231527575
 30
0.0
 40
0.4689657402998721
100
AcDbArc
 50
60.03174938820482
 51
115.5889923821332
  0
LINE
  5
FE5
330
E35
100
AcDbEntity
  8
0
  6
Continuous
 62
     7
370
    15
100
AcDbLine
 10
2232.130587882835
 20
1065.619808716718
 30
0.0
 11
2235.666121709742
 21
1067.660828950654
 31
0.0
  0
LINE
  5
FE6
330
E35
100
AcDbEntity
  8
0
  6
Continuous
 62
     7
370
    15
100
AcDbLine
 10
2231.991418989052
 20
1065.854042563371
 30
0.0
 11
2235.526952815959
 21
1067.895062797307
 31
0.0
  0
ARC
  5
FE7
330
E35
100
AcDbEntity
  8
0
  6
Continuous
 62
     7
370
    15
100
AcDbCircle
 10
2235.362509478976
 20
1067.638899411389
 30
0.0
 40
0.3044031723928731
100
AcDbArc
 50
4.131229686743432
 51
57.30168433775225
  0
LINE
  5
FE8
330
E35
100
AcDbEntity
  8
0
  6
Continuous
 62
     7
370
    15
100
AcDbLine
 10
2232.149638258361
 20
1065.106345960133
 30
0.0
 11
2235.685172085269
 21
1067.14736619407
 31
0.0
  0
LINE
  5
FE9
330
E35
100
AcDbEntity
  8
0
  6
Continuous
 62
     7
370
    15
100
AcDbLine
 10
2235.685172085269
 20
1067.14736619407
 30
0.0
 11
2235.666121709742
 21
1067.660828950654
 31
0.0
  0
LINE
  5
FEA
330
E35
100
AcDbEntity
  8
0
  6
Continuous
 62
     7
370
    15
100
AcDbLine
 10
2231.69908844778
 20
1066.022801392714
 30
0.0
 11
2235.234622274687
 21
1068.06382162665
 31
0.0
  0
LINE
  5
FEB
330
E35
100
AcDbEntity
  8
0
  6
Continuous
 62
     7
370
    15
100
AcDbLine
 10
2235.526952815959
 20
1067.895062797307
 30
0.0
 11
2235.234622274687
 21
1068.06382162665
 31
0.0
  0
LINE
  5
FEC
330
E35
100
AcDbEntity
  8
0
  6
Continuous
 62
     7
370
    15
100
AcDbLine
 10
2230.326449885477
 20
1067.02395278965
 30
0.0
 11
2233.861983712385
 21
1069.064973023587
 31
0.0
  0
ARC
  5
FED
330
E35
100
AcDbEntity
  8
0
  6
Continuous
 62
     7
370
    15
100
AcDbCircle
 10
2239.51160835397
 20
1075.369386415744
 30
0.0
 40
8.465452546085497
100
AcDbArc
 50
228.1352734583149
 51
239.6534923381838
  0
ARC
  5
FEE
330
E35
100
AcDbEntity
  8
0
  6
Continuous
 62
     7
370
    15
100
AcDbCircle
 10
2254.185232177976
 20
1037.831275610216
 30
0.0
 40
1.152598963913773
100
AcDbArc
 50
182.605016463803
 51
237.3923545122967
  0
LINE
  5
FEF
330
E35
100
AcDbEntity
  8
0
  6
Continuous
 62
     7
370
    15
100
AcDbLine
 10
2253.564115964412
 20
1036.860348722719
 30
0.0
 11
2254.554061142235
 21
1036.288865535923
 31
0.0
  0
LINE
  5
FF0
330
E35
100
AcDbEntity
  8
0
  6
Continuous
 62
     7
370
    15
100
AcDbLine
 10
2235.313639630793
 20
1066.047017089474
 30
0.0
 11
2235.419705714748
 21
1066.10824773641
 31
0.0
  0
ARC
  5
FF1
330
E35
100
AcDbEntity
  8
0
  6
Continuous
 62
     7
370
    15
100
AcDbCircle
 10
2235.574289200804
 20
1066.612836308171
 30
0.0
 40
0.5277363744458376
100
AcDbArc
 50
252.9672662453034
 51
297.8437920067174
  0
LINE
  5
FF2
330
E35
100
AcDbEntity
  8
0
  6
Continuous
 62
     7
370
    15
100
AcDbLine
 10
2232.058095303396
 20
1064.339596097539
 30
0.0
 11
2235.13400976244
 21
1066.115283718171
 31
0.0
  0
ARC
  5
FF3
330
E35
100
AcDbEntity
  8
0
  6
Continuous
 62
     7
370
    15
100
AcDbCircle
 10
2235.550377151113
 20
1066.940407342847
 30
0.0
 40
0.9242244307255043
100
AcDbArc
 50
243.2239346620924
 51
255.1584259336549
  0
ARC
  5
FF4
330
E35
100
AcDbEntity
  8
0
  6
Continuous
 62
     7
370
    15
100
AcDbCircle
 10
2235.5843047439
 20
1067.131846057908
 30
0.0
 40
0.102054373651148
100
AcDbArc
 50
305.823904181781
 51
8.747318467093206
  0
LINE
  5
FF5
330
E35
100
AcDbEntity
  8
0
  6
Continuous
 62
     7
370
    15
100
AcDbLine
 10
2229.807116418126
 20
1068.462334826944
 30
0.0
 11
2233.342650245033
 21
1070.50335506088
 31
0.0
  0
LWPOLYLINE
  5
FF6
330
E35
100
AcDbEntity
  8
0
  6
Continuous
 62
     7
370
    15
100
AcDbPolyline
 90
        9
 70
   128
 43
0.0
 10
2233.467657797717
 20
1070.082715221533
 10
2233.475581405237
 20
1070.087923614909
 10
2233.506011429861
 20
1070.126813500657
 10
2233.5190769529
 20
1070.184050205679
 10
2233.5134292752
 20
1070.253501230668
 10
2233.48965845264
 20
1070.327768847984
 10
2233.45029329613
 20
1070.399066154908
 10
2233.399464196826
 20
1070.459752407877
 10
2233.342650245033
 20
1070.50335506088
  0
LINE
  5
FF7
330
E35
100
AcDbEntity
  8
0
  6
Continuous
 62
     7
370
    15
100
AcDbLine
 10
2254.059090693593
 20
1037.146091551669
 30
0.0
 11
2253.564115964412
 21
1036.860348722719
 31
0.0
  0
LINE
  5
FF8
330
E35
100
AcDbEntity
  8
0
  6
Continuous
 62
     7
370
    15
100
AcDbLine
 10
2255.049035871417
 20
1036.574608364873
 30
0.0
 11
2254.059090693593
 21
1037.146091551669
 31
0.0
  0
LINE
  5
FF9
330
E35
100
AcDbEntity
  8
0
  6
Continuous
 62
     7
370
    15
100
AcDbLine
 10
2231.879055490921
 20
1064.605461459253
 30
0.0
 11
2235.06103603392
 21
1066.442379726821
 31
0.0
  0
LINE
  5
FFA
330
E35
100
AcDbEntity
  8
0
  6
Continuous
 62
     7
370
    15
100
AcDbLine
 10
2235.06103603392
 20
1066.574128401796
 30
0.0
 11
2235.06103603392
 21
1066.442379726821
 31
0.0
  0
LINE
  5
FFB
330
E35
100
AcDbEntity
  8
0
  6
Continuous
 62
     7
370
    15
100
AcDbLine
 10
2235.414589317829
 20
1066.778230368164
 30
0.0
 11
2235.414589317829
 21
1066.916598112145
 31
0.0
  0
LINE
  5
FFC
330
E35
100
AcDbEntity
  8
0
  6
Continuous
 62
     7
370
    15
100
AcDbLine
 10
2229.476600832104
 20
1068.653137413407
 30
0.0
 11
2233.012134659011
 21
1070.694157647343
 31
0.0
  0
LINE
  5
FFD
330
E35
100
AcDbEntity
  8
0
  6
Continuous
 62
     7
370
    15
100
AcDbLine
 10
2233.342650245033
 20
1070.50335506088
 30
0.0
 11
2233.012134659011
 21
1070.694157647343
 31
0.0
  0
LINE
  5
FFE
330
E35
100
AcDbEntity
  8
0
  6
Continuous
 62
     7
370
    15
100
AcDbLine
 10
2232.019741671251
 20
1064.36173717809
 30
0.0
 11
2235.095656130295
 21
1066.137424798722
 31
0.0
  0
ARC
  5
FFF
330
E35
100
AcDbEntity
  8
0
  6
Continuous
 62
     7
370
    15
100
AcDbCircle
 10
2235.356806695902
 20
1066.454074975359
 30
0.0
 40
0.2960017961558246
100
AcDbArc
 50
182.264387779113
 51
214.9055824281403
  0
LINE
  5
1000
330
E35
100
AcDbEntity
  8
0
  6
Continuous
 62
     7
370
    15
100
AcDbLine
 10
2235.114056769347
 20
1066.284695116802
 30
0.0
 11
2235.007990685392
 21
1066.223464469866
 31
0.0
  0
ARC
  5
1001
330
E35
100
AcDbEntity
  8
0
  6
Continuous
 62
     7
370
    15
100
AcDbCircle
 10
2235.239864225705
 20
1066.372038601804
 30
0.0
 40
0.2753899260652071
100
AcDbArc
 50
212.6499211959252
 51
238.422554470517
  0
LINE
  5
1002
330
E35
100
AcDbEntity
  8
0
  6
Continuous
 62
     7
370
    15
100
AcDbLine
 10
2235.13400976244
 20
1066.115283718171
 30
0.0
 11
2235.095656130295
 21
1066.137424798722
 31
0.0
  0
ARC
  5
1003
330
E35
100
AcDbEntity
  8
0
  6
Continuous
 62
     7
370
    15
100
AcDbCircle
 10
2254.680206907157
 20
1038.117018439165
 30
0.0
 40
1.152598963913718
100
AcDbArc
 50
182.605016463803
 51
237.3923545122967
  0
ARC
  5
1004
330
E35
100
AcDbEntity
  8
0
  6
Continuous
 62
     7
370
    15
100
AcDbCircle
 10
2232.924610894912
 20
1070.575954576518
 30
0.0
 40
0.1470794861113358
100
AcDbArc
 50
53.48180839118095
 51
115.155068200098
  0
LINE
  5
1005
330
E35
100
AcDbEntity
  8
0
  6
Continuous
 62
     7
370
    15
100
AcDbLine
 10
2229.850359084698
 20
1067.446068444139
 30
0.0
 11
2233.385892911606
 21
1069.487088678075
 31
0.0
  0
LINE
  5
1006
330
E35
100
AcDbEntity
  8
0
  6
Continuous
 62
     7
370
    15
100
AcDbLine
 10
2233.861983712385
 20
1069.064973023587
 30
0.0
 11
2233.385892911606
 21
1069.487088678075
 31
0.0
  0
LINE
  5
1007
330
E35
100
AcDbEntity
  8
0
  6
Continuous
 62
     7
370
    15
100
AcDbLine
 10
2229.771797359074
 20
1067.609737021447
 30
0.0
 11
2233.307331185981
 21
1069.650757255383
 31
0.0
  0
LINE
  5
1008
330
E35
100
AcDbEntity
  8
0
  6
Continuous
 62
     7
370
    15
100
AcDbLine
 10
2233.307331185981
 20
1069.650757255383
 30
0.0
 11
2233.307331185981
 21
1069.990130550767
 31
0.0
  0
ARC
  5
1009
330
E35
100
AcDbEntity
  8
0
  6
Continuous
 62
     7
370
    15
100
AcDbCircle
 10
2233.541839645524
 20
1069.662633177577
 30
0.0
 40
0.2348089758191934
100
AcDbArc
 50
182.8990827505786
 51
228.3833889733581
  0
LINE
  5
100A
330
E35
100
AcDbEntity
  8
0
  6
Continuous
 62
     7
370
    15
100
AcDbLine
 10
2226.753155775027
 20
1069.209905722625
 30
0.0
 11
2230.288689601934
 21
1071.250925956561
 31
0.0
  0
LINE
  5
100B
330
E35
100
AcDbEntity
  8
0
  6
Continuous
 62
     7
370
    15
100
AcDbLine
 10
2229.333051958798
 20
1074.834429447208
 30
0.0
 11
2225.797518131891
 21
1072.793409213272
 31
0.0
  0
LINE
  5
100C
330
E35
100
AcDbEntity
  8
0
  6
Continuous
 62
     7
370
    15
100
AcDbLine
 10
2230.288689601934
 20
1071.250925956561
 30
0.0
 11
2229.333051958798
 21
1074.834429447208
 31
0.0
  0
LINE
  5
100D
330
E35
100
AcDbEntity
  8
0
  6
Continuous
 62
     7
370
    15
100
AcDbLine
 10
2228.468111040935
 20
1067.682619130055
 30
0.0
 11
2228.927730408798
 21
1067.947951743359
 31
0.0
  0
ARC
  5
100E
330
E35
100
AcDbEntity
  8
0
  6
Continuous
 62
     7
370
    15
100
AcDbCircle
 10
2229.299573738232
 20
1068.569861508527
 30
0.0
 40
0.7245958995578857
100
AcDbArc
 50
239.1245606293182
 51
257.4402614730502
  0
LINE
  5
100F
330
E35
100
AcDbEntity
  8
0
  6
Continuous
 62
     7
370
    15
100
AcDbLine
 10
2235.114056769347
 20
1066.284695116802
 30
0.0
 11
2235.419705714748
 21
1066.10824773641
 31
0.0
  0
LINE
  5
1010
330
E35
100
AcDbEntity
  8
0
  6
Continuous
 62
     7
370
    15
100
AcDbLine
 10
2229.000850498835
 20
1075.294861598186
 30
0.0
 11
2225.465316671928
 21
1073.25384136425
 31
0.0
  0
ARC
  5
1011
330
E35
100
AcDbEntity
  8
0
  6
Continuous
 62
     7
370
    15
100
AcDbCircle
 10
2228.576233833318
 20
1074.638443354162
 30
0.0
 40
0.7817827215555372
100
AcDbArc
 50
14.51842096414757
 51
57.1024208298417
  0
LINE
  5
1012
330
E35
100
AcDbEntity
  8
0
  6
Continuous
 62
     7
370
    15
100
AcDbLine
 10
2223.179815731096
 20
1075.185538967499
 30
0.0
 11
2225.760755543277
 21
1076.675483806703
 31
0.0
  0
LINE
  5
1013
330
E35
100
AcDbEntity
  8
0
  6
Continuous
 62
     7
370
    15
100
AcDbLine
 10
2225.289855554946
 20
1073.967438905179
 30
0.0
 11
2223.179815731096
 21
1075.185538967499
 31
0.0
  0
LINE
  5
1014
330
E35
100
AcDbEntity
  8
0
  6
Continuous
 62
     7
370
    15
100
AcDbLine
 10
2227.870795367127
 20
1075.457383744383
 30
0.0
 11
2225.289855554946
 21
1073.967438905179
 31
0.0
  0
LINE
  5
1015
330
E35
100
AcDbEntity
  8
0
  6
Continuous
 62
     7
370
    15
100
AcDbLine
 10
2227.870795367127
 20
1075.457383744383
 30
0.0
 11
2225.760755543277
 21
1076.675483806703
 31
0.0
  0
SPLINE
  5
1016
330
E35
100
AcDbEntity
  8
0
  6
Continuous
 62
     7
370
    15
100
AcDbSpline
210
0.0
220
0.0
230
1.0
 70
     8
 71
     3
 72
     9
 73
     5
 74
     0
 42
0.0000000001
 43
0.0000000001
 40
0.0
 40
0.0
 40
0.0
 40
0.0
 40
0.4989535511004386
 40
1.0
 40
1.0
 40
1.0
 40
1.0
 10
2224.185294656775
 20
1077.666618879933
 30
0.0
 10
2224.255047053931
 20
1077.61910533654
 30
0.0
 10
2224.394844429864
 20
1077.523878950662
 30
0.0
 10
2224.443672444153
 20
1077.402269143524
 30
0.0
 10
2224.46813754732
 20
1077.341336981507
 30
0.0
  0
LINE
  5
1017
330
E35
100
AcDbEntity
  8
0
  6
Continuous
 62
     7
370
    15
100
AcDbLine
 10
2223.132972143155
 20
1078.274111736197
 30
0.0
 11
2224.185294656775
 21
1077.666618879933
 31
0.0
  0
SPLINE
  5
1018
330
E35
100
AcDbEntity
  8
0
  6
Continuous
 62
     7
370
    15
100
AcDbSpline
210
0.0
220
0.0
230
1.0
 70
     8
 71
     3
 72
     9
 73
     5
 74
     0
 42
0.0000000001
 43
0.0000000001
 40
0.0
 40
0.0
 40
0.0
 40
0.0
 40
0.4996779276412444
 40
1.0
 40
1.0
 40
1.0
 40
1.0
 10
2222.569506315601
 20
1078.437393461359
 30
0.0
 10
2222.674763221668
 20
1078.42331867071
 30
0.0
 10
2222.885412722563
 20
1078.395150945319
 30
0.0
 10
2223.050416907433
 20
1078.314475461467
 30
0.0
 10
2223.132972143155
 20
1078.274111736197
 30
0.0
  0
LWPOLYLINE
  5
1019
330
E35
100
AcDbEntity
  8
0
  6
Continuous
 62
     7
370
    15
100
AcDbPolyline
 90
       14
 70
   128
 43
0.0
 10
2220.02170199352
 20
1076.966577333424
 10
2219.998101487034
 20
1077.151590173689
 10
2220.020531677612
 20
1077.336606673086
 10
2220.088436095145
 20
1077.517899268175
 10
2220.200353305894
 20
1077.691801911718
 10
2220.354165574777
 20
1077.854658975499
 10
2220.546679475418
 20
1078.003167082246
 10
2220.773885644797
 20
1078.134330411938
 10
2221.031137104751
 20
1078.245466321184
 10
2221.313244380501
 20
1078.334260253978
 10
2221.614485234761
 20
1078.398868684514
 10
2221.928527247598
 20
1078.438069070353
 10
2222.249019950845
 20
1078.451017743753
 10
2222.569506315601
 20
1078.437393461359
  0
SPLINE
  5
101A
330
E35
100
AcDbEntity
  8
0
  6
Continuous
 62
     7
370
    15
100
AcDbSpline
210
0.0
220
0.0
230
1.0
 70
     8
 71
     3
 72
     9
 73
     5
 74
     0
 42
0.0000000001
 43
0.0000000001
 40
0.0
 40
0.0
 40
0.0
 40
0.0
 40
0.4989535511004386
 40
1.0
 40
1.0
 40
1.0
 40
1.0
 10
2220.304544884065
 20
1076.641295434997
 30
0.0
 10
2220.234792486909
 20
1076.688808978389
 30
0.0
 10
2220.094995110977
 20
1076.784035364268
 30
0.0
 10
2220.046167096687
 20
1076.905645171406
 30
0.0
 10
2220.02170199352
 20
1076.966577333424
 30
0.0
  0
LINE
  5
101B
330
E35
100
AcDbEntity
  8
0
  6
Continuous
 62
     7
370
    15
100
AcDbLine
 10
2221.356867397685
 20
1076.033802578733
 30
0.0
 11
2220.304544884065
 21
1076.641295434997
 31
0.0
  0
SPLINE
  5
101C
330
E35
100
AcDbEntity
  8
0
  6
Continuous
 62
     7
370
    15
100
AcDbSpline
210
0.0
220
0.0
230
1.0
 70
     8
 71
     3
 72
     9
 73
     5
 74
     0
 42
0.0000000001
 43
0.0000000001
 40
0.0
 40
0.0
 40
0.0
 40
0.0
 40
0.4996779276412444
 40
1.0
 40
1.0
 40
1.0
 40
1.0
 10
2221.920333225239
 20
1075.870520853571
 30
0.0
 10
2221.815076319173
 20
1075.88459564422
 30
0.0
 10
2221.604426818278
 20
1075.912763369611
 30
0.0
 10
2221.439422633407
 20
1075.993438853464
 30
0.0
 10
2221.356867397685
 20
1076.033802578733
 30
0.0
  0
LWPOLYLINE
  5
101D
330
E35
100
AcDbEntity
  8
0
  6
Continuous
 62
     7
370
    15
100
AcDbPolyline
 90
       14
 70
   128
 43
0.0
 10
2224.46813754732
 20
1077.341336981507
 10
2224.491738053806
 20
1077.156324141242
 10
2224.469307863229
 20
1076.971307641844
 10
2224.401403445695
 20
1076.790015046755
 10
2224.289486234946
 20
1076.616112403212
 10
2224.135673966063
 20
1076.453255339432
 10
2223.943160065422
 20
1076.304747232684
 10
2223.715953896043
 20
1076.173583902992
 10
2223.45870243609
 20
1076.062447993746
 10
2223.176595160339
 20
1075.973654060952
 10
2222.875354306079
 20
1075.909045630416
 10
2222.561312293242
 20
1075.869845244577
 10
2222.240819589995
 20
1075.856896571177
 10
2221.920333225239
 20
1075.870520853571
  0
LINE
  5
101E
330
E35
100
AcDbEntity
  8
0
  6
Continuous
 62
     7
370
    15
100
AcDbLine
 10
2220.849902877919
 20
1080.000303501594
 30
0.0
 11
2217.314369051012
 21
1077.959283267658
 31
0.0
  0
LINE
  5
101F
330
E35
100
AcDbEntity
  8
0
  6
Continuous
 62
     7
370
    15
100
AcDbLine
 10
2229.000850498835
 20
1075.294861598186
 30
0.0
 11
2220.849902877919
 21
1080.000303501594
 31
0.0
  0
LINE
  5
1020
330
E35
100
AcDbEntity
  8
0
  6
Continuous
 62
     7
370
    15
100
AcDbLine
 10
2227.417558694952
 20
1068.289090090293
 30
0.0
 11
2227.877178062816
 21
1068.554422703598
 31
0.0
  0
LINE
  5
1021
330
E35
100
AcDbEntity
  8
0
  6
Continuous
 62
     7
370
    15
100
AcDbLine
 10
2227.877178062816
 20
1068.554422703598
 30
0.0
 11
2228.927730408798
 21
1067.947951743359
 31
0.0
  0
LINE
  5
1022
330
E35
100
AcDbEntity
  8
0
  6
Continuous
 62
     7
370
    15
100
AcDbLine
 10
2235.007990685392
 20
1066.223464469866
 30
0.0
 11
2235.313639630793
 21
1066.047017089474
 31
0.0
  0
LINE
  5
1023
330
E35
100
AcDbEntity
  8
0
  6
Continuous
 62
     7
370
    15
100
AcDbLine
 10
2230.086756065866
 20
1070.448158853437
 30
0.0
 11
2227.470460974686
 21
1068.937803846109
 31
0.0
  0
LINE
  5
1024
330
E35
100
AcDbEntity
  8
0
  6
Continuous
 62
     7
370
    15
100
AcDbLine
 10
2230.493473153996
 20
1070.064777710926
 30
0.0
 11
2230.953092521859
 21
1070.33011032423
 31
0.0
  0
ARC
  5
1025
330
E35
100
AcDbEntity
  8
0
  6
Continuous
 62
     7
370
    15
100
AcDbCircle
 10
2231.199695526046
 20
1071.221414286562
 30
0.0
 40
1.355196741023855
100
AcDbArc
 50
214.7910554372867
 51
238.5924798148113
  0
ARC
  5
1026
330
E35
100
AcDbEntity
  8
0
  6
Continuous
 62
     7
370
    15
100
AcDbCircle
 10
2228.583400434865
 20
1069.711059279233
 30
0.0
 40
1.355196741023503
100
AcDbArc
 50
214.7910554372867
 51
238.5924798148336
  0
ARC
  5
1027
330
E35
100
AcDbEntity
  8
0
  6
Continuous
 62
     7
370
    15
100
AcDbCircle
 10
2231.801885463841
 20
1071.642649774044
 30
0.0
 40
1.563076858530862
100
AcDbArc
 50
194.5136544025918
 51
237.1100612280468
  0
LINE
  5
1028
330
E35
100
AcDbEntity
  8
0
  6
Continuous
 62
     7
370
    15
100
AcDbLine
 10
2224.443503125955
 20
1074.456001128677
 30
0.0
 11
2225.25707442353
 21
1074.925665841672
 31
0.0
  0
ARC
  5
1029
330
E35
100
AcDbEntity
  8
0
  6
Continuous
 62
     7
370
    15
100
AcDbCircle
 10
2225.354161503988
 20
1075.95646064912
 30
0.0
 40
1.035356864203041
100
AcDbArc
 50
264.6193773476016
 51
275.3831811121021
  0
LINE
  5
102A
330
E35
100
AcDbEntity
  8
0
  6
Continuous
 62
     7
370
    15
100
AcDbLine
 10
2225.451294612991
 20
1074.925670177982
 30
0.0
 11
2226.200581285818
 21
1074.49311618893
 31
0.0
  0
LINE
  5
102B
330
E35
100
AcDbEntity
  8
0
  6
Continuous
 62
     7
370
    15
100
AcDbLine
 10
2224.762101834618
 20
1074.803166620259
 30
0.0
 11
2224.302141361279
 21
1074.537637090956
 31
0.0
  0
LWPOLYLINE
  5
102C
330
E35
100
AcDbEntity
  8
0
  6
Continuous
 62
     7
370
    15
100
AcDbPolyline
 90
        8
 70
   128
 43
0.0
 10
2225.451304285364
 20
1075.201034726214
 10
2225.309557148674
 20
1075.204655818392
 10
2225.170371338528
 20
1075.188928318679
 10
2225.041433386426
 20
1075.15478592374
 10
2224.929939177336
 20
1075.104144290634
 10
2224.842215785661
 20
1075.039780050788
 10
2224.783073009549
 20
1074.965345752447
 10
2224.762109346141
 20
1074.915287549075
  0
LINE
  5
102D
330
E35
100
AcDbEntity
  8
0
  6
Continuous
 62
     7
370
    15
100
AcDbLine
 10
2226.344139954973
 20
1075.716457787192
 30
0.0
 11
2225.451304285364
 21
1075.201034726214
 31
0.0
  0
LINE
  5
102E
330
E35
100
AcDbEntity
  8
0
  6
Continuous
 62
     7
370
    15
100
AcDbLine
 10
2226.485500484879
 20
1075.634852090303
 30
0.0
 11
2226.344139954973
 21
1075.716457787192
 31
0.0
  0
LINE
  5
102F
330
E35
100
AcDbEntity
  8
0
  6
Continuous
 62
     7
370
    15
100
AcDbLine
 10
2225.946269362752
 20
1074.803172204001
 30
0.0
 11
2226.341943976573
 21
1074.574754111458
 31
0.0
  0
LINE
  5
1030
330
E35
100
AcDbEntity
  8
0
  6
Continuous
 62
     7
370
    15
100
AcDbLine
 10
2230.086756065866
 20
1070.448158853437
 30
0.0
 11
2230.086756065866
 21
1069.10687265704
 31
0.0
  0
LINE
  5
1031
330
E35
100
AcDbEntity
  8
0
  6
Continuous
 62
     7
370
    15
100
AcDbLine
 10
2229.227396477345
 20
1068.331070591236
 30
0.0
 11
2228.745740821127
 21
1068.053016699445
 31
0.0
  0
LINE
  5
1032
330
E35
100
AcDbEntity
  8
0
  6
Continuous
 62
     7
370
    15
100
AcDbLine
 10
2230.493473153996
 20
1070.064777710926
 30
0.0
 11
2231.119775322868
 21
1069.703221164784
 31
0.0
  0
LINE
  5
1033
330
E35
100
AcDbEntity
  8
0
  6
Continuous
 62
     7
370
    15
100
AcDbLine
 10
2224.762101834618
 20
1075.21140743507
 30
0.0
 11
2223.948530537044
 21
1074.741742722075
 31
0.0
  0
LINE
  5
1034
330
E35
100
AcDbEntity
  8
0
  6
Continuous
 62
     7
370
    15
100
AcDbLine
 10
2223.38283553633
 20
1075.068311494775
 30
0.0
 11
2225.77844495426
 21
1076.451267374702
 31
0.0
  0
LINE
  5
1035
330
E35
100
AcDbEntity
  8
0
  6
Continuous
 62
     7
370
    15
100
AcDbLine
 10
2226.344139954973
 20
1076.124698602002
 30
0.0
 11
2225.77844495426
 21
1076.451267374702
 31
0.0
  0
LINE
  5
1036
330
E35
100
AcDbEntity
  8
0
  6
Continuous
 62
     7
370
    15
100
AcDbLine
 10
2226.344139954973
 20
1076.124698602002
 30
0.0
 11
2225.451304285364
 21
1075.609275541025
 31
0.0
  0
LWPOLYLINE
  5
1037
330
E35
100
AcDbEntity
  8
0
  6
Continuous
 62
     7
370
    15
100
AcDbPolyline
 90
        9
 70
   128
 43
0.0
 10
2225.451304285364
 20
1075.609275541025
 10
2225.309557148674
 20
1075.612896633203
 10
2225.170371338528
 20
1075.597169133489
 10
2225.041433386426
 20
1075.563026738551
 10
2224.929939177336
 20
1075.512385105445
 10
2224.842215785661
 20
1075.448020865598
 10
2224.783073009549
 20
1075.373586567258
 10
2224.755829239339
 20
1075.293236315305
 10
2224.762101834618
 20
1075.21140743507
  0
LINE
  5
1038
330
E35
100
AcDbEntity
  8
0
  6
Continuous
 62
     7
370
    15
100
AcDbLine
 10
2224.762101834618
 20
1074.803166620259
 30
0.0
 11
2224.762101834618
 21
1075.21140743507
 31
0.0
  0
LINE
  5
1039
330
E35
100
AcDbEntity
  8
0
  6
Continuous
 62
     7
370
    15
100
AcDbLine
 10
2225.946269362752
 20
1074.803172204001
 30
0.0
 11
2225.946269362752
 21
1075.211413018812
 31
0.0
  0
LINE
  5
103A
330
E35
100
AcDbEntity
  8
0
  6
Continuous
 62
     7
370
    15
100
AcDbLine
 10
2226.695556035579
 20
1074.77885902976
 30
0.0
 11
2225.946269362752
 21
1075.211413018812
 31
0.0
  0
LINE
  5
103B
330
E35
100
AcDbEntity
  8
0
  6
Continuous
 62
     7
370
    15
100
AcDbLine
 10
2225.946276874276
 20
1075.323533947627
 30
0.0
 11
2226.839112543885
 21
1075.838957008604
 31
0.0
  0
LINE
  5
103C
330
E35
100
AcDbEntity
  8
0
  6
Continuous
 62
     7
370
    15
100
AcDbLine
 10
2227.685505555681
 20
1075.350344723299
 30
0.0
 11
2226.839112543885
 21
1075.838957008604
 31
0.0
  0
ARC
  5
103D
330
E35
100
AcDbEntity
  8
0
  6
Continuous
 62
     7
370
    15
100
AcDbCircle
 10
2225.750886868421
 20
1075.26748657309
 30
0.0
 40
0.2032696794427763
100
AcDbArc
 50
343.9868519207039
 51
16.00547103644442
  0
LINE
  5
103E
330
E35
100
AcDbEntity
  8
0
  6
Continuous
 62
     7
370
    15
100
AcDbLine
 10
2225.760755543277
 20
1076.675483806703
 30
0.0
 11
2225.760755543277
 21
1076.441090892524
 31
0.0
  0
LINE
  5
103F
330
E35
100
AcDbEntity
  8
0
  6
Continuous
 62
     7
370
    15
100
AcDbLine
 10
2231.579394690732
 20
1069.968553778088
 30
0.0
 11
2230.953092521859
 21
1070.33011032423
 31
0.0
  0
LINE
  5
1040
330
E35
100
AcDbEntity
  8
0
  6
Continuous
 62
     7
370
    15
100
AcDbLine
 10
2225.451304285364
 20
1075.201034726214
 30
0.0
 11
2225.451304285364
 21
1075.609275541025
 31
0.0
  0
LINE
  5
1041
330
E35
100
AcDbEntity
  8
0
  6
Continuous
 62
     7
370
    15
100
AcDbLine
 10
2225.946276874276
 20
1075.211399131542
 30
0.0
 11
2225.946276874276
 21
1075.323533947627
 31
0.0
  0
LINE
  5
1042
330
E35
100
AcDbEntity
  8
0
  6
Continuous
 62
     7
370
    15
100
AcDbLine
 10
2226.344139954973
 20
1076.124698602002
 30
0.0
 11
2226.344139954973
 21
1075.716457787192
 31
0.0
  0
ARC
  5
1043
330
E35
100
AcDbEntity
  8
0
  6
Continuous
 62
     7
370
    15
100
AcDbCircle
 10
2220.630320553937
 20
1079.694310717543
 30
0.0
 40
0.3766271112077519
100
AcDbArc
 50
54.33654309823435
 51
114.3615365630706
  0
LINE
  5
1044
330
E35
100
AcDbEntity
  8
0
  6
Continuous
 62
     7
370
    15
100
AcDbLine
 10
2222.979907517794
 20
1054.21834122381
 30
0.0
 11
2221.363163906362
 21
1053.285015003337
 31
0.0
  0
LINE
  5
1045
330
E35
100
AcDbEntity
  8
0
  6
Continuous
 62
     7
370
    15
100
AcDbLine
 10
2222.948628083941
 20
1053.170435463651
 30
0.0
 11
2221.496769416142
 21
1052.332295295046
 31
0.0
  0
LINE
  5
1046
330
E35
100
AcDbEntity
  8
0
  6
Continuous
 62
     8
370
    15
100
AcDbLine
 10
2250.902640933353
 20
1062.081023001666
 30
0.0
 11
2250.882605128287
 21
1061.698199726445
 31
0.0
  0
LINE
  5
1047
330
E35
100
AcDbEntity
  8
0
  6
Continuous
 62
     8
370
    15
100
AcDbLine
 10
2250.109421933218
 20
1054.968201502349
 30
0.0
 11
2250.727114044238
 21
1055.324787567893
 31
0.0
  0
LINE
  5
1048
330
E35
100
AcDbEntity
  8
0
  6
Continuous
 62
     8
370
    15
100
AcDbLine
 10
2249.741985707899
 20
1055.831322824696
 30
0.0
 11
2249.915504118582
 21
1055.931492871004
 31
0.0
  0
LINE
  5
1049
330
E35
100
AcDbEntity
  8
0
  6
Continuous
 62
     8
370
    15
100
AcDbLine
 10
2249.204336800692
 20
1060.6444958406
 30
0.0
 11
2249.004009701634
 21
1063.177079481519
 31
0.0
  0
LINE
  5
104A
330
E35
100
AcDbEntity
  8
0
  6
Continuous
 62
     8
370
    15
100
AcDbLine
 10
2250.568884649807
 20
1061.206739874442
 30
0.0
 11
2250.61971374911
 21
1062.406353561808
 31
0.0
  0
LINE
  5
104B
330
E35
100
AcDbEntity
  8
0
  6
Continuous
 62
     8
370
    15
100
AcDbLine
 10
2250.799450137038
 20
1051.34388794296
 30
0.0
 11
2250.884212059205
 21
1051.392819959079
 31
0.0
  0
LINE
  5
104C
330
E35
100
AcDbEntity
  8
0
  6
Continuous
 62
     8
370
    15
100
AcDbLine
 10
2249.567475529188
 20
1063.013797756356
 30
0.0
 11
2249.659692833729
 21
1060.734753877783
 31
0.0
  0
LINE
  5
104D
330
E35
100
AcDbEntity
  8
0
  6
Continuous
 62
     8
370
    15
100
AcDbLine
 10
2251.926879322521
 20
1045.571556405231
 30
0.0
 11
2251.789985370741
 21
1045.49252920901
 31
0.0
  0
LINE
  5
104E
330
E35
100
AcDbEntity
  8
0
  6
Continuous
 62
     8
370
    15
100
AcDbLine
 10
2251.735532630282
 20
1044.685507926776
 30
0.0
 11
2251.598638678502
 21
1044.606480730554
 31
0.0
  0
LINE
  5
104F
330
E35
100
AcDbEntity
  8
0
  6
Continuous
 62
     8
370
    15
100
AcDbLine
 10
2251.544270231739
 20
1043.79945945623
 30
0.0
 11
2251.407376279959
 21
1043.720432260008
 31
0.0
  0
LINE
  5
1050
330
E35
100
AcDbEntity
  8
0
  6
Continuous
 62
     8
370
    15
100
AcDbLine
 10
2251.3529235395
 20
1042.913459647399
 30
0.0
 11
2251.21602958772
 21
1042.834432451178
 31
0.0
  0
LINE
  5
1051
330
E35
100
AcDbEntity
  8
0
  6
Continuous
 62
     8
370
    15
100
AcDbLine
 10
2237.538450015267
 20
1063.007828020525
 30
0.0
 11
2237.613441606478
 21
1063.051119744641
 31
0.0
  0
LINE
  5
1052
330
E35
100
AcDbEntity
  8
0
  6
Continuous
 62
     8
370
    15
100
AcDbLine
 10
2237.062274920791
 20
1063.135443766005
 30
0.0
 11
2237.617008859759
 21
1063.455684852448
 31
0.0
  0
LINE
  5
1053
330
E35
100
AcDbEntity
  8
0
  6
Continuous
 62
     8
370
    15
100
AcDbLine
 10
2247.397433739582
 20
1044.261659100766
 30
0.0
 11
2246.810925275058
 21
1043.923074971162
 31
0.0
  0
LINE
  5
1054
330
E35
100
AcDbEntity
  8
0
  6
Continuous
 62
     8
370
    15
100
AcDbLine
 10
2249.850312328196
 20
1038.583757491241
 30
0.0
 11
2246.659533795207
 21
1036.74176025216
 31
0.0
  0
LINE
  5
1055
330
E35
100
AcDbEntity
  8
0
  6
Continuous
 62
     8
370
    15
100
AcDbLine
 10
2235.369067428715
 20
1062.428212574535
 30
0.0
 11
2235.509792133897
 21
1062.509451217623
 31
0.0
  0
LINE
  5
1056
330
E35
100
AcDbEntity
  8
0
  6
Continuous
 62
     8
370
    15
100
AcDbLine
 10
2234.750014517786
 20
1063.090499414001
 30
0.0
 11
2235.241163844239
 21
1063.374033884961
 31
0.0
  0
LINE
  5
1057
330
E35
100
AcDbEntity
  8
0
  6
Continuous
 62
     8
370
    15
100
AcDbLine
 10
2245.103804713162
 20
1045.585732063361
 30
0.0
 11
2244.314398850364
 21
1045.130017758919
 31
0.0
  0
LINE
  5
1058
330
E35
100
AcDbEntity
  8
0
  6
Continuous
 62
     8
370
    15
100
AcDbLine
 10
2251.01493355563
 20
1034.000385139874
 30
0.0
 11
2249.993265218722
 21
1033.41058856315
 31
0.0
  0
LINE
  5
1059
330
E35
100
AcDbEntity
  8
0
  6
Continuous
 62
     8
370
    15
100
AcDbLine
 10
2245.959751929838
 20
1041.013938532146
 30
0.0
 11
2244.457866722695
 21
1040.1469186571
 31
0.0
  0
LINE
  5
105A
330
E35
100
AcDbEntity
  8
0
  6
Continuous
 62
     8
370
    15
100
AcDbLine
 10
2251.195342399818
 20
1032.716612352372
 30
0.0
 11
2250.983210396546
 21
1032.594151153543
 31
0.0
  0
LINE
  5
105B
330
E35
100
AcDbEntity
  8
0
  6
Continuous
 62
     8
370
    15
100
AcDbLine
 10
2251.171876812637
 20
1033.601166578447
 30
0.0
 11
2250.205348160429
 21
1033.043201464149
 31
0.0
  0
LINE
  5
105C
330
E35
100
AcDbEntity
  8
0
  6
Continuous
 62
     8
370
    15
100
AcDbLine
 10
2231.879055490921
 20
1064.972284423157
 30
0.0
 11
2231.983570949514
 21
1065.032619913125
 31
0.0
  0
LINE
  5
105D
330
E35
100
AcDbEntity
  8
0
  6
Continuous
 62
     8
370
    15
100
AcDbLine
 10
2249.427537126146
 20
1034.287872677043
 30
0.0
 11
2248.720430393692
 21
1033.879668649264
 31
0.0
  0
LINE
  5
105E
330
E35
100
AcDbEntity
  8
0
  6
Continuous
 62
     8
370
    15
100
AcDbLine
 10
2249.427553342806
 20
1035.037175133943
 30
0.0
 11
2248.071453220322
 21
1034.254315196875
 31
0.0
  0
LINE
  5
105F
330
E35
100
AcDbEntity
  8
0
  6
Continuous
 62
     8
370
    15
100
AcDbLine
 10
2245.996824075529
 20
1038.875379400629
 30
0.0
 11
2245.222747729471
 21
1038.428514637833
 31
0.0
  0
LINE
  5
1060
330
E35
100
AcDbEntity
  8
0
  6
Continuous
 62
     8
370
    15
100
AcDbLine
 10
2224.46813754732
 20
1077.341336981507
 30
0.0
 11
2224.446699371725
 21
1076.931227510971
 31
0.0
  0
LINE
  5
1061
330
E35
100
AcDbEntity
  8
0
  6
Continuous
 62
     8
370
    15
100
AcDbLine
 10
2222.769834484795
 20
1075.904713098966
 30
0.0
 11
2222.569506315601
 21
1078.437393461359
 31
0.0
  0
LINE
  5
1062
330
E35
100
AcDbEntity
  8
0
  6
Continuous
 62
     8
370
    15
100
AcDbLine
 10
2224.134718438562
 20
1076.474841025927
 30
0.0
 11
2224.185294656775
 21
1077.666618879933
 31
0.0
  0
LINE
  5
1063
330
E35
100
AcDbEntity
  8
0
  6
Continuous
 62
     8
370
    15
100
AcDbLine
 10
2223.132972143155
 20
1078.274111736197
 30
0.0
 11
2223.225020860303
 21
1075.999837465058
 31
0.0
  0
LINE
  5
1064
330
E35
100
AcDbEntity
  8
0
  6
Continuous
 62
     8
370
    15
100
AcDbLine
 10
2217.279302873051
 20
1073.920625822089
 30
0.0
 11
2217.501837245372
 21
1074.049092180746
 31
0.0
  0
LINE
  5
1065
330
E35
100
AcDbEntity
  8
0
  6
Continuous
 62
     8
370
    15
100
AcDbLine
 10
2217.098830067727
 20
1074.829903492331
 30
0.0
 11
2217.18361174623
 21
1074.87884691354
 31
0.0
  0
LINE
  5
1066
330
E35
100
AcDbEntity
  8
0
  6
Continuous
 62
     8
370
    15
100
AcDbLine
 10
2217.094362501785
 20
1074.80347546673
 30
0.0
 11
2217.205754811402
 21
1074.867780878293
 31
0.0
  0
LINE
  5
1067
330
E35
100
AcDbEntity
  8
0
  6
Continuous
 62
     8
370
    15
100
AcDbLine
 10
2216.902257166272
 20
1070.848612380002
 30
0.0
 11
2217.073807022785
 21
1070.947646004176
 31
0.0
  0
LINE
  5
1068
330
E35
100
AcDbEntity
  8
0
  6
Continuous
 62
     8
370
    15
100
AcDbLine
 10
2216.589358962928
 20
1071.0929532071
 30
0.0
 11
2217.039778710969
 21
1071.352974992925
 31
0.0
  0
LINE
  5
1069
330
E35
100
AcDbEntity
  8
0
  6
Continuous
 62
     8
370
    15
100
AcDbLine
 10
2216.509027069665
 20
1071.308114081597
 30
0.0
 11
2216.974800453638
 21
1071.576999332781
 31
0.0
  0
LINE
  5
106A
330
E35
100
AcDbEntity
  8
0
  6
Continuous
 62
     8
370
    15
100
AcDbLine
 10
2216.388824257712
 20
1071.56683052929
 30
0.0
 11
2216.867403862823
 21
1071.843108654575
 31
0.0
  0
LINE
  5
106B
330
E35
100
AcDbEntity
  8
0
  6
Continuous
 62
     8
370
    15
100
AcDbLine
 10
2215.959010696598
 20
1071.880271253408
 30
0.0
 11
2216.789180135168
 21
1072.359517869243
 31
0.0
  0
LINE
  5
106C
330
E35
100
AcDbEntity
  8
0
  6
Continuous
 62
     8
370
    15
100
AcDbLine
 10
2216.504643797421
 20
1071.281637394281
 30
0.0
 11
2216.98180621475
 21
1071.557097394474
 31
0.0
  0
LINE
  5
106D
330
E35
100
AcDbEntity
  8
0
  6
Continuous
 62
     8
370
    15
100
AcDbLine
 10
2222.272514925574
 20
1058.765497802046
 30
0.0
 11
2221.539422026835
 21
1058.342292279787
 31
0.0
  0
LINE
  5
106E
330
E35
100
AcDbEntity
  8
0
  6
Continuous
 62
     8
370
    15
100
AcDbLine
 10
2215.534026571634
 20
1069.084204519807
 30
0.0
 11
2215.428381873846
 21
1069.023217133928
 31
0.0
  0
LINE
  5
106F
330
E35
100
AcDbEntity
  8
0
  6
Continuous
 62
     8
370
    15
100
AcDbLine
 10
2215.462726451663
 20
1068.043996748673
 30
0.0
 11
2215.398036142918
 21
1068.006651828344
 31
0.0
  0
LINE
  5
1070
330
E35
100
AcDbEntity
  8
0
  6
Continuous
 62
     8
370
    15
100
AcDbLine
 10
2215.446777162224
 20
1067.006355891815
 30
0.0
 11
2215.421048322205
 21
1066.991502948626
 31
0.0
  0
LINE
  5
1071
330
E35
100
AcDbEntity
  8
0
  6
Continuous
 62
     8
370
    15
100
AcDbLine
 10
2215.615272524672
 20
1065.887504010173
 30
0.0
 11
2215.604387113228
 21
1065.881219995905
 31
0.0
  0
LINE
  5
1072
330
E35
100
AcDbEntity
  8
0
  6
Continuous
 62
     8
370
    15
100
AcDbLine
 10
2215.806619216912
 20
1064.780580012986
 30
0.0
 11
2215.795733805467
 21
1064.774295998718
 31
0.0
  0
LINE
  5
1073
330
E35
100
AcDbEntity
  8
0
  6
Continuous
 62
     8
370
    15
100
AcDbLine
 10
2217.350829120742
 20
1061.607414306855
 30
0.0
 11
2216.834653621261
 21
1061.309432533724
 31
0.0
  0
LINE
  5
1074
330
E35
100
AcDbEntity
  8
0
  6
Continuous
 62
     8
370
    15
100
AcDbLine
 10
2220.630877066101
 20
1056.492093678221
 30
0.0
 11
2217.936119360245
 21
1054.936443167582
 31
0.0
  0
LINE
  5
1075
330
E35
100
AcDbEntity
  8
0
  6
Continuous
 62
     8
370
    15
100
AcDbLine
 10
2215.997965909151
 20
1063.673656015799
 30
0.0
 11
2215.987080497707
 21
1063.667372001531
 31
0.0
  0
LINE
  5
1076
330
E35
100
AcDbEntity
  8
0
  6
Continuous
 62
     8
370
    15
100
AcDbLine
 10
2216.189228307694
 20
1062.566732010703
 30
0.0
 11
2216.178342896249
 21
1062.560447996435
 31
0.0
  0
LINE
  5
1077
330
E35
100
AcDbEntity
  8
0
  6
Continuous
 62
     8
370
    15
100
AcDbLine
 10
2223.06677409676
 20
1052.258826743272
 30
0.0
 11
2222.166061370495
 21
1051.73885635428
 31
0.0
  0
LINE
  5
1078
330
E35
100
AcDbEntity
  8
0
  6
Continuous
 62
     8
370
    15
100
AcDbLine
 10
2223.317446182591
 20
1052.097788959072
 30
0.0
 11
2222.268478212376
 21
1051.492232639496
 31
0.0
  0
LINE
  5
1079
330
E35
100
AcDbEntity
  8
0
  6
Continuous
 62
     8
370
    15
100
AcDbLine
 10
2220.729706445616
 20
1051.669034890653
 30
0.0
 11
2219.317355879644
 21
1050.85370226376
 31
0.0
  0
LINE
  5
107A
330
E35
100
AcDbEntity
  8
0
  6
Continuous
 62
     8
370
    15
100
AcDbLine
 10
2220.636838622577
 20
1056.201429381507
 30
0.0
 11
2217.961238881957
 21
1054.656838528787
 31
0.0
  0
LINE
  5
107B
330
E35
100
AcDbEntity
  8
0
  6
Continuous
 62
     8
370
    15
100
AcDbLine
 10
2220.681673155862
 20
1054.023599854596
 30
0.0
 11
2217.961238881957
 21
1052.453126576734
 31
0.0
  0
LINE
  5
107C
330
E35
100
AcDbEntity
  8
0
  6
Continuous
 62
     8
370
    15
100
AcDbLine
 10
2220.714928274687
 20
1052.409796729391
 30
0.0
 11
2218.668378706273
 21
1051.228348811371
 31
0.0
  0
LINE
  5
107D
330
E35
100
AcDbEntity
  8
0
  6
Continuous
 62
     8
370
    15
100
AcDbLine
 10
2217.395542481837
 20
1054.508984335989
 30
0.0
 11
2216.278315220917
 21
1053.864022766653
 31
0.0
  0
LINE
  5
107E
330
E35
100
AcDbEntity
  8
0
  6
Continuous
 62
     8
370
    15
100
AcDbLine
 10
2217.39559294281
 20
1052.228792385473
 30
0.0
 11
2217.183460939537
 21
1052.106331186644
 31
0.0
  0
LINE
  5
107F
330
E35
100
AcDbEntity
  8
0
  6
Continuous
 62
     8
370
    15
100
AcDbLine
 10
2217.395594836125
 20
1054.341575135354
 30
0.0
 11
2216.193515761713
 21
1053.647629656741
 31
0.0
  0
LINE
  5
1080
330
E35
100
AcDbEntity
  8
0
  6
Continuous
 62
     8
370
    15
100
AcDbLine
 10
2217.395545774559
 20
1053.126865777033
 30
0.0
 11
2216.40559870342
 21
1052.555381497249
 31
0.0
  0
LINE
  5
1081
330
E35
100
AcDbEntity
  8
0
  6
Continuous
 62
     8
370
    15
100
AcDbLine
 10
2217.395594836125
 20
1053.616714074864
 30
0.0
 11
2216.193515761713
 21
1052.922768596251
 31
0.0
  0
ENDBLK
  5
E37
330
E35
100
AcDbEntity
  8
0
100
AcDbBlockEnd
  0
ENDSEC
  0
SECTION
  2
ENTITIES
  0
INSERT
  5
C80
330
1F
100
AcDbEntity
  8
0
100
AcDbBlockReference
  2
1
 10
0.0
 20
0.0
 30
0.0
  0
INSERT
  5
D16
330
1F
100
AcDbEntity
  8
0
100
AcDbBlockReference
  2
2
 10
0.0
 20
0.0
 30
0.0
  0
INSERT
  5
E34
330
1F
100
AcDbEntity
  8
0
100
AcDbBlockReference
  2
3
 10
0.0
 20
0.0
 30
0.0
  0
INSERT
  5
1082
330
1F
100
AcDbEntity
  8
0
100
AcDbBlockReference
  2
4
 10
0.0
 20
0.0
 30
0.0
  0
ENDSEC
  0
SECTION
  2
OBJECTS
  0
DICTIONARY
  5
C
330
0
100
AcDbDictionary
281
     1
  3
ACAD_COLOR
350
6B
  3
ACAD_GROUP
350
D
  3
ACAD_LAYOUT
350
1A
  3
ACAD_MATERIAL
350
6A
  3
ACAD_MLEADERSTYLE
350
12D
  3
ACAD_MLINESTYLE
350
17
  3
ACAD_PLOTSETTINGS
350
19
  3
ACAD_PLOTSTYLENAME
350
E
  3
ACAD_SCALELIST
350
10C
  3
ACAD_TABLESTYLE
350
7E
  3
ACAD_VISUALSTYLE
350
EF
  3
ACDB_RECOMPOSE_DATA
350
15D
  3
AcDbVariableDictionary
350
5E
  3
DWGPROPS
350
1090
  0
DICTIONARY
  5
13C
330
10
100
AcDbDictionary
280
     1
281
     1
  3
ADSK_XREC_LAYER_RECONCILED
360
1083
  0
DICTIONARY
  5
6B
102
{ACAD_REACTORS
330
C
102
}
330
C
100
AcDbDictionary
281
     1
  0
DICTIONARY
  5
D
102
{ACAD_REACTORS
330
C
102
}
330
C
100
AcDbDictionary
281
     1
  0
DICTIONARY
  5
1A
102
{ACAD_REACTORS
330
C
102
}
330
C
100
AcDbDictionary
281
     1
  3
Layout1
350
D3
  3
Layout2
350
D7
  3
Model
350
22
  0
DICTIONARY
  5
6A
102
{ACAD_REACTORS
330
C
102
}
330
C
100
AcDbDictionary
281
     1
  3
ByBlock
350
ED
  3
ByLayer
350
EC
  3
Global
350
EE
  0
DICTIONARY
  5
12D
102
{ACAD_REACTORS
330
C
102
}
330
C
100
AcDbDictionary
281
     1
  3
Annotative
350
13B
  3
Standard
350
12E
  0
DICTIONARY
  5
17
102
{ACAD_REACTORS
330
C
102
}
330
C
100
AcDbDictionary
281
     1
  3
Standard
350
18
  0
DICTIONARY
  5
19
102
{ACAD_REACTORS
330
C
102
}
330
C
100
AcDbDictionary
281
     1
  0
ACDBDICTIONARYWDFLT
  5
E
102
{ACAD_REACTORS
330
C
102
}
330
C
100
AcDbDictionary
281
     1
  3
Normal
350
F
100
AcDbDictionaryWithDefault
340
F
  0
DICTIONARY
  5
10C
102
{ACAD_REACTORS
330
C
102
}
330
C
100
AcDbDictionary
281
     1
  3
A0
350
10D
  3
A1
350
188
  3
A2
350
189
  3
A3
350
18A
  3
A4
350
18B
  3
A5
350
18C
  3
A6
350
18D
  3
A7
350
18E
  3
A8
350
18F
  3
A9
350
190
  3
B0
350
191
  3
B1
350
192
  3
B2
350
193
  3
B3
350
194
  3
B4
350
195
  3
B5
350
196
  3
B6
350
197
  3
B7
350
198
  3
B8
350
199
  3
B9
350
19A
  3
C0
350
19B
  3
C1
350
19C
  3
C2
350
19D
  3
C3
350
19E
  3
C4
350
19F
  3
C5
350
1A0
  3
C6
350
1A1
  3
C7
350
1A2
  3
C8
350
1A3
  3
C9
350
1A4
  3
D0
350
1A5
  3
D1
350
1A6
  3
D2
350
1A7
  0
DICTIONARY
  5
7E
102
{ACAD_REACTORS
330
C
102
}
330
C
100
AcDbDictionary
281
     1
  3
Standard
350
7F
  0
DICTIONARY
  5
EF
102
{ACAD_REACTORS
330
C
102
}
330
C
100
AcDbDictionary
281
     1
  3
2dWireframe
350
F5
  3
3D Hidden
350
F7
  3
3dWireframe
350
F6
  3
Basic
350
F4
  3
Brighten
350
FB
  3
ColorChange
350
FF
  3
Conceptual
350
F8
  3
Dim
350
FA
  3
Facepattern
350
FE
  3
Flat
350
F0
  3
FlatWithEdges
350
F1
  3
Gouraud
350
F2
  3
GouraudWithEdges
350
F3
  3
Linepattern
350
FD
  3
Realistic
350
F9
  3
Thicken
350
FC
  0
XRECORD
  5
15D
102
{ACAD_REACTORS
330
C
102
}
330
C
100
AcDbXrecord
280
     1
 90
        1
330
7F
  0
DICTIONARY
  5
5E
102
{ACAD_REACTORS
330
C
102
}
330
C
100
AcDbDictionary
281
     1
  3
CANNOSCALE
350
146
  3
CMLEADERSTYLE
350
145
  3
CTABLESTYLE
350
84
  3
DIMASSOC
350
5F
  3
HIDETEXT
350
63
  3
INDEXCTL
350
108C
  3
LIGHTINGUNITS
350
108A
  3
MSLTSCALE
350
1089
  3
PSOLHEIGHT
350
108E
  3
PSOLWIDTH
350
108D
  3
SORTENTS
350
108B
  0
XRECORD
  5
1090
102
{ACAD_REACTORS
330
C
102
}
330
C
100
AcDbXrecord
280
     1
  1
DWGPROPS COOKIE
  2

  3

  4

  6

  7

  8
orhan kara
  9

300
=
301
=
302
=
303
=
304
=
305
=
306
=
307
=
308
=
309
=
 40
0.0006729166666667
 41
2458559.597197396
 42
2458956.42437647
  1

 90
        0
  0
XRECORD
  5
1083
102
{ACAD_REACTORS
330
13C
102
}
330
13C
100
AcDbXrecord
280
     1
290
     1
  0
LAYOUT
  5
D3
102
{ACAD_XDICTIONARY
360
1094
102
}
102
{ACAD_REACTORS
330
1A
102
}
330
1A
100
AcDbPlotSettings
  1

  2
C:\Documents and Settings\basas\Application Data\Autodesk\AutoCAD 2005\R16.1\enu\plotters\Default Windows System Printer.pc3
  4

  6

 40
0.0
 41
0.0
 42
0.0
 43
0.0
 44
0.0
 45
0.0
 46
0.0
 47
0.0
 48
0.0
 49
0.0
140
0.0
141
0.0
142
1.0
143
1.0
 70
   688
 72
     0
 73
     0
 74
     5
  7

 75
    16
147
1.0
148
0.0
149
0.0
100
AcDbLayout
  1
Layout1
 70
     1
 71
     1
 10
0.0
 20
0.0
 11
12.0
 21
9.0
 12
0.0
 22
0.0
 32
0.0
 14
0.0
 24
0.0
 34
0.0
 15
0.0
 25
0.0
 35
0.0
146
0.0
 13
0.0
 23
0.0
 33
0.0
 16
1.0
 26
0.0
 36
0.0
 17
0.0
 27
1.0
 37
0.0
 76
     0
330
D2
  0
LAYOUT
  5
D7
102
{ACAD_XDICTIONARY
360
1096
102
}
102
{ACAD_REACTORS
330
1A
102
}
330
1A
100
AcDbPlotSettings
  1

  2
C:\Documents and Settings\basas\Application Data\Autodesk\AutoCAD 2005\R16.1\enu\plotters\Default Windows System Printer.pc3
  4

  6

 40
0.0
 41
0.0
 42
0.0
 43
0.0
 44
0.0
 45
0.0
 46
0.0
 47
0.0
 48
0.0
 49
0.0
140
0.0
141
0.0
142
1.0
143
1.0
 70
   688
 72
     0
 73
     0
 74
     5
  7

 75
    16
147
1.0
148
0.0
149
0.0
100
AcDbLayout
  1
Layout2
 70
     1
 71
     2
 10
0.0
 20
0.0
 11
12.0
 21
9.0
 12
0.0
 22
0.0
 32
0.0
 14
0.0
 24
0.0
 34
0.0
 15
0.0
 25
0.0
 35
0.0
146
0.0
 13
0.0
 23
0.0
 33
0.0
 16
1.0
 26
0.0
 36
0.0
 17
0.0
 27
1.0
 37
0.0
 76
     0
330
D6
  0
LAYOUT
  5
22
102
{ACAD_XDICTIONARY
360
1091
102
}
102
{ACAD_REACTORS
330
1A
102
}
330
1A
100
AcDbPlotSettings
  1

  2
none_device
  4
ISO_A4_(210.00_x_297.00_MM)
  6

 40
7.5
 41
20.0
 42
7.5
 43
20.0
 44
210.0
 45
297.0
 46
11.54999923706054
 47
-13.65000009536743
 48
0.0
 49
0.0
140
0.0
141
0.0
142
1.0
143
8.704084754739808
 70
 11952
 72
     1
 73
     0
 74
     0
  7

 75
     0
147
0.1148885871608098
148
0.0
149
0.0
100
AcDbLayout
  1
Model
 70
     1
 71
     0
 10
0.0
 20
0.0
 11
12.0
 21
9.0
 12
0.0
 22
0.0
 32
0.0
 14
0.0
 24
0.0
 34
0.0
 15
0.0
 25
0.0
 35
0.0
146
0.0
 13
0.0
 23
0.0
 33
0.0
 16
1.0
 26
0.0
 36
0.0
 17
0.0
 27
1.0
 37
0.0
 76
     0
330
1F
331
EA
1001
ACAD_PSEXT
1000
None
1000
None
1000
Not applicable
1000
The layout will not be plotted unless a new plotter configuration name is selected.
1070
     0
  0
MATERIAL
  5
ED
102
{ACAD_XDICTIONARY
360
109A
102
}
102
{ACAD_REACTORS
330
6A
102
}
330
6A
100
AcDbMaterial
  1
ByBlock
  0
MATERIAL
  5
EC
102
{ACAD_XDICTIONARY
360
1098
102
}
102
{ACAD_REACTORS
330
6A
102
}
330
6A
100
AcDbMaterial
  1
ByLayer
  0
MATERIAL
  5
EE
102
{ACAD_XDICTIONARY
360
173
102
}
102
{ACAD_REACTORS
330
6A
102
}
330
6A
100
AcDbMaterial
  1
Global
 43
0.0007999999797903
 43
0.0
 43
0.0
 43
0.0
 43
0.0
 43
0.0007999999797903
 43
0.0
 43
0.0
 43
0.0
 43
0.0
 43
1.0
 43
0.0
 43
0.0
 43
0.0
 43
0.0
 43
1.0
 49
0.0007999999797903
 49
0.0
 49
0.0
 49
0.0
 49
0.0
 49
0.0007999999797903
 49
0.0
 49
0.0
 49
0.0
 49
0.0
 49
1.0
 49
0.0
 49
0.0
 49
0.0
 49
0.0
 49
1.0
142
0.0007999999797903
142
0.0
142
0.0
142
0.0
142
0.0
142
0.0007999999797903
142
0.0
142
0.0
142
0.0
142
0.0
142
1.0
142
0.0
142
0.0
142
0.0
142
0.0
142
1.0
144
0.0007999999797903
144
0.0
144
0.0
144
0.0
144
0.0
144
0.0007999999797903
144
0.0
144
0.0
144
0.0
144
0.0
144
1.0
144
0.0
144
0.0
144
0.0
144
0.0
144
1.0
1001
ACAD
1070
    -1
1070
     3
1070
     0
1000

1071
        0
1070
     0
  0
MLEADERSTYLE
  5
13B
102
{ACAD_REACTORS
330
12D
102
}
330
12D
100
AcDbMLeaderStyle
170
     2
171
     1
172
     0
 90
        2
 40
0.0
 41
0.0
173
     1
 91
-1056964608
340
14
 92
       -2
290
     1
 42
2.0
291
     1
 43
8.0
  3
Standard
 44
4.0
300

342
11
174
     1
178
     1
175
     1
176
     0
 93
-1056964608
 45
4.0
292
     0
297
     0
 46
4.0
 94
-1056964608
 47
1.0
 49
1.0
140
1.0
293
     1
141
0.0
294
     1
177
     0
142
1.0
295
     0
296
     1
143
3.75
1001
ACAD_MLEADERVER
1070
     2
  0
MLEADERSTYLE
  5
12E
102
{ACAD_REACTORS
330
12D
102
}
330
12D
100
AcDbMLeaderStyle
170
     2
171
     1
172
     0
 90
        2
 40
0.0
 41
0.0
173
     1
 91
-1056964608
340
14
 92
       -2
290
     1
 42
2.0
291
     1
 43
8.0
  3
Standard
 44
4.0
300

342
11
174
     1
178
     1
175
     1
176
     0
 93
-1056964608
 45
4.0
292
     0
297
     0
 46
4.0
 94
-1056964608
 47
1.0
 49
1.0
140
1.0
293
     1
141
0.0
294
     1
177
     0
142
1.0
295
     0
296
     0
143
3.75
1001
ACAD_MLEADERVER
1070
     2
  0
MLINESTYLE
  5
18
102
{ACAD_REACTORS
330
17
102
}
330
17
100
AcDbMlineStyle
  2
STANDARD
 70
     0
  3

 62
   256
 51
90.0
 52
90.0
 71
     2
 49
0.5
 62
   256
  6
BYLAYER
 49
-0.5
 62
   256
  6
BYLAYER
  0
ACDBPLACEHOLDER
  5
F
102
{ACAD_REACTORS
330
E
102
}
330
E
  0
SCALE
  5
10D
102
{ACAD_REACTORS
330
10C
102
}
330
10C
100
AcDbScale
 70
     0
300
1:1
140
1.0
141
1.0
290
     1
  0
SCALE
  5
188
102
{ACAD_REACTORS
330
10C
102
}
330
10C
100
AcDbScale
 70
     0
300
1:2
140
1.0
141
2.0
290
     0
  0
SCALE
  5
189
102
{ACAD_REACTORS
330
10C
102
}
330
10C
100
AcDbScale
 70
     0
300
1:4
140
1.0
141
4.0
290
     0
  0
SCALE
  5
18A
102
{ACAD_REACTORS
330
10C
102
}
330
10C
100
AcDbScale
 70
     0
300
1:5
140
1.0
141
5.0
290
     0
  0
SCALE
  5
18B
102
{ACAD_REACTORS
330
10C
102
}
330
10C
100
AcDbScale
 70
     0
300
1:8
140
1.0
141
8.0
290
     0
  0
SCALE
  5
18C
102
{ACAD_REACTORS
330
10C
102
}
330
10C
100
AcDbScale
 70
     0
300
1:10
140
1.0
141
10.0
290
     0
  0
SCALE
  5
18D
102
{ACAD_REACTORS
330
10C
102
}
330
10C
100
AcDbScale
 70
     0
300
1:16
140
1.0
141
16.0
290
     0
  0
SCALE
  5
18E
102
{ACAD_REACTORS
330
10C
102
}
330
10C
100
AcDbScale
 70
     0
300
1:20
140
1.0
141
20.0
290
     0
  0
SCALE
  5
18F
102
{ACAD_REACTORS
330
10C
102
}
330
10C
100
AcDbScale
 70
     0
300
1:30
140
1.0
141
30.0
290
     0
  0
SCALE
  5
190
102
{ACAD_REACTORS
330
10C
102
}
330
10C
100
AcDbScale
 70
     0
300
1:40
140
1.0
141
40.0
290
     0
  0
SCALE
  5
191
102
{ACAD_REACTORS
330
10C
102
}
330
10C
100
AcDbScale
 70
     0
300
1:50
140
1.0
141
50.0
290
     0
  0
SCALE
  5
192
102
{ACAD_REACTORS
330
10C
102
}
330
10C
100
AcDbScale
 70
     0
300
1:100
140
1.0
141
100.0
290
     0
  0
SCALE
  5
193
102
{ACAD_REACTORS
330
10C
102
}
330
10C
100
AcDbScale
 70
     0
300
2:1
140
2.0
141
1.0
290
     0
  0
SCALE
  5
194
102
{ACAD_REACTORS
330
10C
102
}
330
10C
100
AcDbScale
 70
     0
300
4:1
140
4.0
141
1.0
290
     0
  0
SCALE
  5
195
102
{ACAD_REACTORS
330
10C
102
}
330
10C
100
AcDbScale
 70
     0
300
8:1
140
8.0
141
1.0
290
     0
  0
SCALE
  5
196
102
{ACAD_REACTORS
330
10C
102
}
330
10C
100
AcDbScale
 70
     0
300
10:1
140
10.0
141
1.0
290
     0
  0
SCALE
  5
197
102
{ACAD_REACTORS
330
10C
102
}
330
10C
100
AcDbScale
 70
     0
300
100:1
140
100.0
141
1.0
290
     0
  0
SCALE
  5
198
102
{ACAD_REACTORS
330
10C
102
}
330
10C
100
AcDbScale
 70
     0
300
1/128" = 1'-0"
140
0.0078125
141
12.0
290
     0
  0
SCALE
  5
199
102
{ACAD_REACTORS
330
10C
102
}
330
10C
100
AcDbScale
 70
     0
300
1/64" = 1'-0"
140
0.015625
141
12.0
290
     0
  0
SCALE
  5
19A
102
{ACAD_REACTORS
330
10C
102
}
330
10C
100
AcDbScale
 70
     0
300
1/32" = 1'-0"
140
0.03125
141
12.0
290
     0
  0
SCALE
  5
19B
102
{ACAD_REACTORS
330
10C
102
}
330
10C
100
AcDbScale
 70
     0
300
1/16" = 1'-0"
140
0.0625
141
12.0
290
     0
  0
SCALE
  5
19C
102
{ACAD_REACTORS
330
10C
102
}
330
10C
100
AcDbScale
 70
     0
300
3/32" = 1'-0"
140
0.09375
141
12.0
290
     0
  0
SCALE
  5
19D
102
{ACAD_REACTORS
330
10C
102
}
330
10C
100
AcDbScale
 70
     0
300
1/8" = 1'-0"
140
0.125
141
12.0
290
     0
  0
SCALE
  5
19E
102
{ACAD_REACTORS
330
10C
102
}
330
10C
100
AcDbScale
 70
     0
300
3/16" = 1'-0"
140
0.1875
141
12.0
290
     0
  0
SCALE
  5
19F
102
{ACAD_REACTORS
330
10C
102
}
330
10C
100
AcDbScale
 70
     0
300
1/4" = 1'-0"
140
0.25
141
12.0
290
     0
  0
SCALE
  5
1A0
102
{ACAD_REACTORS
330
10C
102
}
330
10C
100
AcDbScale
 70
     0
300
3/8" = 1'-0"
140
0.375
141
12.0
290
     0
  0
SCALE
  5
1A1
102
{ACAD_REACTORS
330
10C
102
}
330
10C
100
AcDbScale
 70
     0
300
1/2" = 1'-0"
140
0.5
141
12.0
290
     0
  0
SCALE
  5
1A2
102
{ACAD_REACTORS
330
10C
102
}
330
10C
100
AcDbScale
 70
     0
300
3/4" = 1'-0"
140
0.75
141
12.0
290
     0
  0
SCALE
  5
1A3
102
{ACAD_REACTORS
330
10C
102
}
330
10C
100
AcDbScale
 70
     0
300
1" = 1'-0"
140
1.0
141
12.0
290
     0
  0
SCALE
  5
1A4
102
{ACAD_REACTORS
330
10C
102
}
330
10C
100
AcDbScale
 70
     0
300
1-1/2" = 1'-0"
140
1.5
141
12.0
290
     0
  0
SCALE
  5
1A5
102
{ACAD_REACTORS
330
10C
102
}
330
10C
100
AcDbScale
 70
     0
300
3" = 1'-0"
140
3.0
141
12.0
290
     0
  0
SCALE
  5
1A6
102
{ACAD_REACTORS
330
10C
102
}
330
10C
100
AcDbScale
 70
     0
300
6" = 1'-0"
140
6.0
141
12.0
290
     0
  0
SCALE
  5
1A7
102
{ACAD_REACTORS
330
10C
102
}
330
10C
100
AcDbScale
 70
     0
300
1'-0" = 1'-0"
140
12.0
141
12.0
290
     0
  0
TABLESTYLE
  5
7F
102
{ACAD_XDICTIONARY
360
162
102
}
102
{ACAD_REACTORS
330
7E
102
}
330
7E
100
AcDbTableStyle
  3
Standard
 70
     0
 71
     0
 40
1.5
 41
1.5
280
     0
281
     0
  7
Standard
140
4.5
170
     2
 62
     0
 63
     7
283
     0
274
    -2
284
     1
 64
     0
275
    -2
285
     1
 65
     0
276
    -2
286
     1
 66
     0
277
    -2
287
     1
 67
     0
278
    -2
288
     1
 68
     0
279
    -2
289
     1
 69
     0
  7
Standard
140
6.0
170
     5
 62
     0
 63
     7
283
     0
274
    -2
284
     1
 64
     0
275
    -2
285
     1
 65
     0
276
    -2
286
     1
 66
     0
277
    -2
287
     1
 67
     0
278
    -2
288
     1
 68
     0
279
    -2
289
     1
 69
     0
  7
Standard
140
4.5
170
     5
 62
     0
 63
     7
283
     0
274
    -2
284
     1
 64
     0
275
    -2
285
     1
 65
     0
276
    -2
286
     1
 66
     0
277
    -2
287
     1
 67
     0
278
    -2
288
     1
 68
     0
279
    -2
289
     1
 69
     0
  0
VISUALSTYLE
  5
F5
102
{ACAD_REACTORS
330
EF
102
}
330
EF
100
AcDbVisualStyle
  2
2dWireframe
 70
     4
 71
     0
 72
     2
 73
     1
 90
        0
 40
-0.6
 41
-30.0
 62
     5
 63
     7
 74
     1
 91
        4
 64
     7
 65
   257
 75
     1
175
     1
 42
1.0
 92
        0
 66
   257
 43
1.0
 76
     1
 77
     6
 78
     2
 67
     7
 79
     5
170
     0
171
     0
290
     0
174
     0
 93
        1
 44
0.0
173
     0
291
     0
 45
0.0
1001
ACAD
1000
AcDbSavedByObjectVersion
1070
     0
  0
VISUALSTYLE
  5
F7
102
{ACAD_REACTORS
330
EF
102
}
330
EF
100
AcDbVisualStyle
  2
3D Hidden
 70
     6
 71
     1
 72
     2
 73
     2
 90
        0
 40
-0.6
 41
-30.0
 62
     5
 63
     7
 74
     2
 91
        2
 64
     7
 65
   257
 75
     2
175
     1
 42
40.0
 92
        0
 66
   257
 43
1.0
 76
     1
 77
     6
 78
     2
 67
     7
 79
     3
170
     0
171
     0
290
     0
174
     0
 93
        1
 44
0.0
173
     0
291
     0
 45
0.0
1001
ACAD
1000
AcDbSavedByObjectVersion
1070
     0
  0
VISUALSTYLE
  5
F6
102
{ACAD_REACTORS
330
EF
102
}
330
EF
100
AcDbVisualStyle
  2
3dWireframe
 70
     5
 71
     0
 72
     2
 73
     1
 90
        0
 40
-0.6
 41
-30.0
 62
     5
 63
     7
 74
     1
 91
        4
 64
     7
 65
   257
 75
     1
175
     1
 42
1.0
 92
        0
 66
   257
 43
1.0
 76
     1
 77
     6
 78
     2
 67
     7
 79
     5
170
     0
171
     0
290
     0
174
     0
 93
        1
 44
0.0
173
     0
291
     0
 45
0.0
1001
ACAD
1000
AcDbSavedByObjectVersion
1070
     0
  0
VISUALSTYLE
  5
F4
102
{ACAD_REACTORS
330
EF
102
}
330
EF
100
AcDbVisualStyle
  2
Basic
 70
     7
 71
     1
 72
     0
 73
     1
 90
        0
 40
-0.6
 41
-30.0
 62
     5
 63
     7
 74
     0
 91
        4
 64
     7
 65
   257
 75
     1
175
     1
 42
1.0
 92
        8
 66
     7
 43
1.0
 76
     1
 77
     6
 78
     2
 67
     7
 79
     5
170
     0
171
     0
290
     0
174
     0
 93
        1
 44
0.0
173
     0
291
     1
 45
0.0
1001
ACAD
1000
AcDbSavedByObjectVersion
1070
     0
  0
VISUALSTYLE
  5
FB
102
{ACAD_REACTORS
330
EF
102
}
330
EF
100
AcDbVisualStyle
  2
Brighten
 70
    12
 71
     2
 72
     2
 73
     1
 90
        0
 40
-0.6
 41
-30.0
 62
     5
 63
     7
 74
     1
 91
        4
 64
     7
 65
   257
 75
     1
175
     1
 42
1.0
 92
        8
 66
     7
 43
1.0
 76
     1
 77
     6
 78
     2
 67
     7
 79
     5
170
     0
171
     0
290
     0
174
     0
 93
        1
 44
50.0
173
     0
291
     1
 45
0.0
1001
ACAD
1000
AcDbSavedByObjectVersion
1070
     0
  0
VISUALSTYLE
  5
FF
102
{ACAD_REACTORS
330
EF
102
}
330
EF
100
AcDbVisualStyle
  2
ColorChange
 70
    16
 71
     2
 72
     2
 73
     3
 90
        0
 40
-0.6
 41
-30.0
 62
     5
 63
     8
 74
     1
 91
        4
 64
     7
 65
   257
 75
     1
175
     1
 42
1.0
 92
        8
 66
     8
 43
1.0
 76
     1
 77
     6
 78
     2
 67
     7
 79
     5
170
     0
171
     0
290
     0
174
     0
 93
        1
 44
0.0
173
     0
291
     1
 45
0.0
1001
ACAD
1000
AcDbSavedByObjectVersion
1070
     0
  0
VISUALSTYLE
  5
F8
102
{ACAD_REACTORS
330
EF
102
}
330
EF
100
AcDbVisualStyle
  2
Conceptual
 70
     9
 71
     3
 72
     2
 73
     1
 90
        0
 40
-0.6
 41
-30.0
 62
     5
 63
     7
 74
     2
 91
        2
 64
     7
 65
   257
 75
     1
175
     1
 42
40.0
 92
        8
 66
     7
 43
1.0
 76
     1
 77
     6
 78
     2
 67
     7
 79
     3
170
     0
171
     0
290
     0
174
     0
 93
        1
 44
0.0
173
     0
291
     0
 45
0.0
1001
ACAD
1000
AcDbSavedByObjectVersion
1070
     0
  0
VISUALSTYLE
  5
FA
102
{ACAD_REACTORS
330
EF
102
}
330
EF
100
AcDbVisualStyle
  2
Dim
 70
    11
 71
     2
 72
     2
 73
     1
 90
        0
 40
-0.6
 41
-30.0
 62
     5
 63
     7
 74
     1
 91
        4
 64
     7
 65
   257
 75
     1
175
     1
 42
1.0
 92
        8
 66
     7
 43
1.0
 76
     1
 77
     6
 78
     2
 67
     7
 79
     5
170
     0
171
     0
290
     0
174
     0
 93
        1
 44
-50.0
173
     0
291
     1
 45
0.0
1001
ACAD
1000
AcDbSavedByObjectVersion
1070
     0
  0
VISUALSTYLE
  5
FE
102
{ACAD_REACTORS
330
EF
102
}
330
EF
100
AcDbVisualStyle
  2
Facepattern
 70
    15
 71
     2
 72
     2
 73
     1
 90
        0
 40
-0.6
 41
-30.0
 62
     5
 63
     7
 74
     1
 91
        4
 64
     7
 65
   257
 75
     1
175
     1
 42
1.0
 92
        8
 66
     7
 43
1.0
 76
     1
 77
     6
 78
     2
 67
     7
 79
     5
170
     0
171
     0
290
     0
174
     0
 93
        1
 44
0.0
173
     0
291
     1
 45
0.0
1001
ACAD
1000
AcDbSavedByObjectVersion
1070
     0
  0
VISUALSTYLE
  5
F0
102
{ACAD_REACTORS
330
EF
102
}
330
EF
100
AcDbVisualStyle
  2
Flat
 70
     0
 71
     2
 72
     1
 73
     1
 90
        2
 40
-0.6
 41
30.0
 62
     5
 63
     7
 74
     0
 91
        4
 64
     7
 65
   257
 75
     1
175
     1
 42
1.0
 92
        8
 66
     7
 43
1.0
 76
     1
 77
     6
 78
     2
 67
     7
 79
     5
170
     0
171
     0
290
     0
174
     0
 93
        1
 44
0.0
173
     0
291
     1
 45
0.0
1001
ACAD
1000
AcDbSavedByObjectVersion
1070
     0
  0
VISUALSTYLE
  5
F1
102
{ACAD_REACTORS
330
EF
102
}
330
EF
100
AcDbVisualStyle
  2
FlatWithEdges
 70
     1
 71
     2
 72
     1
 73
     1
 90
        2
 40
-0.6
 41
30.0
 62
     5
 63
     7
 74
     1
 91
        4
 64
     7
 65
   257
 75
     1
175
     1
 42
1.0
 92
        0
 66
   257
 43
1.0
 76
     1
 77
     6
 78
     2
 67
     7
 79
     5
170
     0
171
     0
290
     0
174
     0
 93
        1
 44
0.0
173
     0
291
     1
 45
0.0
1001
ACAD
1000
AcDbSavedByObjectVersion
1070
     0
  0
VISUALSTYLE
  5
F2
102
{ACAD_REACTORS
330
EF
102
}
330
EF
100
AcDbVisualStyle
  2
Gouraud
 70
     2
 71
     2
 72
     2
 73
     1
 90
        2
 40
-0.6
 41
30.0
 62
     5
 63
     7
 74
     0
 91
        4
 64
     7
 65
   257
 75
     1
175
     1
 42
1.0
 92
        0
 66
     7
 43
1.0
 76
     1
 77
     6
 78
     2
 67
     7
 79
     5
170
     0
171
     0
290
     0
174
     0
 93
        1
 44
0.0
173
     0
291
     1
 45
0.0
1001
ACAD
1000
AcDbSavedByObjectVersion
1070
     0
  0
VISUALSTYLE
  5
F3
102
{ACAD_REACTORS
330
EF
102
}
330
EF
100
AcDbVisualStyle
  2
GouraudWithEdges
 70
     3
 71
     2
 72
     2
 73
     1
 90
        2
 40
-0.6
 41
30.0
 62
     5
 63
     7
 74
     1
 91
        4
 64
     7
 65
   257
 75
     1
175
     1
 42
1.0
 92
        0
 66
   257
 43
1.0
 76
     1
 77
     6
 78
     2
 67
     7
 79
     5
170
     0
171
     0
290
     0
174
     0
 93
        1
 44
0.0
173
     0
291
     1
 45
0.0
1001
ACAD
1000
AcDbSavedByObjectVersion
1070
     0
  0
VISUALSTYLE
  5
FD
102
{ACAD_REACTORS
330
EF
102
}
330
EF
100
AcDbVisualStyle
  2
Linepattern
 70
    14
 71
     2
 72
     2
 73
     1
 90
        0
 40
-0.6
 41
-30.0
 62
     5
 63
     7
 74
     1
 91
        4
 64
     7
 65
   257
 75
     7
175
     7
 42
1.0
 92
        8
 66
     7
 43
1.0
 76
     1
 77
     6
 78
     2
 67
     7
 79
     5
170
     0
171
     0
290
     0
174
     0
 93
        1
 44
0.0
173
     0
291
     1
 45
0.0
1001
ACAD
1000
AcDbSavedByObjectVersion
1070
     0
  0
VISUALSTYLE
  5
F9
102
{ACAD_REACTORS
330
EF
102
}
330
EF
100
AcDbVisualStyle
  2
Realistic
 70
     8
 71
     2
 72
     2
 73
     1
 90
        0
 40
-0.6
 41
-30.0
 62
     5
 63
     7
 74
     1
 91
        0
 64
     7
 65
   257
 75
     1
175
     1
 42
1.0
 92
        8
 66
     8
 43
1.0
 76
     1
 77
     6
 78
     2
 67
     7
 79
     5
170
     0
171
     0
290
     0
174
     0
 93
       13
 44
0.0
173
     0
291
     0
 45
0.0
1001
ACAD
1000
AcDbSavedByObjectVersion
1070
     0
  0
VISUALSTYLE
  5
FC
102
{ACAD_REACTORS
330
EF
102
}
330
EF
100
AcDbVisualStyle
  2
Thicken
 70
    13
 71
     2
 72
     2
 73
     1
 90
        0
 40
-0.6
 41
-30.0
 62
     5
 63
     7
 74
     1
 91
        4
 64
     7
 65
   257
 75
     1
175
     1
 42
1.0
 92
       12
 66
     7
 43
1.0
 76
     1
 77
     6
 78
     2
 67
     7
 79
     5
170
     0
171
     0
290
     0
174
     0
 93
        1
 44
0.0
173
     0
291
     1
 45
0.0
1001
ACAD
1000
AcDbSavedByObjectVersion
1070
     0
  0
DICTIONARYVAR
  5
146
102
{ACAD_REACTORS
330
5E
102
}
330
5E
100
DictionaryVariables
280
     0
  1
1:1
  0
DICTIONARYVAR
  5
145
102
{ACAD_REACTORS
330
5E
102
}
330
5E
100
DictionaryVariables
280
     0
  1
STANDARD
  0
DICTIONARYVAR
  5
84
102
{ACAD_REACTORS
330
5E
102
}
330
5E
100
DictionaryVariables
280
     0
  1
STANDARD
  0
DICTIONARYVAR
  5
5F
102
{ACAD_REACTORS
330
5E
102
}
330
5E
100
DictionaryVariables
280
     0
  1
2
  0
DICTIONARYVAR
  5
63
102
{ACAD_REACTORS
330
5E
102
}
330
5E
100
DictionaryVariables
280
     0
  1
1
  0
DICTIONARYVAR
  5
108C
102
{ACAD_REACTORS
330
5E
102
}
330
5E
100
DictionaryVariables
280
     0
  1
0
  0
DICTIONARYVAR
  5
108A
102
{ACAD_REACTORS
330
5E
102
}
330
5E
100
DictionaryVariables
280
     0
  1
2
  0
DICTIONARYVAR
  5
1089
102
{ACAD_REACTORS
330
5E
102
}
330
5E
100
DictionaryVariables
280
     0
  1
1
  0
DICTIONARYVAR
  5
108E
102
{ACAD_REACTORS
330
5E
102
}
330
5E
100
DictionaryVariables
280
     0
  1
80.000000
  0
DICTIONARYVAR
  5
108D
102
{ACAD_REACTORS
330
5E
102
}
330
5E
100
DictionaryVariables
280
     0
  1
5.000000
  0
DICTIONARYVAR
  5
108B
102
{ACAD_REACTORS
330
5E
102
}
330
5E
100
DictionaryVariables
280
     0
  1
127
  0
DICTIONARY
  5
1094
330
D3
100
AcDbDictionary
280
     1
281
     1
  3
ACAD_XREC_ROUNDTRIP
360
1095
  0
DICTIONARY
  5
1096
330
D7
100
AcDbDictionary
280
     1
281
     1
  3
ACAD_XREC_ROUNDTRIP
360
1097
  0
DICTIONARY
  5
1091
330
22
100
AcDbDictionary
280
     1
281
     1
  3
ACAD_XREC_ROUNDTRIP
360
1092
  0
DICTIONARY
  5
109A
330
ED
100
AcDbDictionary
280
     1
281
     1
  3
ACAD_XREC_ROUNDTRIP
360
109B
  0
DICTIONARY
  5
1098
330
EC
100
AcDbDictionary
280
     1
281
     1
  3
ACAD_XREC_ROUNDTRIP
360
1099
  0
DICTIONARY
  5
173
330
EE
100
AcDbDictionary
280
     1
281
     1
  3
ACAD_XREC_ROUNDTRIP
360
109C
  3
BUMPTILE
360
175
  3
DIFFUSETILE
360
174
  3
OPACITYTILE
360
176
  3
REFLECTIONTILE
360
177
  0
DICTIONARY
  5
162
330
7F
100
AcDbDictionary
280
     1
281
     1
  3
ACAD_ROUNDTRIP_2008_TABLESTYLE_CELLSTYLEMAP
360
108F
  3
ACAD_XREC_ROUNDTRIP
360
1093
  0
XRECORD
  5
1095
102
{ACAD_REACTORS
330
1094
102
}
330
1094
100
AcDbXrecord
280
     1
102
SHADEPLOT
 70
     0
102
SHADEPLOTRESLEVEL
 70
     2
102
SHADEPLOTCUSTOMDPI
 70
   300
  0
XRECORD
  5
1097
102
{ACAD_REACTORS
330
1096
102
}
330
1096
100
AcDbXrecord
280
     1
102
SHADEPLOT
 70
     0
102
SHADEPLOTRESLEVEL
 70
     2
102
SHADEPLOTCUSTOMDPI
 70
   300
  0
XRECORD
  5
1092
102
{ACAD_REACTORS
330
1091
102
}
330
1091
100
AcDbXrecord
280
     1
102
SHADEPLOT
 70
     0
102
SHADEPLOTRESLEVEL
 70
     2
102
SHADEPLOTCUSTOMDPI
 70
   300
  0
XRECORD
  5
109B
102
{ACAD_REACTORS
330
109A
102
}
330
109A
100
AcDbXrecord
280
     1
102
MATERIAL
148
0.0
149
0.0
149
0.0
 93
        0
 94
       63
282
     0
 72
     1
 77
     1
171
     1
175
     1
179
     1
273
     0
  0
XRECORD
  5
1099
102
{ACAD_REACTORS
330
1098
102
}
330
1098
100
AcDbXrecord
280
     1
102
MATERIAL
148
0.0
149
0.0
149
0.0
 93
        0
 94
       63
282
     0
 72
     1
 77
     1
171
     1
175
     1
179
     1
273
     0
  0
XRECORD
  5
109C
102
{ACAD_REACTORS
330
173
102
}
330
173
100
AcDbXrecord
280
     1
102
MATERIAL
148
0.0
149
0.0
149
0.0
 93
        0
 94
       63
282
     0
 72
     1
 77
     1
171
     1
175
     1
179
     1
273
     0
  0
XRECORD
  5
175
102
{ACAD_REACTORS
330
173
102
}
330
173
100
AcDbXrecord
280
     1
270
     1
271
     1
  0
XRECORD
  5
174
102
{ACAD_REACTORS
330
173
102
}
330
173
100
AcDbXrecord
280
     1
270
     1
271
     1
  0
XRECORD
  5
176
102
{ACAD_REACTORS
330
173
102
}
330
173
100
AcDbXrecord
280
     1
270
     1
271
     1
  0
XRECORD
  5
177
102
{ACAD_REACTORS
330
173
102
}
330
173
100
AcDbXrecord
280
     1
270
     1
271
     1
  0
CELLSTYLEMAP
  5
108F
102
{ACAD_REACTORS
330
162
102
}
330
162
100
AcDbCellStyleMap
 90
        3
300
CELLSTYLE
  1
TABLEFORMAT_BEGIN
 90
        5
170
     1
 91
        0
 92
    32768
 62
   257
 93
        1
300
CONTENTFORMAT
  1
CONTENTFORMAT_BEGIN
 90
        0
 91
        0
 92
      512
 93
        0
300

 40
0.0
140
1.0
 94
        5
 62
     0
340
11
144
6.0
309
CONTENTFORMAT_END
171
     1
301
MARGIN
  1
CELLMARGIN_BEGIN
 40
1.5
 40
1.5
 40
1.5
 40
1.5
 40
4.5
 40
4.5
309
CELLMARGIN_END
 94
        6
 95
        1
302
GRIDFORMAT
  1
GRIDFORMAT_BEGIN
 90
        0
 91
        1
 62
     0
 92
       -2
340
14
 93
        0
 40
1.125
309
GRIDFORMAT_END
 95
        2
302
GRIDFORMAT
  1
GRIDFORMAT_BEGIN
 90
        0
 91
        1
 62
     0
 92
       -2
340
14
 93
        0
 40
1.125
309
GRIDFORMAT_END
 95
        4
302
GRIDFORMAT
  1
GRIDFORMAT_BEGIN
 90
        0
 91
        1
 62
     0
 92
       -2
340
14
 93
        0
 40
1.125
309
GRIDFORMAT_END
 95
        8
302
GRIDFORMAT
  1
GRIDFORMAT_BEGIN
 90
        0
 91
        1
 62
     0
 92
       -2
340
14
 93
        0
 40
1.125
309
GRIDFORMAT_END
 95
       16
302
GRIDFORMAT
  1
GRIDFORMAT_BEGIN
 90
        0
 91
        1
 62
     0
 92
       -2
340
14
 93
        0
 40
1.125
309
GRIDFORMAT_END
 95
       32
302
GRIDFORMAT
  1
GRIDFORMAT_BEGIN
 90
        0
 91
        1
 62
     0
 92
       -2
340
14
 93
        0
 40
1.125
309
GRIDFORMAT_END
309
TABLEFORMAT_END
  1
CELLSTYLE_BEGIN
 90
        1
 91
        1
300
_TITLE
309
CELLSTYLE_END
300
CELLSTYLE
  1
TABLEFORMAT_BEGIN
 90
        5
170
     1
 91
        0
 92
        0
 62
   257
 93
        1
300
CONTENTFORMAT
  1
CONTENTFORMAT_BEGIN
 90
        0
 91
        0
 92
      512
 93
        0
300

 40
0.0
140
1.0
 94
        5
 62
     0
340
11
144
4.5
309
CONTENTFORMAT_END
171
     1
301
MARGIN
  1
CELLMARGIN_BEGIN
 40
1.5
 40
1.5
 40
1.5
 40
1.5
 40
4.5
 40
4.5
309
CELLMARGIN_END
 94
        6
 95
        1
302
GRIDFORMAT
  1
GRIDFORMAT_BEGIN
 90
        0
 91
        1
 62
     0
 92
       -2
340
14
 93
        0
 40
1.125
309
GRIDFORMAT_END
 95
        2
302
GRIDFORMAT
  1
GRIDFORMAT_BEGIN
 90
        0
 91
        1
 62
     0
 92
       -2
340
14
 93
        0
 40
1.125
309
GRIDFORMAT_END
 95
        4
302
GRIDFORMAT
  1
GRIDFORMAT_BEGIN
 90
        0
 91
        1
 62
     0
 92
       -2
340
14
 93
        0
 40
1.125
309
GRIDFORMAT_END
 95
        8
302
GRIDFORMAT
  1
GRIDFORMAT_BEGIN
 90
        0
 91
        1
 62
     0
 92
       -2
340
14
 93
        0
 40
1.125
309
GRIDFORMAT_END
 95
       16
302
GRIDFORMAT
  1
GRIDFORMAT_BEGIN
 90
        0
 91
        1
 62
     0
 92
       -2
340
14
 93
        0
 40
1.125
309
GRIDFORMAT_END
 95
       32
302
GRIDFORMAT
  1
GRIDFORMAT_BEGIN
 90
        0
 91
        1
 62
     0
 92
       -2
340
14
 93
        0
 40
1.125
309
GRIDFORMAT_END
309
TABLEFORMAT_END
  1
CELLSTYLE_BEGIN
 90
        2
 91
        1
300
_HEADER
309
CELLSTYLE_END
300
CELLSTYLE
  1
TABLEFORMAT_BEGIN
 90
        5
170
     1
 91
        0
 92
        0
 62
   257
 93
        1
300
CONTENTFORMAT
  1
CONTENTFORMAT_BEGIN
 90
        0
 91
        0
 92
      512
 93
        0
300

 40
0.0
140
1.0
 94
        2
 62
     0
340
11
144
4.5
309
CONTENTFORMAT_END
171
     1
301
MARGIN
  1
CELLMARGIN_BEGIN
 40
1.5
 40
1.5
 40
1.5
 40
1.5
 40
4.5
 40
4.5
309
CELLMARGIN_END
 94
        6
 95
        1
302
GRIDFORMAT
  1
GRIDFORMAT_BEGIN
 90
        0
 91
        1
 62
     0
 92
       -2
340
14
 93
        0
 40
1.125
309
GRIDFORMAT_END
 95
        2
302
GRIDFORMAT
  1
GRIDFORMAT_BEGIN
 90
        0
 91
        1
 62
     0
 92
       -2
340
14
 93
        0
 40
1.125
309
GRIDFORMAT_END
 95
        4
302
GRIDFORMAT
  1
GRIDFORMAT_BEGIN
 90
        0
 91
        1
 62
     0
 92
       -2
340
14
 93
        0
 40
1.125
309
GRIDFORMAT_END
 95
        8
302
GRIDFORMAT
  1
GRIDFORMAT_BEGIN
 90
        0
 91
        1
 62
     0
 92
       -2
340
14
 93
        0
 40
1.125
309
GRIDFORMAT_END
 95
       16
302
GRIDFORMAT
  1
GRIDFORMAT_BEGIN
 90
        0
 91
        1
 62
     0
 92
       -2
340
14
 93
        0
 40
1.125
309
GRIDFORMAT_END
 95
       32
302
GRIDFORMAT
  1
GRIDFORMAT_BEGIN
 90
        0
 91
        1
 62
     0
 92
       -2
340
14
 93
        0
 40
1.125
309
GRIDFORMAT_END
309
TABLEFORMAT_END
  1
CELLSTYLE_BEGIN
 90
        3
 91
        2
300
_DATA
309
CELLSTYLE_END
  0
XRECORD
  5
1093
102
{ACAD_REACTORS
330
162
102
}
330
162
100
AcDbXrecord
280
     1
102
ACAD_ROUNDTRIP_PRE2007_TABLESTYLE
 90
      512
 91
        0
  1

 92
      512
 93
        0
  2

 94
      512
 95
        0
  3

  0
ENDSEC
  0
EOF
