  0
SECTION
  2
HEADER
  9
$ACADVER
  1
AC1015
  9
$ACADMAINTVER
 70
    20
  9
$DWGCODEPAGE
  3
ANSI_1254
  9
$INSBASE
 10
0.0
 20
0.0
 30
0.0
  9
$EXTMIN
 10
1846.689196558494
 20
919.7134595592567
 30
-0.0000000000022306
  9
$EXTMAX
 10
2091.323019228727
 20
1023.34703221922
 30
0.0000000000029044
  9
$LIMMIN
 10
0.0
 20
0.0
  9
$LIMMAX
 10
420.0
 20
297.0
  9
$ORTHOMODE
 70
     0
  9
$REGENMODE
 70
     1
  9
$FILLMODE
 70
     1
  9
$QTEXTMODE
 70
     0
  9
$MIRRTEXT
 70
     0
  9
$LTSCALE
 40
1.0
  9
$ATTMODE
 70
     1
  9
$TEXTSIZE
 40
2.5
  9
$TRACEWID
 40
1.0
  9
$TEXTSTYLE
  7
Standard
  9
$CLAYER
  8
0
  9
$CELTYPE
  6
ByLayer
  9
$CECOLOR
 62
   256
  9
$CELTSCALE
 40
1.0
  9
$DISPSILH
 70
     0
  9
$DIMSCALE
 40
1.0
  9
$DIMASZ
 40
2.5
  9
$DIMEXO
 40
0.625
  9
$DIMDLI
 40
3.75
  9
$DIMRND
 40
0.0
  9
$DIMDLE
 40
0.0
  9
$DIMEXE
 40
1.25
  9
$DIMTP
 40
0.0
  9
$DIMTM
 40
0.0
  9
$DIMTXT
 40
2.5
  9
$DIMCEN
 40
2.5
  9
$DIMTSZ
 40
0.0
  9
$DIMTOL
 70
     0
  9
$DIMLIM
 70
     0
  9
$DIMTIH
 70
     0
  9
$DIMTOH
 70
     0
  9
$DIMSE1
 70
     0
  9
$DIMSE2
 70
     0
  9
$DIMTAD
 70
     1
  9
$DIMZIN
 70
     8
  9
$DIMBLK
  1

  9
$DIMASO
 70
     1
  9
$DIMSHO
 70
     1
  9
$DIMPOST
  1

  9
$DIMAPOST
  1

  9
$DIMALT
 70
     0
  9
$DIMALTD
 70
     3
  9
$DIMALTF
 40
0.03937007874016
  9
$DIMLFAC
 40
1.0
  9
$DIMTOFL
 70
     1
  9
$DIMTVP
 40
0.0
  9
$DIMTIX
 70
     0
  9
$DIMSOXD
 70
     0
  9
$DIMSAH
 70
     0
  9
$DIMBLK1
  1

  9
$DIMBLK2
  1

  9
$DIMSTYLE
  2
ISO-25
  9
$DIMCLRD
 70
     0
  9
$DIMCLRE
 70
     0
  9
$DIMCLRT
 70
     0
  9
$DIMTFAC
 40
1.0
  9
$DIMGAP
 40
0.625
  9
$DIMJUST
 70
     0
  9
$DIMSD1
 70
     0
  9
$DIMSD2
 70
     0
  9
$DIMTOLJ
 70
     0
  9
$DIMTZIN
 70
     8
  9
$DIMALTZ
 70
     0
  9
$DIMALTTZ
 70
     0
  9
$DIMUPT
 70
     0
  9
$DIMDEC
 70
     2
  9
$DIMTDEC
 70
     2
  9
$DIMALTU
 70
     2
  9
$DIMALTTD
 70
     3
  9
$DIMTXSTY
  7
Standard
  9
$DIMAUNIT
 70
     0
  9
$DIMADEC
 70
     0
  9
$DIMALTRND
 40
0.0
  9
$DIMAZIN
 70
     0
  9
$DIMDSEP
 70
    44
  9
$DIMATFIT
 70
     3
  9
$DIMFRAC
 70
     0
  9
$DIMLDRBLK
  1

  9
$DIMLUNIT
 70
     2
  9
$DIMLWD
 70
    -2
  9
$DIMLWE
 70
    -2
  9
$DIMTMOVE
 70
     0
  9
$LUNITS
 70
     2
  9
$LUPREC
 70
     4
  9
$SKETCHINC
 40
1.0
  9
$FILLETRAD
 40
0.0
  9
$AUNITS
 70
     0
  9
$AUPREC
 70
     0
  9
$MENU
  1
.
  9
$ELEVATION
 40
0.0
  9
$PELEVATION
 40
0.0
  9
$THICKNESS
 40
0.0
  9
$LIMCHECK
 70
     0
  9
$CHAMFERA
 40
0.0
  9
$CHAMFERB
 40
0.0
  9
$CHAMFERC
 40
0.0
  9
$CHAMFERD
 40
0.0
  9
$SKPOLY
 70
     0
  9
$TDCREATE
 40
2458446.482060220
  9
$TDUCREATE
 40
2458446.357060220
  9
$TDUPDATE
 40
2458956.423553634
  9
$TDUUPDATE
 40
2458956.298553635
  9
$TDINDWG
 40
0.0009817130
  9
$TDUSRTIMER
 40
0.0009817130
  9
$USRTIMER
 70
     1
  9
$ANGBASE
 50
0.0
  9
$ANGDIR
 70
     0
  9
$PDMODE
 70
     0
  9
$PDSIZE
 40
0.0
  9
$PLINEWID
 40
0.0
  9
$SPLFRAME
 70
     0
  9
$SPLINETYPE
 70
     6
  9
$SPLINESEGS
 70
     8
  9
$HANDSEED
  5
F49
  9
$SURFTAB1
 70
     6
  9
$SURFTAB2
 70
     6
  9
$SURFTYPE
 70
     6
  9
$SURFU
 70
     6
  9
$SURFV
 70
     6
  9
$UCSBASE
  2

  9
$UCSNAME
  2

  9
$UCSORG
 10
0.0
 20
0.0
 30
0.0
  9
$UCSXDIR
 10
1.0
 20
0.0
 30
0.0
  9
$UCSYDIR
 10
0.0
 20
1.0
 30
0.0
  9
$UCSORTHOREF
  2

  9
$UCSORTHOVIEW
 70
     0
  9
$UCSORGTOP
 10
0.0
 20
0.0
 30
0.0
  9
$UCSORGBOTTOM
 10
0.0
 20
0.0
 30
0.0
  9
$UCSORGLEFT
 10
0.0
 20
0.0
 30
0.0
  9
$UCSORGRIGHT
 10
0.0
 20
0.0
 30
0.0
  9
$UCSORGFRONT
 10
0.0
 20
0.0
 30
0.0
  9
$UCSORGBACK
 10
0.0
 20
0.0
 30
0.0
  9
$PUCSBASE
  2

  9
$PUCSNAME
  2

  9
$PUCSORG
 10
0.0
 20
0.0
 30
0.0
  9
$PUCSXDIR
 10
1.0
 20
0.0
 30
0.0
  9
$PUCSYDIR
 10
0.0
 20
1.0
 30
0.0
  9
$PUCSORTHOREF
  2

  9
$PUCSORTHOVIEW
 70
     0
  9
$PUCSORGTOP
 10
0.0
 20
0.0
 30
0.0
  9
$PUCSORGBOTTOM
 10
0.0
 20
0.0
 30
0.0
  9
$PUCSORGLEFT
 10
0.0
 20
0.0
 30
0.0
  9
$PUCSORGRIGHT
 10
0.0
 20
0.0
 30
0.0
  9
$PUCSORGFRONT
 10
0.0
 20
0.0
 30
0.0
  9
$PUCSORGBACK
 10
0.0
 20
0.0
 30
0.0
  9
$USERI1
 70
     0
  9
$USERI2
 70
     0
  9
$USERI3
 70
     0
  9
$USERI4
 70
     0
  9
$USERI5
 70
     0
  9
$USERR1
 40
0.0
  9
$USERR2
 40
0.0
  9
$USERR3
 40
0.0
  9
$USERR4
 40
0.0
  9
$USERR5
 40
0.0
  9
$WORLDVIEW
 70
     1
  9
$SHADEDGE
 70
     3
  9
$SHADEDIF
 70
    70
  9
$TILEMODE
 70
     1
  9
$MAXACTVP
 70
    64
  9
$PINSBASE
 10
0.0
 20
0.0
 30
0.0
  9
$PLIMCHECK
 70
     0
  9
$PEXTMIN
 10
0.0
 20
0.0
 30
0.0
  9
$PEXTMAX
 10
0.0
 20
0.0
 30
0.0
  9
$PLIMMIN
 10
0.0
 20
0.0
  9
$PLIMMAX
 10
12.0
 20
9.0
  9
$UNITMODE
 70
     0
  9
$VISRETAIN
 70
     1
  9
$PLINEGEN
 70
     0
  9
$PSLTSCALE
 70
     1
  9
$TREEDEPTH
 70
  3020
  9
$CMLSTYLE
  2
Standard
  9
$CMLJUST
 70
     0
  9
$CMLSCALE
 40
20.0
  9
$PROXYGRAPHICS
 70
     1
  9
$MEASUREMENT
 70
     1
  9
$CELWEIGHT
370
    -1
  9
$ENDCAPS
280
     0
  9
$JOINSTYLE
280
     0
  9
$LWDISPLAY
290
     0
  9
$INSUNITS
 70
     4
  9
$HYPERLINKBASE
  1

  9
$STYLESHEET
  1

  9
$XEDIT
290
     1
  9
$CEPSNTYPE
380
     0
  9
$PSTYLEMODE
290
     1
  9
$FINGERPRINTGUID
  2
{01DACD83-5F9A-45C3-B283-966C19B70776}
  9
$VERSIONGUID
  2
{BC782225-CCF3-4D75-BDEB-207CDB4E6002}
  9
$EXTNAMES
290
     1
  9
$PSVPSCALE
 40
0.0
  9
$OLESTARTUP
290
     0
  0
ENDSEC
  0
SECTION
  2
CLASSES
  0
CLASS
  1
ACDBDICTIONARYWDFLT
  2
AcDbDictionaryWithDefault
  3
ObjectDBX Classes
 90
        0
280
     0
281
     0
  0
CLASS
  1
ACDBPLACEHOLDER
  2
AcDbPlaceHolder
  3
ObjectDBX Classes
 90
        0
280
     0
281
     0
  0
CLASS
  1
LAYOUT
  2
AcDbLayout
  3
ObjectDBX Classes
 90
        0
280
     0
281
     0
  0
CLASS
  1
DICTIONARYVAR
  2
AcDbDictionaryVar
  3
ObjectDBX Classes
 90
        0
280
     0
281
     0
  0
CLASS
  1
TABLESTYLE
  2
AcDbTableStyle
  3
ObjectDBX Classes
 90
     4095
280
     0
281
     0
  0
CLASS
  1
MATERIAL
  2
AcDbMaterial
  3
ObjectDBX Classes
 90
     1153
280
     0
281
     0
  0
CLASS
  1
VISUALSTYLE
  2
AcDbVisualStyle
  3
ObjectDBX Classes
 90
     4095
280
     0
281
     0
  0
CLASS
  1
SCALE
  2
AcDbScale
  3
ObjectDBX Classes
 90
     1153
280
     0
281
     0
  0
CLASS
  1
MLEADERSTYLE
  2
AcDbMLeaderStyle
  3
ACDB_MLEADERSTYLE_CLASS
 90
     4095
280
     0
281
     0
  0
CLASS
  1
CELLSTYLEMAP
  2
AcDbCellStyleMap
  3
ObjectDBX Classes
 90
     1152
280
     0
281
     0
  0
ENDSEC
  0
SECTION
  2
TABLES
  0
TABLE
  2
VPORT
  5
8
330
0
100
AcDbSymbolTable
 70
     1
  0
VPORT
  5
EA
330
8
100
AcDbSymbolTableRecord
100
AcDbViewportTableRecord
  2
*Active
 70
     0
 10
0.0
 20
0.0
 11
1.0
 21
1.0
 12
2020.398723398336
 22
947.6208880014903
 13
0.0
 23
0.0
 14
10.0
 24
10.0
 15
10.0
 25
10.0
 16
0.0
 26
0.0
 36
1.0
 17
0.0
 27
0.0
 37
0.0
 40
181.3300896058637
 41
1.903110047846889
 42
50.0
 43
0.0
 44
0.0
 50
0.0
 51
0.0
 71
     0
 72
  1000
 73
     1
 74
     3
 75
     0
 76
     0
 77
     0
 78
     0
281
     0
 65
     1
110
0.0
120
0.0
130
0.0
111
1.0
121
0.0
131
0.0
112
0.0
122
1.0
132
0.0
 79
     0
146
0.0
  0
ENDTAB
  0
TABLE
  2
LTYPE
  5
5
330
0
100
AcDbSymbolTable
 70
     1
  0
LTYPE
  5
14
330
5
100
AcDbSymbolTableRecord
100
AcDbLinetypeTableRecord
  2
ByBlock
 70
     0
  3

 72
    65
 73
     0
 40
0.0
  0
LTYPE
  5
15
330
5
100
AcDbSymbolTableRecord
100
AcDbLinetypeTableRecord
  2
ByLayer
 70
     0
  3

 72
    65
 73
     0
 40
0.0
  0
LTYPE
  5
16
330
5
100
AcDbSymbolTableRecord
100
AcDbLinetypeTableRecord
  2
Continuous
 70
     0
  3
Solid line
 72
    65
 73
     0
 40
0.0
  0
ENDTAB
  0
TABLE
  2
LAYER
  5
2
330
0
100
AcDbSymbolTable
 70
     1
  0
LAYER
  5
10
102
{ACAD_XDICTIONARY
360
13C
102
}
330
2
100
AcDbSymbolTableRecord
100
AcDbLayerTableRecord
  2
0
 70
     0
 62
     7
  6
Continuous
370
    -3
390
F
  0
ENDTAB
  0
TABLE
  2
STYLE
  5
3
330
0
100
AcDbSymbolTable
 70
     2
  0
STYLE
  5
11
330
3
100
AcDbSymbolTableRecord
100
AcDbTextStyleTableRecord
  2
Standard
 70
     0
 40
0.0
 41
1.0
 50
0.0
 71
     0
 42
2.5
  3
txt
  4

  0
STYLE
  5
132
330
3
100
AcDbSymbolTableRecord
100
AcDbTextStyleTableRecord
  2
Annotative
 70
     0
 40
0.0
 41
1.0
 50
0.0
 71
     0
 42
2.5
  3
txt.shx
  4

1001
AcadAnnotative
1000
AnnotativeData
1002
{
1070
     1
1070
     1
1002
}
  0
ENDTAB
  0
TABLE
  2
VIEW
  5
6
330
0
100
AcDbSymbolTable
 70
     0
  0
ENDTAB
  0
TABLE
  2
UCS
  5
7
330
0
100
AcDbSymbolTable
 70
     0
  0
ENDTAB
  0
TABLE
  2
APPID
  5
9
330
0
100
AcDbSymbolTable
 70
     7
  0
APPID
  5
12
330
9
100
AcDbSymbolTableRecord
100
AcDbRegAppTableRecord
  2
ACAD
 70
     0
  0
APPID
  5
9E
330
9
100
AcDbSymbolTableRecord
100
AcDbRegAppTableRecord
  2
ACAD_PSEXT
 70
     0
  0
APPID
  5
133
330
9
100
AcDbSymbolTableRecord
100
AcDbRegAppTableRecord
  2
AcadAnnoPO
 70
     0
  0
APPID
  5
134
330
9
100
AcDbSymbolTableRecord
100
AcDbRegAppTableRecord
  2
AcadAnnotative
 70
     0
  0
APPID
  5
135
330
9
100
AcDbSymbolTableRecord
100
AcDbRegAppTableRecord
  2
ACAD_DSTYLE_DIMJAG
 70
     0
  0
APPID
  5
136
330
9
100
AcDbSymbolTableRecord
100
AcDbRegAppTableRecord
  2
ACAD_DSTYLE_DIMTALN
 70
     0
  0
APPID
  5
165
330
9
100
AcDbSymbolTableRecord
100
AcDbRegAppTableRecord
  2
ACAD_MLEADERVER
 70
     0
  0
ENDTAB
  0
TABLE
  2
DIMSTYLE
  5
A
330
0
100
AcDbSymbolTable
 70
     2
100
AcDbDimStyleTable
 71
     2
340
27
340
137
  0
DIMSTYLE
105
27
330
A
100
AcDbSymbolTableRecord
100
AcDbDimStyleTableRecord
  2
ISO-25
 70
     0
 41
2.5
 42
0.625
 43
3.75
 44
1.25
 73
     0
 74
     0
 77
     1
 78
     8
140
2.5
141
2.5
143
0.03937007874016
147
0.625
171
     3
172
     1
271
     2
272
     2
274
     3
278
    44
283
     0
284
     8
340
11
  0
DIMSTYLE
105
137
330
A
100
AcDbSymbolTableRecord
100
AcDbDimStyleTableRecord
  2
Annotative
 70
     0
 40
0.0
 41
2.5
 42
0.625
 43
3.75
 44
1.25
 73
     0
 74
     0
 77
     1
 78
     8
140
2.5
141
2.5
143
0.03937007874016
147
0.625
171
     3
172
     1
271
     2
272
     2
274
     3
278
    44
283
     0
284
     8
340
11
1001
AcadAnnotative
1000
AnnotativeData
1002
{
1070
     1
1070
     1
1002
}
1001
ACAD_DSTYLE_DIMJAG
1070
   388
1040
1.5
1001
ACAD_DSTYLE_DIMTALN
1070
   392
1070
     0
  0
ENDTAB
  0
TABLE
  2
BLOCK_RECORD
  5
1
330
0
100
AcDbSymbolTable
 70
     5
  0
BLOCK_RECORD
  5
1F
330
1
100
AcDbSymbolTableRecord
100
AcDbBlockTableRecord
  2
*Model_Space
340
22
  0
BLOCK_RECORD
  5
D2
330
1
100
AcDbSymbolTableRecord
100
AcDbBlockTableRecord
  2
*Paper_Space
340
D3
  0
BLOCK_RECORD
  5
D6
330
1
100
AcDbSymbolTableRecord
100
AcDbBlockTableRecord
  2
*Paper_Space0
340
D7
  0
BLOCK_RECORD
  5
AA5
330
1
100
AcDbSymbolTableRecord
100
AcDbBlockTableRecord
  2
1
340
0
310
2800000020000000200000000100080000000000000400000000000000000000000000000000000000000000000080000080000000808000800000008000800080800000C0C0C000C0DCC000F0CAA6000020400000206000002080000020A0000020C0000020E00000400000004020000040400000406000004080000040A0
310
000040C0000040E00000600000006020000060400000606000006080000060A0000060C0000060E00000800000008020000080400000806000008080000080A0000080C0000080E00000A0000000A0200000A0400000A0600000A0800000A0A00000A0C00000A0E00000C0000000C0200000C0400000C0600000C0800000C0
310
A00000C0C00000C0E00000E0000000E0200000E0400000E0600000E0800000E0A00000E0C00000E0E00040000000400020004000400040006000400080004000A0004000C0004000E00040200000402020004020400040206000402080004020A0004020C0004020E000404000004040200040404000404060004040800040
310
40A0004040C0004040E00040600000406020004060400040606000406080004060A0004060C0004060E00040800000408020004080400040806000408080004080A0004080C0004080E00040A0000040A0200040A0400040A0600040A0800040A0A00040A0C00040A0E00040C0000040C0200040C0400040C0600040C08000
310
40C0A00040C0C00040C0E00040E0000040E0200040E0400040E0600040E0800040E0A00040E0C00040E0E00080000000800020008000400080006000800080008000A0008000C0008000E00080200000802020008020400080206000802080008020A0008020C0008020E00080400000804020008040400080406000804080
310
008040A0008040C0008040E00080600000806020008060400080606000806080008060A0008060C0008060E00080800000808020008080400080806000808080008080A0008080C0008080E00080A0000080A0200080A0400080A0600080A0800080A0A00080A0C00080A0E00080C0000080C0200080C0400080C0600080C0
310
800080C0A00080C0C00080C0E00080E0000080E0200080E0400080E0600080E0800080E0A00080E0C00080E0E000C0000000C0002000C0004000C0006000C0008000C000A000C000C000C000E000C0200000C0202000C0204000C0206000C0208000C020A000C020C000C020E000C0400000C0402000C0404000C0406000C0
310
408000C040A000C040C000C040E000C0600000C0602000C0604000C0606000C0608000C060A000C060C000C060E000C0800000C0802000C0804000C0806000C0808000C080A000C080C000C080E000C0A00000C0A02000C0A04000C0A06000C0A08000C0A0A000C0A0C000C0A0E000C0C00000C0C02000C0C04000C0C06000
310
C0C08000C0C0A000F0FBFF00A4A0A000808080000000FF0000FF000000FFFF00FF000000FF00FF00FFFF0000FFFFFF0000000000000000000000000000000000000000000000000000000000000000000000000000000000000000000000000000000000000000000000000000000000000000000000000000000000000000
310
00000000000000000000000000000000000000000000000000000000000000000000000000000000000000000000000000000000000000000000000000000000000000000000000000000000000000000000000000000000000000000000000000000000000000000000000000000000000000000000000000000000000000
310
000000000000000000000000000000000000000000FFFFFFFFFFFFFFFF00000000000000000000FFFFFFFFFFFFFFFF0000000000FFFFFFFFFFFFFFFFFFFF00FF00000000FF00FFFFFFFFFFFFFFFFFFFF0000000000FFFF00000000FFFFFFFFFF00000000FFFFFFFFFF00000000FFFF0000000000FFFF0000000000FF00FFFF
310
FFFFFFFFFFFFFFFF00FFFF00000000FFFF00000000FFFFFFFFFFFFFFFFFFFFFFFFFFFFFFFFFFFFFFFFFFFFFFFFFFFFFFFF00000000FF0000000000000000000000000000000000000000000000000000FF00000000FF0000000000000000000000000000000000000000000000000000FF00000000FF000000000000000000
310
0000000000000000000000000000000000FF000000FF00000000000000000000000000000000000000000000000000000000FF0000FFFF000000000000000000000000FFFF000000000000000000000000FFFF000000FF000000000000000000FFFFFFFFFFFFFFFF000000000000000000FF000000FFFF0000000000000000
310
00FF000000000000FF000000000000000000FFFF0000FF00000000000000000000FF000000000000FF00000000000000000000FF000000FF000000000000000000FF000000000000FF000000000000000000FF0000000000FFFF00000000000000FF000000000000FF00000000000000FFFF0000000000000000FF00000000
310
0000FF000000000000FF000000000000FF0000000000000000000000FFFF000000FF0000000000000000FF000000FFFF0000000000000000000000000000FFFFFFFF0000000000000000FFFFFFFF00000000000000000000000000000000000000000000000000000000000000000000000000000000000000000000000000
310
00000000000000000000000000000000000000000000000000000000000000000000000000000000000000000000000000000000000000000000000000000000000000000000000000000000000000000000000000000000000000000000000000000000000000000000000000000000000000000000000000000000000000
310
0000000000000000000000000000000000000000000000000000000000000000000000000000000000000000000000000000000000000000
102
{BLKREFS
331
B8C
102
}
1001
ACAD
1000
DesignCenter Data
1002
{
1070
     1
1070
     4
1002
}
  0
BLOCK_RECORD
  5
B8D
330
1
100
AcDbSymbolTableRecord
100
AcDbBlockTableRecord
  2
2
340
0
310
2800000020000000200000000100080000000000000400000000000000000000000000000000000000000000000080000080000000808000800000008000800080800000C0C0C000C0DCC000F0CAA6000020400000206000002080000020A0000020C0000020E00000400000004020000040400000406000004080000040A0
310
000040C0000040E00000600000006020000060400000606000006080000060A0000060C0000060E00000800000008020000080400000806000008080000080A0000080C0000080E00000A0000000A0200000A0400000A0600000A0800000A0A00000A0C00000A0E00000C0000000C0200000C0400000C0600000C0800000C0
310
A00000C0C00000C0E00000E0000000E0200000E0400000E0600000E0800000E0A00000E0C00000E0E00040000000400020004000400040006000400080004000A0004000C0004000E00040200000402020004020400040206000402080004020A0004020C0004020E000404000004040200040404000404060004040800040
310
40A0004040C0004040E00040600000406020004060400040606000406080004060A0004060C0004060E00040800000408020004080400040806000408080004080A0004080C0004080E00040A0000040A0200040A0400040A0600040A0800040A0A00040A0C00040A0E00040C0000040C0200040C0400040C0600040C08000
310
40C0A00040C0C00040C0E00040E0000040E0200040E0400040E0600040E0800040E0A00040E0C00040E0E00080000000800020008000400080006000800080008000A0008000C0008000E00080200000802020008020400080206000802080008020A0008020C0008020E00080400000804020008040400080406000804080
310
008040A0008040C0008040E00080600000806020008060400080606000806080008060A0008060C0008060E00080800000808020008080400080806000808080008080A0008080C0008080E00080A0000080A0200080A0400080A0600080A0800080A0A00080A0C00080A0E00080C0000080C0200080C0400080C0600080C0
310
800080C0A00080C0C00080C0E00080E0000080E0200080E0400080E0600080E0800080E0A00080E0C00080E0E000C0000000C0002000C0004000C0006000C0008000C000A000C000C000C000E000C0200000C0202000C0204000C0206000C0208000C020A000C020C000C020E000C0400000C0402000C0404000C0406000C0
310
408000C040A000C040C000C040E000C0600000C0602000C0604000C0606000C0608000C060A000C060C000C060E000C0800000C0802000C0804000C0806000C0808000C080A000C080C000C080E000C0A00000C0A02000C0A04000C0A06000C0A08000C0A0A000C0A0C000C0A0E000C0C00000C0C02000C0C04000C0C06000
310
C0C08000C0C0A000F0FBFF00A4A0A000808080000000FF0000FF000000FFFF00FF000000FF00FF00FFFF0000FFFFFF00000000000000000000000000000000000000000000000000000000000000000000000000000000000000000000FFFFFFFFFFFF0000000000000000000000000000000000000000000000000000FFFF
310
FFFFFFFF0000000000000000000000000000000000000000000000000000FFFFFFFFFFFF0000000000000000000000000000000000000000000000000000FF00000000FF0000000000000000000000000000000000000000000000000000FF00000000FF0000000000000000000000000000000000000000000000000000FF
310
00000000FF0000000000000000000000000000000000000000000000000000FF00000000FF0000000000000000000000000000000000000000000000000000FFFFFF0000FF0000000000000000000000000000000000000000000000000000FF00000000FF0000000000000000000000000000000000000000000000000000
310
FF00000000FF0000000000000000000000000000000000000000000000000000FF00000000FF0000000000000000000000000000000000000000000000000000FFFFFFFFFFFF0000000000000000000000000000000000000000000000000000FF00000000FF00000000000000000000000000000000000000000000000000
310
00FF00000000FF0000000000000000000000000000000000000000000000000000FFFFFFFFFFFF0000000000000000000000000000000000000000000000000000FFFFFFFFFFFF0000000000000000000000000000000000000000000000000000FFFFFFFFFFFF000000000000000000000000000000000000000000000000
310
0000FFFFFFFFFFFF0000000000000000000000000000000000000000000000000000FFFFFFFFFFFF0000000000000000000000000000000000000000000000000000FFFFFFFFFFFF0000000000000000000000000000000000000000000000000000FFFFFFFFFFFF0000000000000000000000000000000000000000000000
310
000000FFFFFFFFFFFF0000000000000000000000000000000000000000000000000000FF00000000FF0000000000000000000000000000000000000000000000000000FFFFFFFFFFFF0000000000000000000000000000000000000000000000000000FF00000000FF00000000000000000000000000000000000000000000
310
00000000FFFFFFFFFFFF0000000000000000000000000000000000000000000000000000FFFF0000FFFF0000000000000000000000000000000000000000000000000000FFFFFFFFFFFF0000000000000000000000000000000000000000000000000000FF00000000FF000000000000000000000000000000000000000000
310
0000000000FFFFFFFFFFFF000000000000000000000000000000000000000000000000000000000000000000000000000000000000000000
102
{BLKREFS
331
C1B
102
}
1001
ACAD
1000
DesignCenter Data
1002
{
1070
     1
1070
     4
1002
}
  0
BLOCK_RECORD
  5
C1C
330
1
100
AcDbSymbolTableRecord
100
AcDbBlockTableRecord
  2
3
340
0
310
2800000020000000200000000100080000000000000400000000000000000000000000000000000000000000000080000080000000808000800000008000800080800000C0C0C000C0DCC000F0CAA6000020400000206000002080000020A0000020C0000020E00000400000004020000040400000406000004080000040A0
310
000040C0000040E00000600000006020000060400000606000006080000060A0000060C0000060E00000800000008020000080400000806000008080000080A0000080C0000080E00000A0000000A0200000A0400000A0600000A0800000A0A00000A0C00000A0E00000C0000000C0200000C0400000C0600000C0800000C0
310
A00000C0C00000C0E00000E0000000E0200000E0400000E0600000E0800000E0A00000E0C00000E0E00040000000400020004000400040006000400080004000A0004000C0004000E00040200000402020004020400040206000402080004020A0004020C0004020E000404000004040200040404000404060004040800040
310
40A0004040C0004040E00040600000406020004060400040606000406080004060A0004060C0004060E00040800000408020004080400040806000408080004080A0004080C0004080E00040A0000040A0200040A0400040A0600040A0800040A0A00040A0C00040A0E00040C0000040C0200040C0400040C0600040C08000
310
40C0A00040C0C00040C0E00040E0000040E0200040E0400040E0600040E0800040E0A00040E0C00040E0E00080000000800020008000400080006000800080008000A0008000C0008000E00080200000802020008020400080206000802080008020A0008020C0008020E00080400000804020008040400080406000804080
310
008040A0008040C0008040E00080600000806020008060400080606000806080008060A0008060C0008060E00080800000808020008080400080806000808080008080A0008080C0008080E00080A0000080A0200080A0400080A0600080A0800080A0A00080A0C00080A0E00080C0000080C0200080C0400080C0600080C0
310
800080C0A00080C0C00080C0E00080E0000080E0200080E0400080E0600080E0800080E0A00080E0C00080E0E000C0000000C0002000C0004000C0006000C0008000C000A000C000C000C000E000C0200000C0202000C0204000C0206000C0208000C020A000C020C000C020E000C0400000C0402000C0404000C0406000C0
310
408000C040A000C040C000C040E000C0600000C0602000C0604000C0606000C0608000C060A000C060C000C060E000C0800000C0802000C0804000C0806000C0808000C080A000C080C000C080E000C0A00000C0A02000C0A04000C0A06000C0A08000C0A0A000C0A0C000C0A0E000C0C00000C0C02000C0C04000C0C06000
310
C0C08000C0C0A000F0FBFF00A4A0A000808080000000FF0000FF000000FFFF00FF000000FF00FF00FFFF0000FFFFFF0000000000000000000000000000000000000000000000000000000000000000000000000000000000000000000000000000000000000000000000000000000000000000000000000000000000000000
310
00000000000000000000000000000000000000000000000000000000000000000000000000000000000000000000000000000000000000000000000000000000000000000000000000000000000000000000000000000000000000000000000000000000000000000000000000000000000000000000000000000000000000
310
00000000000000000000000000000000000000000000000000000000000000000000000000000000000000000000000000000000000000000000000000000000000000000000000000000000000000000000000000000000000000000000000000000000000000000000000000000000000000000000000000000000000000
310
0000000000000000000000000000000000000000000000000000000000000000000000000000000000000000000000000000000000000000000000000000000000000000000000000000000000000000000000000000000000000000000000000000000000000000000000000000000000000000FFFFFFFFFFFFFFFFFFFFFF
310
FFFFFFFFFFFFFFFFFFFFFFFFFFFFFFFFFFFFFF0000FFFFFF000000FFFFFFFFFFFFFFFFFFFFFFFFFFFFFFFFFFFF000000FFFFFF0000FFFFFF000000FFFFFFFFFFFFFFFFFFFFFFFFFFFFFFFFFFFF000000FFFFFF0000FFFFFFFFFFFFFFFFFFFFFFFFFFFFFFFFFFFFFFFFFFFFFFFFFFFFFFFFFFFF000000000000000000000000
310
00000000000000000000000000000000000000000000000000000000000000000000000000000000000000000000000000000000000000000000000000000000000000000000000000000000000000000000000000000000000000000000000000000000000000000000000000000000000000000000000000000000000000
310
00000000000000000000000000000000000000000000000000000000000000000000000000000000000000000000000000000000000000000000000000000000000000000000000000000000000000000000000000000000000000000000000000000000000000000000000000000000000000000000000000000000000000
310
00000000000000000000000000000000000000000000000000000000000000000000000000000000000000000000000000000000000000000000000000000000000000000000000000000000000000000000000000000000000000000000000000000000000000000000000000000000000000000000000000000000000000
310
0000000000000000000000000000000000000000000000000000000000000000000000000000000000000000000000000000000000000000
102
{BLKREFS
331
CE7
102
}
1001
ACAD
1000
DesignCenter Data
1002
{
1070
     1
1070
     4
1002
}
  0
BLOCK_RECORD
  5
CE8
330
1
100
AcDbSymbolTableRecord
100
AcDbBlockTableRecord
  2
4
340
0
310
2800000020000000200000000100080000000000000400000000000000000000000000000000000000000000000080000080000000808000800000008000800080800000C0C0C000C0DCC000F0CAA6000020400000206000002080000020A0000020C0000020E00000400000004020000040400000406000004080000040A0
310
000040C0000040E00000600000006020000060400000606000006080000060A0000060C0000060E00000800000008020000080400000806000008080000080A0000080C0000080E00000A0000000A0200000A0400000A0600000A0800000A0A00000A0C00000A0E00000C0000000C0200000C0400000C0600000C0800000C0
310
A00000C0C00000C0E00000E0000000E0200000E0400000E0600000E0800000E0A00000E0C00000E0E00040000000400020004000400040006000400080004000A0004000C0004000E00040200000402020004020400040206000402080004020A0004020C0004020E000404000004040200040404000404060004040800040
310
40A0004040C0004040E00040600000406020004060400040606000406080004060A0004060C0004060E00040800000408020004080400040806000408080004080A0004080C0004080E00040A0000040A0200040A0400040A0600040A0800040A0A00040A0C00040A0E00040C0000040C0200040C0400040C0600040C08000
310
40C0A00040C0C00040C0E00040E0000040E0200040E0400040E0600040E0800040E0A00040E0C00040E0E00080000000800020008000400080006000800080008000A0008000C0008000E00080200000802020008020400080206000802080008020A0008020C0008020E00080400000804020008040400080406000804080
310
008040A0008040C0008040E00080600000806020008060400080606000806080008060A0008060C0008060E00080800000808020008080400080806000808080008080A0008080C0008080E00080A0000080A0200080A0400080A0600080A0800080A0A00080A0C00080A0E00080C0000080C0200080C0400080C0600080C0
310
800080C0A00080C0C00080C0E00080E0000080E0200080E0400080E0600080E0800080E0A00080E0C00080E0E000C0000000C0002000C0004000C0006000C0008000C000A000C000C000C000E000C0200000C0202000C0204000C0206000C0208000C020A000C020C000C020E000C0400000C0402000C0404000C0406000C0
310
408000C040A000C040C000C040E000C0600000C0602000C0604000C0606000C0608000C060A000C060C000C060E000C0800000C0802000C0804000C0806000C0808000C080A000C080C000C080E000C0A00000C0A02000C0A04000C0A06000C0A08000C0A0A000C0A0C000C0A0E000C0C00000C0C02000C0C04000C0C06000
310
C0C08000C0C0A000F0FBFF00A4A0A000808080000000FF0000FF000000FFFF00FF000000FF00FF00FFFF0000FFFFFF000000000000000000000000000000000000000000000000000000000000000000000000000000FFFF00000000000000000000000000000000000000000000000000000000FFFFFFFFFF000000000000
310
000000000000000000000000000000000000000000FFFFFFFFFFFFFF00000000000000000000000000000000000000000000000000FFFF00FF000000FF00000000000000000000000000000000000000000000000000FF00FFFFFF0000FF0000000000000000000000000000000000000000000000FFFFFFFFFF00FFFFFFFF
310
00000000000000000000000000000000000000000000FF0000FFFFFFFF00FFFFFFFF0000000000000000000000000000000000000000FFFFFF000000FFFFFFFFFFFF00000000000000000000000000000000000000FFFFFFFF0000000000FFFFFFFF00000000000000000000000000000000000000FFFFFFFF000000000000
310
00FFFFFFFF00FFFFFFFF000000000000000000000000FFFFFFFFFF0000000000000000FFFFFFFFFFFFFFFFFF00000000000000000000FFFFFFFFFF00000000000000000000FFFFFFFFFF00FFFFFF0000000000000000FFFFFFFF000000000000000000000000FFFFFFFF0000FFFFFF00000000000000FFFFFFFF0000000000
310
000000000000000000FFFFFFFF00FFFF00000000000000FFFF00FF00000000000000000000000000000000FFFF00FFFF0000000000000000FFFFFFFF00000000000000FF0000000000000000FFFFFFFF0000000000000000FFFF00FF00000000000000FFFF0000000000000000FFFFFF000000000000000000FFFF00FF0000
310
00000000FFFFFF000000000000000000FF00000000000000000000FFFFFFFF0000000000FFFFFFFFFF0000000000000000FF000000000000000000FFFFFFFFFF00000000FFFFFFFFFF0000000000000000FF00000000000000000000FFFFFFFF00000000FFFF0000FF0000000000000000FF00000000000000000000FF0000
310
FFFF0000FF00FF0000FF0000000000000000FF0000000000000000000000FFFFFFFFFFFFFF00FF0000FF00000000000000FFFF000000000000000000000000FFFFFFFF000000FF00FFFF00000000000000FF0000000000000000000000000000000000000000FFFFFFFF00000000000000FFFF000000000000000000000000
310
0000000000000000FF0000FF00000000000000FF0000000000000000000000000000000000000000FF00FFFFFF000000000000FF0000000000000000000000000000000000000000FFFFFFFFFFFFFFFFFFFFFF0000000000000000000000000000000000000000000000FFFFFFFFFFFFFFFF00000000000000000000000000
310
000000000000000000000000FFFFFF0000000000000000000000000000000000000000000000000000000000000000000000000000000000
102
{BLKREFS
331
F2E
102
}
1001
ACAD
1000
DesignCenter Data
1002
{
1070
     1
1070
     4
1002
}
  0
ENDTAB
  0
ENDSEC
  0
SECTION
  2
BLOCKS
  0
BLOCK
  5
20
330
1F
100
AcDbEntity
  8
0
100
AcDbBlockBegin
  2
*Model_Space
 70
     0
 10
0.0
 20
0.0
 30
0.0
  3
*Model_Space
  1

  0
ENDBLK
  5
21
330
1F
100
AcDbEntity
  8
0
100
AcDbBlockEnd
  0
BLOCK
  5
D4
330
D2
100
AcDbEntity
 67
     1
  8
0
100
AcDbBlockBegin
  2
*Paper_Space
 70
     0
 10
0.0
 20
0.0
 30
0.0
  3
*Paper_Space
  1

  0
ENDBLK
  5
D5
330
D2
100
AcDbEntity
 67
     1
  8
0
100
AcDbBlockEnd
  0
BLOCK
  5
D8
330
D6
100
AcDbEntity
 67
     1
  8
0
100
AcDbBlockBegin
  2
*Paper_Space0
 70
     0
 10
0.0
 20
0.0
 30
0.0
  3
*Paper_Space0
  1

  0
ENDBLK
  5
D9
330
D6
100
AcDbEntity
 67
     1
  8
0
100
AcDbBlockEnd
  0
BLOCK
  5
AA6
330
AA5
100
AcDbEntity
  8
0
100
AcDbBlockBegin
  2
1
 70
     0
 10
0.0
 20
0.0
 30
0.0
  3
1
  1

  0
ARC
  5
AA8
330
AA5
100
AcDbEntity
  8
0
  6
Continuous
 62
     7
370
    15
100
AcDbCircle
 10
1887.43292184442
 20
984.6171777477545
 30
0.0
 40
0.1999998774047153
100
AcDbArc
 50
1.624668976680689
 51
92.49873397517575
  0
ARC
  5
AA9
330
AA5
100
AcDbEntity
  8
0
  6
Continuous
 62
     7
370
    15
100
AcDbCircle
 10
1887.832760922111
 20
984.628518553527
 30
0.0
 40
0.2000000000015223
100
AcDbArc
 50
181.6246689765761
 51
269.9998086040787
  0
ARC
  5
AAA
330
AA5
100
AcDbEntity
  8
0
  6
Continuous
 62
     7
370
    15
100
AcDbCircle
 10
1897.729830110097
 20
987.0343491008267
 30
0.0
 40
10.00000000000174
100
AcDbArc
 50
164.895382686308
 51
195.1046661614846
  0
ARC
  5
AAB
330
AA5
100
AcDbEntity
  8
0
  6
Continuous
 62
     7
370
    15
100
AcDbCircle
 10
1887.832763099992
 20
989.4401722273755
 30
0.0
 40
0.2000000000017921
100
AcDbArc
 50
90.0
 51
178.3753072386709
  0
ARC
  5
AAC
330
AA5
100
AcDbEntity
  8
0
  6
Continuous
 62
     7
370
    15
100
AcDbCircle
 10
1887.432923904462
 20
989.4515132026056
 30
0.0
 40
0.2000000000003648
100
AcDbArc
 50
267.4994420625206
 51
358.3753072386839
  0
LINE
  5
AAD
330
AA5
100
AcDbEntity
  8
0
  6
Continuous
 62
     7
370
    15
100
AcDbLine
 10
1885.416127275126
 20
993.6729393962812
 30
0.0
 11
1885.416127275126
 21
990.296693897624
 31
0.0
  0
LINE
  5
AAE
330
AA5
100
AcDbEntity
  8
0
  6
Continuous
 62
     7
370
    15
100
AcDbLine
 10
1885.416127275126
 20
996.5597413543653
 30
0.0
 11
1885.416127275126
 21
993.6729393962812
 31
0.0
  0
ARC
  5
AAF
330
AA5
100
AcDbEntity
  8
0
  6
Continuous
 62
     7
370
    15
100
AcDbCircle
 10
1888.91607332347
 20
996.559737992198
 30
0.0
 40
3.499999999999914
100
AcDbArc
 50
118.5994337257032
 51
180.0
  0
ARC
  5
AB0
330
AA5
100
AcDbEntity
  8
0
  6
Continuous
 62
     7
370
    15
100
AcDbCircle
 10
1919.02009018036
 20
1009.094232680628
 30
0.0
 40
2.999999999999488
100
AcDbArc
 50
30.00000000001508
 51
90.0
  0
LINE
  5
AB1
330
AA5
100
AcDbEntity
  8
0
  6
Continuous
 62
     7
370
    15
100
AcDbLine
 10
1925.124383996622
 20
1004.521193361659
 30
0.0
 11
1921.618200372355
 21
1010.594221210856
 31
0.0
  0
ARC
  5
AB2
330
AA5
100
AcDbEntity
  8
0
  6
Continuous
 62
     7
370
    15
100
AcDbCircle
 10
1920.79430929222
 20
1002.021195035127
 30
0.0
 40
4.999999999999687
100
AcDbArc
 50
0.0
 51
30.00000000001508
  0
ARC
  5
AB3
330
AA5
100
AcDbEntity
  8
0
  6
Continuous
 62
     7
370
    15
100
AcDbCircle
 10
1936.91607331755
 20
975.987464617984
 30
0.0
 40
9.999999999998479
100
AcDbArc
 50
74.89533828458887
 51
105.1046616499666
  0
ARC
  5
AB4
330
AA5
100
AcDbEntity
  8
0
  6
Continuous
 62
     7
370
    15
100
AcDbCircle
 10
1953.037837354716
 20
1002.021195035141
 30
0.0
 40
5.000000000000001
100
AcDbArc
 50
150.0000000000027
 51
180.0
  0
LINE
  5
AB5
330
AA5
100
AcDbEntity
  8
0
  6
Continuous
 62
     7
370
    15
100
AcDbLine
 10
1952.2139797913
 20
1010.594221210856
 30
0.0
 11
1948.707676957743
 21
1004.521193361659
 31
0.0
  0
ARC
  5
AB6
330
AA5
100
AcDbEntity
  8
0
  6
Continuous
 62
     7
370
    15
100
AcDbCircle
 10
1954.812056466576
 20
1009.094232680642
 30
0.0
 40
3.000000000000093
100
AcDbArc
 50
90.0
 51
150.0000000000196
  0
ARC
  5
AB7
330
AA5
100
AcDbEntity
  8
0
  6
Continuous
 62
     7
370
    15
100
AcDbCircle
 10
1984.916073323464
 20
996.5597379922115
 30
0.0
 40
3.500000000000056
100
AcDbArc
 50
0.0
 51
61.40056627429368
  0
LINE
  5
AB8
330
AA5
100
AcDbEntity
  8
0
  6
Continuous
 62
     7
370
    15
100
AcDbLine
 10
1988.416052888529
 20
994.1147588256788
 30
0.0
 11
1988.416052888529
 21
996.5597413543653
 31
0.0
  0
ARC
  5
AB9
330
AA5
100
AcDbEntity
  8
0
  6
Continuous
 62
     7
370
    15
100
AcDbCircle
 10
1976.102316536838
 20
987.03434910084
 30
0.0
 40
9.999999999999584
100
AcDbArc
 50
344.8953338385154
 51
15.10461731369199
  0
LINE
  5
ABA
330
AA5
100
AcDbEntity
  8
0
  6
Continuous
 62
     7
370
    15
100
AcDbLine
 10
1985.442853997843
 20
966.3628958229017
 30
0.0
 11
1987.734652589457
 21
974.9167881969404
 31
0.0
  0
LINE
  5
ABB
330
AA5
100
AcDbEntity
  8
0
  6
Continuous
 62
     7
370
    15
100
AcDbLine
 10
1949.158764909403
 20
966.3628958229017
 30
0.0
 11
1985.442853997843
 21
966.3628958229017
 31
0.0
  0
ARC
  5
ABC
330
AA5
100
AcDbEntity
  8
0
  6
Continuous
 62
     7
370
    15
100
AcDbCircle
 10
1949.158809676745
 20
965.762902719755
 30
0.0
 40
0.6000000000005297
100
AcDbArc
 50
90.0
 51
149.9998182427715
  0
LINE
  5
ABD
330
AA5
100
AcDbEntity
  8
0
  6
Continuous
 62
     7
370
    15
100
AcDbLine
 10
1947.460747789042
 20
964.0217743877363
 30
0.0
 11
1948.639250825541
 21
966.0629056457471
 31
0.0
  0
ARC
  5
ABE
330
AA5
100
AcDbEntity
  8
0
  6
Continuous
 62
     7
370
    15
100
AcDbCircle
 10
1947.114326316448
 20
964.2217686179275
 30
0.0
 40
0.400000000000153
100
AcDbArc
 50
270.0
 51
329.9998182427836
  0
LINE
  5
ABF
330
AA5
100
AcDbEntity
  8
0
  6
Continuous
 62
     7
370
    15
100
AcDbLine
 10
1926.717854570048
 20
963.8217710021924
 30
0.0
 11
1947.114325593607
 21
963.8217710021924
 31
0.0
  0
ARC
  5
AC0
330
AA5
100
AcDbEntity
  8
0
  6
Continuous
 62
     7
370
    15
100
AcDbCircle
 10
1926.717820330486
 20
964.221768617914
 30
0.0
 40
0.3999999999990678
100
AcDbArc
 50
210.0001817573045
 51
270.0
  0
LINE
  5
AC1
330
AA5
100
AcDbEntity
  8
0
  6
Continuous
 62
     7
370
    15
100
AcDbLine
 10
1925.192929338114
 20
966.0629056457471
 30
0.0
 11
1926.371432374613
 21
964.0217743877363
 31
0.0
  0
ARC
  5
AC2
330
AA5
100
AcDbEntity
  8
0
  6
Continuous
 62
     7
370
    15
100
AcDbCircle
 10
1924.67333697019
 20
965.7629027197415
 30
0.0
 40
0.5999999999997101
100
AcDbArc
 50
30.00018175733918
 51
90.0
  0
LINE
  5
AC3
330
AA5
100
AcDbEntity
  8
0
  6
Continuous
 62
     7
370
    15
100
AcDbLine
 10
1888.389326165812
 20
966.3628958229017
 30
0.0
 11
1924.673296044962
 21
966.3628958229017
 31
0.0
  0
LINE
  5
AC4
330
AA5
100
AcDbEntity
  8
0
  6
Continuous
 62
     7
370
    15
100
AcDbLine
 10
1886.097408364909
 20
974.9167881969404
 30
0.0
 11
1888.389326165812
 21
966.3628958229017
 31
0.0
  0
LINE
  5
AC5
330
AA5
100
AcDbEntity
  8
0
  6
Continuous
 62
     7
370
    15
100
AcDbLine
 10
1887.424207757609
 20
984.8170004848432
 30
0.0
 11
1886.372424195902
 21
984.7710453037214
 31
0.0
  0
LINE
  5
AC6
330
AA5
100
AcDbEntity
  8
0
  6
Continuous
 62
     7
370
    15
100
AcDbLine
 10
1988.416052888529
 20
980.0927661422681
 30
0.0
 11
1988.416052888529
 21
983.772011852641
 31
0.0
  0
ARC
  5
AC7
330
AA5
100
AcDbEntity
  8
0
  6
Continuous
 62
     7
370
    15
100
AcDbCircle
 10
1987.416075388852
 20
983.7720085141491
 30
0.0
 40
1.000000000000242
100
AcDbArc
 50
0.0
 51
87.4994395630196
  0
LINE
  5
AC8
330
AA5
100
AcDbEntity
  8
0
  6
Continuous
 62
     7
370
    15
100
AcDbLine
 10
1987.459755967753
 20
984.7710453037214
 30
0.0
 11
1986.407972406046
 21
984.8170004848432
 31
0.0
  0
ARC
  5
AC9
330
AA5
100
AcDbEntity
  8
0
  6
Continuous
 62
     7
370
    15
100
AcDbCircle
 10
1986.399224802514
 20
984.617177747768
 30
0.0
 40
0.1999998774044889
100
AcDbArc
 50
87.50126602475917
 51
178.3753310233127
  0
ARC
  5
ACA
330
AA5
100
AcDbEntity
  8
0
  6
Continuous
 62
     7
370
    15
100
AcDbCircle
 10
1968.416078833602
 20
980.0927877840447
 30
0.0
 40
19.99999655525353
100
AcDbArc
 50
345.0011027593999
 51
359.9999647814854
  0
LINE
  5
ACB
330
AA5
100
AcDbEntity
  8
0
  6
Continuous
 62
     7
370
    15
100
AcDbLine
 10
1985.999442170756
 20
984.4285272125196
 30
0.0
 11
1985.75685126652
 21
984.4285272125196
 31
0.0
  0
LINE
  5
ACC
330
AA5
100
AcDbEntity
  8
0
  6
Continuous
 62
     7
370
    15
100
AcDbLine
 10
1885.416127275126
 20
980.0927661422681
 30
0.0
 11
1885.416127275126
 21
983.772011852641
 31
0.0
  0
LINE
  5
ACD
330
AA5
100
AcDbEntity
  8
0
  6
Continuous
 62
     7
370
    15
100
AcDbLine
 10
1985.999442170756
 20
989.6401785377454
 30
0.0
 11
1985.75685126652
 21
989.6401785377454
 31
0.0
  0
ARC
  5
ACE
330
AA5
100
AcDbEntity
  8
0
  6
Continuous
 62
     7
370
    15
100
AcDbCircle
 10
1886.416071258084
 20
983.7720085141356
 30
0.0
 40
1.000000000002131
100
AcDbArc
 50
92.50056043699343
 51
180.0
  0
LINE
  5
ACF
330
AA5
100
AcDbEntity
  8
0
  6
Continuous
 62
     7
370
    15
100
AcDbLine
 10
1910.097337793009
 20
1012.094231701274
 30
0.0
 11
1887.2406254517
 21
999.6326886180829
 31
0.0
  0
LINE
  5
AD0
330
AA5
100
AcDbEntity
  8
0
  6
Continuous
 62
     7
370
    15
100
AcDbLine
 10
1987.459755967753
 20
989.2976306442212
 30
0.0
 11
1986.407972406046
 21
989.2517052654218
 31
0.0
  0
ARC
  5
AD1
330
AA5
100
AcDbEntity
  8
0
  6
Continuous
 62
     7
370
    15
100
AcDbCircle
 10
1987.416073323464
 20
990.2966818861571
 30
0.0
 40
1.000000000000256
100
AcDbArc
 50
272.5004731066831
 51
0.0
  0
LINE
  5
AD2
330
AA5
100
AcDbEntity
  8
0
  6
Continuous
 62
     7
370
    15
100
AcDbLine
 10
1988.416052888529
 20
994.1147588256788
 30
0.0
 11
1988.416052888529
 21
990.296693897624
 31
0.0
  0
ARC
  5
AD3
330
AA5
100
AcDbEntity
  8
0
  6
Continuous
 62
     7
370
    15
100
AcDbCircle
 10
1886.41607332347
 20
990.2966818861436
 30
0.0
 40
1.000000000000218
100
AcDbArc
 50
180.0
 51
267.4995268933299
  0
LINE
  5
AD4
330
AA5
100
AcDbEntity
  8
0
  6
Continuous
 62
     7
370
    15
100
AcDbLine
 10
1886.372424195902
 20
989.2976306442212
 30
0.0
 11
1887.424207757609
 21
989.2517052654218
 31
0.0
  0
LINE
  5
AD5
330
AA5
100
AcDbEntity
  8
0
  6
Continuous
 62
     7
370
    15
100
AcDbLine
 10
1986.591435502665
 20
999.6326886180829
 30
0.0
 11
1963.734842370646
 21
1012.094231701274
 31
0.0
  0
LINE
  5
AD6
330
AA5
100
AcDbEntity
  8
0
  6
Continuous
 62
     7
370
    15
100
AcDbLine
 10
1963.734842370646
 20
1012.094231701274
 30
0.0
 11
1954.81202704777
 21
1012.094231701274
 31
0.0
  0
LINE
  5
AD7
330
AA5
100
AcDbEntity
  8
0
  6
Continuous
 62
     7
370
    15
100
AcDbLine
 10
1888.075328897135
 20
989.6401785377454
 30
0.0
 11
1887.832737992899
 21
989.6401785377454
 31
0.0
  0
ARC
  5
AD8
330
AA5
100
AcDbEntity
  8
0
  6
Continuous
 62
     7
370
    15
100
AcDbCircle
 10
1985.999385724824
 20
984.6285185535405
 30
0.0
 40
0.2000000000001098
100
AcDbArc
 50
270.0001913954133
 51
358.3753310234174
  0
LINE
  5
AD9
330
AA5
100
AcDbEntity
  8
0
  6
Continuous
 62
     7
370
    15
100
AcDbLine
 10
1888.075328897135
 20
984.4285272125196
 30
0.0
 11
1887.832737992899
 21
984.4285272125196
 31
0.0
  0
LINE
  5
ADA
330
AA5
100
AcDbEntity
  8
0
  6
Continuous
 62
     7
370
    15
100
AcDbLine
 10
1948.037839959757
 20
1002.021195745845
 30
0.0
 11
1948.037839959757
 21
987.5942193035077
 31
0.0
  0
ARC
  5
ADB
330
AA5
100
AcDbEntity
  8
0
  6
Continuous
 62
     7
370
    15
100
AcDbCircle
 10
1947.537837360684
 20
987.5942326806422
 30
0.0
 40
0.4999999940320663
100
AcDbArc
 50
270.0
 51
0.0
  0
LINE
  5
ADC
330
AA5
100
AcDbEntity
  8
0
  6
Continuous
 62
     7
370
    15
100
AcDbLine
 10
1947.537876199381
 20
987.0942257408094
 30
0.0
 11
1939.359880517618
 21
987.0942257408094
 31
0.0
  0
ARC
  5
ADD
330
AA5
100
AcDbEntity
  8
0
  6
Continuous
 62
     7
370
    15
100
AcDbCircle
 10
1939.359877914975
 20
986.8942323919196
 30
0.0
 40
0.2000000122023415
100
AcDbArc
 50
89.99838338934521
 51
177.4994420626904
  0
LINE
  5
ADE
330
AA5
100
AcDbEntity
  8
0
  6
Continuous
 62
     7
370
    15
100
AcDbLine
 10
1939.160085748331
 20
986.9029544357251
 30
0.0
 11
1939.133382867472
 21
986.2931095127057
 31
0.0
  0
ARC
  5
ADF
330
AA5
100
AcDbEntity
  8
0
  6
Continuous
 62
     7
370
    15
100
AcDbCircle
 10
1939.333244901154
 20
986.284372645642
 30
0.0
 40
0.1999999999997484
100
AcDbArc
 50
177.4994420627229
 51
268.3753072389252
  0
ARC
  5
AE0
330
AA5
100
AcDbEntity
  8
0
  6
Continuous
 62
     7
370
    15
100
AcDbCircle
 10
1939.321903925924
 20
985.8845334501136
 30
0.0
 40
0.2000000000003097
100
AcDbArc
 50
359.9999999998632
 51
88.37530723841679
  0
LINE
  5
AE1
330
AA5
100
AcDbEntity
  8
0
  6
Continuous
 62
     7
370
    15
100
AcDbLine
 10
1939.521885942118
 20
985.8845196727704
 30
0.0
 11
1939.521885942118
 21
985.6419883731794
 31
0.0
  0
ARC
  5
AE2
330
AA5
100
AcDbEntity
  8
0
  6
Continuous
 62
     7
370
    15
100
AcDbCircle
 10
1905.416067813332
 20
980.092787784031
 30
0.0
 40
19.99999655525377
100
AcDbArc
 50
180.0000352185146
 51
194.9988869212519
  0
LINE
  5
AE3
330
AA5
100
AcDbEntity
  8
0
  6
Continuous
 62
     7
370
    15
100
AcDbLine
 10
1934.310294221537
 20
985.8845196727704
 30
0.0
 11
1934.310294221537
 21
985.6419883731794
 31
0.0
  0
ARC
  5
AE4
330
AA5
100
AcDbEntity
  8
0
  6
Continuous
 62
     7
370
    15
100
AcDbCircle
 10
1934.51024272101
 20
985.8845334501001
 30
0.0
 40
0.2000000000002525
100
AcDbArc
 50
91.62469276099669
 51
180.0
  0
ARC
  5
AE5
330
AA5
100
AcDbEntity
  8
0
  6
Continuous
 62
     7
370
    15
100
AcDbCircle
 10
1934.49890174578
 20
986.2843726456285
 30
0.0
 40
0.2000000000008979
100
AcDbArc
 50
271.6246927616483
 51
2.500557937244534
  0
LINE
  5
AE6
330
AA5
100
AcDbEntity
  8
0
  6
Continuous
 62
     7
370
    15
100
AcDbLine
 10
1934.672094415324
 20
986.9029544357251
 30
0.0
 11
1934.698678086893
 21
986.2931095127057
 31
0.0
  0
ARC
  5
AE7
330
AA5
100
AcDbEntity
  8
0
  6
Continuous
 62
     7
370
    15
100
AcDbCircle
 10
1934.472268731959
 20
986.8942323919061
 30
0.0
 40
0.2000000122015995
100
AcDbArc
 50
2.500557937342148
 51
90.00161661114983
  0
LINE
  5
AE8
330
AA5
100
AcDbEntity
  8
0
  6
Continuous
 62
     7
370
    15
100
AcDbLine
 10
1934.472299646036
 20
987.0942257408094
 30
0.0
 11
1926.294303964274
 21
987.0942257408094
 31
0.0
  0
ARC
  5
AE9
330
AA5
100
AcDbEntity
  8
0
  6
Continuous
 62
     7
370
    15
100
AcDbCircle
 10
1926.294309286249
 20
987.5942326806292
 30
0.0
 40
0.4999999940320095
100
AcDbArc
 50
180.0
 51
270.0
  0
LINE
  5
AEA
330
AA5
100
AcDbEntity
  8
0
  6
Continuous
 62
     7
370
    15
100
AcDbLine
 10
1925.794340203898
 20
987.5942193035077
 30
0.0
 11
1925.794340203898
 21
1002.021195745845
 31
0.0
  0
ARC
  5
AEB
330
AA5
100
AcDbEntity
  8
0
  6
Continuous
 62
     7
370
    15
100
AcDbCircle
 10
1985.999383546943
 20
989.4401722273885
 30
0.0
 40
0.2000000000000455
100
AcDbArc
 50
1.624692761472355
 51
90.0
  0
ARC
  5
AEC
330
AA5
100
AcDbEntity
  8
0
  6
Continuous
 62
     7
370
    15
100
AcDbCircle
 10
1986.399222742472
 20
989.4515132026191
 30
0.0
 40
0.2000000000003832
100
AcDbArc
 50
181.6246927613161
 51
272.5005579374141
  0
LINE
  5
AED
330
AA5
100
AcDbEntity
  8
0
  6
Continuous
 62
     7
370
    15
100
AcDbLine
 10
1919.020033906596
 20
1012.094231701274
 30
0.0
 11
1910.097337793009
 21
1012.094231701274
 31
0.0
  0
LINE
  5
AEE
330
AA5
100
AcDbEntity
  8
0
  6
Continuous
 62
     7
370
    15
100
AcDbLine
 10
1961.246110032694
 20
959.2131696704816
 30
0.0
 11
1962.156511376993
 21
964.3760941986036
 31
0.0
  0
ARC
  5
AEF
330
AA5
100
AcDbEntity
  8
0
  6
Continuous
 62
     7
370
    15
100
AcDbCircle
 10
1961.66410705704
 20
964.462902719755
 30
0.0
 40
0.5
100
AcDbArc
 50
350.0001310587233
 51
90.00000000022145
  0
ARC
  5
AF0
330
AA5
100
AcDbEntity
  8
0
  6
Continuous
 62
     7
370
    15
100
AcDbCircle
 10
1890.6901510486
 20
964.344063371916
 30
0.0
 40
0.5000000000020348
100
AcDbArc
 50
90.0
 51
194.9988916898457
  0
LINE
  5
AF1
330
AA5
100
AcDbEntity
  8
0
  6
Continuous
 62
     7
370
    15
100
AcDbLine
 10
1954.386211465494
 20
954.5964621070814
 30
0.0
 11
1953.166938851969
 21
956.7082844737958
 31
0.0
  0
ARC
  5
AF2
330
AA5
100
AcDbEntity
  8
0
  6
Continuous
 62
     7
370
    15
100
AcDbCircle
 10
1953.599915727446
 20
956.9582750586105
 30
0.0
 40
0.5000000000013339
100
AcDbArc
 50
100.0000911527034
 51
210.000055522646
  0
LINE
  5
AF3
330
AA5
100
AcDbEntity
  8
0
  6
Continuous
 62
     7
370
    15
100
AcDbLine
 10
1953.513122628825
 20
957.4506901267957
 30
0.0
 11
1954.003430436747
 21
957.5371466640424
 31
0.0
  0
ARC
  5
AF4
330
AA5
100
AcDbEntity
  8
0
  6
Continuous
 62
     7
370
    15
100
AcDbCircle
 10
1953.968700242691
 20
957.7341021201181
 30
0.0
 40
0.2000000000002672
100
AcDbArc
 50
280.0000803271118
 51
0.0
  0
LINE
  5
AF5
330
AA5
100
AcDbEntity
  8
0
  6
Continuous
 62
     7
370
    15
100
AcDbLine
 10
1954.168654512064
 20
957.7341102127027
 30
0.0
 11
1954.168654512064
 21
958.488079166789
 31
0.0
  0
LINE
  5
AF6
330
AA5
100
AcDbEntity
  8
0
  6
Continuous
 62
     7
370
    15
100
AcDbLine
 10
1953.917122911112
 20
962.1495924953412
 30
0.0
 11
1953.917122911112
 21
964.8314140800428
 31
0.0
  0
ARC
  5
AF7
330
AA5
100
AcDbEntity
  8
0
  6
Continuous
 62
     7
370
    15
100
AcDbCircle
 10
1953.417104460838
 20
964.831408891796
 30
0.0
 40
0.4999983151469678
100
AcDbArc
 50
0.0000194587463109
 51
90.0
  0
LINE
  5
AF8
330
AA5
100
AcDbEntity
  8
0
  6
Continuous
 62
     7
370
    15
100
AcDbLine
 10
1953.417159150736
 20
965.3314076427411
 30
0.0
 11
1953.139759133951
 21
965.3314076427411
 31
0.0
  0
ARC
  5
AF9
330
AA5
100
AcDbEntity
  8
0
  6
Continuous
 62
     7
370
    15
100
AcDbCircle
 10
1953.13978748055
 20
964.8314071000095
 30
0.0
 40
0.499999893067521
100
AcDbArc
 50
90.00062602479713
 51
125.7621660256225
  0
ARC
  5
AFA
330
AA5
100
AcDbEntity
  8
0
  6
Continuous
 62
     7
370
    15
100
AcDbCircle
 10
1950.844644497508
 20
968.0181345359315
 30
0.0
 40
3.427201790507028
100
AcDbArc
 50
274.8204356284918
 51
305.7621660254961
  0
ARC
  5
AFB
330
AA5
100
AcDbEntity
  8
0
  6
Continuous
 62
     7
370
    15
100
AcDbCircle
 10
1951.157853145016
 20
964.3041190679051
 30
0.0
 40
0.2999969637337899
100
AcDbArc
 50
94.82043562821752
 51
167.4999619999628
  0
LINE
  5
AFC
330
AA5
100
AcDbEntity
  8
0
  6
Continuous
 62
     7
370
    15
100
AcDbLine
 10
1950.865007470743
 20
964.3690608505201
 30
0.0
 11
1949.733115266459
 21
959.2637740138959
 31
0.0
  0
ARC
  5
AFD
330
AA5
100
AcDbEntity
  8
0
  6
Continuous
 62
     7
370
    15
100
AcDbCircle
 10
1950.221295946739
 20
959.1555476119275
 30
0.0
 40
0.4999981970458006
100
AcDbArc
 50
167.4998989924616
 51
228.1817579115155
  0
ARC
  5
AFE
330
AA5
100
AcDbEntity
  8
0
  6
Continuous
 62
     7
370
    15
100
AcDbCircle
 10
1949.054449035267
 20
957.8513379362592
 30
0.0
 40
1.25000025807384
100
AcDbArc
 50
251.5413740093312
 51
48.1817075565555
  0
ARC
  5
AFF
330
AA5
100
AcDbEntity
  8
0
  6
Continuous
 62
     7
370
    15
100
AcDbCircle
 10
1948.500363812946
 20
956.191370927652
 30
0.0
 40
0.5000000000005043
100
AcDbArc
 50
71.54130991848123
 51
114.1167068307357
  0
ARC
  5
B00
330
AA5
100
AcDbEntity
  8
0
  6
Continuous
 62
     7
370
    15
100
AcDbCircle
 10
1947.376723103528
 20
958.701337417097
 30
0.0
 40
2.250000040364165
100
AcDbArc
 50
270.0001224555493
 51
294.1167068307212
  0
LINE
  5
B01
330
AA5
100
AcDbEntity
  8
0
  6
Continuous
 62
     7
370
    15
100
AcDbLine
 10
1947.376705239909
 20
956.4513288501691
 30
0.0
 11
1947.054482530253
 21
956.4513288501691
 31
0.0
  0
ARC
  5
B02
330
AA5
100
AcDbEntity
  8
0
  6
Continuous
 62
     7
370
    15
100
AcDbCircle
 10
1947.054452035334
 20
956.9513374170785
 30
0.0
 40
0.5000000403817625
100
AcDbArc
 50
180.0004267453504
 51
270.0
  0
LINE
  5
B03
330
AA5
100
AcDbEntity
  8
0
  6
Continuous
 62
     7
370
    15
100
AcDbLine
 10
1946.554399560587
 20
956.9513224128675
 30
0.0
 11
1946.554399560587
 21
957.1513257984113
 31
0.0
  0
ARC
  5
B04
330
AA5
100
AcDbEntity
  8
0
  6
Continuous
 62
     7
370
    15
100
AcDbCircle
 10
1947.054449830986
 20
957.1513360499094
 30
0.0
 40
0.5
100
AcDbArc
 50
90.0
 51
180.0004178007049
  0
LINE
  5
B05
330
AA5
100
AcDbEntity
  8
0
  6
Continuous
 62
     7
370
    15
100
AcDbLine
 10
1947.054482530253
 20
957.6513491634321
 30
0.0
 11
1947.343922685282
 21
957.6513491634321
 31
0.0
  0
ARC
  5
B06
330
AA5
100
AcDbEntity
  8
0
  6
Continuous
 62
     7
370
    15
100
AcDbCircle
 10
1947.343950696376
 20
958.6513360766726
 30
0.0
 40
1.000000026777921
100
AcDbArc
 50
269.9996918039591
 51
347.4999851580605
  0
LINE
  5
B07
330
AA5
100
AcDbEntity
  8
0
  6
Continuous
 62
     7
370
    15
100
AcDbLine
 10
1948.320246766703
 20
958.434882021327
 30
0.0
 11
1949.577666352885
 21
964.1070090297651
 31
0.0
  0
ARC
  5
B08
330
AA5
100
AcDbEntity
  8
0
  6
Continuous
 62
     7
370
    15
100
AcDbCircle
 10
1949.38246368973
 20
964.1502858412749
 30
0.0
 40
0.200000000000772
100
AcDbArc
 50
347.4999177059438
 51
149.9998182427658
  0
LINE
  5
B09
330
AA5
100
AcDbEntity
  8
0
  6
Continuous
 62
     7
370
    15
100
AcDbLine
 10
1949.209309648173
 20
964.2502985958051
 30
0.0
 11
1948.297835420267
 21
962.671758985896
 31
0.0
  0
ARC
  5
B0A
330
AA5
100
AcDbEntity
  8
0
  6
Continuous
 62
     7
370
    15
100
AcDbCircle
 10
1947.864878861886
 20
962.9217633789785
 30
0.0
 40
0.5
100
AcDbArc
 50
270.0
 51
329.9998182427367
  0
LINE
  5
B0B
330
AA5
100
AcDbEntity
  8
0
  6
Continuous
 62
     7
370
    15
100
AcDbLine
 10
1919.828749726908
 20
957.5371466640424
 30
0.0
 11
1920.31905753483
 21
957.4506901267957
 31
0.0
  0
ARC
  5
B0C
330
AA5
100
AcDbEntity
  8
0
  6
Continuous
 62
     7
370
    15
100
AcDbCircle
 10
1920.23223091949
 20
956.958275058597
 30
0.0
 40
0.4999999999997945
100
AcDbArc
 50
329.9999444772724
 51
79.99990884727097
  0
LINE
  5
B0D
330
AA5
100
AcDbEntity
  8
0
  6
Continuous
 62
     7
370
    15
100
AcDbLine
 10
1920.665241311686
 20
956.7082844737958
 30
0.0
 11
1919.44596869816
 21
954.5964621070814
 31
0.0
  0
ARC
  5
B0E
330
AA5
100
AcDbEntity
  8
0
  6
Continuous
 62
     7
370
    15
100
AcDbCircle
 10
1915.115864496788
 20
957.0964731904146
 30
0.0
 40
5.000000000000466
100
AcDbArc
 50
270.0
 51
329.9999444773539
  0
ARC
  5
B0F
330
AA5
100
AcDbEntity
  8
0
  6
Continuous
 62
     7
370
    15
100
AcDbCircle
 10
1983.790684037836
 20
954.1464839667355
 30
0.0
 40
0.74999811856766
100
AcDbArc
 50
269.9999008809651
 51
90.00009911925635
  0
LINE
  5
B10
330
AA5
100
AcDbEntity
  8
0
  6
Continuous
 62
     7
370
    15
100
AcDbLine
 10
1983.790732453959
 20
954.8964820865583
 30
0.0
 11
1984.339095185892
 21
955.8464609149885
 31
0.0
  0
ARC
  5
B11
330
AA5
100
AcDbEntity
  8
0
  6
Continuous
 62
     7
370
    15
100
AcDbCircle
 10
1984.772154328314
 20
955.5964852630086
 30
0.0
 40
0.4999987037067154
100
AcDbArc
 50
90.00001260099086
 51
150.001498016447
  0
LINE
  5
B12
330
AA5
100
AcDbEntity
  8
0
  6
Continuous
 62
     7
370
    15
100
AcDbLine
 10
1984.77218253483
 20
956.0964725974988
 30
0.0
 11
1985.41448218693
 21
956.0964725974988
 31
0.0
  0
ARC
  5
B13
330
AA5
100
AcDbEntity
  8
0
  6
Continuous
 62
     7
370
    15
100
AcDbCircle
 10
1985.414517169594
 20
955.596484173447
 30
0.0
 40
0.5000023835106685
100
AcDbArc
 50
0.0000003419992945
 51
90.00042335649984
  0
LINE
  5
B14
330
AA5
100
AcDbEntity
  8
0
  6
Continuous
 62
     7
370
    15
100
AcDbLine
 10
1985.914565156596
 20
955.5964790348005
 30
0.0
 11
1985.914565156596
 21
953.5964749816846
 31
0.0
  0
ARC
  5
B15
330
AA5
100
AcDbEntity
  8
0
  6
Continuous
 62
     7
370
    15
100
AcDbCircle
 10
1984.414519553103
 20
953.5964731904286
 30
0.0
 40
1.5
100
AcDbArc
 50
270.0
 51
0.0
  0
LINE
  5
B16
330
AA5
100
AcDbEntity
  8
0
  6
Continuous
 62
     7
370
    15
100
AcDbLine
 10
1984.414554666178
 20
952.0964644912671
 30
0.0
 11
1958.716250489847
 21
952.0964644912671
 31
0.0
  0
ARC
  5
B17
330
AA5
100
AcDbEntity
  8
0
  6
Continuous
 62
     7
370
    15
100
AcDbCircle
 10
1958.716282150145
 20
957.0964731904281
 30
0.0
 40
4.999999999999943
100
AcDbArc
 50
210.0000555226638
 51
270.000000000026
  0
ARC
  5
B18
330
AA5
100
AcDbEntity
  8
0
  6
Continuous
 62
     7
370
    15
100
AcDbCircle
 10
1889.417627093829
 20
953.5964731904151
 30
0.0
 40
1.500000000000056
100
AcDbArc
 50
180.0
 51
270.0
  0
LINE
  5
B19
330
AA5
100
AcDbEntity
  8
0
  6
Continuous
 62
     7
370
    15
100
AcDbLine
 10
1887.917615007059
 20
953.5964749816846
 30
0.0
 11
1887.917615007059
 21
955.5964790348005
 31
0.0
  0
ARC
  5
B1A
330
AA5
100
AcDbEntity
  8
0
  6
Continuous
 62
     7
370
    15
100
AcDbCircle
 10
1891.211752956399
 20
953.8964847133335
 30
0.0
 40
0.5000000000019324
100
AcDbArc
 50
269.9999479956149
 51
14.99888692124561
  0
ARC
  5
B1B
330
AA5
100
AcDbEntity
  8
0
  6
Continuous
 62
     7
370
    15
100
AcDbCircle
 10
1889.059992318622
 20
955.5964852629955
 30
0.0
 40
0.499998703694002
100
AcDbArc
 50
29.99891236637261
 51
89.9999873992697
  0
LINE
  5
B1C
330
AA5
100
AcDbEntity
  8
0
  6
Continuous
 62
     7
370
    15
100
AcDbLine
 10
1889.492965768473
 20
955.8464907173108
 30
0.0
 11
1890.041447709696
 21
954.8964820865583
 31
0.0
  0
ARC
  5
B1D
330
AA5
100
AcDbEntity
  8
0
  6
Continuous
 62
     7
370
    15
100
AcDbCircle
 10
1890.0414626091
 20
954.146483966722
 30
0.0
 40
0.7499981185675463
100
AcDbArc
 50
89.99990088075668
 51
270.0000991190349
  0
LINE
  5
B1E
330
AA5
100
AcDbEntity
  8
0
  6
Continuous
 62
     7
370
    15
100
AcDbLine
 10
1910.650588105814
 20
964.4309006694745
 30
0.0
 11
1911.974407266276
 21
956.9228313926648
 31
0.0
  0
LINE
  5
B1F
330
AA5
100
AcDbEntity
  8
0
  6
Continuous
 62
     7
370
    15
100
AcDbLine
 10
1911.675668786661
 20
964.3760941986036
 30
0.0
 11
1912.585950921671
 21
959.2131696704816
 31
0.0
  0
ARC
  5
B20
330
AA5
100
AcDbEntity
  8
0
  6
Continuous
 62
     7
370
    15
100
AcDbCircle
 10
1913.078387291076
 20
959.2999952942035
 30
0.0
 40
0.5000000000004807
100
AcDbArc
 50
189.9998689412982
 51
356.0179346916434
  0
LINE
  5
B21
330
AA5
100
AcDbEntity
  8
0
  6
Continuous
 62
     7
370
    15
100
AcDbLine
 10
1913.936592172282
 20
964.4281886581373
 30
0.0
 11
1913.577176164286
 21
959.2652641300153
 31
0.0
  0
ARC
  5
B22
330
AA5
100
AcDbEntity
  8
0
  6
Continuous
 62
     7
370
    15
100
AcDbCircle
 10
1913.437788990616
 20
964.4629027197415
 30
0.0
 40
0.5000000000004452
100
AcDbArc
 50
356.0179346917018
 51
90.0
  0
LINE
  5
B23
330
AA5
100
AcDbEntity
  8
0
  6
Continuous
 62
     7
370
    15
100
AcDbLine
 10
1913.437820504801
 20
964.9629019264173
 30
0.0
 11
1912.168003152506
 21
964.9629019264173
 31
0.0
  0
ARC
  5
B24
330
AA5
100
AcDbEntity
  8
0
  6
Continuous
 62
     7
370
    15
100
AcDbCircle
 10
1912.168039589895
 20
964.4629027197421
 30
0.0
 40
0.5
100
AcDbArc
 50
90.0
 51
189.9998689412918
  0
LINE
  5
B25
330
AA5
100
AcDbEntity
  8
0
  6
Continuous
 62
     7
370
    15
100
AcDbLine
 10
1915.115810464518
 20
952.0964644912671
 30
0.0
 11
1889.417625497477
 21
952.0964644912671
 31
0.0
  0
LINE
  5
B26
330
AA5
100
AcDbEntity
  8
0
  6
Continuous
 62
     7
370
    15
100
AcDbLine
 10
1888.417578767435
 20
956.0964725974988
 30
0.0
 11
1889.059997628825
 21
956.0964725974988
 31
0.0
  0
LINE
  5
B27
330
AA5
100
AcDbEntity
  8
0
  6
Continuous
 62
     7
370
    15
100
AcDbLine
 10
1963.674045632975
 20
964.8440502647352
 30
0.0
 11
1983.141995500223
 21
964.8440502647352
 31
0.0
  0
ARC
  5
B28
330
AA5
100
AcDbEntity
  8
0
  6
Continuous
 62
     7
370
    15
100
AcDbCircle
 10
1888.417629477342
 20
955.5964841734336
 30
0.0
 40
0.5000023835121965
100
AcDbArc
 50
89.9995766437607
 51
179.9999996580072
  0
LINE
  5
B29
330
AA5
100
AcDbEntity
  8
0
  6
Continuous
 62
     7
370
    15
100
AcDbLine
 10
1953.986145089762
 20
958.6873374942731
 30
0.0
 11
1952.992058824198
 21
958.7743006710004
 31
0.0
  0
ARC
  5
B2A
330
AA5
100
AcDbEntity
  8
0
  6
Continuous
 62
     7
370
    15
100
AcDbCircle
 10
1953.018154416138
 20
959.0731559810556
 30
0.0
 40
0.3000001797141219
100
AcDbArc
 50
180.0
 51
264.9993077621201
  0
LINE
  5
B2B
330
AA5
100
AcDbEntity
  8
0
  6
Continuous
 62
     7
370
    15
100
AcDbLine
 10
1952.71811587681
 20
959.0731583599042
 30
0.0
 11
1952.71811587681
 21
960.8779870037031
 31
0.0
  0
ARC
  5
B2C
330
AA5
100
AcDbEntity
  8
0
  6
Continuous
 62
     7
370
    15
100
AcDbCircle
 10
1953.221655675944
 20
960.8779957793876
 30
0.0
 40
0.5035014395201955
100
AcDbArc
 50
119.9998082108217
 51
179.9999848270186
  0
LINE
  5
B2D
330
AA5
100
AcDbEntity
  8
0
  6
Continuous
 62
     7
370
    15
100
AcDbLine
 10
1952.969885896342
 20
961.3140545848798
 30
0.0
 11
1953.667141030924
 21
961.716564751048
 31
0.0
  0
ARC
  5
B2E
330
AA5
100
AcDbEntity
  8
0
  6
Continuous
 62
     7
370
    15
100
AcDbCircle
 10
1953.417105166069
 20
962.149582719155
 30
0.0
 40
0.4999976099156143
100
AcDbArc
 50
299.9997320125231
 51
0.0
  0
LINE
  5
B2F
330
AA5
100
AcDbEntity
  8
0
  6
Continuous
 62
     7
370
    15
100
AcDbLine
 10
1947.864867280619
 20
962.4217771057081
 30
0.0
 11
1925.967312883036
 21
962.4217771057081
 31
0.0
  0
ARC
  5
B30
330
AA5
100
AcDbEntity
  8
0
  6
Continuous
 62
     7
370
    15
100
AcDbCircle
 10
1925.967267785049
 20
962.921763378965
 30
0.0
 40
0.5000000000013339
100
AcDbArc
 50
210.0001817571348
 51
270.0
  0
LINE
  5
B31
330
AA5
100
AcDbEntity
  8
0
  6
Continuous
 62
     7
370
    15
100
AcDbLine
 10
1925.534225534098
 20
962.671758985896
 30
0.0
 11
1924.622870515482
 21
964.2502985958051
 31
0.0
  0
ARC
  5
B32
330
AA5
100
AcDbEntity
  8
0
  6
Continuous
 62
     7
370
    15
100
AcDbCircle
 10
1924.449682957204
 20
964.150285841262
 30
0.0
 40
0.1999999999998529
100
AcDbArc
 50
30.00018175712348
 51
192.500014841955
  0
LINE
  5
B33
330
AA5
100
AcDbEntity
  8
0
  6
Continuous
 62
     7
370
    15
100
AcDbLine
 10
1924.254394601481
 20
964.1070090297651
 30
0.0
 11
1925.511933396952
 21
958.434882021327
 31
0.0
  0
ARC
  5
B34
330
AA5
100
AcDbEntity
  8
0
  6
Continuous
 62
     7
370
    15
100
AcDbCircle
 10
1926.488195950558
 20
958.6513360766589
 30
0.0
 40
1.000000026777456
100
AcDbArc
 50
192.5000254086341
 51
270.0003081961582
  0
LINE
  5
B35
330
AA5
100
AcDbEntity
  8
0
  6
Continuous
 62
     7
370
    15
100
AcDbLine
 10
1926.488257478373
 20
957.6513491634321
 30
0.0
 11
1926.777697633402
 21
957.6513491634321
 31
0.0
  0
ARC
  5
B36
330
AA5
100
AcDbEntity
  8
0
  6
Continuous
 62
     7
370
    15
100
AcDbCircle
 10
1926.777696815948
 20
957.1513360498959
 30
0.0
 40
0.5
100
AcDbArc
 50
359.9995821992951
 51
90.0
  0
LINE
  5
B37
330
AA5
100
AcDbEntity
  8
0
  6
Continuous
 62
     7
370
    15
100
AcDbLine
 10
1927.277661393778
 20
957.1513257984113
 30
0.0
 11
1927.277661393778
 21
956.9513224128675
 31
0.0
  0
ARC
  5
B38
330
AA5
100
AcDbEntity
  8
0
  6
Continuous
 62
     7
370
    15
100
AcDbCircle
 10
1926.777694611599
 20
956.9513374170655
 30
0.0
 40
0.5000000403841784
100
AcDbArc
 50
270.0007376590625
 51
359.9995732545909
  0
LINE
  5
B39
330
AA5
100
AcDbEntity
  8
0
  6
Continuous
 62
     7
370
    15
100
AcDbLine
 10
1926.777697633402
 20
956.4513288501691
 30
0.0
 11
1926.455474923746
 21
956.4513288501691
 31
0.0
  0
ARC
  5
B3A
330
AA5
100
AcDbEntity
  8
0
  6
Continuous
 62
     7
370
    15
100
AcDbCircle
 10
1926.455423543407
 20
958.7013374170835
 30
0.0
 40
2.250000040364559
100
AcDbArc
 50
245.8832931692206
 51
269.9998775443986
  0
ARC
  5
B3B
330
AA5
100
AcDbEntity
  8
0
  6
Continuous
 62
     7
370
    15
100
AcDbCircle
 10
1925.331782833987
 20
956.1913709276385
 30
0.0
 40
0.4999999999998745
100
AcDbArc
 50
65.88329316935156
 51
108.4586900813107
  0
ARC
  5
B3C
330
AA5
100
AcDbEntity
  8
0
  6
Continuous
 62
     7
370
    15
100
AcDbCircle
 10
1924.777697611667
 20
957.8513379362462
 30
0.0
 40
1.25000025807437
100
AcDbArc
 50
131.8182924435181
 51
288.4586259906688
  0
ARC
  5
B3D
330
AA5
100
AcDbEntity
  8
0
  6
Continuous
 62
     7
370
    15
100
AcDbCircle
 10
1923.610850700194
 20
959.155547611914
 30
0.0
 40
0.4999981970469222
100
AcDbArc
 50
311.8182420884845
 51
12.50010100750023
  0
LINE
  5
B3E
330
AA5
100
AcDbEntity
  8
0
  6
Continuous
 62
     7
370
    15
100
AcDbLine
 10
1924.098945687907
 20
959.2637740138959
 30
0.0
 11
1922.967172692911
 21
964.3690608505201
 31
0.0
  0
ARC
  5
B3F
330
AA5
100
AcDbEntity
  8
0
  6
Continuous
 62
     7
370
    15
100
AcDbCircle
 10
1922.674293501919
 20
964.3041190678921
 30
0.0
 40
0.2999969637338089
100
AcDbArc
 50
12.50025190986523
 51
85.17956437174298
  0
ARC
  5
B40
330
AA5
100
AcDbEntity
  8
0
  6
Continuous
 62
     7
370
    15
100
AcDbCircle
 10
1922.987502149426
 20
968.018134535918
 30
0.0
 40
3.427201790506444
100
AcDbArc
 50
234.2378339745039
 51
265.1795643715471
  0
ARC
  5
B41
330
AA5
100
AcDbEntity
  8
0
  6
Continuous
 62
     7
370
    15
100
AcDbCircle
 10
1920.692359166386
 20
964.831407099996
 30
0.0
 40
0.4999998930668452
100
AcDbArc
 50
54.23783397458342
 51
89.99937397541131
  0
LINE
  5
B42
330
AA5
100
AcDbEntity
  8
0
  6
Continuous
 62
     7
370
    15
100
AcDbLine
 10
1920.692421029703
 20
965.3314076427411
 30
0.0
 11
1920.415021012919
 21
965.3314076427411
 31
0.0
  0
ARC
  5
B43
330
AA5
100
AcDbEntity
  8
0
  6
Continuous
 62
     7
370
    15
100
AcDbCircle
 10
1920.415042186095
 20
964.8314088917825
 30
0.0
 40
0.4999983151470247
100
AcDbArc
 50
90.0
 51
179.9999805412537
  0
LINE
  5
B44
330
AA5
100
AcDbEntity
  8
0
  6
Continuous
 62
     7
370
    15
100
AcDbLine
 10
1919.915057252543
 20
964.8314140800428
 30
0.0
 11
1919.915057252543
 21
962.1495924953412
 31
0.0
  0
ARC
  5
B45
330
AA5
100
AcDbEntity
  8
0
  6
Continuous
 62
     7
370
    15
100
AcDbCircle
 10
1953.968700067234
 20
958.4880861169361
 30
0.0
 40
0.2000001754578591
100
AcDbArc
 50
0.0
 51
85.000136113115
  0
LINE
  5
B46
330
AA5
100
AcDbEntity
  8
0
  6
Continuous
 62
     7
370
    15
100
AcDbLine
 10
1920.165039132731
 20
961.716564751048
 30
0.0
 11
1920.862294267313
 21
961.3140545848798
 31
0.0
  0
ARC
  5
B47
330
AA5
100
AcDbEntity
  8
0
  6
Continuous
 62
     7
370
    15
100
AcDbCircle
 10
1920.61049097099
 20
960.8779957793741
 30
0.0
 40
0.5035014395220578
100
AcDbArc
 50
0.0000151729813448
 51
60.00019178898277
  0
LINE
  5
B48
330
AA5
100
AcDbEntity
  8
0
  6
Continuous
 62
     7
370
    15
100
AcDbLine
 10
1921.113945077555
 20
960.8779870037031
 30
0.0
 11
1921.113945077555
 21
959.0731583599042
 31
0.0
  0
ARC
  5
B49
330
AA5
100
AcDbEntity
  8
0
  6
Continuous
 62
     7
370
    15
100
AcDbCircle
 10
1920.813992230798
 20
959.073155981042
 30
0.0
 40
0.3000001797139853
100
AcDbArc
 50
275.0006922374612
 51
0.0
  0
LINE
  5
B4A
330
AA5
100
AcDbEntity
  8
0
  6
Continuous
 62
     7
370
    15
100
AcDbLine
 10
1920.840121339457
 20
958.7743006710004
 30
0.0
 11
1919.846035073893
 21
958.6873374942731
 31
0.0
  0
ARC
  5
B4B
330
AA5
100
AcDbEntity
  8
0
  6
Continuous
 62
     7
370
    15
100
AcDbCircle
 10
1919.863446579699
 20
958.4880861169231
 30
0.0
 40
0.2000001754578307
100
AcDbArc
 50
95.00109417751497
 51
180.0
  0
LINE
  5
B4C
330
AA5
100
AcDbEntity
  8
0
  6
Continuous
 62
     7
370
    15
100
AcDbLine
 10
1919.663406442301
 20
958.488079166789
 30
0.0
 11
1919.663406442301
 21
957.7341102127027
 31
0.0
  0
ARC
  5
B4D
330
AA5
100
AcDbEntity
  8
0
  6
Continuous
 62
     7
370
    15
100
AcDbCircle
 10
1919.863446404242
 20
957.7341021201046
 30
0.0
 40
0.1999999999999602
100
AcDbArc
 50
180.0
 51
259.9999196735232
  0
ARC
  5
B4E
330
AA5
100
AcDbEntity
  8
0
  6
Continuous
 62
     7
370
    15
100
AcDbCircle
 10
1915.266784412226
 20
956.0964766474375
 30
0.0
 40
3.0
100
AcDbArc
 50
270.0
 51
327.2818332671504
  0
ARC
  5
B4F
330
AA5
100
AcDbEntity
  8
0
  6
Continuous
 62
     7
370
    15
100
AcDbCircle
 10
1916.108123858252
 20
955.555969536884
 30
0.0
 40
2.000000000001037
100
AcDbArc
 50
327.2818332671629
 51
356.0180102146749
  0
LINE
  5
B50
330
AA5
100
AcDbEntity
  8
0
  6
Continuous
 62
     7
370
    15
100
AcDbLine
 10
1918.10331446995
 20
955.4170690540265
 30
0.0
 11
1918.730593751566
 21
964.4281886581373
 31
0.0
  0
ARC
  5
B51
330
AA5
100
AcDbEntity
  8
0
  6
Continuous
 62
     7
370
    15
100
AcDbCircle
 10
1918.231773758582
 20
964.4629027197415
 30
0.0
 40
0.5000000000008793
100
AcDbArc
 50
356.0180102146489
 51
90.0
  0
LINE
  5
B52
330
AA5
100
AcDbEntity
  8
0
  6
Continuous
 62
     7
370
    15
100
AcDbLine
 10
1918.231822084086
 20
964.9629019264173
 30
0.0
 11
1915.442682336466
 21
964.9629019264173
 31
0.0
  0
ARC
  5
B53
330
AA5
100
AcDbEntity
  8
0
  6
Continuous
 62
     7
370
    15
100
AcDbCircle
 10
1915.442629002155
 20
964.4629027197415
 30
0.0
 40
0.5000000000004832
100
AcDbArc
 50
90.0
 51
176.0179346916368
  0
LINE
  5
B54
330
AA5
100
AcDbEntity
  8
0
  6
Continuous
 62
     7
370
    15
100
AcDbLine
 10
1914.943791459696
 20
964.4976280693006
 30
0.0
 11
1914.423800538676
 21
957.0270203117322
 31
0.0
  0
ARC
  5
B55
330
AA5
100
AcDbEntity
  8
0
  6
Continuous
 62
     7
370
    15
100
AcDbCircle
 10
1913.426205361599
 20
957.0964766474375
 30
0.0
 40
1.0
100
AcDbArc
 50
270.0
 51
356.0179346916889
  0
LINE
  5
B56
330
AA5
100
AcDbEntity
  8
0
  6
Continuous
 62
     7
370
    15
100
AcDbLine
 10
1913.426257203715
 20
956.0964725974988
 30
0.0
 11
1912.959195207255
 21
956.0964725974988
 31
0.0
  0
ARC
  5
B57
330
AA5
100
AcDbEntity
  8
0
  6
Continuous
 62
     7
370
    15
100
AcDbCircle
 10
1912.959208782775
 20
957.0964766474375
 30
0.0
 40
1.0
100
AcDbArc
 50
189.9998689412125
 51
270.0
  0
ARC
  5
B58
330
AA5
100
AcDbEntity
  8
0
  6
Continuous
 62
     7
370
    15
100
AcDbCircle
 10
1949.158809676745
 20
965.762902719755
 30
0.0
 40
0.5
100
AcDbArc
 50
90.0
 51
149.9998182426899
  0
ARC
  5
B59
330
AA5
100
AcDbEntity
  8
0
  6
Continuous
 62
     7
370
    15
100
AcDbCircle
 10
1910.158141488332
 20
964.344063371916
 30
0.0
 40
0.5000000000010819
100
AcDbArc
 50
9.999868941191051
 51
90.0
  0
ARC
  5
B5A
330
AA5
100
AcDbEntity
  8
0
  6
Continuous
 62
     7
370
    15
100
AcDbCircle
 10
1947.114326316448
 20
964.2217686179275
 30
0.0
 40
0.5
100
AcDbArc
 50
270.0
 51
329.9998182427545
  0
LINE
  5
B5B
330
AA5
100
AcDbEntity
  8
0
  6
Continuous
 62
     7
370
    15
100
AcDbLine
 10
1926.717854570048
 20
963.7217544082593
 30
0.0
 11
1947.114325593607
 21
963.7217544082593
 31
0.0
  0
ARC
  5
B5C
330
AA5
100
AcDbEntity
  8
0
  6
Continuous
 62
     7
370
    15
100
AcDbCircle
 10
1926.717820330486
 20
964.221768617914
 30
0.0
 40
0.5
100
AcDbArc
 50
210.0001817572632
 51
270.0
  0
LINE
  5
B5D
330
AA5
100
AcDbEntity
  8
0
  6
Continuous
 62
     7
370
    15
100
AcDbLine
 10
1960.394359658854
 20
964.9629019264173
 30
0.0
 11
1961.664057801859
 21
964.9629019264173
 31
0.0
  0
ARC
  5
B5E
330
AA5
100
AcDbEntity
  8
0
  6
Continuous
 62
     7
370
    15
100
AcDbCircle
 10
1960.394357656319
 20
964.462902719755
 30
0.0
 40
0.5000000000004148
100
AcDbArc
 50
90.0
 51
183.9820653082981
  0
LINE
  5
B5F
330
AA5
100
AcDbEntity
  8
0
  6
Continuous
 62
     7
370
    15
100
AcDbLine
 10
1959.895587991373
 20
964.4281886581373
 30
0.0
 11
1960.255003999369
 21
959.2652641300153
 31
0.0
  0
ARC
  5
B60
330
AA5
100
AcDbEntity
  8
0
  6
Continuous
 62
     7
370
    15
100
AcDbCircle
 10
1960.75375935586
 20
959.299995294217
 30
0.0
 40
0.5000000000004827
100
AcDbArc
 50
183.9820653083631
 51
350.0001310587146
  0
ARC
  5
B61
330
AA5
100
AcDbEntity
  8
0
  6
Continuous
 62
     7
370
    15
100
AcDbCircle
 10
1980.262411460624
 20
953.5964766474515
 30
0.0
 40
0.5
100
AcDbArc
 50
270.0
 51
344.9479472612708
  0
ARC
  5
B62
330
AA5
100
AcDbEntity
  8
0
  6
Continuous
 62
     7
370
    15
100
AcDbCircle
 10
1963.674005158601
 20
964.3440633719295
 30
0.0
 40
0.5
100
AcDbArc
 50
90.0
 51
170.0001310587682
  0
LINE
  5
B63
330
AA5
100
AcDbEntity
  8
0
  6
Continuous
 62
     7
370
    15
100
AcDbLine
 10
1961.857772897379
 20
956.9228313926648
 30
0.0
 11
1963.181592057841
 21
964.4309006694745
 31
0.0
  0
ARC
  5
B64
330
AA5
100
AcDbEntity
  8
0
  6
Continuous
 62
     7
370
    15
100
AcDbCircle
 10
1960.87293786416
 20
957.096476647451
 30
0.0
 40
1.0
100
AcDbArc
 50
270.0
 51
350.0001310587426
  0
LINE
  5
B65
330
AA5
100
AcDbEntity
  8
0
  6
Continuous
 62
     7
370
    15
100
AcDbLine
 10
1960.8729849564
 20
956.0964725974988
 30
0.0
 11
1960.40592295994
 21
956.0964725974988
 31
0.0
  0
ARC
  5
B66
330
AA5
100
AcDbEntity
  8
0
  6
Continuous
 62
     7
370
    15
100
AcDbCircle
 10
1960.405941285335
 20
957.096476647451
 30
0.0
 40
1.000000000000892
100
AcDbArc
 50
183.9820653083046
 51
270.0
  0
LINE
  5
B67
330
AA5
100
AcDbEntity
  8
0
  6
Continuous
 62
     7
370
    15
100
AcDbLine
 10
1959.408379624979
 20
957.0270203117322
 30
0.0
 11
1958.888269494669
 21
964.4976280693006
 31
0.0
  0
ARC
  5
B68
330
AA5
100
AcDbEntity
  8
0
  6
Continuous
 62
     7
370
    15
100
AcDbCircle
 10
1958.38951764478
 20
964.462902719755
 30
0.0
 40
0.5
100
AcDbArc
 50
3.98206530838261
 51
90.0
  0
LINE
  5
B69
330
AA5
100
AcDbEntity
  8
0
  6
Continuous
 62
     7
370
    15
100
AcDbLine
 10
1958.389497827189
 20
964.9629019264173
 30
0.0
 11
1955.600358079569
 21
964.9629019264173
 31
0.0
  0
ARC
  5
B6A
330
AA5
100
AcDbEntity
  8
0
  6
Continuous
 62
     7
370
    15
100
AcDbCircle
 10
1955.600372888354
 20
964.462902719755
 30
0.0
 40
0.5000000000008753
100
AcDbArc
 50
90.0
 51
183.9819897853446
  0
LINE
  5
B6B
330
AA5
100
AcDbEntity
  8
0
  6
Continuous
 62
     7
370
    15
100
AcDbLine
 10
1955.101586412089
 20
964.4281886581373
 30
0.0
 11
1955.728865693705
 21
955.4170690540265
 31
0.0
  0
ARC
  5
B6C
330
AA5
100
AcDbEntity
  8
0
  6
Continuous
 62
     7
370
    15
100
AcDbCircle
 10
1957.724022788682
 20
955.555969536897
 30
0.0
 40
1.999999999999216
100
AcDbArc
 50
183.9819897853186
 51
212.7181667328786
  0
ARC
  5
B6D
330
AA5
100
AcDbEntity
  8
0
  6
Continuous
 62
     7
370
    15
100
AcDbCircle
 10
1958.56536223471
 20
956.096476647451
 30
0.0
 40
3.0
100
AcDbArc
 50
212.7181667328551
 51
270.0
  0
LINE
  5
B6E
330
AA5
100
AcDbEntity
  8
0
  6
Continuous
 62
     7
370
    15
100
AcDbLine
 10
1980.262375901835
 20
953.0964814189863
 30
0.0
 11
1958.565331529276
 21
953.0964814189863
 31
0.0
  0
LINE
  5
B6F
330
AA5
100
AcDbEntity
  8
0
  6
Continuous
 62
     7
370
    15
100
AcDbLine
 10
1947.547293733256
 20
963.9717660907697
 30
0.0
 11
1948.725796769755
 21
966.0128973487806
 31
0.0
  0
LINE
  5
B70
330
AA5
100
AcDbEntity
  8
0
  6
Continuous
 62
     7
370
    15
100
AcDbLine
 10
1983.624912332194
 20
964.2146550182294
 30
0.0
 11
1980.745292733805
 21
953.4666262630414
 31
0.0
  0
ARC
  5
B71
330
AA5
100
AcDbEntity
  8
0
  6
Continuous
 62
     7
370
    15
100
AcDbCircle
 10
1983.141995598336
 20
964.3440633719295
 30
0.0
 40
0.5000000000002042
100
AcDbArc
 50
345.0011083100406
 51
90.0
  0
LINE
  5
B72
330
AA5
100
AcDbEntity
  8
0
  6
Continuous
 62
     7
370
    15
100
AcDbLine
 10
1982.620335649149
 20
953.3964715961408
 30
0.0
 11
1983.790732453959
 21
953.3964715961408
 31
0.0
  0
ARC
  5
B73
330
AA5
100
AcDbEntity
  8
0
  6
Continuous
 62
     7
370
    15
100
AcDbCircle
 10
1982.620393690534
 20
953.896484713347
 30
0.0
 40
0.5000000000001346
100
AcDbArc
 50
165.0011130787418
 51
270.0000520046326
  0
LINE
  5
B74
330
AA5
100
AcDbEntity
  8
0
  6
Continuous
 62
     7
370
    15
100
AcDbLine
 10
1949.158764909403
 20
966.2629090312909
 30
0.0
 11
1985.416031907694
 21
966.2629090312909
 31
0.0
  0
LINE
  5
B75
330
AA5
100
AcDbEntity
  8
0
  6
Continuous
 62
     7
370
    15
100
AcDbLine
 10
1890.690184663431
 20
964.8440502647352
 30
0.0
 11
1910.15813453068
 21
964.8440502647352
 31
0.0
  0
LINE
  5
B76
330
AA5
100
AcDbEntity
  8
0
  6
Continuous
 62
     7
370
    15
100
AcDbLine
 10
1915.266729425089
 20
953.0964814189863
 30
0.0
 11
1893.569685052531
 21
953.0964814189863
 31
0.0
  0
LINE
  5
B77
330
AA5
100
AcDbEntity
  8
0
  6
Continuous
 62
     7
370
    15
100
AcDbLine
 10
1893.08688742985
 20
953.4666262630414
 30
0.0
 11
1890.207148622172
 21
964.2146550182294
 31
0.0
  0
ARC
  5
B78
330
AA5
100
AcDbEntity
  8
0
  6
Continuous
 62
     7
370
    15
100
AcDbCircle
 10
1893.56973518631
 20
953.596476647438
 30
0.0
 40
0.5
100
AcDbArc
 50
195.0520527387355
 51
270.0
  0
LINE
  5
B79
330
AA5
100
AcDbEntity
  8
0
  6
Continuous
 62
     7
370
    15
100
AcDbLine
 10
1924.673296044962
 20
966.2629090312909
 30
0.0
 11
1888.416029046671
 21
966.2629090312909
 31
0.0
  0
LINE
  5
B7A
330
AA5
100
AcDbEntity
  8
0
  6
Continuous
 62
     7
370
    15
100
AcDbLine
 10
1926.28476722111
 20
963.9717660907697
 30
0.0
 11
1925.1063833939
 21
966.0128973487806
 31
0.0
  0
ARC
  5
B7B
330
AA5
100
AcDbEntity
  8
0
  6
Continuous
 62
     7
370
    15
100
AcDbCircle
 10
1924.67333697019
 20
965.7629027197415
 30
0.0
 40
0.5
100
AcDbArc
 50
30.00018175742077
 51
90.00000000022145
  0
ARC
  5
B7C
330
AA5
100
AcDbEntity
  8
0
  6
Continuous
 62
     7
370
    15
100
AcDbCircle
 10
1920.415041480866
 20
962.1495827191415
 30
0.0
 40
0.499997609916267
100
AcDbArc
 50
180.0000150912139
 51
239.9998008326029
  0
LINE
  5
B7D
330
AA5
100
AcDbEntity
  8
0
  6
Continuous
 62
     7
370
    15
100
AcDbLine
 10
1890.041447709696
 20
953.3964715961408
 30
0.0
 11
1891.211725305216
 21
953.3964715961408
 31
0.0
  0
LINE
  5
B7E
330
AA5
100
AcDbEntity
  8
0
  6
Continuous
 62
     7
370
    15
100
AcDbLine
 10
1888.416029046671
 20
966.2629090312909
 30
0.0
 11
1891.694761346476
 21
954.0258966449689
 31
0.0
  0
LINE
  5
B7F
330
AA5
100
AcDbEntity
  8
0
  6
Continuous
 62
     7
370
    15
100
AcDbLine
 10
1985.416031907694
 20
966.2629090312909
 30
0.0
 11
1982.137418817179
 21
954.0258966449689
 31
0.0
  0
ARC
  5
B80
330
AA5
100
AcDbEntity
  8
0
  6
Continuous
 62
     7
370
    15
100
AcDbCircle
 10
1927.872522983712
 20
964.2217686179275
 30
0.0
 40
0.5
100
AcDbArc
 50
233.1301023564462
 51
270.0
  0
LINE
  5
B81
330
AA5
100
AcDbEntity
  8
0
  6
Continuous
 62
     7
370
    15
100
AcDbLine
 10
1888.416029046671
 20
966.2629090312909
 30
0.0
 11
1888.389326165812
 21
966.3628958229017
 31
0.0
  0
ARC
  5
B82
330
AA5
100
AcDbEntity
  8
0
  6
Continuous
 62
     7
370
    15
100
AcDbCircle
 10
1945.959623663226
 20
964.2217686179275
 30
0.0
 40
0.5
100
AcDbArc
 50
270.0
 51
306.8698976457437
  0
LINE
  5
B83
330
AA5
100
AcDbEntity
  8
0
  6
Continuous
 62
     7
370
    15
100
AcDbLine
 10
1985.416031907694
 20
966.2629090312909
 30
0.0
 11
1985.442853997843
 21
966.3628958229017
 31
0.0
  0
ARC
  5
B84
330
AA5
100
AcDbEntity
  8
0
  6
Continuous
 62
     7
370
    15
100
AcDbCircle
 10
1933.809226046879
 20
963.9217686179275
 30
0.0
 40
0.2000000000020688
100
AcDbArc
 50
270.0
 51
329.9999999976443
  0
ARC
  5
B85
330
AA5
100
AcDbEntity
  8
0
  6
Continuous
 62
     7
370
    15
100
AcDbCircle
 10
1940.022920600049
 20
963.9217686179275
 30
0.0
 40
0.2000000000021555
100
AcDbArc
 50
210.00000000113
 51
270.0
  0
ARC
  5
B86
330
AA5
100
AcDbEntity
  8
0
  6
Continuous
 62
     7
370
    15
100
AcDbCircle
 10
1944.31593547724
 20
964.2217686179275
 30
0.0
 40
0.5
100
AcDbArc
 50
233.1301023545064
 51
270.0
  0
ARC
  5
B87
330
AA5
100
AcDbEntity
  8
0
  6
Continuous
 62
     7
370
    15
100
AcDbCircle
 10
1942.425952746036
 20
963.9217686179275
 30
0.0
 40
0.2000000000001602
100
AcDbArc
 50
270.0
 51
329.9999999990978
  0
ARC
  5
B88
330
AA5
100
AcDbEntity
  8
0
  6
Continuous
 62
     7
370
    15
100
AcDbCircle
 10
1931.406193900892
 20
963.9217686179275
 30
0.0
 40
0.2000000000000455
100
AcDbArc
 50
210.0000000032372
 51
270.0
  0
ARC
  5
B89
330
AA5
100
AcDbEntity
  8
0
  6
Continuous
 62
     7
370
    15
100
AcDbCircle
 10
1929.51621116971
 20
964.2217686179275
 30
0.0
 40
0.5
100
AcDbArc
 50
270.0
 51
306.8698976438039
  0
LINE
  5
B8A
330
AA5
100
AcDbEntity
  8
0
  6
Continuous
 62
     7
370
    15
100
AcDbLine
 10
1889.059997628825
 20
956.0964725974988
 30
0.0
 11
1891.139961312907
 21
956.0964725974988
 31
0.0
  0
LINE
  5
B8B
330
AA5
100
AcDbEntity
  8
0
  6
Continuous
 62
     7
370
    15
100
AcDbLine
 10
1984.77218253483
 20
956.0964725974988
 30
0.0
 11
1982.692218850748
 21
956.0964725974988
 31
0.0
  0
ENDBLK
  5
AA7
330
AA5
100
AcDbEntity
  8
0
100
AcDbBlockEnd
  0
BLOCK
  5
B8E
330
B8D
100
AcDbEntity
  8
0
100
AcDbBlockBegin
  2
2
 70
     0
 10
0.0
 20
0.0
 30
0.0
  3
2
  1

  0
LINE
  5
B90
330
B8D
100
AcDbEntity
  8
0
  6
Continuous
 62
     7
370
    15
100
AcDbLine
 10
1856.039196274999
 20
981.6255293849897
 30
0.0
 11
1848.03919612785
 21
981.6255293849897
 31
0.0
  0
LINE
  5
B91
330
B8D
100
AcDbEntity
  8
0
  6
Continuous
 62
     7
370
    15
100
AcDbLine
 10
1848.03919612785
 20
992.4431763652753
 30
0.0
 11
1856.039196274999
 21
992.4431763652753
 31
0.0
  0
LINE
  5
B92
330
B8D
100
AcDbEntity
  8
0
  6
Continuous
 62
     7
370
    15
100
AcDbLine
 10
1856.039196274999
 20
991.2005089286756
 30
0.0
 11
1848.03919612785
 21
991.2005089286756
 31
0.0
  0
LINE
  5
B93
330
B8D
100
AcDbEntity
  8
0
  6
Continuous
 62
     7
370
    15
100
AcDbLine
 10
1846.689196558494
 20
989.2515264514875
 30
0.0
 11
1857.389196244533
 21
989.2515264514875
 31
0.0
  0
LINE
  5
B94
330
B8D
100
AcDbEntity
  8
0
  6
Continuous
 62
     7
370
    15
100
AcDbLine
 10
1848.03919612785
 20
982.8681968215894
 30
0.0
 11
1856.039196274999
 21
982.8681968215894
 31
0.0
  0
LINE
  5
B95
330
B8D
100
AcDbEntity
  8
0
  6
Continuous
 62
     7
370
    15
100
AcDbLine
 10
1857.389196244533
 20
984.8171792987775
 30
0.0
 11
1846.689196558494
 21
984.8171792987775
 31
0.0
  0
LINE
  5
B96
330
B8D
100
AcDbEntity
  8
0
  6
Continuous
 62
     7
370
    15
100
AcDbLine
 10
1857.180046929337
 20
962.4216578964185
 30
0.0
 11
1857.389196244533
 21
962.4216578964185
 31
0.0
  0
LINE
  5
B97
330
B8D
100
AcDbEntity
  8
0
  6
Continuous
 62
     7
370
    15
100
AcDbLine
 10
1848.03919612785
 20
984.7710453037214
 30
0.0
 11
1848.03919612785
 21
983.772011852641
 31
0.0
  0
LINE
  5
B98
330
B8D
100
AcDbEntity
  8
0
  6
Continuous
 62
     7
370
    15
100
AcDbLine
 10
1848.03919612785
 20
983.772011852641
 30
0.0
 11
1846.689196558494
 21
983.772011852641
 31
0.0
  0
LINE
  5
B99
330
B8D
100
AcDbEntity
  8
0
  6
Continuous
 62
     7
370
    15
100
AcDbLine
 10
1846.689196558494
 20
983.772011852641
 30
0.0
 11
1846.689196558494
 21
984.7710453037214
 31
0.0
  0
LINE
  5
B9A
330
B8D
100
AcDbEntity
  8
0
  6
Continuous
 62
     7
370
    15
100
AcDbLine
 10
1848.03919612785
 20
984.7710453037214
 30
0.0
 11
1846.689196558494
 21
984.7710453037214
 31
0.0
  0
LINE
  5
B9B
330
B8D
100
AcDbEntity
  8
0
  6
Continuous
 62
     7
370
    15
100
AcDbLine
 10
1856.039196274999
 20
984.7710453037214
 30
0.0
 11
1857.389196244533
 21
984.7710453037214
 31
0.0
  0
LINE
  5
B9C
330
B8D
100
AcDbEntity
  8
0
  6
Continuous
 62
     7
370
    15
100
AcDbLine
 10
1856.039196274999
 20
983.772011852641
 30
0.0
 11
1857.389196244533
 21
983.772011852641
 31
0.0
  0
LINE
  5
B9D
330
B8D
100
AcDbEntity
  8
0
  6
Continuous
 62
     7
370
    15
100
AcDbLine
 10
1856.039196274999
 20
984.7710453037214
 30
0.0
 11
1856.039196274999
 21
983.772011852641
 31
0.0
  0
LINE
  5
B9E
330
B8D
100
AcDbEntity
  8
0
  6
Continuous
 62
     7
370
    15
100
AcDbLine
 10
1857.389196244533
 20
983.772011852641
 30
0.0
 11
1857.389196244533
 21
984.7710453037214
 31
0.0
  0
LINE
  5
B9F
330
B8D
100
AcDbEntity
  8
0
  6
Continuous
 62
     7
370
    15
100
AcDbLine
 10
1857.389196244533
 20
980.0927661422681
 30
0.0
 11
1846.689196558494
 21
980.0927661422681
 31
0.0
  0
LINE
  5
BA0
330
B8D
100
AcDbEntity
  8
0
  6
Continuous
 62
     7
370
    15
100
AcDbLine
 10
1857.389196244533
 20
974.9167881969404
 30
0.0
 11
1846.689196558494
 21
974.9167881969404
 31
0.0
  0
LINE
  5
BA1
330
B8D
100
AcDbEntity
  8
0
  6
Continuous
 62
     7
370
    15
100
AcDbLine
 10
1846.689196558494
 20
974.9167881969404
 30
0.0
 11
1846.689196558494
 21
980.0927661422681
 31
0.0
  0
LINE
  5
BA2
330
B8D
100
AcDbEntity
  8
0
  6
Continuous
 62
     7
370
    15
100
AcDbLine
 10
1857.389196244533
 20
980.0927661422681
 30
0.0
 11
1857.389196244533
 21
974.9167881969404
 31
0.0
  0
LINE
  5
BA3
330
B8D
100
AcDbEntity
  8
0
  6
Continuous
 62
     7
370
    15
100
AcDbLine
 10
1848.03919612785
 20
980.5440925125074
 30
0.0
 11
1856.039196274999
 21
980.5440925125074
 31
0.0
  0
LINE
  5
BA4
330
B8D
100
AcDbEntity
  8
0
  6
Continuous
 62
     7
370
    15
100
AcDbLine
 10
1846.689196558494
 20
980.0927661422681
 30
0.0
 11
1846.689196558494
 21
983.772011852641
 31
0.0
  0
LINE
  5
BA5
330
B8D
100
AcDbEntity
  8
0
  6
Continuous
 62
     7
370
    15
100
AcDbLine
 10
1848.03919612785
 20
983.772011852641
 30
0.0
 11
1848.03919612785
 21
980.5440925125074
 31
0.0
  0
LINE
  5
BA6
330
B8D
100
AcDbEntity
  8
0
  6
Continuous
 62
     7
370
    15
100
AcDbLine
 10
1856.039196274999
 20
983.772011852641
 30
0.0
 11
1856.039196274999
 21
980.5440925125074
 31
0.0
  0
LINE
  5
BA7
330
B8D
100
AcDbEntity
  8
0
  6
Continuous
 62
     7
370
    15
100
AcDbLine
 10
1857.389196244533
 20
980.0927661422681
 30
0.0
 11
1857.389196244533
 21
983.772011852641
 31
0.0
  0
LINE
  5
BA8
330
B8D
100
AcDbEntity
  8
0
  6
Continuous
 62
     7
370
    15
100
AcDbLine
 10
1848.03919612785
 20
993.5245834354352
 30
0.0
 11
1856.039196274999
 21
993.5245834354352
 31
0.0
  0
LINE
  5
BA9
330
B8D
100
AcDbEntity
  8
0
  6
Continuous
 62
     7
370
    15
100
AcDbLine
 10
1848.03919612785
 20
993.3246098522138
 30
0.0
 11
1856.039196274999
 21
993.3246098522138
 31
0.0
  0
LINE
  5
BAA
330
B8D
100
AcDbEntity
  8
0
  6
Continuous
 62
     7
370
    15
100
AcDbLine
 10
1852.03919631784
 20
996.5597413543653
 30
0.0
 11
1852.03919631784
 21
994.1147588256788
 31
0.0
  0
LINE
  5
BAB
330
B8D
100
AcDbEntity
  8
0
  6
Continuous
 62
     7
370
    15
100
AcDbLine
 10
1857.389196244533
 20
996.5597413543653
 30
0.0
 11
1852.03919631784
 21
996.5597413543653
 31
0.0
  0
LINE
  5
BAC
330
B8D
100
AcDbEntity
  8
0
  6
Continuous
 62
     7
370
    15
100
AcDbLine
 10
1856.039196274999
 20
990.296693897624
 30
0.0
 11
1857.389196244533
 21
990.296693897624
 31
0.0
  0
LINE
  5
BAD
330
B8D
100
AcDbEntity
  8
0
  6
Continuous
 62
     7
370
    15
100
AcDbLine
 10
1848.03919612785
 20
990.296693897624
 30
0.0
 11
1846.689196558494
 21
990.296693897624
 31
0.0
  0
LINE
  5
BAE
330
B8D
100
AcDbEntity
  8
0
  6
Continuous
 62
     7
370
    15
100
AcDbLine
 10
1846.689196558494
 20
994.1147588256788
 30
0.0
 11
1852.03919631784
 21
994.1147588256788
 31
0.0
  0
LINE
  5
BAF
330
B8D
100
AcDbEntity
  8
0
  6
Continuous
 62
     7
370
    15
100
AcDbLine
 10
1856.039196274999
 20
993.5245834354352
 30
0.0
 11
1856.039196274999
 21
990.296693897624
 31
0.0
  0
LINE
  5
BB0
330
B8D
100
AcDbEntity
  8
0
  6
Continuous
 62
     7
370
    15
100
AcDbLine
 10
1848.03919612785
 20
993.5245834354352
 30
0.0
 11
1848.03919612785
 21
990.296693897624
 31
0.0
  0
LINE
  5
BB1
330
B8D
100
AcDbEntity
  8
0
  6
Continuous
 62
     7
370
    15
100
AcDbLine
 10
1846.689196558494
 20
994.1147588256788
 30
0.0
 11
1846.689196558494
 21
990.296693897624
 31
0.0
  0
LINE
  5
BB2
330
B8D
100
AcDbEntity
  8
0
  6
Continuous
 62
     7
370
    15
100
AcDbLine
 10
1857.389196244533
 20
994.1147588256788
 30
0.0
 11
1857.389196244533
 21
990.296693897624
 31
0.0
  0
LINE
  5
BB3
330
B8D
100
AcDbEntity
  8
0
  6
Continuous
 62
     7
370
    15
100
AcDbLine
 10
1857.389196244533
 20
996.5597413543653
 30
0.0
 11
1857.389196244533
 21
994.1147588256788
 31
0.0
  0
LINE
  5
BB4
330
B8D
100
AcDbEntity
  8
0
  6
Continuous
 62
     7
370
    15
100
AcDbLine
 10
1848.03919612785
 20
980.7440958980512
 30
0.0
 11
1856.039196274999
 21
980.7440958980512
 31
0.0
  0
LINE
  5
BB5
330
B8D
100
AcDbEntity
  8
0
  6
Continuous
 62
     7
370
    15
100
AcDbLine
 10
1848.03919612785
 20
989.2976306442212
 30
0.0
 11
1846.689196558494
 21
989.2976306442212
 31
0.0
  0
LINE
  5
BB6
330
B8D
100
AcDbEntity
  8
0
  6
Continuous
 62
     7
370
    15
100
AcDbLine
 10
1848.03919612785
 20
990.296693897624
 30
0.0
 11
1848.03919612785
 21
989.2976306442212
 31
0.0
  0
LINE
  5
BB7
330
B8D
100
AcDbEntity
  8
0
  6
Continuous
 62
     7
370
    15
100
AcDbLine
 10
1846.689196558494
 20
990.296693897624
 30
0.0
 11
1846.689196558494
 21
989.2976306442212
 31
0.0
  0
LINE
  5
BB8
330
B8D
100
AcDbEntity
  8
0
  6
Continuous
 62
     7
370
    15
100
AcDbLine
 10
1852.03919631784
 20
996.5597413543653
 30
0.0
 11
1846.689196558494
 21
996.5597413543653
 31
0.0
  0
LINE
  5
BB9
330
B8D
100
AcDbEntity
  8
0
  6
Continuous
 62
     7
370
    15
100
AcDbLine
 10
1846.689196558494
 20
994.1147588256788
 30
0.0
 11
1846.689196558494
 21
996.5597413543653
 31
0.0
  0
LINE
  5
BBA
330
B8D
100
AcDbEntity
  8
0
  6
Continuous
 62
     7
370
    15
100
AcDbLine
 10
1856.039196274999
 20
989.2976306442212
 30
0.0
 11
1857.389196244533
 21
989.2976306442212
 31
0.0
  0
LINE
  5
BBB
330
B8D
100
AcDbEntity
  8
0
  6
Continuous
 62
     7
370
    15
100
AcDbLine
 10
1856.039196274999
 20
990.296693897624
 30
0.0
 11
1856.039196274999
 21
989.2976306442212
 31
0.0
  0
LINE
  5
BBC
330
B8D
100
AcDbEntity
  8
0
  6
Continuous
 62
     7
370
    15
100
AcDbLine
 10
1857.389196244533
 20
990.296693897624
 30
0.0
 11
1857.389196244533
 21
989.2976306442212
 31
0.0
  0
LINE
  5
BBD
330
B8D
100
AcDbEntity
  8
0
  6
Continuous
 62
     7
370
    15
100
AcDbLine
 10
1857.389196244533
 20
999.6326886180829
 30
0.0
 11
1846.689196558494
 21
999.6326886180829
 31
0.0
  0
LINE
  5
BBE
330
B8D
100
AcDbEntity
  8
0
  6
Continuous
 62
     7
370
    15
100
AcDbLine
 10
1846.689196558494
 20
996.5597413543653
 30
0.0
 11
1846.689196558494
 21
999.6326886180829
 31
0.0
  0
LINE
  5
BBF
330
B8D
100
AcDbEntity
  8
0
  6
Continuous
 62
     7
370
    15
100
AcDbLine
 10
1857.389196244533
 20
999.6326886180829
 30
0.0
 11
1857.389196244533
 21
996.5597413543653
 31
0.0
  0
LINE
  5
BC0
330
B8D
100
AcDbEntity
  8
0
  6
Continuous
 62
     7
370
    15
100
AcDbLine
 10
1857.139196239935
 20
966.2629090312909
 30
0.0
 11
1857.389196244533
 21
966.2629090312909
 31
0.0
  0
LINE
  5
BC1
330
B8D
100
AcDbEntity
  8
0
  6
Continuous
 62
     7
370
    15
100
AcDbLine
 10
1857.139196239935
 20
966.2629090312909
 30
0.0
 11
1857.139196239935
 21
956.0964725974988
 31
0.0
  0
LINE
  5
BC2
330
B8D
100
AcDbEntity
  8
0
  6
Continuous
 62
     7
370
    15
100
AcDbLine
 10
1846.889196218747
 20
966.2629090312909
 30
0.0
 11
1846.889196218747
 21
956.0964725974988
 31
0.0
  0
LINE
  5
BC3
330
B8D
100
AcDbEntity
  8
0
  6
Continuous
 62
     7
370
    15
100
AcDbLine
 10
1852.03919631784
 20
966.2629090312909
 30
0.0
 11
1846.889196218747
 21
966.2629090312909
 31
0.0
  0
LINE
  5
BC4
330
B8D
100
AcDbEntity
  8
0
  6
Continuous
 62
     7
370
    15
100
AcDbLine
 10
1852.03919631784
 20
966.2629090312909
 30
0.0
 11
1852.03919631784
 21
966.3628958229017
 31
0.0
  0
LINE
  5
BC5
330
B8D
100
AcDbEntity
  8
0
  6
Continuous
 62
     7
370
    15
100
AcDbLine
 10
1852.03919631784
 20
966.3628958229017
 30
0.0
 11
1846.689196558494
 21
966.3628958229017
 31
0.0
  0
LINE
  5
BC6
330
B8D
100
AcDbEntity
  8
0
  6
Continuous
 62
     7
370
    15
100
AcDbLine
 10
1846.689196558494
 20
966.3628958229017
 30
0.0
 11
1846.689196558494
 21
974.9167881969404
 31
0.0
  0
LINE
  5
BC7
330
B8D
100
AcDbEntity
  8
0
  6
Continuous
 62
     7
370
    15
100
AcDbLine
 10
1857.389196244533
 20
974.9167881969404
 30
0.0
 11
1857.389196244533
 21
966.2629090312909
 31
0.0
  0
LINE
  5
BC8
330
B8D
100
AcDbEntity
  8
0
  6
Continuous
 62
     7
370
    15
100
AcDbLine
 10
1848.03919612785
 20
984.7903572086286
 30
0.0
 11
1856.039196274999
 21
984.7903572086286
 31
0.0
  0
LINE
  5
BC9
330
B8D
100
AcDbEntity
  8
0
  6
Continuous
 62
     7
370
    15
100
AcDbLine
 10
1857.389196244533
 20
984.8170004848432
 30
0.0
 11
1846.689196558494
 21
984.8170004848432
 31
0.0
  0
LINE
  5
BCA
330
B8D
100
AcDbEntity
  8
0
  6
Continuous
 62
     7
370
    15
100
AcDbLine
 10
1846.689196558494
 20
984.7710453037214
 30
0.0
 11
1846.689196558494
 21
984.8170004848432
 31
0.0
  0
LINE
  5
BCB
330
B8D
100
AcDbEntity
  8
0
  6
Continuous
 62
     7
370
    15
100
AcDbLine
 10
1848.03919612785
 20
984.7710453037214
 30
0.0
 11
1848.03919612785
 21
984.7903572086286
 31
0.0
  0
LINE
  5
BCC
330
B8D
100
AcDbEntity
  8
0
  6
Continuous
 62
     7
370
    15
100
AcDbLine
 10
1856.039196274999
 20
984.7710453037214
 30
0.0
 11
1856.039196274999
 21
984.7903572086286
 31
0.0
  0
LINE
  5
BCD
330
B8D
100
AcDbEntity
  8
0
  6
Continuous
 62
     7
370
    15
100
AcDbLine
 10
1857.389196244533
 20
984.7710453037214
 30
0.0
 11
1857.389196244533
 21
984.8170004848432
 31
0.0
  0
LINE
  5
BCE
330
B8D
100
AcDbEntity
  8
0
  6
Continuous
 62
     7
370
    15
100
AcDbLine
 10
1848.03919612785
 20
989.2783485416364
 30
0.0
 11
1856.039196274999
 21
989.2783485416364
 31
0.0
  0
LINE
  5
BCF
330
B8D
100
AcDbEntity
  8
0
  6
Continuous
 62
     7
370
    15
100
AcDbLine
 10
1857.389196244533
 20
989.2517052654218
 30
0.0
 11
1846.689196558494
 21
989.2517052654218
 31
0.0
  0
LINE
  5
BD0
330
B8D
100
AcDbEntity
  8
0
  6
Continuous
 62
     7
370
    15
100
AcDbLine
 10
1856.039196274999
 20
989.2976306442212
 30
0.0
 11
1856.039196274999
 21
989.2783485416364
 31
0.0
  0
LINE
  5
BD1
330
B8D
100
AcDbEntity
  8
0
  6
Continuous
 62
     7
370
    15
100
AcDbLine
 10
1848.03919612785
 20
989.2976306442212
 30
0.0
 11
1848.03919612785
 21
989.2783485416364
 31
0.0
  0
LINE
  5
BD2
330
B8D
100
AcDbEntity
  8
0
  6
Continuous
 62
     7
370
    15
100
AcDbLine
 10
1846.689196558494
 20
989.2976306442212
 30
0.0
 11
1846.689196558494
 21
989.2517052654218
 31
0.0
  0
LINE
  5
BD3
330
B8D
100
AcDbEntity
  8
0
  6
Continuous
 62
     7
370
    15
100
AcDbLine
 10
1857.389196244533
 20
989.2976306442212
 30
0.0
 11
1857.389196244533
 21
989.2517052654218
 31
0.0
  0
LINE
  5
BD4
330
B8D
100
AcDbEntity
  8
0
  6
Continuous
 62
     7
370
    15
100
AcDbLine
 10
1848.03919612785
 20
993.12460646667
 30
0.0
 11
1856.039196274999
 21
993.12460646667
 31
0.0
  0
LINE
  5
BD5
330
B8D
100
AcDbEntity
  8
0
  6
Continuous
 62
     7
370
    15
100
AcDbLine
 10
1848.03919612785
 20
980.944099283595
 30
0.0
 11
1856.039196274999
 21
980.944099283595
 31
0.0
  0
LINE
  5
BD6
330
B8D
100
AcDbEntity
  8
0
  6
Continuous
 62
     7
370
    15
100
AcDbLine
 10
1848.03919612785
 20
992.6697932247114
 30
0.0
 11
1856.039196274999
 21
992.6697932247114
 31
0.0
  0
LINE
  5
BD7
330
B8D
100
AcDbEntity
  8
0
  6
Continuous
 62
     7
370
    15
100
AcDbLine
 10
1848.03919612785
 20
992.4699984554242
 30
0.0
 11
1856.039196274999
 21
992.4699984554242
 31
0.0
  0
LINE
  5
BD8
330
B8D
100
AcDbEntity
  8
0
  6
Continuous
 62
     7
370
    15
100
AcDbLine
 10
1848.03919612785
 20
991.1736868385267
 30
0.0
 11
1856.039196274999
 21
991.1736868385267
 31
0.0
  0
LINE
  5
BD9
330
B8D
100
AcDbEntity
  8
0
  6
Continuous
 62
     7
370
    15
100
AcDbLine
 10
1848.03919612785
 20
990.9738920692396
 30
0.0
 11
1856.039196274999
 21
990.9738920692396
 31
0.0
  0
LINE
  5
BDA
330
B8D
100
AcDbEntity
  8
0
  6
Continuous
 62
     7
370
    15
100
AcDbLine
 10
1848.03919612785
 20
989.4781433109235
 30
0.0
 11
1856.039196274999
 21
989.4781433109235
 31
0.0
  0
LINE
  5
BDB
330
B8D
100
AcDbEntity
  8
0
  6
Continuous
 62
     7
370
    15
100
AcDbLine
 10
1848.03919612785
 20
981.5987072948407
 30
0.0
 11
1856.039196274999
 21
981.5987072948407
 31
0.0
  0
LINE
  5
BDC
330
B8D
100
AcDbEntity
  8
0
  6
Continuous
 62
     7
370
    15
100
AcDbLine
 10
1848.03919612785
 20
981.3988827232313
 30
0.0
 11
1856.039196274999
 21
981.3988827232313
 31
0.0
  0
LINE
  5
BDD
330
B8D
100
AcDbEntity
  8
0
  6
Continuous
 62
     7
370
    15
100
AcDbLine
 10
1848.03919612785
 20
984.5905326370191
 30
0.0
 11
1856.039196274999
 21
984.5905326370191
 31
0.0
  0
LINE
  5
BDE
330
B8D
100
AcDbEntity
  8
0
  6
Continuous
 62
     7
370
    15
100
AcDbLine
 10
1848.03919612785
 20
983.0948136810254
 30
0.0
 11
1856.039196274999
 21
983.0948136810254
 31
0.0
  0
LINE
  5
BDF
330
B8D
100
AcDbEntity
  8
0
  6
Continuous
 62
     7
370
    15
100
AcDbLine
 10
1848.03919612785
 20
982.8950189117383
 30
0.0
 11
1856.039196274999
 21
982.8950189117383
 31
0.0
  0
LINE
  5
BE0
330
B8D
100
AcDbEntity
  8
0
  6
Continuous
 62
     7
370
    15
100
AcDbLine
 10
1848.03919612785
 20
992.4433551792096
 30
0.0
 11
1856.039196274999
 21
992.4433551792096
 31
0.0
  0
LINE
  5
BE1
330
B8D
100
AcDbEntity
  8
0
  6
Continuous
 62
     7
370
    15
100
AcDbLine
 10
1848.03919612785
 20
991.2003301147413
 30
0.0
 11
1856.039196274999
 21
991.2003301147413
 31
0.0
  0
LINE
  5
BE2
330
B8D
100
AcDbEntity
  8
0
  6
Continuous
 62
     7
370
    15
100
AcDbLine
 10
1848.03919612785
 20
982.8683756355237
 30
0.0
 11
1856.039196274999
 21
982.8683756355237
 31
0.0
  0
LINE
  5
BE3
330
B8D
100
AcDbEntity
  8
0
  6
Continuous
 62
     7
370
    15
100
AcDbLine
 10
1848.03919612785
 20
981.625320768733
 30
0.0
 11
1856.039196274999
 21
981.625320768733
 31
0.0
  0
LINE
  5
BE4
330
B8D
100
AcDbEntity
  8
0
  6
Continuous
 62
     7
370
    15
100
AcDbLine
 10
1856.789196223311
 20
1001.738878345866
 30
0.0
 11
1856.789196223311
 21
1007.911684370417
 31
0.0
  0
ELLIPSE
  5
BE5
330
B8D
100
AcDbEntity
  8
0
  6
Continuous
 62
     7
370
    15
100
AcDbEllipse
 10
1854.289196247059
 20
1007.9116730398
 30
0.0
 11
2.5
 21
0.0
 31
0.0
210
0.0
220
0.0
230
1.0
 40
0.5317214023174302
 41
0.0
 42
1.570796326794896
  0
LINE
  5
BE6
330
B8D
100
AcDbEntity
  8
0
  6
Continuous
 62
     7
370
    15
100
AcDbLine
 10
1849.789196414698
 20
1009.240987158198
 30
0.0
 11
1854.289196220982
 21
1009.240987158198
 31
0.0
  0
ELLIPSE
  5
BE7
330
B8D
100
AcDbEntity
  8
0
  6
Continuous
 62
     7
370
    15
100
AcDbEllipse
 10
1849.789196247059
 20
1007.9116730398
 30
0.0
 11
2.5
 21
0.0
 31
0.0
210
0.0
220
0.0
230
1.0
 40
0.5317214023174302
 41
1.570796326794896
 42
3.141592653589793
  0
LINE
  5
BE8
330
B8D
100
AcDbEntity
  8
0
  6
Continuous
 62
     7
370
    15
100
AcDbLine
 10
1847.289196470577
 20
1001.738878345866
 30
0.0
 11
1847.289196470577
 21
1007.911684370417
 31
0.0
  0
ELLIPSE
  5
BE9
330
B8D
100
AcDbEntity
  8
0
  6
Continuous
 62
     7
370
    15
100
AcDbEllipse
 10
1849.789196247059
 20
1001.738890476577
 30
0.0
 11
2.5
 21
0.0
 31
0.0
210
0.0
220
0.0
230
1.0
 40
0.4989849380518195
 41
3.141592653589793
 42
4.712388980384696
  0
LINE
  5
BEA
330
B8D
100
AcDbEntity
  8
0
  6
Continuous
 62
     7
370
    15
100
AcDbLine
 10
1849.789196414698
 20
1000.491442537684
 30
0.0
 11
1854.289196220982
 21
1000.491442537684
 31
0.0
  0
ELLIPSE
  5
BEB
330
B8D
100
AcDbEntity
  8
0
  6
Continuous
 62
     7
370
    15
100
AcDbEllipse
 10
1854.289196247059
 20
1001.738890476577
 30
0.0
 11
2.5
 21
0.0
 31
0.0
210
0.0
220
0.0
230
1.0
 40
0.4989849380518308
 41
4.712388980384696
 42
6.283185307179586
  0
LINE
  5
BEC
330
B8D
100
AcDbEntity
  8
0
  6
Continuous
 62
     7
370
    15
100
AcDbLine
 10
1857.389196244533
 20
1012.094231701274
 30
0.0
 11
1846.689196558494
 21
1012.094231701274
 31
0.0
  0
LINE
  5
BED
330
B8D
100
AcDbEntity
  8
0
  6
Continuous
 62
     7
370
    15
100
AcDbLine
 10
1846.689196558494
 20
999.6326886180829
 30
0.0
 11
1846.689196558494
 21
1012.094231701274
 31
0.0
  0
LINE
  5
BEE
330
B8D
100
AcDbEntity
  8
0
  6
Continuous
 62
     7
370
    15
100
AcDbLine
 10
1857.389196244533
 20
1012.094231701274
 30
0.0
 11
1857.389196244533
 21
999.6326886180829
 31
0.0
  0
LINE
  5
BEF
330
B8D
100
AcDbEntity
  8
0
  6
Continuous
 62
     7
370
    15
100
AcDbLine
 10
1846.689196558494
 20
989.2517052654218
 30
0.0
 11
1846.689196558494
 21
989.2515264514875
 31
0.0
  0
LINE
  5
BF0
330
B8D
100
AcDbEntity
  8
0
  6
Continuous
 62
     7
370
    15
100
AcDbLine
 10
1857.389196244533
 20
989.2517052654218
 30
0.0
 11
1857.389196244533
 21
989.2515264514875
 31
0.0
  0
LINE
  5
BF1
330
B8D
100
AcDbEntity
  8
0
  6
Continuous
 62
     7
370
    15
100
AcDbLine
 10
1846.689196558494
 20
984.8171792987775
 30
0.0
 11
1846.689196558494
 21
984.8170004848432
 31
0.0
  0
LINE
  5
BF2
330
B8D
100
AcDbEntity
  8
0
  6
Continuous
 62
     7
370
    15
100
AcDbLine
 10
1857.389196244533
 20
984.8170004848432
 30
0.0
 11
1857.389196244533
 21
984.8171792987775
 31
0.0
  0
LINE
  5
BF3
330
B8D
100
AcDbEntity
  8
0
  6
Continuous
 62
     7
370
    15
100
AcDbLine
 10
1848.03919612785
 20
987.9286311630201
 30
0.0
 11
1848.03919612785
 21
989.2515264514875
 31
0.0
  0
LINE
  5
BF4
330
B8D
100
AcDbEntity
  8
0
  6
Continuous
 62
     7
370
    15
100
AcDbLine
 10
1856.039196274999
 20
987.9286311630201
 30
0.0
 11
1848.03919612785
 21
987.9286311630201
 31
0.0
  0
LINE
  5
BF5
330
B8D
100
AcDbEntity
  8
0
  6
Continuous
 62
     7
370
    15
100
AcDbLine
 10
1856.039196274999
 20
987.9286311630201
 30
0.0
 11
1856.039196274999
 21
989.2515264514875
 31
0.0
  0
LINE
  5
BF6
330
B8D
100
AcDbEntity
  8
0
  6
Continuous
 62
     7
370
    15
100
AcDbLine
 10
1856.039196274999
 20
984.8171792987775
 30
0.0
 11
1856.039196274999
 21
986.1400447849225
 31
0.0
  0
LINE
  5
BF7
330
B8D
100
AcDbEntity
  8
0
  6
Continuous
 62
     7
370
    15
100
AcDbLine
 10
1856.039196274999
 20
986.1400447849225
 30
0.0
 11
1848.03919612785
 21
986.1400447849225
 31
0.0
  0
LINE
  5
BF8
330
B8D
100
AcDbEntity
  8
0
  6
Continuous
 62
     7
370
    15
100
AcDbLine
 10
1848.03919612785
 20
984.8171792987775
 30
0.0
 11
1848.03919612785
 21
986.1400447849225
 31
0.0
  0
LINE
  5
BF9
330
B8D
100
AcDbEntity
  8
0
  6
Continuous
 62
     7
370
    15
100
AcDbLine
 10
1846.689196558494
 20
989.2515264514875
 30
0.0
 11
1846.689196558494
 21
984.8171792987775
 31
0.0
  0
LINE
  5
BFA
330
B8D
100
AcDbEntity
  8
0
  6
Continuous
 62
     7
370
    15
100
AcDbLine
 10
1857.389196244533
 20
984.8171792987775
 30
0.0
 11
1857.389196244533
 21
989.2515264514875
 31
0.0
  0
LINE
  5
BFB
330
B8D
100
AcDbEntity
  8
0
  6
Continuous
 62
     7
370
    15
100
AcDbLine
 10
1856.039196274999
 20
988.5474167827558
 30
0.0
 11
1848.03919612785
 21
988.5474167827558
 31
0.0
  0
LINE
  5
BFC
330
B8D
100
AcDbEntity
  8
0
  6
Continuous
 62
     7
370
    15
100
AcDbLine
 10
1856.039196274999
 20
985.5212591651868
 30
0.0
 11
1848.03919612785
 21
985.5212591651868
 31
0.0
  0
LINE
  5
BFD
330
B8D
100
AcDbEntity
  8
0
  6
Continuous
 62
     7
370
    15
100
AcDbLine
 10
1846.889196218747
 20
955.5964790348005
 30
0.0
 11
1857.139196239935
 21
955.5964790348005
 31
0.0
  0
LINE
  5
BFE
330
B8D
100
AcDbEntity
  8
0
  6
Continuous
 62
     7
370
    15
100
AcDbLine
 10
1846.889196218747
 20
956.0964725974988
 30
0.0
 11
1846.889196218747
 21
955.5964790348005
 31
0.0
  0
LINE
  5
BFF
330
B8D
100
AcDbEntity
  8
0
  6
Continuous
 62
     7
370
    15
100
AcDbLine
 10
1846.889196218747
 20
956.0964725974988
 30
0.0
 11
1857.139196239935
 21
956.0964725974988
 31
0.0
  0
LINE
  5
C00
330
B8D
100
AcDbEntity
  8
0
  6
Continuous
 62
     7
370
    15
100
AcDbLine
 10
1857.139196239935
 20
955.5964790348005
 30
0.0
 11
1857.139196239935
 21
956.0964725974988
 31
0.0
  0
LINE
  5
C01
330
B8D
100
AcDbEntity
  8
0
  6
Continuous
 62
     7
370
    15
100
AcDbLine
 10
1846.889196218747
 20
953.5964749816846
 30
0.0
 11
1857.139196239935
 21
953.5964749816846
 31
0.0
  0
LINE
  5
C02
330
B8D
100
AcDbEntity
  8
0
  6
Continuous
 62
     7
370
    15
100
AcDbLine
 10
1846.889196218747
 20
952.0964644912671
 30
0.0
 11
1857.139196239935
 21
952.0964644912671
 31
0.0
  0
LINE
  5
C03
330
B8D
100
AcDbEntity
  8
0
  6
Continuous
 62
     7
370
    15
100
AcDbLine
 10
1846.889196218747
 20
953.5964749816846
 30
0.0
 11
1846.889196218747
 21
952.0964644912671
 31
0.0
  0
LINE
  5
C04
330
B8D
100
AcDbEntity
  8
0
  6
Continuous
 62
     7
370
    15
100
AcDbLine
 10
1857.139196239935
 20
952.0964644912671
 30
0.0
 11
1857.139196239935
 21
953.5964749816846
 31
0.0
  0
LINE
  5
C05
330
B8D
100
AcDbEntity
  8
0
  6
Continuous
 62
     7
370
    15
100
AcDbLine
 10
1846.889196218747
 20
955.5964790348005
 30
0.0
 11
1846.889196218747
 21
953.5964749816846
 31
0.0
  0
LINE
  5
C06
330
B8D
100
AcDbEntity
  8
0
  6
Continuous
 62
     7
370
    15
100
AcDbLine
 10
1857.139196239935
 20
955.5964790348005
 30
0.0
 11
1857.139196239935
 21
953.5964749816846
 31
0.0
  0
ELLIPSE
  5
C07
330
B8D
100
AcDbEntity
  8
0
  6
Continuous
 62
     7
370
    15
100
AcDbEllipse
 10
1849.789196247059
 20
1002.592369318201
 30
0.0
 11
2.5
 21
0.0
 31
0.0
210
0.0
220
0.0
230
1.0
 40
0.4873412244286442
 41
1.570796326794896
 42
3.141592653589868
  0
LINE
  5
C08
330
B8D
100
AcDbEntity
  8
0
  6
Continuous
 62
     7
370
    15
100
AcDbLine
 10
1854.289196220982
 20
1003.810735798259
 30
0.0
 11
1849.789196414698
 21
1003.810735798259
 31
0.0
  0
ELLIPSE
  5
C09
330
B8D
100
AcDbEntity
  8
0
  6
Continuous
 62
     7
370
    15
100
AcDbEllipse
 10
1854.289196247059
 20
1002.592369318201
 30
0.0
 11
2.5
 21
0.0
 31
0.0
210
0.0
220
0.0
230
1.0
 40
0.4873412244286442
 41
0.0
 42
1.570796326794896
  0
LINE
  5
C0A
330
B8D
100
AcDbEntity
  8
0
  6
Continuous
 62
     7
370
    15
100
AcDbLine
 10
1849.789196414698
 20
1009.240987158198
 30
0.0
 11
1849.789196414698
 21
1003.810735798259
 31
0.0
  0
LINE
  5
C0B
330
B8D
100
AcDbEntity
  8
0
  6
Continuous
 62
     7
370
    15
100
AcDbLine
 10
1854.289196220982
 20
1009.240987158198
 30
0.0
 11
1854.289196220982
 21
1003.810735798259
 31
0.0
  0
LINE
  5
C0C
330
B8D
100
AcDbEntity
  8
0
  6
Continuous
 62
     7
370
    15
100
AcDbLine
 10
1846.689196558494
 20
966.0629056457471
 30
0.0
 11
1846.689196558494
 21
966.3628958229017
 31
0.0
  0
LINE
  5
C0D
330
B8D
100
AcDbEntity
  8
0
  6
Continuous
 62
     7
370
    15
100
AcDbLine
 10
1857.139196239935
 20
966.0128973487806
 30
0.0
 11
1857.389196244533
 21
966.0128973487806
 31
0.0
  0
LINE
  5
C0E
330
B8D
100
AcDbEntity
  8
0
  6
Continuous
 62
     7
370
    15
100
AcDbLine
 10
1857.389196244533
 20
966.0128973487806
 30
0.0
 11
1857.389196244533
 21
966.2629090312909
 31
0.0
  0
LINE
  5
C0F
330
B8D
100
AcDbEntity
  8
0
  6
Continuous
 62
     7
370
    15
100
AcDbLine
 10
1857.139196239935
 20
963.9717660907697
 30
0.0
 11
1857.389196244533
 21
963.9717660907697
 31
0.0
  0
LINE
  5
C10
330
B8D
100
AcDbEntity
  8
0
  6
Continuous
 62
     7
370
    15
100
AcDbLine
 10
1857.389196244533
 20
963.9717660907697
 30
0.0
 11
1857.389196244533
 21
966.0128973487806
 31
0.0
  0
LINE
  5
C11
330
B8D
100
AcDbEntity
  8
0
  6
Continuous
 62
     7
370
    15
100
AcDbLine
 10
1846.689196558494
 20
964.0217743877363
 30
0.0
 11
1846.689196558494
 21
966.0629056457471
 31
0.0
  0
LINE
  5
C12
330
B8D
100
AcDbEntity
  8
0
  6
Continuous
 62
     7
370
    15
100
AcDbLine
 10
1857.139196239935
 20
963.7217544082593
 30
0.0
 11
1857.389196244533
 21
963.7217544082593
 31
0.0
  0
LINE
  5
C13
330
B8D
100
AcDbEntity
  8
0
  6
Continuous
 62
     7
370
    15
100
AcDbLine
 10
1857.389196244533
 20
963.7217544082593
 30
0.0
 11
1857.389196244533
 21
963.9717660907697
 31
0.0
  0
LINE
  5
C14
330
B8D
100
AcDbEntity
  8
0
  6
Continuous
 62
     7
370
    15
100
AcDbLine
 10
1846.889196218747
 20
963.8217710021924
 30
0.0
 11
1846.689196558494
 21
963.8217710021924
 31
0.0
  0
LINE
  5
C15
330
B8D
100
AcDbEntity
  8
0
  6
Continuous
 62
     7
370
    15
100
AcDbLine
 10
1846.689196558494
 20
963.8217710021924
 30
0.0
 11
1846.689196558494
 21
964.0217743877363
 31
0.0
  0
LINE
  5
C16
330
B8D
100
AcDbEntity
  8
0
  6
Continuous
 62
     7
370
    15
100
AcDbLine
 10
1857.139196239935
 20
963.5360263351392
 30
0.0
 11
1857.389196244533
 21
963.5360263351392
 31
0.0
  0
LINE
  5
C17
330
B8D
100
AcDbEntity
  8
0
  6
Continuous
 62
     7
370
    15
100
AcDbLine
 10
1857.389196244533
 20
963.5360263351392
 30
0.0
 11
1857.389196244533
 21
963.7217544082593
 31
0.0
  0
LINE
  5
C18
330
B8D
100
AcDbEntity
  8
0
  6
Continuous
 62
     7
370
    15
100
AcDbLine
 10
1857.389196244533
 20
962.4216578964185
 30
0.0
 11
1857.389196244533
 21
963.5360263351392
 31
0.0
  0
LINE
  5
C19
330
B8D
100
AcDbEntity
  8
0
  6
Continuous
 62
     8
370
    15
100
AcDbLine
 10
1846.889196218747
 20
966.0629056457471
 30
0.0
 11
1846.689196558494
 21
966.0629056457471
 31
0.0
  0
LINE
  5
C1A
330
B8D
100
AcDbEntity
  8
0
  6
Continuous
 62
     8
370
    15
100
AcDbLine
 10
1846.889196218747
 20
964.0217743877363
 30
0.0
 11
1846.689196558494
 21
964.0217743877363
 31
0.0
  0
ENDBLK
  5
B8F
330
B8D
100
AcDbEntity
  8
0
100
AcDbBlockEnd
  0
BLOCK
  5
C1D
330
C1C
100
AcDbEntity
  8
0
100
AcDbBlockBegin
  2
3
 70
     0
 10
0.0
 20
0.0
 30
0.0
  3
3
  1

  0
LINE
  5
C1F
330
C1C
100
AcDbEntity
  8
0
  6
Continuous
 62
     7
370
    15
100
AcDbLine
 10
1939.133263658182
 20
930.4134592452962
 30
0.0
 11
1939.133263658182
 21
919.7134595592567
 31
0.0
  0
LINE
  5
C20
330
C1C
100
AcDbEntity
  8
0
  6
Continuous
 62
     7
370
    15
100
AcDbLine
 10
1934.698916505472
 20
919.7134595592567
 30
0.0
 11
1934.698916505472
 21
930.4134592452962
 31
0.0
  0
LINE
  5
C21
330
C1C
100
AcDbEntity
  8
0
  6
Continuous
 62
     7
370
    15
100
AcDbLine
 10
1952.2139797913
 20
930.4134592452962
 30
0.0
 11
1952.2139797913
 21
919.7134595592567
 31
0.0
  0
LINE
  5
C22
330
C1C
100
AcDbEntity
  8
0
  6
Continuous
 62
     7
370
    15
100
AcDbLine
 10
1954.81202704777
 20
930.4134592452962
 30
0.0
 11
1954.81202704777
 21
919.7134595592567
 31
0.0
  0
LINE
  5
C23
330
C1C
100
AcDbEntity
  8
0
  6
Continuous
 62
     7
370
    15
100
AcDbLine
 10
1954.81202704777
 20
919.7134595592567
 30
0.0
 11
1952.2139797913
 21
919.7134595592567
 31
0.0
  0
LINE
  5
C24
330
C1C
100
AcDbEntity
  8
0
  6
Continuous
 62
     7
370
    15
100
AcDbLine
 10
1952.2139797913
 20
930.4134592452962
 30
0.0
 11
1954.81202704777
 21
930.4134592452962
 31
0.0
  0
LINE
  5
C25
330
C1C
100
AcDbEntity
  8
0
  6
Continuous
 62
     7
370
    15
100
AcDbLine
 10
1957.893944810526
 20
921.763458870823
 30
0.0
 11
1957.893944810526
 21
928.3634593007215
 31
0.0
  0
LINE
  5
C26
330
C1C
100
AcDbEntity
  8
0
  6
Continuous
 62
     7
370
    15
100
AcDbLine
 10
1957.893944810526
 20
921.763458870823
 30
0.0
 11
1963.681794236796
 21
921.763458870823
 31
0.0
  0
LINE
  5
C27
330
C1C
100
AcDbEntity
  8
0
  6
Continuous
 62
     7
370
    15
100
AcDbLine
 10
1963.681794236796
 20
921.763458870823
 30
0.0
 11
1963.681794236796
 21
928.3634593007215
 31
0.0
  0
LINE
  5
C28
330
C1C
100
AcDbEntity
  8
0
  6
Continuous
 62
     7
370
    15
100
AcDbLine
 10
1957.893944810526
 20
928.3634593007215
 30
0.0
 11
1963.681794236796
 21
928.3634593007215
 31
0.0
  0
LINE
  5
C29
330
C1C
100
AcDbEntity
  8
0
  6
Continuous
 62
     7
370
    15
100
AcDbLine
 10
1963.734842370646
 20
919.7134595592567
 30
0.0
 11
1954.81202704777
 21
919.7134595592567
 31
0.0
  0
LINE
  5
C2A
330
C1C
100
AcDbEntity
  8
0
  6
Continuous
 62
     7
370
    15
100
AcDbLine
 10
1963.734842370646
 20
930.4134592452962
 30
0.0
 11
1963.734842370646
 21
919.7134595592567
 31
0.0
  0
LINE
  5
C2B
330
C1C
100
AcDbEntity
  8
0
  6
Continuous
 62
     7
370
    15
100
AcDbLine
 10
1954.81202704777
 20
930.4134592452962
 30
0.0
 11
1963.734842370646
 21
930.4134592452962
 31
0.0
  0
LINE
  5
C2C
330
C1C
100
AcDbEntity
  8
0
  6
Continuous
 62
     7
370
    15
100
AcDbLine
 10
1962.795592378275
 20
928.3634593007215
 30
0.0
 11
1962.795592378275
 21
928.0761271943399
 31
0.0
  0
LINE
  5
C2D
330
C1C
100
AcDbEntity
  8
0
  6
Continuous
 62
     7
370
    15
100
AcDbLine
 10
1962.795592378275
 20
922.0484594111391
 30
0.0
 11
1962.795592378275
 21
921.763458870823
 31
0.0
  0
LINE
  5
C2E
330
C1C
100
AcDbEntity
  8
0
  6
Continuous
 62
     7
370
    15
100
AcDbLine
 10
1982.728339265482
 20
929.8134592240737
 30
0.0
 11
1971.406436990397
 21
929.8134592240737
 31
0.0
  0
ELLIPSE
  5
C2F
330
C1C
100
AcDbEntity
  8
0
  6
Continuous
 62
     7
370
    15
100
AcDbEllipse
 10
1971.406387418962
 20
927.3134592478225
 30
0.0
 11
0.0
 21
2.5
 31
0.0
210
0.0
220
0.0
230
1.0
 40
0.975268974372409
 41
0.0
 42
1.570796326794896
  0
LINE
  5
C30
330
C1C
100
AcDbEntity
  8
0
  6
Continuous
 62
     7
370
    15
100
AcDbLine
 10
1968.968249391215
 20
922.8134594154605
 30
0.0
 11
1968.968249391215
 21
927.3134592217454
 31
0.0
  0
ELLIPSE
  5
C31
330
C1C
100
AcDbEntity
  8
0
  6
Continuous
 62
     7
370
    15
100
AcDbEllipse
 10
1971.406387418962
 20
922.8134592478225
 30
0.0
 11
0.0
 21
2.5
 31
0.0
210
0.0
220
0.0
230
1.0
 40
0.975268974372409
 41
1.570796326794896
 42
3.141592653589793
  0
LINE
  5
C32
330
C1C
100
AcDbEntity
  8
0
  6
Continuous
 62
     7
370
    15
100
AcDbLine
 10
1982.728339265482
 20
920.3134594713398
 30
0.0
 11
1971.406436990397
 21
920.3134594713398
 31
0.0
  0
ELLIPSE
  5
C33
330
C1C
100
AcDbEntity
  8
0
  6
Continuous
 62
     7
370
    15
100
AcDbEllipse
 10
1982.728337773454
 20
922.8134592478225
 30
0.0
 11
0.0
 21
2.5
 31
0.0
210
0.0
220
0.0
230
1.0
 40
0.9152246395200961
 41
3.141592653589793
 42
4.712388980384702
  0
LINE
  5
C34
330
C1C
100
AcDbEntity
  8
0
  6
Continuous
 62
     7
370
    15
100
AcDbLine
 10
1985.01644236912
 20
922.8134594154605
 30
0.0
 11
1985.01644236912
 21
927.3134592217454
 31
0.0
  0
ELLIPSE
  5
C35
330
C1C
100
AcDbEntity
  8
0
  6
Continuous
 62
     7
370
    15
100
AcDbEllipse
 10
1982.728337773454
 20
927.3134592478225
 30
0.0
 11
0.0
 21
2.5
 31
0.0
210
0.0
220
0.0
230
1.0
 40
0.9152246395201018
 41
4.712388980384702
 42
6.283185307179586
  0
LINE
  5
C36
330
C1C
100
AcDbEntity
  8
0
  6
Continuous
 62
     7
370
    15
100
AcDbLine
 10
1986.591435502665
 20
930.4134592452962
 30
0.0
 11
1986.591435502665
 21
919.7134595592567
 31
0.0
  0
LINE
  5
C37
330
C1C
100
AcDbEntity
  8
0
  6
Continuous
 62
     7
370
    15
100
AcDbLine
 10
1986.591435502665
 20
919.7134595592567
 30
0.0
 11
1963.734842370646
 21
919.7134595592567
 31
0.0
  0
LINE
  5
C38
330
C1C
100
AcDbEntity
  8
0
  6
Continuous
 62
     7
370
    15
100
AcDbLine
 10
1963.734842370646
 20
930.4134592452962
 30
0.0
 11
1986.591435502665
 21
930.4134592452962
 31
0.0
  0
LINE
  5
C39
330
C1C
100
AcDbEntity
  8
0
  6
Continuous
 62
     7
370
    15
100
AcDbLine
 10
1887.2406254517
 20
930.4134592452962
 30
0.0
 11
1887.2406254517
 21
919.7134595592567
 31
0.0
  0
LINE
  5
C3A
330
C1C
100
AcDbEntity
  8
0
  6
Continuous
 62
     7
370
    15
100
AcDbLine
 10
1910.097337793009
 20
930.4134592452962
 30
0.0
 11
1910.097337793009
 21
919.7134595592567
 31
0.0
  0
LINE
  5
C3B
330
C1C
100
AcDbEntity
  8
0
  6
Continuous
 62
     7
370
    15
100
AcDbLine
 10
1891.103840898173
 20
929.8134592240737
 30
0.0
 11
1902.425743173258
 21
929.8134592240737
 31
0.0
  0
ELLIPSE
  5
C3C
330
C1C
100
AcDbEntity
  8
0
  6
Continuous
 62
     7
370
    15
100
AcDbEllipse
 10
1891.103808873479
 20
927.3134592478225
 30
0.0
 11
0.0
 21
2.5
 31
0.0
210
0.0
220
0.0
230
1.0
 40
0.9152246395200904
 41
0.0
 42
1.570796326794896
  0
LINE
  5
C3D
330
C1C
100
AcDbEntity
  8
0
  6
Continuous
 62
     7
370
    15
100
AcDbLine
 10
1888.815737794535
 20
922.8134594154605
 30
0.0
 11
1888.815737794535
 21
927.3134592217454
 31
0.0
  0
ELLIPSE
  5
C3E
330
C1C
100
AcDbEntity
  8
0
  6
Continuous
 62
     7
370
    15
100
AcDbEllipse
 10
1891.103808873479
 20
922.8134592478225
 30
0.0
 11
0.0
 21
2.5
 31
0.0
210
0.0
220
0.0
230
1.0
 40
0.9152246395201018
 41
1.570796326794896
 42
3.141592653589793
  0
LINE
  5
C3F
330
C1C
100
AcDbEntity
  8
0
  6
Continuous
 62
     7
370
    15
100
AcDbLine
 10
1891.103840898173
 20
920.3134594713398
 30
0.0
 11
1902.425743173258
 21
920.3134594713398
 31
0.0
  0
ELLIPSE
  5
C40
330
C1C
100
AcDbEntity
  8
0
  6
Continuous
 62
     7
370
    15
100
AcDbEllipse
 10
1902.425759227972
 20
922.8134592478225
 30
0.0
 11
0.0
 21
2.5
 31
0.0
210
0.0
220
0.0
230
1.0
 40
0.975268974372409
 41
3.141592653589793
 42
4.712388980384702
  0
LINE
  5
C41
330
C1C
100
AcDbEntity
  8
0
  6
Continuous
 62
     7
370
    15
100
AcDbLine
 10
1904.86393077244
 20
922.8134594154605
 30
0.0
 11
1904.86393077244
 21
927.3134592217454
 31
0.0
  0
ELLIPSE
  5
C42
330
C1C
100
AcDbEntity
  8
0
  6
Continuous
 62
     7
370
    15
100
AcDbEllipse
 10
1902.425759227972
 20
927.3134592478225
 30
0.0
 11
0.0
 21
2.5
 31
0.0
210
0.0
220
0.0
230
1.0
 40
0.9752689743724204
 41
4.712388980384702
 42
6.283185307179586
  0
LINE
  5
C43
330
C1C
100
AcDbEntity
  8
0
  6
Continuous
 62
     7
370
    15
100
AcDbLine
 10
1910.097337793009
 20
919.7134595592567
 30
0.0
 11
1887.2406254517
 21
919.7134595592567
 31
0.0
  0
LINE
  5
C44
330
C1C
100
AcDbEntity
  8
0
  6
Continuous
 62
     7
370
    15
100
AcDbLine
 10
1887.2406254517
 20
930.4134592452962
 30
0.0
 11
1910.097337793009
 21
930.4134592452962
 31
0.0
  0
LINE
  5
C45
330
C1C
100
AcDbEntity
  8
0
  6
Continuous
 62
     7
370
    15
100
AcDbLine
 10
1919.020033906596
 20
930.4134592452962
 30
0.0
 11
1919.020033906596
 21
919.7134595592567
 31
0.0
  0
LINE
  5
C46
330
C1C
100
AcDbEntity
  8
0
  6
Continuous
 62
     7
370
    15
100
AcDbLine
 10
1910.15026671757
 20
921.763458870823
 30
0.0
 11
1910.15026671757
 21
928.3634593007215
 31
0.0
  0
LINE
  5
C47
330
C1C
100
AcDbEntity
  8
0
  6
Continuous
 62
     7
370
    15
100
AcDbLine
 10
1915.938235353129
 20
921.763458870823
 30
0.0
 11
1910.15026671757
 21
921.763458870823
 31
0.0
  0
LINE
  5
C48
330
C1C
100
AcDbEntity
  8
0
  6
Continuous
 62
     7
370
    15
100
AcDbLine
 10
1915.938235353129
 20
928.3634593007215
 30
0.0
 11
1910.15026671757
 21
928.3634593007215
 31
0.0
  0
LINE
  5
C49
330
C1C
100
AcDbEntity
  8
0
  6
Continuous
 62
     7
370
    15
100
AcDbLine
 10
1915.938235353129
 20
921.763458870823
 30
0.0
 11
1915.938235353129
 21
928.3634593007215
 31
0.0
  0
LINE
  5
C4A
330
C1C
100
AcDbEntity
  8
0
  6
Continuous
 62
     7
370
    15
100
AcDbLine
 10
1919.020033906596
 20
919.7134595592567
 30
0.0
 11
1910.097337793009
 21
919.7134595592567
 31
0.0
  0
LINE
  5
C4B
330
C1C
100
AcDbEntity
  8
0
  6
Continuous
 62
     7
370
    15
100
AcDbLine
 10
1910.097337793009
 20
930.4134592452962
 30
0.0
 11
1919.020033906596
 21
930.4134592452962
 31
0.0
  0
LINE
  5
C4C
330
C1C
100
AcDbEntity
  8
0
  6
Continuous
 62
     7
370
    15
100
AcDbLine
 10
1910.815692971842
 20
921.763458870823
 30
0.0
 11
1910.815692971842
 21
922.0484594111391
 31
0.0
  0
LINE
  5
C4D
330
C1C
100
AcDbEntity
  8
0
  6
Continuous
 62
     7
370
    15
100
AcDbLine
 10
1910.815692971842
 20
928.0761271943399
 30
0.0
 11
1910.815692971842
 21
928.3634593007215
 31
0.0
  0
LINE
  5
C4E
330
C1C
100
AcDbEntity
  8
0
  6
Continuous
 62
     7
370
    15
100
AcDbLine
 10
1921.618200372355
 20
930.4134592452962
 30
0.0
 11
1921.618200372355
 21
919.7134595592567
 31
0.0
  0
LINE
  5
C4F
330
C1C
100
AcDbEntity
  8
0
  6
Continuous
 62
     7
370
    15
100
AcDbLine
 10
1921.618200372355
 20
919.7134595592567
 30
0.0
 11
1919.020033906596
 21
919.7134595592567
 31
0.0
  0
LINE
  5
C50
330
C1C
100
AcDbEntity
  8
0
  6
Continuous
 62
     7
370
    15
100
AcDbLine
 10
1919.020033906596
 20
930.4134592452962
 30
0.0
 11
1921.618200372355
 21
930.4134592452962
 31
0.0
  0
LINE
  5
C51
330
C1C
100
AcDbEntity
  8
0
  6
Continuous
 62
     7
370
    15
100
AcDbLine
 10
1957.95140368809
 20
924.3211863790699
 30
0.0
 11
1957.893944810526
 21
924.3211863790699
 31
0.0
  0
LINE
  5
C52
330
C1C
100
AcDbEntity
  8
0
  6
Continuous
 62
     7
370
    15
100
AcDbLine
 10
1957.95140368809
 20
924.3211863790699
 30
0.0
 11
1957.95140368809
 21
922.0484594111391
 31
0.0
  0
LINE
  5
C53
330
C1C
100
AcDbEntity
  8
0
  6
Continuous
 62
     7
370
    15
100
AcDbLine
 10
1957.893944810526
 20
922.0484594111391
 30
0.0
 11
1957.95140368809
 21
922.0484594111391
 31
0.0
  0
LINE
  5
C54
330
C1C
100
AcDbEntity
  8
0
  6
Continuous
 62
     7
370
    15
100
AcDbLine
 10
1957.95140368809
 20
925.8033997607478
 30
0.0
 11
1957.95140368809
 21
928.0761271943399
 31
0.0
  0
LINE
  5
C55
330
C1C
100
AcDbEntity
  8
0
  6
Continuous
 62
     7
370
    15
100
AcDbLine
 10
1957.95140368809
 20
925.8033997607478
 30
0.0
 11
1957.893944810526
 21
925.8033997607478
 31
0.0
  0
LINE
  5
C56
330
C1C
100
AcDbEntity
  8
0
  6
Continuous
 62
     7
370
    15
100
AcDbLine
 10
1957.893944810526
 20
928.0761271943399
 30
0.0
 11
1957.95140368809
 21
928.0761271943399
 31
0.0
  0
LINE
  5
C57
330
C1C
100
AcDbEntity
  8
0
  6
Continuous
 62
     7
370
    15
100
AcDbLine
 10
1915.938235353129
 20
922.0484594111391
 30
0.0
 11
1915.880776475565
 21
922.0484594111391
 31
0.0
  0
LINE
  5
C58
330
C1C
100
AcDbEntity
  8
0
  6
Continuous
 62
     7
370
    15
100
AcDbLine
 10
1915.880776475565
 20
922.0484594111391
 30
0.0
 11
1915.880776475565
 21
924.3211863790699
 31
0.0
  0
LINE
  5
C59
330
C1C
100
AcDbEntity
  8
0
  6
Continuous
 62
     7
370
    15
100
AcDbLine
 10
1915.880776475565
 20
924.3211863790699
 30
0.0
 11
1915.938235353129
 21
924.3211863790699
 31
0.0
  0
LINE
  5
C5A
330
C1C
100
AcDbEntity
  8
0
  6
Continuous
 62
     7
370
    15
100
AcDbLine
 10
1915.938235353129
 20
925.8033997607478
 30
0.0
 11
1915.880776475565
 21
925.8033997607478
 31
0.0
  0
LINE
  5
C5B
330
C1C
100
AcDbEntity
  8
0
  6
Continuous
 62
     7
370
    15
100
AcDbLine
 10
1915.880776475565
 20
925.8033997607478
 30
0.0
 11
1915.880776475565
 21
928.0761271943399
 31
0.0
  0
LINE
  5
C5C
330
C1C
100
AcDbEntity
  8
0
  6
Continuous
 62
     7
370
    15
100
AcDbLine
 10
1915.880776475565
 20
928.0761271943399
 30
0.0
 11
1915.938235353129
 21
928.0761271943399
 31
0.0
  0
ELLIPSE
  5
C5D
330
C1C
100
AcDbEntity
  8
0
  6
Continuous
 62
     7
370
    15
100
AcDbEllipse
 10
1960.743799534332
 20
925.0622932399172
 30
0.0
 11
1.505078970186417
 21
0.0
 31
0.0000000000029168
210
-0.000000000001938
220
0.0
230
1.0
 40
0.9848077530121898
 41
5.452901839737789
 42
7.113468774621403
  0
LINE
  5
C5E
330
C1C
100
AcDbEntity
  8
0
  6
Continuous
 62
     7
370
    15
100
AcDbLine
 10
1961.759186814921
 20
923.9682379406938
 30
0.0
 11
1961.494780610697
 21
923.968238406355
 31
0.0
  0
ELLIPSE
  5
C5F
330
C1C
100
AcDbEntity
  8
0
  6
Continuous
 62
     7
370
    15
100
AcDbEllipse
 10
1960.479309063272
 20
925.0622932399172
 30
0.0
 11
1.50507897018636
 21
0.0
 31
0.0000000000026787
210
-0.0000000000017798
220
0.0
230
1.0
 40
0.9848077530122271
 41
5.452902088851601
 42
7.11346852550759
  0
LINE
  5
C60
330
C1C
100
AcDbEntity
  8
0
  6
Continuous
 62
     7
370
    15
100
AcDbLine
 10
1961.759186814921
 20
926.1563486647853
 30
0.0
 11
1961.494780610697
 21
926.156348199124
 31
0.0
  0
LINE
  5
C61
330
C1C
100
AcDbEntity
  8
0
  6
Continuous
 62
     7
370
    15
100
AcDbLine
 10
1912.337399552958
 20
926.156348199124
 30
0.0
 11
1912.072874139445
 21
926.1563486647853
 31
0.0
  0
ELLIPSE
  5
C62
330
C1C
100
AcDbEntity
  8
0
  6
Continuous
 62
     7
370
    15
100
AcDbEllipse
 10
1913.352837583657
 20
925.0622932399172
 30
0.0
 11
-1.50507897018636
 21
0.0
 31
0.0000000000026787
210
0.0000000000017798
220
0.0
230
1.0
 40
0.9848077530122177
 41
5.452902088853205
 42
7.113468525506
  0
LINE
  5
C63
330
C1C
100
AcDbEntity
  8
0
  6
Continuous
 62
     7
370
    15
100
AcDbLine
 10
1912.072874139445
 20
923.9682379406938
 30
0.0
 11
1912.337399552958
 21
923.968238406355
 31
0.0
  0
ELLIPSE
  5
C64
330
C1C
100
AcDbEntity
  8
0
  6
Continuous
 62
     7
370
    15
100
AcDbEllipse
 10
1913.088347112597
 20
925.0622932399172
 30
0.0
 11
-1.505078970186417
 21
0.0
 31
0.0000000000029168
210
0.000000000001938
220
0.0
230
1.0
 40
0.9848077530121898
 41
5.452901839739371
 42
7.113468774619809
  0
LINE
  5
C65
330
C1C
100
AcDbEntity
  8
0
  6
Continuous
 62
     7
370
    15
100
AcDbLine
 10
1912.337399552958
 20
922.0484594111391
 30
0.0
 11
1912.337399552958
 21
923.968238406355
 31
0.0
  0
LINE
  5
C66
330
C1C
100
AcDbEntity
  8
0
  6
Continuous
 62
     7
370
    15
100
AcDbLine
 10
1912.072874139445
 20
922.0484594111391
 30
0.0
 11
1912.072874139445
 21
923.9682379406938
 31
0.0
  0
LINE
  5
C67
330
C1C
100
AcDbEntity
  8
0
  6
Continuous
 62
     7
370
    15
100
AcDbLine
 10
1912.337399552958
 20
922.0484594111391
 30
0.0
 11
1912.072874139445
 21
922.0484594111391
 31
0.0
  0
LINE
  5
C68
330
C1C
100
AcDbEntity
  8
0
  6
Continuous
 62
     7
370
    15
100
AcDbLine
 10
1912.337399552958
 20
928.0761271943399
 30
0.0
 11
1912.337399552958
 21
926.156348199124
 31
0.0
  0
LINE
  5
C69
330
C1C
100
AcDbEntity
  8
0
  6
Continuous
 62
     7
370
    15
100
AcDbLine
 10
1912.072874139445
 20
926.1563486647853
 30
0.0
 11
1912.072874139445
 21
928.0761271943399
 31
0.0
  0
LINE
  5
C6A
330
C1C
100
AcDbEntity
  8
0
  6
Continuous
 62
     7
370
    15
100
AcDbLine
 10
1912.072874139445
 20
928.0761271943399
 30
0.0
 11
1912.337399552958
 21
928.0761271943399
 31
0.0
  0
LINE
  5
C6B
330
C1C
100
AcDbEntity
  8
0
  6
Continuous
 62
     7
370
    15
100
AcDbLine
 10
1961.759186814921
 20
922.0484594111391
 30
0.0
 11
1961.759186814921
 21
923.9682379406938
 31
0.0
  0
LINE
  5
C6C
330
C1C
100
AcDbEntity
  8
0
  6
Continuous
 62
     7
370
    15
100
AcDbLine
 10
1961.494780610697
 20
922.0484594111391
 30
0.0
 11
1961.759186814921
 21
922.0484594111391
 31
0.0
  0
LINE
  5
C6D
330
C1C
100
AcDbEntity
  8
0
  6
Continuous
 62
     7
370
    15
100
AcDbLine
 10
1961.494780610697
 20
922.0484594111391
 30
0.0
 11
1961.494780610697
 21
923.968238406355
 31
0.0
  0
LINE
  5
C6E
330
C1C
100
AcDbEntity
  8
0
  6
Continuous
 62
     7
370
    15
100
AcDbLine
 10
1961.759186814921
 20
926.1563486647853
 30
0.0
 11
1961.759186814921
 21
928.0761271943399
 31
0.0
  0
LINE
  5
C6F
330
C1C
100
AcDbEntity
  8
0
  6
Continuous
 62
     7
370
    15
100
AcDbLine
 10
1961.494780610697
 20
926.156348199124
 30
0.0
 11
1961.494780610697
 21
928.0761271943399
 31
0.0
  0
LINE
  5
C70
330
C1C
100
AcDbEntity
  8
0
  6
Continuous
 62
     7
370
    15
100
AcDbLine
 10
1961.759186814921
 20
928.0761271943399
 30
0.0
 11
1961.494780610697
 21
928.0761271943399
 31
0.0
  0
ELLIPSE
  5
C71
330
C1C
100
AcDbEntity
  8
0
  6
Continuous
 62
     7
370
    15
100
AcDbEllipse
 10
1963.333137221669
 20
927.8761272320123
 30
0.0
 11
0.203085315969588
 21
0.0
 31
0.0000000000003908
210
-0.0000000000019243
220
0.0
230
1.0
 40
0.98480778408397
 41
0.0
 42
1.570796326796016
  0
LINE
  5
C72
330
C1C
100
AcDbEntity
  8
0
  6
Continuous
 62
     7
370
    15
100
AcDbLine
 10
1963.536239694254
 20
922.0484594111391
 30
0.0
 11
1961.759186814921
 21
922.0484594111391
 31
0.0
  0
LINE
  5
C73
330
C1C
100
AcDbEntity
  8
0
  6
Continuous
 62
     7
370
    15
100
AcDbLine
 10
1963.536239694254
 20
927.8761273012557
 30
0.0
 11
1963.536239694254
 21
922.0484594111391
 31
0.0
  0
LINE
  5
C74
330
C1C
100
AcDbEntity
  8
0
  6
Continuous
 62
     7
370
    15
100
AcDbLine
 10
1961.759186814921
 20
928.0761271943399
 30
0.0
 11
1963.33310706486
 21
928.0761271943399
 31
0.0
  0
ELLIPSE
  5
C75
330
C1C
100
AcDbEntity
  8
0
  6
Continuous
 62
     7
370
    15
100
AcDbEllipse
 10
1910.49900942526
 20
927.8761272320123
 30
0.0
 11
-0.203085315969588
 21
0.0
 31
0.0000000000003908
210
0.0000000000019243
220
0.0
230
1.0
 40
0.9848077840839
 41
4.712365012662648
 42
6.283185307179586
  0
LINE
  5
C76
330
C1C
100
AcDbEntity
  8
0
  6
Continuous
 62
     7
370
    15
100
AcDbLine
 10
1910.295940469401
 20
922.0484594111391
 30
0.0
 11
1910.295940469401
 21
927.8761273012557
 31
0.0
  0
LINE
  5
C77
330
C1C
100
AcDbEntity
  8
0
  6
Continuous
 62
     7
370
    15
100
AcDbLine
 10
1912.072874139445
 20
922.0484594111391
 30
0.0
 11
1910.295940469401
 21
922.0484594111391
 31
0.0
  0
LINE
  5
C78
330
C1C
100
AcDbEntity
  8
0
  6
Continuous
 62
     7
370
    15
100
AcDbLine
 10
1912.072874139445
 20
928.0761271943399
 30
0.0
 11
1910.499073098795
 21
928.0761271943399
 31
0.0
  0
LINE
  5
C79
330
C1C
100
AcDbEntity
  8
0
  6
Continuous
 62
     7
370
    15
100
AcDbLine
 10
1915.880776475565
 20
924.3211863790699
 30
0.0
 11
1914.391733239786
 21
924.3211863790699
 31
0.0
  0
LINE
  5
C7A
330
C1C
100
AcDbEntity
  8
0
  6
Continuous
 62
     7
370
    15
100
AcDbLine
 10
1914.103723596232
 20
922.0484594111391
 30
0.0
 11
1914.103723596232
 21
923.968238406355
 31
0.0
  0
ELLIPSE
  5
C7B
330
C1C
100
AcDbEntity
  8
0
  6
Continuous
 62
     7
370
    15
100
AcDbEllipse
 10
1913.088347112597
 20
925.0622932399172
 30
0.0
 11
-1.50507897018636
 21
0.0
 31
0.0000000000025757
210
0.0000000000017114
220
0.0
230
1.0
 40
0.9848077530122177
 41
2.311309435261047
 42
2.617993877991462
  0
LINE
  5
C7C
330
C1C
100
AcDbEntity
  8
0
  6
Continuous
 62
     7
370
    15
100
AcDbLine
 10
1915.880776475565
 20
922.0484594111391
 30
0.0
 11
1914.103723596232
 21
922.0484594111391
 31
0.0
  0
LINE
  5
C7D
330
C1C
100
AcDbEntity
  8
0
  6
Continuous
 62
     7
370
    15
100
AcDbLine
 10
1957.95140368809
 20
925.8033997607478
 30
0.0
 11
1959.440327714579
 21
925.8033997607478
 31
0.0
  0
LINE
  5
C7E
330
C1C
100
AcDbEntity
  8
0
  6
Continuous
 62
     7
370
    15
100
AcDbLine
 10
1959.728337358134
 20
928.0761271943399
 30
0.0
 11
1959.728337358134
 21
926.156348199124
 31
0.0
  0
ELLIPSE
  5
C7F
330
C1C
100
AcDbEntity
  8
0
  6
Continuous
 62
     7
370
    15
100
AcDbEllipse
 10
1960.743799534332
 20
925.0622932399172
 30
0.0
 11
1.50507897018636
 21
0.0
 31
0.0000000000025757
210
-0.0000000000017114
220
0.0
230
1.0
 40
0.9848077530122271
 41
2.311309435261032
 42
2.617993877991466
  0
LINE
  5
C80
330
C1C
100
AcDbEntity
  8
0
  6
Continuous
 62
     7
370
    15
100
AcDbLine
 10
1957.95140368809
 20
928.0761271943399
 30
0.0
 11
1959.728337358134
 21
928.0761271943399
 31
0.0
  0
LINE
  5
C81
330
C1C
100
AcDbEntity
  8
0
  6
Continuous
 62
     7
370
    15
100
AcDbLine
 10
1915.880776475565
 20
925.8033997607478
 30
0.0
 11
1914.391733239786
 21
925.8033997607478
 31
0.0
  0
LINE
  5
C82
330
C1C
100
AcDbEntity
  8
0
  6
Continuous
 62
     7
370
    15
100
AcDbLine
 10
1914.103723596232
 20
926.156348199124
 30
0.0
 11
1914.103723596232
 21
928.0761271943399
 31
0.0
  0
ELLIPSE
  5
C83
330
C1C
100
AcDbEntity
  8
0
  6
Continuous
 62
     7
370
    15
100
AcDbEllipse
 10
1913.088347112597
 20
925.0622932399172
 30
0.0
 11
-1.50507897018636
 21
0.0
 31
0.0000000000025757
210
0.0000000000017114
220
0.0
230
1.0
 40
0.9848077530122271
 41
3.665191429188133
 42
3.971875871918554
  0
LINE
  5
C84
330
C1C
100
AcDbEntity
  8
0
  6
Continuous
 62
     7
370
    15
100
AcDbLine
 10
1914.103723596232
 20
928.0761271943399
 30
0.0
 11
1915.880776475565
 21
928.0761271943399
 31
0.0
  0
LINE
  5
C85
330
C1C
100
AcDbEntity
  8
0
  6
Continuous
 62
     7
370
    15
100
AcDbLine
 10
1957.95140368809
 20
924.3211863790699
 30
0.0
 11
1959.440327714579
 21
924.3211863790699
 31
0.0
  0
LINE
  5
C86
330
C1C
100
AcDbEntity
  8
0
  6
Continuous
 62
     7
370
    15
100
AcDbLine
 10
1959.728337358134
 20
922.0484594111391
 30
0.0
 11
1957.95140368809
 21
922.0484594111391
 31
0.0
  0
LINE
  5
C87
330
C1C
100
AcDbEntity
  8
0
  6
Continuous
 62
     7
370
    15
100
AcDbLine
 10
1959.728337358134
 20
922.0484594111391
 30
0.0
 11
1959.728337358134
 21
923.968238406355
 31
0.0
  0
ELLIPSE
  5
C88
330
C1C
100
AcDbEntity
  8
0
  6
Continuous
 62
     7
370
    15
100
AcDbEllipse
 10
1960.743799534332
 20
925.0622932399172
 30
0.0
 11
1.50507897018636
 21
0.0
 31
0.0000000000025757
210
-0.0000000000017114
220
0.0
230
1.0
 40
0.9848077530122271
 41
3.665191429187689
 42
3.971875871918567
  0
LINE
  5
C89
330
C1C
100
AcDbEntity
  8
0
  6
Continuous
 62
     7
370
    15
100
AcDbLine
 10
1914.678669999735
 20
925.8033997607478
 30
0.0
 11
1914.678669999735
 21
924.3211863790699
 31
0.0
  0
LINE
  5
C8A
330
C1C
100
AcDbEntity
  8
0
  6
Continuous
 62
     7
370
    15
100
AcDbLine
 10
1959.15339095463
 20
925.8033997607478
 30
0.0
 11
1959.15339095463
 21
924.3211863790699
 31
0.0
  0
LINE
  5
C8B
330
C1C
100
AcDbEntity
  8
0
  6
Continuous
 62
     7
370
    15
100
AcDbLine
 10
1948.707676957743
 20
930.4134592452962
 30
0.0
 11
1948.707676957743
 21
919.7134595592567
 31
0.0
  0
LINE
  5
C8C
330
C1C
100
AcDbEntity
  8
0
  6
Continuous
 62
     7
370
    15
100
AcDbLine
 10
1952.2139797913
 20
919.7134595592567
 30
0.0
 11
1948.707676957743
 21
919.7134595592567
 31
0.0
  0
LINE
  5
C8D
330
C1C
100
AcDbEntity
  8
0
  6
Continuous
 62
     7
370
    15
100
AcDbLine
 10
1948.707676957743
 20
930.4134592452962
 30
0.0
 11
1952.2139797913
 21
930.4134592452962
 31
0.0
  0
LINE
  5
C8E
330
C1C
100
AcDbEntity
  8
0
  6
Continuous
 62
     7
370
    15
100
AcDbLine
 10
1925.124383996622
 20
930.4134592452962
 30
0.0
 11
1925.124383996622
 21
919.7134595592567
 31
0.0
  0
LINE
  5
C8F
330
C1C
100
AcDbEntity
  8
0
  6
Continuous
 62
     7
370
    15
100
AcDbLine
 10
1925.124383996622
 20
919.7134595592567
 30
0.0
 11
1921.618200372355
 21
919.7134595592567
 31
0.0
  0
LINE
  5
C90
330
C1C
100
AcDbEntity
  8
0
  6
Continuous
 62
     7
370
    15
100
AcDbLine
 10
1921.618200372355
 20
930.4134592452962
 30
0.0
 11
1925.124383996622
 21
930.4134592452962
 31
0.0
  0
LINE
  5
C91
330
C1C
100
AcDbEntity
  8
0
  6
Continuous
 62
     7
370
    15
100
AcDbLine
 10
1914.103723596232
 20
922.0484594111391
 30
0.0
 11
1912.337399552958
 21
922.0484594111391
 31
0.0
  0
LINE
  5
C92
330
C1C
100
AcDbEntity
  8
0
  6
Continuous
 62
     7
370
    15
100
AcDbLine
 10
1914.103723596232
 20
928.0761271943399
 30
0.0
 11
1912.337399552958
 21
928.0761271943399
 31
0.0
  0
LINE
  5
C93
330
C1C
100
AcDbEntity
  8
0
  6
Continuous
 62
     7
370
    15
100
AcDbLine
 10
1959.728337358134
 20
922.0484594111391
 30
0.0
 11
1961.494780610697
 21
922.0484594111391
 31
0.0
  0
LINE
  5
C94
330
C1C
100
AcDbEntity
  8
0
  6
Continuous
 62
     7
370
    15
100
AcDbLine
 10
1959.728337358134
 20
928.0761271943399
 30
0.0
 11
1961.494780610697
 21
928.0761271943399
 31
0.0
  0
LINE
  5
C95
330
C1C
100
AcDbEntity
  8
0
  6
Continuous
 62
     7
370
    15
100
AcDbLine
 10
1948.037839959757
 20
930.4134592452962
 30
0.0
 11
1948.037839959757
 21
919.7134595592567
 31
0.0
  0
LINE
  5
C96
330
C1C
100
AcDbEntity
  8
0
  6
Continuous
 62
     7
370
    15
100
AcDbLine
 10
1948.707676957743
 20
919.7134595592567
 30
0.0
 11
1948.037839959757
 21
919.7134595592567
 31
0.0
  0
LINE
  5
C97
330
C1C
100
AcDbEntity
  8
0
  6
Continuous
 62
     7
370
    15
100
AcDbLine
 10
1948.037839959757
 20
930.4134592452962
 30
0.0
 11
1948.707676957743
 21
930.4134592452962
 31
0.0
  0
LINE
  5
C98
330
C1C
100
AcDbEntity
  8
0
  6
Continuous
 62
     7
370
    15
100
AcDbLine
 10
1925.794340203898
 20
930.4134592452962
 30
0.0
 11
1925.794340203898
 21
919.7134595592567
 31
0.0
  0
LINE
  5
C99
330
C1C
100
AcDbEntity
  8
0
  6
Continuous
 62
     7
370
    15
100
AcDbLine
 10
1925.794340203898
 20
919.7134595592567
 30
0.0
 11
1925.124383996622
 21
919.7134595592567
 31
0.0
  0
LINE
  5
C9A
330
C1C
100
AcDbEntity
  8
0
  6
Continuous
 62
     7
370
    15
100
AcDbLine
 10
1925.124383996622
 20
930.4134592452962
 30
0.0
 11
1925.794340203898
 21
930.4134592452962
 31
0.0
  0
ELLIPSE
  5
C9B
330
C1C
100
AcDbEntity
  8
0
  6
Continuous
 62
     7
370
    15
100
AcDbEllipse
 10
1894.387411642653
 20
922.8134592478225
 30
0.0
 11
0.0
 21
2.5
 31
0.0
210
0.0
220
0.0
230
1.0
 40
0.9436909804891911
 41
1.570796326794896
 42
3.141592653589696
  0
LINE
  5
C9C
330
C1C
100
AcDbEntity
  8
0
  6
Continuous
 62
     7
370
    15
100
AcDbLine
 10
1892.028189729349
 20
927.3134592217454
 30
0.0
 11
1892.028189729349
 21
922.8134594154605
 31
0.0
  0
ELLIPSE
  5
C9D
330
C1C
100
AcDbEntity
  8
0
  6
Continuous
 62
     7
370
    15
100
AcDbEllipse
 10
1894.387411642653
 20
927.3134592478225
 30
0.0
 11
0.0
 21
2.5
 31
0.0
210
0.0
220
0.0
230
1.0
 40
0.9436909804891911
 41
0.0
 42
1.570796326794896
  0
ELLIPSE
  5
C9E
330
C1C
100
AcDbEntity
  8
0
  6
Continuous
 62
     7
370
    15
100
AcDbEllipse
 10
1979.444735000335
 20
927.3134592478225
 30
0.0
 11
0.0
 21
2.5
 31
0.0
210
0.0
220
0.0
230
1.0
 40
0.9436909804892025
 41
4.712388980384702
 42
6.283185307179586
  0
LINE
  5
C9F
330
C1C
100
AcDbEntity
  8
0
  6
Continuous
 62
     7
370
    15
100
AcDbLine
 10
1981.803990434305
 20
922.8134594154605
 30
0.0
 11
1981.803990434305
 21
927.3134592217454
 31
0.0
  0
ELLIPSE
  5
CA0
330
C1C
100
AcDbEntity
  8
0
  6
Continuous
 62
     7
370
    15
100
AcDbEllipse
 10
1979.444735000335
 20
922.8134592478225
 30
0.0
 11
0.0
 21
2.5
 31
0.0
210
0.0
220
0.0
230
1.0
 40
0.9436909804892025
 41
3.141592653589323
 42
4.712388980384702
  0
LINE
  5
CA1
330
C1C
100
AcDbEntity
  8
0
  6
Continuous
 62
     7
370
    15
100
AcDbLine
 10
1981.803990434305
 20
922.8134594154605
 30
0.0
 11
1985.01644236912
 21
922.8134594154605
 31
0.0
  0
LINE
  5
CA2
330
C1C
100
AcDbEntity
  8
0
  6
Continuous
 62
     7
370
    15
100
AcDbLine
 10
1981.803990434305
 20
927.3134592217454
 30
0.0
 11
1985.01644236912
 21
927.3134592217454
 31
0.0
  0
LINE
  5
CA3
330
C1C
100
AcDbEntity
  8
0
  6
Continuous
 62
     7
370
    15
100
AcDbLine
 10
1892.028189729349
 20
927.3134592217454
 30
0.0
 11
1888.815737794535
 21
927.3134592217454
 31
0.0
  0
LINE
  5
CA4
330
C1C
100
AcDbEntity
  8
0
  6
Continuous
 62
     7
370
    15
100
AcDbLine
 10
1892.028189729349
 20
922.8134594154605
 30
0.0
 11
1888.815737794535
 21
922.8134594154605
 31
0.0
  0
LINE
  5
CA5
330
C1C
100
AcDbEntity
  8
0
  6
Continuous
 62
     7
370
    15
100
AcDbLine
 10
1988.416052888529
 20
930.4134592452962
 30
0.0
 11
1988.416052888529
 21
925.0634593186029
 31
0.0
  0
LINE
  5
CA6
330
C1C
100
AcDbEntity
  8
0
  6
Continuous
 62
     7
370
    15
100
AcDbLine
 10
1988.416052888529
 20
925.0634593186029
 30
0.0
 11
1988.416052888529
 21
919.7134595592567
 31
0.0
  0
LINE
  5
CA7
330
C1C
100
AcDbEntity
  8
0
  6
Continuous
 62
     7
370
    15
100
AcDbLine
 10
1988.416052888529
 20
919.7134595592567
 30
0.0
 11
1986.591435502665
 21
919.7134595592567
 31
0.0
  0
LINE
  5
CA8
330
C1C
100
AcDbEntity
  8
0
  6
Continuous
 62
     7
370
    15
100
AcDbLine
 10
1986.591435502665
 20
930.4134592452962
 30
0.0
 11
1988.416052888529
 21
930.4134592452962
 31
0.0
  0
LINE
  5
CA9
330
C1C
100
AcDbEntity
  8
0
  6
Continuous
 62
     7
370
    15
100
AcDbLine
 10
1885.416127275126
 20
930.4134592452962
 30
0.0
 11
1885.416127275126
 21
919.7134595592567
 31
0.0
  0
LINE
  5
CAA
330
C1C
100
AcDbEntity
  8
0
  6
Continuous
 62
     7
370
    15
100
AcDbLine
 10
1887.2406254517
 20
919.7134595592567
 30
0.0
 11
1885.416127275126
 21
919.7134595592567
 31
0.0
  0
LINE
  5
CAB
330
C1C
100
AcDbEntity
  8
0
  6
Continuous
 62
     7
370
    15
100
AcDbLine
 10
1885.416127275126
 20
930.4134592452962
 30
0.0
 11
1887.2406254517
 21
930.4134592452962
 31
0.0
  0
LINE
  5
CAC
330
C1C
100
AcDbEntity
  8
0
  6
Continuous
 62
     7
370
    15
100
AcDbLine
 10
1885.416127275126
 20
921.0634591286131
 30
0.0
 11
1885.416127275126
 21
919.7134595592567
 31
0.0
  0
LINE
  5
CAD
330
C1C
100
AcDbEntity
  8
0
  6
Continuous
 62
     7
370
    15
100
AcDbLine
 10
1885.416127275126
 20
921.0634591286131
 30
0.0
 11
1885.416127275126
 21
929.0634592757621
 31
0.0
  0
LINE
  5
CAE
330
C1C
100
AcDbEntity
  8
0
  6
Continuous
 62
     7
370
    15
100
AcDbLine
 10
1885.416127275126
 20
929.0634592757621
 30
0.0
 11
1885.416127275126
 21
930.4134592452962
 31
0.0
  0
LINE
  5
CAF
330
C1C
100
AcDbEntity
  8
0
  6
Continuous
 62
     7
370
    15
100
AcDbLine
 10
1947.66280753483
 20
921.6634590406963
 30
0.0
 11
1947.537876199381
 21
921.6634590406963
 31
0.0
  0
LINE
  5
CB0
330
C1C
100
AcDbEntity
  8
0
  6
Continuous
 62
     7
370
    15
100
AcDbLine
 10
1947.66280753483
 20
921.6634590406963
 30
0.0
 11
1947.66280753483
 21
928.4634592472636
 31
0.0
  0
LINE
  5
CB1
330
C1C
100
AcDbEntity
  8
0
  6
Continuous
 62
     7
370
    15
100
AcDbLine
 10
1947.66280753483
 20
928.4634592472636
 30
0.0
 11
1947.537876199381
 21
928.4634592472636
 31
0.0
  0
LINE
  5
CB2
330
C1C
100
AcDbEntity
  8
0
  6
Continuous
 62
     7
370
    15
100
AcDbLine
 10
1947.537876199381
 20
928.4634592472636
 30
0.0
 11
1947.537876199381
 21
930.4134592452962
 31
0.0
  0
LINE
  5
CB3
330
C1C
100
AcDbEntity
  8
0
  6
Continuous
 62
     7
370
    15
100
AcDbLine
 10
1947.537876199381
 20
921.6634590406963
 30
0.0
 11
1947.537876199381
 21
919.7134595592567
 31
0.0
  0
LINE
  5
CB4
330
C1C
100
AcDbEntity
  8
0
  6
Continuous
 62
     7
370
    15
100
AcDbLine
 10
1948.037839959757
 20
919.7134595592567
 30
0.0
 11
1947.537876199381
 21
919.7134595592567
 31
0.0
  0
LINE
  5
CB5
330
C1C
100
AcDbEntity
  8
0
  6
Continuous
 62
     7
370
    15
100
AcDbLine
 10
1947.537876199381
 20
930.4134592452962
 30
0.0
 11
1948.037839959757
 21
930.4134592452962
 31
0.0
  0
LINE
  5
CB6
330
C1C
100
AcDbEntity
  8
0
  6
Continuous
 62
     7
370
    15
100
AcDbLine
 10
1926.294303964274
 20
928.4634592472636
 30
0.0
 11
1926.294303964274
 21
930.4134592452962
 31
0.0
  0
LINE
  5
CB7
330
C1C
100
AcDbEntity
  8
0
  6
Continuous
 62
     7
370
    15
100
AcDbLine
 10
1926.294303964274
 20
928.4634592472636
 30
0.0
 11
1926.169372628825
 21
928.4634592472636
 31
0.0
  0
LINE
  5
CB8
330
C1C
100
AcDbEntity
  8
0
  6
Continuous
 62
     7
370
    15
100
AcDbLine
 10
1926.169372628825
 20
921.6634590406963
 30
0.0
 11
1926.169372628825
 21
928.4634592472636
 31
0.0
  0
LINE
  5
CB9
330
C1C
100
AcDbEntity
  8
0
  6
Continuous
 62
     7
370
    15
100
AcDbLine
 10
1926.294303964274
 20
921.6634590406963
 30
0.0
 11
1926.169372628825
 21
921.6634590406963
 31
0.0
  0
LINE
  5
CBA
330
C1C
100
AcDbEntity
  8
0
  6
Continuous
 62
     7
370
    15
100
AcDbLine
 10
1926.294303964274
 20
921.6634590406963
 30
0.0
 11
1926.294303964274
 21
919.7134595592567
 31
0.0
  0
LINE
  5
CBB
330
C1C
100
AcDbEntity
  8
0
  6
Continuous
 62
     7
370
    15
100
AcDbLine
 10
1926.294303964274
 20
919.7134595592567
 30
0.0
 11
1925.794340203898
 21
919.7134595592567
 31
0.0
  0
LINE
  5
CBC
330
C1C
100
AcDbEntity
  8
0
  6
Continuous
 62
     7
370
    15
100
AcDbLine
 10
1926.294303964274
 20
930.4134592452962
 30
0.0
 11
1925.794340203898
 21
930.4134592452962
 31
0.0
  0
LINE
  5
CBD
330
C1C
100
AcDbEntity
  8
0
  6
Continuous
 62
     7
370
    15
100
AcDbLine
 10
1947.287775109904
 20
921.6634590406963
 30
0.0
 11
1947.287775109904
 21
928.4634592472636
 31
0.0
  0
LINE
  5
CBE
330
C1C
100
AcDbEntity
  8
0
  6
Continuous
 62
     7
370
    15
100
AcDbLine
 10
1926.544405053751
 20
921.6634590406963
 30
0.0
 11
1926.544405053751
 21
928.4634592472636
 31
0.0
  0
LINE
  5
CBF
330
C1C
100
AcDbEntity
  8
0
  6
Continuous
 62
     7
370
    15
100
AcDbLine
 10
1942.287779878275
 20
928.4634592472636
 30
0.0
 11
1942.287779878275
 21
921.6634590406963
 31
0.0
  0
LINE
  5
CC0
330
C1C
100
AcDbEntity
  8
0
  6
Continuous
 62
     7
370
    15
100
AcDbLine
 10
1939.359880517618
 20
930.4134592452962
 30
0.0
 11
1939.359880517618
 21
919.7134595592567
 31
0.0
  0
LINE
  5
CC1
330
C1C
100
AcDbEntity
  8
0
  6
Continuous
 62
     7
370
    15
100
AcDbLine
 10
1947.537876199381
 20
921.6634590406963
 30
0.0
 11
1942.287779878275
 21
921.6634590406963
 31
0.0
  0
LINE
  5
CC2
330
C1C
100
AcDbEntity
  8
0
  6
Continuous
 62
     7
370
    15
100
AcDbLine
 10
1947.537876199381
 20
928.4634592472636
 30
0.0
 11
1942.287779878275
 21
928.4634592472636
 31
0.0
  0
LINE
  5
CC3
330
C1C
100
AcDbEntity
  8
0
  6
Continuous
 62
     7
370
    15
100
AcDbLine
 10
1947.537876199381
 20
919.7134595592567
 30
0.0
 11
1939.359880517618
 21
919.7134595592567
 31
0.0
  0
LINE
  5
CC4
330
C1C
100
AcDbEntity
  8
0
  6
Continuous
 62
     7
370
    15
100
AcDbLine
 10
1939.359880517618
 20
930.4134592452962
 30
0.0
 11
1947.537876199381
 21
930.4134592452962
 31
0.0
  0
LINE
  5
CC5
330
C1C
100
AcDbEntity
  8
0
  6
Continuous
 62
     7
370
    15
100
AcDbLine
 10
1931.54440028538
 20
928.4634592472636
 30
0.0
 11
1931.54440028538
 21
921.6634590406963
 31
0.0
  0
LINE
  5
CC6
330
C1C
100
AcDbEntity
  8
0
  6
Continuous
 62
     7
370
    15
100
AcDbLine
 10
1934.472299646036
 20
930.4134592452962
 30
0.0
 11
1934.472299646036
 21
919.7134595592567
 31
0.0
  0
LINE
  5
CC7
330
C1C
100
AcDbEntity
  8
0
  6
Continuous
 62
     7
370
    15
100
AcDbLine
 10
1931.54440028538
 20
921.6634590406963
 30
0.0
 11
1926.294303964274
 21
921.6634590406963
 31
0.0
  0
LINE
  5
CC8
330
C1C
100
AcDbEntity
  8
0
  6
Continuous
 62
     7
370
    15
100
AcDbLine
 10
1931.54440028538
 20
928.4634592472636
 30
0.0
 11
1926.294303964274
 21
928.4634592472636
 31
0.0
  0
LINE
  5
CC9
330
C1C
100
AcDbEntity
  8
0
  6
Continuous
 62
     7
370
    15
100
AcDbLine
 10
1934.472299646036
 20
919.7134595592567
 30
0.0
 11
1926.294303964274
 21
919.7134595592567
 31
0.0
  0
LINE
  5
CCA
330
C1C
100
AcDbEntity
  8
0
  6
Continuous
 62
     7
370
    15
100
AcDbLine
 10
1926.294303964274
 20
930.4134592452962
 30
0.0
 11
1934.472299646036
 21
930.4134592452962
 31
0.0
  0
LINE
  5
CCB
330
C1C
100
AcDbEntity
  8
0
  6
Continuous
 62
     7
370
    15
100
AcDbLine
 10
1939.160085748331
 20
930.4134592452962
 30
0.0
 11
1939.160085748331
 21
919.7134595592567
 31
0.0
  0
LINE
  5
CCC
330
C1C
100
AcDbEntity
  8
0
  6
Continuous
 62
     7
370
    15
100
AcDbLine
 10
1939.160085748331
 20
919.7134595592567
 30
0.0
 11
1939.359880517618
 21
919.7134595592567
 31
0.0
  0
LINE
  5
CCD
330
C1C
100
AcDbEntity
  8
0
  6
Continuous
 62
     7
370
    15
100
AcDbLine
 10
1939.359880517618
 20
930.4134592452962
 30
0.0
 11
1939.160085748331
 21
930.4134592452962
 31
0.0
  0
LINE
  5
CCE
330
C1C
100
AcDbEntity
  8
0
  6
Continuous
 62
     7
370
    15
100
AcDbLine
 10
1934.672094415324
 20
930.4134592452962
 30
0.0
 11
1934.672094415324
 21
919.7134595592567
 31
0.0
  0
LINE
  5
CCF
330
C1C
100
AcDbEntity
  8
0
  6
Continuous
 62
     7
370
    15
100
AcDbLine
 10
1934.472299646036
 20
919.7134595592567
 30
0.0
 11
1934.672094415324
 21
919.7134595592567
 31
0.0
  0
LINE
  5
CD0
330
C1C
100
AcDbEntity
  8
0
  6
Continuous
 62
     7
370
    15
100
AcDbLine
 10
1934.672094415324
 20
930.4134592452962
 30
0.0
 11
1934.472299646036
 21
930.4134592452962
 31
0.0
  0
LINE
  5
CD1
330
C1C
100
AcDbEntity
  8
0
  6
Continuous
 62
     7
370
    15
100
AcDbLine
 10
1942.787743638651
 20
928.4634592472636
 30
0.0
 11
1942.787743638651
 21
921.6634590406963
 31
0.0
  0
LINE
  5
CD2
330
C1C
100
AcDbEntity
  8
0
  6
Continuous
 62
     7
370
    15
100
AcDbLine
 10
1931.044317315714
 20
928.4634592472636
 30
0.0
 11
1931.044317315714
 21
921.6634590406963
 31
0.0
  0
LINE
  5
CD3
330
C1C
100
AcDbEntity
  8
0
  6
Continuous
 62
     7
370
    15
100
AcDbLine
 10
1939.133382867472
 20
930.4134592452962
 30
0.0
 11
1939.133382867472
 21
919.7134595592567
 31
0.0
  0
LINE
  5
CD4
330
C1C
100
AcDbEntity
  8
0
  6
Continuous
 62
     7
370
    15
100
AcDbLine
 10
1939.160085748331
 20
919.7134595592567
 30
0.0
 11
1939.133382867472
 21
919.7134595592567
 31
0.0
  0
LINE
  5
CD5
330
C1C
100
AcDbEntity
  8
0
  6
Continuous
 62
     7
370
    15
100
AcDbLine
 10
1939.133382867472
 20
930.4134592452962
 30
0.0
 11
1939.160085748331
 21
930.4134592452962
 31
0.0
  0
LINE
  5
CD6
330
C1C
100
AcDbEntity
  8
0
  6
Continuous
 62
     7
370
    15
100
AcDbLine
 10
1934.698678086893
 20
930.4134592452962
 30
0.0
 11
1934.698678086893
 21
919.7134595592567
 31
0.0
  0
LINE
  5
CD7
330
C1C
100
AcDbEntity
  8
0
  6
Continuous
 62
     7
370
    15
100
AcDbLine
 10
1934.672094415324
 20
919.7134595592567
 30
0.0
 11
1934.698678086893
 21
919.7134595592567
 31
0.0
  0
LINE
  5
CD8
330
C1C
100
AcDbEntity
  8
0
  6
Continuous
 62
     7
370
    15
100
AcDbLine
 10
1934.672094415324
 20
930.4134592452962
 30
0.0
 11
1934.698678086893
 21
930.4134592452962
 31
0.0
  0
LINE
  5
CD9
330
C1C
100
AcDbEntity
  8
0
  6
Continuous
 62
     7
370
    15
100
AcDbLine
 10
1939.133382867472
 20
919.7134595592567
 30
0.0
 11
1939.133263658182
 21
919.7134595592567
 31
0.0
  0
LINE
  5
CDA
330
C1C
100
AcDbEntity
  8
0
  6
Continuous
 62
     7
370
    15
100
AcDbLine
 10
1939.133263658182
 20
930.4134592452962
 30
0.0
 11
1939.133382867472
 21
930.4134592452962
 31
0.0
  0
LINE
  5
CDB
330
C1C
100
AcDbEntity
  8
0
  6
Continuous
 62
     7
370
    15
100
AcDbLine
 10
1934.698678086893
 20
919.7134595592567
 30
0.0
 11
1934.698916505472
 21
919.7134595592567
 31
0.0
  0
LINE
  5
CDC
330
C1C
100
AcDbEntity
  8
0
  6
Continuous
 62
     7
370
    15
100
AcDbLine
 10
1934.698678086893
 20
930.4134592452962
 30
0.0
 11
1934.698916505472
 21
930.4134592452962
 31
0.0
  0
LINE
  5
CDD
330
C1C
100
AcDbEntity
  8
0
  6
Continuous
 62
     7
370
    15
100
AcDbLine
 10
1934.698916505472
 20
921.0634591286131
 30
0.0
 11
1936.021781991617
 21
921.0634591286131
 31
0.0
  0
LINE
  5
CDE
330
C1C
100
AcDbEntity
  8
0
  6
Continuous
 62
     7
370
    15
100
AcDbLine
 10
1936.021781991617
 20
929.0634592757621
 30
0.0
 11
1936.021781991617
 21
921.0634591286131
 31
0.0
  0
LINE
  5
CDF
330
C1C
100
AcDbEntity
  8
0
  6
Continuous
 62
     7
370
    15
100
AcDbLine
 10
1934.698916505472
 20
929.0634592757621
 30
0.0
 11
1936.021781991617
 21
929.0634592757621
 31
0.0
  0
LINE
  5
CE0
330
C1C
100
AcDbEntity
  8
0
  6
Continuous
 62
     7
370
    15
100
AcDbLine
 10
1939.133263658182
 20
929.0634592757621
 30
0.0
 11
1937.810398172037
 21
929.0634592757621
 31
0.0
  0
LINE
  5
CE1
330
C1C
100
AcDbEntity
  8
0
  6
Continuous
 62
     7
370
    15
100
AcDbLine
 10
1937.810398172037
 20
929.0634592757621
 30
0.0
 11
1937.810398172037
 21
921.0634591286131
 31
0.0
  0
LINE
  5
CE2
330
C1C
100
AcDbEntity
  8
0
  6
Continuous
 62
     7
370
    15
100
AcDbLine
 10
1939.133263658182
 20
921.0634591286131
 30
0.0
 11
1937.810398172037
 21
921.0634591286131
 31
0.0
  0
LINE
  5
CE3
330
C1C
100
AcDbEntity
  8
0
  6
Continuous
 62
     7
370
    15
100
AcDbLine
 10
1939.133263658182
 20
919.7134595592567
 30
0.0
 11
1934.698916505472
 21
919.7134595592567
 31
0.0
  0
LINE
  5
CE4
330
C1C
100
AcDbEntity
  8
0
  6
Continuous
 62
     7
370
    15
100
AcDbLine
 10
1934.698916505472
 20
930.4134592452962
 30
0.0
 11
1939.133263658182
 21
930.4134592452962
 31
0.0
  0
LINE
  5
CE5
330
C1C
100
AcDbEntity
  8
0
  6
Continuous
 62
     7
370
    15
100
AcDbLine
 10
1938.429213594096
 20
929.0634592757621
 30
0.0
 11
1938.429213594096
 21
921.0634591286131
 31
0.0
  0
LINE
  5
CE6
330
C1C
100
AcDbEntity
  8
0
  6
Continuous
 62
     7
370
    15
100
AcDbLine
 10
1935.402966569559
 20
929.0634592757621
 30
0.0
 11
1935.402966569559
 21
921.0634591286131
 31
0.0
  0
ENDBLK
  5
C1E
330
C1C
100
AcDbEntity
  8
0
100
AcDbBlockEnd
  0
BLOCK
  5
CE9
330
CE8
100
AcDbEntity
  8
0
100
AcDbBlockBegin
  2
4
 70
     0
 10
0.0
 20
0.0
 30
0.0
  3
4
  1

  0
LINE
  5
CEB
330
CE8
100
AcDbEntity
  8
0
  6
Continuous
 62
     7
370
    15
100
AcDbLine
 10
2019.758023506907
 20
977.8039043519877
 30
0.0
 11
2025.95492063051
 21
975.53269584755
 31
0.0
  0
LINE
  5
CEC
330
CE8
100
AcDbEntity
  8
0
  6
Continuous
 62
     7
370
    15
100
AcDbLine
 10
2026.248305183929
 20
972.1939422793852
 30
0.0
 11
2027.303392582409
 21
971.8072449654625
 31
0.0
  0
LINE
  5
CED
330
CE8
100
AcDbEntity
  8
0
  6
Continuous
 62
     7
370
    15
100
AcDbLine
 10
2020.514727244036
 20
977.4873636294964
 30
0.0
 11
2025.955110738515
 21
975.4934229502167
 31
0.0
  0
LINE
  5
CEE
330
CE8
100
AcDbEntity
  8
0
  6
Continuous
 62
     7
370
    15
100
AcDbLine
 10
2025.958494272645
 20
974.8042599595725
 30
0.0
 11
2021.040106638006
 21
976.6068853059525
 31
0.0
  0
LINE
  5
CEF
330
CE8
100
AcDbEntity
  8
0
  6
Continuous
 62
     7
370
    15
100
AcDbLine
 10
2020.528701615361
 20
974.6601501124301
 30
0.0
 11
2025.973576079284
 21
972.6645634597234
 31
0.0
  0
LINE
  5
CF0
330
CE8
100
AcDbEntity
  8
0
  6
Continuous
 62
     7
370
    15
100
AcDbLine
 10
2028.37551491836
 20
968.2741677479674
 30
0.0
 11
2020.012967930391
 21
971.3391029016419
 31
0.0
  0
LINE
  5
CF1
330
CE8
100
AcDbEntity
  8
0
  6
Continuous
 62
     7
370
    15
100
AcDbLine
 10
2020.556650488497
 20
969.0056966789331
 30
0.0
 11
2025.997251616666
 21
967.0116762353009
 31
0.0
  0
LINE
  5
CF2
330
CE8
100
AcDbEntity
  8
0
  6
Continuous
 62
     7
370
    15
100
AcDbLine
 10
2018.94084559444
 20
974.872180119137
 30
0.0
 11
2019.995933305678
 21
974.4854826905864
 31
0.0
  0
LINE
  5
CF3
330
CE8
100
AcDbEntity
  8
0
  6
Continuous
 62
     7
370
    15
100
AcDbLine
 10
2026.000451129699
 20
966.3225543382059
 30
0.0
 11
2021.082030012954
 21
968.1251919560247
 31
0.0
  0
LINE
  5
CF4
330
CE8
100
AcDbEntity
  8
0
  6
Continuous
 62
     7
370
    15
100
AcDbLine
 10
2048.936969518593
 20
1004.117078427924
 30
0.0
 11
2040.574422530625
 21
1007.182013581599
 31
0.0
  0
LINE
  5
CF5
330
CE8
100
AcDbEntity
  8
0
  6
Continuous
 62
     7
370
    15
100
AcDbLine
 10
2029.464544965932
 20
943.5001856307632
 30
0.0
 11
2022.000776160235
 21
946.2357119512002
 31
0.0
  0
LINE
  5
CF6
330
CE8
100
AcDbEntity
  8
0
  6
Continuous
 62
     7
370
    15
100
AcDbLine
 10
2020.99734436445
 20
942.9173035116992
 30
0.0
 11
2029.00819570267
 21
939.981267407783
 31
0.0
  0
LINE
  5
CF7
330
CE8
100
AcDbEntity
  8
0
  6
Continuous
 62
     7
370
    15
100
AcDbLine
 10
2035.844041753978
 20
955.0801360420466
 30
0.0
 11
2043.85089929336
 21
952.1455636948628
 31
0.0
  0
LINE
  5
CF8
330
CE8
100
AcDbEntity
  8
0
  6
Continuous
 62
     7
370
    15
100
AcDbLine
 10
2057.710205589779
 20
987.4642397085949
 30
0.0
 11
2052.201227814113
 21
989.4833206978848
 31
0.0
  0
LINE
  5
CF9
330
CE8
100
AcDbEntity
  8
0
  6
Continuous
 62
     7
370
    15
100
AcDbLine
 10
2049.132731341467
 20
963.2356643061902
 30
0.0
 11
2049.223777922323
 21
963.2022950627423
 31
0.0
  0
LINE
  5
CFA
330
CE8
100
AcDbEntity
  8
0
  6
Continuous
 62
     7
370
    15
100
AcDbLine
 10
2049.124815030714
 20
959.7002587826416
 30
0.0
 11
2048.55111734007
 21
959.9105232178867
 31
0.0
  0
LINE
  5
CFB
330
CE8
100
AcDbEntity
  8
0
  6
Continuous
 62
     7
370
    15
100
AcDbLine
 10
2051.636735392221
 20
965.5073463017796
 30
0.0
 11
2051.620463816544
 21
965.5133099542847
 31
0.0
  0
LINE
  5
CFC
330
CE8
100
AcDbEntity
  8
0
  6
Continuous
 62
     7
370
    15
100
AcDbLine
 10
2058.835931150187
 20
988.1146149546648
 30
0.0
 11
2052.713186701315
 21
990.35864595686
 31
0.0
  0
LINE
  5
CFD
330
CE8
100
AcDbEntity
  8
0
  6
Continuous
 62
     7
370
    15
100
AcDbLine
 10
2052.245087095259
 20
991.3879817297893
 30
0.0
 11
2060.607634083227
 21
988.3230465761146
 31
0.0
  0
LINE
  5
CFE
330
CE8
100
AcDbEntity
  8
0
  6
Continuous
 62
     7
370
    15
100
AcDbLine
 10
2048.904834993721
 20
956.086760937659
 30
0.0
 11
2048.373638469496
 21
956.2814483819206
 31
0.0
  0
LINE
  5
CFF
330
CE8
100
AcDbEntity
  8
0
  6
Continuous
 62
     7
370
    15
100
AcDbLine
 10
2052.442729525516
 20
964.1045821521124
 30
0.0
 11
2052.765515224789
 21
963.9862788124448
 31
0.0
  0
LINE
  5
D00
330
CE8
100
AcDbEntity
  8
0
  6
Continuous
 62
     7
370
    15
100
AcDbLine
 10
2051.317438076255
 20
962.8153818929128
 30
0.0
 11
2052.112246500256
 21
962.524078742968
 31
0.0
  0
LINE
  5
D01
330
CE8
100
AcDbEntity
  8
0
  6
Continuous
 62
     7
370
    15
100
AcDbLine
 10
2049.22101635945
 20
957.595362642397
 30
0.0
 11
2051.134266149583
 21
956.8941424820827
 31
0.0
  0
LINE
  5
D02
330
CE8
100
AcDbEntity
  8
0
  6
Continuous
 62
     7
370
    15
100
AcDbLine
 10
2061.087048058841
 20
990.9210420334883
 30
0.0
 11
2055.851777492851
 21
992.8398073115534
 31
0.0
  0
LINE
  5
D03
330
CE8
100
AcDbEntity
  8
0
  6
Continuous
 62
     7
370
    15
100
AcDbLine
 10
2052.98723272753
 20
958.6473603481023
 30
0.0
 11
2051.991637936426
 21
959.0122531826011
 31
0.0
  0
LINE
  5
D04
330
CE8
100
AcDbEntity
  8
0
  6
Continuous
 62
     7
370
    15
100
AcDbLine
 10
2059.799516137926
 20
966.9473884436509
 30
0.0
 11
2065.293305957164
 21
964.9338739524191
 31
0.0
  0
LINE
  5
D05
330
CE8
100
AcDbEntity
  8
0
  6
Continuous
 62
     7
370
    15
100
AcDbLine
 10
2067.319050102983
 20
969.8212886782243
 30
0.0
 11
2069.073155803625
 21
969.1783960005638
 31
0.0
  0
LINE
  5
D06
330
CE8
100
AcDbEntity
  8
0
  6
Continuous
 62
     7
370
    15
100
AcDbLine
 10
2067.264516771885
 20
966.470821496123
 30
0.0
 11
2071.019113165438
 21
965.0947342237865
 31
0.0
  0
LINE
  5
D07
330
CE8
100
AcDbEntity
  8
0
  6
Continuous
 62
     7
370
    15
100
AcDbLine
 10
2090.271934805815
 20
1017.540421008758
 30
0.0
 11
2081.909387817847
 21
1020.605356162433
 31
0.0
  0
LINE
  5
D08
330
CE8
100
AcDbEntity
  8
0
  6
Continuous
 62
     7
370
    15
100
AcDbLine
 10
2070.702125847648
 20
970.4742709793972
 30
0.0
 11
2073.449670382911
 21
969.4672756411909
 31
0.0
  0
LINE
  5
D09
330
CE8
100
AcDbEntity
  8
0
  6
Continuous
 62
     7
370
    15
100
AcDbLine
 10
2089.623919921725
 20
1008.432614495524
 30
0.0
 11
2089.955011366917
 21
1008.311267038713
 31
0.0
  0
LINE
  5
D0A
330
CE8
100
AcDbEntity
  8
0
  6
Continuous
 62
     7
370
    15
100
AcDbLine
 10
2091.027208069398
 20
1004.778233341795
 30
0.0
 11
2089.972120670918
 21
1005.164930655717
 31
0.0
  0
LINE
  5
D0B
330
CE8
100
AcDbEntity
  8
0
  6
Continuous
 62
     7
370
    15
100
AcDbLine
 10
2089.573523329052
 20
978.6769977167756
 30
0.0
 11
2087.967268785823
 21
979.2657018546865
 31
0.0
  0
ARC
  5
D0C
330
CE8
100
AcDbEntity
  8
0
  6
Continuous
 62
     7
370
    15
100
AcDbCircle
 10
2028.608221104128
 20
966.6139469832904
 30
0.0
 40
1.555994481476225
100
AcDbArc
 50
128.270799530493
 51
180.4596442237221
  0
LINE
  5
D0D
330
CE8
100
AcDbEntity
  8
0
  6
Continuous
 62
     7
370
    15
100
AcDbLine
 10
2028.300405484529
 20
968.2602358852975
 30
0.0
 11
2027.644470806758
 21
967.8355460135394
 31
0.0
  0
LWPOLYLINE
  5
D0E
330
CE8
100
AcDbEntity
  8
0
  6
Continuous
 62
     7
370
    15
100
AcDbPolyline
 90
        9
 70
   128
 43
0.0
 10
2028.431397033529
 20
968.1644050370673
 10
2028.428101657473
 20
968.1973715349347
 10
2028.420054652753
 20
968.2259687540094
 10
2028.407559748864
 20
968.249103607115
 10
2028.391069016894
 20
968.265849246322
 10
2028.371331341618
 20
968.2755849028312
 10
2028.349020066893
 20
968.2778838815442
 10
2028.325104828317
 20
968.2727311639501
 10
2028.300405484529
 20
968.2602358852975
  0
LWPOLYLINE
  5
D0F
330
CE8
100
AcDbEntity
  8
0
  6
Continuous
 62
     7
370
    15
100
AcDbPolyline
 90
        9
 70
   128
 43
0.0
 10
2028.556960478321
 20
968.0652651898848
 10
2028.533072642007
 20
968.0545686057941
 10
2028.50997086821
 20
968.0508185922979
 10
2028.488624009602
 20
968.0541585270708
 10
2028.469778341217
 20
968.0644956285984
 10
2028.454107076427
 20
968.0814296011469
 10
2028.442210105973
 20
968.1043054334912
 10
2028.434538978997
 20
968.1323018751593
 10
2028.431397033529
 20
968.1644050370673
  0
LINE
  5
D10
330
CE8
100
AcDbEntity
  8
0
  6
Continuous
 62
     7
370
    15
100
AcDbLine
 10
2028.708296365599
 20
968.1538295643528
 30
0.0
 11
2028.556960478321
 21
968.0652651898848
 31
0.0
  0
ARC
  5
D11
330
CE8
100
AcDbEntity
  8
0
  6
Continuous
 62
     7
370
    15
100
AcDbCircle
 10
2040.864191132175
 20
970.5222514165459
 30
0.0
 40
12.38447413683831
100
AcDbArc
 50
169.5411705586351
 51
191.0252288116412
  0
LINE
  5
D12
330
CE8
100
AcDbEntity
  8
0
  6
Continuous
 62
     7
370
    15
100
AcDbLine
 10
2028.6854775876
 20
972.7703919915988
 30
0.0
 11
2028.534141700322
 21
972.6818276171307
 31
0.0
  0
ARC
  5
D13
330
CE8
100
AcDbEntity
  8
0
  6
Continuous
 62
     7
370
    15
100
AcDbCircle
 10
2028.716581940817
 20
972.4357843219637
 30
0.0
 40
0.3063033536357427
100
AcDbArc
 50
126.5568051657549
 51
179.8299599885351
  0
ARC
  5
D14
330
CE8
100
AcDbEntity
  8
0
  6
Continuous
 62
     7
370
    15
100
AcDbCircle
 10
2028.109212591224
 20
972.4358225049241
 30
0.0
 40
0.3010686043357213
100
AcDbArc
 50
304.7888701603792
 51
0.1657299887562658
  0
LINE
  5
D15
330
CE8
100
AcDbEntity
  8
0
  6
Continuous
 62
     7
370
    15
100
AcDbLine
 10
2027.624651532687
 20
971.8452662543246
 30
0.0
 11
2028.280988501779
 21
972.1885668860403
 31
0.0
  0
LWPOLYLINE
  5
D16
330
CE8
100
AcDbEntity
  8
0
  6
Continuous
 62
     7
370
    15
100
AcDbPolyline
 90
        9
 70
   128
 43
0.0
 10
2027.023708919422
 20
972.3811300729572
 10
2027.03584344241
 20
972.2196604483784
 10
2027.070257651235
 20
972.0773716494504
 10
2027.12558398026
 20
971.9593409646524
 10
2027.199936385936
 20
971.8699186485956
 10
2027.290464930544
 20
971.8123084023748
 10
2027.394026646805
 20
971.7886422663903
 10
2027.506813574746
 20
971.7997894168282
 10
2027.624651532687
 20
971.8452662543246
  0
LINE
  5
D17
330
CE8
100
AcDbEntity
  8
0
  6
Continuous
 62
     7
370
    15
100
AcDbLine
 10
2027.008926311819
 20
975.3718612523082
 30
0.0
 11
2027.023708919422
 21
972.3811300729572
 31
0.0
  0
LINE
  5
D18
330
CE8
100
AcDbEntity
  8
0
  6
Continuous
 62
     7
370
    15
100
AcDbLine
 10
2026.996286691687
 20
977.9290356722629
 30
0.0
 11
2027.008926311819
 21
975.3718612523082
 31
0.0
  0
ARC
  5
D19
330
CE8
100
AcDbEntity
  8
0
  6
Continuous
 62
     7
370
    15
100
AcDbCircle
 10
2032.935505524961
 20
977.8382148944769
 30
0.0
 40
5.939913194920486
100
AcDbArc
 50
144.1480080898431
 51
179.123918168062
  0
LINE
  5
D1A
330
CE8
100
AcDbEntity
  8
0
  6
Continuous
 62
     7
370
    15
100
AcDbLine
 10
2042.325190837561
 20
1000.700274507485
 30
0.0
 11
2028.121011782038
 21
981.3171829544829
 31
0.0
  0
LINE
  5
D1B
330
CE8
100
AcDbEntity
  8
0
  6
Continuous
 62
     7
370
    15
100
AcDbLine
 10
2047.891451194741
 20
1003.957746185402
 30
0.0
 11
2042.325190837561
 21
1000.700274507485
 31
0.0
  0
ARC
  5
D1C
330
CE8
100
AcDbEntity
  8
0
  6
Continuous
 62
     7
370
    15
100
AcDbCircle
 10
2048.546966615215
 20
1003.090593941498
 30
0.0
 40
1.087038858821126
100
AcDbArc
 50
26.61290387158479
 51
127.087107822141
  0
LINE
  5
D1D
330
CE8
100
AcDbEntity
  8
0
  6
Continuous
 62
     7
370
    15
100
AcDbLine
 10
2051.732695977328
 20
999.47798832358
 30
0.0
 11
2049.518837372527
 21
1003.577544361633
 31
0.0
  0
ARC
  5
D1E
330
CE8
100
AcDbEntity
  8
0
  6
Continuous
 62
     7
370
    15
100
AcDbCircle
 10
2047.932424661323
 20
997.6189532689003
 30
0.0
 40
4.230611469963474
100
AcDbArc
 50
358.4976714707044
 51
26.06717866885251
  0
LINE
  5
D1F
330
CE8
100
AcDbEntity
  8
0
  6
Continuous
 62
     7
370
    15
100
AcDbLine
 10
2052.224749207926
 20
984.7283950461656
 30
0.0
 11
2052.161581902193
 21
997.5080368959718
 31
0.0
  0
LWPOLYLINE
  5
D20
330
CE8
100
AcDbEntity
  8
0
  6
Continuous
 62
     7
370
    15
100
AcDbPolyline
 90
        9
 70
   128
 43
0.0
 10
2052.538831611982
 20
984.4680182123186
 10
2052.477957643663
 20
984.4409453748818
 10
2052.419306700478
 20
984.4318796741903
 10
2052.365188581394
 20
984.4412726697498
 10
2052.317619272896
 20
984.4686626565586
 10
2052.278542482733
 20
984.5131220192085
 10
2052.249309857129
 20
984.5727941916619
 10
2052.231125614121
 20
984.6454715730825
 10
2052.224749207926
 20
984.7283950461656
  0
LINE
  5
D21
330
CE8
100
AcDbEntity
  8
0
  6
Continuous
 62
     7
370
    15
100
AcDbLine
 10
2057.640524260157
 20
987.4536168448775
 30
0.0
 11
2052.538831611982
 21
984.4680182123186
 31
0.0
  0
LWPOLYLINE
  5
D22
330
CE8
100
AcDbEntity
  8
0
  6
Continuous
 62
     7
370
    15
100
AcDbPolyline
 90
        9
 70
   128
 43
0.0
 10
2057.640524260157
 20
987.4536168448775
 10
2057.664188735909
 20
987.4642356659652
 10
2057.687066366222
 20
987.4680663126442
 10
2057.708263056414
 20
987.4649297297242
 10
2057.727032531452
 20
987.4549186987191
 10
2057.742701447477
 20
987.4384599147274
 10
2057.754670566182
 20
987.4160763921528
 10
2057.762562574468
 20
987.3886593014088
 10
2057.766000028748
 20
987.3571262122734
  0
LINE
  5
D23
330
CE8
100
AcDbEntity
  8
0
  6
Continuous
 62
     7
370
    15
100
AcDbLine
 10
2057.766000028748
 20
987.3571262122734
 30
0.0
 11
2057.78525391962
 21
986.8266211099296
 31
0.0
  0
ARC
  5
D24
330
CE8
100
AcDbEntity
  8
0
  6
Continuous
 62
     7
370
    15
100
AcDbCircle
 10
2057.47554619506
 20
986.8160994688796
 30
0.0
 40
0.3098863978663245
100
AcDbArc
 50
307.7113675922405
 51
1.945750180917854
  0
ARC
  5
D25
330
CE8
100
AcDbEntity
  8
0
  6
Continuous
 62
     7
370
    15
100
AcDbCircle
 10
2057.85424667771
 20
986.32596500714
 30
0.0
 40
0.3095051528757771
100
AcDbArc
 50
127.6712646693058
 51
180.5681854645238
  0
LINE
  5
D26
330
CE8
100
AcDbEntity
  8
0
  6
Continuous
 62
     7
370
    15
100
AcDbLine
 10
2057.544756743245
 20
986.3228957854932
 30
0.0
 11
2057.545818646188
 21
986.1080577590687
 31
0.0
  0
ARC
  5
D27
330
CE8
100
AcDbEntity
  8
0
  6
Continuous
 62
     7
370
    15
100
AcDbCircle
 10
2062.469458143164
 20
981.4237550922253
 30
0.0
 40
6.795948599774535
100
AcDbArc
 50
104.2468549740498
 51
136.4269605977101
  0
LINE
  5
D28
330
CE8
100
AcDbEntity
  8
0
  6
Continuous
 62
     7
370
    15
100
AcDbLine
 10
2060.795912674455
 20
988.2255283766451
 30
0.0
 11
2060.796974577399
 21
988.0106903502207
 31
0.0
  0
LWPOLYLINE
  5
D29
330
CE8
100
AcDbEntity
  8
0
  6
Continuous
 62
     7
370
    15
100
AcDbPolyline
 90
        9
 70
   128
 43
0.0
 10
2060.673819794507
 20
988.3317031707997
 10
2060.697638092309
 20
988.3413794578352
 10
2060.720521333562
 20
988.3440749318507
 10
2060.741575032122
 20
988.3396897357485
 10
2060.759978154967
 20
988.3283523285586
 10
2060.775131855251
 20
988.3105065265921
 10
2060.786436111749
 20
988.2868337404376
 10
2060.793439505804
 20
988.2581288212044
 10
2060.795912674455
 20
988.2255283766451
  0
LWPOLYLINE
  5
D2A
330
CE8
100
AcDbEntity
  8
0
  6
Continuous
 62
     7
370
    15
100
AcDbPolyline
 90
        9
 70
   128
 43
0.0
 10
2060.551763178894
 20
988.4456300998982
 10
2060.553349299159
 20
988.4114250344783
 10
2060.559689396851
 20
988.3811140592941
 10
2060.570628475537
 20
988.3558773026766
 10
2060.585714203153
 20
988.3366944112836
 10
2060.604346036525
 20
988.3243523931616
 10
2060.625850240331
 20
988.3193571415013
 10
2060.649331154046
 20
988.321846393484
 10
2060.673819794507
 20
988.3317031707997
  0
LINE
  5
D2B
330
CE8
100
AcDbEntity
  8
0
  6
Continuous
 62
     7
370
    15
100
AcDbLine
 10
2060.565751126654
 20
988.9955889002207
 30
0.0
 11
2060.551763178894
 21
988.4456300998982
 31
0.0
  0
ARC
  5
D2C
330
CE8
100
AcDbEntity
  8
0
  6
Continuous
 62
     7
370
    15
100
AcDbCircle
 10
2060.871669146739
 20
988.9921331097109
 30
0.0
 40
0.3059375385611196
100
AcDbArc
 50
126.5322885732205
 51
179.3527880791953
  0
LINE
  5
D2D
330
CE8
100
AcDbEntity
  8
0
  6
Continuous
 62
     7
370
    15
100
AcDbLine
 10
2065.791244612702
 20
992.2235591399374
 30
0.0
 11
2060.689551964527
 21
989.2379605073786
 31
0.0
  0
ARC
  5
D2E
330
CE8
100
AcDbEntity
  8
0
  6
Continuous
 62
     7
370
    15
100
AcDbCircle
 10
2065.334388240721
 20
992.8391833999272
 30
0.0
 40
0.7666230978175097
100
AcDbArc
 50
306.5792065511873
 51
0.7326884039571734
  0
LINE
  5
D2F
330
CE8
100
AcDbEntity
  8
0
  6
Continuous
 62
     7
370
    15
100
AcDbLine
 10
2066.037781351308
 20
1005.628628424592
 30
0.0
 11
2066.100948657041
 21
992.8489865747858
 31
0.0
  0
ARC
  5
D30
330
CE8
100
AcDbEntity
  8
0
  6
Continuous
 62
     7
370
    15
100
AcDbCircle
 10
2073.988495831561
 20
1005.576180430607
 30
0.0
 40
7.950887468614315
100
AcDbArc
 50
161.5860467526447
 51
179.622045903047
  0
LINE
  5
D31
330
CE8
100
AcDbEntity
  8
0
  6
Continuous
 62
     7
370
    15
100
AcDbLine
 10
2068.605453335764
 20
1014.747361606583
 30
0.0
 11
2066.444700850089
 21
1008.087707618611
 31
0.0
  0
ARC
  5
D32
330
CE8
100
AcDbEntity
  8
0
  6
Continuous
 62
     7
370
    15
100
AcDbCircle
 10
2072.590042697035
 20
1013.633643473649
 30
0.0
 40
4.13730835901538
100
AcDbArc
 50
124.9552165811083
 51
164.3839833136722
  0
LINE
  5
D33
330
CE8
100
AcDbEntity
  8
0
  6
Continuous
 62
     7
370
    15
100
AcDbLine
 10
2075.785964530608
 20
1020.282097065545
 30
0.0
 11
2070.219629806898
 21
1017.024581867052
 31
0.0
  0
LINE
  5
D34
330
CE8
100
AcDbEntity
  8
0
  6
Continuous
 62
     7
370
    15
100
AcDbLine
 10
2090.099192860995
 20
1017.587884746762
 30
0.0
 11
2075.785964530608
 21
1020.282097065545
 31
0.0
  0
ARC
  5
D35
330
CE8
100
AcDbEntity
  8
0
  6
Continuous
 62
     7
370
    15
100
AcDbCircle
 10
2089.409375505904
 20
1015.850903376721
 30
0.0
 40
1.868944157340432
100
AcDbArc
 50
350.173695559914
 51
68.34020499986458
  0
LINE
  5
D36
330
CE8
100
AcDbEntity
  8
0
  6
Continuous
 62
     7
370
    15
100
AcDbLine
 10
2091.261606752174
 20
1013.366142006536
 30
0.0
 11
2091.250901601339
 21
1015.531945851197
 31
0.0
  0
LINE
  5
D37
330
CE8
100
AcDbEntity
  8
0
  6
Continuous
 62
     7
370
    15
100
AcDbLine
 10
2091.261606752174
 20
1013.366142006536
 30
0.0
 11
2091.278323829074
 21
1009.984040251891
 31
0.0
  0
ARC
  5
D38
330
CE8
100
AcDbEntity
  8
0
  6
Continuous
 62
     7
370
    15
100
AcDbCircle
 10
2089.722211355607
 20
1009.971612134711
 30
0.0
 40
1.556162102152593
100
AcDbArc
 50
308.2738184309455
 51
0.4575912950499476
  0
LINE
  5
D39
330
CE8
100
AcDbEntity
  8
0
  6
Continuous
 62
     7
370
    15
100
AcDbLine
 10
2090.686129845049
 20
1008.749932293718
 30
0.0
 11
2090.030195036791
 21
1008.325268821324
 31
0.0
  0
LWPOLYLINE
  5
D3A
330
CE8
100
AcDbEntity
  8
0
  6
Continuous
 62
     7
370
    15
100
AcDbPolyline
 90
        9
 70
   128
 43
0.0
 10
2090.030195036791
 20
1008.325268821324
 10
2090.005495693004
 20
1008.312773542671
 10
2089.981580584914
 20
1008.307594425713
 10
2089.95926931019
 20
1008.309893404426
 10
2089.939531634913
 20
1008.319629060935
 10
2089.923040902943
 20
1008.336374700142
 10
2089.910545999054
 20
1008.359509553248
 10
2089.902498863848
 20
1008.388133171687
 10
2089.899203618278
 20
1008.42107327019
  0
LWPOLYLINE
  5
D3B
330
CE8
100
AcDbEntity
  8
0
  6
Continuous
 62
     7
370
    15
100
AcDbPolyline
 90
        9
 70
   128
 43
0.0
 10
2089.899203618278
 20
1008.42107327019
 10
2089.895987306281
 20
1008.453132911521
 10
2089.888390545834
 20
1008.481172873766
 10
2089.876493444893
 20
1008.504075105475
 10
2089.860822310591
 20
1008.520982678659
 10
2089.841976642205
 20
1008.531319780186
 10
2089.82062965311
 20
1008.534686114324
 10
2089.7975280098
 20
1008.530909701463
 10
2089.773640042999
 20
1008.520239516737
  0
LINE
  5
D3C
330
CE8
100
AcDbEntity
  8
0
  6
Continuous
 62
     7
370
    15
100
AcDbLine
 10
2089.773640042999
 20
1008.520239516737
 30
0.0
 11
2089.622304155721
 21
1008.431675142269
 31
0.0
  0
ARC
  5
D3D
330
CE8
100
AcDbEntity
  8
0
  6
Continuous
 62
     7
370
    15
100
AcDbCircle
 10
2077.462607217831
 20
1006.063234496676
 30
0.0
 40
12.38820974608633
100
AcDbArc
 50
349.5444482459462
 51
11.0219511243213
  0
LINE
  5
D3E
330
CE8
100
AcDbEntity
  8
0
  6
Continuous
 62
     7
370
    15
100
AcDbLine
 10
2089.796458820998
 20
1003.903677089491
 30
0.0
 11
2089.64512293372
 21
1003.815112715023
 31
0.0
  0
ARC
  5
D3F
330
CE8
100
AcDbEntity
  8
0
  6
Continuous
 62
     7
370
    15
100
AcDbCircle
 10
2089.614080280585
 20
1004.149689467762
 30
0.0
 40
0.3062417709359492
100
AcDbArc
 50
306.5509777864422
 51
359.8307709982695
  0
ARC
  5
D40
330
CE8
100
AcDbEntity
  8
0
  6
Continuous
 62
     7
370
    15
100
AcDbCircle
 10
2090.221509317315
 20
1004.149619021429
 30
0.0
 40
0.3011897564591927
100
AcDbArc
 50
124.8009770099508
 51
180.1586664099056
  0
LINE
  5
D41
330
CE8
100
AcDbEntity
  8
0
  6
Continuous
 62
     7
370
    15
100
AcDbLine
 10
2090.70594911912
 20
1004.740212052932
 30
0.0
 11
2090.049612019541
 21
1004.396937820581
 31
0.0
  0
LWPOLYLINE
  5
D42
330
CE8
100
AcDbEntity
  8
0
  6
Continuous
 62
     7
370
    15
100
AcDbPolyline
 90
        9
 70
   128
 43
0.0
 10
2091.306891601898
 20
1004.204374633664
 10
2091.294757209396
 20
1004.365817858879
 10
2091.260342870085
 20
1004.508133057171
 10
2091.20501654106
 20
1004.626163741969
 10
2091.130664265872
 20
1004.715559658662
 10
2091.040135590777
 20
1004.773196304247
 10
2090.936574005002
 20
1004.796836040867
 10
2090.823786946574
 20
1004.785715289793
 10
2090.70594911912
 20
1004.740212052932
  0
LINE
  5
D43
330
CE8
100
AcDbEntity
  8
0
  6
Continuous
 62
     7
370
    15
100
AcDbLine
 10
2091.323000870502
 20
1000.945241117786
 30
0.0
 11
2091.306891601898
 21
1004.204374633664
 31
0.0
  0
ARC
  5
D44
330
CE8
100
AcDbEntity
  8
0
  6
Continuous
 62
     7
370
    15
100
AcDbCircle
 10
2062.481919618864
 20
1000.912699721623
 30
0.0
 40
28.84109960986378
100
AcDbArc
 50
350.4173459734861
 51
0.0646468089054959
  0
LINE
  5
D45
330
CE8
100
AcDbEntity
  8
0
  6
Continuous
 62
     7
370
    15
100
AcDbLine
 10
2089.528340346435
 20
987.6976600833023
 30
0.0
 11
2090.920584373694
 21
996.1115151106723
 31
0.0
  0
LINE
  5
D46
330
CE8
100
AcDbEntity
  8
0
  6
Continuous
 62
     7
370
    15
100
AcDbLine
 10
2066.893176701017
 20
974.4511714592412
 30
0.0
 11
2089.528340346435
 21
987.6976600833023
 31
0.0
  0
ARC
  5
D47
330
CE8
100
AcDbEntity
  8
0
  6
Continuous
 62
     7
370
    15
100
AcDbCircle
 10
2067.367004268226
 20
973.7732463436765
 30
0.0
 40
0.8271003722408597
100
AcDbArc
 50
124.9511589088281
 51
164.3926094016893
  0
LINE
  5
D48
330
CE8
100
AcDbEntity
  8
0
  6
Continuous
 62
     7
370
    15
100
AcDbLine
 10
2065.844150260353
 20
971.7574622983599
 30
0.0
 11
2066.570400847819
 21
973.995772783355
 31
0.0
  0
ARC
  5
D49
330
CE8
100
AcDbEntity
  8
0
  6
Continuous
 62
     7
370
    15
100
AcDbCircle
 10
2065.312976525592
 20
971.9058827793146
 30
0.0
 40
0.5515198778528597
100
AcDbArc
 50
304.9494757780353
 51
344.3885821953842
  0
LINE
  5
D4A
330
CE8
100
AcDbEntity
  8
0
  6
Continuous
 62
     7
370
    15
100
AcDbLine
 10
2052.904952381048
 20
964.0075416610928
 30
0.0
 11
2065.628916824031
 21
971.4538253675963
 31
0.0
  0
ARC
  5
D4B
330
CE8
100
AcDbEntity
  8
0
  6
Continuous
 62
     7
370
    15
100
AcDbCircle
 10
2052.817531312022
 20
964.1230783497475
 30
0.0
 40
0.144883296949537
100
AcDbArc
 50
206.5860865853999
 51
307.1130447840703
  0
LINE
  5
D4C
330
CE8
100
AcDbEntity
  8
0
  6
Continuous
 62
     7
370
    15
100
AcDbLine
 10
2051.94384311731
 20
965.4360586314508
 30
0.0
 11
2052.687967548645
 21
964.0582369975529
 31
0.0
  0
ARC
  5
D4D
330
CE8
100
AcDbEntity
  8
0
  6
Continuous
 62
     7
370
    15
100
AcDbCircle
 10
2051.749482540426
 20
965.3387024820974
 30
0.0
 40
0.2173804353293031
100
AcDbArc
 50
26.60650995803274
 51
127.0970230648257
  0
LINE
  5
D4E
330
CE8
100
AcDbEntity
  8
0
  6
Continuous
 62
     7
370
    15
100
AcDbLine
 10
2028.983276655059
 20
952.265643332975
 30
0.0
 11
2051.618365933947
 21
965.5120884364587
 31
0.0
  0
LINE
  5
D4F
330
CE8
100
AcDbEntity
  8
0
  6
Continuous
 62
     7
370
    15
100
AcDbLine
 10
2027.516053261327
 20
959.0060886489588
 30
0.0
 11
2028.983276655059
 21
952.265643332975
 31
0.0
  0
ARC
  5
D50
330
CE8
100
AcDbEntity
  8
0
  6
Continuous
 62
     7
370
    15
100
AcDbCircle
 10
2048.026697197448
 20
963.3148068794291
 30
0.0
 40
20.9583293099416
100
AcDbArc
 50
179.9247548375652
 51
191.8637468062002
  0
LINE
  5
D51
330
CE8
100
AcDbEntity
  8
0
  6
Continuous
 62
     7
370
    15
100
AcDbLine
 10
2027.06838596085
 20
963.3423309388524
 30
0.0
 11
2027.052276692246
 21
966.6014644547303
 31
0.0
  0
LINE
  5
D52
330
CE8
100
AcDbEntity
  8
0
  6
Continuous
 62
     7
370
    15
100
AcDbLine
 10
2019.758464794069
 20
984.3821181081576
 30
0.0
 11
2028.121011782038
 21
981.3171829544829
 31
0.0
  0
LINE
  5
D53
330
CE8
100
AcDbEntity
  8
0
  6
Continuous
 62
     7
370
    15
100
AcDbLine
 10
2019.758464794069
 20
984.3821181081576
 30
0.0
 11
2033.962643849593
 21
1003.76520966116
 31
0.0
  0
LINE
  5
D54
330
CE8
100
AcDbEntity
  8
0
  6
Continuous
 62
     7
370
    15
100
AcDbLine
 10
2033.962643849593
 20
1003.76520966116
 30
0.0
 11
2042.325190837561
 21
1000.700274507485
 31
0.0
  0
LINE
  5
D55
330
CE8
100
AcDbEntity
  8
0
  6
Continuous
 62
     7
370
    15
100
AcDbLine
 10
2022.628167035365
 20
987.4863197892336
 30
0.0
 11
2029.664101049547
 21
997.0876549268501
 31
0.0
  0
ELLIPSE
  5
D56
330
CE8
100
AcDbEntity
  8
0
  6
Continuous
 62
     7
370
    15
100
AcDbEllipse
 10
2024.582013161689
 20
986.7702124847895
 30
0.0
 11
2.22782985951467
 21
1.289722611549678
 31
0.0
210
0.0
220
0.0
230
1.0
 40
0.7257707199511309
 41
2.114728690376682
 42
3.685525017171744
  0
LINE
  5
D57
330
CE8
100
AcDbEntity
  8
0
  6
Continuous
 62
     7
370
    15
100
AcDbLine
 10
2026.677062806817
 20
983.5408898733973
 30
0.0
 11
2023.160103841388
 21
984.8298812755006
 31
0.0
  0
ELLIPSE
  5
D58
330
CE8
100
AcDbEntity
  8
0
  6
Continuous
 62
     7
370
    15
100
AcDbEllipse
 10
2028.098972278515
 20
985.481221027198
 30
0.0
 11
2.227829859514685
 21
1.289722611549677
 31
0.0
210
0.0
220
0.0
230
1.0
 40
0.7257707199511275
 41
3.685525017171755
 42
5.256321343966441
  0
LINE
  5
D59
330
CE8
100
AcDbEntity
  8
0
  6
Continuous
 62
     7
370
    15
100
AcDbLine
 10
2030.052858310972
 20
984.7651156718125
 30
0.0
 11
2037.088792325153
 21
994.366450809429
 31
0.0
  0
ELLIPSE
  5
D5A
330
CE8
100
AcDbEntity
  8
0
  6
Continuous
 62
     7
370
    15
100
AcDbEllipse
 10
2035.134936388877
 20
995.08255293509
 30
0.0
 11
2.226619619156508
 21
1.532601552692313
 31
0.0
210
0.0
220
0.0
230
1.0
 40
0.7014006393151925
 41
5.173796841268659
 42
6.744593168063694
  0
LINE
  5
D5B
330
CE8
100
AcDbEntity
  8
0
  6
Continuous
 62
     7
370
    15
100
AcDbLine
 10
2036.650124577406
 20
997.1502007667487
 30
0.0
 11
2033.133165611976
 21
998.4391921688517
 31
0.0
  0
ELLIPSE
  5
D5C
330
CE8
100
AcDbEntity
  8
0
  6
Continuous
 62
     7
370
    15
100
AcDbEllipse
 10
2031.61797727205
 20
996.3715443926814
 30
0.0
 11
2.226619619156494
 21
1.532601552692341
 31
0.0
210
0.0
220
0.0
230
1.0
 40
0.7014006393151913
 41
0.4614078608841
 42
2.032204187678887
  0
LINE
  5
D5D
330
CE8
100
AcDbEntity
  8
0
  6
Continuous
 62
     7
370
    15
100
AcDbLine
 10
2018.633739703719
 20
980.9939708259374
 30
0.0
 11
2026.996286691687
 21
977.9290356722629
 31
0.0
  0
ARC
  5
D5E
330
CE8
100
AcDbEntity
  8
0
  6
Continuous
 62
     7
370
    15
100
AcDbCircle
 10
2024.572958536992
 20
980.9031500481516
 30
0.0
 40
5.939913194920544
100
AcDbArc
 50
144.1480080898431
 51
179.123918168062
  0
LINE
  5
D5F
330
CE8
100
AcDbEntity
  8
0
  6
Continuous
 62
     7
370
    15
100
AcDbLine
 10
2025.968621520942
 20
972.7678273868798
 30
0.0
 11
2027.023708919422
 21
972.3811300729572
 31
0.0
  0
LINE
  5
D60
330
CE8
100
AcDbEntity
  8
0
  6
Continuous
 62
     7
370
    15
100
AcDbLine
 10
2025.954488477464
 20
975.6271425308979
 30
0.0
 11
2025.968621520942
 21
972.7678273868798
 31
0.0
  0
LINE
  5
D61
330
CE8
100
AcDbEntity
  8
0
  6
Continuous
 62
     7
370
    15
100
AcDbLine
 10
2025.954488477464
 20
975.6271425308979
 30
0.0
 11
2019.702116599213
 21
977.9186829420989
 31
0.0
  0
LINE
  5
D62
330
CE8
100
AcDbEntity
  8
0
  6
Continuous
 62
     7
370
    15
100
AcDbLine
 10
2019.702116599213
 20
977.9186829420989
 30
0.0
 11
2019.716249642691
 21
975.0593677980809
 31
0.0
  0
LINE
  5
D63
330
CE8
100
AcDbEntity
  8
0
  6
Continuous
 62
     7
370
    15
100
AcDbLine
 10
2019.716249642691
 20
975.0593677980809
 30
0.0
 11
2018.661161931453
 21
975.4460652266317
 31
0.0
  0
LINE
  5
D64
330
CE8
100
AcDbEntity
  8
0
  6
Continuous
 62
     7
370
    15
100
AcDbLine
 10
2018.64637932385
 20
978.4367964059827
 30
0.0
 11
2018.633739703719
 21
980.9939708259374
 31
0.0
  0
LINE
  5
D65
330
CE8
100
AcDbEntity
  8
0
  6
Continuous
 62
     7
370
    15
100
AcDbLine
 10
2018.661161931453
 20
975.4460652266317
 30
0.0
 11
2018.64637932385
 21
978.4367964059827
 31
0.0
  0
LINE
  5
D66
330
CE8
100
AcDbEntity
  8
0
  6
Continuous
 62
     7
370
    15
100
AcDbLine
 10
2024.69097027159
 20
985.7763857318284
 30
0.0
 11
2029.849138478351
 21
992.4703688517656
 31
0.0
  0
ELLIPSE
  5
D67
330
CE8
100
AcDbEntity
  8
0
  6
Continuous
 62
     7
370
    15
100
AcDbEllipse
 10
2031.803017613679
 20
991.7542808104442
 30
0.0
 11
2.285032075462879
 21
1.361808454470662
 31
0.0
210
0.0
220
0.0
230
1.0
 40
0.6980769200975453
 41
0.5157021208541626
 42
2.086498447649133
  0
LINE
  5
D68
330
CE8
100
AcDbEntity
  8
0
  6
Continuous
 62
     7
370
    15
100
AcDbLine
 10
2035.921101887266
 20
992.7730289767934
 30
0.0
 11
2033.322035207096
 21
993.7256060859278
 31
0.0
  0
ELLIPSE
  5
D69
330
CE8
100
AcDbEntity
  8
0
  6
Continuous
 62
     7
370
    15
100
AcDbEllipse
 10
2026.644805793086
 20
985.0602580446597
 30
0.0
 11
2.281831611160498
 21
1.229639674103935
 31
0.0
210
0.0
220
0.0
230
1.0
 40
0.7098032842759007
 41
2.132364653449322
 42
2.798110648318265
  0
ARC
  5
D6A
330
CE8
100
AcDbEntity
  8
0
  6
Continuous
 62
     7
370
    15
100
AcDbCircle
 10
2019.813571421778
 20
977.9019658953146
 30
0.0
 40
0.1127015400348768
100
AcDbArc
 50
171.4698259382257
 51
240.4701934678675
  0
ARC
  5
D6B
330
CE8
100
AcDbEntity
  8
0
  6
Continuous
 62
     7
370
    15
100
AcDbCircle
 10
2026.516425710711
 20
972.6797058257551
 30
0.0
 40
0.5548466814028338
100
AcDbArc
 50
170.8615037111046
 51
241.1031964627368
  0
ARC
  5
D6C
330
CE8
100
AcDbEntity
  8
0
  6
Continuous
 62
     7
370
    15
100
AcDbCircle
 10
2020.548103935057
 20
977.5635869764885
 30
0.0
 40
0.0832105890504482
100
AcDbArc
 50
193.631445830246
 51
246.3523428161082
  0
ARC
  5
D6D
330
CE8
100
AcDbEntity
  8
0
  6
Continuous
 62
     7
370
    15
100
AcDbCircle
 10
2020.777166642521
 20
976.1025069653724
 30
0.0
 40
0.3109319887005388
100
AcDbArc
 50
128.2536849529254
 51
180.4829009435693
  0
LINE
  5
D6E
330
CE8
100
AcDbEntity
  8
0
  6
Continuous
 62
     7
370
    15
100
AcDbLine
 10
2022.628167035365
 20
987.4863197892336
 30
0.0
 11
2024.69097027159
 21
985.7763857318284
 31
0.0
  0
LINE
  5
D6F
330
CE8
100
AcDbEntity
  8
0
  6
Continuous
 62
     7
370
    15
100
AcDbLine
 10
2020.466245697243
 20
976.0998863958578
 30
0.0
 11
2020.472794707668
 21
974.7749287025413
 31
0.0
  0
LINE
  5
D70
330
CE8
100
AcDbEntity
  8
0
  6
Continuous
 62
     7
370
    15
100
AcDbLine
 10
2020.584654825728
 20
976.3466747396433
 30
0.0
 11
2020.964997334661
 21
976.5929270439185
 31
0.0
  0
LINE
  5
D71
330
CE8
100
AcDbEntity
  8
0
  6
Continuous
 62
     7
370
    15
100
AcDbLine
 10
2029.849138478351
 20
992.4703688517656
 30
0.0
 11
2029.664101049547
 21
997.0876549268501
 31
0.0
  0
ARC
  5
D72
330
CE8
100
AcDbEntity
  8
0
  6
Continuous
 62
     7
370
    15
100
AcDbCircle
 10
2021.015777216263
 20
976.5287413118493
 30
0.0
 40
0.0818437815398546
100
AcDbArc
 50
72.706498158543
 51
128.3489205999977
  0
LINE
  5
D73
330
CE8
100
AcDbEntity
  8
0
  6
Continuous
 62
     7
370
    15
100
AcDbLine
 10
2021.600169029813
 20
976.7972079872334
 30
0.0
 11
2021.59872153788
 21
977.0900561350737
 31
0.0
  0
ARC
  5
D74
330
CE8
100
AcDbEntity
  8
0
  6
Continuous
 62
     7
370
    15
100
AcDbCircle
 10
2037.215606549608
 20
970.604899067495
 30
0.0
 40
9.782692883925863
100
AcDbArc
 50
183.8671855348314
 51
192.1823033279916
  0
LINE
  5
D75
330
CE8
100
AcDbEntity
  8
0
  6
Continuous
 62
     7
370
    15
100
AcDbLine
 10
2021.202816304538
 20
972.236656661486
 30
0.0
 11
2027.45518818279
 21
969.9451162502848
 31
0.0
  0
ARC
  5
D76
330
CE8
100
AcDbEntity
  8
0
  6
Continuous
 62
     7
370
    15
100
AcDbCircle
 10
2030.963234671355
 20
972.8964394786963
 30
0.0
 40
9.782692883925026
100
AcDbArc
 50
183.8671855348314
 51
192.1823033279916
  0
LINE
  5
D77
330
CE8
100
AcDbEntity
  8
0
  6
Continuous
 62
     7
370
    15
100
AcDbLine
 10
2020.34574937763
 20
971.2187647180275
 30
0.0
 11
2021.400837088867
 21
970.8320672894769
 31
0.0
  0
ARC
  5
D78
330
CE8
100
AcDbEntity
  8
0
  6
Continuous
 62
     7
370
    15
100
AcDbCircle
 10
2035.404649771229
 20
973.0212004680693
 30
0.0
 40
14.23215625752091
100
AcDbArc
 50
174.4417531284227
 51
176.7784133688725
  0
LINE
  5
D79
330
CE8
100
AcDbEntity
  8
0
  6
Continuous
 62
     7
370
    15
100
AcDbLine
 10
2021.194985129168
 20
973.8210145081136
 30
0.0
 11
2027.447357007419
 21
971.5294740969126
 31
0.0
  0
LWPOLYLINE
  5
D7A
330
CE8
100
AcDbEntity
  8
0
  6
Continuous
 62
     7
370
    15
100
AcDbPolyline
 90
        3
 70
   128
 43
0.0
 10
2027.447357007419
 20
971.5294740969126
 10
2027.460018094474
 20
971.7292297439453
 10
2027.464557409798
 20
971.7916419466147
  0
LINE
  5
D7B
330
CE8
100
AcDbEntity
  8
0
  6
Continuous
 62
     7
370
    15
100
AcDbLine
 10
2028.708296365599
 20
968.1538295643528
 30
0.0
 11
2027.653208967119
 21
968.5405268782757
 31
0.0
  0
ARC
  5
D7C
330
CE8
100
AcDbEntity
  8
0
  6
Continuous
 62
     7
370
    15
100
AcDbCircle
 10
2031.487858089612
 20
973.4963357370601
 30
0.0
 40
11.37250703654948
100
AcDbArc
 50
175.0891814190512
 51
191.5527433741217
  0
ARC
  5
D7D
330
CE8
100
AcDbEntity
  8
0
  6
Continuous
 62
     7
370
    15
100
AcDbCircle
 10
2020.58267852309
 20
974.7574464420424
 30
0.0
 40
0.1112658183092221
100
AcDbArc
 50
170.9601386277332
 51
240.9798807782897
  0
LINE
  5
D7E
330
CE8
100
AcDbEntity
  8
0
  6
Continuous
 62
     7
370
    15
100
AcDbLine
 10
2021.371252152085
 20
976.485563270277
 30
0.0
 11
2021.476257691563
 21
976.5470143251903
 31
0.0
  0
ARC
  5
D7F
330
CE8
100
AcDbEntity
  8
0
  6
Continuous
 62
     7
370
    15
100
AcDbCircle
 10
2021.293477258256
 20
976.7933195742143
 30
0.0
 40
0.3067164203239696
100
AcDbArc
 50
306.5787061792371
 51
0.7263896174600506
  0
ARC
  5
D80
330
CE8
100
AcDbEntity
  8
0
  6
Continuous
 62
     7
370
    15
100
AcDbCircle
 10
2027.553133705648
 20
967.000644297213
 30
0.0
 40
1.555994481476452
100
AcDbArc
 50
128.270799530493
 51
180.4596442237221
  0
LINE
  5
D81
330
CE8
100
AcDbEntity
  8
0
  6
Continuous
 62
     7
370
    15
100
AcDbLine
 10
2026.589383408278
 20
968.222243327462
 30
0.0
 11
2027.644470806758
 21
967.8355460135394
 31
0.0
  0
LINE
  5
D82
330
CE8
100
AcDbEntity
  8
0
  6
Continuous
 62
     7
370
    15
100
AcDbLine
 10
2025.997189293766
 20
966.9881617686531
 30
0.0
 11
2027.052276692246
 21
966.6014644547303
 31
0.0
  0
LINE
  5
D83
330
CE8
100
AcDbEntity
  8
0
  6
Continuous
 62
     7
370
    15
100
AcDbLine
 10
2019.744817415515
 20
969.2797021798543
 30
0.0
 11
2018.689729704277
 21
969.6663996084049
 31
0.0
  0
LINE
  5
D84
330
CE8
100
AcDbEntity
  8
0
  6
Continuous
 62
     7
370
    15
100
AcDbLine
 10
2019.744817415515
 20
969.2797021798543
 30
0.0
 11
2019.758950589479
 21
966.420360636472
 31
0.0
  0
LINE
  5
D85
330
CE8
100
AcDbEntity
  8
0
  6
Continuous
 62
     7
370
    15
100
AcDbLine
 10
2026.011322467731
 20
964.1288202252708
 30
0.0
 11
2019.758950589479
 21
966.420360636472
 31
0.0
  0
LINE
  5
D86
330
CE8
100
AcDbEntity
  8
0
  6
Continuous
 62
     7
370
    15
100
AcDbLine
 10
2025.997189293766
 20
966.9881617686531
 30
0.0
 11
2026.011322467731
 21
964.1288202252708
 31
0.0
  0
LINE
  5
D87
330
CE8
100
AcDbEntity
  8
0
  6
Continuous
 62
     7
370
    15
100
AcDbLine
 10
2018.705838972882
 20
966.4072660925269
 30
0.0
 11
2027.06838596085
 21
963.3423309388524
 31
0.0
  0
LINE
  5
D88
330
CE8
100
AcDbEntity
  8
0
  6
Continuous
 62
     7
370
    15
100
AcDbLine
 10
2018.705838972882
 20
966.4072660925269
 30
0.0
 11
2018.689729704277
 21
969.6663996084049
 31
0.0
  0
ARC
  5
D89
330
CE8
100
AcDbEntity
  8
0
  6
Continuous
 62
     7
370
    15
100
AcDbCircle
 10
2022.8751356911
 20
973.7121122876374
 30
0.0
 40
1.683676217206068
100
AcDbArc
 50
157.0559737913156
 51
176.291450509602
  0
LINE
  5
D8A
330
CE8
100
AcDbEntity
  8
0
  6
Continuous
 62
     7
370
    15
100
AcDbLine
 10
2026.589383408278
 20
968.222243327462
 30
0.0
 11
2026.864975577116
 21
968.4006808949449
 31
0.0
  0
LINE
  5
D8B
330
CE8
100
AcDbEntity
  8
0
  6
Continuous
 62
     7
370
    15
100
AcDbLine
 10
2026.864975577116
 20
968.4006808949449
 30
0.0
 11
2020.612603698864
 21
970.6922213061462
 31
0.0
  0
LINE
  5
D8C
330
CE8
100
AcDbEntity
  8
0
  6
Continuous
 62
     7
370
    15
100
AcDbLine
 10
2020.337011530028
 20
970.5137837386633
 30
0.0
 11
2020.612603698864
 21
970.6922213061462
 31
0.0
  0
LINE
  5
D8D
330
CE8
100
AcDbEntity
  8
0
  6
Continuous
 62
     7
370
    15
100
AcDbLine
 10
2020.337011530028
 20
970.5137837386633
 30
0.0
 11
2019.28192381879
 21
970.9004811672141
 31
0.0
  0
LINE
  5
D8E
330
CE8
100
AcDbEntity
  8
0
  6
Continuous
 62
     7
370
    15
100
AcDbLine
 10
2019.93785849656
 20
971.3251710389721
 30
0.0
 11
2028.300405484529
 21
968.2602358852975
 31
0.0
  0
LINE
  5
D8F
330
CE8
100
AcDbEntity
  8
0
  6
Continuous
 62
     7
370
    15
100
AcDbLine
 10
2019.28192381879
 20
970.9004811672141
 30
0.0
 11
2019.93785849656
 21
971.3251710389721
 31
0.0
  0
LWPOLYLINE
  5
D90
330
CE8
100
AcDbEntity
  8
0
  6
Continuous
 62
     7
370
    15
100
AcDbPolyline
 90
        9
 70
   128
 43
0.0
 10
2019.716249642691
 20
975.0593677980809
 10
2019.728384165679
 20
974.8978981735021
 10
2019.762798374504
 20
974.7556093745741
 10
2019.818124703529
 20
974.6375786897761
 10
2019.892477109205
 20
974.5481563737195
 10
2019.983005653813
 20
974.4905461274987
 10
2020.086567370074
 20
974.4668799915141
 10
2020.199354298015
 20
974.4780271419521
 10
2020.317192255956
 20
974.5235039794486
  0
LINE
  5
D91
330
CE8
100
AcDbEntity
  8
0
  6
Continuous
 62
     7
370
    15
100
AcDbLine
 10
2020.317192255956
 20
974.5235039794486
 30
0.0
 11
2020.55791607015
 21
974.6494209262424
 31
0.0
  0
ARC
  5
D92
330
CE8
100
AcDbEntity
  8
0
  6
Continuous
 62
     7
370
    15
100
AcDbCircle
 10
2019.988601945613
 20
971.2610339005109
 30
0.0
 40
0.0817830676349987
100
AcDbArc
 50
72.66642267518006
 51
128.3500259338293
  0
ARC
  5
D93
330
CE8
100
AcDbEntity
  8
0
  6
Continuous
 62
     7
370
    15
100
AcDbCircle
 10
2020.805114842761
 20
970.4480537373667
 30
0.0
 40
0.3109314107130945
100
AcDbArc
 50
128.2536110266586
 51
180.4878045322595
  0
LINE
  5
D94
330
CE8
100
AcDbEntity
  8
0
  6
Continuous
 62
     7
370
    15
100
AcDbLine
 10
2020.500743580804
 20
969.1204752690444
 30
0.0
 11
2020.494194700866
 21
970.4454065629965
 31
0.0
  0
ARC
  5
D95
330
CE8
100
AcDbEntity
  8
0
  6
Continuous
 62
     7
370
    15
100
AcDbCircle
 10
2021.823919303475
 20
972.2353198462739
 30
0.0
 40
0.6211044375644215
100
AcDbArc
 50
179.8766810794731
 51
225.224891057717
  0
LINE
  5
D96
330
CE8
100
AcDbEntity
  8
0
  6
Continuous
 62
     7
370
    15
100
AcDbLine
 10
2021.400837088867
 20
970.8320672894769
 30
0.0
 11
2021.503016700229
 21
970.8918645624592
 31
0.0
  0
LINE
  5
D97
330
CE8
100
AcDbEntity
  8
0
  6
Continuous
 62
     7
370
    15
100
AcDbLine
 10
2020.34574937763
 20
971.2187647180275
 30
0.0
 11
2020.344113313984
 21
971.2178072653305
 31
0.0
  0
LINE
  5
D98
330
CE8
100
AcDbEntity
  8
0
  6
Continuous
 62
     7
370
    15
100
AcDbLine
 10
2019.153506273358
 20
962.0710238026333
 30
0.0
 11
2027.516053261327
 21
959.0060886489588
 31
0.0
  0
ARC
  5
D99
330
CE8
100
AcDbEntity
  8
0
  6
Continuous
 62
     7
370
    15
100
AcDbCircle
 10
2039.66415020948
 20
966.3797420331036
 30
0.0
 40
20.958329309942
100
AcDbArc
 50
179.9247548375652
 51
191.8637468062002
  0
LINE
  5
D9A
330
CE8
100
AcDbEntity
  8
0
  6
Continuous
 62
     7
370
    15
100
AcDbLine
 10
2021.627867628945
 20
971.193388534405
 30
0.0
 11
2027.562096174716
 21
969.0184500011996
 31
0.0
  0
ARC
  5
D9B
330
CE8
100
AcDbEntity
  8
0
  6
Continuous
 62
     7
370
    15
100
AcDbCircle
 10
2020.800954950479
 20
971.210243382632
 30
0.0
 40
0.8270844356631934
100
AcDbArc
 50
358.8323096408319
 51
44.9345774878413
  0
ARC
  5
D9C
330
CE8
100
AcDbEntity
  8
0
  6
Continuous
 62
     7
370
    15
100
AcDbCircle
 10
2020.610627396226
 20
969.1029930085447
 30
0.0
 40
0.1112658183081669
100
AcDbArc
 50
170.9601386273628
 51
240.9798807786776
  0
ARC
  5
D9D
330
CE8
100
AcDbEntity
  8
0
  6
Continuous
 62
     7
370
    15
100
AcDbCircle
 10
2020.06535950466
 20
966.424400579244
 30
0.0
 40
0.3064355469581762
100
AcDbArc
 50
126.5691349628421
 51
180.7553900924471
  0
ARC
  5
D9E
330
CE8
100
AcDbEntity
  8
0
  6
Continuous
 62
     7
370
    15
100
AcDbCircle
 10
2019.208966121222
 20
975.3579436655071
 30
0.0
 40
0.5548466814027114
100
AcDbArc
 50
170.8615037111046
 51
241.1031964627513
  0
LINE
  5
D9F
330
CE8
100
AcDbEntity
  8
0
  6
Continuous
 62
     7
370
    15
100
AcDbLine
 10
2019.882787561201
 20
966.6705107779378
 30
0.0
 11
2020.386248965069
 21
966.9651450851361
 31
0.0
  0
ARC
  5
DA0
330
CE8
100
AcDbEntity
  8
0
  6
Continuous
 62
     7
370
    15
100
AcDbCircle
 10
2021.31844170779
 20
971.1405447432666
 30
0.0
 40
0.3096930095435407
100
AcDbArc
 50
306.5834824034149
 51
0.7360883569553978
  0
LINE
  5
DA1
330
CE8
100
AcDbEntity
  8
0
  6
Continuous
 62
     7
370
    15
100
AcDbLine
 10
2021.628109160323
 20
971.1445233111424
 30
0.0
 11
2021.627867628945
 21
971.193388534405
 31
0.0
  0
ARC
  5
DA2
330
CE8
100
AcDbEntity
  8
0
  6
Continuous
 62
     7
370
    15
100
AcDbCircle
 10
2020.819089214086
 20
967.6208402203
 30
0.0
 40
0.3109314107132501
100
AcDbArc
 50
128.2536110266729
 51
180.48780453224
  0
LINE
  5
DA3
330
CE8
100
AcDbEntity
  8
0
  6
Continuous
 62
     7
370
    15
100
AcDbLine
 10
2020.508169072191
 20
967.6181930459303
 30
0.0
 11
2020.510160303319
 21
967.2153387471794
 31
0.0
  0
LINE
  5
DA4
330
CE8
100
AcDbEntity
  8
0
  6
Continuous
 62
     7
370
    15
100
AcDbLine
 10
2021.00684634308
 20
968.1111901734137
 30
0.0
 11
2020.626578070189
 21
967.8650077890798
 31
0.0
  0
ARC
  5
DA5
330
CE8
100
AcDbEntity
  8
0
  6
Continuous
 62
     7
370
    15
100
AcDbCircle
 10
2020.203339589854
 20
967.2115141941487
 30
0.0
 40
0.3068445492704938
100
AcDbArc
 50
306.590934760074
 51
0.7141610366823251
  0
ARC
  5
DA6
330
CE8
100
AcDbEntity
  8
0
  6
Continuous
 62
     7
370
    15
100
AcDbCircle
 10
2021.05781283507
 20
968.0463747947117
 30
0.0
 40
0.0824537241250646
100
AcDbArc
 50
72.92002258972269
 51
128.1791498042909
  0
LINE
  5
DA7
330
CE8
100
AcDbEntity
  8
0
  6
Continuous
 62
     7
370
    15
100
AcDbLine
 10
2021.64064478234
 20
968.6083891845102
 30
0.0
 11
2021.642092404761
 21
968.3155146373058
 31
0.0
  0
LINE
  5
DA8
330
CE8
100
AcDbEntity
  8
0
  6
Continuous
 62
     7
370
    15
100
AcDbLine
 10
2033.133165611976
 20
998.4391921688517
 30
0.0
 11
2033.322035207096
 21
993.7256060859278
 31
0.0
  0
LINE
  5
DA9
330
CE8
100
AcDbEntity
  8
0
  6
Continuous
 62
     7
370
    15
100
AcDbLine
 10
2021.518181066511
 20
968.0653209752625
 30
0.0
 11
2021.413101160504
 21
968.0038263997721
 31
0.0
  0
ARC
  5
DAA
330
CE8
100
AcDbEntity
  8
0
  6
Continuous
 62
     7
370
    15
100
AcDbCircle
 10
2021.335435746074
 20
968.3116088342266
 30
0.0
 40
0.3066815312574833
100
AcDbArc
 50
306.575374378048
 51
0.7297214187224283
  0
LINE
  5
DAB
330
CE8
100
AcDbEntity
  8
0
  6
Continuous
 62
     7
370
    15
100
AcDbLine
 10
2039.528904206772
 20
1007.022681339076
 30
0.0
 11
2047.891451194741
 21
1003.957746185402
 31
0.0
  0
LINE
  5
DAC
330
CE8
100
AcDbEntity
  8
0
  6
Continuous
 62
     7
370
    15
100
AcDbLine
 10
2040.756039850314
 20
1001.306804666105
 30
0.0
 11
2035.597832809649
 21
1003.197325593714
 31
0.0
  0
LINE
  5
DAD
330
CE8
100
AcDbEntity
  8
0
  6
Continuous
 62
     7
370
    15
100
AcDbLine
 10
2044.366757951052
 20
1003.419859247701
 30
0.0
 11
2040.756039850314
 21
1001.306804666105
 31
0.0
  0
LINE
  5
DAE
330
CE8
100
AcDbEntity
  8
0
  6
Continuous
 62
     7
370
    15
100
AcDbLine
 10
2044.366757951052
 20
1003.419859247701
 30
0.0
 11
2039.208550910387
 21
1005.31038017531
 31
0.0
  0
LINE
  5
DAF
330
CE8
100
AcDbEntity
  8
0
  6
Continuous
 62
     7
370
    15
100
AcDbLine
 10
2039.208550910387
 20
1005.31038017531
 30
0.0
 11
2035.597832809649
 21
1003.197325593714
 31
0.0
  0
LINE
  5
DB0
330
CE8
100
AcDbEntity
  8
0
  6
Continuous
 62
     7
370
    15
100
AcDbLine
 10
2033.962643849593
 20
1003.76520966116
 30
0.0
 11
2039.528904206772
 21
1007.022681339076
 31
0.0
  0
LINE
  5
DB1
330
CE8
100
AcDbEntity
  8
0
  6
Continuous
 62
     7
370
    15
100
AcDbLine
 10
2024.80200322647
 20
953.7981108858446
 30
0.0
 11
2028.983276655059
 21
952.265643332975
 31
0.0
  0
LINE
  5
DB2
330
CE8
100
AcDbEntity
  8
0
  6
Continuous
 62
     7
370
    15
100
AcDbLine
 10
2024.819099112827
 20
953.7192896279988
 30
0.0
 11
2024.80200322647
 21
953.7981108858446
 31
0.0
  0
LINE
  5
DB3
330
CE8
100
AcDbEntity
  8
0
  6
Continuous
 62
     7
370
    15
100
AcDbLine
 10
2024.819099112827
 20
953.7192896279988
 30
0.0
 11
2028.844063512863
 21
952.2441104870377
 31
0.0
  0
LINE
  5
DB4
330
CE8
100
AcDbEntity
  8
0
  6
Continuous
 62
     7
370
    15
100
AcDbLine
 10
2028.844063512863
 20
952.2441104870377
 30
0.0
 11
2030.943019268671
 21
942.6013630753375
 31
0.0
  0
LINE
  5
DB5
330
CE8
100
AcDbEntity
  8
0
  6
Continuous
 62
     7
370
    15
100
AcDbLine
 10
2023.394771331223
 20
945.724776815889
 30
0.0
 11
2023.124082792205
 21
946.968493261137
 31
0.0
  0
LINE
  5
DB6
330
CE8
100
AcDbEntity
  8
0
  6
Continuous
 62
     7
370
    15
100
AcDbLine
 10
2022.577000259682
 20
947.1690030446159
 30
0.0
 11
2023.124082792205
 21
946.968493261137
 31
0.0
  0
LINE
  5
DB7
330
CE8
100
AcDbEntity
  8
0
  6
Continuous
 62
     7
370
    15
100
AcDbLine
 10
2020.833212174643
 20
955.1801465909537
 30
0.0
 11
2022.577000259682
 21
947.1690030446159
 31
0.0
  0
LINE
  5
DB8
330
CE8
100
AcDbEntity
  8
0
  6
Continuous
 62
     7
370
    15
100
AcDbLine
 10
2020.637825553448
 20
955.2517572288037
 30
0.0
 11
2020.833212174643
 21
955.1801465909537
 31
0.0
  0
LINE
  5
DB9
330
CE8
100
AcDbEntity
  8
0
  6
Continuous
 62
     7
370
    15
100
AcDbLine
 10
2020.637825553448
 20
955.2517572288037
 30
0.0
 11
2019.153506273358
 21
962.0710238026333
 31
0.0
  0
ARC
  5
DBA
330
CE8
100
AcDbEntity
  8
0
  6
Continuous
 62
     7
370
    15
100
AcDbCircle
 10
2021.300761827397
 20
969.2921847084141
 30
0.0
 40
1.555994481476447
100
AcDbArc
 50
128.270799530493
 51
180.4596442237221
  0
ARC
  5
DBB
330
CE8
100
AcDbEntity
  8
0
  6
Continuous
 62
     7
370
    15
100
AcDbCircle
 10
2020.245674116159
 20
969.6788821369649
 30
0.0
 40
1.555994481476487
100
AcDbArc
 50
128.270799530493
 51
180.4596442237221
  0
LINE
  5
DBC
330
CE8
100
AcDbEntity
  8
0
  6
Continuous
 62
     7
370
    15
100
AcDbLine
 10
2041.723157074299
 20
1001.872768727962
 30
0.0
 11
2040.233380591162
 21
1002.418782797701
 31
0.0
  0
LINE
  5
DBD
330
CE8
100
AcDbEntity
  8
0
  6
Continuous
 62
     7
370
    15
100
AcDbLine
 10
2037.022874244156
 20
1003.595457054741
 30
0.0
 11
2036.055811896166
 21
1003.029515469688
 31
0.0
  0
LINE
  5
DBE
330
CE8
100
AcDbEntity
  8
0
  6
Continuous
 62
     7
370
    15
100
AcDbLine
 10
2038.523270377891
 20
1003.045550804727
 30
0.0
 11
2037.022874244156
 21
1003.595457054741
 31
0.0
  0
ELLIPSE
  5
DBF
330
CE8
100
AcDbEntity
  8
0
  6
Continuous
 62
     7
370
    15
100
AcDbEllipse
 10
2040.01180967558
 20
1003.102903166004
 30
0.0
 11
1.491108605041119
 21
0.020613662430435
 31
0.0
210
0.0
220
0.0
230
1.0
 40
0.4654810707229739
 41
3.194550785095787
 42
4.855117719976323
  0
ELLIPSE
  5
DC0
330
CE8
100
AcDbEntity
  8
0
  6
Continuous
 62
     7
370
    15
100
AcDbEllipse
 10
2040.183374830184
 20
1001.870739060144
 30
0.0
 11
1.491108605041105
 21
0.0206136624305486
 31
0.0
210
0.0
220
0.0
230
0.9999999999999998
 40
0.4654810707230929
 41
1.406840374544426
 42
1.713525066388768
  0
LINE
  5
DC1
330
CE8
100
AcDbEntity
  8
0
  6
Continuous
 62
     7
370
    15
100
AcDbLine
 10
2040.417280945732
 20
1002.558879246032
 30
0.0
 11
2040.431261853254
 21
1002.567061114533
 31
0.0
  0
LINE
  5
DC2
330
CE8
100
AcDbEntity
  8
0
  6
Continuous
 62
     7
370
    15
100
AcDbLine
 10
2040.431261853254
 20
1002.567061114533
 30
0.0
 11
2041.573717168155
 21
1002.148342814812
 31
0.0
  0
ELLIPSE
  5
DC3
330
CE8
100
AcDbEntity
  8
0
  6
Continuous
 62
     7
370
    15
100
AcDbEllipse
 10
2040.183374830184
 20
1001.870739060144
 30
0.0
 11
1.491108605041105
 21
0.0206136624305486
 31
0.0
210
0.0
220
0.0
230
0.9999999999999998
 40
0.4654810707230929
 41
0.0529581315035277
 42
0.3596428233478259
  0
LINE
  5
DC4
330
CE8
100
AcDbEntity
  8
0
  6
Continuous
 62
     7
370
    15
100
AcDbLine
 10
2041.671875653849
 20
1001.928065107376
 30
0.0
 11
2041.738197882991
 21
1001.9037575212
 31
0.0
  0
LINE
  5
DC5
330
CE8
100
AcDbEntity
  8
0
  6
Continuous
 62
     7
370
    15
100
AcDbLine
 10
2041.738197882991
 20
1001.9037575212
 30
0.0
 11
2041.761491602543
 21
1001.895220201168
 31
0.0
  0
LINE
  5
DC6
330
CE8
100
AcDbEntity
  8
0
  6
Continuous
 62
     7
370
    15
100
AcDbLine
 10
2038.461369306844
 20
1003.104739364417
 30
0.0
 11
2038.423070544216
 21
1003.082326267193
 31
0.0
  0
LINE
  5
DC7
330
CE8
100
AcDbEntity
  8
0
  6
Continuous
 62
     7
370
    15
100
AcDbLine
 10
2038.461369306844
 20
1003.104739364417
 30
0.0
 11
2039.961765440578
 21
1002.554833114403
 31
0.0
  0
LINE
  5
DC8
330
CE8
100
AcDbEntity
  8
0
  6
Continuous
 62
     7
370
    15
100
AcDbLine
 10
2041.500288421657
 20
1003.160199483144
 30
0.0
 11
2041.671875653849
 21
1001.928065107376
 31
0.0
  0
LINE
  5
DC9
330
CE8
100
AcDbEntity
  8
0
  6
Continuous
 62
     7
370
    15
100
AcDbLine
 10
2042.990065268729
 20
1002.61418528002
 30
0.0
 11
2041.500288421657
 21
1003.160199483144
 31
0.0
  0
LINE
  5
DCA
330
CE8
100
AcDbEntity
  8
0
  6
Continuous
 62
     7
370
    15
100
AcDbLine
 10
2042.333025032736
 20
1003.910060042439
 30
0.0
 11
2041.404112714314
 21
1003.366444513456
 31
0.0
  0
LINE
  5
DCB
330
CE8
100
AcDbEntity
  8
0
  6
Continuous
 62
     7
370
    15
100
AcDbLine
 10
2044.098647122121
 20
1003.262946523359
 30
0.0
 11
2042.333025032736
 21
1003.910060042439
 31
0.0
  0
ELLIPSE
  5
DCC
330
CE8
100
AcDbEntity
  8
0
  6
Continuous
 62
     7
370
    15
100
AcDbEllipse
 10
2040.01180967558
 20
1003.102903166003
 30
0.0
 11
1.491108605041091
 21
0.0206136624306339
 31
0.0
210
0.0
220
0.0
230
1.0
 40
0.4654810707231353
 41
0.0529583806174648
 42
0.3596428233477483
  0
LINE
  5
DCD
330
CE8
100
AcDbEntity
  8
0
  6
Continuous
 62
     7
370
    15
100
AcDbLine
 10
2039.26468895669
 20
1004.907416179071
 30
0.0
 11
2039.208550910387
 21
1005.31038017531
 31
0.0
  0
LINE
  5
DCE
330
CE8
100
AcDbEntity
  8
0
  6
Continuous
 62
     7
370
    15
100
AcDbLine
 10
2041.404112714314
 20
1003.366444513456
 30
0.0
 11
2041.575699582571
 21
1002.134310271074
 31
0.0
  0
ARC
  5
DCF
330
CE8
100
AcDbEntity
  8
0
  6
Continuous
 62
     7
370
    15
100
AcDbCircle
 10
2085.761524147831
 20
974.7128267577142
 30
0.0
 40
0.7427889493665358
100
AcDbArc
 50
306.0234961430682
 51
352.5299981768907
  0
LINE
  5
DD0
330
CE8
100
AcDbEntity
  8
0
  6
Continuous
 62
     7
370
    15
100
AcDbLine
 10
2088.247347637011
 20
985.1883143192837
 30
0.0
 11
2086.49800909543
 21
974.6162589304594
 31
0.0
  0
LWPOLYLINE
  5
DD1
330
CE8
100
AcDbEntity
  8
0
  6
Continuous
 62
     7
370
    15
100
AcDbPolyline
 90
        9
 70
   128
 43
0.0
 10
2087.943333072241
 20
985.5695406353184
 10
2088.014187161498
 20
985.5994093032002
 10
2088.081508726686
 20
985.6046004057164
 10
2088.141719301281
 20
985.5848201119346
 10
2088.19168126797
 20
985.541118088321
 10
2088.228698902547
 20
985.4756763038247
 10
2088.251038939615
 20
985.3921136739188
 10
2088.257338250097
 20
985.2946099086977
 10
2088.247347637011
 20
985.1883143192837
  0
LINE
  5
DD2
330
CE8
100
AcDbEntity
  8
0
  6
Continuous
 62
     7
370
    15
100
AcDbLine
 10
2075.798609526561
 20
978.4622387041132
 30
0.0
 11
2087.943333072241
 21
985.5695406353184
 31
0.0
  0
ARC
  5
DD3
330
CE8
100
AcDbEntity
  8
0
  6
Continuous
 62
     7
370
    15
100
AcDbCircle
 10
2076.244750953178
 20
977.8542559195855
 30
0.0
 40
0.7541122189876525
100
AcDbArc
 50
126.2714454690466
 51
175.2669087983003
  0
LINE
  5
DD4
330
CE8
100
AcDbEntity
  8
0
  6
Continuous
 62
     7
370
    15
100
AcDbLine
 10
2074.700243477138
 20
970.7824193630063
 30
0.0
 11
2075.493210334547
 21
977.9164808131055
 31
0.0
  0
ARC
  5
DD5
330
CE8
100
AcDbEntity
  8
0
  6
Continuous
 62
     7
370
    15
100
AcDbCircle
 10
2073.196814319278
 20
970.9069924727225
 30
0.0
 40
1.508581350927983
100
AcDbArc
 50
306.2814045574189
 51
355.263331327377
  0
LINE
  5
DD6
330
CE8
100
AcDbEntity
  8
0
  6
Continuous
 62
     7
370
    15
100
AcDbLine
 10
2074.089519720614
 20
969.6908943028393
 30
0.0
 11
2073.798151658523
 21
969.5203806816275
 31
0.0
  0
LWPOLYLINE
  5
DD7
330
CE8
100
AcDbEntity
  8
0
  6
Continuous
 62
     7
370
    15
100
AcDbPolyline
 90
        9
 70
   128
 43
0.0
 10
2073.798151658523
 20
969.5203806816275
 10
2073.681691183228
 20
969.4678202039671
 10
2073.569169763139
 20
969.4482238218732
 10
2073.464536914507
 20
969.4622613653491
 10
2073.371449645965
 20
969.5094254062471
 10
2073.293197570063
 20
969.5880933351496
 10
2073.232553909221
 20
969.6954931189413
 10
2073.191551221772
 20
969.8278103333581
 10
2073.171778215634
 20
969.9804942421163
  0
LINE
  5
DD8
330
CE8
100
AcDbEntity
  8
0
  6
Continuous
 62
     7
370
    15
100
AcDbLine
 10
2073.171778215634
 20
969.9804942421163
 30
0.0
 11
2072.81460761879
 21
976.4081954042172
 31
0.0
  0
LWPOLYLINE
  5
DD9
330
CE8
100
AcDbEntity
  8
0
  6
Continuous
 62
     7
370
    15
100
AcDbPolyline
 90
        9
 70
   128
 43
0.0
 10
2072.81460761879
 20
976.4081954042172
 10
2072.804758298985
 20
976.4845591188848
 10
2072.784219771996
 20
976.5506959658045
 10
2072.753897876332
 20
976.6044090573826
 10
2072.714771903624
 20
976.6437298221516
 10
2072.668265387375
 20
976.6673468025715
 10
2072.615949028302
 20
976.6743523746272
 10
2072.559688383501
 20
976.6645409838982
 10
2072.501420897345
 20
976.6382521844617
  0
LINE
  5
DDA
330
CE8
100
AcDbEntity
  8
0
  6
Continuous
 62
     7
370
    15
100
AcDbLine
 10
2072.501420897345
 20
976.6382521844617
 30
0.0
 11
2070.761467209561
 21
975.6200012412532
 31
0.0
  0
ARC
  5
DDB
330
CE8
100
AcDbEntity
  8
0
  6
Continuous
 62
     7
370
    15
100
AcDbCircle
 10
2071.219259667568
 20
975.0038283507326
 30
0.0
 40
0.767621629203079
100
AcDbArc
 50
126.6109110222124
 51
182.9551839084519
  0
LINE
  5
DDC
330
CE8
100
AcDbEntity
  8
0
  6
Continuous
 62
     7
370
    15
100
AcDbLine
 10
2070.452658847832
 20
974.9642537528023
 30
0.0
 11
2070.883429956434
 21
967.2110680510959
 31
0.0
  0
ARC
  5
DDD
330
CE8
100
AcDbEntity
  8
0
  6
Continuous
 62
     7
370
    15
100
AcDbCircle
 10
2072.415855430792
 20
967.2466934761459
 30
0.0
 40
1.532839523685866
100
AcDbArc
 50
181.3317573528747
 51
209.5553475958933
  0
ARC
  5
DDE
330
CE8
100
AcDbEntity
  8
0
  6
Continuous
 62
     7
370
    15
100
AcDbCircle
 10
2072.008137686303
 20
967.054921323986
 30
0.0
 40
1.084122395683883
100
AcDbArc
 50
211.3680765189788
 51
307.1648775619828
  0
LINE
  5
DDF
330
CE8
100
AcDbEntity
  8
0
  6
Continuous
 62
     7
370
    15
100
AcDbLine
 10
2086.198370933072
 20
974.1120769682632
 30
0.0
 11
2072.663067654611
 21
966.1909837652258
 31
0.0
  0
LINE
  5
DE0
330
CE8
100
AcDbEntity
  8
0
  6
Continuous
 62
     7
370
    15
100
AcDbLine
 10
2073.752117188371
 20
977.3701812507042
 30
0.0
 11
2074.544195092744
 21
977.8337189177602
 31
0.0
  0
ARC
  5
DE1
330
CE8
100
AcDbEntity
  8
0
  6
Continuous
 62
     7
370
    15
100
AcDbCircle
 10
2074.209909646378
 20
976.7540083601831
 30
0.0
 40
0.7676216292033398
100
AcDbArc
 50
126.6109110222306
 51
182.9551839084324
  0
LINE
  5
DE2
330
CE8
100
AcDbEntity
  8
0
  6
Continuous
 62
     7
370
    15
100
AcDbLine
 10
2073.443308826643
 20
976.7144337622532
 30
0.0
 11
2073.690129344514
 21
972.2722488356474
 31
0.0
  0
LWPOLYLINE
  5
DE3
330
CE8
100
AcDbEntity
  8
0
  6
Continuous
 62
     7
370
    15
100
AcDbPolyline
 90
        9
 70
   128
 43
0.0
 10
2073.690129344514
 20
972.2722488356474
 10
2073.71870629721
 20
972.1339836530624
 10
2073.783975938805
 20
972.0412845776444
 10
2073.877451078848
 20
972.0061821760372
 10
2073.986952428297
 20
972.0332247138117
 10
2074.098252361901
 20
972.1188780456675
 10
2074.197011188186
 20
972.2521027637908
 10
2074.270263175178
 20
972.4154886030394
 10
2074.308640760957
 20
972.5879328251981
  0
LINE
  5
DE4
330
CE8
100
AcDbEntity
  8
0
  6
Continuous
 62
     7
370
    15
100
AcDbLine
 10
2074.308640760957
 20
972.5879328251981
 30
0.0
 11
2074.853972513986
 21
977.4936989394372
 31
0.0
  0
LWPOLYLINE
  5
DE5
330
CE8
100
AcDbEntity
  8
0
  6
Continuous
 62
     7
370
    15
100
AcDbPolyline
 90
        9
 70
   128
 43
0.0
 10
2074.544195092744
 20
977.8337189177602
 10
2074.611771835229
 20
977.8627286548188
 10
2074.676252074838
 20
977.8693811003876
 10
2074.734579607084
 20
977.853343875839
 10
2074.783916760022
 20
977.8153391420259
 10
2074.822091245866
 20
977.7572727259238
 10
2074.847150875214
 20
977.681788201618
 10
2074.85795888075
 20
977.5925358568272
 10
2074.853972513986
 20
977.4936989394372
  0
LINE
  5
DE6
330
CE8
100
AcDbEntity
  8
0
  6
Continuous
 62
     7
370
    15
100
AcDbLine
 10
2042.722706767158
 20
958.7386162520049
 30
0.0
 11
2043.581420527165
 21
952.5711468200558
 31
0.0
  0
LWPOLYLINE
  5
DE7
330
CE8
100
AcDbEntity
  8
0
  6
Continuous
 62
     7
370
    15
100
AcDbPolyline
 90
        9
 70
   128
 43
0.0
 10
2042.413689693476
 20
958.92480713473
 10
2042.467861670551
 20
958.9497846763592
 10
2042.520537585453
 20
958.9605694056412
 10
2042.569929509792
 20
958.956750413467
 10
2042.614694018019
 20
958.9385211059264
 10
2042.653411360755
 20
958.9064273589958
 10
2042.684883452851
 20
958.8614360033899
 10
2042.708208631379
 20
958.8048991470461
 10
2042.722706767158
 20
958.7386162520049
  0
LINE
  5
DE8
330
CE8
100
AcDbEntity
  8
0
  6
Continuous
 62
     7
370
    15
100
AcDbLine
 10
2030.268966147795
 20
951.8175052035248
 30
0.0
 11
2042.413689693476
 21
958.92480713473
 31
0.0
  0
ARC
  5
DE9
330
CE8
100
AcDbEntity
  8
0
  6
Continuous
 62
     7
370
    15
100
AcDbCircle
 10
2030.718859504079
 20
951.2067904127651
 30
0.0
 40
0.7585358183243054
100
AcDbArc
 50
126.3778442185313
 51
189.3441266408049
  0
LINE
  5
DEA
330
CE8
100
AcDbEntity
  8
0
  6
Continuous
 62
     7
370
    15
100
AcDbLine
 10
2031.813920317148
 20
942.6141859052311
 30
0.0
 11
2029.97038872504
 21
951.0836316509719
 31
0.0
  0
ARC
  5
DEB
330
CE8
100
AcDbEntity
  8
0
  6
Continuous
 62
     7
370
    15
100
AcDbCircle
 10
2032.007425021266
 20
942.6224575919954
 30
0.0
 40
0.1936814170687988
100
AcDbArc
 50
182.4477151086
 51
304.3558333877111
  0
LINE
  5
DEC
330
CE8
100
AcDbEntity
  8
0
  6
Continuous
 62
     7
370
    15
100
AcDbLine
 10
2045.652028687717
 20
950.3836573414359
 30
0.0
 11
2032.116725409256
 21
942.4625641383988
 31
0.0
  0
ARC
  5
DED
330
CE8
100
AcDbEntity
  8
0
  6
Continuous
 62
     7
370
    15
100
AcDbCircle
 10
2043.33779095583
 20
953.7233031550634
 30
0.0
 40
4.063118314812839
100
AcDbArc
 50
304.7203735154374
 51
342.8647677906878
  0
ARC
  5
DEE
330
CE8
100
AcDbEntity
  8
0
  6
Continuous
 62
     7
370
    15
100
AcDbCircle
 10
2044.115881856514
 20
953.6443669480338
 30
0.0
 40
3.299895245061882
100
AcDbArc
 50
340.1931243076734
 51
357.0552640518237
  0
LINE
  5
DEF
330
CE8
100
AcDbEntity
  8
0
  6
Continuous
 62
     7
370
    15
100
AcDbLine
 10
2047.411419755961
 20
953.4748423725442
 30
0.0
 11
2047.7632820025
 21
961.6860386280109
 31
0.0
  0
LWPOLYLINE
  5
DF0
330
CE8
100
AcDbEntity
  8
0
  6
Continuous
 62
     7
370
    15
100
AcDbPolyline
 90
        9
 70
   128
 43
0.0
 10
2047.7632820025
 20
961.6860386280109
 10
2047.760677541875
 20
961.7753791494465
 10
2047.74522006793
 20
961.8546826714323
 10
2047.717448414546
 20
961.9205579270106
 10
2047.678569279012
 20
961.9702957274245
 10
2047.630159494933
 20
962.0017476785392
 10
2047.574313590907
 20
962.0136508162724
 10
2047.513346063432
 20
962.0055063230168
 10
2047.449791246421
 20
961.977605927003
  0
LINE
  5
DF1
330
CE8
100
AcDbEntity
  8
0
  6
Continuous
 62
     7
370
    15
100
AcDbLine
 10
2047.449791246421
 20
961.977605927003
 30
0.0
 11
2045.709837558636
 21
960.9593549837946
 31
0.0
  0
ARC
  5
DF2
330
CE8
100
AcDbEntity
  8
0
  6
Continuous
 62
     7
370
    15
100
AcDbCircle
 10
2046.163885797924
 20
960.345556299492
 30
0.0
 40
0.7634845305907257
100
AcDbArc
 50
126.491621086103
 51
178.5350954156504
  0
LINE
  5
DF3
330
CE8
100
AcDbEntity
  8
0
  6
Continuous
 62
     7
370
    15
100
AcDbLine
 10
2045.400650795743
 20
960.3650744935141
 30
0.0
 11
2045.108973423791
 21
953.5576562959176
 31
0.0
  0
ARC
  5
DF4
330
CE8
100
AcDbEntity
  8
0
  6
Continuous
 62
     7
370
    15
100
AcDbCircle
 10
2043.582756500893
 20
953.5965372842072
 30
0.0
 40
1.526712096955502
100
AcDbArc
 50
306.4938837248703
 51
358.5406826775205
  0
LINE
  5
DF5
330
CE8
100
AcDbEntity
  8
0
  6
Continuous
 62
     7
370
    15
100
AcDbLine
 10
2044.490748631063
 20
952.3691823565112
 30
0.0
 11
2044.199380568972
 21
952.1986687352995
 31
0.0
  0
LWPOLYLINE
  5
DF6
330
CE8
100
AcDbEntity
  8
0
  6
Continuous
 62
     7
370
    15
100
AcDbPolyline
 90
        9
 70
   128
 43
0.0
 10
2043.581420527165
 20
952.5711468200558
 10
2043.610268326636
 20
952.4384411900907
 10
2043.656918553206
 20
952.3253938767673
 10
2043.719937234414
 20
952.2354282867683
 10
2043.797371919886
 20
952.1712407929069
 10
2043.886900675367
 20
952.134834976554
 10
2043.985758890574
 20
952.1272405127829
 10
2044.09096198732
 20
952.1487229301923
 10
2044.199380568972
 20
952.1986687352995
  0
LWPOLYLINE
  5
DF7
330
CE8
100
AcDbEntity
  8
0
  6
Continuous
 62
     7
370
    15
100
AcDbPolyline
 90
        9
 70
   128
 43
0.0
 10
2044.45914126761
 20
960.2274259175519
 10
2044.522696084622
 20
960.2553263135659
 10
2044.583663612097
 20
960.2634708068215
 10
2044.639509516123
 20
960.2515676690883
 10
2044.687919300201
 20
960.2201157179736
 10
2044.726798435736
 20
960.1703779175597
 10
2044.75457008912
 20
960.1045026619814
 10
2044.770101929594
 20
960.0252426605727
 10
2044.77263202369
 20
959.9358586185598
  0
LINE
  5
DF8
330
CE8
100
AcDbEntity
  8
0
  6
Continuous
 62
     7
370
    15
100
AcDbLine
 10
2044.45914126761
 20
960.2274259175519
 30
0.0
 11
2043.666988996708
 21
959.7638447299187
 31
0.0
  0
ARC
  5
DF9
330
CE8
100
AcDbEntity
  8
0
  6
Continuous
 62
     7
370
    15
100
AcDbCircle
 10
2044.122304690373
 20
959.1495394030335
 30
0.0
 40
0.7646459412934556
100
AcDbArc
 50
126.5453961001816
 51
186.4002919944525
  0
LINE
  5
DFA
330
CE8
100
AcDbEntity
  8
0
  6
Continuous
 62
     7
370
    15
100
AcDbLine
 10
2043.362424518786
 20
959.0643012638903
 30
0.0
 11
2043.952892768899
 21
954.8232249242213
 31
0.0
  0
LWPOLYLINE
  5
DFB
330
CE8
100
AcDbEntity
  8
0
  6
Continuous
 62
     7
370
    15
100
AcDbPolyline
 90
        9
 70
   128
 43
0.0
 10
2043.952892768899
 20
954.8232249242213
 10
2043.992748772023
 20
954.6965643492079
 10
2044.067263078898
 20
954.6196538967249
 10
2044.166765419926
 20
954.6024550372413
 10
2044.27826760833
 20
954.6471893544794
 10
2044.387403855243
 20
954.7480973134796
 10
2044.479919405167
 20
954.892044678499
 10
2044.543898791625
 20
955.0603825169766
 10
2044.571022369432
 20
955.2312446118349
  0
LINE
  5
DFC
330
CE8
100
AcDbEntity
  8
0
  6
Continuous
 62
     7
370
    15
100
AcDbLine
 10
2044.77263202369
 20
959.9358586185598
 30
0.0
 11
2044.571022369432
 21
955.2312446118349
 31
0.0
  0
LINE
  5
DFD
330
CE8
100
AcDbEntity
  8
0
  6
Continuous
 62
     7
370
    15
100
AcDbLine
 10
2070.049432694742
 20
965.9939892956758
 30
0.0
 11
2069.279565395274
 21
967.419546184241
 31
0.0
  0
ARC
  5
DFE
330
CE8
100
AcDbEntity
  8
0
  6
Continuous
 62
     7
370
    15
100
AcDbCircle
 10
2069.973031073087
 20
967.6522679490783
 30
0.0
 40
0.7314738998313217
100
AcDbArc
 50
131.0899183768
 51
198.5513578166344
  0
LINE
  5
DFF
330
CE8
100
AcDbEntity
  8
0
  6
Continuous
 62
     7
370
    15
100
AcDbLine
 10
2069.492275235724
 20
968.2035645035535
 30
0.0
 11
2069.79776622835
 21
968.4591491930518
 31
0.0
  0
ARC
  5
E00
330
CE8
100
AcDbEntity
  8
0
  6
Continuous
 62
     7
370
    15
100
AcDbCircle
 10
2069.577047315114
 20
968.6948754557322
 30
0.0
 40
0.322929883376134
100
AcDbArc
 50
313.1168644297961
 51
359.8344013132841
  0
LINE
  5
E01
330
CE8
100
AcDbEntity
  8
0
  6
Continuous
 62
     7
370
    15
100
AcDbLine
 10
2069.899975849693
 20
968.6939421114162
 30
0.0
 11
2069.896674659896
 21
969.3618196280676
 31
0.0
  0
LWPOLYLINE
  5
E02
330
CE8
100
AcDbEntity
  8
0
  6
Continuous
 62
     7
370
    15
100
AcDbPolyline
 90
        9
 70
   128
 43
0.0
 10
2069.896674659896
 20
969.3618196280676
 10
2069.894430854208
 20
969.3932834648732
 10
2069.887879400755
 20
969.4210879355418
 10
2069.877397482151
 20
969.4443682690234
 10
2069.863361759059
 20
969.4623652917261
 10
2069.846074134156
 20
969.474355507573
 10
2069.826356553872
 20
969.4800256619846
 10
2069.804732324139
 20
969.4791260123514
 10
2069.781947067557
 20
969.4716957739803
  0
LINE
  5
E03
330
CE8
100
AcDbEntity
  8
0
  6
Continuous
 62
     7
370
    15
100
AcDbLine
 10
2069.781947067557
 20
969.4716957739803
 30
0.0
 11
2069.161423818128
 21
969.1858110261966
 31
0.0
  0
LWPOLYLINE
  5
E04
330
CE8
100
AcDbEntity
  8
0
  6
Continuous
 62
     7
370
    15
100
AcDbPolyline
 90
        9
 70
   128
 43
0.0
 10
2069.161423818128
 20
969.1858110261966
 10
2069.127245998497
 20
969.174652468958
 10
2069.094809653899
 20
969.173302994508
 10
2069.065158916944
 20
969.1817647055483
 10
2069.039264728097
 20
969.1997585899253
 10
2069.018173960195
 20
969.2267323636906
 10
2069.002413703293
 20
969.261670702671
 10
2068.992660954887
 20
969.3034077295685
 10
2068.989221010312
 20
969.3505335648357
  0
LINE
  5
E05
330
CE8
100
AcDbEntity
  8
0
  6
Continuous
 62
     7
370
    15
100
AcDbLine
 10
2068.989221010312
 20
969.3505335648357
 30
0.0
 11
2068.981318719545
 21
970.9492790649902
 31
0.0
  0
ARC
  5
E06
330
CE8
100
AcDbEntity
  8
0
  6
Continuous
 62
     7
370
    15
100
AcDbCircle
 10
2069.836700085705
 20
970.9360095960718
 30
0.0
 40
0.8554842841220594
100
AcDbArc
 50
144.9366271412422
 51
179.1112460283195
  0
LINE
  5
E07
330
CE8
100
AcDbEntity
  8
0
  6
Continuous
 62
     7
370
    15
100
AcDbLine
 10
2069.136471544272
 20
971.4274700218872
 30
0.0
 11
2069.569679017599
 21
972.0385716913675
 31
0.0
  0
ARC
  5
E08
330
CE8
100
AcDbEntity
  8
0
  6
Continuous
 62
     7
370
    15
100
AcDbCircle
 10
2068.873952193277
 20
972.526692743316
 30
0.0
 40
0.8498811537137987
100
AcDbArc
 50
324.9465493752697
 51
359.104970135811
  0
LINE
  5
E09
330
CE8
100
AcDbEntity
  8
0
  6
Continuous
 62
     7
370
    15
100
AcDbLine
 10
2069.723729654057
 20
972.5134171044521
 30
0.0
 11
2069.711987523289
 21
974.8890166969619
 31
0.0
  0
LWPOLYLINE
  5
E0A
330
CE8
100
AcDbEntity
  8
0
  6
Continuous
 62
     7
370
    15
100
AcDbPolyline
 90
        9
 70
   128
 43
0.0
 10
2069.711987523289
 20
974.8890166969619
 10
2069.705536750564
 20
974.9718966494679
 10
2069.687426874086
 20
975.0446175514657
 10
2069.658194117995
 20
975.1043161232832
 10
2069.61904309179
 20
975.148705565992
 10
2069.571548019334
 20
975.176165472742
 10
2069.517430030737
 20
975.1855320689374
 10
2069.458778957065
 20
975.1764927676099
 10
2069.397905119233
 20
975.1493935308088
  0
LINE
  5
E0B
330
CE8
100
AcDbEntity
  8
0
  6
Continuous
 62
     7
370
    15
100
AcDbLine
 10
2069.397905119233
 20
975.1493935308088
 30
0.0
 11
2069.224854205378
 21
975.0481211478177
 31
0.0
  0
ARC
  5
E0C
330
CE8
100
AcDbEntity
  8
0
  6
Continuous
 62
     7
370
    15
100
AcDbCircle
 10
2069.526473251007
 20
974.577641724819
 30
0.0
 40
0.5588603905729023
100
AcDbArc
 50
122.66347375117
 51
149.8958745116636
  0
ARC
  5
E0D
330
CE8
100
AcDbEntity
  8
0
  6
Continuous
 62
     7
370
    15
100
AcDbCircle
 10
2065.543968287483
 20
976.928215619341
 30
0.0
 40
4.065609478940815
100
AcDbArc
 50
306.7396493185009
 51
329.3885221208148
  0
ARC
  5
E0E
330
CE8
100
AcDbEntity
  8
0
  6
Continuous
 62
     7
370
    15
100
AcDbCircle
 10
2068.27214542159
 20
973.3114077948322
 30
0.0
 40
0.465259854824422
100
AcDbArc
 50
129.5430786176659
 51
173.3608009629586
  0
LINE
  5
E0F
330
CE8
100
AcDbEntity
  8
0
  6
Continuous
 62
     7
370
    15
100
AcDbLine
 10
2067.810005646522
 20
973.3651996233204
 30
0.0
 11
2067.12624852012
 21
968.4296286472628
 31
0.0
  0
ARC
  5
E10
330
CE8
100
AcDbEntity
  8
0
  6
Continuous
 62
     7
370
    15
100
AcDbCircle
 10
2067.495718030253
 20
968.3304519038156
 30
0.0
 40
0.3825490104008559
100
AcDbArc
 50
164.9742940316079
 51
224.9451182429633
  0
LWPOLYLINE
  5
E11
330
CE8
100
AcDbEntity
  8
0
  6
Continuous
 62
     7
370
    15
100
AcDbPolyline
 90
       11
 70
   128
 43
0.0
 10
2067.224956049002
 20
968.0602081344737
 10
2067.363670930808
 20
967.9107299406568
 10
2067.453745438
 20
967.688466191876
 10
2067.488534841026
 20
967.4099145878306
 10
2067.465475435364
 20
967.0958144154617
 10
2067.386167781164
 20
966.7693949127581
 10
2067.256607240588
 20
966.4550010667245
 10
2067.086374297165
 20
966.1759253277208
 10
2066.888045495453
 20
965.9528714734515
 10
2066.676529361767
 20
965.8025069492012
 10
2066.467358714226
 20
965.7359075079112
  0
ARC
  5
E12
330
CE8
100
AcDbEntity
  8
0
  6
Continuous
 62
     7
370
    15
100
AcDbCircle
 10
2066.542599452195
 20
965.374532807246
 30
0.0
 40
0.3691244274375633
100
AcDbArc
 50
101.7613508288156
 51
144.7346598676703
  0
ARC
  5
E13
330
CE8
100
AcDbEntity
  8
0
  6
Continuous
 62
     7
370
    15
100
AcDbCircle
 10
2064.523327760378
 20
966.9415340540373
 30
0.0
 40
2.187265545279755
100
AcDbArc
 50
301.5734099593951
 51
321.7580285505543
  0
LINE
  5
E14
330
CE8
100
AcDbEntity
  8
0
  6
Continuous
 62
     7
370
    15
100
AcDbLine
 10
2065.668559389113
 20
965.078049392949
 30
0.0
 11
2065.467546660213
 21
964.9604132729553
 31
0.0
  0
LWPOLYLINE
  5
E15
330
CE8
100
AcDbEntity
  8
0
  6
Continuous
 62
     7
370
    15
100
AcDbPolyline
 90
        9
 70
   128
 43
0.0
 10
2065.467546660213
 20
964.9604132729553
 10
2065.406598325364
 20
964.9332969149414
 10
2065.348021748709
 20
964.9242747348269
 10
2065.293903629625
 20
964.9336677303866
 10
2065.246334321128
 20
964.9610577171952
 10
2065.207183164435
 20
965.0054735592682
 10
2065.17802490536
 20
965.0651892522986
 10
2065.159840662352
 20
965.1378666337192
 10
2065.153389889627
 20
965.220746586225
  0
LINE
  5
E16
330
CE8
100
AcDbEntity
  8
0
  6
Continuous
 62
     7
370
    15
100
AcDbLine
 10
2065.153389889627
 20
965.220746586225
 30
0.0
 11
2065.152514191587
 21
965.397912719837
 31
0.0
  0
ARC
  5
E17
330
CE8
100
AcDbEntity
  8
0
  6
Continuous
 62
     7
370
    15
100
AcDbCircle
 10
2065.919420767828
 20
965.4075590620227
 30
0.0
 40
0.7669672408914182
100
AcDbArc
 50
126.5854245361468
 51
180.7206426012718
  0
LINE
  5
E18
330
CE8
100
AcDbEntity
  8
0
  6
Continuous
 62
     7
370
    15
100
AcDbLine
 10
2065.462292471969
 20
966.0234100746267
 30
0.0
 11
2065.642854405291
 21
966.1290780359086
 31
0.0
  0
ARC
  5
E19
330
CE8
100
AcDbEntity
  8
0
  6
Continuous
 62
     7
370
    15
100
AcDbCircle
 10
2064.759209421385
 20
967.3383430152355
 30
0.0
 40
1.4977150088753
100
AcDbArc
 50
306.1566826321562
 51
353.9149092720252
  0
LINE
  5
E1A
330
CE8
100
AcDbEntity
  8
0
  6
Continuous
 62
     7
370
    15
100
AcDbLine
 10
2066.248485648003
 20
967.179577248644
 30
0.0
 11
2067.008068867711
 21
972.6630913008277
 31
0.0
  0
LWPOLYLINE
  5
E1B
330
CE8
100
AcDbEntity
  8
0
  6
Continuous
 62
     7
370
    15
100
AcDbPolyline
 90
        9
 70
   128
 43
0.0
 10
2067.008068867711
 20
972.6630913008277
 10
2067.009619559753
 20
972.7265874123888
 10
2066.995716628227
 20
972.7780745151081
 10
2066.968256164176
 20
972.811169603325
 10
2066.930540045923
 20
972.8217685273808
 10
2066.887273720786
 20
972.8084947828085
 10
2066.843893122192
 20
972.7730734067041
 10
2066.805746637855
 20
972.7198522513774
 10
2066.777648910601
 20
972.6555408608902
  0
LINE
  5
E1C
330
CE8
100
AcDbEntity
  8
0
  6
Continuous
 62
     7
370
    15
100
AcDbLine
 10
2066.777648910601
 20
972.6555408608902
 30
0.0
 11
2066.215953930222
 21
970.9244874008653
 31
0.0
  0
ARC
  5
E1D
330
CE8
100
AcDbEntity
  8
0
  6
Continuous
 62
     7
370
    15
100
AcDbCircle
 10
2065.552276121486
 20
971.1098311798464
 30
0.0
 40
0.6890722387498077
100
AcDbArc
 50
304.9429225197358
 51
344.3966679942313
  0
LINE
  5
E1E
330
CE8
100
AcDbEntity
  8
0
  6
Continuous
 62
     7
370
    15
100
AcDbLine
 10
2065.946949220218
 20
970.5449827972223
 30
0.0
 11
2052.286561439348
 21
962.5506879834455
 31
0.0
  0
ARC
  5
E1F
330
CE8
100
AcDbEntity
  8
0
  6
Continuous
 62
     7
370
    15
100
AcDbCircle
 10
2052.177265306887
 20
962.6951721046161
 30
0.0
 40
0.181166514128393
100
AcDbArc
 50
206.6132847008894
 51
307.1059655365933
  0
LINE
  5
E20
330
CE8
100
AcDbEntity
  8
0
  6
Continuous
 62
     7
370
    15
100
AcDbLine
 10
2052.015293313444
 20
962.6140155942087
 30
0.0
 11
2051.439849693152
 21
963.6795959092747
 31
0.0
  0
LWPOLYLINE
  5
E21
330
CE8
100
AcDbEntity
  8
0
  6
Continuous
 62
     7
370
    15
100
AcDbPolyline
 90
        9
 70
   128
 43
0.0
 10
2051.439849693152
 20
963.6795959092747
 10
2051.411280125022
 20
963.7107446199857
 10
2051.372829084103
 20
963.719139580864
 10
2051.329349576388
 20
963.7037289228757
 10
2051.286201994391
 20
963.6664317568182
 10
2051.248807917975
 20
963.6118770498571
 10
2051.221832082523
 20
963.5469248991777
 10
2051.208516864298
 20
963.4795092652275
 10
2051.210610132195
 20
963.418145661946
  0
LINE
  5
E22
330
CE8
100
AcDbEntity
  8
0
  6
Continuous
 62
     7
370
    15
100
AcDbLine
 10
2051.210610132195
 20
963.418145661946
 30
0.0
 11
2052.019937582709
 21
958.8527852255621
 31
0.0
  0
LWPOLYLINE
  5
E23
330
CE8
100
AcDbEntity
  8
0
  6
Continuous
 62
     7
370
    15
100
AcDbPolyline
 90
        9
 70
   128
 43
0.0
 10
2052.019937582709
 20
958.8527852255621
 10
2052.052025931626
 20
958.7283831471438
 10
2052.100576674757
 20
958.6231464079862
 10
2052.164157796945
 20
958.5401024243074
 10
2052.240967799153
 20
958.4815858208822
 10
2052.328835307003
 20
958.4493176291363
 10
2052.425220114669
 20
958.4441940922317
 10
2052.52736217891
 20
958.4663209074916
 10
2052.632430091158
 20
958.5151530662843
  0
LINE
  5
E24
330
CE8
100
AcDbEntity
  8
0
  6
Continuous
 62
     7
370
    15
100
AcDbLine
 10
2052.632430091158
 20
958.5151530662843
 30
0.0
 11
2052.81299202448
 21
958.6208210275662
 31
0.0
  0
LWPOLYLINE
  5
E25
330
CE8
100
AcDbEntity
  8
0
  6
Continuous
 62
     7
370
    15
100
AcDbPolyline
 90
        9
 70
   128
 43
0.0
 10
2052.81299202448
 20
958.6208210275662
 10
2052.8738659928
 20
958.6478938650028
 10
2052.932517066472
 20
958.6569331663302
 10
2052.986635055068
 20
958.6475665701348
 10
2053.034204363566
 20
958.6201765833262
 10
2053.073281153729
 20
958.5757172206761
 10
2053.102513779333
 20
958.5160450482229
 10
2053.120698152828
 20
958.443341267438
 10
2053.127074559023
 20
958.360417794355
  0
LINE
  5
E26
330
CE8
100
AcDbEntity
  8
0
  6
Continuous
 62
     7
370
    15
100
AcDbLine
 10
2053.127074559023
 20
958.360417794355
 30
0.0
 11
2053.127950257064
 21
958.183251660743
 31
0.0
  0
ARC
  5
E27
330
CE8
100
AcDbEntity
  8
0
  6
Continuous
 62
     7
370
    15
100
AcDbCircle
 10
2052.361518768284
 20
958.1733846425375
 30
0.0
 40
0.7664950000113058
100
AcDbArc
 50
306.5743113902428
 51
0.7375835649111861
  0
LINE
  5
E28
330
CE8
100
AcDbEntity
  8
0
  6
Continuous
 62
     7
370
    15
100
AcDbLine
 10
2052.818246212724
 20
957.5578242258947
 30
0.0
 11
2052.617233483823
 21
957.4401881059008
 31
0.0
  0
ARC
  5
E29
330
CE8
100
AcDbEntity
  8
0
  6
Continuous
 62
     7
370
    15
100
AcDbCircle
 10
2052.058202088466
 20
958.3252217440426
 30
0.0
 40
1.046804968290628
100
AcDbArc
 50
269.160176498969
 51
302.2785496648207
  0
ARC
  5
E2A
330
CE8
100
AcDbEntity
  8
0
  6
Continuous
 62
     7
370
    15
100
AcDbCircle
 10
2052.059608528745
 20
956.9679869282122
 30
0.0
 40
0.31099367921304
100
AcDbArc
 50
93.08735405344007
 51
141.400917375031
  0
LWPOLYLINE
  5
E2B
330
CE8
100
AcDbEntity
  8
0
  6
Continuous
 62
     7
370
    15
100
AcDbPolyline
 90
       11
 70
   128
 43
0.0
 10
2051.816557495141
 20
957.1620056478614
 10
2051.607936980655
 20
956.9841064868114
 10
2051.396084462609
 20
956.8867083654369
 10
2051.196775431753
 20
956.87705769377
 10
2051.024773606994
 20
956.9558517368022
 10
2050.892861430287
 20
957.1172272336317
 10
2050.810793715744
 20
957.3492070839543
 10
2050.784696845489
 20
957.6345401548376
 10
2050.816539852784
 20
957.9520861959952
 10
2050.90397825121
 20
958.2782335623953
 10
2051.04041952809
 20
958.5887378916085
  0
ARC
  5
E2C
330
CE8
100
AcDbEntity
  8
0
  6
Continuous
 62
     7
370
    15
100
AcDbCircle
 10
2050.354979160327
 20
958.973351922839
 30
0.0
 40
0.7859748410597483
100
AcDbArc
 50
330.7023625658536
 51
7.150086211733714
  0
LINE
  5
E2D
330
CE8
100
AcDbEntity
  8
0
  6
Continuous
 62
     7
370
    15
100
AcDbLine
 10
2051.134841875994
 20
959.0711813432152
 30
0.0
 11
2050.406452976098
 21
963.1803400800718
 31
0.0
  0
LWPOLYLINE
  5
E2E
330
CE8
100
AcDbEntity
  8
0
  6
Continuous
 62
     7
370
    15
100
AcDbPolyline
 90
        9
 70
   128
 43
0.0
 10
2050.406452976098
 20
963.1803400800718
 10
2050.397553230022
 20
963.2154808036936
 10
2050.384352230044
 20
963.245668592329
 10
2050.367078034255
 20
963.2700308318668
 10
2050.346180756443
 20
963.288036664842
 10
2050.322333740465
 20
963.2992593961564
 10
2050.295911820172
 20
963.3033094433175
 10
2050.267735506636
 20
963.3001639447526
 10
2050.23847553398
 20
963.2899241926489
  0
ARC
  5
E2F
330
CE8
100
AcDbEntity
  8
0
  6
Continuous
 62
     7
370
    15
100
AcDbCircle
 10
2049.63168899647
 20
964.4313372725475
 30
0.0
 40
1.292676959285685
100
AcDbArc
 50
248.8778110683174
 51
297.9955557091833
  0
ARC
  5
E30
330
CE8
100
AcDbEntity
  8
0
  6
Continuous
 62
     7
370
    15
100
AcDbCircle
 10
2049.097052626421
 20
963.0362480489949
 30
0.0
 40
0.2013824421230855
100
AcDbArc
 50
70.02030754485263
 51
124.4347935306722
  0
LINE
  5
E31
330
CE8
100
AcDbEntity
  8
0
  6
Continuous
 62
     7
370
    15
100
AcDbLine
 10
2048.983177307891
 20
963.2023422988204
 30
0.0
 11
2048.810126394036
 21
963.1010699158291
 31
0.0
  0
ARC
  5
E32
330
CE8
100
AcDbEntity
  8
0
  6
Continuous
 62
     7
370
    15
100
AcDbCircle
 10
2049.266853838474
 20
962.485509499187
 30
0.0
 40
0.766495000009896
100
AcDbArc
 50
126.574311390188
 51
180.7375835649502
  0
LINE
  5
E33
330
CE8
100
AcDbEntity
  8
0
  6
Continuous
 62
     7
370
    15
100
AcDbLine
 10
2048.500422349695
 20
962.475642480981
 30
0.0
 11
2048.512164480463
 21
960.1000428884709
 31
0.0
  0
ARC
  5
E34
330
CE8
100
AcDbEntity
  8
0
  6
Continuous
 62
     7
370
    15
100
AcDbCircle
 10
2048.780260285242
 20
960.0560304198786
 30
0.0
 40
0.2716844823175097
100
AcDbArc
 50
170.6770867581514
 51
246.0578878588235
  0
LINE
  5
E35
330
CE8
100
AcDbEntity
  8
0
  6
Continuous
 62
     7
370
    15
100
AcDbLine
 10
2048.670007068203
 20
959.8077227758869
 30
0.0
 11
2049.106739255504
 21
959.7057248177225
 31
0.0
  0
ARC
  5
E36
330
CE8
100
AcDbEntity
  8
0
  6
Continuous
 62
     7
370
    15
100
AcDbCircle
 10
2048.995547332259
 20
959.4556295839142
 30
0.0
 40
0.2736992323124266
100
AcDbArc
 50
350.6835631701031
 51
66.03014881151385
  0
LINE
  5
E37
330
CE8
100
AcDbEntity
  8
0
  6
Continuous
 62
     7
370
    15
100
AcDbLine
 10
2049.265636284326
 20
959.4113212580628
 30
0.0
 11
2049.273538575093
 21
957.8125757579083
 31
0.0
  0
ARC
  5
E38
330
CE8
100
AcDbEntity
  8
0
  6
Continuous
 62
     7
370
    15
100
AcDbCircle
 10
2048.800328568434
 20
957.8107784870542
 30
0.0
 40
0.473213419700941
100
AcDbArc
 50
309.9246312205947
 51
0.2176106548811146
  0
LINE
  5
E39
330
CE8
100
AcDbEntity
  8
0
  6
Continuous
 62
     7
370
    15
100
AcDbLine
 10
2049.104027180431
 20
957.4478761673377
 30
0.0
 11
2048.484265452946
 21
957.0079247296778
 31
0.0
  0
ARC
  5
E3A
330
CE8
100
AcDbEntity
  8
0
  6
Continuous
 62
     7
370
    15
100
AcDbCircle
 10
2048.686822936305
 20
956.7658827552119
 30
0.0
 40
0.3156166210259463
100
AcDbArc
 50
129.9249261875743
 51
180.2065338130106
  0
LINE
  5
E3B
330
CE8
100
AcDbEntity
  8
0
  6
Continuous
 62
     7
370
    15
100
AcDbLine
 10
2048.371208365811
 20
956.7647450560031
 30
0.0
 11
2048.374509555608
 21
956.0968675393517
 31
0.0
  0
LWPOLYLINE
  5
E3C
330
CE8
100
AcDbEntity
  8
0
  6
Continuous
 62
     7
370
    15
100
AcDbPolyline
 90
        9
 70
   128
 43
0.0
 10
2048.374509555608
 20
956.0968675393517
 10
2048.376595233176
 20
956.0672174156191
 10
2048.382394539682
 20
956.0406936978568
 10
2048.391679938981
 20
956.0180634027188
 10
2048.404298522431
 20
956.0000842687074
 10
2048.419800306734
 20
955.9872607539231
 10
2048.43766146401
 20
955.9799481984335
 10
2048.457433054856
 20
955.9784398654249
 10
2048.478518320221
 20
955.9827571813803
  0
LINE
  5
E3D
330
CE8
100
AcDbEntity
  8
0
  6
Continuous
 62
     7
370
    15
100
AcDbLine
 10
2048.478518320221
 20
955.9827571813803
 30
0.0
 11
2048.784766398233
 21
956.0851727593878
 31
0.0
  0
LWPOLYLINE
  5
E3E
330
CE8
100
AcDbEntity
  8
0
  6
Continuous
 62
     7
370
    15
100
AcDbPolyline
 90
        9
 70
   128
 43
0.0
 10
2048.784766398233
 20
956.0851727593878
 10
2048.856384780767
 20
956.0962143752757
 10
2048.920904438483
 20
956.0798030546242
 10
2048.974666144466
 20
956.036895014774
 10
2049.014525496082
 20
955.969912689132
 10
2049.03822605249
 20
955.8826983364175
 10
2049.044474875557
 20
955.7803199669578
 10
2049.032795754106
 20
955.6685883110725
 10
2049.003977360391
 20
955.5539219520706
  0
LINE
  5
E3F
330
CE8
100
AcDbEntity
  8
0
  6
Continuous
 62
     7
370
    15
100
AcDbLine
 10
2049.003977360391
 20
955.5539219520706
 30
0.0
 11
2048.252602934967
 21
953.2381081376486
 31
0.0
  0
ARC
  5
E40
330
CE8
100
AcDbEntity
  8
0
  6
Continuous
 62
     7
370
    15
100
AcDbCircle
 10
2041.611542176299
 20
955.0943953634678
 30
0.0
 40
6.895613842513218
100
AcDbArc
 50
304.9549284900852
 51
344.3834359622778
  0
LINE
  5
E41
330
CE8
100
AcDbEntity
  8
0
  6
Continuous
 62
     7
370
    15
100
AcDbLine
 10
2045.562259151731
 20
949.4427296227247
 30
0.0
 11
2029.530917681332
 21
940.0609117687558
 31
0.0
  0
LWPOLYLINE
  5
E42
330
CE8
100
AcDbEntity
  8
0
  6
Continuous
 62
     7
370
    15
100
AcDbPolyline
 90
        9
 70
   128
 43
0.0
 10
2029.530917681332
 20
940.0609117687558
 10
2029.348221670819
 20
939.9795969371398
 10
2029.172342816332
 20
939.9525225537351
 10
2029.009914353524
 20
939.9806052211081
 10
2028.867355030605
 20
940.0628886220523
 10
2028.74997618803
 20
940.1961268701199
 10
2028.662352416774
 20
940.3752397067853
 10
2028.607873923792
 20
940.5933417709888
 10
2028.588595972147
 20
940.8420251490834
  0
LINE
  5
E43
330
CE8
100
AcDbEntity
  8
0
  6
Continuous
 62
     7
370
    15
100
AcDbLine
 10
2028.588595972147
 20
940.8420251490834
 30
0.0
 11
2028.579839122228
 21
942.6136600858383
 31
0.0
  0
ARC
  5
E44
330
CE8
100
AcDbEntity
  8
0
  6
Continuous
 62
     7
370
    15
100
AcDbCircle
 10
2029.346339224623
 20
942.623493127418
 30
0.0
 40
0.7665631713552447
100
AcDbArc
 50
126.5769167369521
 51
180.7349782181962
  0
LINE
  5
E45
330
CE8
100
AcDbEntity
  8
0
  6
Continuous
 62
     7
370
    15
100
AcDbLine
 10
2028.889543166568
 20
943.2390875206866
 30
0.0
 11
2029.290304393369
 21
943.4736199108627
 31
0.0
  0
ARC
  5
E46
330
CE8
100
AcDbEntity
  8
0
  6
Continuous
 62
     7
370
    15
100
AcDbCircle
 10
2029.399561476166
 20
943.3292144301619
 30
0.0
 40
0.1810802391139932
100
AcDbArc
 50
26.58373274633434
 51
127.1111230857592
  0
LINE
  5
E47
330
CE8
100
AcDbEntity
  8
0
  6
Continuous
 62
     7
370
    15
100
AcDbLine
 10
2029.561498152744
 20
943.4102487795225
 30
0.0
 11
2029.907818087469
 21
942.7689544201014
 31
0.0
  0
LWPOLYLINE
  5
E48
330
CE8
100
AcDbEntity
  8
0
  6
Continuous
 62
     7
370
    15
100
AcDbPolyline
 90
       10
 70
   128
 43
0.0
 10
2029.907818087469
 20
942.7689544201014
 10
2029.747979395471
 20
942.6352239031475
 10
2029.607848149943
 20
942.4375177493525
 10
2029.50431115295
 20
942.1996711152726
 10
2029.449756678443
 20
941.9502997448317
 10
2029.450897134542
 20
941.7195693011171
 10
2029.507594987981
 20
941.5353047140689
 10
2029.612879205472
 20
941.4196638605817
 10
2029.754150907098
 20
941.3866395706623
 10
2029.91438575753
 20
941.4402216176942
  0
LINE
  5
E49
330
CE8
100
AcDbEntity
  8
0
  6
Continuous
 62
     7
370
    15
100
AcDbLine
 10
2029.91438575753
 20
941.4402216176942
 30
0.0
 11
2030.644441976403
 21
941.8674631234203
 31
0.0
  0
ARC
  5
E4A
330
CE8
100
AcDbEntity
  8
0
  6
Continuous
 62
     7
370
    15
100
AcDbCircle
 10
2030.194454272294
 20
942.4782205959029
 30
0.0
 40
0.7586261424727237
100
AcDbArc
 50
306.3816693519185
 51
9.34175786802141
  0
LINE
  5
E4B
330
CE8
100
AcDbEntity
  8
0
  6
Continuous
 62
     7
370
    15
100
AcDbLine
 10
2028.920289205472
 20
952.2887190786002
 30
0.0
 11
2028.844063512863
 21
952.2441104870377
 31
0.0
  0
ARC
  5
E4C
330
CE8
100
AcDbEntity
  8
0
  6
Continuous
 62
     7
370
    15
100
AcDbCircle
 10
2051.569955744817
 20
965.3379561569167
 30
0.0
 40
0.1820783965330485
100
AcDbArc
 50
25.8876330216594
 51
68.48386929546705
  0
LINE
  5
E4D
330
CE8
100
AcDbEntity
  8
0
  6
Continuous
 62
     7
370
    15
100
AcDbLine
 10
2052.477813010368
 20
964.0395878166406
 30
0.0
 11
2051.733762945563
 21
965.4174529711157
 31
0.0
  0
ARC
  5
E4E
330
CE8
100
AcDbEntity
  8
0
  6
Continuous
 62
     7
370
    15
100
AcDbCircle
 10
2052.639818732483
 20
964.1208283094046
 30
0.0
 40
0.1812343004587405
100
AcDbArc
 50
206.6322453659857
 51
307.076441801214
  0
LINE
  5
E4F
330
CE8
100
AcDbEntity
  8
0
  6
Continuous
 62
     7
370
    15
100
AcDbLine
 10
2052.749081266759
 20
963.9762338065132
 30
0.0
 11
2052.765962468927
 21
963.9861129775226
 31
0.0
  0
LINE
  5
E50
330
CE8
100
AcDbEntity
  8
0
  6
Continuous
 62
     7
370
    15
100
AcDbLine
 10
2089.344802709108
 20
987.5902467303783
 30
0.0
 11
2087.364012707033
 21
975.6199027001118
 31
0.0
  0
LWPOLYLINE
  5
E51
330
CE8
100
AcDbEntity
  8
0
  6
Continuous
 62
     7
370
    15
100
AcDbPolyline
 90
        9
 70
   128
 43
0.0
 10
2087.66802740229
 20
975.2386499847128
 10
2087.597173182546
 20
975.2088077161953
 10
2087.529851617358
 20
975.2036166136793
 10
2087.469715409293
 20
975.2234404280379
 10
2087.419753442603
 20
975.2671424516517
 10
2087.382661571985
 20
975.3325143162067
 10
2087.360395770958
 20
975.4161468660539
 10
2087.354022093947
 20
975.5136071106978
 10
2087.364012707033
 20
975.6199027001118
  0
LINE
  5
E52
330
CE8
100
AcDbEntity
  8
0
  6
Continuous
 62
     7
370
    15
100
AcDbLine
 10
2087.66802740229
 20
975.2386499847128
 30
0.0
 11
2088.398157987692
 21
975.6659350110162
 31
0.0
  0
LWPOLYLINE
  5
E53
330
CE8
100
AcDbEntity
  8
0
  6
Continuous
 62
     7
370
    15
100
AcDbPolyline
 90
       10
 70
   128
 43
0.0
 10
2088.398157987692
 20
975.6659350110162
 10
2088.55792231316
 20
975.7996220073929
 10
2088.698127925218
 20
975.9973716817651
 10
2088.801664922211
 20
976.235218315845
 10
2088.856145030188
 20
976.4845461657087
 10
2088.85500457409
 20
976.7152766094232
 10
2088.798381087181
 20
976.8995847170485
 10
2088.69309686969
 20
977.0152255705358
 10
2088.551750801533
 20
977.048206339878
 10
2088.391590317631
 20
976.9946678134234
  0
LINE
  5
E54
330
CE8
100
AcDbEntity
  8
0
  6
Continuous
 62
     7
370
    15
100
AcDbLine
 10
2088.391590317631
 20
976.9946678134234
 30
0.0
 11
2088.729516950171
 21
978.0363686036917
 31
0.0
  0
ARC
  5
E55
330
CE8
100
AcDbEntity
  8
0
  6
Continuous
 62
     7
370
    15
100
AcDbCircle
 10
2089.393736214887
 20
977.8506678618509
 30
0.0
 40
0.6896897832645456
100
AcDbArc
 50
124.9544274947901
 51
164.3802051525677
  0
LINE
  5
E56
330
CE8
100
AcDbEntity
  8
0
  6
Continuous
 62
     7
370
    15
100
AcDbLine
 10
2088.998595896217
 20
978.4159431272762
 30
0.0
 11
2089.39928275649
 21
978.650431996875
 31
0.0
  0
LWPOLYLINE
  5
E57
330
CE8
100
AcDbEntity
  8
0
  6
Continuous
 62
     7
370
    15
100
AcDbPolyline
 90
        9
 70
   128
 43
0.0
 10
2089.39928275649
 20
978.650431996875
 10
2089.460230960851
 20
978.6775747542531
 10
2089.518807667994
 20
978.6865705350033
 10
2089.57300002312
 20
978.6772474593853
 10
2089.620494965088
 20
978.6498139519995
 10
2089.659646121781
 20
978.6053981099263
 10
2089.688804380855
 20
978.5456824168962
 10
2089.70698875435
 20
978.4729786361111
 10
2089.713439527075
 20
978.3900986836053
  0
LINE
  5
E58
330
CE8
100
AcDbEntity
  8
0
  6
Continuous
 62
     7
370
    15
100
AcDbLine
 10
2089.713439527075
 20
978.3900986836053
 30
0.0
 11
2089.722196376994
 21
976.6184637468505
 31
0.0
  0
ARC
  5
E59
330
CE8
100
AcDbEntity
  8
0
  6
Continuous
 62
     7
370
    15
100
AcDbCircle
 10
2087.422298005849
 20
976.5891471441475
 30
0.0
 40
2.300085211636381
100
AcDbArc
 50
306.5796474510552
 51
0.7303047207924975
  0
LINE
  5
E5A
330
CE8
100
AcDbEntity
  8
0
  6
Continuous
 62
     7
370
    15
100
AcDbLine
 10
2088.793010007931
 20
974.7421115223639
 30
0.0
 11
2072.761594171002
 21
965.3602501478182
 31
0.0
  0
ARC
  5
E5B
330
CE8
100
AcDbEntity
  8
0
  6
Continuous
 62
     7
370
    15
100
AcDbCircle
 10
2071.669143687588
 20
966.8053565100722
 30
0.0
 40
1.811568507382797
100
AcDbArc
 50
206.6078157048548
 51
307.0880209304188
  0
ARC
  5
E5C
330
CE8
100
AcDbEntity
  8
0
  6
Continuous
 62
     7
370
    15
100
AcDbCircle
 10
2040.215250037886
 20
1006.028912118782
 30
0.0
 40
1.207744949520143
100
AcDbArc
 50
72.69903155268628
 51
124.6308636727181
  0
LINE
  5
E5D
330
CE8
100
AcDbEntity
  8
0
  6
Continuous
 62
     7
370
    15
100
AcDbLine
 10
2039.790178936257
 20
1003.786967223399
 30
0.0
 11
2039.961765440578
 21
1002.554833114403
 31
0.0
  0
ELLIPSE
  5
E5E
330
CE8
100
AcDbEntity
  8
0
  6
Continuous
 62
     7
370
    15
100
AcDbEllipse
 10
2040.01180967558
 20
1003.102903166003
 30
0.0
 11
1.491108605041091
 21
0.0206136624306339
 31
0.0
210
0.0
220
0.0
230
1.0
 40
0.4654810707231162
 41
1.406840374544461
 42
1.713524817274901
  0
LINE
  5
E5F
330
CE8
100
AcDbEntity
  8
0
  6
Continuous
 62
     7
370
    15
100
AcDbLine
 10
2040.417280945732
 20
1002.558879246032
 30
0.0
 11
2040.245694077475
 21
1003.791013488414
 31
0.0
  0
LINE
  5
E60
330
CE8
100
AcDbEntity
  8
0
  6
Continuous
 62
     7
370
    15
100
AcDbLine
 10
2039.790178936257
 20
1003.786967223399
 30
0.0
 11
2038.289782438587
 21
1004.336873606799
 31
0.0
  0
LINE
  5
E61
330
CE8
100
AcDbEntity
  8
0
  6
Continuous
 62
     7
370
    15
100
AcDbLine
 10
2041.174606395897
 20
1004.334629017397
 30
0.0
 11
2040.245694077475
 21
1003.791013488414
 31
0.0
  0
LINE
  5
E62
330
CE8
100
AcDbEntity
  8
0
  6
Continuous
 62
     7
370
    15
100
AcDbLine
 10
2041.174606395897
 20
1004.334629017397
 30
0.0
 11
2039.398364291978
 21
1004.985634850138
 31
0.0
  0
LINE
  5
E63
330
CE8
100
AcDbEntity
  8
0
  6
Continuous
 62
     7
370
    15
100
AcDbLine
 10
2038.289782438587
 20
1004.336873606799
 30
0.0
 11
2039.398364291978
 21
1004.985634850138
 31
0.0
  0
LINE
  5
E64
330
CE8
100
AcDbEntity
  8
0
  6
Continuous
 62
     7
370
    15
100
AcDbLine
 10
2024.819099112827
 20
953.7192896279988
 30
0.0
 11
2024.895324805436
 21
953.7638982195614
 31
0.0
  0
LINE
  5
E65
330
CE8
100
AcDbEntity
  8
0
  6
Continuous
 62
     7
370
    15
100
AcDbLine
 10
2040.431261853254
 20
1002.567061114533
 30
0.0
 11
2041.317505233922
 21
1003.308499291225
 31
0.0
  0
LINE
  5
E66
330
CE8
100
AcDbEntity
  8
0
  6
Continuous
 62
     7
370
    15
100
AcDbLine
 10
2041.317505233922
 20
1003.308499291225
 30
0.0
 11
2041.417335044645
 21
1003.271910929245
 31
0.0
  0
LINE
  5
E67
330
CE8
100
AcDbEntity
  8
0
  6
Continuous
 62
     7
370
    15
100
AcDbLine
 10
2038.289782438587
 20
1004.336873606799
 30
0.0
 11
2038.461369306844
 21
1003.104739364417
 31
0.0
  0
LINE
  5
E68
330
CE8
100
AcDbEntity
  8
0
  6
Continuous
 62
     7
370
    15
100
AcDbLine
 10
2041.317505233922
 20
1003.308499291225
 30
0.0
 11
2041.174606395897
 21
1004.334629017397
 31
0.0
  0
ARC
  5
E69
330
CE8
100
AcDbEntity
  8
0
  6
Continuous
 62
     7
370
    15
100
AcDbCircle
 10
2021.335487886403
 20
945.5595292313342
 30
0.0
 40
0.766563171355217
100
AcDbArc
 50
126.576916736956
 51
180.7349782182027
  0
LINE
  5
E6A
330
CE8
100
AcDbEntity
  8
0
  6
Continuous
 62
     7
370
    15
100
AcDbLine
 10
2028.889543166568
 20
943.2390875206866
 30
0.0
 11
2020.878691828349
 21
946.1751236246028
 31
0.0
  0
LINE
  5
E6B
330
CE8
100
AcDbEntity
  8
0
  6
Continuous
 62
     7
370
    15
100
AcDbLine
 10
2028.579839122228
 20
942.6136600858383
 30
0.0
 11
2020.568987784008
 21
945.5496961897544
 31
0.0
  0
LINE
  5
E6C
330
CE8
100
AcDbEntity
  8
0
  6
Continuous
 62
     7
370
    15
100
AcDbLine
 10
2020.577744633927
 20
943.7780612529996
 30
0.0
 11
2020.568987784008
 21
945.5496961897544
 31
0.0
  0
LINE
  5
E6D
330
CE8
100
AcDbEntity
  8
0
  6
Continuous
 62
     7
370
    15
100
AcDbLine
 10
2028.588595972147
 20
940.8420251490834
 30
0.0
 11
2020.577744633927
 21
943.7780612529996
 31
0.0
  0
LINE
  5
E6E
330
CE8
100
AcDbEntity
  8
0
  6
Continuous
 62
     7
370
    15
100
AcDbLine
 10
2029.290304393369
 20
943.4736199108627
 30
0.0
 11
2021.826535587672
 21
946.2091462312997
 31
0.0
  0
LINE
  5
E6F
330
CE8
100
AcDbEntity
  8
0
  6
Continuous
 62
     7
370
    15
100
AcDbLine
 10
2020.878691828349
 20
946.1751236246028
 30
0.0
 11
2022.414360659939
 21
947.0738235424235
 31
0.0
  0
LINE
  5
E70
330
CE8
100
AcDbEntity
  8
0
  6
Continuous
 62
     7
370
    15
100
AcDbLine
 10
2022.577000259682
 20
947.1690030446159
 30
0.0
 11
2022.414360659939
 21
947.0738235424235
 31
0.0
  0
LINE
  5
E71
330
CE8
100
AcDbEntity
  8
0
  6
Continuous
 62
     7
370
    15
100
AcDbLine
 10
2021.826535587672
 20
946.2091462312997
 30
0.0
 11
2023.124082792205
 21
946.968493261137
 31
0.0
  0
ARC
  5
E72
330
CE8
100
AcDbEntity
  8
0
  6
Continuous
 62
     7
370
    15
100
AcDbCircle
 10
2021.940932617775
 20
946.0435250194301
 30
0.0
 40
0.2012885151155114
100
AcDbArc
 50
72.70435398482494
 51
124.6334135511001
  0
ARC
  5
E73
330
CE8
100
AcDbEntity
  8
0
  6
Continuous
 62
     7
370
    15
100
AcDbCircle
 10
2021.445578238079
 20
943.6684587939518
 30
0.0
 40
0.8747273080932737
100
AcDbArc
 50
172.8019768871783
 51
239.1743746309717
  0
LINE
  5
E74
330
CE8
100
AcDbEntity
  8
0
  6
Continuous
 62
     7
370
    15
100
AcDbLine
 10
2045.652028687717
 20
950.3836573414359
 30
0.0
 11
2037.641177349497
 21
953.3196934453521
 31
0.0
  0
LINE
  5
E75
330
CE8
100
AcDbEntity
  8
0
  6
Continuous
 62
     7
370
    15
100
AcDbLine
 10
2037.641177349497
 20
953.3196934453521
 30
0.0
 11
2030.405388407852
 21
949.0851848107737
 31
0.0
  0
LINE
  5
E76
330
CE8
100
AcDbEntity
  8
0
  6
Continuous
 62
     7
370
    15
100
AcDbLine
 10
2054.289992720168
 20
986.9432707663033
 30
0.0
 11
2052.219777275431
 21
985.7317449400422
 31
0.0
  0
LINE
  5
E77
330
CE8
100
AcDbEntity
  8
0
  6
Continuous
 62
     7
370
    15
100
AcDbLine
 10
2058.08215386212
 20
1011.152642772286
 30
0.0
 11
2066.444700850089
 21
1008.087707618611
 31
0.0
  0
LINE
  5
E78
330
CE8
100
AcDbEntity
  8
0
  6
Continuous
 62
     7
370
    15
100
AcDbLine
 10
2060.242906347795
 20
1017.812296760257
 30
0.0
 11
2068.605453335764
 21
1014.747361606583
 31
0.0
  0
LINE
  5
E79
330
CE8
100
AcDbEntity
  8
0
  6
Continuous
 62
     7
370
    15
100
AcDbLine
 10
2058.08215386212
 20
1011.152642772286
 30
0.0
 11
2060.242906347795
 21
1017.812296760257
 31
0.0
  0
LINE
  5
E7A
330
CE8
100
AcDbEntity
  8
0
  6
Continuous
 62
     7
370
    15
100
AcDbLine
 10
2052.43442758943
 20
991.0756255038952
 30
0.0
 11
2053.489515300668
 21
990.6889280753446
 31
0.0
  0
ARC
  5
E7B
330
CE8
100
AcDbEntity
  8
0
  6
Continuous
 62
     7
370
    15
100
AcDbCircle
 10
2054.48973166057
 20
985.8809054479355
 30
0.0
 40
4.91095859810427
100
AcDbArc
 50
101.7516701353009
 51
114.9198666255037
  0
LINE
  5
E7C
330
CE8
100
AcDbEntity
  8
0
  6
Continuous
 62
     7
370
    15
100
AcDbLine
 10
2052.420497807987
 20
990.334643834462
 30
0.0
 11
2058.672869686239
 21
988.0431034232609
 31
0.0
  0
ARC
  5
E7D
330
CE8
100
AcDbEntity
  8
0
  6
Continuous
 62
     7
370
    15
100
AcDbCircle
 10
2060.742103538821
 20
983.5893650367335
 30
0.0
 40
4.910958598105018
100
AcDbArc
 50
101.7516701353009
 51
114.9198666254919
  0
LINE
  5
E7E
330
CE8
100
AcDbEntity
  8
0
  6
Continuous
 62
     7
370
    15
100
AcDbLine
 10
2060.796974577399
 20
988.0106903502207
 30
0.0
 11
2059.741887178919
 21
988.3973876641434
 31
0.0
  0
LINE
  5
E7F
330
CE8
100
AcDbEntity
  8
0
  6
Continuous
 62
     7
370
    15
100
AcDbLine
 10
2052.193655320403
 20
991.0198673540879
 30
0.0
 11
2052.43442758943
 21
991.0756255038952
 31
0.0
  0
LINE
  5
E80
330
CE8
100
AcDbEntity
  8
0
  6
Continuous
 62
     7
370
    15
100
AcDbLine
 10
2061.85708281893
 20
1020.089517020727
 30
0.0
 11
2070.219629806898
 21
1017.024581867052
 31
0.0
  0
ARC
  5
E81
330
CE8
100
AcDbEntity
  8
0
  6
Continuous
 62
     7
370
    15
100
AcDbCircle
 10
2064.227495709066
 20
1016.698578627323
 30
0.0
 40
4.137308359015372
100
AcDbArc
 50
124.9552165811083
 51
164.3839833136722
  0
LINE
  5
E82
330
CE8
100
AcDbEntity
  8
0
  6
Continuous
 62
     7
370
    15
100
AcDbLine
 10
2057.67523436334
 20
1008.693563578266
 30
0.0
 11
2066.037781351308
 21
1005.628628424592
 31
0.0
  0
ARC
  5
E83
330
CE8
100
AcDbEntity
  8
0
  6
Continuous
 62
     7
370
    15
100
AcDbCircle
 10
2065.625948843592
 20
1008.641115584281
 30
0.0
 40
7.950887468614038
100
AcDbArc
 50
161.5860467526447
 51
179.622045903047
  0
ARC
  5
E84
330
CE8
100
AcDbEntity
  8
0
  6
Continuous
 62
     7
370
    15
100
AcDbCircle
 10
2036.029172142182
 20
955.908373563893
 30
0.0
 40
3.049561533161588
100
AcDbArc
 50
301.9110656942635
 51
323.8567138491053
  0
LINE
  5
E85
330
CE8
100
AcDbEntity
  8
0
  6
Continuous
 62
     7
370
    15
100
AcDbLine
 10
2057.738401669073
 20
995.9139217284603
 30
0.0
 11
2066.100948657041
 21
992.8489865747858
 31
0.0
  0
LINE
  5
E86
330
CE8
100
AcDbEntity
  8
0
  6
Continuous
 62
     7
370
    15
100
AcDbLine
 10
2057.738401669073
 20
995.9139217284603
 30
0.0
 11
2057.67523436334
 21
1008.693563578266
 31
0.0
  0
LINE
  5
E87
330
CE8
100
AcDbEntity
  8
0
  6
Continuous
 62
     7
370
    15
100
AcDbLine
 10
2070.540057964538
 20
1018.736926370075
 30
0.0
 11
2065.381850923873
 21
1020.627447297683
 31
0.0
  0
LINE
  5
E88
330
CE8
100
AcDbEntity
  8
0
  6
Continuous
 62
     7
370
    15
100
AcDbLine
 10
2070.540057964538
 20
1018.736926370075
 30
0.0
 11
2074.150701698747
 21
1020.849937431093
 31
0.0
  0
LINE
  5
E89
330
CE8
100
AcDbEntity
  8
0
  6
Continuous
 62
     7
370
    15
100
AcDbLine
 10
2074.150701698747
 20
1020.849937431093
 30
0.0
 11
2068.992494658082
 21
1022.740458358702
 31
0.0
  0
LINE
  5
E8A
330
CE8
100
AcDbEntity
  8
0
  6
Continuous
 62
     7
370
    15
100
AcDbLine
 10
2065.381850923873
 20
1020.627447297683
 30
0.0
 11
2068.992494658082
 21
1022.740458358702
 31
0.0
  0
LINE
  5
E8B
330
CE8
100
AcDbEntity
  8
0
  6
Continuous
 62
     7
370
    15
100
AcDbLine
 10
2067.423417542639
 20
1023.34703221922
 30
0.0
 11
2075.785964530608
 21
1020.282097065545
 31
0.0
  0
LINE
  5
E8C
330
CE8
100
AcDbEntity
  8
0
  6
Continuous
 62
     7
370
    15
100
AcDbLine
 10
2061.85708281893
 20
1020.089517020727
 30
0.0
 11
2067.423417542639
 21
1023.34703221922
 31
0.0
  0
LINE
  5
E8D
330
CE8
100
AcDbEntity
  8
0
  6
Continuous
 62
     7
370
    15
100
AcDbLine
 10
2052.327004976558
 20
992.3028956610531
 30
0.0
 11
2060.689551964527
 21
989.2379605073786
 31
0.0
  0
LINE
  5
E8E
330
CE8
100
AcDbEntity
  8
0
  6
Continuous
 62
     7
370
    15
100
AcDbLine
 10
2052.203204138685
 20
992.0605240538954
 30
0.0
 11
2060.565751126654
 21
988.9955889002207
 31
0.0
  0
ARC
  5
E8F
330
CE8
100
AcDbEntity
  8
0
  6
Continuous
 62
     7
370
    15
100
AcDbCircle
 10
2052.50912215877
 20
992.0570682633854
 30
0.0
 40
0.3059375385610482
100
AcDbArc
 50
126.5322885732205
 51
179.3527880792083
  0
LINE
  5
E90
330
CE8
100
AcDbEntity
  8
0
  6
Continuous
 62
     7
370
    15
100
AcDbLine
 10
2052.190910396549
 20
991.5752043808591
 30
0.0
 11
2052.203204138685
 21
992.0605240538954
 31
0.0
  0
LINE
  5
E91
330
CE8
100
AcDbEntity
  8
0
  6
Continuous
 62
     7
370
    15
100
AcDbLine
 10
2058.952713240487
 20
994.7299313292193
 30
0.0
 11
2057.428697624732
 21
995.2884942936121
 31
0.0
  0
LINE
  5
E92
330
CE8
100
AcDbEntity
  8
0
  6
Continuous
 62
     7
370
    15
100
AcDbLine
 10
2058.952713240487
 20
994.7299313292193
 30
0.0
 11
2055.677536920288
 21
992.8132415916531
 31
0.0
  0
LINE
  5
E93
330
CE8
100
AcDbEntity
  8
0
  6
Continuous
 62
     7
370
    15
100
AcDbLine
 10
2055.677536920288
 20
992.8132415916531
 30
0.0
 11
2060.99205308049
 21
990.8654322187897
 31
0.0
  0
LINE
  5
E94
330
CE8
100
AcDbEntity
  8
0
  6
Continuous
 62
     7
370
    15
100
AcDbLine
 10
2064.267229400689
 20
992.782121956356
 30
0.0
 11
2060.99205308049
 21
990.8654322187897
 31
0.0
  0
LINE
  5
E95
330
CE8
100
AcDbEntity
  8
0
  6
Continuous
 62
     7
370
    15
100
AcDbLine
 10
2064.267229400689
 20
992.782121956356
 30
0.0
 11
2065.791244612702
 21
992.2235591399374
 31
0.0
  0
LINE
  5
E96
330
CE8
100
AcDbEntity
  8
0
  6
Continuous
 62
     7
370
    15
100
AcDbLine
 10
2052.327004976558
 20
992.3028956610531
 30
0.0
 11
2057.428697624732
 21
995.2884942936121
 31
0.0
  0
ARC
  5
E97
330
CE8
100
AcDbEntity
  8
0
  6
Continuous
 62
     7
370
    15
100
AcDbCircle
 10
2052.595710271362
 20
989.9946198653863
 30
0.0
 40
0.3825123617193045
100
AcDbArc
 50
72.11436691107708
 51
117.2617999111761
  0
ARC
  5
E98
330
CE8
100
AcDbEntity
  8
0
  6
Continuous
 62
     7
370
    15
100
AcDbCircle
 10
2052.288099969315
 20
991.4746089414968
 30
0.0
 40
0.0967180497262786
100
AcDbArc
 50
181.6341034274898
 51
243.5942943968784
  0
LINE
  5
E99
330
CE8
100
AcDbEntity
  8
0
  6
Continuous
 62
     7
370
    15
100
AcDbLine
 10
2052.433365686487
 20
991.2904635303197
 30
0.0
 11
2060.795912674455
 21
988.2255283766451
 31
0.0
  0
LINE
  5
E9A
330
CE8
100
AcDbEntity
  8
0
  6
Continuous
 62
     7
370
    15
100
AcDbLine
 10
2052.431356593726
 20
991.3197083854369
 30
0.0
 11
2052.433365686487
 21
991.2904635303197
 31
0.0
  0
LINE
  5
E9B
330
CE8
100
AcDbEntity
  8
0
  6
Continuous
 62
     7
370
    15
100
AcDbLine
 10
2053.489515300668
 20
990.6889280753446
 30
0.0
 11
2053.490241069182
 21
990.5420948112782
 31
0.0
  0
LINE
  5
E9C
330
CE8
100
AcDbEntity
  8
0
  6
Continuous
 62
     7
370
    15
100
AcDbLine
 10
2052.433365686487
 20
991.2904635303197
 30
0.0
 11
2052.43442758943
 21
991.0756255038952
 31
0.0
  0
ARC
  5
E9D
330
CE8
100
AcDbEntity
  8
0
  6
Continuous
 62
     7
370
    15
100
AcDbCircle
 10
2053.054026345815
 20
990.8196731453474
 30
0.0
 40
0.6144387072161868
100
AcDbArc
 50
276.3129913614009
 51
296.7629403358204
  0
LINE
  5
E9E
330
CE8
100
AcDbEntity
  8
0
  6
Continuous
 62
     7
370
    15
100
AcDbLine
 10
2053.330708163361
 20
990.2710547927879
 30
0.0
 11
2059.017279760769
 21
988.1868843578885
 31
0.0
  0
ARC
  5
E9F
330
CE8
100
AcDbEntity
  8
0
  6
Continuous
 62
     7
370
    15
100
AcDbCircle
 10
2053.183584410497
 20
990.5381890081988
 30
0.0
 40
0.3066815312561766
100
AcDbArc
 50
306.575374377914
 51
0.7297214188005873
  0
LINE
  5
EA0
330
CE8
100
AcDbEntity
  8
0
  6
Continuous
 62
     7
370
    15
100
AcDbLine
 10
2053.366329730932
 20
990.2919011492352
 30
0.0
 11
2053.330708163361
 21
990.2710547927879
 31
0.0
  0
LINE
  5
EA1
330
CE8
100
AcDbEntity
  8
0
  6
Continuous
 62
     7
370
    15
100
AcDbLine
 10
2068.774416384618
 20
1019.384018845381
 30
0.0
 11
2069.506852332431
 21
1019.812653009576
 31
0.0
  0
ELLIPSE
  5
EA2
330
CE8
100
AcDbEntity
  8
0
  6
Continuous
 62
     7
370
    15
100
AcDbEllipse
 10
2069.740789822585
 20
1020.500815701173
 30
0.0
 11
1.491108605041063
 21
0.0206136624343287
 31
0.0
210
0.0
220
0.0
230
1.0
 40
0.4654810707254697
 41
4.548433028132771
 42
4.855117470863612
  0
LINE
  5
EA3
330
CE8
100
AcDbEntity
  8
0
  6
Continuous
 62
     7
370
    15
100
AcDbLine
 10
2071.452143956785
 20
1019.270685204852
 30
0.0
 11
2069.962367109713
 21
1019.816699407976
 31
0.0
  0
ARC
  5
EA4
330
CE8
100
AcDbEntity
  8
0
  6
Continuous
 62
     7
370
    15
100
AcDbCircle
 10
2055.79166125148
 20
992.6494089710356
 30
0.0
 40
0.1996634431948775
100
AcDbArc
 50
72.47704500718722
 51
124.860722528606
  0
LINE
  5
EA5
330
CE8
100
AcDbEntity
  8
0
  6
Continuous
 62
     7
370
    15
100
AcDbLine
 10
2069.360788396164
 20
1019.759648657163
 30
0.0
 11
2068.337097568872
 21
1020.134838896163
 31
0.0
  0
ELLIPSE
  5
EA6
330
CE8
100
AcDbEntity
  8
0
  6
Continuous
 62
     7
370
    15
100
AcDbEllipse
 10
2069.58235991624
 20
1019.075532787369
 30
0.0
 11
1.49110860504107
 21
0.020613662434414
 31
0.0
210
0.0
220
0.0
230
1.0
 40
0.4654810707255436
 41
0.711697207663089
 42
1.054785990226895
  0
ELLIPSE
  5
EA7
330
CE8
100
AcDbEntity
  8
0
  6
Continuous
 62
     7
370
    15
100
AcDbEllipse
 10
2069.58235991624
 20
1019.075532787369
 30
0.0
 11
1.49110860504107
 21
0.020613662434414
 31
0.0
210
0.0
220
0.0
230
1.0
 40
0.4654810707255436
 41
1.670870463213359
 42
1.713524817272954
  0
LINE
  5
EA8
330
CE8
100
AcDbEntity
  8
0
  6
Continuous
 62
     7
370
    15
100
AcDbLine
 10
2067.615997747779
 20
1019.80858782034
 30
0.0
 11
2068.348433695592
 21
1020.237221984534
 31
0.0
  0
LINE
  5
EA9
330
CE8
100
AcDbEntity
  8
0
  6
Continuous
 62
     7
370
    15
100
AcDbLine
 10
2068.348433695592
 20
1020.237221984534
 30
0.0
 11
2068.274030180232
 21
1019.567449380096
 31
0.0
  0
LINE
  5
EAA
330
CE8
100
AcDbEntity
  8
0
  6
Continuous
 62
     7
370
    15
100
AcDbLine
 10
2065.83975564386
 20
1020.45959365308
 30
0.0
 11
2066.751861126643
 21
1020.993373531631
 31
0.0
  0
LINE
  5
EAB
330
CE8
100
AcDbEntity
  8
0
  6
Continuous
 62
     7
370
    15
100
AcDbLine
 10
2066.751861126643
 20
1020.993373531631
 30
0.0
 11
2068.252257624314
 21
1020.443467148232
 31
0.0
  0
ELLIPSE
  5
EAC
330
CE8
100
AcDbEntity
  8
0
  6
Continuous
 62
     7
370
    15
100
AcDbEllipse
 10
2069.740789822585
 20
1020.500815701173
 30
0.0
 11
1.491108605041063
 21
0.0206136624343287
 31
0.0
210
0.0
220
0.0
230
1.0
 40
0.4654810707254697
 41
3.19455103420605
 42
3.501235476936492
  0
LINE
  5
EAD
330
CE8
100
AcDbEntity
  8
0
  6
Continuous
 62
     7
370
    15
100
AcDbLine
 10
2058.509984321111
 20
991.8655212321299
 30
0.0
 11
2058.809532701433
 21
992.0408221168264
 31
0.0
  0
LINE
  5
EAE
330
CE8
100
AcDbEntity
  8
0
  6
Continuous
 62
     7
370
    15
100
AcDbLine
 10
2061.386580620618
 20
991.096315046005
 30
0.0
 11
2058.809532701433
 21
992.0408221168264
 31
0.0
  0
LINE
  5
EAF
330
CE8
100
AcDbEntity
  8
0
  6
Continuous
 62
     7
370
    15
100
AcDbLine
 10
2072.719052151215
 20
1020.012101756909
 30
0.0
 11
2071.229275668079
 21
1020.558115826649
 31
0.0
  0
LINE
  5
EB0
330
CE8
100
AcDbEntity
  8
0
  6
Continuous
 62
     7
370
    15
100
AcDbLine
 10
2071.229275668079
 20
1020.558115826649
 30
0.0
 11
2071.100531298441
 21
1019.399597435086
 31
0.0
  0
LINE
  5
EB1
330
CE8
100
AcDbEntity
  8
0
  6
Continuous
 62
     7
370
    15
100
AcDbLine
 10
2079.786430245949
 20
1020.936322415716
 30
0.0
 11
2072.696442005375
 21
1022.270923926695
 31
0.0
  0
ELLIPSE
  5
EB2
330
CE8
100
AcDbEntity
  8
0
  6
Continuous
 62
     7
370
    15
100
AcDbEllipse
 10
2074.650277288208
 20
1021.554789433938
 30
0.0
 11
2.478970629511124
 21
-0.7461281505296427
 31
0.0
210
0.0
220
0.0
230
1.0
 40
0.0793549201502654
 41
2.502151559498921
 42
4.072947886291164
  0
LINE
  5
EB3
330
CE8
100
AcDbEntity
  8
0
  6
Continuous
 62
     7
370
    15
100
AcDbLine
 10
2076.640428282625
 20
1020.553217038343
 30
0.0
 11
2073.123469317196
 21
1021.842208440447
 31
0.0
  0
ELLIPSE
  5
EB4
330
CE8
100
AcDbEntity
  8
0
  6
Continuous
 62
     7
370
    15
100
AcDbEllipse
 10
2078.167236405035
 20
1020.265797976346
 30
0.0
 11
2.478970629511124
 21
-0.7461281505296711
 31
0.0
210
0.0
220
0.0
230
0.9999999999999998
 40
0.0793549201502648
 41
4.072947886291217
 42
5.643744213088496
  0
LINE
  5
EB5
330
CE8
100
AcDbEntity
  8
0
  6
Continuous
 62
     7
370
    15
100
AcDbLine
 10
2087.211121521555
 20
1018.215118298295
 30
0.0
 11
2080.121133280981
 21
1019.549719809274
 31
0.0
  0
ELLIPSE
  5
EB6
330
CE8
100
AcDbEntity
  8
0
  6
Continuous
 62
     7
370
    15
100
AcDbEllipse
 10
2085.257254536342
 20
1018.931234800467
 30
0.0
 11
2.422242694019526
 21
-0.7416597303846971
 31
0.0
210
0.0
220
0.0
230
1.0
 40
0.0777728706964813
 41
5.674247697933561
 42
7.245044024728461
  0
LINE
  5
EB7
330
CE8
100
AcDbEntity
  8
0
  6
Continuous
 62
     7
370
    15
100
AcDbLine
 10
2086.690108347044
 20
1018.661560414906
 30
0.0
 11
2083.173149381615
 21
1019.95055181701
 31
0.0
  0
ELLIPSE
  5
EB8
330
CE8
100
AcDbEntity
  8
0
  6
Continuous
 62
     7
370
    15
100
AcDbEllipse
 10
2081.740295419516
 20
1020.220226258059
 30
0.0
 11
2.422242694019526
 21
-0.7416597303847255
 31
0.0
210
0.0
220
0.0
230
1.0
 40
0.0777728706964806
 41
0.9618587175490066
 42
2.532655044344181
  0
LINE
  5
EB9
330
CE8
100
AcDbEntity
  8
0
  6
Continuous
 62
     7
370
    15
100
AcDbLine
 10
2081.736645873027
 20
1020.652819900437
 30
0.0
 11
2090.099192860995
 21
1017.587884746762
 31
0.0
  0
LINE
  5
EBA
330
CE8
100
AcDbEntity
  8
0
  6
Continuous
 62
     7
370
    15
100
AcDbLine
 10
2067.423417542639
 20
1023.34703221922
 30
0.0
 11
2081.736645873027
 21
1020.652819900437
 31
0.0
  0
ELLIPSE
  5
EBB
330
CE8
100
AcDbEntity
  8
0
  6
Continuous
 62
     7
370
    15
100
AcDbEllipse
 10
2069.740789822585
 20
1020.500815701173
 30
0.0
 11
1.491108605041091
 21
0.0206136624345845
 31
0.0
210
0.0
220
0.0
230
1.0
 40
0.4654810707256325
 41
0.0529581315030365
 42
1.71352506638671
  0
LINE
  5
EBC
330
CE8
100
AcDbEntity
  8
0
  6
Continuous
 62
     7
370
    15
100
AcDbLine
 10
2069.519165454808
 20
1021.184883833675
 30
0.0
 11
2068.018769321073
 21
1021.734790083689
 31
0.0
  0
LINE
  5
EBD
330
CE8
100
AcDbEntity
  8
0
  6
Continuous
 62
     7
370
    15
100
AcDbLine
 10
2068.018769321073
 20
1021.734790083689
 30
0.0
 11
2069.00063060841
 21
1022.309392263591
 31
0.0
  0
ELLIPSE
  5
EBE
330
CE8
100
AcDbEntity
  8
0
  6
Continuous
 62
     7
370
    15
100
AcDbEllipse
 10
2069.156958633953
 20
1022.252125268421
 30
0.0
 11
0.2012002519344733
 21
0.0027814664489085
 31
0.0
210
0.0
220
0.0
230
1.0
 40
0.4654810678699149
 41
0.8832416229810228
 42
2.454037949775033
  0
LINE
  5
EBF
330
CE8
100
AcDbEntity
  8
0
  6
Continuous
 62
     7
370
    15
100
AcDbLine
 10
2069.283660384986
 20
1022.326262848427
 30
0.0
 11
2073.827634004607
 21
1020.660863000249
 31
0.0
  0
LINE
  5
EC0
330
CE8
100
AcDbEntity
  8
0
  6
Continuous
 62
     7
370
    15
100
AcDbLine
 10
2064.34509597392
 20
992.8418023823482
 30
0.0
 11
2059.030579813718
 21
994.7896117552115
 31
0.0
  0
ARC
  5
EC1
330
CE8
100
AcDbEntity
  8
0
  6
Continuous
 62
     7
370
    15
100
AcDbCircle
 10
2058.7346237399
 20
995.0951157249857
 30
0.0
 40
0.4253500595716242
100
AcDbArc
 50
300.8458084330662
 51
314.0905327766871
  0
ARC
  5
EC2
330
CE8
100
AcDbEntity
  8
0
  6
Continuous
 62
     7
370
    15
100
AcDbCircle
 10
2064.049139900103
 20
993.1473063521211
 30
0.0
 40
0.4253500595700191
100
AcDbArc
 50
300.8458084330338
 51
314.0905327767055
  0
ARC
  5
EC3
330
CE8
100
AcDbEntity
  8
0
  6
Continuous
 62
     7
370
    15
100
AcDbCircle
 10
2056.971841252752
 20
995.9041185536019
 30
0.0
 40
0.7666230978175807
100
AcDbArc
 50
306.5792065511873
 51
0.7326884039506601
  0
LINE
  5
EC4
330
CE8
100
AcDbEntity
  8
0
  6
Continuous
 62
     7
370
    15
100
AcDbLine
 10
2068.992494658082
 20
1022.740458358702
 30
0.0
 11
2068.940726870261
 21
1022.274346005041
 31
0.0
  0
LINE
  5
EC5
330
CE8
100
AcDbEntity
  8
0
  6
Continuous
 62
     7
370
    15
100
AcDbLine
 10
2069.519165454808
 20
1021.184883833675
 30
0.0
 11
2069.360788396164
 21
1019.759648657163
 31
0.0
  0
ARC
  5
EC6
330
CE8
100
AcDbEntity
  8
0
  6
Continuous
 62
     7
370
    15
100
AcDbCircle
 10
2059.621385270816
 20
994.2171302418161
 30
0.0
 40
0.8226701473353573
100
AcDbArc
 50
135.902440966703
 51
179.5328013596464
  0
LINE
  5
EC7
330
CE8
100
AcDbEntity
  8
0
  6
Continuous
 62
     7
370
    15
100
AcDbLine
 10
2058.798742473095
 20
994.2238383469909
 30
0.0
 11
2058.809532701433
 21
992.0408221168264
 31
0.0
  0
LINE
  5
EC8
330
CE8
100
AcDbEntity
  8
0
  6
Continuous
 62
     7
370
    15
100
AcDbLine
 10
2068.018769321073
 20
1021.734790083689
 30
0.0
 11
2067.890024951435
 21
1020.576271692126
 31
0.0
  0
LINE
  5
EC9
330
CE8
100
AcDbEntity
  8
0
  6
Continuous
 62
     7
370
    15
100
AcDbLine
 10
2081.736645873027
 20
1020.652819900437
 30
0.0
 11
2081.909387817847
 21
1020.605356162433
 31
0.0
  0
LINE
  5
ECA
330
CE8
100
AcDbEntity
  8
0
  6
Continuous
 62
     7
370
    15
100
AcDbLine
 10
2086.198370933072
 20
974.1120769682632
 30
0.0
 11
2078.187519594852
 21
977.0481130721792
 31
0.0
  0
LINE
  5
ECB
330
CE8
100
AcDbEntity
  8
0
  6
Continuous
 62
     7
370
    15
100
AcDbLine
 10
2075.202521472275
 20
975.3012406265906
 30
0.0
 11
2078.187519594852
 21
977.0481130721792
 31
0.0
  0
LWPOLYLINE
  5
ECC
330
CE8
100
AcDbEntity
  8
0
  6
Continuous
 62
     7
370
    15
100
AcDbPolyline
 90
        3
 70
   128
 43
0.0
 10
2089.810947185578
 20
1005.180536369554
 10
2089.881486606522
 20
1005.18353335479
 10
2089.972120670918
 20
1005.164930655717
  0
LINE
  5
ECD
330
CE8
100
AcDbEntity
  8
0
  6
Continuous
 62
     7
370
    15
100
AcDbLine
 10
2086.49800909543
 20
974.6162589304594
 30
0.0
 11
2078.48715775721
 21
977.5522950343756
 31
0.0
  0
LINE
  5
ECE
330
CE8
100
AcDbEntity
  8
0
  6
Continuous
 62
     7
370
    15
100
AcDbLine
 10
2078.48715775721
 20
977.5522950343756
 30
0.0
 11
2078.942089008629
 21
980.3018724703088
 31
0.0
  0
ARC
  5
ECF
330
CE8
100
AcDbEntity
  8
0
  6
Continuous
 62
     7
370
    15
100
AcDbCircle
 10
2077.750672809611
 20
977.6488628616304
 30
0.0
 40
0.7427889493666773
100
AcDbArc
 50
306.0234961430787
 51
352.5299981768971
  0
LINE
  5
ED0
330
CE8
100
AcDbEntity
  8
0
  6
Continuous
 62
     7
370
    15
100
AcDbLine
 10
2088.391590317631
 20
976.9946678134234
 30
0.0
 11
2087.637279956661
 21
977.2711281245516
 31
0.0
  0
LINE
  5
ED1
330
CE8
100
AcDbEntity
  8
0
  6
Continuous
 62
     8
370
    15
100
AcDbLine
 10
2025.96210394637
 20
974.0856138098147
 30
0.0
 11
2020.466245697243
 21
976.0998863958578
 31
0.0
  0
LINE
  5
ED2
330
CE8
100
AcDbEntity
  8
0
  6
Continuous
 62
     8
370
    15
100
AcDbLine
 10
2025.960628210471
 20
974.3763408406742
 30
0.0
 11
2020.584654825728
 21
976.3466747396433
 31
0.0
  0
LINE
  5
ED3
330
CE8
100
AcDbEntity
  8
0
  6
Continuous
 62
     8
370
    15
100
AcDbLine
 10
2025.968674065079
 20
972.7606483801563
 30
0.0
 11
2020.472794707668
 21
974.7749287025413
 31
0.0
  0
LINE
  5
ED4
330
CE8
100
AcDbEntity
  8
0
  6
Continuous
 62
     8
370
    15
100
AcDbLine
 10
2025.958733537515
 20
974.7626858915131
 30
0.0
 11
2020.964997334661
 21
976.5929270439185
 31
0.0
  0
LINE
  5
ED5
330
CE8
100
AcDbEntity
  8
0
  6
Continuous
 62
     8
370
    15
100
AcDbLine
 10
2025.95656351743
 20
975.2005572745281
 30
0.0
 11
2021.600169029813
 21
976.7972079872334
 31
0.0
  0
LINE
  5
ED6
330
CE8
100
AcDbEntity
  8
0
  6
Continuous
 62
     8
370
    15
100
AcDbLine
 10
2025.958004453123
 20
974.9044210794796
 30
0.0
 11
2021.476257691563
 21
976.5470143251903
 31
0.0
  0
LINE
  5
ED7
330
CE8
100
AcDbEntity
  8
0
  6
Continuous
 62
     8
370
    15
100
AcDbLine
 10
2036.650124577406
 20
997.1502007667487
 30
0.0
 11
2036.778668872683
 21
993.9432311703217
 31
0.0
  0
LINE
  5
ED8
330
CE8
100
AcDbEntity
  8
0
  6
Continuous
 62
     8
370
    15
100
AcDbLine
 10
2026.578894014914
 20
968.2153193833377
 30
0.0
 11
2020.494194700866
 21
970.4454065629965
 31
0.0
  0
LINE
  5
ED9
330
CE8
100
AcDbEntity
  8
0
  6
Continuous
 62
     8
370
    15
100
AcDbLine
 10
2028.44093260698
 20
968.1077902605588
 30
0.0
 11
2028.556960478321
 21
968.0652651898848
 31
0.0
  0
LINE
  5
EDA
330
CE8
100
AcDbEntity
  8
0
  6
Continuous
 62
     8
370
    15
100
AcDbLine
 10
2026.001737693853
 20
967.1043203509915
 30
0.0
 11
2020.500743580804
 21
969.1204752690444
 31
0.0
  0
LINE
  5
EDB
330
CE8
100
AcDbEntity
  8
0
  6
Continuous
 62
     8
370
    15
100
AcDbLine
 10
2021.386459371419
 20
971.794412225328
 30
0.0
 11
2027.489605142293
 21
969.55756428318
 31
0.0
  0
LINE
  5
EDC
330
CE8
100
AcDbEntity
  8
0
  6
Continuous
 62
     8
370
    15
100
AcDbLine
 10
2021.503016700229
 20
970.8918645624592
 30
0.0
 11
2027.630790015858
 21
968.6459904435043
 31
0.0
  0
LINE
  5
EDD
330
CE8
100
AcDbEntity
  8
0
  6
Continuous
 62
     8
370
    15
100
AcDbLine
 10
2026.009804617956
 20
964.4249138334386
 30
0.0
 11
2019.882787561201
 21
966.6705107779378
 31
0.0
  0
LINE
  5
EDE
330
CE8
100
AcDbEntity
  8
0
  6
Continuous
 62
     8
370
    15
100
AcDbLine
 10
2026.007461307819
 20
964.9049292991618
 30
0.0
 11
2020.386248965069
 21
966.9651450851361
 31
0.0
  0
LINE
  5
EDF
330
CE8
100
AcDbEntity
  8
0
  6
Continuous
 62
     8
370
    15
100
AcDbLine
 10
2021.628109160323
 20
971.1445233111424
 30
0.0
 11
2027.570711144098
 21
968.9665158511456
 31
0.0
  0
LINE
  5
EE0
330
CE8
100
AcDbEntity
  8
0
  6
Continuous
 62
     8
370
    15
100
AcDbLine
 10
2026.004026593446
 20
965.6039207266577
 30
0.0
 11
2020.508169072191
 21
967.6181930459303
 31
0.0
  0
LINE
  5
EE1
330
CE8
100
AcDbEntity
  8
0
  6
Continuous
 62
     8
370
    15
100
AcDbLine
 10
2026.002549271316
 20
965.894674690422
 30
0.0
 11
2020.626578070189
 21
967.8650077890798
 31
0.0
  0
LINE
  5
EE2
330
CE8
100
AcDbEntity
  8
0
  6
Continuous
 62
     8
370
    15
100
AcDbLine
 10
2026.006018552446
 20
965.2010661611363
 30
0.0
 11
2020.510160303319
 21
967.2153387471794
 31
0.0
  0
LINE
  5
EE3
330
CE8
100
AcDbEntity
  8
0
  6
Continuous
 62
     8
370
    15
100
AcDbLine
 10
2026.000614936231
 20
966.2809371497251
 30
0.0
 11
2021.00684634308
 21
968.1111901734137
 31
0.0
  0
LINE
  5
EE4
330
CE8
100
AcDbEntity
  8
0
  6
Continuous
 62
     8
370
    15
100
AcDbLine
 10
2025.99848398089
 20
966.718864991682
 30
0.0
 11
2021.642092404761
 21
968.3155146373058
 31
0.0
  0
LINE
  5
EE5
330
CE8
100
AcDbEntity
  8
0
  6
Continuous
 62
     8
370
    15
100
AcDbLine
 10
2025.999927100199
 20
966.4227279963222
 30
0.0
 11
2021.518181066511
 21
968.0653209752625
 31
0.0
  0
LINE
  5
EE6
330
CE8
100
AcDbEntity
  8
0
  6
Continuous
 62
     8
370
    15
100
AcDbLine
 10
2030.943019268671
 20
942.6013630753375
 30
0.0
 11
2029.765277453337
 21
943.0330141377428
 31
0.0
  0
LINE
  5
EE7
330
CE8
100
AcDbEntity
  8
0
  6
Continuous
 62
     8
370
    15
100
AcDbLine
 10
2029.91438575753
 20
941.4402216176942
 30
0.0
 11
2029.479277782612
 21
941.5996918998807
 31
0.0
  0
LINE
  5
EE8
330
CE8
100
AcDbEntity
  8
0
  6
Continuous
 62
     8
370
    15
100
AcDbLine
 10
2030.644441976403
 20
941.8674631234203
 30
0.0
 11
2029.531369393192
 21
942.2754124352488
 31
0.0
  0
LINE
  5
EE9
330
CE8
100
AcDbEntity
  8
0
  6
Continuous
 62
     8
370
    15
100
AcDbLine
 10
2032.116725409256
 20
942.4625641383988
 30
0.0
 11
2031.826653911224
 21
942.5688774820097
 31
0.0
  0
LINE
  5
EEA
330
CE8
100
AcDbEntity
  8
0
  6
Continuous
 62
     8
370
    15
100
AcDbLine
 10
2042.722706767158
 20
958.7386162520049
 30
0.0
 11
2042.337030754614
 21
958.8799693553683
 31
0.0
  0
LINE
  5
EEB
330
CE8
100
AcDbEntity
  8
0
  6
Continuous
 62
     8
370
    15
100
AcDbLine
 10
2052.248760113951
 20
984.5743315559294
 30
0.0
 11
2052.538831611982
 21
984.4680182123186
 31
0.0
  0
LINE
  5
EEC
330
CE8
100
AcDbEntity
  8
0
  6
Continuous
 62
     8
370
    15
100
AcDbLine
 10
2043.581420527165
 20
952.5711468200558
 30
0.0
 11
2036.18742388131
 21
955.2811011292677
 31
0.0
  0
LINE
  5
EED
330
CE8
100
AcDbEntity
  8
0
  6
Continuous
 62
     8
370
    15
100
AcDbLine
 10
2052.210035887869
 20
987.7055902872116
 30
0.0
 11
2054.289992720168
 21
986.9432707663033
 31
0.0
  0
LINE
  5
EEE
330
CE8
100
AcDbEntity
  8
0
  6
Continuous
 62
     8
370
    15
100
AcDbLine
 10
2052.201429462826
 20
989.4470852071471
 30
0.0
 11
2057.640524260157
 21
987.4536168448775
 31
0.0
  0
LINE
  5
EEF
330
CE8
100
AcDbEntity
  8
0
  6
Continuous
 62
     8
370
    15
100
AcDbLine
 10
2044.77263202369
 20
959.9358586185598
 30
0.0
 11
2044.27350116687
 21
960.1187937591994
 31
0.0
  0
LINE
  5
EF0
330
CE8
100
AcDbEntity
  8
0
  6
Continuous
 62
     8
370
    15
100
AcDbLine
 10
2044.571022369432
 20
955.2312446118349
 30
0.0
 11
2043.859804934712
 21
955.4919110476367
 31
0.0
  0
LINE
  5
EF1
330
CE8
100
AcDbEntity
  8
0
  6
Continuous
 62
     8
370
    15
100
AcDbLine
 10
2052.213643074994
 20
986.9652611985722
 30
0.0
 11
2053.513494131151
 21
986.4888561987214
 31
0.0
  0
LINE
  5
EF2
330
CE8
100
AcDbEntity
  8
0
  6
Continuous
 62
     8
370
    15
100
AcDbLine
 10
2047.7632820025
 20
961.6860386280109
 30
0.0
 11
2047.264151145681
 21
961.8689737686505
 31
0.0
  0
LINE
  5
EF3
330
CE8
100
AcDbEntity
  8
0
  6
Continuous
 62
     8
370
    15
100
AcDbLine
 10
2047.411419755961
 20
953.4748423725442
 30
0.0
 11
2045.141087307929
 21
954.3069359608386
 31
0.0
  0
LINE
  5
EF4
330
CE8
100
AcDbEntity
  8
0
  6
Continuous
 62
     8
370
    15
100
AcDbLine
 10
2049.165862401667
 20
963.2255100441922
 30
0.0
 11
2049.148771242265
 21
963.2317740801788
 31
0.0
  0
LINE
  5
EF5
330
CE8
100
AcDbEntity
  8
0
  6
Continuous
 62
     8
370
    15
100
AcDbLine
 10
2048.670007068203
 20
959.8077227758869
 30
0.0
 11
2048.6347948107
 21
959.8206283279894
 31
0.0
  0
LINE
  5
EF6
330
CE8
100
AcDbEntity
  8
0
  6
Continuous
 62
     8
370
    15
100
AcDbLine
 10
2047.220555669964
 20
952.5261947160142
 30
0.0
 11
2045.077545481096
 21
953.3116237571899
 31
0.0
  0
LINE
  5
EF7
330
CE8
100
AcDbEntity
  8
0
  6
Continuous
 62
     8
370
    15
100
AcDbLine
 10
2049.106739255504
 20
959.7057248177225
 30
0.0
 11
2048.551927656296
 21
959.9090673611513
 31
0.0
  0
LINE
  5
EF8
330
CE8
100
AcDbEntity
  8
0
  6
Continuous
 62
     8
370
    15
100
AcDbLine
 10
2050.406452976098
 20
963.1803400800718
 30
0.0
 11
2050.179334388318
 21
963.2635807177317
 31
0.0
  0
LINE
  5
EF9
330
CE8
100
AcDbEntity
  8
0
  6
Continuous
 62
     8
370
    15
100
AcDbLine
 10
2051.134841875994
 20
959.0711813432152
 30
0.0
 11
2048.516584126073
 21
960.0307921209674
 31
0.0
  0
LINE
  5
EFA
330
CE8
100
AcDbEntity
  8
0
  6
Continuous
 62
     8
370
    15
100
AcDbLine
 10
2051.668941924814
 20
965.536811946186
 30
0.0
 11
2051.94384311731
 21
965.4360586314508
 31
0.0
  0
LINE
  5
EFB
330
CE8
100
AcDbEntity
  8
0
  6
Continuous
 62
     8
370
    15
100
AcDbLine
 10
2052.191177873856
 20
991.5098462823094
 30
0.0
 11
2060.551763178894
 21
988.4456300998982
 31
0.0
  0
LINE
  5
EFC
330
CE8
100
AcDbEntity
  8
0
  6
Continuous
 62
     8
370
    15
100
AcDbLine
 10
2052.413464502063
 20
964.1588443888741
 30
0.0
 11
2052.687967548645
 21
964.0582369975529
 31
0.0
  0
LINE
  5
EFD
330
CE8
100
AcDbEntity
  8
0
  6
Continuous
 62
     8
370
    15
100
AcDbLine
 10
2048.478518320221
 20
955.9827571813803
 30
0.0
 11
2048.394259144561
 21
956.0136387907594
 31
0.0
  0
LINE
  5
EFE
330
CE8
100
AcDbEntity
  8
0
  6
Continuous
 62
     8
370
    15
100
AcDbLine
 10
2051.439849693152
 20
963.6795959092747
 30
0.0
 11
2051.348215719696
 21
963.7131804364432
 31
0.0
  0
LINE
  5
EFF
330
CE8
100
AcDbEntity
  8
0
  6
Continuous
 62
     8
370
    15
100
AcDbLine
 10
2048.784766398233
 20
956.0851727593878
 30
0.0
 11
2048.373849244947
 21
956.2357769270134
 31
0.0
  0
LINE
  5
F00
330
CE8
100
AcDbEntity
  8
0
  6
Continuous
 62
     8
370
    15
100
AcDbLine
 10
2052.015293313444
 20
962.6140155942087
 30
0.0
 11
2051.307144586532
 21
962.8735573259637
 31
0.0
  0
LINE
  5
F01
330
CE8
100
AcDbEntity
  8
0
  6
Continuous
 62
     8
370
    15
100
AcDbLine
 10
2053.490241069182
 20
990.5420948112782
 30
0.0
 11
2059.497066827495
 21
988.3405488641953
 31
0.0
  0
LINE
  5
F02
330
CE8
100
AcDbEntity
  8
0
  6
Continuous
 62
     8
370
    15
100
AcDbLine
 10
2053.366329730932
 20
990.2919011492352
 30
0.0
 11
2059.063193436595
 21
988.2039585807449
 31
0.0
  0
LINE
  5
F03
330
CE8
100
AcDbEntity
  8
0
  6
Continuous
 62
     8
370
    15
100
AcDbLine
 10
2052.453597313495
 20
964.0845308548893
 30
0.0
 11
2052.749081266759
 21
963.9762338065132
 31
0.0
  0
LINE
  5
F04
330
CE8
100
AcDbEntity
  8
0
  6
Continuous
 62
     8
370
    15
100
AcDbLine
 10
2051.04041952809
 20
958.5887378916085
 30
0.0
 11
2049.266504066607
 21
959.2388909927352
 31
0.0
  0
LINE
  5
F05
330
CE8
100
AcDbEntity
  8
0
  6
Continuous
 62
     8
370
    15
100
AcDbLine
 10
2052.632430091158
 20
958.5151530662843
 30
0.0
 11
2052.052281999993
 21
958.7277816208988
 31
0.0
  0
LINE
  5
F06
330
CE8
100
AcDbEntity
  8
0
  6
Continuous
 62
     8
370
    15
100
AcDbLine
 10
2052.81299202448
 20
958.6208210275662
 30
0.0
 11
2052.008790413984
 21
958.9155668496461
 31
0.0
  0
LINE
  5
F07
330
CE8
100
AcDbEntity
  8
0
  6
Continuous
 62
     8
370
    15
100
AcDbLine
 10
2063.676165023915
 20
992.4362270059916
 30
0.0
 11
2058.798742473095
 21
994.2238383469909
 31
0.0
  0
LINE
  5
F08
330
CE8
100
AcDbEntity
  8
0
  6
Continuous
 62
     8
370
    15
100
AcDbLine
 10
2072.688857329045
 20
1022.009829540789
 30
0.0
 11
2072.696442005375
 21
1022.270923926695
 31
0.0
  0
LINE
  5
F09
330
CE8
100
AcDbEntity
  8
0
  6
Continuous
 62
     8
370
    15
100
AcDbLine
 10
2067.008068867711
 20
972.6630913008277
 30
0.0
 11
2066.814251873773
 21
972.7341266587101
 31
0.0
  0
LINE
  5
F0A
330
CE8
100
AcDbEntity
  8
0
  6
Continuous
 62
     8
370
    15
100
AcDbLine
 10
2066.248485648003
 20
967.179577248644
 30
0.0
 11
2062.526983768744
 21
968.5435351373849
 31
0.0
  0
LINE
  5
F0B
330
CE8
100
AcDbEntity
  8
0
  6
Continuous
 62
     8
370
    15
100
AcDbLine
 10
2079.786430245949
 20
1020.936322415716
 30
0.0
 11
2079.204387254536
 21
1019.760974070059
 31
0.0
  0
LINE
  5
F0C
330
CE8
100
AcDbEntity
  8
0
  6
Continuous
 62
     8
370
    15
100
AcDbLine
 10
2065.462292471969
 20
966.0234100746267
 30
0.0
 11
2061.009384175905
 21
967.6554338100189
 31
0.0
  0
LINE
  5
F0D
330
CE8
100
AcDbEntity
  8
0
  6
Continuous
 62
     8
370
    15
100
AcDbLine
 10
2065.152514191587
 20
965.397912719837
 30
0.0
 11
2060.232882441952
 21
967.2009940435394
 31
0.0
  0
LINE
  5
F0E
330
CE8
100
AcDbEntity
  8
0
  6
Continuous
 62
     8
370
    15
100
AcDbLine
 10
2065.642854405291
 20
966.1290780359086
 30
0.0
 11
2061.189946109228
 21
967.7611017713006
 31
0.0
  0
LINE
  5
F0F
330
CE8
100
AcDbEntity
  8
0
  6
Continuous
 62
     8
370
    15
100
AcDbLine
 10
2065.153389889627
 20
965.220746586225
 30
0.0
 11
2060.047071196935
 21
967.0922500515708
 31
0.0
  0
LINE
  5
F10
330
CE8
100
AcDbEntity
  8
0
  6
Continuous
 62
     8
370
    15
100
AcDbLine
 10
2069.711987523289
 20
974.8890166969619
 30
0.0
 11
2069.245269528757
 21
975.0600722844943
 31
0.0
  0
LINE
  5
F11
330
CE8
100
AcDbEntity
  8
0
  6
Continuous
 62
     8
370
    15
100
AcDbLine
 10
2069.723729654057
 20
972.5134171044521
 30
0.0
 11
2067.790168599364
 21
973.2220814930446
 31
0.0
  0
LINE
  5
F12
330
CE8
100
AcDbEntity
  8
0
  6
Continuous
 62
     8
370
    15
100
AcDbLine
 10
2086.53230247637
 20
1018.342895175796
 30
0.0
 11
2086.690108347044
 21
1018.661560414906
 31
0.0
  0
LINE
  5
F13
330
CE8
100
AcDbEntity
  8
0
  6
Continuous
 62
     8
370
    15
100
AcDbLine
 10
2069.569679017599
 20
972.0385716913675
 30
0.0
 11
2067.720136212976
 21
972.7164427715866
 31
0.0
  0
LINE
  5
F14
330
CE8
100
AcDbEntity
  8
0
  6
Continuous
 62
     8
370
    15
100
AcDbLine
 10
2069.136471544272
 20
971.4274700218872
 30
0.0
 11
2067.618605393826
 21
971.9837791618859
 31
0.0
  0
LINE
  5
F15
330
CE8
100
AcDbEntity
  8
0
  6
Continuous
 62
     8
370
    15
100
AcDbLine
 10
2068.981318719545
 20
970.9492790649902
 30
0.0
 11
2067.54805893964
 21
971.4745793461245
 31
0.0
  0
LINE
  5
F16
330
CE8
100
AcDbEntity
  8
0
  6
Continuous
 62
     8
370
    15
100
AcDbLine
 10
2068.989221010312
 20
969.3505335648357
 30
0.0
 11
2067.337669544807
 21
969.9558393588734
 31
0.0
  0
LINE
  5
F17
330
CE8
100
AcDbEntity
  8
0
  6
Continuous
 62
     8
370
    15
100
AcDbLine
 10
2069.492275235724
 20
968.2035645035535
 30
0.0
 11
2067.210803436579
 21
969.0397407461956
 31
0.0
  0
LINE
  5
F18
330
CE8
100
AcDbEntity
  8
0
  6
Continuous
 62
     8
370
    15
100
AcDbLine
 10
2069.279565395274
 20
967.419546184241
 30
0.0
 11
2067.134177976874
 21
968.2058464975741
 31
0.0
  0
LINE
  5
F19
330
CE8
100
AcDbEntity
  8
0
  6
Continuous
 62
     8
370
    15
100
AcDbLine
 10
2069.896674659896
 20
969.3618196280676
 30
0.0
 11
2069.699978204837
 21
969.4339103296902
 31
0.0
  0
LINE
  5
F1A
330
CE8
100
AcDbEntity
  8
0
  6
Continuous
 62
     8
370
    15
100
AcDbLine
 10
2072.81460761879
 20
976.4081954042172
 30
0.0
 11
2072.380298847186
 21
976.5673727724943
 31
0.0
  0
LINE
  5
F1B
330
CE8
100
AcDbEntity
  8
0
  6
Continuous
 62
     8
370
    15
100
AcDbLine
 10
2069.79776622835
 20
968.4591491930518
 30
0.0
 11
2067.259242838602
 21
969.3895367396761
 31
0.0
  0
LINE
  5
F1C
330
CE8
100
AcDbEntity
  8
0
  6
Continuous
 62
     8
370
    15
100
AcDbLine
 10
2069.899975849693
 20
968.6939421114162
 30
0.0
 11
2067.295109850391
 21
969.6486447137884
 31
0.0
  0
LINE
  5
F1D
330
CE8
100
AcDbEntity
  8
0
  6
Continuous
 62
     8
370
    15
100
AcDbLine
 10
2070.049432694742
 20
965.9939892956758
 30
0.0
 11
2067.437082352926
 21
966.9514349647842
 31
0.0
  0
LINE
  5
F1E
330
CE8
100
AcDbEntity
  8
0
  6
Continuous
 62
     8
370
    15
100
AcDbLine
 10
2073.171778215634
 20
969.9804942421163
 30
0.0
 11
2070.678802136085
 21
970.8941883635928
 31
0.0
  0
LINE
  5
F1F
330
CE8
100
AcDbEntity
  8
0
  6
Continuous
 62
     8
370
    15
100
AcDbLine
 10
2082.731337250477
 20
1019.058378618321
 30
0.0
 11
2083.173149381615
 21
1019.95055181701
 31
0.0
  0
LINE
  5
F20
330
CE8
100
AcDbEntity
  8
0
  6
Continuous
 62
     8
370
    15
100
AcDbLine
 10
2074.853972513986
 20
977.4936989394372
 30
0.0
 11
2074.306208170234
 21
977.6944586117608
 31
0.0
  0
LINE
  5
F21
330
CE8
100
AcDbEntity
  8
0
  6
Continuous
 62
     8
370
    15
100
AcDbLine
 10
2074.308640760957
 20
972.5879328251981
 30
0.0
 11
2073.659308448453
 21
972.8259179072397
 31
0.0
  0
LINE
  5
F22
330
CE8
100
AcDbEntity
  8
0
  6
Continuous
 62
     8
370
    15
100
AcDbLine
 10
2072.663067654611
 20
966.1909837652258
 30
0.0
 11
2070.943375008158
 21
966.8212638046936
 31
0.0
  0
LINE
  5
F23
330
CE8
100
AcDbEntity
  8
0
  6
Continuous
 62
     8
370
    15
100
AcDbLine
 10
2089.717809213562
 20
1008.487555657493
 30
0.0
 11
2089.899203618278
 21
1008.42107327019
 31
0.0
  0
LINE
  5
F24
330
CE8
100
AcDbEntity
  8
0
  6
Continuous
 62
     8
370
    15
100
AcDbLine
 10
2089.667193871812
 20
1003.951053646833
 30
0.0
 11
2089.796458820998
 21
1003.903677089491
 31
0.0
  0
LINE
  5
F25
330
CE8
100
AcDbEntity
  8
0
  6
Continuous
 62
     8
370
    15
100
AcDbLine
 10
2089.708189737645
 20
1004.226532520538
 30
0.0
 11
2089.92032071573
 21
1004.148784952381
 31
0.0
  0
LINE
  5
F26
330
CE8
100
AcDbEntity
  8
0
  6
Continuous
 62
     8
370
    15
100
AcDbLine
 10
2089.744970710269
 20
1004.50859110748
 30
0.0
 11
2090.049612019541
 21
1004.396937820581
 31
0.0
  0
LINE
  5
F27
330
CE8
100
AcDbEntity
  8
0
  6
Continuous
 62
     8
370
    15
100
AcDbLine
 10
2089.802375529307
 20
1005.071378438405
 30
0.0
 11
2090.70594911912
 21
1004.740212052932
 31
0.0
  0
LINE
  5
F28
330
CE8
100
AcDbEntity
  8
0
  6
Continuous
 62
     8
370
    15
100
AcDbLine
 10
2088.247347637011
 20
985.1883143192837
 30
0.0
 11
2087.659840033358
 21
985.4036401895092
 31
0.0
  0
LINE
  5
F29
330
CE8
100
AcDbEntity
  8
0
  6
Continuous
 62
     8
370
    15
100
AcDbLine
 10
2089.39928275649
 20
978.650431996875
 30
0.0
 11
2087.95317531019
 21
979.1804410425081
 31
0.0
  0
LINE
  5
F2A
330
CE8
100
AcDbEntity
  8
0
  6
Continuous
 62
     8
370
    15
100
AcDbLine
 10
2088.998595896217
 20
978.4159431272762
 30
0.0
 11
2087.893713327299
 21
978.8208907384564
 31
0.0
  0
LINE
  5
F2B
330
CE8
100
AcDbEntity
  8
0
  6
Continuous
 62
     8
370
    15
100
AcDbLine
 10
2087.66802740229
 20
975.2386499847128
 30
0.0
 11
2087.377955176387
 21
975.3449635950941
 31
0.0
  0
LINE
  5
F2C
330
CE8
100
AcDbEntity
  8
0
  6
Continuous
 62
     8
370
    15
100
AcDbLine
 10
2088.729516950171
 20
978.0363686036917
 30
0.0
 11
2087.819072977768
 21
978.3700530350598
 31
0.0
  0
LINE
  5
F2D
330
CE8
100
AcDbEntity
  8
0
  6
Continuous
 62
     8
370
    15
100
AcDbLine
 10
2088.398157987692
 20
975.6659350110162
 30
0.0
 11
2087.430360623342
 21
976.0206398835746
 31
0.0
  0
ENDBLK
  5
CEA
330
CE8
100
AcDbEntity
  8
0
100
AcDbBlockEnd
  0
ENDSEC
  0
SECTION
  2
ENTITIES
  0
INSERT
  5
B8C
330
1F
100
AcDbEntity
  8
0
100
AcDbBlockReference
  2
1
 10
0.0
 20
0.0
 30
0.0
  0
INSERT
  5
C1B
330
1F
100
AcDbEntity
  8
0
100
AcDbBlockReference
  2
2
 10
0.0
 20
0.0
 30
0.0
  0
INSERT
  5
CE7
330
1F
100
AcDbEntity
  8
0
100
AcDbBlockReference
  2
3
 10
0.0
 20
0.0
 30
0.0
  0
INSERT
  5
F2E
330
1F
100
AcDbEntity
  8
0
100
AcDbBlockReference
  2
4
 10
0.0
 20
0.0
 30
0.0
  0
ENDSEC
  0
SECTION
  2
OBJECTS
  0
DICTIONARY
  5
C
330
0
100
AcDbDictionary
281
     1
  3
ACAD_COLOR
350
6B
  3
ACAD_GROUP
350
D
  3
ACAD_LAYOUT
350
1A
  3
ACAD_MATERIAL
350
6A
  3
ACAD_MLEADERSTYLE
350
12D
  3
ACAD_MLINESTYLE
350
17
  3
ACAD_PLOTSETTINGS
350
19
  3
ACAD_PLOTSTYLENAME
350
E
  3
ACAD_SCALELIST
350
10C
  3
ACAD_TABLESTYLE
350
7E
  3
ACAD_VISUALSTYLE
350
EF
  3
ACDB_RECOMPOSE_DATA
350
15D
  3
AcDbVariableDictionary
350
5E
  3
DWGPROPS
350
F3C
  0
DICTIONARY
  5
13C
330
10
100
AcDbDictionary
280
     1
281
     1
  3
ADSK_XREC_LAYER_RECONCILED
360
F2F
  0
DICTIONARY
  5
6B
102
{ACAD_REACTORS
330
C
102
}
330
C
100
AcDbDictionary
281
     1
  0
DICTIONARY
  5
D
102
{ACAD_REACTORS
330
C
102
}
330
C
100
AcDbDictionary
281
     1
  0
DICTIONARY
  5
1A
102
{ACAD_REACTORS
330
C
102
}
330
C
100
AcDbDictionary
281
     1
  3
Layout1
350
D3
  3
Layout2
350
D7
  3
Model
350
22
  0
DICTIONARY
  5
6A
102
{ACAD_REACTORS
330
C
102
}
330
C
100
AcDbDictionary
281
     1
  3
ByBlock
350
ED
  3
ByLayer
350
EC
  3
Global
350
EE
  0
DICTIONARY
  5
12D
102
{ACAD_REACTORS
330
C
102
}
330
C
100
AcDbDictionary
281
     1
  3
Annotative
350
13B
  3
Standard
350
12E
  0
DICTIONARY
  5
17
102
{ACAD_REACTORS
330
C
102
}
330
C
100
AcDbDictionary
281
     1
  3
Standard
350
18
  0
DICTIONARY
  5
19
102
{ACAD_REACTORS
330
C
102
}
330
C
100
AcDbDictionary
281
     1
  0
ACDBDICTIONARYWDFLT
  5
E
102
{ACAD_REACTORS
330
C
102
}
330
C
100
AcDbDictionary
281
     1
  3
Normal
350
F
100
AcDbDictionaryWithDefault
340
F
  0
DICTIONARY
  5
10C
102
{ACAD_REACTORS
330
C
102
}
330
C
100
AcDbDictionary
281
     1
  3
A0
350
10D
  3
A1
350
188
  3
A2
350
189
  3
A3
350
18A
  3
A4
350
18B
  3
A5
350
18C
  3
A6
350
18D
  3
A7
350
18E
  3
A8
350
18F
  3
A9
350
190
  3
B0
350
191
  3
B1
350
192
  3
B2
350
193
  3
B3
350
194
  3
B4
350
195
  3
B5
350
196
  3
B6
350
197
  3
B7
350
198
  3
B8
350
199
  3
B9
350
19A
  3
C0
350
19B
  3
C1
350
19C
  3
C2
350
19D
  3
C3
350
19E
  3
C4
350
19F
  3
C5
350
1A0
  3
C6
350
1A1
  3
C7
350
1A2
  3
C8
350
1A3
  3
C9
350
1A4
  3
D0
350
1A5
  3
D1
350
1A6
  3
D2
350
1A7
  0
DICTIONARY
  5
7E
102
{ACAD_REACTORS
330
C
102
}
330
C
100
AcDbDictionary
281
     1
  3
Standard
350
7F
  0
DICTIONARY
  5
EF
102
{ACAD_REACTORS
330
C
102
}
330
C
100
AcDbDictionary
281
     1
  3
2dWireframe
350
F5
  3
3D Hidden
350
F7
  3
3dWireframe
350
F6
  3
Basic
350
F4
  3
Brighten
350
FB
  3
ColorChange
350
FF
  3
Conceptual
350
F8
  3
Dim
350
FA
  3
Facepattern
350
FE
  3
Flat
350
F0
  3
FlatWithEdges
350
F1
  3
Gouraud
350
F2
  3
GouraudWithEdges
350
F3
  3
Linepattern
350
FD
  3
Realistic
350
F9
  3
Thicken
350
FC
  0
XRECORD
  5
15D
102
{ACAD_REACTORS
330
C
102
}
330
C
100
AcDbXrecord
280
     1
 90
        1
330
7F
  0
DICTIONARY
  5
5E
102
{ACAD_REACTORS
330
C
102
}
330
C
100
AcDbDictionary
281
     1
  3
CANNOSCALE
350
146
  3
CMLEADERSTYLE
350
145
  3
CTABLESTYLE
350
84
  3
DIMASSOC
350
5F
  3
HIDETEXT
350
63
  3
INDEXCTL
350
F38
  3
LIGHTINGUNITS
350
F36
  3
MSLTSCALE
350
F35
  3
PSOLHEIGHT
350
F3A
  3
PSOLWIDTH
350
F39
  3
SORTENTS
350
F37
  0
XRECORD
  5
F3C
102
{ACAD_REACTORS
330
C
102
}
330
C
100
AcDbXrecord
280
     1
  1
DWGPROPS COOKIE
  2

  3

  4

  6

  7

  8
orhan kara
  9

300
=
301
=
302
=
303
=
304
=
305
=
306
=
307
=
308
=
309
=
 40
0.0009815393518519
 41
2458446.48206022
 42
2458956.423553634
  1

 90
        0
  0
XRECORD
  5
F2F
102
{ACAD_REACTORS
330
13C
102
}
330
13C
100
AcDbXrecord
280
     1
290
     1
  0
LAYOUT
  5
D3
102
{ACAD_XDICTIONARY
360
F40
102
}
102
{ACAD_REACTORS
330
1A
102
}
330
1A
100
AcDbPlotSettings
  1

  2
C:\Documents and Settings\basas\Application Data\Autodesk\AutoCAD 2005\R16.1\enu\plotters\Default Windows System Printer.pc3
  4

  6

 40
0.0
 41
0.0
 42
0.0
 43
0.0
 44
0.0
 45
0.0
 46
0.0
 47
0.0
 48
0.0
 49
0.0
140
0.0
141
0.0
142
1.0
143
1.0
 70
   688
 72
     0
 73
     0
 74
     5
  7

 75
    16
147
1.0
148
0.0
149
0.0
100
AcDbLayout
  1
Layout1
 70
     1
 71
     1
 10
0.0
 20
0.0
 11
12.0
 21
9.0
 12
0.0
 22
0.0
 32
0.0
 14
0.0
 24
0.0
 34
0.0
 15
0.0
 25
0.0
 35
0.0
146
0.0
 13
0.0
 23
0.0
 33
0.0
 16
1.0
 26
0.0
 36
0.0
 17
0.0
 27
1.0
 37
0.0
 76
     0
330
D2
  0
LAYOUT
  5
D7
102
{ACAD_XDICTIONARY
360
F42
102
}
102
{ACAD_REACTORS
330
1A
102
}
330
1A
100
AcDbPlotSettings
  1

  2
C:\Documents and Settings\basas\Application Data\Autodesk\AutoCAD 2005\R16.1\enu\plotters\Default Windows System Printer.pc3
  4

  6

 40
0.0
 41
0.0
 42
0.0
 43
0.0
 44
0.0
 45
0.0
 46
0.0
 47
0.0
 48
0.0
 49
0.0
140
0.0
141
0.0
142
1.0
143
1.0
 70
   688
 72
     0
 73
     0
 74
     5
  7

 75
    16
147
1.0
148
0.0
149
0.0
100
AcDbLayout
  1
Layout2
 70
     1
 71
     2
 10
0.0
 20
0.0
 11
12.0
 21
9.0
 12
0.0
 22
0.0
 32
0.0
 14
0.0
 24
0.0
 34
0.0
 15
0.0
 25
0.0
 35
0.0
146
0.0
 13
0.0
 23
0.0
 33
0.0
 16
1.0
 26
0.0
 36
0.0
 17
0.0
 27
1.0
 37
0.0
 76
     0
330
D6
  0
LAYOUT
  5
22
102
{ACAD_XDICTIONARY
360
F3D
102
}
102
{ACAD_REACTORS
330
1A
102
}
330
1A
100
AcDbPlotSettings
  1

  2
none_device
  4
ISO_A4_(210.00_x_297.00_MM)
  6

 40
7.5
 41
20.0
 42
7.5
 43
20.0
 44
210.0
 45
297.0
 46
11.54999923706054
 47
-13.65000009536743
 48
0.0
 49
0.0
140
0.0
141
0.0
142
1.0
143
8.704084754739808
 70
 11952
 72
     1
 73
     0
 74
     0
  7

 75
     0
147
0.1148885871608098
148
0.0
149
0.0
100
AcDbLayout
  1
Model
 70
     1
 71
     0
 10
0.0
 20
0.0
 11
12.0
 21
9.0
 12
0.0
 22
0.0
 32
0.0
 14
0.0
 24
0.0
 34
0.0
 15
0.0
 25
0.0
 35
0.0
146
0.0
 13
0.0
 23
0.0
 33
0.0
 16
1.0
 26
0.0
 36
0.0
 17
0.0
 27
1.0
 37
0.0
 76
     0
330
1F
331
EA
1001
ACAD_PSEXT
1000
None
1000
None
1000
Not applicable
1000
The layout will not be plotted unless a new plotter configuration name is selected.
1070
     0
  0
MATERIAL
  5
ED
102
{ACAD_XDICTIONARY
360
F46
102
}
102
{ACAD_REACTORS
330
6A
102
}
330
6A
100
AcDbMaterial
  1
ByBlock
  0
MATERIAL
  5
EC
102
{ACAD_XDICTIONARY
360
F44
102
}
102
{ACAD_REACTORS
330
6A
102
}
330
6A
100
AcDbMaterial
  1
ByLayer
  0
MATERIAL
  5
EE
102
{ACAD_XDICTIONARY
360
173
102
}
102
{ACAD_REACTORS
330
6A
102
}
330
6A
100
AcDbMaterial
  1
Global
 43
0.0007999999797903
 43
0.0
 43
0.0
 43
0.0
 43
0.0
 43
0.0007999999797903
 43
0.0
 43
0.0
 43
0.0
 43
0.0
 43
1.0
 43
0.0
 43
0.0
 43
0.0
 43
0.0
 43
1.0
 49
0.0007999999797903
 49
0.0
 49
0.0
 49
0.0
 49
0.0
 49
0.0007999999797903
 49
0.0
 49
0.0
 49
0.0
 49
0.0
 49
1.0
 49
0.0
 49
0.0
 49
0.0
 49
0.0
 49
1.0
142
0.0007999999797903
142
0.0
142
0.0
142
0.0
142
0.0
142
0.0007999999797903
142
0.0
142
0.0
142
0.0
142
0.0
142
1.0
142
0.0
142
0.0
142
0.0
142
0.0
142
1.0
144
0.0007999999797903
144
0.0
144
0.0
144
0.0
144
0.0
144
0.0007999999797903
144
0.0
144
0.0
144
0.0
144
0.0
144
1.0
144
0.0
144
0.0
144
0.0
144
0.0
144
1.0
1001
ACAD
1070
    -1
1070
     3
1070
     0
1000

1071
        0
1070
     0
  0
MLEADERSTYLE
  5
13B
102
{ACAD_REACTORS
330
12D
102
}
330
12D
100
AcDbMLeaderStyle
170
     2
171
     1
172
     0
 90
        2
 40
0.0
 41
0.0
173
     1
 91
-1056964608
340
14
 92
       -2
290
     1
 42
2.0
291
     1
 43
8.0
  3
Standard
 44
4.0
300

342
11
174
     1
178
     1
175
     1
176
     0
 93
-1056964608
 45
4.0
292
     0
297
     0
 46
4.0
 94
-1056964608
 47
1.0
 49
1.0
140
1.0
293
     1
141
0.0
294
     1
177
     0
142
1.0
295
     0
296
     1
143
3.75
1001
ACAD_MLEADERVER
1070
     2
  0
MLEADERSTYLE
  5
12E
102
{ACAD_REACTORS
330
12D
102
}
330
12D
100
AcDbMLeaderStyle
170
     2
171
     1
172
     0
 90
        2
 40
0.0
 41
0.0
173
     1
 91
-1056964608
340
14
 92
       -2
290
     1
 42
2.0
291
     1
 43
8.0
  3
Standard
 44
4.0
300

342
11
174
     1
178
     1
175
     1
176
     0
 93
-1056964608
 45
4.0
292
     0
297
     0
 46
4.0
 94
-1056964608
 47
1.0
 49
1.0
140
1.0
293
     1
141
0.0
294
     1
177
     0
142
1.0
295
     0
296
     0
143
3.75
1001
ACAD_MLEADERVER
1070
     2
  0
MLINESTYLE
  5
18
102
{ACAD_REACTORS
330
17
102
}
330
17
100
AcDbMlineStyle
  2
STANDARD
 70
     0
  3

 62
   256
 51
90.0
 52
90.0
 71
     2
 49
0.5
 62
   256
  6
BYLAYER
 49
-0.5
 62
   256
  6
BYLAYER
  0
ACDBPLACEHOLDER
  5
F
102
{ACAD_REACTORS
330
E
102
}
330
E
  0
SCALE
  5
10D
102
{ACAD_REACTORS
330
10C
102
}
330
10C
100
AcDbScale
 70
     0
300
1:1
140
1.0
141
1.0
290
     1
  0
SCALE
  5
188
102
{ACAD_REACTORS
330
10C
102
}
330
10C
100
AcDbScale
 70
     0
300
1:2
140
1.0
141
2.0
290
     0
  0
SCALE
  5
189
102
{ACAD_REACTORS
330
10C
102
}
330
10C
100
AcDbScale
 70
     0
300
1:4
140
1.0
141
4.0
290
     0
  0
SCALE
  5
18A
102
{ACAD_REACTORS
330
10C
102
}
330
10C
100
AcDbScale
 70
     0
300
1:5
140
1.0
141
5.0
290
     0
  0
SCALE
  5
18B
102
{ACAD_REACTORS
330
10C
102
}
330
10C
100
AcDbScale
 70
     0
300
1:8
140
1.0
141
8.0
290
     0
  0
SCALE
  5
18C
102
{ACAD_REACTORS
330
10C
102
}
330
10C
100
AcDbScale
 70
     0
300
1:10
140
1.0
141
10.0
290
     0
  0
SCALE
  5
18D
102
{ACAD_REACTORS
330
10C
102
}
330
10C
100
AcDbScale
 70
     0
300
1:16
140
1.0
141
16.0
290
     0
  0
SCALE
  5
18E
102
{ACAD_REACTORS
330
10C
102
}
330
10C
100
AcDbScale
 70
     0
300
1:20
140
1.0
141
20.0
290
     0
  0
SCALE
  5
18F
102
{ACAD_REACTORS
330
10C
102
}
330
10C
100
AcDbScale
 70
     0
300
1:30
140
1.0
141
30.0
290
     0
  0
SCALE
  5
190
102
{ACAD_REACTORS
330
10C
102
}
330
10C
100
AcDbScale
 70
     0
300
1:40
140
1.0
141
40.0
290
     0
  0
SCALE
  5
191
102
{ACAD_REACTORS
330
10C
102
}
330
10C
100
AcDbScale
 70
     0
300
1:50
140
1.0
141
50.0
290
     0
  0
SCALE
  5
192
102
{ACAD_REACTORS
330
10C
102
}
330
10C
100
AcDbScale
 70
     0
300
1:100
140
1.0
141
100.0
290
     0
  0
SCALE
  5
193
102
{ACAD_REACTORS
330
10C
102
}
330
10C
100
AcDbScale
 70
     0
300
2:1
140
2.0
141
1.0
290
     0
  0
SCALE
  5
194
102
{ACAD_REACTORS
330
10C
102
}
330
10C
100
AcDbScale
 70
     0
300
4:1
140
4.0
141
1.0
290
     0
  0
SCALE
  5
195
102
{ACAD_REACTORS
330
10C
102
}
330
10C
100
AcDbScale
 70
     0
300
8:1
140
8.0
141
1.0
290
     0
  0
SCALE
  5
196
102
{ACAD_REACTORS
330
10C
102
}
330
10C
100
AcDbScale
 70
     0
300
10:1
140
10.0
141
1.0
290
     0
  0
SCALE
  5
197
102
{ACAD_REACTORS
330
10C
102
}
330
10C
100
AcDbScale
 70
     0
300
100:1
140
100.0
141
1.0
290
     0
  0
SCALE
  5
198
102
{ACAD_REACTORS
330
10C
102
}
330
10C
100
AcDbScale
 70
     0
300
1/128" = 1'-0"
140
0.0078125
141
12.0
290
     0
  0
SCALE
  5
199
102
{ACAD_REACTORS
330
10C
102
}
330
10C
100
AcDbScale
 70
     0
300
1/64" = 1'-0"
140
0.015625
141
12.0
290
     0
  0
SCALE
  5
19A
102
{ACAD_REACTORS
330
10C
102
}
330
10C
100
AcDbScale
 70
     0
300
1/32" = 1'-0"
140
0.03125
141
12.0
290
     0
  0
SCALE
  5
19B
102
{ACAD_REACTORS
330
10C
102
}
330
10C
100
AcDbScale
 70
     0
300
1/16" = 1'-0"
140
0.0625
141
12.0
290
     0
  0
SCALE
  5
19C
102
{ACAD_REACTORS
330
10C
102
}
330
10C
100
AcDbScale
 70
     0
300
3/32" = 1'-0"
140
0.09375
141
12.0
290
     0
  0
SCALE
  5
19D
102
{ACAD_REACTORS
330
10C
102
}
330
10C
100
AcDbScale
 70
     0
300
1/8" = 1'-0"
140
0.125
141
12.0
290
     0
  0
SCALE
  5
19E
102
{ACAD_REACTORS
330
10C
102
}
330
10C
100
AcDbScale
 70
     0
300
3/16" = 1'-0"
140
0.1875
141
12.0
290
     0
  0
SCALE
  5
19F
102
{ACAD_REACTORS
330
10C
102
}
330
10C
100
AcDbScale
 70
     0
300
1/4" = 1'-0"
140
0.25
141
12.0
290
     0
  0
SCALE
  5
1A0
102
{ACAD_REACTORS
330
10C
102
}
330
10C
100
AcDbScale
 70
     0
300
3/8" = 1'-0"
140
0.375
141
12.0
290
     0
  0
SCALE
  5
1A1
102
{ACAD_REACTORS
330
10C
102
}
330
10C
100
AcDbScale
 70
     0
300
1/2" = 1'-0"
140
0.5
141
12.0
290
     0
  0
SCALE
  5
1A2
102
{ACAD_REACTORS
330
10C
102
}
330
10C
100
AcDbScale
 70
     0
300
3/4" = 1'-0"
140
0.75
141
12.0
290
     0
  0
SCALE
  5
1A3
102
{ACAD_REACTORS
330
10C
102
}
330
10C
100
AcDbScale
 70
     0
300
1" = 1'-0"
140
1.0
141
12.0
290
     0
  0
SCALE
  5
1A4
102
{ACAD_REACTORS
330
10C
102
}
330
10C
100
AcDbScale
 70
     0
300
1-1/2" = 1'-0"
140
1.5
141
12.0
290
     0
  0
SCALE
  5
1A5
102
{ACAD_REACTORS
330
10C
102
}
330
10C
100
AcDbScale
 70
     0
300
3" = 1'-0"
140
3.0
141
12.0
290
     0
  0
SCALE
  5
1A6
102
{ACAD_REACTORS
330
10C
102
}
330
10C
100
AcDbScale
 70
     0
300
6" = 1'-0"
140
6.0
141
12.0
290
     0
  0
SCALE
  5
1A7
102
{ACAD_REACTORS
330
10C
102
}
330
10C
100
AcDbScale
 70
     0
300
1'-0" = 1'-0"
140
12.0
141
12.0
290
     0
  0
TABLESTYLE
  5
7F
102
{ACAD_XDICTIONARY
360
162
102
}
102
{ACAD_REACTORS
330
7E
102
}
330
7E
100
AcDbTableStyle
  3
Standard
 70
     0
 71
     0
 40
1.5
 41
1.5
280
     0
281
     0
  7
Standard
140
4.5
170
     2
 62
     0
 63
     7
283
     0
274
    -2
284
     1
 64
     0
275
    -2
285
     1
 65
     0
276
    -2
286
     1
 66
     0
277
    -2
287
     1
 67
     0
278
    -2
288
     1
 68
     0
279
    -2
289
     1
 69
     0
  7
Standard
140
6.0
170
     5
 62
     0
 63
     7
283
     0
274
    -2
284
     1
 64
     0
275
    -2
285
     1
 65
     0
276
    -2
286
     1
 66
     0
277
    -2
287
     1
 67
     0
278
    -2
288
     1
 68
     0
279
    -2
289
     1
 69
     0
  7
Standard
140
4.5
170
     5
 62
     0
 63
     7
283
     0
274
    -2
284
     1
 64
     0
275
    -2
285
     1
 65
     0
276
    -2
286
     1
 66
     0
277
    -2
287
     1
 67
     0
278
    -2
288
     1
 68
     0
279
    -2
289
     1
 69
     0
  0
VISUALSTYLE
  5
F5
102
{ACAD_REACTORS
330
EF
102
}
330
EF
100
AcDbVisualStyle
  2
2dWireframe
 70
     4
 71
     0
 72
     2
 73
     1
 90
        0
 40
-0.6
 41
-30.0
 62
     5
 63
     7
 74
     1
 91
        4
 64
     7
 65
   257
 75
     1
175
     1
 42
1.0
 92
        0
 66
   257
 43
1.0
 76
     1
 77
     6
 78
     2
 67
     7
 79
     5
170
     0
171
     0
290
     0
174
     0
 93
        1
 44
0.0
173
     0
291
     0
 45
0.0
1001
ACAD
1000
AcDbSavedByObjectVersion
1070
     0
  0
VISUALSTYLE
  5
F7
102
{ACAD_REACTORS
330
EF
102
}
330
EF
100
AcDbVisualStyle
  2
3D Hidden
 70
     6
 71
     1
 72
     2
 73
     2
 90
        0
 40
-0.6
 41
-30.0
 62
     5
 63
     7
 74
     2
 91
        2
 64
     7
 65
   257
 75
     2
175
     1
 42
40.0
 92
        0
 66
   257
 43
1.0
 76
     1
 77
     6
 78
     2
 67
     7
 79
     3
170
     0
171
     0
290
     0
174
     0
 93
        1
 44
0.0
173
     0
291
     0
 45
0.0
1001
ACAD
1000
AcDbSavedByObjectVersion
1070
     0
  0
VISUALSTYLE
  5
F6
102
{ACAD_REACTORS
330
EF
102
}
330
EF
100
AcDbVisualStyle
  2
3dWireframe
 70
     5
 71
     0
 72
     2
 73
     1
 90
        0
 40
-0.6
 41
-30.0
 62
     5
 63
     7
 74
     1
 91
        4
 64
     7
 65
   257
 75
     1
175
     1
 42
1.0
 92
        0
 66
   257
 43
1.0
 76
     1
 77
     6
 78
     2
 67
     7
 79
     5
170
     0
171
     0
290
     0
174
     0
 93
        1
 44
0.0
173
     0
291
     0
 45
0.0
1001
ACAD
1000
AcDbSavedByObjectVersion
1070
     0
  0
VISUALSTYLE
  5
F4
102
{ACAD_REACTORS
330
EF
102
}
330
EF
100
AcDbVisualStyle
  2
Basic
 70
     7
 71
     1
 72
     0
 73
     1
 90
        0
 40
-0.6
 41
-30.0
 62
     5
 63
     7
 74
     0
 91
        4
 64
     7
 65
   257
 75
     1
175
     1
 42
1.0
 92
        8
 66
     7
 43
1.0
 76
     1
 77
     6
 78
     2
 67
     7
 79
     5
170
     0
171
     0
290
     0
174
     0
 93
        1
 44
0.0
173
     0
291
     1
 45
0.0
1001
ACAD
1000
AcDbSavedByObjectVersion
1070
     0
  0
VISUALSTYLE
  5
FB
102
{ACAD_REACTORS
330
EF
102
}
330
EF
100
AcDbVisualStyle
  2
Brighten
 70
    12
 71
     2
 72
     2
 73
     1
 90
        0
 40
-0.6
 41
-30.0
 62
     5
 63
     7
 74
     1
 91
        4
 64
     7
 65
   257
 75
     1
175
     1
 42
1.0
 92
        8
 66
     7
 43
1.0
 76
     1
 77
     6
 78
     2
 67
     7
 79
     5
170
     0
171
     0
290
     0
174
     0
 93
        1
 44
50.0
173
     0
291
     1
 45
0.0
1001
ACAD
1000
AcDbSavedByObjectVersion
1070
     0
  0
VISUALSTYLE
  5
FF
102
{ACAD_REACTORS
330
EF
102
}
330
EF
100
AcDbVisualStyle
  2
ColorChange
 70
    16
 71
     2
 72
     2
 73
     3
 90
        0
 40
-0.6
 41
-30.0
 62
     5
 63
     8
 74
     1
 91
        4
 64
     7
 65
   257
 75
     1
175
     1
 42
1.0
 92
        8
 66
     8
 43
1.0
 76
     1
 77
     6
 78
     2
 67
     7
 79
     5
170
     0
171
     0
290
     0
174
     0
 93
        1
 44
0.0
173
     0
291
     1
 45
0.0
1001
ACAD
1000
AcDbSavedByObjectVersion
1070
     0
  0
VISUALSTYLE
  5
F8
102
{ACAD_REACTORS
330
EF
102
}
330
EF
100
AcDbVisualStyle
  2
Conceptual
 70
     9
 71
     3
 72
     2
 73
     1
 90
        0
 40
-0.6
 41
-30.0
 62
     5
 63
     7
 74
     2
 91
        2
 64
     7
 65
   257
 75
     1
175
     1
 42
40.0
 92
        8
 66
     7
 43
1.0
 76
     1
 77
     6
 78
     2
 67
     7
 79
     3
170
     0
171
     0
290
     0
174
     0
 93
        1
 44
0.0
173
     0
291
     0
 45
0.0
1001
ACAD
1000
AcDbSavedByObjectVersion
1070
     0
  0
VISUALSTYLE
  5
FA
102
{ACAD_REACTORS
330
EF
102
}
330
EF
100
AcDbVisualStyle
  2
Dim
 70
    11
 71
     2
 72
     2
 73
     1
 90
        0
 40
-0.6
 41
-30.0
 62
     5
 63
     7
 74
     1
 91
        4
 64
     7
 65
   257
 75
     1
175
     1
 42
1.0
 92
        8
 66
     7
 43
1.0
 76
     1
 77
     6
 78
     2
 67
     7
 79
     5
170
     0
171
     0
290
     0
174
     0
 93
        1
 44
-50.0
173
     0
291
     1
 45
0.0
1001
ACAD
1000
AcDbSavedByObjectVersion
1070
     0
  0
VISUALSTYLE
  5
FE
102
{ACAD_REACTORS
330
EF
102
}
330
EF
100
AcDbVisualStyle
  2
Facepattern
 70
    15
 71
     2
 72
     2
 73
     1
 90
        0
 40
-0.6
 41
-30.0
 62
     5
 63
     7
 74
     1
 91
        4
 64
     7
 65
   257
 75
     1
175
     1
 42
1.0
 92
        8
 66
     7
 43
1.0
 76
     1
 77
     6
 78
     2
 67
     7
 79
     5
170
     0
171
     0
290
     0
174
     0
 93
        1
 44
0.0
173
     0
291
     1
 45
0.0
1001
ACAD
1000
AcDbSavedByObjectVersion
1070
     0
  0
VISUALSTYLE
  5
F0
102
{ACAD_REACTORS
330
EF
102
}
330
EF
100
AcDbVisualStyle
  2
Flat
 70
     0
 71
     2
 72
     1
 73
     1
 90
        2
 40
-0.6
 41
30.0
 62
     5
 63
     7
 74
     0
 91
        4
 64
     7
 65
   257
 75
     1
175
     1
 42
1.0
 92
        8
 66
     7
 43
1.0
 76
     1
 77
     6
 78
     2
 67
     7
 79
     5
170
     0
171
     0
290
     0
174
     0
 93
        1
 44
0.0
173
     0
291
     1
 45
0.0
1001
ACAD
1000
AcDbSavedByObjectVersion
1070
     0
  0
VISUALSTYLE
  5
F1
102
{ACAD_REACTORS
330
EF
102
}
330
EF
100
AcDbVisualStyle
  2
FlatWithEdges
 70
     1
 71
     2
 72
     1
 73
     1
 90
        2
 40
-0.6
 41
30.0
 62
     5
 63
     7
 74
     1
 91
        4
 64
     7
 65
   257
 75
     1
175
     1
 42
1.0
 92
        0
 66
   257
 43
1.0
 76
     1
 77
     6
 78
     2
 67
     7
 79
     5
170
     0
171
     0
290
     0
174
     0
 93
        1
 44
0.0
173
     0
291
     1
 45
0.0
1001
ACAD
1000
AcDbSavedByObjectVersion
1070
     0
  0
VISUALSTYLE
  5
F2
102
{ACAD_REACTORS
330
EF
102
}
330
EF
100
AcDbVisualStyle
  2
Gouraud
 70
     2
 71
     2
 72
     2
 73
     1
 90
        2
 40
-0.6
 41
30.0
 62
     5
 63
     7
 74
     0
 91
        4
 64
     7
 65
   257
 75
     1
175
     1
 42
1.0
 92
        0
 66
     7
 43
1.0
 76
     1
 77
     6
 78
     2
 67
     7
 79
     5
170
     0
171
     0
290
     0
174
     0
 93
        1
 44
0.0
173
     0
291
     1
 45
0.0
1001
ACAD
1000
AcDbSavedByObjectVersion
1070
     0
  0
VISUALSTYLE
  5
F3
102
{ACAD_REACTORS
330
EF
102
}
330
EF
100
AcDbVisualStyle
  2
GouraudWithEdges
 70
     3
 71
     2
 72
     2
 73
     1
 90
        2
 40
-0.6
 41
30.0
 62
     5
 63
     7
 74
     1
 91
        4
 64
     7
 65
   257
 75
     1
175
     1
 42
1.0
 92
        0
 66
   257
 43
1.0
 76
     1
 77
     6
 78
     2
 67
     7
 79
     5
170
     0
171
     0
290
     0
174
     0
 93
        1
 44
0.0
173
     0
291
     1
 45
0.0
1001
ACAD
1000
AcDbSavedByObjectVersion
1070
     0
  0
VISUALSTYLE
  5
FD
102
{ACAD_REACTORS
330
EF
102
}
330
EF
100
AcDbVisualStyle
  2
Linepattern
 70
    14
 71
     2
 72
     2
 73
     1
 90
        0
 40
-0.6
 41
-30.0
 62
     5
 63
     7
 74
     1
 91
        4
 64
     7
 65
   257
 75
     7
175
     7
 42
1.0
 92
        8
 66
     7
 43
1.0
 76
     1
 77
     6
 78
     2
 67
     7
 79
     5
170
     0
171
     0
290
     0
174
     0
 93
        1
 44
0.0
173
     0
291
     1
 45
0.0
1001
ACAD
1000
AcDbSavedByObjectVersion
1070
     0
  0
VISUALSTYLE
  5
F9
102
{ACAD_REACTORS
330
EF
102
}
330
EF
100
AcDbVisualStyle
  2
Realistic
 70
     8
 71
     2
 72
     2
 73
     1
 90
        0
 40
-0.6
 41
-30.0
 62
     5
 63
     7
 74
     1
 91
        0
 64
     7
 65
   257
 75
     1
175
     1
 42
1.0
 92
        8
 66
     8
 43
1.0
 76
     1
 77
     6
 78
     2
 67
     7
 79
     5
170
     0
171
     0
290
     0
174
     0
 93
       13
 44
0.0
173
     0
291
     0
 45
0.0
1001
ACAD
1000
AcDbSavedByObjectVersion
1070
     0
  0
VISUALSTYLE
  5
FC
102
{ACAD_REACTORS
330
EF
102
}
330
EF
100
AcDbVisualStyle
  2
Thicken
 70
    13
 71
     2
 72
     2
 73
     1
 90
        0
 40
-0.6
 41
-30.0
 62
     5
 63
     7
 74
     1
 91
        4
 64
     7
 65
   257
 75
     1
175
     1
 42
1.0
 92
       12
 66
     7
 43
1.0
 76
     1
 77
     6
 78
     2
 67
     7
 79
     5
170
     0
171
     0
290
     0
174
     0
 93
        1
 44
0.0
173
     0
291
     1
 45
0.0
1001
ACAD
1000
AcDbSavedByObjectVersion
1070
     0
  0
DICTIONARYVAR
  5
146
102
{ACAD_REACTORS
330
5E
102
}
330
5E
100
DictionaryVariables
280
     0
  1
1:1
  0
DICTIONARYVAR
  5
145
102
{ACAD_REACTORS
330
5E
102
}
330
5E
100
DictionaryVariables
280
     0
  1
STANDARD
  0
DICTIONARYVAR
  5
84
102
{ACAD_REACTORS
330
5E
102
}
330
5E
100
DictionaryVariables
280
     0
  1
STANDARD
  0
DICTIONARYVAR
  5
5F
102
{ACAD_REACTORS
330
5E
102
}
330
5E
100
DictionaryVariables
280
     0
  1
2
  0
DICTIONARYVAR
  5
63
102
{ACAD_REACTORS
330
5E
102
}
330
5E
100
DictionaryVariables
280
     0
  1
1
  0
DICTIONARYVAR
  5
F38
102
{ACAD_REACTORS
330
5E
102
}
330
5E
100
DictionaryVariables
280
     0
  1
0
  0
DICTIONARYVAR
  5
F36
102
{ACAD_REACTORS
330
5E
102
}
330
5E
100
DictionaryVariables
280
     0
  1
2
  0
DICTIONARYVAR
  5
F35
102
{ACAD_REACTORS
330
5E
102
}
330
5E
100
DictionaryVariables
280
     0
  1
1
  0
DICTIONARYVAR
  5
F3A
102
{ACAD_REACTORS
330
5E
102
}
330
5E
100
DictionaryVariables
280
     0
  1
80.000000
  0
DICTIONARYVAR
  5
F39
102
{ACAD_REACTORS
330
5E
102
}
330
5E
100
DictionaryVariables
280
     0
  1
5.000000
  0
DICTIONARYVAR
  5
F37
102
{ACAD_REACTORS
330
5E
102
}
330
5E
100
DictionaryVariables
280
     0
  1
127
  0
DICTIONARY
  5
F40
330
D3
100
AcDbDictionary
280
     1
281
     1
  3
ACAD_XREC_ROUNDTRIP
360
F41
  0
DICTIONARY
  5
F42
330
D7
100
AcDbDictionary
280
     1
281
     1
  3
ACAD_XREC_ROUNDTRIP
360
F43
  0
DICTIONARY
  5
F3D
330
22
100
AcDbDictionary
280
     1
281
     1
  3
ACAD_XREC_ROUNDTRIP
360
F3E
  0
DICTIONARY
  5
F46
330
ED
100
AcDbDictionary
280
     1
281
     1
  3
ACAD_XREC_ROUNDTRIP
360
F47
  0
DICTIONARY
  5
F44
330
EC
100
AcDbDictionary
280
     1
281
     1
  3
ACAD_XREC_ROUNDTRIP
360
F45
  0
DICTIONARY
  5
173
330
EE
100
AcDbDictionary
280
     1
281
     1
  3
ACAD_XREC_ROUNDTRIP
360
F48
  3
BUMPTILE
360
175
  3
DIFFUSETILE
360
174
  3
OPACITYTILE
360
176
  3
REFLECTIONTILE
360
177
  0
DICTIONARY
  5
162
330
7F
100
AcDbDictionary
280
     1
281
     1
  3
ACAD_ROUNDTRIP_2008_TABLESTYLE_CELLSTYLEMAP
360
F3B
  3
ACAD_XREC_ROUNDTRIP
360
F3F
  0
XRECORD
  5
F41
102
{ACAD_REACTORS
330
F40
102
}
330
F40
100
AcDbXrecord
280
     1
102
SHADEPLOT
 70
     0
102
SHADEPLOTRESLEVEL
 70
     2
102
SHADEPLOTCUSTOMDPI
 70
   300
  0
XRECORD
  5
F43
102
{ACAD_REACTORS
330
F42
102
}
330
F42
100
AcDbXrecord
280
     1
102
SHADEPLOT
 70
     0
102
SHADEPLOTRESLEVEL
 70
     2
102
SHADEPLOTCUSTOMDPI
 70
   300
  0
XRECORD
  5
F3E
102
{ACAD_REACTORS
330
F3D
102
}
330
F3D
100
AcDbXrecord
280
     1
102
SHADEPLOT
 70
     0
102
SHADEPLOTRESLEVEL
 70
     2
102
SHADEPLOTCUSTOMDPI
 70
   300
  0
XRECORD
  5
F47
102
{ACAD_REACTORS
330
F46
102
}
330
F46
100
AcDbXrecord
280
     1
102
MATERIAL
148
0.0
149
0.0
149
0.0
 93
        0
 94
       63
282
     0
 72
     1
 77
     1
171
     1
175
     1
179
     1
273
     0
  0
XRECORD
  5
F45
102
{ACAD_REACTORS
330
F44
102
}
330
F44
100
AcDbXrecord
280
     1
102
MATERIAL
148
0.0
149
0.0
149
0.0
 93
        0
 94
       63
282
     0
 72
     1
 77
     1
171
     1
175
     1
179
     1
273
     0
  0
XRECORD
  5
F48
102
{ACAD_REACTORS
330
173
102
}
330
173
100
AcDbXrecord
280
     1
102
MATERIAL
148
0.0
149
0.0
149
0.0
 93
        0
 94
       63
282
     0
 72
     1
 77
     1
171
     1
175
     1
179
     1
273
     0
  0
XRECORD
  5
175
102
{ACAD_REACTORS
330
173
102
}
330
173
100
AcDbXrecord
280
     1
270
     1
271
     1
  0
XRECORD
  5
174
102
{ACAD_REACTORS
330
173
102
}
330
173
100
AcDbXrecord
280
     1
270
     1
271
     1
  0
XRECORD
  5
176
102
{ACAD_REACTORS
330
173
102
}
330
173
100
AcDbXrecord
280
     1
270
     1
271
     1
  0
XRECORD
  5
177
102
{ACAD_REACTORS
330
173
102
}
330
173
100
AcDbXrecord
280
     1
270
     1
271
     1
  0
CELLSTYLEMAP
  5
F3B
102
{ACAD_REACTORS
330
162
102
}
330
162
100
AcDbCellStyleMap
 90
        3
300
CELLSTYLE
  1
TABLEFORMAT_BEGIN
 90
        5
170
     1
 91
        0
 92
    32768
 62
   257
 93
        1
300
CONTENTFORMAT
  1
CONTENTFORMAT_BEGIN
 90
        0
 91
        0
 92
      512
 93
        0
300

 40
0.0
140
1.0
 94
        5
 62
     0
340
11
144
6.0
309
CONTENTFORMAT_END
171
     1
301
MARGIN
  1
CELLMARGIN_BEGIN
 40
1.5
 40
1.5
 40
1.5
 40
1.5
 40
4.5
 40
4.5
309
CELLMARGIN_END
 94
        6
 95
        1
302
GRIDFORMAT
  1
GRIDFORMAT_BEGIN
 90
        0
 91
        1
 62
     0
 92
       -2
340
14
 93
        0
 40
1.125
309
GRIDFORMAT_END
 95
        2
302
GRIDFORMAT
  1
GRIDFORMAT_BEGIN
 90
        0
 91
        1
 62
     0
 92
       -2
340
14
 93
        0
 40
1.125
309
GRIDFORMAT_END
 95
        4
302
GRIDFORMAT
  1
GRIDFORMAT_BEGIN
 90
        0
 91
        1
 62
     0
 92
       -2
340
14
 93
        0
 40
1.125
309
GRIDFORMAT_END
 95
        8
302
GRIDFORMAT
  1
GRIDFORMAT_BEGIN
 90
        0
 91
        1
 62
     0
 92
       -2
340
14
 93
        0
 40
1.125
309
GRIDFORMAT_END
 95
       16
302
GRIDFORMAT
  1
GRIDFORMAT_BEGIN
 90
        0
 91
        1
 62
     0
 92
       -2
340
14
 93
        0
 40
1.125
309
GRIDFORMAT_END
 95
       32
302
GRIDFORMAT
  1
GRIDFORMAT_BEGIN
 90
        0
 91
        1
 62
     0
 92
       -2
340
14
 93
        0
 40
1.125
309
GRIDFORMAT_END
309
TABLEFORMAT_END
  1
CELLSTYLE_BEGIN
 90
        1
 91
        1
300
_TITLE
309
CELLSTYLE_END
300
CELLSTYLE
  1
TABLEFORMAT_BEGIN
 90
        5
170
     1
 91
        0
 92
        0
 62
   257
 93
        1
300
CONTENTFORMAT
  1
CONTENTFORMAT_BEGIN
 90
        0
 91
        0
 92
      512
 93
        0
300

 40
0.0
140
1.0
 94
        5
 62
     0
340
11
144
4.5
309
CONTENTFORMAT_END
171
     1
301
MARGIN
  1
CELLMARGIN_BEGIN
 40
1.5
 40
1.5
 40
1.5
 40
1.5
 40
4.5
 40
4.5
309
CELLMARGIN_END
 94
        6
 95
        1
302
GRIDFORMAT
  1
GRIDFORMAT_BEGIN
 90
        0
 91
        1
 62
     0
 92
       -2
340
14
 93
        0
 40
1.125
309
GRIDFORMAT_END
 95
        2
302
GRIDFORMAT
  1
GRIDFORMAT_BEGIN
 90
        0
 91
        1
 62
     0
 92
       -2
340
14
 93
        0
 40
1.125
309
GRIDFORMAT_END
 95
        4
302
GRIDFORMAT
  1
GRIDFORMAT_BEGIN
 90
        0
 91
        1
 62
     0
 92
       -2
340
14
 93
        0
 40
1.125
309
GRIDFORMAT_END
 95
        8
302
GRIDFORMAT
  1
GRIDFORMAT_BEGIN
 90
        0
 91
        1
 62
     0
 92
       -2
340
14
 93
        0
 40
1.125
309
GRIDFORMAT_END
 95
       16
302
GRIDFORMAT
  1
GRIDFORMAT_BEGIN
 90
        0
 91
        1
 62
     0
 92
       -2
340
14
 93
        0
 40
1.125
309
GRIDFORMAT_END
 95
       32
302
GRIDFORMAT
  1
GRIDFORMAT_BEGIN
 90
        0
 91
        1
 62
     0
 92
       -2
340
14
 93
        0
 40
1.125
309
GRIDFORMAT_END
309
TABLEFORMAT_END
  1
CELLSTYLE_BEGIN
 90
        2
 91
        1
300
_HEADER
309
CELLSTYLE_END
300
CELLSTYLE
  1
TABLEFORMAT_BEGIN
 90
        5
170
     1
 91
        0
 92
        0
 62
   257
 93
        1
300
CONTENTFORMAT
  1
CONTENTFORMAT_BEGIN
 90
        0
 91
        0
 92
      512
 93
        0
300

 40
0.0
140
1.0
 94
        2
 62
     0
340
11
144
4.5
309
CONTENTFORMAT_END
171
     1
301
MARGIN
  1
CELLMARGIN_BEGIN
 40
1.5
 40
1.5
 40
1.5
 40
1.5
 40
4.5
 40
4.5
309
CELLMARGIN_END
 94
        6
 95
        1
302
GRIDFORMAT
  1
GRIDFORMAT_BEGIN
 90
        0
 91
        1
 62
     0
 92
       -2
340
14
 93
        0
 40
1.125
309
GRIDFORMAT_END
 95
        2
302
GRIDFORMAT
  1
GRIDFORMAT_BEGIN
 90
        0
 91
        1
 62
     0
 92
       -2
340
14
 93
        0
 40
1.125
309
GRIDFORMAT_END
 95
        4
302
GRIDFORMAT
  1
GRIDFORMAT_BEGIN
 90
        0
 91
        1
 62
     0
 92
       -2
340
14
 93
        0
 40
1.125
309
GRIDFORMAT_END
 95
        8
302
GRIDFORMAT
  1
GRIDFORMAT_BEGIN
 90
        0
 91
        1
 62
     0
 92
       -2
340
14
 93
        0
 40
1.125
309
GRIDFORMAT_END
 95
       16
302
GRIDFORMAT
  1
GRIDFORMAT_BEGIN
 90
        0
 91
        1
 62
     0
 92
       -2
340
14
 93
        0
 40
1.125
309
GRIDFORMAT_END
 95
       32
302
GRIDFORMAT
  1
GRIDFORMAT_BEGIN
 90
        0
 91
        1
 62
     0
 92
       -2
340
14
 93
        0
 40
1.125
309
GRIDFORMAT_END
309
TABLEFORMAT_END
  1
CELLSTYLE_BEGIN
 90
        3
 91
        2
300
_DATA
309
CELLSTYLE_END
  0
XRECORD
  5
F3F
102
{ACAD_REACTORS
330
162
102
}
330
162
100
AcDbXrecord
280
     1
102
ACAD_ROUNDTRIP_PRE2007_TABLESTYLE
 90
      512
 91
        0
  1

 92
      512
 93
        0
  2

 94
      512
 95
        0
  3

  0
ENDSEC
  0
EOF
