  0
SECTION
  2
HEADER
  9
$ACADVER
  1
AC1015
  9
$ACADMAINTVER
 70
    20
  9
$DWGCODEPAGE
  3
ANSI_1254
  9
$INSBASE
 10
0.0
 20
0.0
 30
0.0
  9
$EXTMIN
 10
2041.808559813391
 20
1082.34970458162
 30
0.0
  9
$EXTMAX
 10
2172.813778773885
 20
1138.720173901702
 30
0.0
  9
$LIMMIN
 10
0.0
 20
0.0
  9
$LIMMAX
 10
420.0
 20
297.0
  9
$ORTHOMODE
 70
     0
  9
$REGENMODE
 70
     1
  9
$FILLMODE
 70
     1
  9
$QTEXTMODE
 70
     0
  9
$MIRRTEXT
 70
     0
  9
$LTSCALE
 40
1.0
  9
$ATTMODE
 70
     1
  9
$TEXTSIZE
 40
2.5
  9
$TRACEWID
 40
1.0
  9
$TEXTSTYLE
  7
Standard
  9
$CLAYER
  8
0
  9
$CELTYPE
  6
ByLayer
  9
$CECOLOR
 62
   256
  9
$CELTSCALE
 40
1.0
  9
$DISPSILH
 70
     0
  9
$DIMSCALE
 40
1.0
  9
$DIMASZ
 40
2.5
  9
$DIMEXO
 40
0.625
  9
$DIMDLI
 40
3.75
  9
$DIMRND
 40
0.0
  9
$DIMDLE
 40
0.0
  9
$DIMEXE
 40
1.25
  9
$DIMTP
 40
0.0
  9
$DIMTM
 40
0.0
  9
$DIMTXT
 40
2.5
  9
$DIMCEN
 40
2.5
  9
$DIMTSZ
 40
0.0
  9
$DIMTOL
 70
     0
  9
$DIMLIM
 70
     0
  9
$DIMTIH
 70
     0
  9
$DIMTOH
 70
     0
  9
$DIMSE1
 70
     0
  9
$DIMSE2
 70
     0
  9
$DIMTAD
 70
     1
  9
$DIMZIN
 70
     8
  9
$DIMBLK
  1

  9
$DIMASO
 70
     1
  9
$DIMSHO
 70
     1
  9
$DIMPOST
  1

  9
$DIMAPOST
  1

  9
$DIMALT
 70
     0
  9
$DIMALTD
 70
     3
  9
$DIMALTF
 40
0.03937007874016
  9
$DIMLFAC
 40
1.0
  9
$DIMTOFL
 70
     1
  9
$DIMTVP
 40
0.0
  9
$DIMTIX
 70
     0
  9
$DIMSOXD
 70
     0
  9
$DIMSAH
 70
     0
  9
$DIMBLK1
  1

  9
$DIMBLK2
  1

  9
$DIMSTYLE
  2
ISO-25
  9
$DIMCLRD
 70
     0
  9
$DIMCLRE
 70
     0
  9
$DIMCLRT
 70
     0
  9
$DIMTFAC
 40
1.0
  9
$DIMGAP
 40
0.625
  9
$DIMJUST
 70
     0
  9
$DIMSD1
 70
     0
  9
$DIMSD2
 70
     0
  9
$DIMTOLJ
 70
     0
  9
$DIMTZIN
 70
     8
  9
$DIMALTZ
 70
     0
  9
$DIMALTTZ
 70
     0
  9
$DIMUPT
 70
     0
  9
$DIMDEC
 70
     2
  9
$DIMTDEC
 70
     2
  9
$DIMALTU
 70
     2
  9
$DIMALTTD
 70
     3
  9
$DIMTXSTY
  7
Standard
  9
$DIMAUNIT
 70
     0
  9
$DIMADEC
 70
     0
  9
$DIMALTRND
 40
0.0
  9
$DIMAZIN
 70
     0
  9
$DIMDSEP
 70
    44
  9
$DIMATFIT
 70
     3
  9
$DIMFRAC
 70
     0
  9
$DIMLDRBLK
  1

  9
$DIMLUNIT
 70
     2
  9
$DIMLWD
 70
    -2
  9
$DIMLWE
 70
    -2
  9
$DIMTMOVE
 70
     0
  9
$LUNITS
 70
     2
  9
$LUPREC
 70
     4
  9
$SKETCHINC
 40
1.0
  9
$FILLETRAD
 40
0.0
  9
$AUNITS
 70
     0
  9
$AUPREC
 70
     0
  9
$MENU
  1
.
  9
$ELEVATION
 40
0.0
  9
$PELEVATION
 40
0.0
  9
$THICKNESS
 40
0.0
  9
$LIMCHECK
 70
     0
  9
$CHAMFERA
 40
0.0
  9
$CHAMFERB
 40
0.0
  9
$CHAMFERC
 40
0.0
  9
$CHAMFERD
 40
0.0
  9
$SKPOLY
 70
     0
  9
$TDCREATE
 40
2458559.609083172
  9
$TDUCREATE
 40
2458559.484083171
  9
$TDUPDATE
 40
2458956.422162384
  9
$TDUUPDATE
 40
2458956.297162384
  9
$TDINDWG
 40
0.0013015162
  9
$TDUSRTIMER
 40
0.0013013426
  9
$USRTIMER
 70
     1
  9
$ANGBASE
 50
0.0
  9
$ANGDIR
 70
     0
  9
$PDMODE
 70
     0
  9
$PDSIZE
 40
0.0
  9
$PLINEWID
 40
0.0
  9
$SPLFRAME
 70
     0
  9
$SPLINETYPE
 70
     6
  9
$SPLINESEGS
 70
     8
  9
$HANDSEED
  5
1033
  9
$SURFTAB1
 70
     6
  9
$SURFTAB2
 70
     6
  9
$SURFTYPE
 70
     6
  9
$SURFU
 70
     6
  9
$SURFV
 70
     6
  9
$UCSBASE
  2

  9
$UCSNAME
  2

  9
$UCSORG
 10
0.0
 20
0.0
 30
0.0
  9
$UCSXDIR
 10
1.0
 20
0.0
 30
0.0
  9
$UCSYDIR
 10
0.0
 20
1.0
 30
0.0
  9
$UCSORTHOREF
  2

  9
$UCSORTHOVIEW
 70
     0
  9
$UCSORGTOP
 10
0.0
 20
0.0
 30
0.0
  9
$UCSORGBOTTOM
 10
0.0
 20
0.0
 30
0.0
  9
$UCSORGLEFT
 10
0.0
 20
0.0
 30
0.0
  9
$UCSORGRIGHT
 10
0.0
 20
0.0
 30
0.0
  9
$UCSORGFRONT
 10
0.0
 20
0.0
 30
0.0
  9
$UCSORGBACK
 10
0.0
 20
0.0
 30
0.0
  9
$PUCSBASE
  2

  9
$PUCSNAME
  2

  9
$PUCSORG
 10
0.0
 20
0.0
 30
0.0
  9
$PUCSXDIR
 10
1.0
 20
0.0
 30
0.0
  9
$PUCSYDIR
 10
0.0
 20
1.0
 30
0.0
  9
$PUCSORTHOREF
  2

  9
$PUCSORTHOVIEW
 70
     0
  9
$PUCSORGTOP
 10
0.0
 20
0.0
 30
0.0
  9
$PUCSORGBOTTOM
 10
0.0
 20
0.0
 30
0.0
  9
$PUCSORGLEFT
 10
0.0
 20
0.0
 30
0.0
  9
$PUCSORGRIGHT
 10
0.0
 20
0.0
 30
0.0
  9
$PUCSORGFRONT
 10
0.0
 20
0.0
 30
0.0
  9
$PUCSORGBACK
 10
0.0
 20
0.0
 30
0.0
  9
$USERI1
 70
     0
  9
$USERI2
 70
     0
  9
$USERI3
 70
     0
  9
$USERI4
 70
     0
  9
$USERI5
 70
     0
  9
$USERR1
 40
0.0
  9
$USERR2
 40
0.0
  9
$USERR3
 40
0.0
  9
$USERR4
 40
0.0
  9
$USERR5
 40
0.0
  9
$WORLDVIEW
 70
     1
  9
$SHADEDGE
 70
     3
  9
$SHADEDIF
 70
    70
  9
$TILEMODE
 70
     1
  9
$MAXACTVP
 70
    64
  9
$PINSBASE
 10
0.0
 20
0.0
 30
0.0
  9
$PLIMCHECK
 70
     0
  9
$PEXTMIN
 10
0.0
 20
0.0
 30
0.0
  9
$PEXTMAX
 10
0.0
 20
0.0
 30
0.0
  9
$PLIMMIN
 10
0.0
 20
0.0
  9
$PLIMMAX
 10
12.0
 20
9.0
  9
$UNITMODE
 70
     0
  9
$VISRETAIN
 70
     1
  9
$PLINEGEN
 70
     0
  9
$PSLTSCALE
 70
     1
  9
$TREEDEPTH
 70
  3020
  9
$CMLSTYLE
  2
Standard
  9
$CMLJUST
 70
     0
  9
$CMLSCALE
 40
20.0
  9
$PROXYGRAPHICS
 70
     1
  9
$MEASUREMENT
 70
     1
  9
$CELWEIGHT
370
    -1
  9
$ENDCAPS
280
     0
  9
$JOINSTYLE
280
     0
  9
$LWDISPLAY
290
     0
  9
$INSUNITS
 70
     4
  9
$HYPERLINKBASE
  1

  9
$STYLESHEET
  1

  9
$XEDIT
290
     1
  9
$CEPSNTYPE
380
     0
  9
$PSTYLEMODE
290
     1
  9
$FINGERPRINTGUID
  2
{90F448BA-F497-4A94-9C16-8BF06C011CA6}
  9
$VERSIONGUID
  2
{CE991289-3DAC-423D-B98E-32B105658356}
  9
$EXTNAMES
290
     1
  9
$PSVPSCALE
 40
0.0
  9
$OLESTARTUP
290
     0
  0
ENDSEC
  0
SECTION
  2
CLASSES
  0
CLASS
  1
ACDBDICTIONARYWDFLT
  2
AcDbDictionaryWithDefault
  3
ObjectDBX Classes
 90
        0
280
     0
281
     0
  0
CLASS
  1
ACDBPLACEHOLDER
  2
AcDbPlaceHolder
  3
ObjectDBX Classes
 90
        0
280
     0
281
     0
  0
CLASS
  1
LAYOUT
  2
AcDbLayout
  3
ObjectDBX Classes
 90
        0
280
     0
281
     0
  0
CLASS
  1
DICTIONARYVAR
  2
AcDbDictionaryVar
  3
ObjectDBX Classes
 90
        0
280
     0
281
     0
  0
CLASS
  1
TABLESTYLE
  2
AcDbTableStyle
  3
ObjectDBX Classes
 90
     4095
280
     0
281
     0
  0
CLASS
  1
MATERIAL
  2
AcDbMaterial
  3
ObjectDBX Classes
 90
     1153
280
     0
281
     0
  0
CLASS
  1
VISUALSTYLE
  2
AcDbVisualStyle
  3
ObjectDBX Classes
 90
     4095
280
     0
281
     0
  0
CLASS
  1
SCALE
  2
AcDbScale
  3
ObjectDBX Classes
 90
     1153
280
     0
281
     0
  0
CLASS
  1
MLEADERSTYLE
  2
AcDbMLeaderStyle
  3
ACDB_MLEADERSTYLE_CLASS
 90
     4095
280
     0
281
     0
  0
CLASS
  1
CELLSTYLEMAP
  2
AcDbCellStyleMap
  3
ObjectDBX Classes
 90
     1152
280
     0
281
     0
  0
ENDSEC
  0
SECTION
  2
TABLES
  0
TABLE
  2
VPORT
  5
8
330
0
100
AcDbSymbolTable
 70
     1
  0
VPORT
  5
EA
330
8
100
AcDbSymbolTableRecord
100
AcDbViewportTableRecord
  2
*Active
 70
     0
 10
0.0
 20
0.0
 11
1.0
 21
1.0
 12
2131.111709887424
 22
1129.238462427568
 13
0.0
 23
0.0
 14
10.0
 24
10.0
 15
10.0
 25
10.0
 16
0.0
 26
0.0
 36
1.0
 17
0.0
 27
0.0
 37
0.0
 40
155.396053516647
 41
1.903110047846889
 42
50.0
 43
0.0
 44
0.0
 50
0.0
 51
0.0
 71
     0
 72
  1000
 73
     1
 74
     3
 75
     0
 76
     0
 77
     0
 78
     0
281
     0
 65
     1
110
0.0
120
0.0
130
0.0
111
1.0
121
0.0
131
0.0
112
0.0
122
1.0
132
0.0
 79
     0
146
0.0
  0
ENDTAB
  0
TABLE
  2
LTYPE
  5
5
330
0
100
AcDbSymbolTable
 70
     1
  0
LTYPE
  5
14
330
5
100
AcDbSymbolTableRecord
100
AcDbLinetypeTableRecord
  2
ByBlock
 70
     0
  3

 72
    65
 73
     0
 40
0.0
  0
LTYPE
  5
15
330
5
100
AcDbSymbolTableRecord
100
AcDbLinetypeTableRecord
  2
ByLayer
 70
     0
  3

 72
    65
 73
     0
 40
0.0
  0
LTYPE
  5
16
330
5
100
AcDbSymbolTableRecord
100
AcDbLinetypeTableRecord
  2
Continuous
 70
     0
  3
Solid line
 72
    65
 73
     0
 40
0.0
  0
ENDTAB
  0
TABLE
  2
LAYER
  5
2
330
0
100
AcDbSymbolTable
 70
     1
  0
LAYER
  5
10
102
{ACAD_XDICTIONARY
360
13C
102
}
330
2
100
AcDbSymbolTableRecord
100
AcDbLayerTableRecord
  2
0
 70
     0
 62
     7
  6
Continuous
370
    -3
390
F
  0
ENDTAB
  0
TABLE
  2
STYLE
  5
3
330
0
100
AcDbSymbolTable
 70
     2
  0
STYLE
  5
11
330
3
100
AcDbSymbolTableRecord
100
AcDbTextStyleTableRecord
  2
Standard
 70
     0
 40
0.0
 41
1.0
 50
0.0
 71
     0
 42
2.5
  3
txt
  4

  0
STYLE
  5
132
330
3
100
AcDbSymbolTableRecord
100
AcDbTextStyleTableRecord
  2
Annotative
 70
     0
 40
0.0
 41
1.0
 50
0.0
 71
     0
 42
2.5
  3
txt.shx
  4

1001
AcadAnnotative
1000
AnnotativeData
1002
{
1070
     1
1070
     1
1002
}
  0
ENDTAB
  0
TABLE
  2
VIEW
  5
6
330
0
100
AcDbSymbolTable
 70
     0
  0
ENDTAB
  0
TABLE
  2
UCS
  5
7
330
0
100
AcDbSymbolTable
 70
     0
  0
ENDTAB
  0
TABLE
  2
APPID
  5
9
330
0
100
AcDbSymbolTable
 70
     7
  0
APPID
  5
12
330
9
100
AcDbSymbolTableRecord
100
AcDbRegAppTableRecord
  2
ACAD
 70
     0
  0
APPID
  5
9E
330
9
100
AcDbSymbolTableRecord
100
AcDbRegAppTableRecord
  2
ACAD_PSEXT
 70
     0
  0
APPID
  5
133
330
9
100
AcDbSymbolTableRecord
100
AcDbRegAppTableRecord
  2
AcadAnnoPO
 70
     0
  0
APPID
  5
134
330
9
100
AcDbSymbolTableRecord
100
AcDbRegAppTableRecord
  2
AcadAnnotative
 70
     0
  0
APPID
  5
135
330
9
100
AcDbSymbolTableRecord
100
AcDbRegAppTableRecord
  2
ACAD_DSTYLE_DIMJAG
 70
     0
  0
APPID
  5
136
330
9
100
AcDbSymbolTableRecord
100
AcDbRegAppTableRecord
  2
ACAD_DSTYLE_DIMTALN
 70
     0
  0
APPID
  5
165
330
9
100
AcDbSymbolTableRecord
100
AcDbRegAppTableRecord
  2
ACAD_MLEADERVER
 70
     0
  0
ENDTAB
  0
TABLE
  2
DIMSTYLE
  5
A
330
0
100
AcDbSymbolTable
 70
     2
100
AcDbDimStyleTable
 71
     2
340
27
340
137
  0
DIMSTYLE
105
27
330
A
100
AcDbSymbolTableRecord
100
AcDbDimStyleTableRecord
  2
ISO-25
 70
     0
 41
2.5
 42
0.625
 43
3.75
 44
1.25
 73
     0
 74
     0
 77
     1
 78
     8
140
2.5
141
2.5
143
0.03937007874016
147
0.625
171
     3
172
     1
271
     2
272
     2
274
     3
278
    44
283
     0
284
     8
340
11
  0
DIMSTYLE
105
137
330
A
100
AcDbSymbolTableRecord
100
AcDbDimStyleTableRecord
  2
Annotative
 70
     0
 40
0.0
 41
2.5
 42
0.625
 43
3.75
 44
1.25
 73
     0
 74
     0
 77
     1
 78
     8
140
2.5
141
2.5
143
0.03937007874016
147
0.625
171
     3
172
     1
271
     2
272
     2
274
     3
278
    44
283
     0
284
     8
340
11
1001
AcadAnnotative
1000
AnnotativeData
1002
{
1070
     1
1070
     1
1002
}
1001
ACAD_DSTYLE_DIMJAG
1070
   388
1040
1.5
1001
ACAD_DSTYLE_DIMTALN
1070
   392
1070
     0
  0
ENDTAB
  0
TABLE
  2
BLOCK_RECORD
  5
1
330
0
100
AcDbSymbolTable
 70
     5
  0
BLOCK_RECORD
  5
1F
330
1
100
AcDbSymbolTableRecord
100
AcDbBlockTableRecord
  2
*Model_Space
340
22
  0
BLOCK_RECORD
  5
D2
330
1
100
AcDbSymbolTableRecord
100
AcDbBlockTableRecord
  2
*Paper_Space
340
D3
  0
BLOCK_RECORD
  5
D6
330
1
100
AcDbSymbolTableRecord
100
AcDbBlockTableRecord
  2
*Paper_Space0
340
D7
  0
BLOCK_RECORD
  5
B41
330
1
100
AcDbSymbolTableRecord
100
AcDbBlockTableRecord
  2
1
340
0
310
2800000020000000200000000100080000000000000400000000000000000000000000000000000000000000000080000080000000808000800000008000800080800000C0C0C000C0DCC000F0CAA6000020400000206000002080000020A0000020C0000020E00000400000004020000040400000406000004080000040A0
310
000040C0000040E00000600000006020000060400000606000006080000060A0000060C0000060E00000800000008020000080400000806000008080000080A0000080C0000080E00000A0000000A0200000A0400000A0600000A0800000A0A00000A0C00000A0E00000C0000000C0200000C0400000C0600000C0800000C0
310
A00000C0C00000C0E00000E0000000E0200000E0400000E0600000E0800000E0A00000E0C00000E0E00040000000400020004000400040006000400080004000A0004000C0004000E00040200000402020004020400040206000402080004020A0004020C0004020E000404000004040200040404000404060004040800040
310
40A0004040C0004040E00040600000406020004060400040606000406080004060A0004060C0004060E00040800000408020004080400040806000408080004080A0004080C0004080E00040A0000040A0200040A0400040A0600040A0800040A0A00040A0C00040A0E00040C0000040C0200040C0400040C0600040C08000
310
40C0A00040C0C00040C0E00040E0000040E0200040E0400040E0600040E0800040E0A00040E0C00040E0E00080000000800020008000400080006000800080008000A0008000C0008000E00080200000802020008020400080206000802080008020A0008020C0008020E00080400000804020008040400080406000804080
310
008040A0008040C0008040E00080600000806020008060400080606000806080008060A0008060C0008060E00080800000808020008080400080806000808080008080A0008080C0008080E00080A0000080A0200080A0400080A0600080A0800080A0A00080A0C00080A0E00080C0000080C0200080C0400080C0600080C0
310
800080C0A00080C0C00080C0E00080E0000080E0200080E0400080E0600080E0800080E0A00080E0C00080E0E000C0000000C0002000C0004000C0006000C0008000C000A000C000C000C000E000C0200000C0202000C0204000C0206000C0208000C020A000C020C000C020E000C0400000C0402000C0404000C0406000C0
310
408000C040A000C040C000C040E000C0600000C0602000C0604000C0606000C0608000C060A000C060C000C060E000C0800000C0802000C0804000C0806000C0808000C080A000C080C000C080E000C0A00000C0A02000C0A04000C0A06000C0A08000C0A0A000C0A0C000C0A0E000C0C00000C0C02000C0C04000C0C06000
310
C0C08000C0C0A000F0FBFF00A4A0A000808080000000FF0000FF000000FFFF00FF000000FF00FF00FFFF0000FFFFFF0000000000000000000000000000000000000000000000000000000000000000000000000000000000000000000000000000000000000000000000000000000000000000000000000000000000000000
310
00000000000000000000000000000000000000000000000000000000000000000000000000000000000000000000000000000000000000000000000000000000000000000000000000000000000000000000000000000000000000000000000000000000000000000000000000000000000000000000000000000000000000
310
00000000000000000000000000000000000000FFFFFFFF00000000000000000000000000000000000000000000FFFFFFFF0000FFFFFF00FFFF000000000000000000000000000000000000FFFF00FFFFFF000000FFFF0000FFFF00000000000000000000000000000000FFFF0000FFFF0000000000FF0000FFFFFFFFFF0000
310
0000000000000000FFFFFFFFFF0000FF000000000000FF00FFFFFF0000FFFFFFFFFFFFFFFFFFFFFFFF0000FFFFFF00FF0000000000FFFF00FFFFFF00000000000000000000000000000000FFFFFF00FFFF00000000FFFF00FFFFFF00000000000000000000000000000000FFFFFF00FFFF00000000FFFFFFFF00FF00000000
310
000000000000000000000000FF00FFFFFFFF00000000FF0000000000000000000000000000000000000000000000000000FF000000FFFF0000000000000000000000000000000000000000000000000000FFFF0000FFFF0000000000000000000000000000000000000000000000000000FFFF0000FFFF0000000000000000
310
000000000000000000000000000000000000FFFF000000FF0000000000000000000000000000000000000000000000000000FF00000000FFFF000000000000000000000000000000000000000000000000FFFF0000000000FF00000000000000000000FFFFFFFF00000000000000000000FF0000000000FFFF000000000000
310
FFFFFFFFFF0000FFFFFFFFFF000000000000FFFF0000000000FF000000000000FF00FFFF00000000FFFF0000FF000000000000FF0000000000FFFFFFFFFFFFFF000000000000000000000000FFFFFFFFFFFFFF0000000000000000000000000000000000000000000000000000000000000000000000000000000000000000
310
00000000000000000000000000000000000000000000000000000000000000000000000000000000000000000000000000000000000000000000000000000000000000000000000000000000000000000000000000000000000000000000000000000000000000000000000000000000000000000000000000000000000000
310
0000000000000000000000000000000000000000000000000000000000000000000000000000000000000000000000000000000000000000
102
{BLKREFS
331
C36
102
}
1001
ACAD
1000
DesignCenter Data
1002
{
1070
     1
1070
     4
1002
}
  0
BLOCK_RECORD
  5
C37
330
1
100
AcDbSymbolTableRecord
100
AcDbBlockTableRecord
  2
2
340
0
310
2800000020000000200000000100080000000000000400000000000000000000000000000000000000000000000080000080000000808000800000008000800080800000C0C0C000C0DCC000F0CAA6000020400000206000002080000020A0000020C0000020E00000400000004020000040400000406000004080000040A0
310
000040C0000040E00000600000006020000060400000606000006080000060A0000060C0000060E00000800000008020000080400000806000008080000080A0000080C0000080E00000A0000000A0200000A0400000A0600000A0800000A0A00000A0C00000A0E00000C0000000C0200000C0400000C0600000C0800000C0
310
A00000C0C00000C0E00000E0000000E0200000E0400000E0600000E0800000E0A00000E0C00000E0E00040000000400020004000400040006000400080004000A0004000C0004000E00040200000402020004020400040206000402080004020A0004020C0004020E000404000004040200040404000404060004040800040
310
40A0004040C0004040E00040600000406020004060400040606000406080004060A0004060C0004060E00040800000408020004080400040806000408080004080A0004080C0004080E00040A0000040A0200040A0400040A0600040A0800040A0A00040A0C00040A0E00040C0000040C0200040C0400040C0600040C08000
310
40C0A00040C0C00040C0E00040E0000040E0200040E0400040E0600040E0800040E0A00040E0C00040E0E00080000000800020008000400080006000800080008000A0008000C0008000E00080200000802020008020400080206000802080008020A0008020C0008020E00080400000804020008040400080406000804080
310
008040A0008040C0008040E00080600000806020008060400080606000806080008060A0008060C0008060E00080800000808020008080400080806000808080008080A0008080C0008080E00080A0000080A0200080A0400080A0600080A0800080A0A00080A0C00080A0E00080C0000080C0200080C0400080C0600080C0
310
800080C0A00080C0C00080C0E00080E0000080E0200080E0400080E0600080E0800080E0A00080E0C00080E0E000C0000000C0002000C0004000C0006000C0008000C000A000C000C000C000E000C0200000C0202000C0204000C0206000C0208000C020A000C020C000C020E000C0400000C0402000C0404000C0406000C0
310
408000C040A000C040C000C040E000C0600000C0602000C0604000C0606000C0608000C060A000C060C000C060E000C0800000C0802000C0804000C0806000C0808000C080A000C080C000C080E000C0A00000C0A02000C0A04000C0A06000C0A08000C0A0A000C0A0C000C0A0E000C0C00000C0C02000C0C04000C0C06000
310
C0C08000C0C0A000F0FBFF00A4A0A000808080000000FF0000FF000000FFFF00FF000000FF00FF00FFFF0000FFFFFF00000000000000000000000000000000000000000000000000000000000000000000000000000000000000000000FFFFFFFFFFFF0000000000000000000000000000000000000000000000000000FFFF
310
FFFFFFFF0000000000000000000000000000000000000000000000000000FF00000000FF0000000000000000000000000000000000000000000000000000FFFFFFFFFFFF0000000000000000000000000000000000000000000000000000FFFFFFFFFFFF0000000000000000000000000000000000000000000000000000FF
310
FFFFFFFFFF0000000000000000000000000000000000000000000000000000FF00000000FF0000000000000000000000000000000000000000000000000000FF00000000FF0000000000000000000000000000000000000000000000000000FF00000000FF0000000000000000000000000000000000000000000000000000
310
FF00000000FF0000000000000000000000000000000000000000000000000000FF00000000FF0000000000000000000000000000000000000000000000000000FF00000000FF0000000000000000000000000000000000000000000000000000FFFFFFFFFFFF00000000000000000000000000000000000000000000000000
310
00FFFFFFFFFFFF0000000000000000000000000000000000000000000000000000FFFFFFFFFFFF0000000000000000000000000000000000000000000000000000FFFFFFFFFFFF0000000000000000000000000000000000000000000000000000FFFFFFFFFFFF000000000000000000000000000000000000000000000000
310
0000FFFFFFFFFFFF0000000000000000000000000000000000000000000000000000FFFFFFFFFFFF0000000000000000000000000000000000000000000000000000FFFFFFFFFFFF0000000000000000000000000000000000000000000000000000FF00000000FF0000000000000000000000000000000000000000000000
310
000000FFFFFFFFFFFF0000000000000000000000000000000000000000000000000000FFFFFFFFFFFF0000000000000000000000000000000000000000000000000000FF00000000FF0000000000000000000000000000000000000000000000000000FFFFFFFFFFFF00000000000000000000000000000000000000000000
310
00000000FFFFFFFFFFFF0000000000000000000000000000000000000000000000000000FF00000000FF0000000000000000000000000000000000000000000000000000FF00000000FF0000000000000000000000000000000000000000000000000000FFFFFFFFFFFF000000000000000000000000000000000000000000
310
0000000000FFFFFFFFFFFF000000000000000000000000000000000000000000000000000000000000000000000000000000000000000000
102
{BLKREFS
331
CCC
102
}
1001
ACAD
1000
DesignCenter Data
1002
{
1070
     1
1070
     4
1002
}
  0
BLOCK_RECORD
  5
CCD
330
1
100
AcDbSymbolTableRecord
100
AcDbBlockTableRecord
  2
3
340
0
310
2800000020000000200000000100080000000000000400000000000000000000000000000000000000000000000080000080000000808000800000008000800080800000C0C0C000C0DCC000F0CAA6000020400000206000002080000020A0000020C0000020E00000400000004020000040400000406000004080000040A0
310
000040C0000040E00000600000006020000060400000606000006080000060A0000060C0000060E00000800000008020000080400000806000008080000080A0000080C0000080E00000A0000000A0200000A0400000A0600000A0800000A0A00000A0C00000A0E00000C0000000C0200000C0400000C0600000C0800000C0
310
A00000C0C00000C0E00000E0000000E0200000E0400000E0600000E0800000E0A00000E0C00000E0E00040000000400020004000400040006000400080004000A0004000C0004000E00040200000402020004020400040206000402080004020A0004020C0004020E000404000004040200040404000404060004040800040
310
40A0004040C0004040E00040600000406020004060400040606000406080004060A0004060C0004060E00040800000408020004080400040806000408080004080A0004080C0004080E00040A0000040A0200040A0400040A0600040A0800040A0A00040A0C00040A0E00040C0000040C0200040C0400040C0600040C08000
310
40C0A00040C0C00040C0E00040E0000040E0200040E0400040E0600040E0800040E0A00040E0C00040E0E00080000000800020008000400080006000800080008000A0008000C0008000E00080200000802020008020400080206000802080008020A0008020C0008020E00080400000804020008040400080406000804080
310
008040A0008040C0008040E00080600000806020008060400080606000806080008060A0008060C0008060E00080800000808020008080400080806000808080008080A0008080C0008080E00080A0000080A0200080A0400080A0600080A0800080A0A00080A0C00080A0E00080C0000080C0200080C0400080C0600080C0
310
800080C0A00080C0C00080C0E00080E0000080E0200080E0400080E0600080E0800080E0A00080E0C00080E0E000C0000000C0002000C0004000C0006000C0008000C000A000C000C000C000E000C0200000C0202000C0204000C0206000C0208000C020A000C020C000C020E000C0400000C0402000C0404000C0406000C0
310
408000C040A000C040C000C040E000C0600000C0602000C0604000C0606000C0608000C060A000C060C000C060E000C0800000C0802000C0804000C0806000C0808000C080A000C080C000C080E000C0A00000C0A02000C0A04000C0A06000C0A08000C0A0A000C0A0C000C0A0E000C0C00000C0C02000C0C04000C0C06000
310
C0C08000C0C0A000F0FBFF00A4A0A000808080000000FF0000FF000000FFFF00FF000000FF00FF00FFFF0000FFFFFF0000000000000000000000000000000000000000000000000000000000000000000000000000000000000000000000000000000000000000000000000000000000000000000000000000000000000000
310
00000000000000000000000000000000000000000000000000000000000000000000000000000000000000000000000000000000000000000000000000000000000000000000000000000000000000000000000000000000000000000000000000000000000000000000000000000000000000000000000000000000000000
310
00000000000000000000000000000000000000000000000000000000000000000000000000000000000000000000000000000000000000000000000000000000000000000000000000000000000000000000000000000000000000000000000000000000000000000000000000000000000000000000000000000000000000
310
0000000000000000000000000000000000000000000000000000000000000000000000000000000000000000000000000000000000000000000000000000000000000000000000000000000000000000000000000000000000000000000000000000000000000000000000000000000000000000FFFFFFFFFFFFFFFFFFFFFF
310
FFFFFFFFFFFFFFFFFFFFFFFFFFFFFFFFFFFFFF0000FFFFFFFFFFFFFFFFFFFF00FFFFFFFFFFFFFFFF00FFFFFFFFFFFFFFFFFFFF0000FFFFFFFFFFFFFFFFFFFF00FFFFFFFFFFFFFFFF00FFFFFFFFFFFFFFFFFFFF0000FFFFFFFFFFFFFFFFFFFFFFFFFFFFFFFFFFFFFFFFFFFFFFFFFFFFFFFFFFFF000000000000000000000000
310
00000000000000000000000000000000000000000000000000000000000000000000000000000000000000000000000000000000000000000000000000000000000000000000000000000000000000000000000000000000000000000000000000000000000000000000000000000000000000000000000000000000000000
310
00000000000000000000000000000000000000000000000000000000000000000000000000000000000000000000000000000000000000000000000000000000000000000000000000000000000000000000000000000000000000000000000000000000000000000000000000000000000000000000000000000000000000
310
00000000000000000000000000000000000000000000000000000000000000000000000000000000000000000000000000000000000000000000000000000000000000000000000000000000000000000000000000000000000000000000000000000000000000000000000000000000000000000000000000000000000000
310
0000000000000000000000000000000000000000000000000000000000000000000000000000000000000000000000000000000000000000
102
{BLKREFS
331
DEA
102
}
1001
ACAD
1000
DesignCenter Data
1002
{
1070
     1
1070
     4
1002
}
  0
BLOCK_RECORD
  5
DEB
330
1
100
AcDbSymbolTableRecord
100
AcDbBlockTableRecord
  2
4
340
0
310
2800000020000000200000000100080000000000000400000000000000000000000000000000000000000000000080000080000000808000800000008000800080800000C0C0C000C0DCC000F0CAA6000020400000206000002080000020A0000020C0000020E00000400000004020000040400000406000004080000040A0
310
000040C0000040E00000600000006020000060400000606000006080000060A0000060C0000060E00000800000008020000080400000806000008080000080A0000080C0000080E00000A0000000A0200000A0400000A0600000A0800000A0A00000A0C00000A0E00000C0000000C0200000C0400000C0600000C0800000C0
310
A00000C0C00000C0E00000E0000000E0200000E0400000E0600000E0800000E0A00000E0C00000E0E00040000000400020004000400040006000400080004000A0004000C0004000E00040200000402020004020400040206000402080004020A0004020C0004020E000404000004040200040404000404060004040800040
310
40A0004040C0004040E00040600000406020004060400040606000406080004060A0004060C0004060E00040800000408020004080400040806000408080004080A0004080C0004080E00040A0000040A0200040A0400040A0600040A0800040A0A00040A0C00040A0E00040C0000040C0200040C0400040C0600040C08000
310
40C0A00040C0C00040C0E00040E0000040E0200040E0400040E0600040E0800040E0A00040E0C00040E0E00080000000800020008000400080006000800080008000A0008000C0008000E00080200000802020008020400080206000802080008020A0008020C0008020E00080400000804020008040400080406000804080
310
008040A0008040C0008040E00080600000806020008060400080606000806080008060A0008060C0008060E00080800000808020008080400080806000808080008080A0008080C0008080E00080A0000080A0200080A0400080A0600080A0800080A0A00080A0C00080A0E00080C0000080C0200080C0400080C0600080C0
310
800080C0A00080C0C00080C0E00080E0000080E0200080E0400080E0600080E0800080E0A00080E0C00080E0E000C0000000C0002000C0004000C0006000C0008000C000A000C000C000C000E000C0200000C0202000C0204000C0206000C0208000C020A000C020C000C020E000C0400000C0402000C0404000C0406000C0
310
408000C040A000C040C000C040E000C0600000C0602000C0604000C0606000C0608000C060A000C060C000C060E000C0800000C0802000C0804000C0806000C0808000C080A000C080C000C080E000C0A00000C0A02000C0A04000C0A06000C0A08000C0A0A000C0A0C000C0A0E000C0C00000C0C02000C0C04000C0C06000
310
C0C08000C0C0A000F0FBFF00A4A0A000808080000000FF0000FF000000FFFF00FF000000FF00FF00FFFF0000FFFFFF000000000000000000000000000000000000000000000000000000000000000000000000000000000000000000000000000000000000000000FFFF000000000000000000000000000000000000000000
310
0000000000000000FFFFFFFF000000000000000000000000000000000000000000000000000000FFFFFFFFFFFF0000000000000000000000000000000000000000000000000000FFFF00FFFFFF00000000000000000000000000000000000000000000000000FFFFFFFFFFFFFF000000000000000000000000000000000000
310
000000000000FFFFFFA4FF00FF00000000000000000000000000000000000000000000000000FFFFFF00FF00FF000000000000000000000000000000000000000000000000FFFFFFFF00FFFF00FF00000000000000000000000000000000000000000000FF00FFFFFFFFFFFFFFFF0000000000000000000000000000000000
310
000000FFFF0000FFFF0000FFFFFFFF000000000000000000000000000000000000FFFF0000000000000000FFFFFFFF00000000000000000000FFFF00000000FFFF0000000000000000000000FFFFFF0000000000000000FFFFFFFFFFFFFFFF000000000000000000000000FFFF00FF0000000000000000FFFFA4FFFF000000
310
000000000000000000000000FFFFFFFF0000000000000000FFFF00FFFF0000000000000000000000000000FFFFFFFFFF000000000000000000FFA4FFFF000000000000000000000000000000FFFFFF00000000000000000000FF00FFFF000000000000000000000000000000FF0000FF0000000000000000FFFFFF00000000
310
00000000000000FF000000FFFFFFFFFF000000000000000000FFFF000000000000000000FFFFFFFFFFFFFFFF00A4FFFF000000000000000000FF0000000000000000FFFFFFFFFFFFFFFFFFFFFFFFFF00000000000000000000FF0000000000000000FFFFFFFFFFFFFFFFFFFFFF000000000000000000000000FF0000000000
310
00FFFFFFFFFFFF00FFFF00000000000000000000000000000000FF0000000000FFFFFFFFFFFFFF00000000000000000000000000000000000000FFFF00000000FFFFFFFFFFFF0000000000000000000000000000000000000000FFFF000000FFFF0000FF00000000000000000000000000000000000000000000FFFF00FFFF
310
FFFFFF00FF00000000000000000000000000000000000000000000FF00FFFFFFFFFFFFFF000000000000000000000000000000000000000000000000FFFFFFA4FFFFFF0000000000000000000000000000000000000000000000000000FFFFFFFF0000000000000000000000000000000000000000000000000000000000FF
310
0000000000000000000000000000000000000000000000000000000000000000000000000000000000000000000000000000000000000000
102
{BLKREFS
331
1018
102
}
1001
ACAD
1000
DesignCenter Data
1002
{
1070
     1
1070
     4
1002
}
  0
ENDTAB
  0
ENDSEC
  0
SECTION
  2
BLOCKS
  0
BLOCK
  5
20
330
1F
100
AcDbEntity
  8
0
100
AcDbBlockBegin
  2
*Model_Space
 70
     0
 10
0.0
 20
0.0
 30
0.0
  3
*Model_Space
  1

  0
ENDBLK
  5
21
330
1F
100
AcDbEntity
  8
0
100
AcDbBlockEnd
  0
BLOCK
  5
D4
330
D2
100
AcDbEntity
 67
     1
  8
0
100
AcDbBlockBegin
  2
*Paper_Space
 70
     0
 10
0.0
 20
0.0
 30
0.0
  3
*Paper_Space
  1

  0
ENDBLK
  5
D5
330
D2
100
AcDbEntity
 67
     1
  8
0
100
AcDbBlockEnd
  0
BLOCK
  5
D8
330
D6
100
AcDbEntity
 67
     1
  8
0
100
AcDbBlockBegin
  2
*Paper_Space0
 70
     0
 10
0.0
 20
0.0
 30
0.0
  3
*Paper_Space0
  1

  0
ENDBLK
  5
D9
330
D6
100
AcDbEntity
 67
     1
  8
0
100
AcDbBlockEnd
  0
BLOCK
  5
B42
330
B41
100
AcDbEntity
  8
0
100
AcDbBlockBegin
  2
1
 70
     0
 10
0.0
 20
0.0
 30
0.0
  3
1
  1

  0
ARC
  5
B44
330
B41
100
AcDbEntity
  8
0
  6
Continuous
 62
     7
370
    15
100
AcDbCircle
 10
2067.644404897211
 20
1115.518840776365
 30
0.0
 40
0.8499999999997953
100
AcDbArc
 50
1.378189868057753
 51
90.0
  0
LINE
  5
B45
330
B41
100
AcDbEntity
  8
0
  6
Continuous
 62
     7
370
    15
100
AcDbLine
 10
2063.786288326958
 20
1116.368817885914
 30
0.0
 11
2067.64437777398
 21
1116.368817885914
 31
0.0
  0
ARC
  5
B46
330
B41
100
AcDbEntity
  8
0
  6
Continuous
 62
     7
370
    15
100
AcDbCircle
 10
2063.786289293716
 20
1115.768840776366
 30
0.0
 40
0.5999999999999375
100
AcDbArc
 50
89.99999999953102
 51
192.5000000000659
  0
LINE
  5
B47
330
B41
100
AcDbEntity
  8
0
  6
Continuous
 62
     7
370
    15
100
AcDbLine
 10
2064.758201664666
 20
1108.612852891483
 30
0.0
 11
2063.200493878106
 21
1115.638988812961
 31
0.0
  0
ARC
  5
B48
330
B41
100
AcDbEntity
  8
0
  6
Continuous
 62
     7
370
    15
100
AcDbCircle
 10
2063.293720608436
 20
1108.288199271488
 30
0.0
 40
1.499999999999829
100
AcDbArc
 50
359.9999999999609
 51
12.49999999995852
  0
LINE
  5
B49
330
B41
100
AcDbEntity
  8
0
  6
Continuous
 62
     7
370
    15
100
AcDbLine
 10
2064.793726032952
 20
1105.589347680607
 30
0.0
 11
2064.793726032952
 21
1108.288186391392
 31
0.0
  0
ARC
  5
B4A
330
B41
100
AcDbEntity
  8
0
  6
Continuous
 62
     7
370
    15
100
AcDbCircle
 10
2065.793720608436
 20
1105.589339188082
 30
0.0
 40
1.000000000000113
100
AcDbArc
 50
180.0
 51
270.0
  0
LINE
  5
B4B
330
B41
100
AcDbEntity
  8
0
  6
Continuous
 62
     7
370
    15
100
AcDbLine
 10
2066.711565083245
 20
1104.589330752888
 30
0.0
 11
2065.793772762993
 21
1104.589330752888
 31
0.0
  0
ARC
  5
B4C
330
B41
100
AcDbEntity
  8
0
  6
Continuous
 62
     7
370
    15
100
AcDbCircle
 10
2066.708903395691
 20
1106.589337455641
 30
0.0
 40
2.000000000012219
100
AcDbArc
 50
270.0754141743539
 51
1.378189867823324
  0
LINE
  5
B4D
330
B41
100
AcDbEntity
  8
0
  6
Continuous
 62
     7
370
    15
100
AcDbLine
 10
2068.494101589898
 20
1115.539270242252
 30
0.0
 11
2068.70832068322
 21
1106.637435754337
 31
0.0
  0
ARC
  5
B4E
330
B41
100
AcDbEntity
  8
0
  6
Continuous
 62
     7
370
    15
100
AcDbCircle
 10
2108.293830876256
 20
1105.589339188082
 30
0.0
 40
1.0
100
AcDbArc
 50
270.0
 51
0.0
  0
LINE
  5
B4F
330
B41
100
AcDbEntity
  8
0
  6
Continuous
 62
     7
370
    15
100
AcDbLine
 10
2109.293838566521
 20
1108.288186391392
 30
0.0
 11
2109.293838566521
 21
1105.589347680607
 31
0.0
  0
ARC
  5
B50
330
B41
100
AcDbEntity
  8
0
  6
Continuous
 62
     7
370
    15
100
AcDbCircle
 10
2110.793830876256
 20
1108.288199271488
 30
0.0
 40
1.500000000000056
100
AcDbArc
 50
167.5000000000415
 51
180.0000000000391
  0
LINE
  5
B51
330
B41
100
AcDbEntity
  8
0
  6
Continuous
 62
     7
370
    15
100
AcDbLine
 10
2110.887070721367
 20
1115.638988812961
 30
0.0
 11
2109.329362934807
 21
1108.612852891483
 31
0.0
  0
ARC
  5
B52
330
B41
100
AcDbEntity
  8
0
  6
Continuous
 62
     7
370
    15
100
AcDbCircle
 10
2110.301262190977
 20
1115.768840776366
 30
0.0
 40
0.5999999999990564
100
AcDbArc
 50
347.4999999999369
 51
90.0
  0
LINE
  5
B53
330
B41
100
AcDbEntity
  8
0
  6
Continuous
 62
     7
370
    15
100
AcDbLine
 10
2106.443186825493
 20
1116.368817885914
 30
0.0
 11
2110.301276272515
 21
1116.368817885914
 31
0.0
  0
ARC
  5
B54
330
B41
100
AcDbEntity
  8
0
  6
Continuous
 62
     7
370
    15
100
AcDbCircle
 10
2106.443146587482
 20
1115.518840776365
 30
0.0
 40
0.8500000000000227
100
AcDbArc
 50
90.0
 51
178.6218101319422
  0
LINE
  5
B55
330
B41
100
AcDbEntity
  8
0
  6
Continuous
 62
     7
370
    15
100
AcDbLine
 10
2105.379243916253
 20
1106.637435754337
 30
0.0
 11
2105.593343800286
 21
1115.539270242252
 31
0.0
  0
ARC
  5
B56
330
B41
100
AcDbEntity
  8
0
  6
Continuous
 62
     7
370
    15
100
AcDbCircle
 10
2107.378648089001
 20
1106.589337455641
 30
0.0
 40
2.000000000012674
100
AcDbArc
 50
178.6218101321767
 51
269.9245858256591
  0
LINE
  5
B57
330
B41
100
AcDbEntity
  8
0
  6
Continuous
 62
     7
370
    15
100
AcDbLine
 10
2108.29379183648
 20
1104.589330752888
 30
0.0
 11
2107.375999516228
 21
1104.589330752888
 31
0.0
  0
ARC
  5
B58
330
B41
100
AcDbEntity
  8
0
  6
Continuous
 62
     7
370
    15
100
AcDbCircle
 10
2112.894614917256
 20
1124.70471388531
 30
0.0
 40
0.2500000000023647
100
AcDbArc
 50
130.0000000005664
 51
189.999999999991
  0
ARC
  5
B59
330
B41
100
AcDbEntity
  8
0
  6
Continuous
 62
     7
370
    15
100
AcDbCircle
 10
2112.608320357967
 20
1119.707016923582
 30
0.0
 40
0.2500000000005532
100
AcDbArc
 50
107.4999999997465
 51
167.4999999998676
  0
LINE
  5
B5A
330
B41
100
AcDbEntity
  8
0
  6
Continuous
 62
     7
370
    15
100
AcDbLine
 10
2112.281104153374
 20
1119.386243423023
 30
0.0
 11
2112.364193028191
 21
1119.761097034015
 31
0.0
  0
LINE
  5
B5B
330
B41
100
AcDbEntity
  8
0
  6
Continuous
 62
     7
370
    15
100
AcDbLine
 10
2112.010618275383
 20
1118.165897925892
 30
0.0
 11
2112.0937071502
 21
1118.540751536884
 31
0.0
  0
ARC
  5
B5C
330
B41
100
AcDbEntity
  8
0
  6
Continuous
 62
     7
370
    15
100
AcDbCircle
 10
2112.254663527176
 20
1118.111774049562
 30
0.0
 40
0.2500000000003588
100
AcDbArc
 50
167.4999999998676
 51
227.4999999997536
  0
ARC
  5
B5D
330
B41
100
AcDbEntity
  8
0
  6
Continuous
 62
     7
370
    15
100
AcDbCircle
 10
2111.916868423366
 20
1117.743135381157
 30
0.0
 40
0.2500000000011188
100
AcDbArc
 50
287.5000000008384
 51
47.49999999988237
  0
ARC
  5
B5E
330
B41
100
AcDbEntity
  8
0
  6
Continuous
 62
     7
370
    15
100
AcDbCircle
 10
2110.593825227961
 20
1108.310103452415
 30
0.0
 40
0.5000000000001201
100
AcDbArc
 50
167.500000000016
 51
180.0
  0
LINE
  5
B5F
330
B41
100
AcDbEntity
  8
0
  6
Continuous
 62
     7
370
    15
100
AcDbLine
 10
2110.093852108696
 20
1108.310091098346
 30
0.0
 11
2110.093852108696
 21
1104.914742311039
 31
0.0
  0
ARC
  5
B60
330
B41
100
AcDbEntity
  8
0
  6
Continuous
 62
     7
370
    15
100
AcDbCircle
 10
2110.393825227962
 20
1104.914752464108
 30
0.0
 40
0.2999999999999687
100
AcDbArc
 50
179.9999999998046
 51
270.0
  0
LINE
  5
B61
330
B41
100
AcDbEntity
  8
0
  6
Continuous
 62
     7
370
    15
100
AcDbLine
 10
2110.393782681206
 20
1104.614752133884
 30
0.0
 11
2111.493846005181
 21
1104.614752133884
 31
0.0
  0
ARC
  5
B62
330
B41
100
AcDbEntity
  8
0
  6
Continuous
 62
     7
370
    15
100
AcDbCircle
 10
2111.493821804822
 20
1104.914752464109
 30
0.0
 40
0.3000000000000114
100
AcDbArc
 50
270.0
 51
0.0
  0
LINE
  5
B63
330
B41
100
AcDbEntity
  8
0
  6
Continuous
 62
     7
370
    15
100
AcDbLine
 10
2111.793776577691
 20
1104.914742311039
 30
0.0
 11
2111.793776577691
 21
1105.802464088001
 31
0.0
  0
ARC
  5
B64
330
B41
100
AcDbEntity
  8
0
  6
Continuous
 62
     7
370
    15
100
AcDbCircle
 10
2111.293821804776
 20
1105.802462157643
 30
0.0
 40
0.5000000000452474
100
AcDbArc
 50
359.9999999862559
 51
40.53555619243321
  0
ARC
  5
B65
330
B41
100
AcDbEntity
  8
0
  6
Continuous
 62
     7
370
    15
100
AcDbCircle
 10
2112.243825493116
 20
1106.614862093102
 30
0.0
 40
0.7500002651534885
100
AcDbArc
 50
0.0
 51
220.5355562060337
  0
LINE
  5
B66
330
B41
100
AcDbEntity
  8
0
  6
Continuous
 62
     7
370
    15
100
AcDbLine
 10
2112.993856495598
 20
1106.61487539629
 30
0.0
 11
2112.993737286309
 21
1104.368823369541
 31
0.0
  0
ARC
  5
B67
330
B41
100
AcDbEntity
  8
0
  6
Continuous
 62
     7
370
    15
100
AcDbCircle
 10
2111.993770181026
 20
1104.368840776362
 30
0.0
 40
1.00000000000138
100
AcDbArc
 50
270.0
 51
359.9985822403484
  0
LINE
  5
B68
330
B41
100
AcDbEntity
  8
0
  6
Continuous
 62
     7
370
    15
100
AcDbLine
 10
2111.993809765557
 20
1103.368836244144
 30
0.0
 11
2108.11867339013
 21
1103.368836244144
 31
0.0
  0
ARC
  5
B69
330
B41
100
AcDbEntity
  8
0
  6
Continuous
 62
     7
370
    15
100
AcDbCircle
 10
2108.118726609072
 20
1108.368840776363
 30
0.0
 40
5.000000000002125
100
AcDbArc
 50
190.4991845865998
 51
270.0000385259626
  0
ARC
  5
B6A
330
B41
100
AcDbEntity
  8
0
  6
Continuous
 62
     7
370
    15
100
AcDbCircle
 10
2103.399090604386
 20
1107.494177422113
 30
0.0
 40
0.2000000000015258
100
AcDbArc
 50
104.9995726230121
 51
190.4991845865998
  0
LINE
  5
B6B
330
B41
100
AcDbEntity
  8
0
  6
Continuous
 62
     7
370
    15
100
AcDbLine
 10
2103.34732157586
 20
1107.687371572056
 30
0.0
 11
2104.293724125603
 21
1107.940959533253
 31
0.0
  0
LINE
  5
B6C
330
B41
100
AcDbEntity
  8
0
  6
Continuous
 62
     7
370
    15
100
AcDbLine
 10
2104.293724125603
 20
1107.940959533253
 30
0.0
 11
2104.482790058831
 21
1109.013276895084
 31
0.0
  0
LINE
  5
B6D
330
B41
100
AcDbEntity
  8
0
  6
Continuous
 62
     7
370
    15
100
AcDbLine
 10
2104.482790058831
 20
1109.013276895084
 30
0.0
 11
2104.23352343438
 21
1115.33142884592
 31
0.0
  0
ARC
  5
B6E
330
B41
100
AcDbEntity
  8
0
  6
Continuous
 62
     7
370
    15
100
AcDbCircle
 10
2103.154343575607
 20
1115.288840776362
 30
0.0
 40
1.080000000000242
100
AcDbArc
 50
2.259815895712872
 51
90.0
  0
LINE
  5
B6F
330
B41
100
AcDbEntity
  8
0
  6
Continuous
 62
     7
370
    15
100
AcDbLine
 10
2103.154321736077
 20
1116.368817885914
 30
0.0
 11
2103.142162388543
 21
1116.368817885914
 31
0.0
  0
ARC
  5
B70
330
B41
100
AcDbEntity
  8
0
  6
Continuous
 62
     7
370
    15
100
AcDbCircle
 10
2103.142146315481
 20
1115.288840776363
 30
0.0
 40
1.080000000000174
100
AcDbArc
 50
90.0
 51
181.9363321882725
  0
LINE
  5
B71
330
B41
100
AcDbEntity
  8
0
  6
Continuous
 62
     7
370
    15
100
AcDbLine
 10
2102.06272227166
 20
1115.252363284626
 30
0.0
 11
2102.265616482476
 21
1109.251099427738
 31
0.0
  0
ARC
  5
B72
330
B41
100
AcDbEntity
  8
0
  6
Continuous
 62
     7
370
    15
100
AcDbCircle
 10
2101.965826210996
 20
1109.240956793596
 30
0.0
 40
0.3000000000012264
100
AcDbArc
 50
270.0
 51
1.936332188298545
  0
LINE
  5
B73
330
B41
100
AcDbEntity
  8
0
  6
Continuous
 62
     7
370
    15
100
AcDbLine
 10
2101.965805119256
 20
1108.940946658649
 30
0.0
 11
2100.885292118767
 21
1108.940946658649
 31
0.0
  0
ARC
  5
B74
330
B41
100
AcDbEntity
  8
0
  6
Continuous
 62
     7
370
    15
100
AcDbCircle
 10
2100.885315228051
 20
1109.540956793596
 30
0.0
 40
0.6000000000001912
100
AcDbArc
 50
240.000000000014
 51
270.0
  0
LINE
  5
B75
330
B41
100
AcDbEntity
  8
0
  6
Continuous
 62
     7
370
    15
100
AcDbLine
 10
2100.585361546257
 20
1109.021353324451
 30
0.0
 11
2097.908278530816
 21
1110.566931565799
 31
0.0
  0
ARC
  5
B76
330
B41
100
AcDbEntity
  8
0
  6
Continuous
 62
     7
370
    15
100
AcDbCircle
 10
2096.408279535576
 20
1107.968852617652
 30
0.0
 40
3.000000000000561
100
AcDbArc
 50
60.000000000014
 51
90.0
  0
LINE
  5
B77
330
B41
100
AcDbEntity
  8
0
  6
Continuous
 62
     7
370
    15
100
AcDbLine
 10
2096.408268040398
 20
1110.96884568552
 30
0.0
 11
2077.679296559075
 21
1110.96884568552
 31
0.0
  0
ARC
  5
B78
330
B41
100
AcDbEntity
  8
0
  6
Continuous
 62
     7
370
    15
100
AcDbCircle
 10
2077.679271949117
 20
1107.968852617652
 30
0.0
 40
3.000000000000259
100
AcDbArc
 50
90.0
 51
119.999999999986
  0
LINE
  5
B79
330
B41
100
AcDbEntity
  8
0
  6
Continuous
 62
     7
370
    15
100
AcDbLine
 10
2076.179286068657
 20
1110.566931565799
 30
0.0
 11
2073.502203053215
 21
1109.021353324451
 31
0.0
  0
ARC
  5
B7A
330
B41
100
AcDbEntity
  8
0
  6
Continuous
 62
     7
370
    15
100
AcDbCircle
 10
2073.202236256642
 20
1109.540956793596
 30
0.0
 40
0.6000000000002333
100
AcDbArc
 50
270.0
 51
299.999999999986
  0
LINE
  5
B7B
330
B41
100
AcDbEntity
  8
0
  6
Continuous
 62
     7
370
    15
100
AcDbLine
 10
2073.202272480706
 20
1108.940946658649
 30
0.0
 11
2072.121759480217
 21
1108.940946658649
 31
0.0
  0
ARC
  5
B7C
330
B41
100
AcDbEntity
  8
0
  6
Continuous
 62
     7
370
    15
100
AcDbCircle
 10
2072.121725273696
 20
1109.240956793596
 30
0.0
 40
0.3000000000005447
100
AcDbArc
 50
178.0636678117014
 51
270.0
  0
LINE
  5
B7D
330
B41
100
AcDbEntity
  8
0
  6
Continuous
 62
     7
370
    15
100
AcDbLine
 10
2071.821948116997
 20
1109.251099427738
 30
0.0
 11
2072.024842327813
 21
1115.252363284626
 31
0.0
  0
ARC
  5
B7E
330
B41
100
AcDbEntity
  8
0
  6
Continuous
 62
     7
370
    15
100
AcDbCircle
 10
2070.945405169211
 20
1115.288840776363
 30
0.0
 40
1.080000000001495
100
AcDbArc
 50
358.0636678117275
 51
90.0
  0
LINE
  5
B7F
330
B41
100
AcDbEntity
  8
0
  6
Continuous
 62
     7
370
    15
100
AcDbLine
 10
2070.94540221093
 20
1116.368817885914
 30
0.0
 11
2070.933242863396
 21
1116.368817885914
 31
0.0
  0
ARC
  5
B80
330
B41
100
AcDbEntity
  8
0
  6
Continuous
 62
     7
370
    15
100
AcDbCircle
 10
2070.933207909086
 20
1115.288840776362
 30
0.0
 40
1.080000000000028
100
AcDbArc
 50
90.0
 51
177.7401841042871
  0
LINE
  5
B81
330
B41
100
AcDbEntity
  8
0
  6
Continuous
 62
     7
370
    15
100
AcDbLine
 10
2069.854041165093
 20
1115.33142884592
 30
0.0
 11
2069.604774540642
 21
1109.013276895084
 31
0.0
  0
LINE
  5
B82
330
B41
100
AcDbEntity
  8
0
  6
Continuous
 62
     7
370
    15
100
AcDbLine
 10
2069.604774540642
 20
1109.013276895084
 30
0.0
 11
2069.79372126458
 21
1107.940959533253
 31
0.0
  0
LINE
  5
B83
330
B41
100
AcDbEntity
  8
0
  6
Continuous
 62
     7
370
    15
100
AcDbLine
 10
2069.79372126458
 20
1107.940959533253
 30
0.0
 11
2070.740243023613
 21
1107.687371572056
 31
0.0
  0
ARC
  5
B84
330
B41
100
AcDbEntity
  8
0
  6
Continuous
 62
     7
370
    15
100
AcDbCircle
 10
2070.688460880306
 20
1107.494177422113
 30
0.0
 40
0.2000000000003262
100
AcDbArc
 50
349.5008154134002
 51
75.00042737694672
  0
ARC
  5
B85
330
B41
100
AcDbEntity
  8
0
  6
Continuous
 62
     7
370
    15
100
AcDbCircle
 10
2065.968824875621
 20
1108.368840776363
 30
0.0
 40
5.000000000000249
100
AcDbArc
 50
269.9999614740244
 51
349.5008154134002
  0
LINE
  5
B86
330
B41
100
AcDbEntity
  8
0
  6
Continuous
 62
     7
370
    15
100
AcDbLine
 10
2065.968772000054
 20
1103.368836244144
 30
0.0
 11
2062.093754833916
 21
1103.368836244144
 31
0.0
  0
ARC
  5
B87
330
B41
100
AcDbEntity
  8
0
  6
Continuous
 62
     7
370
    15
100
AcDbCircle
 10
2062.093781303666
 20
1104.368840776362
 30
0.0
 40
1.000000000000499
100
AcDbArc
 50
180.0014177596516
 51
270.0
  0
LINE
  5
B88
330
B41
100
AcDbEntity
  8
0
  6
Continuous
 62
     7
370
    15
100
AcDbLine
 10
2061.093827313164
 20
1104.368823369541
 30
0.0
 11
2061.093708103875
 21
1106.61487539629
 31
0.0
  0
ARC
  5
B89
330
B41
100
AcDbEntity
  8
0
  6
Continuous
 62
     7
370
    15
100
AcDbCircle
 10
2061.843725991576
 20
1106.614862093102
 30
0.0
 40
0.7500002651534065
100
AcDbArc
 50
319.4644437939663
 51
179.9997354822793
  0
ARC
  5
B8A
330
B41
100
AcDbEntity
  8
0
  6
Continuous
 62
     7
370
    15
100
AcDbCircle
 10
2062.793729679917
 20
1105.802462157643
 30
0.0
 40
0.5000000000443663
100
AcDbArc
 50
139.4644438075583
 51
180.000000013744
  0
LINE
  5
B8B
330
B41
100
AcDbEntity
  8
0
  6
Continuous
 62
     7
370
    15
100
AcDbLine
 10
2062.293788021782
 20
1105.802464088001
 30
0.0
 11
2062.293788021782
 21
1104.914742311039
 31
0.0
  0
ARC
  5
B8C
330
B41
100
AcDbEntity
  8
0
  6
Continuous
 62
     7
370
    15
100
AcDbCircle
 10
2062.593729679872
 20
1104.914752464109
 30
0.0
 40
0.3000000000001819
100
AcDbArc
 50
180.0
 51
270.0
  0
LINE
  5
B8D
330
B41
100
AcDbEntity
  8
0
  6
Continuous
 62
     7
370
    15
100
AcDbLine
 10
2062.593718594292
 20
1104.614752133884
 30
0.0
 11
2063.693781918267
 21
1104.614752133884
 31
0.0
  0
ARC
  5
B8E
330
B41
100
AcDbEntity
  8
0
  6
Continuous
 62
     7
370
    15
100
AcDbCircle
 10
2063.693726256731
 20
1104.914752464108
 30
0.0
 40
0.2999999999995282
100
AcDbArc
 50
270.0
 51
0.0
  0
LINE
  5
B8F
330
B41
100
AcDbEntity
  8
0
  6
Continuous
 62
     7
370
    15
100
AcDbLine
 10
2063.993712490777
 20
1104.914742311039
 30
0.0
 11
2063.993712490777
 21
1108.310091098346
 31
0.0
  0
ARC
  5
B90
330
B41
100
AcDbEntity
  8
0
  6
Continuous
 62
     7
370
    15
100
AcDbCircle
 10
2063.493726256731
 20
1108.310103452415
 30
0.0
 40
0.5000000000001421
100
AcDbArc
 50
0.0
 51
12.49999999998396
  0
LINE
  5
B91
330
B41
100
AcDbEntity
  8
0
  6
Continuous
 62
     7
370
    15
100
AcDbLine
 10
2061.535855358819
 20
1120.606648524799
 30
0.0
 11
2061.452766484002
 21
1120.981502135792
 31
0.0
  0
ARC
  5
B92
330
B41
100
AcDbEntity
  8
0
  6
Continuous
 62
     7
370
    15
100
AcDbCircle
 10
2061.208681609301
 20
1120.927386932483
 30
0.0
 40
0.2500000000011188
100
AcDbArc
 50
12.49999999990482
 51
72.49999999916162
  0
ARC
  5
B93
330
B41
100
AcDbEntity
  8
0
  6
Continuous
 62
     7
370
    15
100
AcDbCircle
 10
2061.359034509056
 20
1121.404245407857
 30
0.0
 40
0.2500000000009938
100
AcDbArc
 50
129.0887402942128
 51
252.5000000001836
  0
ARC
  5
B94
330
B41
100
AcDbEntity
  8
0
  6
Continuous
 62
     7
370
    15
100
AcDbCircle
 10
2061.043772865341
 20
1121.792330573769
 30
0.0
 40
0.2500000000000853
100
AcDbArc
 50
309.088740293342
 51
0.0
  0
ARC
  5
B95
330
B41
100
AcDbEntity
  8
0
  6
Continuous
 62
     7
370
    15
100
AcDbCircle
 10
2061.043772865341
 20
1122.175751791561
 30
0.0
 40
0.2500000000000853
100
AcDbArc
 50
0.0
 51
59.99999999995583
  0
ARC
  5
B96
330
B41
100
AcDbEntity
  8
0
  6
Continuous
 62
     7
370
    15
100
AcDbCircle
 10
2061.293772865341
 20
1122.608764493453
 30
0.0
 40
0.2499999999999182
100
AcDbArc
 50
120.000000000015
 51
240.0000000000027
  0
ARC
  5
B97
330
B41
100
AcDbEntity
  8
0
  6
Continuous
 62
     7
370
    15
100
AcDbCircle
 10
2061.043772865341
 20
1123.041777195345
 30
0.0
 40
0.2500000000000853
100
AcDbArc
 50
300.0000000000329
 51
0.0
  0
LINE
  5
B98
330
B41
100
AcDbEntity
  8
0
  6
Continuous
 62
     7
370
    15
100
AcDbLine
 10
2061.293741291741
 20
1123.041796287098
 30
0.0
 11
2061.293741291741
 21
1123.425769408741
 31
0.0
  0
ARC
  5
B99
330
B41
100
AcDbEntity
  8
0
  6
Continuous
 62
     7
370
    15
100
AcDbCircle
 10
2061.043772865341
 20
1123.425751791561
 30
0.0
 40
0.2500000000000853
100
AcDbArc
 50
0.0
 51
59.5361539194897
  0
ARC
  5
B9A
330
B41
100
AcDbEntity
  8
0
  6
Continuous
 62
     7
370
    15
100
AcDbCircle
 10
2061.297270150197
 20
1123.856726415604
 30
0.0
 40
0.2500000000000942
100
AcDbArc
 50
109.9999999996843
 51
239.5361539183681
  0
ARC
  5
B9B
330
B41
100
AcDbEntity
  8
0
  6
Continuous
 62
     7
370
    15
100
AcDbCircle
 10
2061.126260078536
 20
1124.326572725997
 30
0.0
 40
0.249999999999055
100
AcDbArc
 50
289.9999999997132
 51
350.0000000000346
  0
LINE
  5
B9C
330
B41
100
AcDbEntity
  8
0
  6
Continuous
 62
     7
370
    15
100
AcDbLine
 10
2061.372419422844
 20
1124.283182223835
 30
0.0
 11
2061.439176624993
 21
1124.66131409029
 31
0.0
  0
ARC
  5
B9D
330
B41
100
AcDbEntity
  8
0
  6
Continuous
 62
     7
370
    15
100
AcDbCircle
 10
2061.192936567441
 20
1124.70471388531
 30
0.0
 40
0.2499999999989392
100
AcDbArc
 50
349.9999999998097
 51
50.0000000003677
  0
ARC
  5
B9E
330
B41
100
AcDbEntity
  8
0
  6
Continuous
 62
     7
370
    15
100
AcDbCircle
 10
2061.514330372281
 20
1125.08773610687
 30
0.0
 40
0.2500000000017634
100
AcDbArc
 50
170.0000000002595
 51
230.0000000002843
  0
ARC
  5
B9F
330
B41
100
AcDbEntity
  8
0
  6
Continuous
 62
     7
370
    15
100
AcDbCircle
 10
2061.936078725256
 20
1127.767528397695
 30
0.0
 40
0.2000000000024516
100
AcDbArc
 50
82.49937842541241
 51
170.0000000002059
  0
LINE
  5
BA0
330
B41
100
AcDbEntity
  8
0
  6
Continuous
 62
     7
370
    15
100
AcDbLine
 10
2062.569995945672
 20
1127.885806163349
 30
0.0
 11
2061.962147778252
 21
1127.965795596638
 31
0.0
  0
ARC
  5
BA1
330
B41
100
AcDbEntity
  8
0
  6
Continuous
 62
     7
370
    15
100
AcDbCircle
 10
2062.544017699627
 20
1127.688478728307
 30
0.0
 40
0.1990147783275901
100
AcDbArc
 50
349.9999973589593
 51
82.49999735915732
  0
LINE
  5
BA2
330
B41
100
AcDbEntity
  8
0
  6
Continuous
 62
     7
370
    15
100
AcDbLine
 10
2062.733789509514
 20
1127.618419726887
 30
0.0
 11
2062.739988392571
 21
1127.653944095173
 31
0.0
  0
ARC
  5
BA3
330
B41
100
AcDbEntity
  8
0
  6
Continuous
 62
     7
370
    15
100
AcDbCircle
 10
2062.879287947811
 20
1127.592760544827
 30
0.0
 40
0.1477832512314861
100
AcDbArc
 50
169.9999973584174
 51
259.9999973588288
  0
ARC
  5
BA4
330
B41
100
AcDbEntity
  8
0
  6
Continuous
 62
     7
370
    15
100
AcDbCircle
 10
2063.878961568121
 20
1135.618840776362
 30
0.0
 40
0.7500000000009909
100
AcDbArc
 50
90.0
 51
169.9999999999553
  0
LINE
  5
BA5
330
B41
100
AcDbEntity
  8
0
  6
Continuous
 62
     7
370
    15
100
AcDbLine
 10
2063.878913944939
 20
1136.368858417072
 30
0.0
 11
2075.406094616631
 21
1136.368858417072
 31
0.0
  0
ARC
  5
BA6
330
B41
100
AcDbEntity
  8
0
  6
Continuous
 62
     7
370
    15
100
AcDbCircle
 10
2075.406070091546
 20
1135.868840776362
 30
0.0
 40
0.4999999999999432
100
AcDbArc
 50
20.00000000012948
 51
90.0
  0
LINE
  5
BA7
330
B41
100
AcDbEntity
  8
0
  6
Continuous
 62
     7
370
    15
100
AcDbLine
 10
2084.859152859429
 20
1131.116556724109
 30
0.0
 11
2084.83221155999
 21
1131.731915076771
 31
0.0
  0
LINE
  5
BA8
330
B41
100
AcDbEntity
  8
0
  6
Continuous
 62
     7
370
    15
100
AcDbLine
 10
2091.806670254448
 20
1132.176029284992
 30
0.0
 11
2092.480083531121
 21
1132.356392940082
 31
0.0
  0
ARC
  5
BA9
330
B41
100
AcDbEntity
  8
0
  6
Continuous
 62
     7
370
    15
100
AcDbCircle
 10
2092.441221457276
 20
1132.501282844667
 30
0.0
 40
0.1500000000000283
100
AcDbArc
 50
285.0017557670999
 51
0.0
  0
LINE
  5
BAA
330
B41
100
AcDbEntity
  8
0
  6
Continuous
 62
     7
370
    15
100
AcDbLine
 10
2092.591186588982
 20
1132.501291831531
 30
0.0
 11
2092.591186588982
 21
1133.002924521961
 31
0.0
  0
LINE
  5
BAB
330
B41
100
AcDbEntity
  8
0
  6
Continuous
 62
     7
370
    15
100
AcDbLine
 10
2092.591186588982
 20
1133.002924521961
 30
0.0
 11
2092.416187351922
 21
1133.103954394855
 31
0.0
  0
ARC
  5
BAC
330
B41
100
AcDbEntity
  8
0
  6
Continuous
 62
     7
370
    15
100
AcDbCircle
 10
2092.541188813391
 20
1133.320448050149
 30
0.0
 40
0.2499961405588039
100
AcDbArc
 50
89.99669779842665
 51
240.0029955176532
  0
LINE
  5
BAD
330
B41
100
AcDbEntity
  8
0
  6
Continuous
 62
     7
370
    15
100
AcDbLine
 10
2092.54123789666
 20
1133.570420344867
 30
0.0
 11
2093.008657520989
 21
1133.570420344867
 31
0.0
  0
ARC
  5
BAE
330
B41
100
AcDbEntity
  8
0
  6
Continuous
 62
     7
370
    15
100
AcDbCircle
 10
2093.008690033897
 20
1133.270444190291
 30
0.0
 40
0.2999999999999545
100
AcDbArc
 50
10.00000000011105
 51
90.0
  0
LINE
  5
BAF
330
B41
100
AcDbEntity
  8
0
  6
Continuous
 62
     7
370
    15
100
AcDbLine
 10
2093.304177349785
 20
1133.322524627247
 30
0.0
 11
2093.449970310906
 21
1132.495212157764
 31
0.0
  0
ARC
  5
BB0
330
B41
100
AcDbEntity
  8
0
  6
Continuous
 62
     7
370
    15
100
AcDbCircle
 10
2098.681481393146
 20
1135.868840776362
 30
0.0
 40
0.4999999999986074
100
AcDbArc
 50
90.0
 51
159.9999999998293
  0
LINE
  5
BB1
330
B41
100
AcDbEntity
  8
0
  6
Continuous
 62
     7
370
    15
100
AcDbLine
 10
2098.681469982842
 20
1136.368858417072
 30
0.0
 11
2110.208531445244
 21
1136.368858417072
 31
0.0
  0
ARC
  5
BB2
330
B41
100
AcDbEntity
  8
0
  6
Continuous
 62
     7
370
    15
100
AcDbCircle
 10
2110.208589916572
 20
1135.618840776362
 30
0.0
 40
0.7500000000003471
100
AcDbArc
 50
10.00000000004464
 51
90.0
  0
ARC
  5
BB3
330
B41
100
AcDbEntity
  8
0
  6
Continuous
 62
     7
370
    15
100
AcDbCircle
 10
2111.314069166176
 20
1132.516680171858
 30
0.0
 40
0.2000000000001798
100
AcDbArc
 50
282.4993784235944
 51
10.00000000001898
  0
LINE
  5
BB4
330
B41
100
AcDbEntity
  8
0
  6
Continuous
 62
     7
370
    15
100
AcDbLine
 10
2111.357351368645
 20
1132.321405013599
 30
0.0
 11
2110.758801525811
 21
1132.188725074329
 31
0.0
  0
ARC
  5
BB5
330
B41
100
AcDbEntity
  8
0
  6
Continuous
 62
     7
370
    15
100
AcDbCircle
 10
2110.715756818816
 20
1132.383035187709
 30
0.0
 40
0.199014778328312
100
AcDbArc
 50
189.9999973588515
 51
282.4999973581015
  0
LINE
  5
BB6
330
B41
100
AcDbEntity
  8
0
  6
Continuous
 62
     7
370
    15
100
AcDbLine
 10
2110.519786900261
 20
1132.348465522327
 30
0.0
 11
2110.513468807915
 21
1132.383989890613
 31
0.0
  0
ARC
  5
BB7
330
B41
100
AcDbEntity
  8
0
  6
Continuous
 62
     7
370
    15
100
AcDbCircle
 10
2110.367968293797
 20
1132.358311680062
 30
0.0
 40
0.1477832512328779
100
AcDbArc
 50
9.999997359234955
 51
99.99999735989678
  0
LINE
  5
BB8
330
B41
100
AcDbEntity
  8
0
  6
Continuous
 62
     7
370
    15
100
AcDbLine
 10
2110.34228426812
 20
1132.503854831257
 30
0.0
 11
2109.899898594597
 21
1132.425832351246
 31
0.0
  0
ARC
  5
BB9
330
B41
100
AcDbEntity
  8
0
  6
Continuous
 62
     7
370
    15
100
AcDbCircle
 10
2109.934426953871
 20
1132.229854688682
 30
0.0
 40
0.1990147783265657
100
AcDbArc
 50
99.99999999993974
 51
189.9999999999525
  0
LINE
  5
BBA
330
B41
100
AcDbEntity
  8
0
  6
Continuous
 62
     7
370
    15
100
AcDbLine
 10
2109.738489216546
 20
1132.195281585254
 30
0.0
 11
2109.74790675042
 21
1132.141816218891
 31
0.0
  0
ARC
  5
BBB
330
B41
100
AcDbEntity
  8
0
  6
Continuous
 62
     7
370
    15
100
AcDbCircle
 10
2110.997577298991
 20
1132.452230519502
 30
0.0
 40
1.287684729070741
100
AcDbArc
 50
193.9482249777437
 51
234.9555151482281
  0
ARC
  5
BBC
330
B41
100
AcDbEntity
  8
0
  6
Continuous
 62
     7
370
    15
100
AcDbCircle
 10
2109.683960683066
 20
1130.579288233691
 30
0.0
 40
1.000000000001732
100
AcDbArc
 50
15.09611883090511
 51
54.95551514809782
  0
ARC
  5
BBD
330
B41
100
AcDbEntity
  8
0
  6
Continuous
 62
     7
370
    15
100
AcDbCircle
 10
2101.137231499711
 20
1128.273824802284
 30
0.0
 40
9.852216748771365
100
AcDbArc
 50
4.903881168885272
 51
15.09611883093027
  0
ARC
  5
BBE
330
B41
100
AcDbEntity
  8
0
  6
Continuous
 62
     7
370
    15
100
AcDbCircle
 10
2109.957044778411
 20
1129.030551368529
 30
0.0
 40
1.000000000001874
100
AcDbArc
 50
325.044484851839
 51
4.903881168846333
  0
ARC
  5
BBF
330
B41
100
AcDbEntity
  8
0
  6
Continuous
 62
     7
370
    15
100
AcDbCircle
 10
2111.832024607971
 20
1127.719844666649
 30
0.0
 40
1.287684729069831
100
AcDbArc
 50
145.0444848518571
 51
186.0517750221996
  0
LINE
  5
BC0
330
B41
100
AcDbEntity
  8
0
  6
Continuous
 62
     7
370
    15
100
AcDbLine
 10
2110.551496571282
 20
1127.584087451496
 30
0.0
 11
2110.560914105156
 21
1127.530622085132
 31
0.0
  0
ARC
  5
BC1
330
B41
100
AcDbEntity
  8
0
  6
Continuous
 62
     7
370
    15
100
AcDbCircle
 10
2110.756933060347
 20
1127.565190760497
 30
0.0
 40
0.1990147783262203
100
AcDbArc
 50
189.9999999993828
 51
280.0000000000061
  0
LINE
  5
BC2
330
B41
100
AcDbEntity
  8
0
  6
Continuous
 62
     7
370
    15
100
AcDbLine
 10
2110.791464871148
 20
1127.369212707081
 30
0.0
 11
2111.23396975396
 21
1127.447235187092
 31
0.0
  0
ARC
  5
BC3
330
B41
100
AcDbEntity
  8
0
  6
Continuous
 62
     7
370
    15
100
AcDbCircle
 10
2111.208263536881
 20
1127.592760544827
 30
0.0
 40
0.1477832512314721
100
AcDbArc
 50
280.0000026412505
 51
10.00000264158258
  0
LINE
  5
BC4
330
B41
100
AcDbEntity
  8
0
  6
Continuous
 62
     7
370
    15
100
AcDbLine
 10
2111.353775089959
 20
1127.618419726887
 30
0.0
 11
2111.347576206902
 21
1127.653944095173
 31
0.0
  0
ARC
  5
BC5
330
B41
100
AcDbEntity
  8
0
  6
Continuous
 62
     7
370
    15
100
AcDbCircle
 10
2111.543533785066
 20
1127.688478728307
 30
0.0
 40
0.1990147783275901
100
AcDbArc
 50
97.50000264084267
 51
190.0000026410535
  0
LINE
  5
BC6
330
B41
100
AcDbEntity
  8
0
  6
Continuous
 62
     7
370
    15
100
AcDbLine
 10
2111.517568653801
 20
1127.885806163349
 30
0.0
 11
2112.125416821221
 21
1127.965795596638
 31
0.0
  0
ARC
  5
BC7
330
B41
100
AcDbEntity
  8
0
  6
Continuous
 62
     7
370
    15
100
AcDbCircle
 10
2112.151472759436
 20
1127.767528397695
 30
0.0
 40
0.2000000000024796
100
AcDbArc
 50
9.999999999794091
 51
97.50062157463926
  0
ARC
  5
BC8
330
B41
100
AcDbEntity
  8
0
  6
Continuous
 62
     7
370
    15
100
AcDbCircle
 10
2089.865358528526
 20
1139.420304071849
 30
0.0
 40
7.499916811230323
100
AcDbArc
 50
270.0017015268311
 51
285.0018843449968
  0
LINE
  5
BC9
330
B41
100
AcDbEntity
  8
0
  6
Continuous
 62
     7
370
    15
100
AcDbLine
 10
2089.452167576531
 20
1131.92038496355
 30
0.0
 11
2089.865585392693
 21
1131.92038496355
 31
0.0
  0
ARC
  5
BCA
330
B41
100
AcDbEntity
  8
0
  6
Continuous
 62
     7
370
    15
100
AcDbCircle
 10
2089.452159614392
 20
1131.723342928951
 30
0.0
 40
0.1970443349750335
100
AcDbArc
 50
90.0
 51
177.5040716715222
  0
LINE
  5
BCB
330
B41
100
AcDbEntity
  8
0
  6
Continuous
 62
     7
370
    15
100
AcDbLine
 10
2089.228411740044
 20
1131.116556724109
 30
0.0
 11
2089.255353039483
 21
1131.731915076771
 31
0.0
  0
ARC
  5
BCC
330
B41
100
AcDbEntity
  8
0
  6
Continuous
 62
     7
370
    15
100
AcDbCircle
 10
2089.427267399281
 20
1131.107890701347
 30
0.0
 40
0.1990147783279499
100
AcDbArc
 50
177.5000026411091
 51
270.0000026414794
  0
LINE
  5
BCD
330
B41
100
AcDbEntity
  8
0
  6
Continuous
 62
     7
370
    15
100
AcDbLine
 10
2089.463254040459
 20
1130.908894141712
 30
0.0
 11
2089.427252835015
 21
1130.908894141712
 31
0.0
  0
ARC
  5
BCE
330
B41
100
AcDbEntity
  8
0
  6
Continuous
 62
     7
370
    15
100
AcDbCircle
 10
2089.463312340851
 20
1130.761092671787
 30
0.0
 40
0.1477832512348699
100
AcDbArc
 50
0.0000026414013007
 51
90.00000264020275
  0
ARC
  5
BCF
330
B41
100
AcDbEntity
  8
0
  6
Continuous
 62
     7
370
    15
100
AcDbCircle
 10
2112.878869875391
 20
1120.927386932483
 30
0.0
 40
0.250000000001183
100
AcDbArc
 50
107.5000000008795
 51
167.5000000001079
  0
ARC
  5
BD0
330
B41
100
AcDbEntity
  8
0
  6
Continuous
 62
     7
370
    15
100
AcDbCircle
 10
2112.728516975637
 20
1121.404245407857
 30
0.0
 40
0.2500000000009938
100
AcDbArc
 50
287.4999999997628
 51
50.91125970578721
  0
LINE
  5
BD1
330
B41
100
AcDbEntity
  8
0
  6
Continuous
 62
     7
370
    15
100
AcDbLine
 10
2061.293741291741
 20
1121.792304118671
 30
0.0
 11
2061.293741291741
 21
1122.175740798511
 31
0.0
  0
ARC
  5
BD2
330
B41
100
AcDbEntity
  8
0
  6
Continuous
 62
     7
370
    15
100
AcDbCircle
 10
2095.920514306291
 20
1132.668852649608
 30
0.0
 40
1.0
100
AcDbArc
 50
270.0
 51
339.9999999999573
  0
LINE
  5
BD3
330
B41
100
AcDbEntity
  8
0
  6
Continuous
 62
     7
370
    15
100
AcDbLine
 10
2094.434877461174
 20
1131.668853362598
 30
0.0
 11
2095.920463627556
 21
1131.668853362598
 31
0.0
  0
ARC
  5
BD4
330
B41
100
AcDbEntity
  8
0
  6
Continuous
 62
     7
370
    15
100
AcDbCircle
 10
2094.434821449332
 20
1132.668852649608
 30
0.0
 40
1.0
100
AcDbArc
 50
189.9999999999654
 51
270.0
  0
ARC
  5
BD5
330
B41
100
AcDbEntity
  8
0
  6
Continuous
 62
     7
370
    15
100
AcDbCircle
 10
2086.257458551501
 20
1129.778552494134
 30
0.0
 40
1.000000000000298
100
AcDbArc
 50
95.0961188310287
 51
134.9555151482233
  0
ARC
  5
BD6
330
B41
100
AcDbEntity
  8
0
  6
Continuous
 62
     7
370
    15
100
AcDbCircle
 10
2084.641077598996
 20
1131.397445336788
 30
0.0
 40
1.287684729068859
100
AcDbArc
 50
273.948224978022
 51
314.9555151482232
  0
LINE
  5
BD7
330
B41
100
AcDbEntity
  8
0
  6
Continuous
 62
     7
370
    15
100
AcDbLine
 10
2084.729691570977
 20
1130.112814506092
 30
0.0
 11
2084.675451344231
 21
1130.112814506092
 31
0.0
  0
ARC
  5
BD8
330
B41
100
AcDbEntity
  8
0
  6
Continuous
 62
     7
370
    15
100
AcDbCircle
 10
2084.675460921256
 20
1130.311831476517
 30
0.0
 40
0.1990147783260738
100
AcDbArc
 50
180.0
 51
270.0
  0
LINE
  5
BD9
330
B41
100
AcDbEntity
  8
0
  6
Continuous
 62
     7
370
    15
100
AcDbLine
 10
2084.476491039971
 20
1130.311834414997
 30
0.0
 11
2084.476491039971
 21
1130.761074622669
 31
0.0
  0
ARC
  5
BDA
330
B41
100
AcDbEntity
  8
0
  6
Continuous
 62
     7
370
    15
100
AcDbCircle
 10
2084.624239143841
 20
1130.761092671787
 30
0.0
 40
0.1477832512350973
100
AcDbArc
 50
89.99999735979724
 51
179.9999973585856
  0
LINE
  5
BDB
330
B41
100
AcDbEntity
  8
0
  6
Continuous
 62
     7
370
    15
100
AcDbLine
 10
2084.624191349724
 20
1130.908894141712
 30
0.0
 11
2084.660311764458
 21
1130.908894141712
 31
0.0
  0
ARC
  5
BDC
330
B41
100
AcDbEntity
  8
0
  6
Continuous
 62
     7
370
    15
100
AcDbCircle
 10
2084.660284085411
 20
1131.107890701347
 30
0.0
 40
0.1990147783279499
100
AcDbArc
 50
269.9999973585205
 51
2.49999735889085
  0
LINE
  5
BDD
330
B41
100
AcDbEntity
  8
0
  6
Continuous
 62
     7
370
    15
100
AcDbLine
 10
2111.890336102227
 20
1116.468655665912
 30
0.0
 11
2110.105653828362
 21
1108.418333133259
 31
0.0
  0
ARC
  5
BDE
330
B41
100
AcDbEntity
  8
0
  6
Continuous
 62
     7
370
    15
100
AcDbCircle
 10
2084.635391870302
 20
1131.723342928951
 30
0.0
 40
0.1970443349750335
100
AcDbArc
 50
2.495928328477765
 51
90.0
  0
LINE
  5
BDF
330
B41
100
AcDbEntity
  8
0
  6
Continuous
 62
     7
370
    15
100
AcDbLine
 10
2084.635397022942
 20
1131.92038496355
 30
0.0
 11
2084.22197920678
 21
1131.92038496355
 31
0.0
  0
ARC
  5
BE0
330
B41
100
AcDbEntity
  8
0
  6
Continuous
 62
     7
370
    15
100
AcDbCircle
 10
2084.222192956166
 20
1139.420304071849
 30
0.0
 40
7.499916811230323
100
AcDbArc
 50
254.9981156550032
 51
269.9982984731689
  0
LINE
  5
BE1
330
B41
100
AcDbEntity
  8
0
  6
Continuous
 62
     7
370
    15
100
AcDbLine
 10
2082.280775135735
 20
1132.176029284992
 30
0.0
 11
2081.607481068352
 21
1132.356392940082
 31
0.0
  0
ARC
  5
BE2
330
B41
100
AcDbEntity
  8
0
  6
Continuous
 62
     7
370
    15
100
AcDbCircle
 10
2081.646330027416
 20
1132.501282844667
 30
0.0
 40
0.1500000000000909
100
AcDbArc
 50
180.0
 51
254.9982442328052
  0
LINE
  5
BE3
330
B41
100
AcDbEntity
  8
0
  6
Continuous
 62
     7
370
    15
100
AcDbLine
 10
2081.496378010491
 20
1132.501291831531
 30
0.0
 11
2081.496378010491
 21
1133.002924521961
 31
0.0
  0
LINE
  5
BE4
330
B41
100
AcDbEntity
  8
0
  6
Continuous
 62
     7
370
    15
100
AcDbLine
 10
2081.496378010491
 20
1133.002924521961
 30
0.0
 11
2081.671377247551
 21
1133.103954394855
 31
0.0
  0
ARC
  5
BE5
330
B41
100
AcDbEntity
  8
0
  6
Continuous
 62
     7
370
    15
100
AcDbCircle
 10
2081.546362671307
 20
1133.320448050149
 30
0.0
 40
0.2499961405571817
100
AcDbArc
 50
299.9970044814241
 51
90.00330220264162
  0
LINE
  5
BE6
330
B41
100
AcDbEntity
  8
0
  6
Continuous
 62
     7
370
    15
100
AcDbLine
 10
2081.546326702813
 20
1133.570420344867
 30
0.0
 11
2081.078907078484
 21
1133.570420344867
 31
0.0
  0
ARC
  5
BE7
330
B41
100
AcDbEntity
  8
0
  6
Continuous
 62
     7
370
    15
100
AcDbCircle
 10
2081.078861450796
 20
1133.270444190291
 30
0.0
 40
0.2999999999999545
100
AcDbArc
 50
90.0
 51
169.9999999998889
  0
LINE
  5
BE8
330
B41
100
AcDbEntity
  8
0
  6
Continuous
 62
     7
370
    15
100
AcDbLine
 10
2080.783387249688
 20
1133.322524627247
 30
0.0
 11
2080.637594288567
 21
1132.495212157764
 31
0.0
  0
ARC
  5
BE9
330
B41
100
AcDbEntity
  8
0
  6
Continuous
 62
     7
370
    15
100
AcDbCircle
 10
2079.652730035361
 20
1132.668852649608
 30
0.0
 40
1.0
100
AcDbArc
 50
270.0
 51
350.0000000000346
  0
LINE
  5
BEA
330
B41
100
AcDbEntity
  8
0
  6
Continuous
 62
     7
370
    15
100
AcDbLine
 10
2079.652687138298
 20
1131.668853362598
 30
0.0
 11
2078.166981762627
 21
1131.668853362598
 31
0.0
  0
ARC
  5
BEB
330
B41
100
AcDbEntity
  8
0
  6
Continuous
 62
     7
370
    15
100
AcDbCircle
 10
2078.167037178401
 20
1132.668852649608
 30
0.0
 40
1.0
100
AcDbArc
 50
200.0000000000304
 51
270.0
  0
ARC
  5
BEC
330
B41
100
AcDbEntity
  8
0
  6
Continuous
 62
     7
370
    15
100
AcDbCircle
 10
2061.291788922671
 20
1120.552514067362
 30
0.0
 40
0.2500000000010084
100
AcDbArc
 50
312.5000000001176
 51
12.49999999990482
  0
ARC
  5
BED
330
B41
100
AcDbEntity
  8
0
  6
Continuous
 62
     7
370
    15
100
AcDbCircle
 10
2061.629584026476
 20
1120.183875398957
 30
0.0
 40
0.2499999999996131
100
AcDbArc
 50
132.4999999994261
 51
252.5000000002411
  0
ARC
  5
BEE
330
B41
100
AcDbEntity
  8
0
  6
Continuous
 62
     7
370
    15
100
AcDbCircle
 10
2061.479231126726
 20
1119.707016923582
 30
0.0
 40
0.2500000000004891
100
AcDbArc
 50
12.50000000013232
 51
72.5000000002947
  0
LINE
  5
BEF
330
B41
100
AcDbEntity
  8
0
  6
Continuous
 62
     7
370
    15
100
AcDbLine
 10
2061.806460446099
 20
1119.386243423023
 30
0.0
 11
2061.723252361992
 21
1119.761097034015
 31
0.0
  0
ARC
  5
BF0
330
B41
100
AcDbEntity
  8
0
  6
Continuous
 62
     7
370
    15
100
AcDbCircle
 10
2061.562338440092
 20
1119.332144058461
 30
0.0
 40
0.2500000000003571
100
AcDbArc
 50
312.5000000002649
 51
12.50000000013232
  0
ARC
  5
BF1
330
B41
100
AcDbEntity
  8
0
  6
Continuous
 62
     7
370
    15
100
AcDbCircle
 10
2061.900133543901
 20
1118.963505390057
 30
0.0
 40
0.250000000000275
100
AcDbArc
 50
132.5000000002649
 51
252.5000000002371
  0
ARC
  5
BF2
330
B41
100
AcDbEntity
  8
0
  6
Continuous
 62
     7
370
    15
100
AcDbCircle
 10
2061.749780644151
 20
1118.486646914682
 30
0.0
 40
0.2500000000005975
100
AcDbArc
 50
12.50000000009135
 51
72.50000000030714
  0
LINE
  5
BF3
330
B41
100
AcDbEntity
  8
0
  6
Continuous
 62
     7
370
    15
100
AcDbLine
 10
2062.076946324089
 20
1118.165897925892
 30
0.0
 11
2061.993857449273
 21
1118.540751536884
 31
0.0
  0
ARC
  5
BF4
330
B41
100
AcDbEntity
  8
0
  6
Continuous
 62
     7
370
    15
100
AcDbCircle
 10
2061.832887957517
 20
1118.111774049562
 30
0.0
 40
0.250000000000378
100
AcDbArc
 50
312.5000000002561
 51
12.50000000013232
  0
ARC
  5
BF5
330
B41
100
AcDbEntity
  8
0
  6
Continuous
 62
     7
370
    15
100
AcDbCircle
 10
2062.170683061326
 20
1117.743135381157
 30
0.0
 40
0.2500000000011188
100
AcDbArc
 50
132.5000000000808
 51
252.499999999174
  0
ARC
  5
BF6
330
B41
100
AcDbEntity
  8
0
  6
Continuous
 62
     7
370
    15
100
AcDbCircle
 10
2062.020330161571
 20
1117.266276905783
 30
0.0
 40
0.2500000000000636
100
AcDbArc
 50
12.50000000010407
 51
72.50000000024108
  0
LINE
  5
BF7
330
B41
100
AcDbEntity
  8
0
  6
Continuous
 62
     7
370
    15
100
AcDbLine
 10
2062.34755141137
 20
1116.945492824116
 30
0.0
 11
2062.264462536553
 21
1117.320406039753
 31
0.0
  0
ARC
  5
BF8
330
B41
100
AcDbEntity
  8
0
  6
Continuous
 62
     7
370
    15
100
AcDbCircle
 10
2062.103437474936
 20
1116.891404040662
 30
0.0
 40
0.2500000000004077
100
AcDbArc
 50
312.5000000003113
 51
12.50000000009135
  0
ARC
  5
BF9
330
B41
100
AcDbEntity
  8
0
  6
Continuous
 62
     7
370
    15
100
AcDbCircle
 10
2062.441232578746
 20
1116.522765372257
 30
0.0
 40
0.2500000000010922
100
AcDbArc
 50
132.5000000000896
 51
192.4999999998766
  0
LINE
  5
BFA
330
B41
100
AcDbEntity
  8
0
  6
Continuous
 62
     7
370
    15
100
AcDbLine
 10
2089.611073559502
 20
1130.311834414997
 30
0.0
 11
2089.611073559502
 21
1130.761074622669
 31
0.0
  0
ARC
  5
BFB
330
B41
100
AcDbEntity
  8
0
  6
Continuous
 62
     7
370
    15
100
AcDbCircle
 10
2089.412090563437
 20
1130.311831476517
 30
0.0
 40
0.1990147783260738
100
AcDbArc
 50
270.0
 51
0.0
  0
LINE
  5
BFC
330
B41
100
AcDbEntity
  8
0
  6
Continuous
 62
     7
370
    15
100
AcDbLine
 10
2089.357753819207
 20
1130.112814506092
 30
0.0
 11
2089.412113255242
 21
1130.112814506092
 31
0.0
  0
ARC
  5
BFD
330
B41
100
AcDbEntity
  8
0
  6
Continuous
 62
     7
370
    15
100
AcDbCircle
 10
2089.446473885697
 20
1131.397445336788
 30
0.0
 40
1.287684729069019
100
AcDbArc
 50
225.0444848517675
 51
266.051775021978
  0
ARC
  5
BFE
330
B41
100
AcDbEntity
  8
0
  6
Continuous
 62
     7
370
    15
100
AcDbCircle
 10
2087.830092933192
 20
1129.778552494134
 30
0.0
 40
1.000000000000278
100
AcDbArc
 50
45.04448485177674
 51
84.90388116897129
  0
ARC
  5
BFF
330
B41
100
AcDbEntity
  8
0
  6
Continuous
 62
     7
370
    15
100
AcDbCircle
 10
2087.043772865356
 20
1120.961327807932
 30
0.0
 40
9.85221725987594
100
AcDbArc
 50
84.90384783880939
 51
95.09611883106762
  0
ARC
  5
C00
330
B41
100
AcDbEntity
  8
0
  6
Continuous
 62
     7
370
    15
100
AcDbCircle
 10
2112.573221112411
 20
1125.08773610687
 30
0.0
 40
0.2500000000015394
100
AcDbArc
 50
309.999999999669
 51
9.999999999753342
  0
ARC
  5
C01
330
B41
100
AcDbEntity
  8
0
  6
Continuous
 62
     7
370
    15
100
AcDbCircle
 10
2111.646318905946
 20
1116.522765372257
 30
0.0
 40
0.2500000000010922
100
AcDbArc
 50
347.5000000001234
 51
47.49999999991039
  0
ARC
  5
C02
330
B41
100
AcDbEntity
  8
0
  6
Continuous
 62
     7
370
    15
100
AcDbCircle
 10
2111.984114009756
 20
1116.891404040662
 30
0.0
 40
0.2500000000002779
100
AcDbArc
 50
167.4999999999086
 51
227.4999999997351
  0
LINE
  5
C03
330
B41
100
AcDbEntity
  8
0
  6
Continuous
 62
     7
370
    15
100
AcDbLine
 10
2111.740013188103
 20
1116.945492824116
 30
0.0
 11
2111.82310206292
 21
1117.320406039753
 31
0.0
  0
ARC
  5
C04
330
B41
100
AcDbEntity
  8
0
  6
Continuous
 62
     7
370
    15
100
AcDbCircle
 10
2112.067221323121
 20
1117.266276905783
 30
0.0
 40
0.2500000000000636
100
AcDbArc
 50
107.4999999997628
 51
167.4999999998959
  0
LINE
  5
C05
330
B41
100
AcDbEntity
  8
0
  6
Continuous
 62
     7
370
    15
100
AcDbLine
 10
2063.981910771111
 20
1108.418333133259
 30
0.0
 11
2062.197109287957
 21
1116.468655665912
 31
0.0
  0
LINE
  5
C06
330
B41
100
AcDbEntity
  8
0
  6
Continuous
 62
     7
370
    15
100
AcDbLine
 10
2061.268111294487
 20
1125.131177505054
 30
0.0
 11
2061.739107197503
 21
1127.802240451374
 31
0.0
  0
LINE
  5
C07
330
B41
100
AcDbEntity
  8
0
  6
Continuous
 62
     7
370
    15
100
AcDbLine
 10
2062.576552456597
 20
1132.551419337787
 30
0.0
 11
2063.140412396172
 21
1135.749089320698
 31
0.0
  0
ARC
  5
C08
330
B41
100
AcDbEntity
  8
0
  6
Continuous
 62
     7
370
    15
100
AcDbCircle
 10
2112.337770840541
 20
1118.486646914682
 30
0.0
 40
0.2500000000005975
100
AcDbArc
 50
107.4999999996928
 51
167.4999999998959
  0
ARC
  5
C09
330
B41
100
AcDbEntity
  8
0
  6
Continuous
 62
     7
370
    15
100
AcDbCircle
 10
2112.187417940791
 20
1118.963505390057
 30
0.0
 40
0.250000000000275
100
AcDbArc
 50
287.4999999997628
 51
47.49999999973512
  0
ARC
  5
C0A
330
B41
100
AcDbEntity
  8
0
  6
Continuous
 62
     7
370
    15
100
AcDbCircle
 10
2112.525213044602
 20
1119.332144058461
 30
0.0
 40
0.2500000000004915
100
AcDbArc
 50
167.4999999998832
 51
227.4999999997071
  0
LINE
  5
C0B
330
B41
100
AcDbEntity
  8
0
  6
Continuous
 62
     7
370
    15
100
AcDbLine
 10
2075.875898426751
 20
1136.039840777912
 30
0.0
 11
2077.227374142388
 21
1132.326829036274
 31
0.0
  0
LINE
  5
C0C
330
B41
100
AcDbEntity
  8
0
  6
Continuous
 62
     7
370
    15
100
AcDbLine
 10
2096.860190457085
 20
1132.326829036274
 30
0.0
 11
2098.211666172722
 21
1136.039840777912
 31
0.0
  0
ARC
  5
C0D
330
B41
100
AcDbEntity
  8
0
  6
Continuous
 62
     7
370
    15
100
AcDbCircle
 10
2112.457967458217
 20
1120.183875398957
 30
0.0
 40
0.2499999999995533
100
AcDbArc
 50
287.4999999997217
 51
47.50000000061063
  0
ARC
  5
C0E
330
B41
100
AcDbEntity
  8
0
  6
Continuous
 62
     7
370
    15
100
AcDbCircle
 10
2112.795762562021
 20
1120.552514067362
 30
0.0
 40
0.2500000000010084
100
AcDbArc
 50
167.5000000000952
 51
227.499999999892
  0
LINE
  5
C0F
330
B41
100
AcDbEntity
  8
0
  6
Continuous
 62
     7
370
    15
100
AcDbLine
 10
2112.551709240654
 20
1120.606648524799
 30
0.0
 11
2112.634798115471
 21
1120.981502135792
 31
0.0
  0
LINE
  5
C10
330
B41
100
AcDbEntity
  8
0
  6
Continuous
 62
     7
370
    15
100
AcDbLine
 10
2110.947152203301
 20
1135.749089320698
 30
0.0
 11
2111.511012142876
 21
1132.551419337787
 31
0.0
  0
LINE
  5
C11
330
B41
100
AcDbEntity
  8
0
  6
Continuous
 62
     7
370
    15
100
AcDbLine
 10
2112.34845740197
 20
1127.802240451374
 30
0.0
 11
2112.819453304985
 21
1125.131177505054
 31
0.0
  0
ARC
  5
C12
330
B41
100
AcDbEntity
  8
0
  6
Continuous
 62
     7
370
    15
100
AcDbCircle
 10
2113.043778619351
 20
1121.792330573769
 30
0.0
 40
0.2500000000000853
100
AcDbArc
 50
180.0
 51
230.9112597066947
  0
LINE
  5
C13
330
B41
100
AcDbEntity
  8
0
  6
Continuous
 62
     7
370
    15
100
AcDbLine
 10
2112.793823307732
 20
1121.792304118671
 30
0.0
 11
2112.793823307732
 21
1122.175740798511
 31
0.0
  0
ARC
  5
C14
330
B41
100
AcDbEntity
  8
0
  6
Continuous
 62
     7
370
    15
100
AcDbCircle
 10
2113.043778619351
 20
1122.175751791561
 30
0.0
 40
0.2500000000000853
100
AcDbArc
 50
120.0000000000441
 51
180.0
  0
ARC
  5
C15
330
B41
100
AcDbEntity
  8
0
  6
Continuous
 62
     7
370
    15
100
AcDbCircle
 10
2112.793778619351
 20
1122.608764493453
 30
0.0
 40
0.2499999999999111
100
AcDbArc
 50
299.9999999999973
 51
59.9999999999962
  0
ARC
  5
C16
330
B41
100
AcDbEntity
  8
0
  6
Continuous
 62
     7
370
    15
100
AcDbCircle
 10
2113.043778619351
 20
1123.041777195345
 30
0.0
 40
0.2500000000000853
100
AcDbArc
 50
180.0
 51
239.9999999999558
  0
LINE
  5
C17
330
B41
100
AcDbEntity
  8
0
  6
Continuous
 62
     7
370
    15
100
AcDbLine
 10
2112.793823307732
 20
1123.041796287098
 30
0.0
 11
2112.793823307732
 21
1123.425769408741
 31
0.0
  0
ARC
  5
C18
330
B41
100
AcDbEntity
  8
0
  6
Continuous
 62
     7
370
    15
100
AcDbCircle
 10
2113.043778619351
 20
1123.425751791561
 30
0.0
 40
0.2500000000000853
100
AcDbArc
 50
120.4638460805103
 51
180.0
  0
ARC
  5
C19
330
B41
100
AcDbEntity
  8
0
  6
Continuous
 62
     7
370
    15
100
AcDbCircle
 10
2112.790281334496
 20
1123.856726415604
 30
0.0
 40
0.2500000000000164
100
AcDbArc
 50
300.463846081585
 51
70.00000000036916
  0
ARC
  5
C1A
330
B41
100
AcDbEntity
  8
0
  6
Continuous
 62
     7
370
    15
100
AcDbCircle
 10
2112.961291406156
 20
1124.326572725997
 30
0.0
 40
0.2499999999990598
100
AcDbArc
 50
189.9999999999654
 51
250.0000000002868
  0
LINE
  5
C1B
330
B41
100
AcDbEntity
  8
0
  6
Continuous
 62
     7
370
    15
100
AcDbLine
 10
2112.715145176629
 20
1124.283182223835
 30
0.0
 11
2112.64838797448
 21
1124.66131409029
 31
0.0
  0
ARC
  5
C1C
330
B41
100
AcDbEntity
  8
0
  6
Continuous
 62
     7
370
    15
100
AcDbCircle
 10
2062.773482318521
 20
1132.516680171858
 30
0.0
 40
0.2000000000026557
100
AcDbArc
 50
170.0000000002466
 51
257.5006215749233
  0
LINE
  5
C1D
330
B41
100
AcDbEntity
  8
0
  6
Continuous
 62
     7
370
    15
100
AcDbLine
 10
2062.730213230828
 20
1132.321405013599
 30
0.0
 11
2063.328763073662
 21
1132.188725074329
 31
0.0
  0
ARC
  5
C1E
330
B41
100
AcDbEntity
  8
0
  6
Continuous
 62
     7
370
    15
100
AcDbCircle
 10
2063.371794665876
 20
1132.383035187709
 30
0.0
 40
0.199014778328508
100
AcDbArc
 50
257.5000026419649
 51
350.0000026411612
  0
LINE
  5
C1F
330
B41
100
AcDbEntity
  8
0
  6
Continuous
 62
     7
370
    15
100
AcDbLine
 10
2063.567777699212
 20
1132.348465522327
 30
0.0
 11
2063.574095791558
 21
1132.383989890613
 31
0.0
  0
ARC
  5
C20
330
B41
100
AcDbEntity
  8
0
  6
Continuous
 62
     7
370
    15
100
AcDbCircle
 10
2063.719583190896
 20
1132.358311680062
 30
0.0
 40
0.1477832512328779
100
AcDbArc
 50
80.00000264010322
 51
170.000002640765
  0
LINE
  5
C21
330
B41
100
AcDbEntity
  8
0
  6
Continuous
 62
     7
370
    15
100
AcDbLine
 10
2063.745280331353
 20
1132.503854831257
 30
0.0
 11
2064.187666004876
 21
1132.425832351246
 31
0.0
  0
ARC
  5
C22
330
B41
100
AcDbEntity
  8
0
  6
Continuous
 62
     7
370
    15
100
AcDbCircle
 10
2064.153124530821
 20
1132.229854688682
 30
0.0
 40
0.1990147783265518
100
AcDbArc
 50
350.0000000000475
 51
80.00000000000893
  0
LINE
  5
C23
330
B41
100
AcDbEntity
  8
0
  6
Continuous
 62
     7
370
    15
100
AcDbLine
 10
2064.349075382927
 20
1132.195281585254
 30
0.0
 11
2064.339657849053
 21
1132.141816218891
 31
0.0
  0
ARC
  5
C24
330
B41
100
AcDbEntity
  8
0
  6
Continuous
 62
     7
370
    15
100
AcDbCircle
 10
2063.089974185701
 20
1132.452230519502
 30
0.0
 40
1.287684729070727
100
AcDbArc
 50
305.044484851772
 51
346.0517750222562
  0
ARC
  5
C25
330
B41
100
AcDbEntity
  8
0
  6
Continuous
 62
     7
370
    15
100
AcDbCircle
 10
2064.403590801626
 20
1130.579288233691
 30
0.0
 40
1.00000000000174
100
AcDbArc
 50
125.0444848519022
 51
164.9038811690949
  0
ARC
  5
C26
330
B41
100
AcDbEntity
  8
0
  6
Continuous
 62
     7
370
    15
100
AcDbCircle
 10
2072.950319984982
 20
1128.273824802284
 30
0.0
 40
9.852216748771351
100
AcDbArc
 50
164.9038811690697
 51
175.0961188311147
  0
ARC
  5
C27
330
B41
100
AcDbEntity
  8
0
  6
Continuous
 62
     7
370
    15
100
AcDbCircle
 10
2064.130506706281
 20
1129.030551368529
 30
0.0
 40
1.000000000001888
100
AcDbArc
 50
175.0961188311536
 51
214.955515148161
  0
ARC
  5
C28
330
B41
100
AcDbEntity
  8
0
  6
Continuous
 62
     7
370
    15
100
AcDbCircle
 10
2062.255526876721
 20
1127.719844666649
 30
0.0
 40
1.287684729070029
100
AcDbArc
 50
353.9482249778018
 51
34.95551514814287
  0
LINE
  5
C29
330
B41
100
AcDbEntity
  8
0
  6
Continuous
 62
     7
370
    15
100
AcDbLine
 10
2063.536068028191
 20
1127.584087451496
 30
0.0
 11
2063.526650494317
 21
1127.530622085132
 31
0.0
  0
ARC
  5
C2A
330
B41
100
AcDbEntity
  8
0
  6
Continuous
 62
     7
370
    15
100
AcDbCircle
 10
2063.330618424346
 20
1127.565190760497
 30
0.0
 40
0.1990147783262343
100
AcDbArc
 50
260.0000000000603
 51
350.0000000006172
  0
LINE
  5
C2B
330
B41
100
AcDbEntity
  8
0
  6
Continuous
 62
     7
370
    15
100
AcDbLine
 10
2063.296099728325
 20
1127.369212707081
 30
0.0
 11
2062.853594845513
 21
1127.447235187092
 31
0.0
  0
LINE
  5
C2C
330
B41
100
AcDbEntity
  8
0
  6
Continuous
 62
     7
370
    15
100
AcDbLine
 10
2063.243766850213
 20
1107.364850839176
 30
0.0
 11
2061.843772953728
 21
1107.364850839176
 31
0.0
  0
ARC
  5
C2D
330
B41
100
AcDbEntity
  8
0
  6
Continuous
 62
     7
370
    15
100
AcDbCircle
 10
2063.243726256732
 20
1108.114862358254
 30
0.0
 40
0.7500000000000285
100
AcDbArc
 50
270.0
 51
0.0
  0
LINE
  5
C2E
330
B41
100
AcDbEntity
  8
0
  6
Continuous
 62
     7
370
    15
100
AcDbLine
 10
2110.84379774926
 20
1107.364850839176
 30
0.0
 11
2112.243791645745
 21
1107.364850839176
 31
0.0
  0
ARC
  5
C2F
330
B41
100
AcDbEntity
  8
0
  6
Continuous
 62
     7
370
    15
100
AcDbCircle
 10
2110.843825227961
 20
1108.114862358254
 30
0.0
 40
0.7500000000000285
100
AcDbArc
 50
180.0
 51
270.0
  0
ARC
  5
C30
330
B41
100
AcDbEntity
  8
0
  6
Continuous
 62
     7
370
    15
100
AcDbCircle
 10
2087.043772865356
 20
1120.961327807932
 30
0.0
 40
9.852216748766501
100
AcDbArc
 50
95.09611883106762
 51
105.1046763216724
  0
ARC
  5
C31
330
B41
100
AcDbEntity
  8
0
  6
Continuous
 62
     7
370
    15
100
AcDbCircle
 10
2072.950319984982
 20
1128.273824802284
 30
0.0
 40
9.852216748771489
100
AcDbArc
 50
154.8953236784574
 51
164.9038811690697
  0
ARC
  5
C32
330
B41
100
AcDbEntity
  8
0
  6
Continuous
 62
     7
370
    15
100
AcDbCircle
 10
2101.137231499711
 20
1128.273824802284
 30
0.0
 40
9.852216748771501
100
AcDbArc
 50
15.09611883093027
 51
25.10467632154258
  0
ARC
  5
C33
330
B41
100
AcDbEntity
  8
0
  6
Continuous
 62
     7
370
    15
100
AcDbCircle
 10
2087.043778619336
 20
1120.961327807932
 30
0.0
 40
9.852216748766498
100
AcDbArc
 50
74.8953236783276
 51
84.90388116893237
  0
ARC
  5
C34
330
B41
100
AcDbEntity
  8
0
  6
Continuous
 62
     7
370
    15
100
AcDbCircle
 10
2072.950319984982
 20
1128.273824802284
 30
0.0
 40
9.852216748771351
100
AcDbArc
 50
175.0961188311147
 51
185.1046763217055
  0
ARC
  5
C35
330
B41
100
AcDbEntity
  8
0
  6
Continuous
 62
     7
370
    15
100
AcDbCircle
 10
2101.137231499711
 20
1128.273824802284
 30
0.0
 40
9.852216748771365
100
AcDbArc
 50
354.8953236782945
 51
4.903881168885272
  0
ENDBLK
  5
B43
330
B41
100
AcDbEntity
  8
0
100
AcDbBlockEnd
  0
BLOCK
  5
C38
330
C37
100
AcDbEntity
  8
0
100
AcDbBlockBegin
  2
2
 70
     0
 10
0.0
 20
0.0
 30
0.0
  3
2
  1

  0
LINE
  5
C3A
330
C37
100
AcDbEntity
  8
0
  6
Continuous
 62
     7
370
    15
100
AcDbLine
 10
2047.408559846546
 20
1107.364850839176
 30
0.0
 11
2041.808559813391
 21
1107.364850839176
 31
0.0
  0
LINE
  5
C3B
330
C37
100
AcDbEntity
  8
0
  6
Continuous
 62
     7
370
    15
100
AcDbLine
 10
2048.408559777628
 20
1127.967524131336
 30
0.0
 11
2041.808559813391
 21
1127.967524131336
 31
0.0
  0
LINE
  5
C3C
330
C37
100
AcDbEntity
  8
0
  6
Continuous
 62
     7
370
    15
100
AcDbLine
 10
2041.808559813391
 20
1132.184016307392
 30
0.0
 11
2048.408559777628
 21
1132.184016307392
 31
0.0
  0
LINE
  5
C3D
330
C37
100
AcDbEntity
  8
0
  6
Continuous
 62
     7
370
    15
100
AcDbLine
 10
2048.408559777628
 20
1122.825252612629
 30
0.0
 11
2041.808559813391
 21
1122.825252612629
 31
0.0
  0
LINE
  5
C3E
330
C37
100
AcDbEntity
  8
0
  6
Continuous
 62
     7
370
    15
100
AcDbLine
 10
2048.408559777628
 20
1122.39228447298
 30
0.0
 11
2048.408559777628
 21
1122.825252612629
 31
0.0
  0
LINE
  5
C3F
330
C37
100
AcDbEntity
  8
0
  6
Continuous
 62
     7
370
    15
100
AcDbLine
 10
2048.408559777628
 20
1122.39228447298
 30
0.0
 11
2041.808559813391
 21
1122.39228447298
 31
0.0
  0
LINE
  5
C40
330
C37
100
AcDbEntity
  8
0
  6
Continuous
 62
     7
370
    15
100
AcDbLine
 10
2041.808559813391
 20
1122.39228447298
 30
0.0
 11
2041.808559813391
 21
1122.825252612629
 31
0.0
  0
LINE
  5
C41
330
C37
100
AcDbEntity
  8
0
  6
Continuous
 62
     7
370
    15
100
AcDbLine
 10
2048.408559777628
 20
1124.091672500171
 30
0.0
 11
2041.808559813391
 21
1124.091672500171
 31
0.0
  0
LINE
  5
C42
330
C37
100
AcDbEntity
  8
0
  6
Continuous
 62
     7
370
    15
100
AcDbLine
 10
2048.408559777628
 20
1123.641240199604
 30
0.0
 11
2041.808559813391
 21
1123.641240199604
 31
0.0
  0
LINE
  5
C43
330
C37
100
AcDbEntity
  8
0
  6
Continuous
 62
     7
370
    15
100
AcDbLine
 10
2048.408559777628
 20
1123.641240199604
 30
0.0
 11
2048.408559777628
 21
1124.091672500171
 31
0.0
  0
LINE
  5
C44
330
C37
100
AcDbEntity
  8
0
  6
Continuous
 62
     7
370
    15
100
AcDbLine
 10
2041.808559813391
 20
1123.641240199604
 30
0.0
 11
2041.808559813391
 21
1124.091672500171
 31
0.0
  0
LINE
  5
C45
330
C37
100
AcDbEntity
  8
0
  6
Continuous
 62
     7
370
    15
100
AcDbLine
 10
2041.808559813391
 20
1104.368823369541
 30
0.0
 11
2048.408559777628
 21
1104.368823369541
 31
0.0
  0
LINE
  5
C46
330
C37
100
AcDbEntity
  8
0
  6
Continuous
 62
     7
370
    15
100
AcDbLine
 10
2041.808559813391
 20
1106.61487539629
 30
0.0
 11
2048.408559777628
 21
1106.61487539629
 31
0.0
  0
LINE
  5
C47
330
C37
100
AcDbEntity
  8
0
  6
Continuous
 62
     7
370
    15
100
AcDbLine
 10
2048.408559777628
 20
1106.61487539629
 30
0.0
 11
2048.408559777628
 21
1104.368823369541
 31
0.0
  0
LINE
  5
C48
330
C37
100
AcDbEntity
  8
0
  6
Continuous
 62
     7
370
    15
100
AcDbLine
 10
2041.808559813391
 20
1106.61487539629
 30
0.0
 11
2041.808559813391
 21
1104.368823369541
 31
0.0
  0
LINE
  5
C49
330
C37
100
AcDbEntity
  8
0
  6
Continuous
 62
     7
370
    15
100
AcDbLine
 10
2048.408559777628
 20
1107.364850839176
 30
0.0
 11
2047.408559846546
 21
1107.364850839176
 31
0.0
  0
LINE
  5
C4A
330
C37
100
AcDbEntity
  8
0
  6
Continuous
 62
     7
370
    15
100
AcDbLine
 10
2048.408559777628
 20
1107.364850839176
 30
0.0
 11
2048.408559777628
 21
1106.61487539629
 31
0.0
  0
LINE
  5
C4B
330
C37
100
AcDbEntity
  8
0
  6
Continuous
 62
     7
370
    15
100
AcDbLine
 10
2041.808559813391
 20
1107.364850839176
 30
0.0
 11
2041.808559813391
 21
1106.61487539629
 31
0.0
  0
LINE
  5
C4C
330
C37
100
AcDbEntity
  8
0
  6
Continuous
 62
     7
370
    15
100
AcDbLine
 10
2041.808559813391
 20
1103.368836244144
 30
0.0
 11
2048.408559777628
 21
1103.368836244144
 31
0.0
  0
LINE
  5
C4D
330
C37
100
AcDbEntity
  8
0
  6
Continuous
 62
     7
370
    15
100
AcDbLine
 10
2048.408559777628
 20
1104.368823369541
 30
0.0
 11
2048.408559777628
 21
1103.368836244144
 31
0.0
  0
LINE
  5
C4E
330
C37
100
AcDbEntity
  8
0
  6
Continuous
 62
     7
370
    15
100
AcDbLine
 10
2041.808559813391
 20
1104.368823369541
 30
0.0
 11
2041.808559813391
 21
1103.368836244144
 31
0.0
  0
LINE
  5
C4F
330
C37
100
AcDbEntity
  8
0
  6
Continuous
 62
     7
370
    15
100
AcDbLine
 10
2048.408559777628
 20
1121.598290999927
 30
0.0
 11
2041.808559813391
 21
1121.598290999927
 31
0.0
  0
LINE
  5
C50
330
C37
100
AcDbEntity
  8
0
  6
Continuous
 62
     7
370
    15
100
AcDbLine
 10
2048.408559777628
 20
1121.165799697437
 30
0.0
 11
2041.808559813391
 21
1121.165799697437
 31
0.0
  0
LINE
  5
C51
330
C37
100
AcDbEntity
  8
0
  6
Continuous
 62
     7
370
    15
100
AcDbLine
 10
2048.408559777628
 20
1121.165799697437
 30
0.0
 11
2048.408559777628
 21
1121.598290999927
 31
0.0
  0
LINE
  5
C52
330
C37
100
AcDbEntity
  8
0
  6
Continuous
 62
     7
370
    15
100
AcDbLine
 10
2041.808559813391
 20
1121.165799697437
 30
0.0
 11
2041.808559813391
 21
1121.598290999927
 31
0.0
  0
LINE
  5
C53
330
C37
100
AcDbEntity
  8
0
  6
Continuous
 62
     7
370
    15
100
AcDbLine
 10
2048.408559777628
 20
1123.041796287098
 30
0.0
 11
2041.808559813391
 21
1123.041796287098
 31
0.0
  0
LINE
  5
C54
330
C37
100
AcDbEntity
  8
0
  6
Continuous
 62
     7
370
    15
100
AcDbLine
 10
2048.408559777628
 20
1122.825252612629
 30
0.0
 11
2048.408559777628
 21
1123.041796287098
 31
0.0
  0
LINE
  5
C55
330
C37
100
AcDbEntity
  8
0
  6
Continuous
 62
     7
370
    15
100
AcDbLine
 10
2041.808559813391
 20
1122.825252612629
 30
0.0
 11
2041.808559813391
 21
1123.041796287098
 31
0.0
  0
LINE
  5
C56
330
C37
100
AcDbEntity
  8
0
  6
Continuous
 62
     7
370
    15
100
AcDbLine
 10
2048.408559777628
 20
1122.175740798511
 30
0.0
 11
2041.808559813391
 21
1122.175740798511
 31
0.0
  0
LINE
  5
C57
330
C37
100
AcDbEntity
  8
0
  6
Continuous
 62
     7
370
    15
100
AcDbLine
 10
2048.408559777628
 20
1122.175740798511
 30
0.0
 11
2048.408559777628
 21
1122.39228447298
 31
0.0
  0
LINE
  5
C58
330
C37
100
AcDbEntity
  8
0
  6
Continuous
 62
     7
370
    15
100
AcDbLine
 10
2041.808559813391
 20
1122.175740798511
 30
0.0
 11
2041.808559813391
 21
1122.39228447298
 31
0.0
  0
LINE
  5
C59
330
C37
100
AcDbEntity
  8
0
  6
Continuous
 62
     7
370
    15
100
AcDbLine
 10
2048.408559777628
 20
1123.425769408741
 30
0.0
 11
2041.808559813391
 21
1123.425769408741
 31
0.0
  0
LINE
  5
C5A
330
C37
100
AcDbEntity
  8
0
  6
Continuous
 62
     7
370
    15
100
AcDbLine
 10
2048.408559777628
 20
1123.425769408741
 30
0.0
 11
2048.408559777628
 21
1123.641240199604
 31
0.0
  0
LINE
  5
C5B
330
C37
100
AcDbEntity
  8
0
  6
Continuous
 62
     7
370
    15
100
AcDbLine
 10
2041.808559813391
 20
1123.425769408741
 30
0.0
 11
2041.808559813391
 21
1123.641240199604
 31
0.0
  0
LINE
  5
C5C
330
C37
100
AcDbEntity
  8
0
  6
Continuous
 62
     7
370
    15
100
AcDbLine
 10
2048.408559777628
 20
1121.792304118671
 30
0.0
 11
2041.808559813391
 21
1121.792304118671
 31
0.0
  0
LINE
  5
C5D
330
C37
100
AcDbEntity
  8
0
  6
Continuous
 62
     7
370
    15
100
AcDbLine
 10
2048.408559777628
 20
1121.598290999927
 30
0.0
 11
2048.408559777628
 21
1121.792304118671
 31
0.0
  0
LINE
  5
C5E
330
C37
100
AcDbEntity
  8
0
  6
Continuous
 62
     7
370
    15
100
AcDbLine
 10
2041.808559813391
 20
1121.598290999927
 30
0.0
 11
2041.808559813391
 21
1121.792304118671
 31
0.0
  0
LINE
  5
C5F
330
C37
100
AcDbEntity
  8
0
  6
Continuous
 62
     7
370
    15
100
AcDbLine
 10
2048.408559777628
 20
1124.283182223835
 30
0.0
 11
2041.808559813391
 21
1124.283182223835
 31
0.0
  0
LINE
  5
C60
330
C37
100
AcDbEntity
  8
0
  6
Continuous
 62
     7
370
    15
100
AcDbLine
 10
2048.408559777628
 20
1124.091672500171
 30
0.0
 11
2048.408559777628
 21
1124.283182223835
 31
0.0
  0
LINE
  5
C61
330
C37
100
AcDbEntity
  8
0
  6
Continuous
 62
     7
370
    15
100
AcDbLine
 10
2041.808559813391
 20
1124.091672500171
 30
0.0
 11
2041.808559813391
 21
1124.283182223835
 31
0.0
  0
LINE
  5
C62
330
C37
100
AcDbEntity
  8
0
  6
Continuous
 62
     7
370
    15
100
AcDbLine
 10
2048.408559777628
 20
1125.131177505054
 30
0.0
 11
2041.808559813391
 21
1125.131177505054
 31
0.0
  0
LINE
  5
C63
330
C37
100
AcDbEntity
  8
0
  6
Continuous
 62
     7
370
    15
100
AcDbLine
 10
2048.408559777628
 20
1124.89621599535
 30
0.0
 11
2041.808559813391
 21
1124.89621599535
 31
0.0
  0
LINE
  5
C64
330
C37
100
AcDbEntity
  8
0
  6
Continuous
 62
     7
370
    15
100
AcDbLine
 10
2048.408559777628
 20
1124.89621599535
 30
0.0
 11
2048.408559777628
 21
1125.131177505054
 31
0.0
  0
LINE
  5
C65
330
C37
100
AcDbEntity
  8
0
  6
Continuous
 62
     7
370
    15
100
AcDbLine
 10
2041.808559813391
 20
1124.89621599535
 30
0.0
 11
2041.808559813391
 21
1125.131177505054
 31
0.0
  0
LINE
  5
C66
330
C37
100
AcDbEntity
  8
0
  6
Continuous
 62
     7
370
    15
100
AcDbLine
 10
2041.808559813391
 20
1127.802240451374
 30
0.0
 11
2048.408559777628
 21
1127.802240451374
 31
0.0
  0
LINE
  5
C67
330
C37
100
AcDbEntity
  8
0
  6
Continuous
 62
     7
370
    15
100
AcDbLine
 10
2048.408559777628
 20
1127.802240451374
 30
0.0
 11
2048.408559777628
 21
1125.131177505054
 31
0.0
  0
LINE
  5
C68
330
C37
100
AcDbEntity
  8
0
  6
Continuous
 62
     7
370
    15
100
AcDbLine
 10
2041.808559813391
 20
1127.802240451374
 30
0.0
 11
2041.808559813391
 21
1125.131177505054
 31
0.0
  0
LINE
  5
C69
330
C37
100
AcDbEntity
  8
0
  6
Continuous
 62
     7
370
    15
100
AcDbLine
 10
2048.408559777628
 20
1120.981502135792
 30
0.0
 11
2041.808559813391
 21
1120.981502135792
 31
0.0
  0
LINE
  5
C6A
330
C37
100
AcDbEntity
  8
0
  6
Continuous
 62
     7
370
    15
100
AcDbLine
 10
2048.408559777628
 20
1120.981502135792
 30
0.0
 11
2048.408559777628
 21
1121.165799697437
 31
0.0
  0
LINE
  5
C6B
330
C37
100
AcDbEntity
  8
0
  6
Continuous
 62
     7
370
    15
100
AcDbLine
 10
2041.808559813391
 20
1120.981502135792
 30
0.0
 11
2041.808559813391
 21
1121.165799697437
 31
0.0
  0
LINE
  5
C6C
330
C37
100
AcDbEntity
  8
0
  6
Continuous
 62
     7
370
    15
100
AcDbLine
 10
2048.408559777628
 20
1121.792304118671
 30
0.0
 11
2048.408559777628
 21
1122.175740798511
 31
0.0
  0
LINE
  5
C6D
330
C37
100
AcDbEntity
  8
0
  6
Continuous
 62
     7
370
    15
100
AcDbLine
 10
2041.808559813391
 20
1121.792304118671
 30
0.0
 11
2041.808559813391
 21
1122.175740798511
 31
0.0
  0
LINE
  5
C6E
330
C37
100
AcDbEntity
  8
0
  6
Continuous
 62
     7
370
    15
100
AcDbLine
 10
2048.408559777628
 20
1123.041796287098
 30
0.0
 11
2048.408559777628
 21
1123.425769408741
 31
0.0
  0
LINE
  5
C6F
330
C37
100
AcDbEntity
  8
0
  6
Continuous
 62
     7
370
    15
100
AcDbLine
 10
2041.808559813391
 20
1123.041796287098
 30
0.0
 11
2041.808559813391
 21
1123.425769408741
 31
0.0
  0
LINE
  5
C70
330
C37
100
AcDbEntity
  8
0
  6
Continuous
 62
     7
370
    15
100
AcDbLine
 10
2048.408559777628
 20
1124.66131409029
 30
0.0
 11
2041.808559813391
 21
1124.66131409029
 31
0.0
  0
LINE
  5
C71
330
C37
100
AcDbEntity
  8
0
  6
Continuous
 62
     7
370
    15
100
AcDbLine
 10
2048.408559777628
 20
1124.66131409029
 30
0.0
 11
2048.408559777628
 21
1124.89621599535
 31
0.0
  0
LINE
  5
C72
330
C37
100
AcDbEntity
  8
0
  6
Continuous
 62
     7
370
    15
100
AcDbLine
 10
2041.808559813391
 20
1124.66131409029
 30
0.0
 11
2041.808559813391
 21
1124.89621599535
 31
0.0
  0
LINE
  5
C73
330
C37
100
AcDbEntity
  8
0
  6
Continuous
 62
     7
370
    15
100
AcDbLine
 10
2048.408559777628
 20
1124.283182223835
 30
0.0
 11
2048.408559777628
 21
1124.66131409029
 31
0.0
  0
LINE
  5
C74
330
C37
100
AcDbEntity
  8
0
  6
Continuous
 62
     7
370
    15
100
AcDbLine
 10
2041.808559813391
 20
1124.283182223835
 30
0.0
 11
2041.808559813391
 21
1124.66131409029
 31
0.0
  0
LINE
  5
C75
330
C37
100
AcDbEntity
  8
0
  6
Continuous
 62
     7
370
    15
100
AcDbLine
 10
2048.408559777628
 20
1120.368170341053
 30
0.0
 11
2041.808559813391
 21
1120.368170341053
 31
0.0
  0
LINE
  5
C76
330
C37
100
AcDbEntity
  8
0
  6
Continuous
 62
     7
370
    15
100
AcDbLine
 10
2048.408559777628
 20
1119.945454200306
 30
0.0
 11
2041.808559813391
 21
1119.945454200306
 31
0.0
  0
LINE
  5
C77
330
C37
100
AcDbEntity
  8
0
  6
Continuous
 62
     7
370
    15
100
AcDbLine
 10
2048.408559777628
 20
1119.945454200306
 30
0.0
 11
2048.408559777628
 21
1120.368170341053
 31
0.0
  0
LINE
  5
C78
330
C37
100
AcDbEntity
  8
0
  6
Continuous
 62
     7
370
    15
100
AcDbLine
 10
2041.808559813391
 20
1119.945454200306
 30
0.0
 11
2041.808559813391
 21
1120.368170341053
 31
0.0
  0
LINE
  5
C79
330
C37
100
AcDbEntity
  8
0
  6
Continuous
 62
     7
370
    15
100
AcDbLine
 10
2048.408559777628
 20
1120.606648524799
 30
0.0
 11
2041.808559813391
 21
1120.606648524799
 31
0.0
  0
LINE
  5
C7A
330
C37
100
AcDbEntity
  8
0
  6
Continuous
 62
     7
370
    15
100
AcDbLine
 10
2048.408559777628
 20
1120.606648524799
 30
0.0
 11
2048.408559777628
 21
1120.981502135792
 31
0.0
  0
LINE
  5
C7B
330
C37
100
AcDbEntity
  8
0
  6
Continuous
 62
     7
370
    15
100
AcDbLine
 10
2041.808559813391
 20
1120.606648524799
 30
0.0
 11
2041.808559813391
 21
1120.981502135792
 31
0.0
  0
LINE
  5
C7C
330
C37
100
AcDbEntity
  8
0
  6
Continuous
 62
     7
370
    15
100
AcDbLine
 10
2048.408559777628
 20
1120.368170341053
 30
0.0
 11
2048.408559777628
 21
1120.606648524799
 31
0.0
  0
LINE
  5
C7D
330
C37
100
AcDbEntity
  8
0
  6
Continuous
 62
     7
370
    15
100
AcDbLine
 10
2041.808559813391
 20
1120.368170341053
 30
0.0
 11
2041.808559813391
 21
1120.606648524799
 31
0.0
  0
LINE
  5
C7E
330
C37
100
AcDbEntity
  8
0
  6
Continuous
 62
     7
370
    15
100
AcDbLine
 10
2048.408559777628
 20
1119.761097034015
 30
0.0
 11
2041.808559813391
 21
1119.761097034015
 31
0.0
  0
LINE
  5
C7F
330
C37
100
AcDbEntity
  8
0
  6
Continuous
 62
     7
370
    15
100
AcDbLine
 10
2048.408559777628
 20
1119.761097034015
 30
0.0
 11
2048.408559777628
 21
1119.945454200306
 31
0.0
  0
LINE
  5
C80
330
C37
100
AcDbEntity
  8
0
  6
Continuous
 62
     7
370
    15
100
AcDbLine
 10
2041.808559813391
 20
1119.761097034015
 30
0.0
 11
2041.808559813391
 21
1119.945454200306
 31
0.0
  0
LINE
  5
C81
330
C37
100
AcDbEntity
  8
0
  6
Continuous
 62
     7
370
    15
100
AcDbLine
 10
2048.408559777628
 20
1119.147824843921
 30
0.0
 11
2041.808559813391
 21
1119.147824843921
 31
0.0
  0
LINE
  5
C82
330
C37
100
AcDbEntity
  8
0
  6
Continuous
 62
     7
370
    15
100
AcDbLine
 10
2048.408559777628
 20
1118.72504909853
 30
0.0
 11
2041.808559813391
 21
1118.72504909853
 31
0.0
  0
LINE
  5
C83
330
C37
100
AcDbEntity
  8
0
  6
Continuous
 62
     7
370
    15
100
AcDbLine
 10
2048.408559777628
 20
1118.72504909853
 30
0.0
 11
2048.408559777628
 21
1119.147824843921
 31
0.0
  0
LINE
  5
C84
330
C37
100
AcDbEntity
  8
0
  6
Continuous
 62
     7
370
    15
100
AcDbLine
 10
2041.808559813391
 20
1118.72504909853
 30
0.0
 11
2041.808559813391
 21
1119.147824843921
 31
0.0
  0
LINE
  5
C85
330
C37
100
AcDbEntity
  8
0
  6
Continuous
 62
     7
370
    15
100
AcDbLine
 10
2048.408559777628
 20
1119.386243423023
 30
0.0
 11
2041.808559813391
 21
1119.386243423023
 31
0.0
  0
LINE
  5
C86
330
C37
100
AcDbEntity
  8
0
  6
Continuous
 62
     7
370
    15
100
AcDbLine
 10
2048.408559777628
 20
1119.386243423023
 30
0.0
 11
2048.408559777628
 21
1119.761097034015
 31
0.0
  0
LINE
  5
C87
330
C37
100
AcDbEntity
  8
0
  6
Continuous
 62
     7
370
    15
100
AcDbLine
 10
2041.808559813391
 20
1119.386243423023
 30
0.0
 11
2041.808559813391
 21
1119.761097034015
 31
0.0
  0
LINE
  5
C88
330
C37
100
AcDbEntity
  8
0
  6
Continuous
 62
     7
370
    15
100
AcDbLine
 10
2048.408559777628
 20
1119.147824843921
 30
0.0
 11
2048.408559777628
 21
1119.386243423023
 31
0.0
  0
LINE
  5
C89
330
C37
100
AcDbEntity
  8
0
  6
Continuous
 62
     7
370
    15
100
AcDbLine
 10
2041.808559813391
 20
1119.147824843921
 30
0.0
 11
2041.808559813391
 21
1119.386243423023
 31
0.0
  0
LINE
  5
C8A
330
C37
100
AcDbEntity
  8
0
  6
Continuous
 62
     7
370
    15
100
AcDbLine
 10
2048.408559777628
 20
1127.967524131336
 30
0.0
 11
2048.408559777628
 21
1127.802240451374
 31
0.0
  0
LINE
  5
C8B
330
C37
100
AcDbEntity
  8
0
  6
Continuous
 62
     7
370
    15
100
AcDbLine
 10
2041.808559813391
 20
1127.967524131336
 30
0.0
 11
2041.808559813391
 21
1127.802240451374
 31
0.0
  0
LINE
  5
C8C
330
C37
100
AcDbEntity
  8
0
  6
Continuous
 62
     7
370
    15
100
AcDbLine
 10
2048.408559777628
 20
1118.540751536884
 30
0.0
 11
2041.808559813391
 21
1118.540751536884
 31
0.0
  0
LINE
  5
C8D
330
C37
100
AcDbEntity
  8
0
  6
Continuous
 62
     7
370
    15
100
AcDbLine
 10
2048.408559777628
 20
1118.540751536884
 30
0.0
 11
2048.408559777628
 21
1118.72504909853
 31
0.0
  0
LINE
  5
C8E
330
C37
100
AcDbEntity
  8
0
  6
Continuous
 62
     7
370
    15
100
AcDbLine
 10
2041.808559813391
 20
1118.540751536884
 30
0.0
 11
2041.808559813391
 21
1118.72504909853
 31
0.0
  0
LINE
  5
C8F
330
C37
100
AcDbEntity
  8
0
  6
Continuous
 62
     7
370
    15
100
AcDbLine
 10
2048.408559777628
 20
1117.92747934679
 30
0.0
 11
2041.808559813391
 21
1117.92747934679
 31
0.0
  0
LINE
  5
C90
330
C37
100
AcDbEntity
  8
0
  6
Continuous
 62
     7
370
    15
100
AcDbLine
 10
2048.408559777628
 20
1117.504703601398
 30
0.0
 11
2041.808559813391
 21
1117.504703601398
 31
0.0
  0
LINE
  5
C91
330
C37
100
AcDbEntity
  8
0
  6
Continuous
 62
     7
370
    15
100
AcDbLine
 10
2048.408559777628
 20
1117.504703601398
 30
0.0
 11
2048.408559777628
 21
1117.92747934679
 31
0.0
  0
LINE
  5
C92
330
C37
100
AcDbEntity
  8
0
  6
Continuous
 62
     7
370
    15
100
AcDbLine
 10
2041.808559813391
 20
1117.504703601398
 30
0.0
 11
2041.808559813391
 21
1117.92747934679
 31
0.0
  0
LINE
  5
C93
330
C37
100
AcDbEntity
  8
0
  6
Continuous
 62
     7
370
    15
100
AcDbLine
 10
2048.408559777628
 20
1118.165897925892
 30
0.0
 11
2041.808559813391
 21
1118.165897925892
 31
0.0
  0
LINE
  5
C94
330
C37
100
AcDbEntity
  8
0
  6
Continuous
 62
     7
370
    15
100
AcDbLine
 10
2048.408559777628
 20
1118.165897925892
 30
0.0
 11
2048.408559777628
 21
1118.540751536884
 31
0.0
  0
LINE
  5
C95
330
C37
100
AcDbEntity
  8
0
  6
Continuous
 62
     7
370
    15
100
AcDbLine
 10
2041.808559813391
 20
1118.165897925892
 30
0.0
 11
2041.808559813391
 21
1118.540751536884
 31
0.0
  0
LINE
  5
C96
330
C37
100
AcDbEntity
  8
0
  6
Continuous
 62
     7
370
    15
100
AcDbLine
 10
2048.408559777628
 20
1117.92747934679
 30
0.0
 11
2048.408559777628
 21
1118.165897925892
 31
0.0
  0
LINE
  5
C97
330
C37
100
AcDbEntity
  8
0
  6
Continuous
 62
     7
370
    15
100
AcDbLine
 10
2041.808559813391
 20
1117.92747934679
 30
0.0
 11
2041.808559813391
 21
1118.165897925892
 31
0.0
  0
LINE
  5
C98
330
C37
100
AcDbEntity
  8
0
  6
Continuous
 62
     7
370
    15
100
AcDbLine
 10
2048.408559777628
 20
1117.320406039753
 30
0.0
 11
2041.808559813391
 21
1117.320406039753
 31
0.0
  0
LINE
  5
C99
330
C37
100
AcDbEntity
  8
0
  6
Continuous
 62
     7
370
    15
100
AcDbLine
 10
2048.408559777628
 20
1117.320406039753
 30
0.0
 11
2048.408559777628
 21
1117.504703601398
 31
0.0
  0
LINE
  5
C9A
330
C37
100
AcDbEntity
  8
0
  6
Continuous
 62
     7
370
    15
100
AcDbLine
 10
2041.808559813391
 20
1117.320406039753
 30
0.0
 11
2041.808559813391
 21
1117.504703601398
 31
0.0
  0
LINE
  5
C9B
330
C37
100
AcDbEntity
  8
0
  6
Continuous
 62
     7
370
    15
100
AcDbLine
 10
2048.408559777628
 20
1116.707074245014
 30
0.0
 11
2041.808559813391
 21
1116.707074245014
 31
0.0
  0
LINE
  5
C9C
330
C37
100
AcDbEntity
  8
0
  6
Continuous
 62
     7
370
    15
100
AcDbLine
 10
2048.408559777628
 20
1116.468655665912
 30
0.0
 11
2041.808559813391
 21
1116.468655665912
 31
0.0
  0
LINE
  5
C9D
330
C37
100
AcDbEntity
  8
0
  6
Continuous
 62
     7
370
    15
100
AcDbLine
 10
2048.408559777628
 20
1116.468655665912
 30
0.0
 11
2048.408559777628
 21
1116.707074245014
 31
0.0
  0
LINE
  5
C9E
330
C37
100
AcDbEntity
  8
0
  6
Continuous
 62
     7
370
    15
100
AcDbLine
 10
2041.808559813391
 20
1116.468655665912
 30
0.0
 11
2041.808559813391
 21
1116.707074245014
 31
0.0
  0
LINE
  5
C9F
330
C37
100
AcDbEntity
  8
0
  6
Continuous
 62
     7
370
    15
100
AcDbLine
 10
2041.808559813391
 20
1108.418333133259
 30
0.0
 11
2048.408559777628
 21
1108.418333133259
 31
0.0
  0
LINE
  5
CA0
330
C37
100
AcDbEntity
  8
0
  6
Continuous
 62
     7
370
    15
100
AcDbLine
 10
2048.408559777628
 20
1116.468655665912
 30
0.0
 11
2048.408559777628
 21
1108.418333133259
 31
0.0
  0
LINE
  5
CA1
330
C37
100
AcDbEntity
  8
0
  6
Continuous
 62
     7
370
    15
100
AcDbLine
 10
2041.808559813391
 20
1116.468655665912
 30
0.0
 11
2041.808559813391
 21
1108.418333133259
 31
0.0
  0
LINE
  5
CA2
330
C37
100
AcDbEntity
  8
0
  6
Continuous
 62
     7
370
    15
100
AcDbLine
 10
2048.408559777628
 20
1116.945492824116
 30
0.0
 11
2041.808559813391
 21
1116.945492824116
 31
0.0
  0
LINE
  5
CA3
330
C37
100
AcDbEntity
  8
0
  6
Continuous
 62
     7
370
    15
100
AcDbLine
 10
2048.408559777628
 20
1116.945492824116
 30
0.0
 11
2048.408559777628
 21
1117.320406039753
 31
0.0
  0
LINE
  5
CA4
330
C37
100
AcDbEntity
  8
0
  6
Continuous
 62
     7
370
    15
100
AcDbLine
 10
2041.808559813391
 20
1116.945492824116
 30
0.0
 11
2041.808559813391
 21
1117.320406039753
 31
0.0
  0
LINE
  5
CA5
330
C37
100
AcDbEntity
  8
0
  6
Continuous
 62
     7
370
    15
100
AcDbLine
 10
2048.408559777628
 20
1116.707074245014
 30
0.0
 11
2048.408559777628
 21
1116.945492824116
 31
0.0
  0
LINE
  5
CA6
330
C37
100
AcDbEntity
  8
0
  6
Continuous
 62
     7
370
    15
100
AcDbLine
 10
2041.808559813391
 20
1116.707074245014
 30
0.0
 11
2041.808559813391
 21
1116.945492824116
 31
0.0
  0
LINE
  5
CA7
330
C37
100
AcDbEntity
  8
0
  6
Continuous
 62
     7
370
    15
100
AcDbLine
 10
2041.808559813391
 20
1132.321405013599
 30
0.0
 11
2048.408559777628
 21
1132.321405013599
 31
0.0
  0
LINE
  5
CA8
330
C37
100
AcDbEntity
  8
0
  6
Continuous
 62
     7
370
    15
100
AcDbLine
 10
2041.808559813391
 20
1132.551419337787
 30
0.0
 11
2048.408559777628
 21
1132.551419337787
 31
0.0
  0
LINE
  5
CA9
330
C37
100
AcDbEntity
  8
0
  6
Continuous
 62
     7
370
    15
100
AcDbLine
 10
2048.408559777628
 20
1132.551419337787
 30
0.0
 11
2048.408559777628
 21
1132.321405013599
 31
0.0
  0
LINE
  5
CAA
330
C37
100
AcDbEntity
  8
0
  6
Continuous
 62
     7
370
    15
100
AcDbLine
 10
2041.808559813391
 20
1132.551419337787
 30
0.0
 11
2041.808559813391
 21
1132.321405013599
 31
0.0
  0
LINE
  5
CAB
330
C37
100
AcDbEntity
  8
0
  6
Continuous
 62
     7
370
    15
100
AcDbLine
 10
2041.808559813391
 20
1135.749089320698
 30
0.0
 11
2048.408559777628
 21
1135.749089320698
 31
0.0
  0
LINE
  5
CAC
330
C37
100
AcDbEntity
  8
0
  6
Continuous
 62
     7
370
    15
100
AcDbLine
 10
2048.408559777628
 20
1135.749089320698
 30
0.0
 11
2048.408559777628
 21
1132.551419337787
 31
0.0
  0
LINE
  5
CAD
330
C37
100
AcDbEntity
  8
0
  6
Continuous
 62
     7
370
    15
100
AcDbLine
 10
2041.808559813391
 20
1135.749089320698
 30
0.0
 11
2041.808559813391
 21
1132.551419337787
 31
0.0
  0
LINE
  5
CAE
330
C37
100
AcDbEntity
  8
0
  6
Continuous
 62
     7
370
    15
100
AcDbLine
 10
2041.808559813391
 20
1132.188725074329
 30
0.0
 11
2048.408559777628
 21
1132.188725074329
 31
0.0
  0
LINE
  5
CAF
330
C37
100
AcDbEntity
  8
0
  6
Continuous
 62
     7
370
    15
100
AcDbLine
 10
2048.408559777628
 20
1132.321405013599
 30
0.0
 11
2048.408559777628
 21
1132.188725074329
 31
0.0
  0
LINE
  5
CB0
330
C37
100
AcDbEntity
  8
0
  6
Continuous
 62
     7
370
    15
100
AcDbLine
 10
2041.808559813391
 20
1132.321405013599
 30
0.0
 11
2041.808559813391
 21
1132.188725074329
 31
0.0
  0
LINE
  5
CB1
330
C37
100
AcDbEntity
  8
0
  6
Continuous
 62
     7
370
    15
100
AcDbLine
 10
2041.808559813391
 20
1129.116046031513
 30
0.0
 11
2047.708559802587
 21
1129.116046031513
 31
0.0
  0
LINE
  5
CB2
330
C37
100
AcDbEntity
  8
0
  6
Continuous
 62
     7
370
    15
100
AcDbLine
 10
2041.808559813391
 20
1130.839752753773
 30
0.0
 11
2047.708559802587
 21
1130.839752753773
 31
0.0
  0
LINE
  5
CB3
330
C37
100
AcDbEntity
  8
0
  6
Continuous
 62
     7
370
    15
100
AcDbLine
 10
2047.708559802587
 20
1130.839752753773
 30
0.0
 11
2047.708559802587
 21
1132.184016307392
 31
0.0
  0
LINE
  5
CB4
330
C37
100
AcDbEntity
  8
0
  6
Continuous
 62
     7
370
    15
100
AcDbLine
 10
2047.708559802587
 20
1127.967524131336
 30
0.0
 11
2047.708559802587
 21
1129.116046031513
 31
0.0
  0
LINE
  5
CB5
330
C37
100
AcDbEntity
  8
0
  6
Continuous
 62
     7
370
    15
100
AcDbLine
 10
2048.408559777628
 20
1132.184016307392
 30
0.0
 11
2048.408559777628
 21
1127.967524131336
 31
0.0
  0
LINE
  5
CB6
330
C37
100
AcDbEntity
  8
0
  6
Continuous
 62
     7
370
    15
100
AcDbLine
 10
2041.808559813391
 20
1130.839752753773
 30
0.0
 11
2041.808559813391
 21
1129.116046031513
 31
0.0
  0
LINE
  5
CB7
330
C37
100
AcDbEntity
  8
0
  6
Continuous
 62
     7
370
    15
100
AcDbLine
 10
2041.808559813391
 20
1128.457593520679
 30
0.0
 11
2047.708559802587
 21
1128.457593520679
 31
0.0
  0
LINE
  5
CB8
330
C37
100
AcDbEntity
  8
0
  6
Continuous
 62
     7
370
    15
100
AcDbLine
 10
2041.808559813391
 20
1129.116046031513
 30
0.0
 11
2041.808559813391
 21
1128.457593520679
 31
0.0
  0
LINE
  5
CB9
330
C37
100
AcDbEntity
  8
0
  6
Continuous
 62
     7
370
    15
100
AcDbLine
 10
2041.808559813391
 20
1136.368858417072
 30
0.0
 11
2048.408559777628
 21
1136.368858417072
 31
0.0
  0
LINE
  5
CBA
330
C37
100
AcDbEntity
  8
0
  6
Continuous
 62
     7
370
    15
100
AcDbLine
 10
2048.408559777628
 20
1136.368858417072
 30
0.0
 11
2048.408559777628
 21
1135.749089320698
 31
0.0
  0
LINE
  5
CBB
330
C37
100
AcDbEntity
  8
0
  6
Continuous
 62
     7
370
    15
100
AcDbLine
 10
2041.808559813391
 20
1136.368858417072
 30
0.0
 11
2041.808559813391
 21
1135.749089320698
 31
0.0
  0
LINE
  5
CBC
330
C37
100
AcDbEntity
  8
0
  6
Continuous
 62
     7
370
    15
100
AcDbLine
 10
2048.408559777628
 20
1108.114856084385
 30
0.0
 11
2047.408559846546
 21
1108.114856084385
 31
0.0
  0
LINE
  5
CBD
330
C37
100
AcDbEntity
  8
0
  6
Continuous
 62
     7
370
    15
100
AcDbLine
 10
2047.408559846546
 20
1108.114856084385
 30
0.0
 11
2047.408559846546
 21
1107.364850839176
 31
0.0
  0
LINE
  5
CBE
330
C37
100
AcDbEntity
  8
0
  6
Continuous
 62
     7
370
    15
100
AcDbLine
 10
2048.408559777628
 20
1107.364850839176
 30
0.0
 11
2048.408559777628
 21
1108.114856084385
 31
0.0
  0
LINE
  5
CBF
330
C37
100
AcDbEntity
  8
0
  6
Continuous
 62
     7
370
    15
100
AcDbLine
 10
2041.808559813391
 20
1127.965795596638
 30
0.0
 11
2041.808559813391
 21
1128.457593520679
 31
0.0
  0
LINE
  5
CC0
330
C37
100
AcDbEntity
  8
0
  6
Continuous
 62
     7
370
    15
100
AcDbLine
 10
2048.408559777628
 20
1132.188725074329
 30
0.0
 11
2048.408559777628
 21
1132.184016307392
 31
0.0
  0
LINE
  5
CC1
330
C37
100
AcDbEntity
  8
0
  6
Continuous
 62
     7
370
    15
100
AcDbLine
 10
2041.808559813391
 20
1132.188725074329
 30
0.0
 11
2041.808559813391
 21
1132.184016307392
 31
0.0
  0
LINE
  5
CC2
330
C37
100
AcDbEntity
  8
0
  6
Continuous
 62
     7
370
    15
100
AcDbLine
 10
2041.808559813391
 20
1131.398009856739
 30
0.0
 11
2047.708559802587
 21
1131.398009856739
 31
0.0
  0
LINE
  5
CC3
330
C37
100
AcDbEntity
  8
0
  6
Continuous
 62
     7
370
    15
100
AcDbLine
 10
2041.808559813391
 20
1131.398009856739
 30
0.0
 11
2041.808559813391
 21
1130.839752753773
 31
0.0
  0
LINE
  5
CC4
330
C37
100
AcDbEntity
  8
0
  6
Continuous
 62
     7
370
    15
100
AcDbLine
 10
2041.808559813391
 20
1132.141816218891
 30
0.0
 11
2047.708559802587
 21
1132.141816218891
 31
0.0
  0
LINE
  5
CC5
330
C37
100
AcDbEntity
  8
0
  6
Continuous
 62
     7
370
    15
100
AcDbLine
 10
2041.808559813391
 20
1131.398009856739
 30
0.0
 11
2041.808559813391
 21
1132.141816218891
 31
0.0
  0
LINE
  5
CC6
330
C37
100
AcDbEntity
  8
0
  6
Continuous
 62
     7
370
    15
100
AcDbLine
 10
2041.808559813391
 20
1108.310091098346
 30
0.0
 11
2048.408559777628
 21
1108.310091098346
 31
0.0
  0
LINE
  5
CC7
330
C37
100
AcDbEntity
  8
0
  6
Continuous
 62
     7
370
    15
100
AcDbLine
 10
2048.408559777628
 20
1108.418333133259
 30
0.0
 11
2048.408559777628
 21
1108.310091098346
 31
0.0
  0
LINE
  5
CC8
330
C37
100
AcDbEntity
  8
0
  6
Continuous
 62
     7
370
    15
100
AcDbLine
 10
2041.808559813391
 20
1108.418333133259
 30
0.0
 11
2041.808559813391
 21
1108.310091098346
 31
0.0
  0
LINE
  5
CC9
330
C37
100
AcDbEntity
  8
0
  6
Continuous
 62
     7
370
    15
100
AcDbLine
 10
2048.408559777628
 20
1108.310091098346
 30
0.0
 11
2048.408559777628
 21
1108.114856084385
 31
0.0
  0
LINE
  5
CCA
330
C37
100
AcDbEntity
  8
0
  6
Continuous
 62
     7
370
    15
100
AcDbLine
 10
2041.808559813391
 20
1108.310091098346
 30
0.0
 11
2041.808559813391
 21
1107.364850839176
 31
0.0
  0
LINE
  5
CCB
330
C37
100
AcDbEntity
  8
0
  6
Continuous
 62
     7
370
    15
100
AcDbLine
 10
2041.808559813391
 20
1132.184016307392
 30
0.0
 11
2041.808559813391
 21
1132.141816218891
 31
0.0
  0
ENDBLK
  5
C39
330
C37
100
AcDbEntity
  8
0
100
AcDbBlockEnd
  0
BLOCK
  5
CCE
330
CCD
100
AcDbEntity
  8
0
100
AcDbBlockBegin
  2
3
 70
     0
 10
0.0
 20
0.0
 30
0.0
  3
3
  1

  0
LINE
  5
CD0
330
CCD
100
AcDbEntity
  8
0
  6
Continuous
 62
     7
370
    15
100
AcDbLine
 10
2081.796308583001
 20
1082.34970458162
 30
0.0
 11
2081.796308583001
 21
1088.949704545858
 31
0.0
  0
LINE
  5
CD1
330
CCD
100
AcDbEntity
  8
0
  6
Continuous
 62
     7
370
    15
100
AcDbLine
 10
2092.291136807183
 20
1088.949704545858
 30
0.0
 11
2092.291136807183
 21
1082.34970458162
 31
0.0
  0
LINE
  5
CD2
330
CCD
100
AcDbEntity
  8
0
  6
Continuous
 62
     7
370
    15
100
AcDbLine
 10
2111.514111584404
 20
1082.34970458162
 30
0.0
 11
2111.514111584404
 21
1088.949704545858
 31
0.0
  0
LINE
  5
CD3
330
CCD
100
AcDbEntity
  8
0
  6
Continuous
 62
     7
370
    15
100
AcDbLine
 10
2062.573453015069
 20
1088.949704545858
 30
0.0
 11
2062.573453015069
 21
1082.34970458162
 31
0.0
  0
LINE
  5
CD4
330
CCD
100
AcDbEntity
  8
0
  6
Continuous
 62
     7
370
    15
100
AcDbLine
 10
2089.228292530755
 20
1088.949704545858
 30
0.0
 11
2089.228292530755
 21
1082.34970458162
 31
0.0
  0
LINE
  5
CD5
330
CCD
100
AcDbEntity
  8
0
  6
Continuous
 62
     7
370
    15
100
AcDbLine
 10
2084.859272068718
 20
1082.34970458162
 30
0.0
 11
2084.859272068718
 21
1088.949704545858
 31
0.0
  0
LINE
  5
CD6
330
CCD
100
AcDbEntity
  8
0
  6
Continuous
 62
     7
370
    15
100
AcDbLine
 10
2112.823268002251
 20
1082.34970458162
 30
0.0
 11
2112.823268002251
 21
1088.949704545858
 31
0.0
  0
LINE
  5
CD7
330
CCD
100
AcDbEntity
  8
0
  6
Continuous
 62
     7
370
    15
100
AcDbLine
 10
2061.264296597222
 20
1088.949704545858
 30
0.0
 11
2061.264296597222
 21
1082.34970458162
 31
0.0
  0
LINE
  5
CD8
330
CCD
100
AcDbEntity
  8
0
  6
Continuous
 62
     7
370
    15
100
AcDbLine
 10
2113.040228909234
 20
1082.34970458162
 30
0.0
 11
2113.040228909234
 21
1088.949704545858
 31
0.0
  0
LINE
  5
CD9
330
CCD
100
AcDbEntity
  8
0
  6
Continuous
 62
     7
370
    15
100
AcDbLine
 10
2061.04721648095
 20
1088.949704545858
 30
0.0
 11
2061.04721648095
 21
1082.34970458162
 31
0.0
  0
LINE
  5
CDA
330
CCD
100
AcDbEntity
  8
0
  6
Continuous
 62
     7
370
    15
100
AcDbLine
 10
2113.04380518792
 20
1082.34970458162
 30
0.0
 11
2113.04380518792
 21
1088.949704545858
 31
0.0
  0
LINE
  5
CDB
330
CCD
100
AcDbEntity
  8
0
  6
Continuous
 62
     7
370
    15
100
AcDbLine
 10
2061.043759411553
 20
1088.949704545858
 30
0.0
 11
2061.043759411553
 21
1082.34970458162
 31
0.0
  0
LINE
  5
CDC
330
CCD
100
AcDbEntity
  8
0
  6
Continuous
 62
     7
370
    15
100
AcDbLine
 10
2063.140412396172
 20
1088.949704545858
 30
0.0
 11
2063.878913944939
 21
1088.949704545858
 31
0.0
  0
LINE
  5
CDD
330
CCD
100
AcDbEntity
  8
0
  6
Continuous
 62
     7
370
    15
100
AcDbLine
 10
2063.878913944939
 20
1082.34970458162
 30
0.0
 11
2063.878913944939
 21
1088.949704545858
 31
0.0
  0
LINE
  5
CDE
330
CCD
100
AcDbEntity
  8
0
  6
Continuous
 62
     7
370
    15
100
AcDbLine
 10
2063.140412396172
 20
1082.34970458162
 30
0.0
 11
2063.878913944939
 21
1082.34970458162
 31
0.0
  0
LINE
  5
CDF
330
CCD
100
AcDbEntity
  8
0
  6
Continuous
 62
     7
370
    15
100
AcDbLine
 10
2063.140412396172
 20
1082.34970458162
 30
0.0
 11
2063.140412396172
 21
1088.949704545858
 31
0.0
  0
LINE
  5
CE0
330
CCD
100
AcDbEntity
  8
0
  6
Continuous
 62
     7
370
    15
100
AcDbLine
 10
2071.921011036614
 20
1083.749704531701
 30
0.0
 11
2071.921011036614
 21
1087.549704595776
 31
0.0
  0
LINE
  5
CE1
330
CCD
100
AcDbEntity
  8
0
  6
Continuous
 62
     7
370
    15
100
AcDbLine
 10
2074.905057972649
 20
1083.749704531701
 30
0.0
 11
2071.921011036614
 21
1083.749704531701
 31
0.0
  0
LINE
  5
CE2
330
CCD
100
AcDbEntity
  8
0
  6
Continuous
 62
     7
370
    15
100
AcDbLine
 10
2074.905057972649
 20
1087.549704595776
 30
0.0
 11
2074.905057972649
 21
1083.749704531701
 31
0.0
  0
LINE
  5
CE3
330
CCD
100
AcDbEntity
  8
0
  6
Continuous
 62
     7
370
    15
100
AcDbLine
 10
2074.905057972649
 20
1087.549704595776
 30
0.0
 11
2071.921011036614
 21
1087.549704595776
 31
0.0
  0
SPLINE
  5
CE4
330
CCD
100
AcDbEntity
  8
0
  6
Continuous
 62
     7
370
    15
100
AcDbSpline
210
0.0
220
0.0
230
1.0
 70
     8
 71
     3
 72
     9
 73
     5
 74
     0
 42
0.0000000001
 43
0.0000000001
 40
0.0
 40
0.0
 40
0.0
 40
0.0
 40
0.6211566368611491
 40
1.0
 40
1.0
 40
1.0
 40
1.0
 10
2067.121168202141
 20
1082.849704663577
 30
0.0
 10
2067.007761954112
 20
1082.859560204642
 30
0.0
 10
2066.825189248133
 20
1082.875426639098
 30
0.0
 10
2066.664541144183
 20
1082.961123952124
 30
0.0
 10
2066.603680676201
 20
1082.993589810403
 30
0.0
  0
LINE
  5
CE5
330
CCD
100
AcDbEntity
  8
0
  6
Continuous
 62
     7
370
    15
100
AcDbLine
 10
2069.288869923333
 20
1082.849704663577
 30
0.0
 11
2067.121168202141
 21
1082.849704663577
 31
0.0
  0
SPLINE
  5
CE6
330
CCD
100
AcDbEntity
  8
0
  6
Continuous
 62
     7
370
    15
100
AcDbSpline
210
0.0
220
0.0
230
1.0
 70
     8
 71
     3
 72
     9
 73
     5
 74
     0
 42
0.0000000001
 43
0.0000000001
 40
0.0
 40
0.0
 40
0.0
 40
0.0
 40
0.6211021089609809
 40
1.0
 40
1.0
 40
1.0
 40
1.0
 10
2069.806357449273
 20
1082.993589810403
 30
0.0
 10
2069.704151431666
 20
1082.943488035332
 30
0.0
 10
2069.539595529936
 20
1082.862822112051
 30
0.0
 10
2069.357765092576
 20
1082.853309117246
 30
0.0
 10
2069.288869923333
 20
1082.849704663577
 30
0.0
  0
ARC
  5
CE7
330
CCD
100
AcDbEntity
  8
0
  6
Continuous
 62
     7
370
    15
100
AcDbCircle
 10
2068.205016804146
 20
1085.649704563739
 30
0.0
 40
3.101458967779108
100
AcDbArc
 50
301.084351949868
 51
58.91564805013199
  0
SPLINE
  5
CE8
330
CCD
100
AcDbEntity
  8
0
  6
Continuous
 62
     7
370
    15
100
AcDbSpline
210
0.0
220
0.0
230
1.0
 70
     8
 71
     3
 72
     9
 73
     5
 74
     0
 42
0.0000000001
 43
0.0000000001
 40
0.0
 40
0.0
 40
0.0
 40
0.0
 40
0.6211566368611491
 40
1.0
 40
1.0
 40
1.0
 40
1.0
 10
2069.288869923333
 20
1088.449704463901
 30
0.0
 10
2069.402276171361
 20
1088.439848922836
 30
0.0
 10
2069.584848877341
 20
1088.42398248838
 30
0.0
 10
2069.74549698129
 20
1088.338285175354
 30
0.0
 10
2069.806357449273
 20
1088.305819317075
 30
0.0
  0
LINE
  5
CE9
330
CCD
100
AcDbEntity
  8
0
  6
Continuous
 62
     7
370
    15
100
AcDbLine
 10
2067.121168202141
 20
1088.449704463901
 30
0.0
 11
2069.288869923333
 21
1088.449704463901
 31
0.0
  0
SPLINE
  5
CEA
330
CCD
100
AcDbEntity
  8
0
  6
Continuous
 62
     7
370
    15
100
AcDbSpline
210
0.0
220
0.0
230
1.0
 70
     8
 71
     3
 72
     9
 73
     5
 74
     0
 42
0.0000000001
 43
0.0000000001
 40
0.0
 40
0.0
 40
0.0
 40
0.0
 40
0.6211021089609809
 40
1.0
 40
1.0
 40
1.0
 40
1.0
 10
2066.603680676201
 20
1088.305819317075
 30
0.0
 10
2066.705886693808
 20
1088.355921092146
 30
0.0
 10
2066.870442595537
 20
1088.436587015426
 30
0.0
 10
2067.052273032899
 20
1088.446100010232
 30
0.0
 10
2067.121168202141
 20
1088.449704463901
 30
0.0
  0
ARC
  5
CEB
330
CCD
100
AcDbEntity
  8
0
  6
Continuous
 62
     7
370
    15
100
AcDbCircle
 10
2068.205016804146
 20
1085.649704563739
 30
0.0
 40
3.101458967779108
100
AcDbArc
 50
121.084351949868
 51
238.915648050132
  0
LINE
  5
CEC
330
CCD
100
AcDbEntity
  8
0
  6
Continuous
 62
     7
370
    15
100
AcDbLine
 10
2075.406094616631
 20
1082.34970458162
 30
0.0
 11
2075.406094616631
 21
1088.949704545858
 31
0.0
  0
LINE
  5
CED
330
CCD
100
AcDbEntity
  8
0
  6
Continuous
 62
     7
370
    15
100
AcDbLine
 10
2063.878913944939
 20
1082.34970458162
 30
0.0
 11
2075.406094616631
 21
1082.34970458162
 31
0.0
  0
LINE
  5
CEE
330
CCD
100
AcDbEntity
  8
0
  6
Continuous
 62
     7
370
    15
100
AcDbLine
 10
2063.878913944939
 20
1088.949704545858
 30
0.0
 11
2075.406094616631
 21
1088.949704545858
 31
0.0
  0
LINE
  5
CEF
330
CCD
100
AcDbEntity
  8
0
  6
Continuous
 62
     7
370
    15
100
AcDbLine
 10
2110.947152203301
 20
1082.34970458162
 30
0.0
 11
2110.947152203301
 21
1088.949704545858
 31
0.0
  0
LINE
  5
CF0
330
CCD
100
AcDbEntity
  8
0
  6
Continuous
 62
     7
370
    15
100
AcDbLine
 10
2110.208531445244
 20
1082.34970458162
 30
0.0
 11
2110.208531445244
 21
1088.949704545858
 31
0.0
  0
LINE
  5
CF1
330
CCD
100
AcDbEntity
  8
0
  6
Continuous
 62
     7
370
    15
100
AcDbLine
 10
2110.208531445244
 20
1082.34970458162
 30
0.0
 11
2110.947152203301
 21
1082.34970458162
 31
0.0
  0
LINE
  5
CF2
330
CCD
100
AcDbEntity
  8
0
  6
Continuous
 62
     7
370
    15
100
AcDbLine
 10
2110.208531445244
 20
1088.949704545858
 30
0.0
 11
2110.947152203301
 21
1088.949704545858
 31
0.0
  0
SPLINE
  5
CF3
330
CCD
100
AcDbEntity
  8
0
  6
Continuous
 62
     7
370
    15
100
AcDbSpline
210
0.0
220
0.0
230
1.0
 70
     8
 71
     3
 72
     9
 73
     5
 74
     0
 42
0.0000000001
 43
0.0000000001
 40
0.0
 40
0.0
 40
0.0
 40
0.0
 40
0.6211021089609809
 40
1.0
 40
1.0
 40
1.0
 40
1.0
 10
2104.2812071502
 20
1088.305819317075
 30
0.0
 10
2104.383413167806
 20
1088.355921092146
 30
0.0
 10
2104.547969069535
 20
1088.436587015426
 30
0.0
 10
2104.729799506898
 20
1088.446100010232
 30
0.0
 10
2104.79869467614
 20
1088.449704463901
 30
0.0
  0
ARC
  5
CF4
330
CCD
100
AcDbEntity
  8
0
  6
Continuous
 62
     7
370
    15
100
AcDbCircle
 10
2105.882534680547
 20
1085.649704563739
 30
0.0
 40
3.101458967779116
100
AcDbArc
 50
121.084351949868
 51
238.915648050132
  0
SPLINE
  5
CF5
330
CCD
100
AcDbEntity
  8
0
  6
Continuous
 62
     7
370
    15
100
AcDbSpline
210
0.0
220
0.0
230
1.0
 70
     8
 71
     3
 72
     9
 73
     5
 74
     0
 42
0.0000000001
 43
0.0000000001
 40
0.0
 40
0.0
 40
0.0
 40
0.0
 40
0.6211566368611491
 40
1.0
 40
1.0
 40
1.0
 40
1.0
 10
2104.79869467614
 20
1082.849704663577
 30
0.0
 10
2104.685288428111
 20
1082.859560204642
 30
0.0
 10
2104.502715722132
 20
1082.875426639098
 30
0.0
 10
2104.342067618182
 20
1082.961123952124
 30
0.0
 10
2104.2812071502
 20
1082.993589810403
 30
0.0
  0
LINE
  5
CF6
330
CCD
100
AcDbEntity
  8
0
  6
Continuous
 62
     7
370
    15
100
AcDbLine
 10
2104.79869467614
 20
1082.849704663577
 30
0.0
 11
2106.966396397332
 21
1082.849704663577
 31
0.0
  0
SPLINE
  5
CF7
330
CCD
100
AcDbEntity
  8
0
  6
Continuous
 62
     7
370
    15
100
AcDbSpline
210
0.0
220
0.0
230
1.0
 70
     8
 71
     3
 72
     9
 73
     5
 74
     0
 42
0.0000000001
 43
0.0000000001
 40
0.0
 40
0.0
 40
0.0
 40
0.0
 40
0.6210244822690588
 40
0.9999999999999998
 40
0.9999999999999998
 40
0.9999999999999998
 40
0.9999999999999998
 10
2107.483764713982
 20
1082.993589810403
 30
0.0
 10
2107.381599067606
 20
1082.943488002227
 30
0.0
 10
2107.21708760422
 20
1082.862811942575
 30
0.0
 10
2107.035292348491
 20
1082.853306857946
 30
0.0
 10
2106.966396397332
 20
1082.849704663577
 30
0.0
  0
ARC
  5
CF8
330
CCD
100
AcDbEntity
  8
0
  6
Continuous
 62
     7
370
    15
100
AcDbCircle
 10
2105.882534680547
 20
1085.649704563739
 30
0.0
 40
3.101458967778999
100
AcDbArc
 50
301.084351949868
 51
58.91564805013199
  0
SPLINE
  5
CF9
330
CCD
100
AcDbEntity
  8
0
  6
Continuous
 62
     7
370
    15
100
AcDbSpline
210
0.0
220
0.0
230
1.0
 70
     8
 71
     3
 72
     9
 73
     5
 74
     0
 42
0.0000000001
 43
0.0000000001
 40
0.0
 40
0.0
 40
0.0
 40
0.0
 40
0.6212803240801269
 40
1.0
 40
1.0
 40
1.0
 40
1.0
 10
2106.966396397332
 20
1088.449704463901
 30
0.0
 10
2107.079806877322
 20
1088.439858510783
 30
0.0
 10
2107.262350047602
 20
1088.424010667648
 30
0.0
 10
2107.422944452866
 20
1088.338285227852
 30
0.0
 10
2107.483764713982
 20
1088.305819317075
 30
0.0
  0
LINE
  5
CFA
330
CCD
100
AcDbEntity
  8
0
  6
Continuous
 62
     7
370
    15
100
AcDbLine
 10
2106.966396397332
 20
1088.449704463901
 30
0.0
 11
2104.79869467614
 21
1088.449704463901
 31
0.0
  0
LINE
  5
CFB
330
CCD
100
AcDbEntity
  8
0
  6
Continuous
 62
     7
370
    15
100
AcDbLine
 10
2099.182506626824
 20
1087.549704595776
 30
0.0
 11
2099.182506626824
 21
1083.749704531701
 31
0.0
  0
LINE
  5
CFC
330
CCD
100
AcDbEntity
  8
0
  6
Continuous
 62
     7
370
    15
100
AcDbLine
 10
2099.182506626824
 20
1083.749704531701
 30
0.0
 11
2102.166553562859
 21
1083.749704531701
 31
0.0
  0
LINE
  5
CFD
330
CCD
100
AcDbEntity
  8
0
  6
Continuous
 62
     7
370
    15
100
AcDbLine
 10
2102.166553562859
 20
1083.749704531701
 30
0.0
 11
2102.166553562859
 21
1087.549704595776
 31
0.0
  0
LINE
  5
CFE
330
CCD
100
AcDbEntity
  8
0
  6
Continuous
 62
     7
370
    15
100
AcDbLine
 10
2099.182506626824
 20
1087.549704595776
 30
0.0
 11
2102.166553562859
 21
1087.549704595776
 31
0.0
  0
LINE
  5
CFF
330
CCD
100
AcDbEntity
  8
0
  6
Continuous
 62
     7
370
    15
100
AcDbLine
 10
2098.681469982842
 20
1082.34970458162
 30
0.0
 11
2098.681469982842
 21
1088.949704545858
 31
0.0
  0
LINE
  5
D00
330
CCD
100
AcDbEntity
  8
0
  6
Continuous
 62
     7
370
    15
100
AcDbLine
 10
2098.681469982842
 20
1082.34970458162
 30
0.0
 11
2110.208531445244
 21
1082.34970458162
 31
0.0
  0
LINE
  5
D01
330
CCD
100
AcDbEntity
  8
0
  6
Continuous
 62
     7
370
    15
100
AcDbLine
 10
2098.681469982842
 20
1088.949704545858
 30
0.0
 11
2110.208531445244
 21
1088.949704545858
 31
0.0
  0
SPLINE
  5
D02
330
CCD
100
AcDbEntity
  8
0
  6
Continuous
 62
     7
370
    15
100
AcDbSpline
210
0.0
220
0.0
230
1.0
 70
     8
 71
     3
 72
     9
 73
     5
 74
     0
 42
0.0000000001
 43
0.0000000001
 40
0.0
 40
0.0
 40
0.0
 40
0.0
 40
0.2841356674657533
 40
1.0
 40
1.0
 40
1.0
 40
1.0
 10
2067.021866863945
 20
1088.366203478845
 30
0.0
 10
2066.976675837362
 20
1088.36015037467
 30
0.0
 10
2066.817628481618
 20
1088.338846804338
 30
0.0
 10
2066.692940415458
 20
1088.319598495112
 30
0.0
 10
2066.603680676201
 20
1088.305819317075
 30
0.0
  0
ARC
  5
D03
330
CCD
100
AcDbEntity
  8
0
  6
Continuous
 62
     7
370
    15
100
AcDbCircle
 10
2068.205016804146
 20
1085.649704563739
 30
0.0
 40
2.962979914446842
100
AcDbArc
 50
113.5354526852742
 51
246.4645473147378
  0
SPLINE
  5
D04
330
CCD
100
AcDbEntity
  8
0
  6
Continuous
 62
     7
370
    15
100
AcDbSpline
210
0.0
220
0.0
230
1.0
 70
     8
 71
     3
 72
     9
 73
     5
 74
     0
 42
0.0000000001
 43
0.0000000001
 40
0.0
 40
0.0
 40
0.0
 40
0.0
 40
0.7158867245733967
 40
1.0
 40
1.0
 40
1.0
 40
1.0
 10
2066.603680676201
 20
1082.993589810403
 30
0.0
 10
2066.69293583681
 20
1082.979809835742
 30
0.0
 10
2066.817613607111
 20
1082.960561015799
 30
0.0
 10
2066.976675319768
 20
1082.93925809207
 30
0.0
 10
2067.021866863945
 20
1082.933205648633
 30
0.0
  0
SPLINE
  5
D05
330
CCD
100
AcDbEntity
  8
0
  6
Continuous
 62
     7
370
    15
100
AcDbSpline
210
0.0
220
0.0
230
1.0
 70
     8
 71
     3
 72
     9
 73
     5
 74
     0
 42
0.0000000001
 43
0.0000000001
 40
0.0
 40
0.0
 40
0.0
 40
0.0
 40
0.3292904292176715
 40
1.0
 40
1.0
 40
1.0
 40
1.0
 10
2069.388171261528
 20
1082.933205648633
 30
0.0
 10
2069.44030121953
 20
1082.940209463588
 30
0.0
 10
2069.598611189625
 20
1082.961478879074
 30
0.0
 10
2069.722957313739
 20
1082.980698815256
 30
0.0
 10
2069.806357449273
 20
1082.993589810403
 30
0.0
  0
ARC
  5
D06
330
CCD
100
AcDbEntity
  8
0
  6
Continuous
 62
     7
370
    15
100
AcDbCircle
 10
2068.205016804146
 20
1085.649704563739
 30
0.0
 40
2.962979914446895
100
AcDbArc
 50
293.5354526852742
 51
66.46454731472582
  0
SPLINE
  5
D07
330
CCD
100
AcDbEntity
  8
0
  6
Continuous
 62
     7
370
    15
100
AcDbSpline
210
0.0
220
0.0
230
1.0
 70
     8
 71
     3
 72
     9
 73
     5
 74
     0
 42
0.0000000001
 43
0.0000000001
 40
0.0
 40
0.0
 40
0.0
 40
0.0
 40
0.7158867245733967
 40
1.0
 40
1.0
 40
1.0
 40
1.0
 10
2069.806357449273
 20
1088.305819317075
 30
0.0
 10
2069.717102288664
 20
1088.319599291736
 30
0.0
 10
2069.592424518362
 20
1088.338848111679
 30
0.0
 10
2069.433362805706
 20
1088.360151035408
 30
0.0
 10
2069.388171261528
 20
1088.366203478845
 30
0.0
  0
SPLINE
  5
D08
330
CCD
100
AcDbEntity
  8
0
  6
Continuous
 62
     7
370
    15
100
AcDbSpline
210
0.0
220
0.0
230
1.0
 70
     8
 71
     3
 72
     9
 73
     5
 74
     0
 42
0.0000000001
 43
0.0000000001
 40
0.0
 40
0.0
 40
0.0
 40
0.0
 40
0.8410894271784341
 40
1.0
 40
1.0
 40
1.0
 40
1.0
 10
2104.730030125359
 20
1088.370166023569
 30
0.0
 10
2104.83814181079
 20
1088.405380712891
 30
0.0
 10
2104.966679492915
 20
1088.447248661985
 30
0.0
 10
2105.100488228071
 20
1088.449367722742
 30
0.0
 10
2105.121751850823
 20
1088.449704463901
 30
0.0
  0
SPLINE
  5
D09
330
CCD
100
AcDbEntity
  8
0
  6
Continuous
 62
     7
370
    15
100
AcDbSpline
210
0.0
220
0.0
230
1.0
 70
     8
 71
     3
 72
     9
 73
     5
 74
     0
 42
0.0000000001
 43
0.0000000001
 40
0.0
 40
0.0
 40
0.0
 40
0.0
 40
0.3253446448994044
 40
1.0
 40
1.0
 40
1.0
 40
1.0
 10
2104.730030125359
 20
1088.370166023569
 30
0.0
 10
2104.67415188109
 20
1088.36276608415
 30
0.0
 10
2104.50240095436
 20
1088.340021159543
 30
0.0
 10
2104.370317774685
 20
1088.319597946872
 30
0.0
 10
2104.2812071502
 20
1088.305819317075
 30
0.0
  0
SPLINE
  5
D0A
330
CCD
100
AcDbEntity
  8
0
  6
Continuous
 62
     7
370
    15
100
AcDbSpline
210
0.0
220
0.0
230
1.0
 70
     8
 71
     3
 72
     9
 73
     5
 74
     0
 42
0.0000000001
 43
0.0000000001
 40
0.0
 40
0.0
 40
0.0
 40
0.0
 40
0.6746337356056601
 40
1.0
 40
1.0
 40
1.0
 40
1.0
 10
2107.483764713982
 20
1088.305819317075
 30
0.0
 10
2107.394703283703
 20
1088.319597197743
 30
0.0
 10
2107.262688791129
 20
1088.340019954479
 30
0.0
 10
2107.090941667989
 20
1088.3627654173
 30
0.0
 10
2107.035060948113
 20
1088.370166023569
 30
0.0
  0
SPLINE
  5
D0B
330
CCD
100
AcDbEntity
  8
0
  6
Continuous
 62
     7
370
    15
100
AcDbSpline
210
0.0
220
0.0
230
1.0
 70
     8
 71
     3
 72
     9
 73
     5
 74
     0
 42
0.0000000001
 43
0.0000000001
 40
0.0
 40
0.0
 40
0.0
 40
0.0
 40
0.8411961112377953
 40
1.0
 40
1.0
 40
1.0
 40
1.0
 10
2106.643339222649
 20
1088.449704463901
 30
0.0
 10
2106.756632295523
 20
1088.439946486229
 30
0.0
 10
2106.891313223502
 20
1088.428346364043
 30
0.0
 10
2107.015361585787
 20
1088.378139127911
 30
0.0
 10
2107.035060948113
 20
1088.370166023569
 30
0.0
  0
SPLINE
  5
D0C
330
CCD
100
AcDbEntity
  8
0
  6
Continuous
 62
     7
370
    15
100
AcDbSpline
210
0.0
220
0.0
230
1.0
 70
     8
 71
     3
 72
     9
 73
     5
 74
     0
 42
0.0000000001
 43
0.0000000001
 40
0.0
 40
0.0
 40
0.0
 40
0.0
 40
0.8413854742243845
 40
1.0
 40
1.0
 40
1.0
 40
1.0
 10
2107.035060948113
 20
1082.929243103909
 30
0.0
 10
2106.926909418951
 20
1082.894028432551
 30
0.0
 10
2106.798369608751
 20
1082.852175236323
 30
0.0
 10
2106.664562908893
 20
1082.850042885406
 30
0.0
 10
2106.643339222649
 20
1082.849704663577
 30
0.0
  0
SPLINE
  5
D0D
330
CCD
100
AcDbEntity
  8
0
  6
Continuous
 62
     7
370
    15
100
AcDbSpline
210
0.0
220
0.0
230
1.0
 70
     8
 71
     3
 72
     9
 73
     5
 74
     0
 42
0.0000000001
 43
0.0000000001
 40
0.0
 40
0.0
 40
0.0
 40
0.0
 40
0.3253451624831634
 40
1.0
 40
1.0
 40
1.0
 40
1.0
 10
2107.035060948113
 20
1082.929243103909
 30
0.0
 10
2107.09094229422
 20
1082.936643040844
 30
0.0
 10
2107.262702481708
 20
1082.959387921633
 30
0.0
 10
2107.394707135635
 20
1082.979811168265
 30
0.0
 10
2107.483764713982
 20
1082.993589810403
 30
0.0
  0
SPLINE
  5
D0E
330
CCD
100
AcDbEntity
  8
0
  6
Continuous
 62
     7
370
    15
100
AcDbSpline
210
0.0
220
0.0
230
1.0
 70
     8
 71
     3
 72
     9
 73
     5
 74
     0
 42
0.0000000001
 43
0.0000000001
 40
0.0
 40
0.0
 40
0.0
 40
0.0
 40
0.8205335719618355
 40
0.9999999999999998
 40
0.9999999999999998
 40
0.9999999999999998
 40
0.9999999999999998
 10
2069.388171261528
 20
1082.933205648633
 30
0.0
 10
2069.280407783972
 20
1082.896912638084
 30
0.0
 10
2069.149074367231
 20
1082.852681650117
 30
0.0
 10
2069.011890346885
 20
1082.850157638861
 30
0.0
 10
2068.987270420769
 20
1082.849704663577
 30
0.0
  0
SPLINE
  5
D0F
330
CCD
100
AcDbEntity
  8
0
  6
Continuous
 62
     7
370
    15
100
AcDbSpline
210
0.0
220
0.0
230
1.0
 70
     8
 71
     3
 72
     9
 73
     5
 74
     0
 42
0.0000000001
 43
0.0000000001
 40
0.0
 40
0.0
 40
0.0
 40
0.0
 40
0.8207257752804062
 40
1.0
 40
1.0
 40
1.0
 40
1.0
 10
2067.422767704705
 20
1082.849704663577
 30
0.0
 10
2067.309444891948
 20
1082.859446346236
 30
0.0
 10
2067.171368550045
 20
1082.87131594136
 30
0.0
 10
2067.0445942316
 20
1082.923797125105
 30
0.0
 10
2067.021866863945
 20
1082.933205648633
 30
0.0
  0
SPLINE
  5
D10
330
CCD
100
AcDbEntity
  8
0
  6
Continuous
 62
     7
370
    15
100
AcDbSpline
210
0.0
220
0.0
230
1.0
 70
     8
 71
     3
 72
     9
 73
     5
 74
     0
 42
0.0000000001
 43
0.0000000001
 40
0.0
 40
0.0
 40
0.0
 40
0.0
 40
0.8205335719618355
 40
0.9999999999999998
 40
0.9999999999999998
 40
0.9999999999999998
 40
0.9999999999999998
 10
2067.021866863945
 20
1088.366203478845
 30
0.0
 10
2067.129630341502
 20
1088.402496489393
 30
0.0
 10
2067.260963758243
 20
1088.446727477361
 30
0.0
 10
2067.39814777859
 20
1088.449251488617
 30
0.0
 10
2067.422767704705
 20
1088.449704463901
 30
0.0
  0
SPLINE
  5
D11
330
CCD
100
AcDbEntity
  8
0
  6
Continuous
 62
     7
370
    15
100
AcDbSpline
210
0.0
220
0.0
230
1.0
 70
     8
 71
     3
 72
     9
 73
     5
 74
     0
 42
0.0000000001
 43
0.0000000001
 40
0.0
 40
0.0
 40
0.0
 40
0.0
 40
0.8207257752804062
 40
1.0
 40
1.0
 40
1.0
 40
1.0
 10
2068.987270420769
 20
1088.449704463901
 30
0.0
 10
2069.100593233525
 20
1088.439962781241
 30
0.0
 10
2069.238669575429
 20
1088.428093186118
 30
0.0
 10
2069.365443893875
 20
1088.375612002373
 30
0.0
 10
2069.388171261528
 20
1088.366203478845
 30
0.0
  0
LINE
  5
D12
330
CCD
100
AcDbEntity
  8
0
  6
Continuous
 62
     7
370
    15
100
AcDbLine
 10
2075.875898426751
 20
1082.34970458162
 30
0.0
 11
2075.875898426751
 21
1088.949704545858
 31
0.0
  0
LINE
  5
D13
330
CCD
100
AcDbEntity
  8
0
  6
Continuous
 62
     7
370
    15
100
AcDbLine
 10
2075.406094616631
 20
1082.34970458162
 30
0.0
 11
2075.875898426751
 21
1082.34970458162
 31
0.0
  0
LINE
  5
D14
330
CCD
100
AcDbEntity
  8
0
  6
Continuous
 62
     7
370
    15
100
AcDbLine
 10
2075.406094616631
 20
1088.949704545858
 30
0.0
 11
2075.875898426751
 21
1088.949704545858
 31
0.0
  0
ARC
  5
D15
330
CCD
100
AcDbEntity
  8
0
  6
Continuous
 62
     7
370
    15
100
AcDbCircle
 10
2105.882534680547
 20
1085.649704563739
 30
0.0
 40
2.954528313474393
100
AcDbArc
 50
112.960078698072
 51
247.039921301928
  0
SPLINE
  5
D16
330
CCD
100
AcDbEntity
  8
0
  6
Continuous
 62
     7
370
    15
100
AcDbSpline
210
0.0
220
0.0
230
1.0
 70
     8
 71
     3
 72
     9
 73
     5
 74
     0
 42
0.0000000001
 43
0.0000000001
 40
0.0
 40
0.0
 40
0.0
 40
0.0
 40
0.6320803687556152
 40
1.0
 40
1.0
 40
1.0
 40
1.0
 10
2104.2812071502
 20
1082.993589810403
 30
0.0
 10
2104.364485206605
 20
1082.980699971582
 30
0.0
 10
2104.496237528812
 20
1082.960307250246
 30
0.0
 10
2104.667148590549
 20
1082.937598206799
 30
0.0
 10
2104.730030125359
 20
1082.929243103909
 30
0.0
  0
ARC
  5
D17
330
CCD
100
AcDbEntity
  8
0
  6
Continuous
 62
     7
370
    15
100
AcDbCircle
 10
2105.882534680547
 20
1085.649704563739
 30
0.0
 40
2.954528313474445
100
AcDbArc
 50
292.960078698072
 51
67.03992130192794
  0
LINE
  5
D18
330
CCD
100
AcDbEntity
  8
0
  6
Continuous
 62
     7
370
    15
100
AcDbLine
 10
2098.211666172722
 20
1082.34970458162
 30
0.0
 11
2098.211666172722
 21
1088.949704545858
 31
0.0
  0
LINE
  5
D19
330
CCD
100
AcDbEntity
  8
0
  6
Continuous
 62
     7
370
    15
100
AcDbLine
 10
2098.211666172722
 20
1082.34970458162
 30
0.0
 11
2098.681469982842
 21
1082.34970458162
 31
0.0
  0
LINE
  5
D1A
330
CCD
100
AcDbEntity
  8
0
  6
Continuous
 62
     7
370
    15
100
AcDbLine
 10
2098.211666172722
 20
1088.949704545858
 30
0.0
 11
2098.681469982842
 21
1088.949704545858
 31
0.0
  0
SPLINE
  5
D1B
330
CCD
100
AcDbEntity
  8
0
  6
Continuous
 62
     7
370
    15
100
AcDbSpline
210
0.0
220
0.0
230
1.0
 70
     8
 71
     3
 72
     9
 73
     5
 74
     0
 42
0.0000000001
 43
0.0000000001
 40
0.0
 40
0.0
 40
0.0
 40
0.0
 40
0.841476019569626
 40
1.0
 40
1.0
 40
1.0
 40
1.0
 10
2105.121751850823
 20
1082.849704663577
 30
0.0
 10
2105.00840531681
 20
1082.859423830223
 30
0.0
 10
2104.87370565648
 20
1082.870973971189
 30
0.0
 10
2104.749689638212
 20
1082.921269980339
 30
0.0
 10
2104.730030125359
 20
1082.929243103909
 30
0.0
  0
LINE
  5
D1C
330
CCD
100
AcDbEntity
  8
0
  6
Continuous
 62
     7
370
    15
100
AcDbLine
 10
2074.720998829583
 20
1087.399704617756
 30
0.0
 11
2073.521038120964
 21
1087.399704617756
 31
0.0
  0
LINE
  5
D1D
330
CCD
100
AcDbEntity
  8
0
  6
Continuous
 62
     7
370
    15
100
AcDbLine
 10
2074.720998829583
 20
1085.999704551259
 30
0.0
 11
2073.658367222527
 21
1085.999704551259
 31
0.0
  0
ARC
  5
D1E
330
CCD
100
AcDbEntity
  8
0
  6
Continuous
 62
     7
370
    15
100
AcDbCircle
 10
2073.171012685691
 20
1085.649704563739
 30
0.0
 40
0.5999999999997498
100
AcDbArc
 50
35.68533471268189
 51
54.31466528735447
  0
LINE
  5
D1F
330
CCD
100
AcDbEntity
  8
0
  6
Continuous
 62
     7
370
    15
100
AcDbLine
 10
2074.720998829583
 20
1085.999704551259
 30
0.0
 11
2074.720998829583
 21
1087.399704617756
 31
0.0
  0
LINE
  5
D20
330
CCD
100
AcDbEntity
  8
0
  6
Continuous
 62
     7
370
    15
100
AcDbLine
 10
2073.521038120964
 20
1086.13704427572
 30
0.0
 11
2073.521038120964
 21
1087.399704617756
 31
0.0
  0
LINE
  5
D21
330
CCD
100
AcDbEntity
  8
0
  6
Continuous
 62
     7
370
    15
100
AcDbLine
 10
2074.720998829583
 20
1083.899704509722
 30
0.0
 11
2073.521038120964
 21
1083.899704509722
 31
0.0
  0
LINE
  5
D22
330
CCD
100
AcDbEntity
  8
0
  6
Continuous
 62
     7
370
    15
100
AcDbLine
 10
2073.521038120964
 20
1083.899704509722
 30
0.0
 11
2073.521038120964
 21
1085.162364851758
 31
0.0
  0
ARC
  5
D23
330
CCD
100
AcDbEntity
  8
0
  6
Continuous
 62
     7
370
    15
100
AcDbCircle
 10
2073.171012685691
 20
1085.649704563739
 30
0.0
 40
0.5999999999997267
100
AcDbArc
 50
305.6853347126531
 51
324.3146652873257
  0
LINE
  5
D24
330
CCD
100
AcDbEntity
  8
0
  6
Continuous
 62
     7
370
    15
100
AcDbLine
 10
2073.658367222527
 20
1085.299704576219
 30
0.0
 11
2074.720998829583
 21
1085.299704576219
 31
0.0
  0
LINE
  5
D25
330
CCD
100
AcDbEntity
  8
0
  6
Continuous
 62
     7
370
    15
100
AcDbLine
 10
2074.720998829583
 20
1083.899704509722
 30
0.0
 11
2074.720998829583
 21
1085.299704576219
 31
0.0
  0
LINE
  5
D26
330
CCD
100
AcDbEntity
  8
0
  6
Continuous
 62
     7
370
    15
100
AcDbLine
 10
2072.821041172722
 20
1085.162364851758
 30
0.0
 11
2072.821041172722
 21
1083.899704509722
 31
0.0
  0
LINE
  5
D27
330
CCD
100
AcDbEntity
  8
0
  6
Continuous
 62
     7
370
    15
100
AcDbLine
 10
2072.821041172722
 20
1087.399704617756
 30
0.0
 11
2072.021027630547
 21
1087.399704617756
 31
0.0
  0
ARC
  5
D28
330
CCD
100
AcDbEntity
  8
0
  6
Continuous
 62
     7
370
    15
100
AcDbCircle
 10
2073.171012685691
 20
1085.649704563739
 30
0.0
 40
0.5999999999998824
100
AcDbArc
 50
125.6853347126637
 51
234.3146652873258
  0
LINE
  5
D29
330
CCD
100
AcDbEntity
  8
0
  6
Continuous
 62
     7
370
    15
100
AcDbLine
 10
2072.021027630547
 20
1083.899704509722
 30
0.0
 11
2072.021027630547
 21
1087.399704617756
 31
0.0
  0
LINE
  5
D2A
330
CCD
100
AcDbEntity
  8
0
  6
Continuous
 62
     7
370
    15
100
AcDbLine
 10
2072.821041172722
 20
1083.899704509722
 30
0.0
 11
2072.021027630547
 21
1083.899704509722
 31
0.0
  0
LINE
  5
D2B
330
CCD
100
AcDbEntity
  8
0
  6
Continuous
 62
     7
370
    15
100
AcDbLine
 10
2072.821041172722
 20
1087.399704617756
 30
0.0
 11
2072.821041172722
 21
1086.13704427572
 31
0.0
  0
LINE
  5
D2C
330
CCD
100
AcDbEntity
  8
0
  6
Continuous
 62
     7
370
    15
100
AcDbLine
 10
2096.860190457085
 20
1082.34970458162
 30
0.0
 11
2096.860190457085
 21
1088.949704545858
 31
0.0
  0
LINE
  5
D2D
330
CCD
100
AcDbEntity
  8
0
  6
Continuous
 62
     7
370
    15
100
AcDbLine
 10
2096.860190457085
 20
1082.34970458162
 30
0.0
 11
2098.211666172722
 21
1082.34970458162
 31
0.0
  0
LINE
  5
D2E
330
CCD
100
AcDbEntity
  8
0
  6
Continuous
 62
     7
370
    15
100
AcDbLine
 10
2096.860190457085
 20
1088.949704545858
 30
0.0
 11
2098.211666172722
 21
1088.949704545858
 31
0.0
  0
LINE
  5
D2F
330
CCD
100
AcDbEntity
  8
0
  6
Continuous
 62
     7
370
    15
100
AcDbLine
 10
2077.227374142388
 20
1082.34970458162
 30
0.0
 11
2077.227374142388
 21
1088.949704545858
 31
0.0
  0
LINE
  5
D30
330
CCD
100
AcDbEntity
  8
0
  6
Continuous
 62
     7
370
    15
100
AcDbLine
 10
2075.875898426751
 20
1082.34970458162
 30
0.0
 11
2077.227374142388
 21
1082.34970458162
 31
0.0
  0
LINE
  5
D31
330
CCD
100
AcDbEntity
  8
0
  6
Continuous
 62
     7
370
    15
100
AcDbLine
 10
2075.875898426751
 20
1088.949704545858
 30
0.0
 11
2077.227374142388
 21
1088.949704545858
 31
0.0
  0
LINE
  5
D32
330
CCD
100
AcDbEntity
  8
0
  6
Continuous
 62
     7
370
    15
100
AcDbLine
 10
2111.511012142876
 20
1082.34970458162
 30
0.0
 11
2111.511012142876
 21
1088.949704545858
 31
0.0
  0
LINE
  5
D33
330
CCD
100
AcDbEntity
  8
0
  6
Continuous
 62
     7
370
    15
100
AcDbLine
 10
2110.947152203301
 20
1082.34970458162
 30
0.0
 11
2111.511012142876
 21
1082.34970458162
 31
0.0
  0
LINE
  5
D34
330
CCD
100
AcDbEntity
  8
0
  6
Continuous
 62
     7
370
    15
100
AcDbLine
 10
2110.947152203301
 20
1088.949704545858
 30
0.0
 11
2111.511012142876
 21
1088.949704545858
 31
0.0
  0
LINE
  5
D35
330
CCD
100
AcDbEntity
  8
0
  6
Continuous
 62
     7
370
    15
100
AcDbLine
 10
2062.576552456597
 20
1082.34970458162
 30
0.0
 11
2062.576552456597
 21
1088.949704545858
 31
0.0
  0
LINE
  5
D36
330
CCD
100
AcDbEntity
  8
0
  6
Continuous
 62
     7
370
    15
100
AcDbLine
 10
2062.576552456597
 20
1082.34970458162
 30
0.0
 11
2063.140412396172
 21
1082.34970458162
 31
0.0
  0
LINE
  5
D37
330
CCD
100
AcDbEntity
  8
0
  6
Continuous
 62
     7
370
    15
100
AcDbLine
 10
2062.576552456597
 20
1088.949704545858
 30
0.0
 11
2063.140412396172
 21
1088.949704545858
 31
0.0
  0
LINE
  5
D38
330
CCD
100
AcDbEntity
  8
0
  6
Continuous
 62
     7
370
    15
100
AcDbLine
 10
2073.521038120964
 20
1087.399704617756
 30
0.0
 11
2072.821041172722
 21
1087.399704617756
 31
0.0
  0
LINE
  5
D39
330
CCD
100
AcDbEntity
  8
0
  6
Continuous
 62
     7
370
    15
100
AcDbLine
 10
2073.521038120964
 20
1083.899704509722
 30
0.0
 11
2072.821041172722
 21
1083.899704509722
 31
0.0
  0
LINE
  5
D3A
330
CCD
100
AcDbEntity
  8
0
  6
Continuous
 62
     7
370
    15
100
AcDbLine
 10
2074.720998829583
 20
1085.999704551259
 30
0.0
 11
2074.720998829583
 21
1085.299704576219
 31
0.0
  0
LINE
  5
D3B
330
CCD
100
AcDbEntity
  8
0
  6
Continuous
 62
     7
370
    15
100
AcDbLine
 10
2081.546326702813
 20
1082.34970458162
 30
0.0
 11
2081.546326702813
 21
1088.949704545858
 31
0.0
  0
LINE
  5
D3C
330
CCD
100
AcDbEntity
  8
0
  6
Continuous
 62
     7
370
    15
100
AcDbLine
 10
2081.796308583001
 20
1082.34970458162
 30
0.0
 11
2081.546326702813
 21
1082.34970458162
 31
0.0
  0
LINE
  5
D3D
330
CCD
100
AcDbEntity
  8
0
  6
Continuous
 62
     7
370
    15
100
AcDbLine
 10
2081.796308583001
 20
1088.949704545858
 30
0.0
 11
2081.546326702813
 21
1088.949704545858
 31
0.0
  0
LINE
  5
D3E
330
CCD
100
AcDbEntity
  8
0
  6
Continuous
 62
     7
370
    15
100
AcDbLine
 10
2092.54123789666
 20
1082.34970458162
 30
0.0
 11
2092.54123789666
 21
1088.949704545858
 31
0.0
  0
LINE
  5
D3F
330
CCD
100
AcDbEntity
  8
0
  6
Continuous
 62
     7
370
    15
100
AcDbLine
 10
2092.291136807183
 20
1082.34970458162
 30
0.0
 11
2092.54123789666
 21
1082.34970458162
 31
0.0
  0
LINE
  5
D40
330
CCD
100
AcDbEntity
  8
0
  6
Continuous
 62
     7
370
    15
100
AcDbLine
 10
2092.291136807183
 20
1088.949704545858
 30
0.0
 11
2092.54123789666
 21
1088.949704545858
 31
0.0
  0
LINE
  5
D41
330
CCD
100
AcDbEntity
  8
0
  6
Continuous
 62
     7
370
    15
100
AcDbLine
 10
2081.078907078484
 20
1082.34970458162
 30
0.0
 11
2081.078907078484
 21
1088.949704545858
 31
0.0
  0
LINE
  5
D42
330
CCD
100
AcDbEntity
  8
0
  6
Continuous
 62
     7
370
    15
100
AcDbLine
 10
2081.546326702813
 20
1082.34970458162
 30
0.0
 11
2081.078907078484
 21
1082.34970458162
 31
0.0
  0
LINE
  5
D43
330
CCD
100
AcDbEntity
  8
0
  6
Continuous
 62
     7
370
    15
100
AcDbLine
 10
2081.546326702813
 20
1088.949704545858
 30
0.0
 11
2081.078907078484
 21
1088.949704545858
 31
0.0
  0
LINE
  5
D44
330
CCD
100
AcDbEntity
  8
0
  6
Continuous
 62
     7
370
    15
100
AcDbLine
 10
2093.304177349785
 20
1082.34970458162
 30
0.0
 11
2093.304177349785
 21
1088.949704545858
 31
0.0
  0
LINE
  5
D45
330
CCD
100
AcDbEntity
  8
0
  6
Continuous
 62
     7
370
    15
100
AcDbLine
 10
2093.008657520989
 20
1082.34970458162
 30
0.0
 11
2093.008657520989
 21
1088.949704545858
 31
0.0
  0
LINE
  5
D46
330
CCD
100
AcDbEntity
  8
0
  6
Continuous
 62
     7
370
    15
100
AcDbLine
 10
2093.008657520989
 20
1082.34970458162
 30
0.0
 11
2093.304177349785
 21
1082.34970458162
 31
0.0
  0
LINE
  5
D47
330
CCD
100
AcDbEntity
  8
0
  6
Continuous
 62
     7
370
    15
100
AcDbLine
 10
2093.008657520989
 20
1088.949704545858
 30
0.0
 11
2093.304177349785
 21
1088.949704545858
 31
0.0
  0
LINE
  5
D48
330
CCD
100
AcDbEntity
  8
0
  6
Continuous
 62
     7
370
    15
100
AcDbLine
 10
2092.54123789666
 20
1082.34970458162
 30
0.0
 11
2093.008657520989
 21
1082.34970458162
 31
0.0
  0
LINE
  5
D49
330
CCD
100
AcDbEntity
  8
0
  6
Continuous
 62
     7
370
    15
100
AcDbLine
 10
2092.54123789666
 20
1088.949704545858
 30
0.0
 11
2093.008657520989
 21
1088.949704545858
 31
0.0
  0
LINE
  5
D4A
330
CCD
100
AcDbEntity
  8
0
  6
Continuous
 62
     7
370
    15
100
AcDbLine
 10
2080.783387249688
 20
1082.34970458162
 30
0.0
 11
2080.783387249688
 21
1088.949704545858
 31
0.0
  0
LINE
  5
D4B
330
CCD
100
AcDbEntity
  8
0
  6
Continuous
 62
     7
370
    15
100
AcDbLine
 10
2081.078907078484
 20
1082.34970458162
 30
0.0
 11
2080.783387249688
 21
1082.34970458162
 31
0.0
  0
LINE
  5
D4C
330
CCD
100
AcDbEntity
  8
0
  6
Continuous
 62
     7
370
    15
100
AcDbLine
 10
2081.078907078484
 20
1088.949704545858
 30
0.0
 11
2080.783387249688
 21
1088.949704545858
 31
0.0
  0
LINE
  5
D4D
330
CCD
100
AcDbEntity
  8
0
  6
Continuous
 62
     7
370
    15
100
AcDbLine
 10
2080.637594288567
 20
1082.34970458162
 30
0.0
 11
2080.637594288567
 21
1088.949704545858
 31
0.0
  0
LINE
  5
D4E
330
CCD
100
AcDbEntity
  8
0
  6
Continuous
 62
     7
370
    15
100
AcDbLine
 10
2080.783387249688
 20
1082.34970458162
 30
0.0
 11
2080.637594288567
 21
1082.34970458162
 31
0.0
  0
LINE
  5
D4F
330
CCD
100
AcDbEntity
  8
0
  6
Continuous
 62
     7
370
    15
100
AcDbLine
 10
2080.783387249688
 20
1088.949704545858
 30
0.0
 11
2080.637594288567
 21
1088.949704545858
 31
0.0
  0
LINE
  5
D50
330
CCD
100
AcDbEntity
  8
0
  6
Continuous
 62
     7
370
    15
100
AcDbLine
 10
2093.449970310906
 20
1082.34970458162
 30
0.0
 11
2093.449970310906
 21
1088.949704545858
 31
0.0
  0
LINE
  5
D51
330
CCD
100
AcDbEntity
  8
0
  6
Continuous
 62
     7
370
    15
100
AcDbLine
 10
2093.304177349785
 20
1082.34970458162
 30
0.0
 11
2093.449970310906
 21
1082.34970458162
 31
0.0
  0
LINE
  5
D52
330
CCD
100
AcDbEntity
  8
0
  6
Continuous
 62
     7
370
    15
100
AcDbLine
 10
2093.304177349785
 20
1088.949704545858
 30
0.0
 11
2093.449970310906
 21
1088.949704545858
 31
0.0
  0
LINE
  5
D53
330
CCD
100
AcDbEntity
  8
0
  6
Continuous
 62
     7
370
    15
100
AcDbLine
 10
2099.36656576989
 20
1087.399704617756
 30
0.0
 11
2100.566526478508
 21
1087.399704617756
 31
0.0
  0
LINE
  5
D54
330
CCD
100
AcDbEntity
  8
0
  6
Continuous
 62
     7
370
    15
100
AcDbLine
 10
2100.566526478508
 20
1086.13704427572
 30
0.0
 11
2100.566526478508
 21
1087.399704617756
 31
0.0
  0
ARC
  5
D55
330
CCD
100
AcDbEntity
  8
0
  6
Continuous
 62
     7
370
    15
100
AcDbCircle
 10
2100.916533044986
 20
1085.649704563739
 30
0.0
 40
0.5999999999997498
100
AcDbArc
 50
125.6853347126455
 51
144.3146652873181
  0
LINE
  5
D56
330
CCD
100
AcDbEntity
  8
0
  6
Continuous
 62
     7
370
    15
100
AcDbLine
 10
2099.36656576989
 20
1085.999704551259
 30
0.0
 11
2100.429197376946
 21
1085.999704551259
 31
0.0
  0
LINE
  5
D57
330
CCD
100
AcDbEntity
  8
0
  6
Continuous
 62
     7
370
    15
100
AcDbLine
 10
2099.36656576989
 20
1085.999704551259
 30
0.0
 11
2099.36656576989
 21
1087.399704617756
 31
0.0
  0
LINE
  5
D58
330
CCD
100
AcDbEntity
  8
0
  6
Continuous
 62
     7
370
    15
100
AcDbLine
 10
2100.566526478508
 20
1083.899704509722
 30
0.0
 11
2100.566526478508
 21
1085.162364851758
 31
0.0
  0
LINE
  5
D59
330
CCD
100
AcDbEntity
  8
0
  6
Continuous
 62
     7
370
    15
100
AcDbLine
 10
2099.36656576989
 20
1083.899704509722
 30
0.0
 11
2100.566526478508
 21
1083.899704509722
 31
0.0
  0
ARC
  5
D5A
330
CCD
100
AcDbEntity
  8
0
  6
Continuous
 62
     7
370
    15
100
AcDbCircle
 10
2100.916533044986
 20
1085.649704563739
 30
0.0
 40
0.5999999999997267
100
AcDbArc
 50
215.6853347126819
 51
234.3146652873544
  0
LINE
  5
D5B
330
CCD
100
AcDbEntity
  8
0
  6
Continuous
 62
     7
370
    15
100
AcDbLine
 10
2100.429197376946
 20
1085.299704576219
 30
0.0
 11
2099.36656576989
 21
1085.299704576219
 31
0.0
  0
LINE
  5
D5C
330
CCD
100
AcDbEntity
  8
0
  6
Continuous
 62
     7
370
    15
100
AcDbLine
 10
2099.36656576989
 20
1083.899704509722
 30
0.0
 11
2099.36656576989
 21
1085.299704576219
 31
0.0
  0
ARC
  5
D5D
330
CCD
100
AcDbEntity
  8
0
  6
Continuous
 62
     7
370
    15
100
AcDbCircle
 10
2100.916533044986
 20
1085.649704563739
 30
0.0
 40
0.5999999999998824
100
AcDbArc
 50
305.6853347126743
 51
54.31466528733629
  0
LINE
  5
D5E
330
CCD
100
AcDbEntity
  8
0
  6
Continuous
 62
     7
370
    15
100
AcDbLine
 10
2101.266523426751
 20
1085.162364851758
 30
0.0
 11
2101.266523426751
 21
1083.899704509722
 31
0.0
  0
LINE
  5
D5F
330
CCD
100
AcDbEntity
  8
0
  6
Continuous
 62
     7
370
    15
100
AcDbLine
 10
2102.066536968926
 20
1083.899704509722
 30
0.0
 11
2102.066536968926
 21
1087.399704617756
 31
0.0
  0
LINE
  5
D60
330
CCD
100
AcDbEntity
  8
0
  6
Continuous
 62
     7
370
    15
100
AcDbLine
 10
2101.266523426751
 20
1083.899704509722
 30
0.0
 11
2102.066536968926
 21
1083.899704509722
 31
0.0
  0
LINE
  5
D61
330
CCD
100
AcDbEntity
  8
0
  6
Continuous
 62
     7
370
    15
100
AcDbLine
 10
2101.266523426751
 20
1087.399704617756
 30
0.0
 11
2101.266523426751
 21
1086.13704427572
 31
0.0
  0
LINE
  5
D62
330
CCD
100
AcDbEntity
  8
0
  6
Continuous
 62
     7
370
    15
100
AcDbLine
 10
2101.266523426751
 20
1087.399704617756
 30
0.0
 11
2102.066536968926
 21
1087.399704617756
 31
0.0
  0
LINE
  5
D63
330
CCD
100
AcDbEntity
  8
0
  6
Continuous
 62
     7
370
    15
100
AcDbLine
 10
2100.566526478508
 20
1083.899704509722
 30
0.0
 11
2101.266523426751
 21
1083.899704509722
 31
0.0
  0
LINE
  5
D64
330
CCD
100
AcDbEntity
  8
0
  6
Continuous
 62
     7
370
    15
100
AcDbLine
 10
2100.566526478508
 20
1087.399704617756
 30
0.0
 11
2101.266523426751
 21
1087.399704617756
 31
0.0
  0
LINE
  5
D65
330
CCD
100
AcDbEntity
  8
0
  6
Continuous
 62
     7
370
    15
100
AcDbLine
 10
2099.36656576989
 20
1085.999704551259
 30
0.0
 11
2099.36656576989
 21
1085.299704576219
 31
0.0
  0
LINE
  5
D66
330
CCD
100
AcDbEntity
  8
0
  6
Continuous
 62
     7
370
    15
100
AcDbLine
 10
2111.511012142876
 20
1082.34970458162
 30
0.0
 11
2111.514111584404
 21
1082.34970458162
 31
0.0
  0
LINE
  5
D67
330
CCD
100
AcDbEntity
  8
0
  6
Continuous
 62
     7
370
    15
100
AcDbLine
 10
2111.511012142876
 20
1088.949704545858
 30
0.0
 11
2111.514111584404
 21
1088.949704545858
 31
0.0
  0
LINE
  5
D68
330
CCD
100
AcDbEntity
  8
0
  6
Continuous
 62
     7
370
    15
100
AcDbLine
 10
2062.576552456597
 20
1082.34970458162
 30
0.0
 11
2062.573453015069
 21
1082.34970458162
 31
0.0
  0
LINE
  5
D69
330
CCD
100
AcDbEntity
  8
0
  6
Continuous
 62
     7
370
    15
100
AcDbLine
 10
2062.576552456597
 20
1088.949704545858
 30
0.0
 11
2062.573453015069
 21
1088.949704545858
 31
0.0
  0
LINE
  5
D6A
330
CCD
100
AcDbEntity
  8
0
  6
Continuous
 62
     7
370
    15
100
AcDbLine
 10
2094.434877461174
 20
1088.249704570817
 30
0.0
 11
2093.495746678093
 21
1088.249704570817
 31
0.0
  0
LINE
  5
D6B
330
CCD
100
AcDbEntity
  8
0
  6
Continuous
 62
     7
370
    15
100
AcDbLine
 10
2093.495746678093
 20
1088.249704570817
 30
0.0
 11
2093.495746678093
 21
1083.049704556661
 31
0.0
  0
LINE
  5
D6C
330
CCD
100
AcDbEntity
  8
0
  6
Continuous
 62
     7
370
    15
100
AcDbLine
 10
2094.434877461174
 20
1083.049704556661
 30
0.0
 11
2093.495746678093
 21
1083.049704556661
 31
0.0
  0
LINE
  5
D6D
330
CCD
100
AcDbEntity
  8
0
  6
Continuous
 62
     7
370
    15
100
AcDbLine
 10
2094.434877461174
 20
1082.34970458162
 30
0.0
 11
2094.434877461174
 21
1083.049704556661
 31
0.0
  0
LINE
  5
D6E
330
CCD
100
AcDbEntity
  8
0
  6
Continuous
 62
     7
370
    15
100
AcDbLine
 10
2094.434877461174
 20
1088.249704570817
 30
0.0
 11
2094.434877461174
 21
1088.949704545858
 31
0.0
  0
LINE
  5
D6F
330
CCD
100
AcDbEntity
  8
0
  6
Continuous
 62
     7
370
    15
100
AcDbLine
 10
2093.449970310906
 20
1082.34970458162
 30
0.0
 11
2094.434877461174
 21
1082.34970458162
 31
0.0
  0
LINE
  5
D70
330
CCD
100
AcDbEntity
  8
0
  6
Continuous
 62
     7
370
    15
100
AcDbLine
 10
2093.449970310906
 20
1088.949704545858
 30
0.0
 11
2094.434877461174
 21
1088.949704545858
 31
0.0
  0
LINE
  5
D71
330
CCD
100
AcDbEntity
  8
0
  6
Continuous
 62
     7
370
    15
100
AcDbLine
 10
2079.652687138298
 20
1082.34970458162
 30
0.0
 11
2079.652687138298
 21
1083.049704556661
 31
0.0
  0
LINE
  5
D72
330
CCD
100
AcDbEntity
  8
0
  6
Continuous
 62
     7
370
    15
100
AcDbLine
 10
2079.652687138298
 20
1083.049704556661
 30
0.0
 11
2080.59181792138
 21
1083.049704556661
 31
0.0
  0
LINE
  5
D73
330
CCD
100
AcDbEntity
  8
0
  6
Continuous
 62
     7
370
    15
100
AcDbLine
 10
2080.59181792138
 20
1088.249704570817
 30
0.0
 11
2080.59181792138
 21
1083.049704556661
 31
0.0
  0
LINE
  5
D74
330
CCD
100
AcDbEntity
  8
0
  6
Continuous
 62
     7
370
    15
100
AcDbLine
 10
2079.652687138298
 20
1088.249704570817
 30
0.0
 11
2080.59181792138
 21
1088.249704570817
 31
0.0
  0
LINE
  5
D75
330
CCD
100
AcDbEntity
  8
0
  6
Continuous
 62
     7
370
    15
100
AcDbLine
 10
2079.652687138298
 20
1088.249704570817
 30
0.0
 11
2079.652687138298
 21
1088.949704545858
 31
0.0
  0
LINE
  5
D76
330
CCD
100
AcDbEntity
  8
0
  6
Continuous
 62
     7
370
    15
100
AcDbLine
 10
2080.637594288567
 20
1082.34970458162
 30
0.0
 11
2079.652687138298
 21
1082.34970458162
 31
0.0
  0
LINE
  5
D77
330
CCD
100
AcDbEntity
  8
0
  6
Continuous
 62
     7
370
    15
100
AcDbLine
 10
2080.637594288567
 20
1088.949704545858
 30
0.0
 11
2079.652687138298
 21
1088.949704545858
 31
0.0
  0
LINE
  5
D78
330
CCD
100
AcDbEntity
  8
0
  6
Continuous
 62
     7
370
    15
100
AcDbLine
 10
2082.280775135735
 20
1082.34970458162
 30
0.0
 11
2082.280775135735
 21
1088.949704545858
 31
0.0
  0
LINE
  5
D79
330
CCD
100
AcDbEntity
  8
0
  6
Continuous
 62
     7
370
    15
100
AcDbLine
 10
2082.280775135735
 20
1082.34970458162
 30
0.0
 11
2081.796308583001
 21
1082.34970458162
 31
0.0
  0
LINE
  5
D7A
330
CCD
100
AcDbEntity
  8
0
  6
Continuous
 62
     7
370
    15
100
AcDbLine
 10
2082.280775135735
 20
1088.949704545858
 30
0.0
 11
2081.796308583001
 21
1088.949704545858
 31
0.0
  0
LINE
  5
D7B
330
CCD
100
AcDbEntity
  8
0
  6
Continuous
 62
     7
370
    15
100
AcDbLine
 10
2091.806670254448
 20
1082.34970458162
 30
0.0
 11
2091.806670254448
 21
1088.949704545858
 31
0.0
  0
LINE
  5
D7C
330
CCD
100
AcDbEntity
  8
0
  6
Continuous
 62
     7
370
    15
100
AcDbLine
 10
2091.806670254448
 20
1082.34970458162
 30
0.0
 11
2092.291136807183
 21
1082.34970458162
 31
0.0
  0
LINE
  5
D7D
330
CCD
100
AcDbEntity
  8
0
  6
Continuous
 62
     7
370
    15
100
AcDbLine
 10
2091.806670254448
 20
1088.949704545858
 30
0.0
 11
2092.291136807183
 21
1088.949704545858
 31
0.0
  0
LINE
  5
D7E
330
CCD
100
AcDbEntity
  8
0
  6
Continuous
 62
     7
370
    15
100
AcDbLine
 10
2077.491780346611
 20
1088.249704570817
 30
0.0
 11
2077.491780346611
 21
1083.049704556661
 31
0.0
  0
LINE
  5
D7F
330
CCD
100
AcDbEntity
  8
0
  6
Continuous
 62
     7
370
    15
100
AcDbLine
 10
2078.166981762627
 20
1083.049704556661
 30
0.0
 11
2077.491780346611
 21
1083.049704556661
 31
0.0
  0
LINE
  5
D80
330
CCD
100
AcDbEntity
  8
0
  6
Continuous
 62
     7
370
    15
100
AcDbLine
 10
2078.166981762627
 20
1082.34970458162
 30
0.0
 11
2078.166981762627
 21
1083.049704556661
 31
0.0
  0
LINE
  5
D81
330
CCD
100
AcDbEntity
  8
0
  6
Continuous
 62
     7
370
    15
100
AcDbLine
 10
2078.166981762627
 20
1088.249704570817
 30
0.0
 11
2078.166981762627
 21
1088.949704545858
 31
0.0
  0
LINE
  5
D82
330
CCD
100
AcDbEntity
  8
0
  6
Continuous
 62
     7
370
    15
100
AcDbLine
 10
2078.166981762627
 20
1088.249704570817
 30
0.0
 11
2077.491780346611
 21
1088.249704570817
 31
0.0
  0
LINE
  5
D83
330
CCD
100
AcDbEntity
  8
0
  6
Continuous
 62
     7
370
    15
100
AcDbLine
 10
2077.227374142388
 20
1082.34970458162
 30
0.0
 11
2078.166981762627
 21
1082.34970458162
 31
0.0
  0
LINE
  5
D84
330
CCD
100
AcDbEntity
  8
0
  6
Continuous
 62
     7
370
    15
100
AcDbLine
 10
2077.227374142388
 20
1088.949704545858
 30
0.0
 11
2078.166981762627
 21
1088.949704545858
 31
0.0
  0
LINE
  5
D85
330
CCD
100
AcDbEntity
  8
0
  6
Continuous
 62
     7
370
    15
100
AcDbLine
 10
2095.920463627556
 20
1088.249704570817
 30
0.0
 11
2095.920463627556
 21
1088.949704545858
 31
0.0
  0
LINE
  5
D86
330
CCD
100
AcDbEntity
  8
0
  6
Continuous
 62
     7
370
    15
100
AcDbLine
 10
2095.920463627556
 20
1082.34970458162
 30
0.0
 11
2095.920463627556
 21
1083.049704556661
 31
0.0
  0
LINE
  5
D87
330
CCD
100
AcDbEntity
  8
0
  6
Continuous
 62
     7
370
    15
100
AcDbLine
 10
2095.920463627556
 20
1083.049704556661
 30
0.0
 11
2096.595665043572
 21
1083.049704556661
 31
0.0
  0
LINE
  5
D88
330
CCD
100
AcDbEntity
  8
0
  6
Continuous
 62
     7
370
    15
100
AcDbLine
 10
2096.595665043572
 20
1088.249704570817
 30
0.0
 11
2096.595665043572
 21
1083.049704556661
 31
0.0
  0
LINE
  5
D89
330
CCD
100
AcDbEntity
  8
0
  6
Continuous
 62
     7
370
    15
100
AcDbLine
 10
2095.920463627556
 20
1088.249704570817
 30
0.0
 11
2096.595665043572
 21
1088.249704570817
 31
0.0
  0
LINE
  5
D8A
330
CCD
100
AcDbEntity
  8
0
  6
Continuous
 62
     7
370
    15
100
AcDbLine
 10
2096.860190457085
 20
1082.34970458162
 30
0.0
 11
2095.920463627556
 21
1082.34970458162
 31
0.0
  0
LINE
  5
D8B
330
CCD
100
AcDbEntity
  8
0
  6
Continuous
 62
     7
370
    15
100
AcDbLine
 10
2096.860190457085
 20
1088.949704545858
 30
0.0
 11
2095.920463627556
 21
1088.949704545858
 31
0.0
  0
LINE
  5
D8C
330
CCD
100
AcDbEntity
  8
0
  6
Continuous
 62
     7
370
    15
100
AcDbLine
 10
2084.22197920678
 20
1082.34970458162
 30
0.0
 11
2084.22197920678
 21
1088.949704545858
 31
0.0
  0
LINE
  5
D8D
330
CCD
100
AcDbEntity
  8
0
  6
Continuous
 62
     7
370
    15
100
AcDbLine
 10
2082.280775135735
 20
1082.34970458162
 30
0.0
 11
2084.22197920678
 21
1082.34970458162
 31
0.0
  0
LINE
  5
D8E
330
CCD
100
AcDbEntity
  8
0
  6
Continuous
 62
     7
370
    15
100
AcDbLine
 10
2082.280775135735
 20
1088.949704545858
 30
0.0
 11
2084.22197920678
 21
1088.949704545858
 31
0.0
  0
LINE
  5
D8F
330
CCD
100
AcDbEntity
  8
0
  6
Continuous
 62
     7
370
    15
100
AcDbLine
 10
2089.865585392693
 20
1082.34970458162
 30
0.0
 11
2089.865585392693
 21
1088.949704545858
 31
0.0
  0
LINE
  5
D90
330
CCD
100
AcDbEntity
  8
0
  6
Continuous
 62
     7
370
    15
100
AcDbLine
 10
2091.806670254448
 20
1082.34970458162
 30
0.0
 11
2089.865585392693
 21
1082.34970458162
 31
0.0
  0
LINE
  5
D91
330
CCD
100
AcDbEntity
  8
0
  6
Continuous
 62
     7
370
    15
100
AcDbLine
 10
2091.806670254448
 20
1088.949704545858
 30
0.0
 11
2089.865585392693
 21
1088.949704545858
 31
0.0
  0
LINE
  5
D92
330
CCD
100
AcDbEntity
  8
0
  6
Continuous
 62
     7
370
    15
100
AcDbLine
 10
2089.452167576531
 20
1082.34970458162
 30
0.0
 11
2089.452167576531
 21
1088.949704545858
 31
0.0
  0
LINE
  5
D93
330
CCD
100
AcDbEntity
  8
0
  6
Continuous
 62
     7
370
    15
100
AcDbLine
 10
2089.452167576531
 20
1082.34970458162
 30
0.0
 11
2089.865585392693
 21
1082.34970458162
 31
0.0
  0
LINE
  5
D94
330
CCD
100
AcDbEntity
  8
0
  6
Continuous
 62
     7
370
    15
100
AcDbLine
 10
2089.452167576531
 20
1088.949704545858
 30
0.0
 11
2089.865585392693
 21
1088.949704545858
 31
0.0
  0
LINE
  5
D95
330
CCD
100
AcDbEntity
  8
0
  6
Continuous
 62
     7
370
    15
100
AcDbLine
 10
2084.83221155999
 20
1082.34970458162
 30
0.0
 11
2084.83221155999
 21
1088.949704545858
 31
0.0
  0
LINE
  5
D96
330
CCD
100
AcDbEntity
  8
0
  6
Continuous
 62
     7
370
    15
100
AcDbLine
 10
2084.635397022942
 20
1082.34970458162
 30
0.0
 11
2084.635397022942
 21
1088.949704545858
 31
0.0
  0
LINE
  5
D97
330
CCD
100
AcDbEntity
  8
0
  6
Continuous
 62
     7
370
    15
100
AcDbLine
 10
2084.83221155999
 20
1082.34970458162
 30
0.0
 11
2084.635397022942
 21
1082.34970458162
 31
0.0
  0
LINE
  5
D98
330
CCD
100
AcDbEntity
  8
0
  6
Continuous
 62
     7
370
    15
100
AcDbLine
 10
2084.83221155999
 20
1088.949704545858
 30
0.0
 11
2084.635397022942
 21
1088.949704545858
 31
0.0
  0
LINE
  5
D99
330
CCD
100
AcDbEntity
  8
0
  6
Continuous
 62
     7
370
    15
100
AcDbLine
 10
2084.635397022942
 20
1082.34970458162
 30
0.0
 11
2084.22197920678
 21
1082.34970458162
 31
0.0
  0
LINE
  5
D9A
330
CCD
100
AcDbEntity
  8
0
  6
Continuous
 62
     7
370
    15
100
AcDbLine
 10
2084.635397022942
 20
1088.949704545858
 30
0.0
 11
2084.22197920678
 21
1088.949704545858
 31
0.0
  0
LINE
  5
D9B
330
CCD
100
AcDbEntity
  8
0
  6
Continuous
 62
     7
370
    15
100
AcDbLine
 10
2089.255353039483
 20
1082.34970458162
 30
0.0
 11
2089.255353039483
 21
1088.949704545858
 31
0.0
  0
LINE
  5
D9C
330
CCD
100
AcDbEntity
  8
0
  6
Continuous
 62
     7
370
    15
100
AcDbLine
 10
2089.255353039483
 20
1082.34970458162
 30
0.0
 11
2089.452167576531
 21
1082.34970458162
 31
0.0
  0
LINE
  5
D9D
330
CCD
100
AcDbEntity
  8
0
  6
Continuous
 62
     7
370
    15
100
AcDbLine
 10
2089.255353039483
 20
1088.949704545858
 30
0.0
 11
2089.452167576531
 21
1088.949704545858
 31
0.0
  0
LINE
  5
D9E
330
CCD
100
AcDbEntity
  8
0
  6
Continuous
 62
     7
370
    15
100
AcDbLine
 10
2089.228411740044
 20
1082.34970458162
 30
0.0
 11
2089.228411740044
 21
1088.949704545858
 31
0.0
  0
LINE
  5
D9F
330
CCD
100
AcDbEntity
  8
0
  6
Continuous
 62
     7
370
    15
100
AcDbLine
 10
2089.228411740044
 20
1082.34970458162
 30
0.0
 11
2089.255353039483
 21
1082.34970458162
 31
0.0
  0
LINE
  5
DA0
330
CCD
100
AcDbEntity
  8
0
  6
Continuous
 62
     7
370
    15
100
AcDbLine
 10
2089.228411740044
 20
1088.949704545858
 30
0.0
 11
2089.255353039483
 21
1088.949704545858
 31
0.0
  0
LINE
  5
DA1
330
CCD
100
AcDbEntity
  8
0
  6
Continuous
 62
     7
370
    15
100
AcDbLine
 10
2084.859152859429
 20
1082.34970458162
 30
0.0
 11
2084.859152859429
 21
1088.949704545858
 31
0.0
  0
LINE
  5
DA2
330
CCD
100
AcDbEntity
  8
0
  6
Continuous
 62
     7
370
    15
100
AcDbLine
 10
2084.859152859429
 20
1082.34970458162
 30
0.0
 11
2084.83221155999
 21
1082.34970458162
 31
0.0
  0
LINE
  5
DA3
330
CCD
100
AcDbEntity
  8
0
  6
Continuous
 62
     7
370
    15
100
AcDbLine
 10
2084.859152859429
 20
1088.949704545858
 30
0.0
 11
2084.83221155999
 21
1088.949704545858
 31
0.0
  0
LINE
  5
DA4
330
CCD
100
AcDbEntity
  8
0
  6
Continuous
 62
     7
370
    15
100
AcDbLine
 10
2095.920463627556
 20
1083.049704556661
 30
0.0
 11
2094.434877461174
 21
1083.049704556661
 31
0.0
  0
LINE
  5
DA5
330
CCD
100
AcDbEntity
  8
0
  6
Continuous
 62
     7
370
    15
100
AcDbLine
 10
2094.434877461174
 20
1082.34970458162
 30
0.0
 11
2095.920463627556
 21
1082.34970458162
 31
0.0
  0
LINE
  5
DA6
330
CCD
100
AcDbEntity
  8
0
  6
Continuous
 62
     7
370
    15
100
AcDbLine
 10
2095.920463627556
 20
1088.249704570817
 30
0.0
 11
2094.434877461174
 21
1088.249704570817
 31
0.0
  0
LINE
  5
DA7
330
CCD
100
AcDbEntity
  8
0
  6
Continuous
 62
     7
370
    15
100
AcDbLine
 10
2094.434877461174
 20
1088.949704545858
 30
0.0
 11
2095.920463627556
 21
1088.949704545858
 31
0.0
  0
LINE
  5
DA8
330
CCD
100
AcDbEntity
  8
0
  6
Continuous
 62
     7
370
    15
100
AcDbLine
 10
2078.166981762627
 20
1083.049704556661
 30
0.0
 11
2079.652687138298
 21
1083.049704556661
 31
0.0
  0
LINE
  5
DA9
330
CCD
100
AcDbEntity
  8
0
  6
Continuous
 62
     7
370
    15
100
AcDbLine
 10
2079.652687138298
 20
1082.34970458162
 30
0.0
 11
2078.166981762627
 21
1082.34970458162
 31
0.0
  0
LINE
  5
DAA
330
CCD
100
AcDbEntity
  8
0
  6
Continuous
 62
     7
370
    15
100
AcDbLine
 10
2078.166981762627
 20
1088.249704570817
 30
0.0
 11
2079.652687138298
 21
1088.249704570817
 31
0.0
  0
LINE
  5
DAB
330
CCD
100
AcDbEntity
  8
0
  6
Continuous
 62
     7
370
    15
100
AcDbLine
 10
2079.652687138298
 20
1088.949704545858
 30
0.0
 11
2078.166981762627
 21
1088.949704545858
 31
0.0
  0
LINE
  5
DAC
330
CCD
100
AcDbEntity
  8
0
  6
Continuous
 62
     7
370
    15
100
AcDbLine
 10
2089.228292530755
 20
1082.34970458162
 30
0.0
 11
2089.228411740044
 21
1082.34970458162
 31
0.0
  0
LINE
  5
DAD
330
CCD
100
AcDbEntity
  8
0
  6
Continuous
 62
     7
370
    15
100
AcDbLine
 10
2089.228292530755
 20
1088.949704545858
 30
0.0
 11
2089.228411740044
 21
1088.949704545858
 31
0.0
  0
LINE
  5
DAE
330
CCD
100
AcDbEntity
  8
0
  6
Continuous
 62
     7
370
    15
100
AcDbLine
 10
2084.859272068718
 20
1082.34970458162
 30
0.0
 11
2084.859152859429
 21
1082.34970458162
 31
0.0
  0
LINE
  5
DAF
330
CCD
100
AcDbEntity
  8
0
  6
Continuous
 62
     7
370
    15
100
AcDbLine
 10
2084.859272068718
 20
1088.949704545858
 30
0.0
 11
2084.859152859429
 21
1088.949704545858
 31
0.0
  0
ARC
  5
DB0
330
CCD
100
AcDbEntity
  8
0
  6
Continuous
 62
     7
370
    15
100
AcDbCircle
 10
2093.656605958496
 20
1083.549704563739
 30
0.0
 40
0.5
100
AcDbArc
 50
251.2301032372601
 51
270.0
  0
ARC
  5
DB1
330
CCD
100
AcDbEntity
  8
0
  6
Continuous
 62
     7
370
    15
100
AcDbCircle
 10
2096.434826196131
 20
1083.549704563739
 30
0.0
 40
0.5
100
AcDbArc
 50
270.0
 51
288.7712895626047
  0
ARC
  5
DB2
330
CCD
100
AcDbEntity
  8
0
  6
Continuous
 62
     7
370
    15
100
AcDbCircle
 10
2080.430939772181
 20
1083.549704563739
 30
0.0
 40
0.5000000000001461
100
AcDbArc
 50
270.0
 51
288.7705931613086
  0
ARC
  5
DB3
330
CCD
100
AcDbEntity
  8
0
  6
Continuous
 62
     7
370
    15
100
AcDbCircle
 10
2077.652719534546
 20
1083.549704563739
 30
0.0
 40
0.5
100
AcDbArc
 50
251.2294068387697
 51
270.0
  0
LINE
  5
DB4
330
CCD
100
AcDbEntity
  8
0
  6
Continuous
 62
     7
370
    15
100
AcDbLine
 10
2086.168666905144
 20
1082.34970458162
 30
0.0
 11
2086.168666905144
 21
1088.249704570817
 31
0.0
  0
LINE
  5
DB5
330
CCD
100
AcDbEntity
  8
0
  6
Continuous
 62
     7
370
    15
100
AcDbLine
 10
2084.859272068718
 20
1088.249704570817
 30
0.0
 11
2086.168666905144
 21
1088.249704570817
 31
0.0
  0
LINE
  5
DB6
330
CCD
100
AcDbEntity
  8
0
  6
Continuous
 62
     7
370
    15
100
AcDbLine
 10
2089.228292530755
 20
1088.249704570817
 30
0.0
 11
2087.918897694329
 21
1088.249704570817
 31
0.0
  0
LINE
  5
DB7
330
CCD
100
AcDbEntity
  8
0
  6
Continuous
 62
     7
370
    15
100
AcDbLine
 10
2087.918897694329
 20
1082.34970458162
 30
0.0
 11
2087.918897694329
 21
1088.249704570817
 31
0.0
  0
LINE
  5
DB8
330
CCD
100
AcDbEntity
  8
0
  6
Continuous
 62
     7
370
    15
100
AcDbLine
 10
2087.918897694329
 20
1082.34970458162
 30
0.0
 11
2086.168666905144
 21
1082.34970458162
 31
0.0
  0
LINE
  5
DB9
330
CCD
100
AcDbEntity
  8
0
  6
Continuous
 62
     7
370
    15
100
AcDbLine
 10
2089.228292530755
 20
1088.949704545858
 30
0.0
 11
2084.859272068718
 21
1088.949704545858
 31
0.0
  0
LINE
  5
DBA
330
CCD
100
AcDbEntity
  8
0
  6
Continuous
 62
     7
370
    15
100
AcDbLine
 10
2088.536640232781
 20
1082.34970458162
 30
0.0
 11
2088.536640232781
 21
1088.249704570817
 31
0.0
  0
LINE
  5
DBB
330
CCD
100
AcDbEntity
  8
0
  6
Continuous
 62
     7
370
    15
100
AcDbLine
 10
2087.918897694329
 20
1082.34970458162
 30
0.0
 11
2088.536640232781
 21
1082.34970458162
 31
0.0
  0
LINE
  5
DBC
330
CCD
100
AcDbEntity
  8
0
  6
Continuous
 62
     7
370
    15
100
AcDbLine
 10
2085.550924366692
 20
1082.34970458162
 30
0.0
 11
2085.550924366692
 21
1088.249704570817
 31
0.0
  0
LINE
  5
DBD
330
CCD
100
AcDbEntity
  8
0
  6
Continuous
 62
     7
370
    15
100
AcDbLine
 10
2086.168666905144
 20
1082.34970458162
 30
0.0
 11
2085.550924366692
 21
1082.34970458162
 31
0.0
  0
LINE
  5
DBE
330
CCD
100
AcDbEntity
  8
0
  6
Continuous
 62
     7
370
    15
100
AcDbLine
 10
2089.228292530755
 20
1082.34970458162
 30
0.0
 11
2088.536640232781
 21
1082.34970458162
 31
0.0
  0
LINE
  5
DBF
330
CCD
100
AcDbEntity
  8
0
  6
Continuous
 62
     7
370
    15
100
AcDbLine
 10
2084.859272068718
 20
1082.34970458162
 30
0.0
 11
2085.550924366692
 21
1082.34970458162
 31
0.0
  0
LINE
  5
DC0
330
CCD
100
AcDbEntity
  8
0
  6
Continuous
 62
     7
370
    15
100
AcDbLine
 10
2061.962147778252
 20
1082.34970458162
 30
0.0
 11
2061.962147778252
 21
1088.949704545858
 31
0.0
  0
LINE
  5
DC1
330
CCD
100
AcDbEntity
  8
0
  6
Continuous
 62
     7
370
    15
100
AcDbLine
 10
2061.739107197503
 20
1082.34970458162
 30
0.0
 11
2061.739107197503
 21
1088.949704545858
 31
0.0
  0
LINE
  5
DC2
330
CCD
100
AcDbEntity
  8
0
  6
Continuous
 62
     7
370
    15
100
AcDbLine
 10
2061.962147778252
 20
1082.34970458162
 30
0.0
 11
2061.739107197503
 21
1082.34970458162
 31
0.0
  0
LINE
  5
DC3
330
CCD
100
AcDbEntity
  8
0
  6
Continuous
 62
     7
370
    15
100
AcDbLine
 10
2061.962147778252
 20
1088.949704545858
 30
0.0
 11
2061.739107197503
 21
1088.949704545858
 31
0.0
  0
LINE
  5
DC4
330
CCD
100
AcDbEntity
  8
0
  6
Continuous
 62
     7
370
    15
100
AcDbLine
 10
2112.34845740197
 20
1082.34970458162
 30
0.0
 11
2112.34845740197
 21
1088.949704545858
 31
0.0
  0
LINE
  5
DC5
330
CCD
100
AcDbEntity
  8
0
  6
Continuous
 62
     7
370
    15
100
AcDbLine
 10
2112.125416821221
 20
1082.34970458162
 30
0.0
 11
2112.125416821221
 21
1088.949704545858
 31
0.0
  0
LINE
  5
DC6
330
CCD
100
AcDbEntity
  8
0
  6
Continuous
 62
     7
370
    15
100
AcDbLine
 10
2112.125416821221
 20
1082.34970458162
 30
0.0
 11
2112.34845740197
 21
1082.34970458162
 31
0.0
  0
LINE
  5
DC7
330
CCD
100
AcDbEntity
  8
0
  6
Continuous
 62
     7
370
    15
100
AcDbLine
 10
2112.125416821221
 20
1088.949704545858
 30
0.0
 11
2112.34845740197
 21
1088.949704545858
 31
0.0
  0
LINE
  5
DC8
330
CCD
100
AcDbEntity
  8
0
  6
Continuous
 62
     7
370
    15
100
AcDbLine
 10
2062.569995945672
 20
1082.34970458162
 30
0.0
 11
2062.569995945672
 21
1088.949704545858
 31
0.0
  0
LINE
  5
DC9
330
CCD
100
AcDbEntity
  8
0
  6
Continuous
 62
     7
370
    15
100
AcDbLine
 10
2062.569995945672
 20
1082.34970458162
 30
0.0
 11
2061.962147778252
 21
1082.34970458162
 31
0.0
  0
LINE
  5
DCA
330
CCD
100
AcDbEntity
  8
0
  6
Continuous
 62
     7
370
    15
100
AcDbLine
 10
2062.569995945672
 20
1088.949704545858
 30
0.0
 11
2061.962147778252
 21
1088.949704545858
 31
0.0
  0
LINE
  5
DCB
330
CCD
100
AcDbEntity
  8
0
  6
Continuous
 62
     7
370
    15
100
AcDbLine
 10
2111.517568653801
 20
1082.34970458162
 30
0.0
 11
2111.517568653801
 21
1088.949704545858
 31
0.0
  0
LINE
  5
DCC
330
CCD
100
AcDbEntity
  8
0
  6
Continuous
 62
     7
370
    15
100
AcDbLine
 10
2111.517568653801
 20
1082.34970458162
 30
0.0
 11
2112.125416821221
 21
1082.34970458162
 31
0.0
  0
LINE
  5
DCD
330
CCD
100
AcDbEntity
  8
0
  6
Continuous
 62
     7
370
    15
100
AcDbLine
 10
2111.517568653801
 20
1088.949704545858
 30
0.0
 11
2112.125416821221
 21
1088.949704545858
 31
0.0
  0
LINE
  5
DCE
330
CCD
100
AcDbEntity
  8
0
  6
Continuous
 62
     7
370
    15
100
AcDbLine
 10
2062.576552456597
 20
1082.34970458162
 30
0.0
 11
2062.569995945672
 21
1082.34970458162
 31
0.0
  0
LINE
  5
DCF
330
CCD
100
AcDbEntity
  8
0
  6
Continuous
 62
     7
370
    15
100
AcDbLine
 10
2062.576552456597
 20
1088.949704545858
 30
0.0
 11
2062.569995945672
 21
1088.949704545858
 31
0.0
  0
LINE
  5
DD0
330
CCD
100
AcDbEntity
  8
0
  6
Continuous
 62
     7
370
    15
100
AcDbLine
 10
2111.511012142876
 20
1082.34970458162
 30
0.0
 11
2111.517568653801
 21
1082.34970458162
 31
0.0
  0
LINE
  5
DD1
330
CCD
100
AcDbEntity
  8
0
  6
Continuous
 62
     7
370
    15
100
AcDbLine
 10
2111.511012142876
 20
1088.949704545858
 30
0.0
 11
2111.517568653801
 21
1088.949704545858
 31
0.0
  0
LINE
  5
DD2
330
CCD
100
AcDbEntity
  8
0
  6
Continuous
 62
     7
370
    15
100
AcDbLine
 10
2112.819453304985
 20
1088.949704545858
 30
0.0
 11
2112.819453304985
 21
1082.34970458162
 31
0.0
  0
LINE
  5
DD3
330
CCD
100
AcDbEntity
  8
0
  6
Continuous
 62
     7
370
    15
100
AcDbLine
 10
2112.34845740197
 20
1082.34970458162
 30
0.0
 11
2112.819453304985
 21
1082.34970458162
 31
0.0
  0
LINE
  5
DD4
330
CCD
100
AcDbEntity
  8
0
  6
Continuous
 62
     7
370
    15
100
AcDbLine
 10
2112.34845740197
 20
1088.949704545858
 30
0.0
 11
2112.819453304985
 21
1088.949704545858
 31
0.0
  0
LINE
  5
DD5
330
CCD
100
AcDbEntity
  8
0
  6
Continuous
 62
     7
370
    15
100
AcDbLine
 10
2061.268111294487
 20
1088.949704545858
 30
0.0
 11
2061.268111294487
 21
1082.34970458162
 31
0.0
  0
LINE
  5
DD6
330
CCD
100
AcDbEntity
  8
0
  6
Continuous
 62
     7
370
    15
100
AcDbLine
 10
2061.268111294487
 20
1082.34970458162
 30
0.0
 11
2061.739107197503
 21
1082.34970458162
 31
0.0
  0
LINE
  5
DD7
330
CCD
100
AcDbEntity
  8
0
  6
Continuous
 62
     7
370
    15
100
AcDbLine
 10
2061.268111294487
 20
1088.949704545858
 30
0.0
 11
2061.739107197503
 21
1088.949704545858
 31
0.0
  0
LINE
  5
DD8
330
CCD
100
AcDbEntity
  8
0
  6
Continuous
 62
     7
370
    15
100
AcDbLine
 10
2112.823268002251
 20
1082.34970458162
 30
0.0
 11
2112.819453304985
 21
1082.34970458162
 31
0.0
  0
LINE
  5
DD9
330
CCD
100
AcDbEntity
  8
0
  6
Continuous
 62
     7
370
    15
100
AcDbLine
 10
2112.823268002251
 20
1088.949704545858
 30
0.0
 11
2112.819453304985
 21
1088.949704545858
 31
0.0
  0
LINE
  5
DDA
330
CCD
100
AcDbEntity
  8
0
  6
Continuous
 62
     7
370
    15
100
AcDbLine
 10
2061.264296597222
 20
1082.34970458162
 30
0.0
 11
2061.268111294487
 21
1082.34970458162
 31
0.0
  0
LINE
  5
DDB
330
CCD
100
AcDbEntity
  8
0
  6
Continuous
 62
     7
370
    15
100
AcDbLine
 10
2061.264296597222
 20
1088.949704545858
 30
0.0
 11
2061.268111294487
 21
1088.949704545858
 31
0.0
  0
LINE
  5
DDC
330
CCD
100
AcDbEntity
  8
0
  6
Continuous
 62
     7
370
    15
100
AcDbLine
 10
2061.21172530053
 20
1088.949704545858
 30
0.0
 11
2061.21172530053
 21
1082.34970458162
 31
0.0
  0
LINE
  5
DDD
330
CCD
100
AcDbEntity
  8
0
  6
Continuous
 62
     7
370
    15
100
AcDbLine
 10
2061.21172530053
 20
1082.34970458162
 30
0.0
 11
2061.264296597222
 21
1082.34970458162
 31
0.0
  0
LINE
  5
DDE
330
CCD
100
AcDbEntity
  8
0
  6
Continuous
 62
     7
370
    15
100
AcDbLine
 10
2061.21172530053
 20
1088.949704545858
 30
0.0
 11
2061.264296597222
 21
1088.949704545858
 31
0.0
  0
LINE
  5
DDF
330
CCD
100
AcDbEntity
  8
0
  6
Continuous
 62
     7
370
    15
100
AcDbLine
 10
2112.875839298943
 20
1088.949704545858
 30
0.0
 11
2112.875839298943
 21
1082.34970458162
 31
0.0
  0
LINE
  5
DE0
330
CCD
100
AcDbEntity
  8
0
  6
Continuous
 62
     7
370
    15
100
AcDbLine
 10
2112.875839298943
 20
1082.34970458162
 30
0.0
 11
2112.823268002251
 21
1082.34970458162
 31
0.0
  0
LINE
  5
DE1
330
CCD
100
AcDbEntity
  8
0
  6
Continuous
 62
     7
370
    15
100
AcDbLine
 10
2112.875839298943
 20
1088.949704545858
 30
0.0
 11
2112.823268002251
 21
1088.949704545858
 31
0.0
  0
LINE
  5
DE2
330
CCD
100
AcDbEntity
  8
0
  6
Continuous
 62
     7
370
    15
100
AcDbLine
 10
2113.040228909234
 20
1082.34970458162
 30
0.0
 11
2112.875839298943
 21
1082.34970458162
 31
0.0
  0
LINE
  5
DE3
330
CCD
100
AcDbEntity
  8
0
  6
Continuous
 62
     7
370
    15
100
AcDbLine
 10
2113.040228909234
 20
1088.949704545858
 30
0.0
 11
2112.875839298943
 21
1088.949704545858
 31
0.0
  0
LINE
  5
DE4
330
CCD
100
AcDbEntity
  8
0
  6
Continuous
 62
     7
370
    15
100
AcDbLine
 10
2061.04721648095
 20
1082.34970458162
 30
0.0
 11
2061.21172530053
 21
1082.34970458162
 31
0.0
  0
LINE
  5
DE5
330
CCD
100
AcDbEntity
  8
0
  6
Continuous
 62
     7
370
    15
100
AcDbLine
 10
2061.04721648095
 20
1088.949704545858
 30
0.0
 11
2061.21172530053
 21
1088.949704545858
 31
0.0
  0
LINE
  5
DE6
330
CCD
100
AcDbEntity
  8
0
  6
Continuous
 62
     7
370
    15
100
AcDbLine
 10
2113.04380518792
 20
1082.34970458162
 30
0.0
 11
2113.040228909234
 21
1082.34970458162
 31
0.0
  0
LINE
  5
DE7
330
CCD
100
AcDbEntity
  8
0
  6
Continuous
 62
     7
370
    15
100
AcDbLine
 10
2113.04380518792
 20
1088.949704545858
 30
0.0
 11
2113.040228909234
 21
1088.949704545858
 31
0.0
  0
LINE
  5
DE8
330
CCD
100
AcDbEntity
  8
0
  6
Continuous
 62
     7
370
    15
100
AcDbLine
 10
2061.043759411553
 20
1082.34970458162
 30
0.0
 11
2061.04721648095
 21
1082.34970458162
 31
0.0
  0
LINE
  5
DE9
330
CCD
100
AcDbEntity
  8
0
  6
Continuous
 62
     7
370
    15
100
AcDbLine
 10
2061.043759411553
 20
1088.949704545858
 30
0.0
 11
2061.04721648095
 21
1088.949704545858
 31
0.0
  0
ENDBLK
  5
CCF
330
CCD
100
AcDbEntity
  8
0
100
AcDbBlockEnd
  0
BLOCK
  5
DEC
330
DEB
100
AcDbEntity
  8
0
100
AcDbBlockBegin
  2
4
 70
     0
 10
0.0
 20
0.0
 30
0.0
  3
4
  1

  0
LINE
  5
DEE
330
DEB
100
AcDbEntity
  8
0
  6
Continuous
 62
     7
370
    15
100
AcDbLine
 10
2167.023744824223
 20
1113.273491286852
 30
0.0
 11
2171.690649554767
 21
1115.967638041269
 31
0.0
  0
LINE
  5
DEF
330
DEB
100
AcDbEntity
  8
0
  6
Continuous
 62
     7
370
    15
100
AcDbLine
 10
2171.653391740683
 20
1112.277162887567
 30
0.0
 11
2166.986487010139
 21
1109.58301613315
 31
0.0
  0
LINE
  5
DF0
330
DEB
100
AcDbEntity
  8
0
  6
Continuous
 62
     7
370
    15
100
AcDbLine
 10
2167.939090080183
 20
1106.65017657488
 30
0.0
 11
2172.605994810726
 21
1109.344323329296
 31
0.0
  0
LINE
  5
DF1
330
DEB
100
AcDbEntity
  8
0
  6
Continuous
 62
     7
370
    15
100
AcDbLine
 10
2168.092588902459
 20
1105.556389825069
 30
0.0
 11
2172.759493633003
 21
1108.250536579486
 31
0.0
  0
LINE
  5
DF2
330
DEB
100
AcDbEntity
  8
0
  6
Continuous
 62
     7
370
    15
100
AcDbLine
 10
2168.095033419673
 20
1104.535982695919
 30
0.0
 11
2172.761938150216
 21
1107.230129450335
 31
0.0
  0
LINE
  5
DF3
330
DEB
100
AcDbEntity
  8
0
  6
Continuous
 62
     7
370
    15
100
AcDbLine
 10
2162.40814334503
 20
1124.467695761524
 30
0.0
 11
2157.741238614486
 21
1121.773549007107
 31
0.0
  0
LINE
  5
DF4
330
DEB
100
AcDbEntity
  8
0
  6
Continuous
 62
     7
370
    15
100
AcDbLine
 10
2168.048924767402
 20
1103.579036201922
 30
0.0
 11
2172.715829497945
 21
1106.273182956338
 31
0.0
  0
LINE
  5
DF5
330
DEB
100
AcDbEntity
  8
0
  6
Continuous
 62
     7
370
    15
100
AcDbLine
 10
2167.857578075162
 20
1102.693036393091
 30
0.0
 11
2172.524482805706
 21
1105.387183147508
 31
0.0
  0
LINE
  5
DF6
330
DEB
100
AcDbEntity
  8
0
  6
Continuous
 62
     7
370
    15
100
AcDbLine
 10
2167.66631567662
 20
1101.806987922545
 30
0.0
 11
2172.333220407164
 21
1104.501134676961
 31
0.0
  0
LINE
  5
DF7
330
DEB
100
AcDbEntity
  8
0
  6
Continuous
 62
     7
370
    15
100
AcDbLine
 10
2167.474968984381
 20
1100.920939444089
 30
0.0
 11
2172.141873714924
 21
1103.615086198506
 31
0.0
  0
LINE
  5
DF8
330
DEB
100
AcDbEntity
  8
0
  6
Continuous
 62
     7
370
    15
100
AcDbLine
 10
2158.191266857818
 20
1124.676822814655
 30
0.0
 11
2153.524362127275
 21
1121.982676060238
 31
0.0
  0
LINE
  5
DF9
330
DEB
100
AcDbEntity
  8
0
  6
Continuous
 62
     7
370
    15
100
AcDbLine
 10
2156.033432507757
 20
1124.587846942269
 30
0.0
 11
2151.366527777214
 21
1121.893700187853
 31
0.0
  0
LINE
  5
DFA
330
DEB
100
AcDbEntity
  8
0
  6
Continuous
 62
     7
370
    15
100
AcDbLine
 10
2171.166038676364
 20
1094.852764487127
 30
0.0
 11
2167.206240678275
 21
1092.566821760489
 31
0.0
  0
LINE
  5
DFB
330
DEB
100
AcDbEntity
  8
0
  6
Continuous
 62
     7
370
    15
100
AcDbLine
 10
2167.90436107701
 20
1089.319333532265
 30
0.0
 11
2172.571265807553
 21
1092.013480286682
 31
0.0
  0
LINE
  5
DFC
330
DEB
100
AcDbEntity
  8
0
  6
Continuous
 62
     7
370
    15
100
AcDbLine
 10
2148.176179932333
 20
1123.004187679799
 30
0.0
 11
2152.843084662876
 21
1125.698334434216
 31
0.0
  0
LINE
  5
DFD
330
DEB
100
AcDbEntity
  8
0
  6
Continuous
 62
     7
370
    15
100
AcDbLine
 10
2145.999800968928
 20
1126.037804540068
 30
0.0
 11
2150.666705699471
 21
1128.731951294484
 31
0.0
  0
LINE
  5
DFE
330
DEB
100
AcDbEntity
  8
0
  6
Continuous
 62
     7
370
    15
100
AcDbLine
 10
2150.061139780067
 20
1129.3583212162
 30
0.0
 11
2145.394235049523
 21
1126.664174461784
 31
0.0
  0
LINE
  5
DFF
330
DEB
100
AcDbEntity
  8
0
  6
Continuous
 62
     7
370
    15
100
AcDbLine
 10
2160.463587853502
 20
1097.997281203886
 30
0.0
 11
2162.031109080462
 21
1098.902191946643
 31
0.0
  0
LINE
  5
E00
330
DEB
100
AcDbEntity
  8
0
  6
Continuous
 62
     7
370
    15
100
AcDbLine
 10
2162.070235267633
 20
1096.90571688359
 30
0.0
 11
2161.227035867429
 21
1096.418948231014
 31
0.0
  0
LINE
  5
E01
330
DEB
100
AcDbEntity
  8
0
  6
Continuous
 62
     7
370
    15
100
AcDbLine
 10
2137.674012415321
 20
1138.686639316815
 30
0.0
 11
2133.007107684778
 21
1135.992492562398
 31
0.0
  0
LINE
  5
E02
330
DEB
100
AcDbEntity
  8
0
  6
Continuous
 62
     7
370
    15
100
AcDbLine
 10
2133.122927224485
 20
1132.735483453001
 30
0.0
 11
2133.304842900827
 21
1132.840501137588
 31
0.0
  0
LINE
  5
E03
330
DEB
100
AcDbEntity
  8
0
  6
Continuous
 62
     7
370
    15
100
AcDbLine
 10
2133.598622240015
 20
1132.079314185993
 30
0.0
 11
2133.253076692687
 21
1131.879834987555
 31
0.0
  0
LINE
  5
E04
330
DEB
100
AcDbEntity
  8
0
  6
Continuous
 62
     7
370
    15
100
AcDbLine
 10
2132.86504160675
 20
1130.450660815936
 30
0.0
 11
2131.908255050401
 21
1129.898319693868
 31
0.0
  0
LINE
  5
E05
330
DEB
100
AcDbEntity
  8
0
  6
Continuous
 62
     7
370
    15
100
AcDbLine
 10
2131.610076304626
 20
1127.112098419913
 30
0.0
 11
2131.431574193743
 21
1127.009051344718
 31
0.0
  0
LINE
  5
E06
330
DEB
100
AcDbEntity
  8
0
  6
Continuous
 62
     7
370
    15
100
AcDbLine
 10
2131.539080926127
 20
1126.055037423819
 30
0.0
 11
2131.429045382833
 21
1125.991515256782
 31
0.0
  0
LINE
  5
E07
330
DEB
100
AcDbEntity
  8
0
  6
Continuous
 62
     7
370
    15
100
AcDbLine
 10
2131.519136082522
 20
1125.006674487753
 30
0.0
 11
2131.475238328801
 21
1124.981332853941
 31
0.0
  0
LINE
  5
E08
330
DEB
100
AcDbEntity
  8
0
  6
Continuous
 62
     7
370
    15
100
AcDbLine
 10
2131.685081560636
 20
1123.885135335585
 30
0.0
 11
2131.666500727343
 21
1123.874408848845
 31
0.0
  0
LINE
  5
E09
330
DEB
100
AcDbEntity
  8
0
  6
Continuous
 62
     7
370
    15
100
AcDbLine
 10
2131.876428252875
 20
1122.778211338398
 30
0.0
 11
2131.857847419583
 21
1122.767484851658
 31
0.0
  0
LINE
  5
E0A
330
DEB
100
AcDbEntity
  8
0
  6
Continuous
 62
     7
370
    15
100
AcDbLine
 10
2132.067774945115
 20
1121.671238671587
 30
0.0
 11
2132.049194111822
 21
1121.660512184846
 31
0.0
  0
LINE
  5
E0B
330
DEB
100
AcDbEntity
  8
0
  6
Continuous
 62
     7
370
    15
100
AcDbLine
 10
2132.259037343657
 20
1120.564363336115
 30
0.0
 11
2132.240456510364
 21
1120.553636849375
 31
0.0
  0
LINE
  5
E0C
330
DEB
100
AcDbEntity
  8
0
  6
Continuous
 62
     7
370
    15
100
AcDbLine
 10
2137.359612730498
 20
1107.90889689268
 30
0.0
 11
2140.506091221388
 21
1109.725320261813
 31
0.0
  0
LINE
  5
E0D
330
DEB
100
AcDbEntity
  8
0
  6
Continuous
 62
     7
370
    15
100
AcDbLine
 10
2133.275836443632
 20
1114.126297749344
 30
0.0
 11
2131.567961395524
 21
1113.140362470294
 31
0.0
  0
ARC
  5
E0E
330
DEB
100
AcDbEntity
  8
0
  6
Continuous
 62
     7
370
    15
100
AcDbCircle
 10
2135.337150706752
 20
1116.984082531104
 30
0.0
 40
1.310718604359651
100
AcDbArc
 50
3.462585739234287
 51
57.33234042999318
  0
LINE
  5
E0F
330
DEB
100
AcDbEntity
  8
0
  6
Continuous
 62
     7
370
    15
100
AcDbLine
 10
2133.316549846545
 20
1119.66235364001
 30
0.0
 11
2136.044631056957
 21
1118.087465879668
 31
0.0
  0
LWPOLYLINE
  5
E10
330
DEB
100
AcDbEntity
  8
0
  6
Continuous
 62
     7
370
    15
100
AcDbPolyline
 90
        9
 70
   128
 43
0.0
 10
2132.902330619379
 20
1119.305542086196
 10
2132.892299669434
 20
1119.420036437861
 10
2132.903342143743
 20
1119.522243686588
 10
2132.935036573824
 20
1119.606980477765
 10
2132.985697085734
 20
1119.670109735071
 10
2133.052794868563
 20
1119.708467695595
 10
2133.133042468128
 20
1119.720107265861
 10
2133.222478080668
 20
1119.704492708246
 10
2133.316549846545
 20
1119.66235364001
  0
LINE
  5
E11
330
DEB
100
AcDbEntity
  8
0
  6
Continuous
 62
     7
370
    15
100
AcDbLine
 10
2134.003796358364
 20
1112.932552720054
 30
0.0
 11
2132.902330619379
 21
1119.305542086196
 31
0.0
  0
ARC
  5
E12
330
DEB
100
AcDbEntity
  8
0
  6
Continuous
 62
     7
370
    15
100
AcDbCircle
 10
2132.374927960634
 20
1112.645285428521
 30
0.0
 40
1.654005669248033
100
AcDbArc
 50
0.2654399803258497
 51
10.00183688684801
  0
LINE
  5
E13
330
DEB
100
AcDbEntity
  8
0
  6
Continuous
 62
     7
370
    15
100
AcDbLine
 10
2134.028915880076
 20
1110.449236129206
 30
0.0
 11
2134.028915880076
 21
1112.652948081259
 31
0.0
  0
ARC
  5
E14
330
DEB
100
AcDbEntity
  8
0
  6
Continuous
 62
     7
370
    15
100
AcDbCircle
 10
2135.563955212791
 20
1110.518982489436
 30
0.0
 40
1.536623020701514
100
AcDbArc
 50
182.6015134789876
 51
237.3994725415649
  0
LINE
  5
E15
330
DEB
100
AcDbEntity
  8
0
  6
Continuous
 62
     7
370
    15
100
AcDbLine
 10
2135.385032877762
 20
1108.849811816232
 30
0.0
 11
2134.736055704391
 21
1109.224458363843
 31
0.0
  0
LWPOLYLINE
  5
E16
330
DEB
100
AcDbEntity
  8
0
  6
Continuous
 62
     7
370
    15
100
AcDbPolyline
 90
       11
 70
   128
 43
0.0
 10
2136.796952302877
 20
1109.707089402369
 10
2136.784476835718
 20
1109.45473622594
 10
2136.736429428415
 20
1109.228490965517
 10
2136.654074486425
 20
1109.034072420686
 10
2136.53960364587
 20
1108.876347759598
 10
2136.395714305054
 20
1108.759429818674
 10
2136.22628397404
 20
1108.686117465193
 10
2136.035443043982
 20
1108.65843087616
 10
2135.828080549309
 20
1108.676954545831
 10
2135.609422699234
 20
1108.741323942408
 10
2135.385032877762
 20
1108.849811816232
  0
LINE
  5
E17
330
DEB
100
AcDbEntity
  8
0
  6
Continuous
 62
     7
370
    15
100
AcDbLine
 10
2136.645476529329
 20
1117.063245665152
 30
0.0
 11
2136.796952302877
 21
1109.707089402369
 31
0.0
  0
ARC
  5
E18
330
DEB
100
AcDbEntity
  8
0
  6
Continuous
 62
     7
370
    15
100
AcDbCircle
 10
2165.064158179188
 20
1092.214189927056
 30
0.0
 40
0.4367224897409047
100
AcDbArc
 50
230.7950264638501
 51
9.212767986595341
  0
LINE
  5
E19
330
DEB
100
AcDbEntity
  8
0
  6
Continuous
 62
     7
370
    15
100
AcDbLine
 10
2165.495247216127
 20
1094.487821656544
 30
0.0
 11
2165.495247216127
 21
1092.284109704491
 31
0.0
  0
ARC
  5
E1A
330
DEB
100
AcDbEntity
  8
0
  6
Continuous
 62
     7
370
    15
100
AcDbCircle
 10
2166.690636487976
 20
1094.494559959252
 30
0.0
 40
1.195408263304002
100
AcDbArc
 50
168.2290010305939
 51
180.3229677781355
  0
LINE
  5
E1B
330
DEB
100
AcDbEntity
  8
0
  6
Continuous
 62
     7
370
    15
100
AcDbLine
 10
2166.621832476823
 20
1099.839688006248
 30
0.0
 11
2165.52036673784
 21
1094.738423912903
 31
0.0
  0
ARC
  5
E1C
330
DEB
100
AcDbEntity
  8
0
  6
Continuous
 62
     7
370
    15
100
AcDbCircle
 10
2165.745865281641
 20
1099.925440050797
 30
0.0
 40
0.8801544979039009
100
AcDbArc
 50
354.4088945627361
 51
58.35723406050992
  0
LINE
  5
E1D
330
DEB
100
AcDbEntity
  8
0
  6
Continuous
 62
     7
370
    15
100
AcDbLine
 10
2163.479532039245
 20
1102.24963466031
 30
0.0
 11
2166.207613249659
 21
1100.674746899967
 31
0.0
  0
ARC
  5
E1E
330
DEB
100
AcDbEntity
  8
0
  6
Continuous
 62
     7
370
    15
100
AcDbCircle
 10
2163.244713942473
 20
1101.965029680955
 30
0.0
 40
0.3689709105672647
100
AcDbArc
 50
50.47509419332079
 51
187.1375279438236
  0
LINE
  5
E1F
330
DEB
100
AcDbEntity
  8
0
  6
Continuous
 62
     7
370
    15
100
AcDbLine
 10
2162.727210793326
 20
1094.737869804632
 30
0.0
 11
2162.878602273177
 21
1101.919184523634
 31
0.0
  0
ARC
  5
E20
330
DEB
100
AcDbEntity
  8
0
  6
Continuous
 62
     7
370
    15
100
AcDbCircle
 10
2165.765539459037
 20
1094.818042662939
 30
0.0
 40
3.039386248586079
100
AcDbArc
 50
181.5115220318691
 51
237.6485554906762
  0
LINE
  5
E21
330
DEB
100
AcDbEntity
  8
0
  6
Continuous
 62
     7
370
    15
100
AcDbLine
 10
2164.788107391811
 20
1091.875778201736
 30
0.0
 11
2164.13913021844
 21
1092.250424749347
 31
0.0
  0
ARC
  5
E22
330
DEB
100
AcDbEntity
  8
0
  6
Continuous
 62
     7
370
    15
100
AcDbCircle
 10
2167.85802480998
 20
1106.761732467159
 30
0.0
 40
0.1361871801632592
100
AcDbArc
 50
300.7764669115325
 51
17.04017671176084
  0
ARC
  5
E23
330
DEB
100
AcDbEntity
  8
0
  6
Continuous
 62
     7
370
    15
100
AcDbCircle
 10
2167.997676605682
 20
1106.527678417774
 30
0.0
 40
0.1363636794741252
100
AcDbArc
 50
120.8695473016723
 51
197.000689594891
  0
LINE
  5
E24
330
DEB
100
AcDbEntity
  8
0
  6
Continuous
 62
     7
370
    15
100
AcDbLine
 10
2167.914476320652
 20
1106.151797304915
 30
0.0
 11
2167.86727185032
 21
1106.487807966828
 31
0.0
  0
ARC
  5
E25
330
DEB
100
AcDbEntity
  8
0
  6
Continuous
 62
     7
370
    15
100
AcDbCircle
 10
2168.315589841578
 20
1106.217059581787
 30
0.0
 40
0.4063880183418666
100
AcDbArc
 50
189.2412042878443
 51
224.9748929215689
  0
LWPOLYLINE
  5
E26
330
DEB
100
AcDbEntity
  8
0
  6
Continuous
 62
     7
370
    15
100
AcDbPolyline
 90
        9
 70
   128
 43
0.0
 10
2168.057269843407
 20
1105.545192497213
 10
2168.096129237734
 20
1105.558580290397
 10
2168.124873388419
 20
1105.588952833573
 10
2168.141142071944
 20
1105.633925093649
 10
2168.143670882855
 20
1105.689895399727
 10
2168.132206940059
 20
1105.752434792202
 10
2168.107593180529
 20
1105.816676387666
 10
2168.072021240386
 20
1105.877364072261
 10
2168.028104224238
 20
1105.929825807181
  0
ARC
  5
E27
330
DEB
100
AcDbEntity
  8
0
  6
Continuous
 62
     7
370
    15
100
AcDbCircle
 10
2168.078833293279
 20
1105.437183106092
 30
0.0
 40
0.1101408686227077
100
AcDbArc
 50
101.2903300741946
 51
189.2029704467421
  0
LINE
  5
E28
330
DEB
100
AcDbEntity
  8
0
  6
Continuous
 62
     7
370
    15
100
AcDbLine
 10
2167.970110160687
 20
1105.10603829204
 30
0.0
 11
2167.970110160687
 21
1105.419568016529
 31
0.0
  0
ARC
  5
E29
330
DEB
100
AcDbEntity
  8
0
  6
Continuous
 62
     7
370
    15
100
AcDbCircle
 10
2168.353475129055
 20
1105.123661257279
 30
0.0
 40
0.3837698110532815
100
AcDbArc
 50
182.631985911092
 51
219.75773012122
  0
LWPOLYLINE
  5
E2A
330
DEB
100
AcDbEntity
  8
0
  6
Continuous
 62
     7
370
    15
100
AcDbPolyline
 90
        9
 70
   128
 43
0.0
 10
2168.058449955166
 20
1104.52468791017
 10
2168.09511771337
 20
1104.535934034204
 10
2168.123187514478
 20
1104.5620235871
 10
2168.140804897156
 20
1104.601058279474
 10
2168.146874043341
 20
1104.650409848749
 10
2168.140804897156
 20
1104.706720035429
 10
2168.123187514478
 20
1104.766143994506
 10
2168.09511771337
 20
1104.824642249924
 10
2168.058449955166
 20
1104.878224066439
  0
ARC
  5
E2B
330
DEB
100
AcDbEntity
  8
0
  6
Continuous
 62
     7
370
    15
100
AcDbCircle
 10
2168.078676950903
 20
1104.416564149471
 30
0.0
 40
0.1099994499274574
100
AcDbArc
 50
100.5959982881208
 51
189.2573437437668
  0
LINE
  5
E2C
330
DEB
100
AcDbEntity
  8
0
  6
Continuous
 62
     7
370
    15
100
AcDbLine
 10
2167.970110160687
 20
1104.085776942388
 30
0.0
 11
2167.970110160687
 21
1104.398868640251
 31
0.0
  0
ARC
  5
E2D
330
DEB
100
AcDbEntity
  8
0
  6
Continuous
 62
     7
370
    15
100
AcDbCircle
 10
2168.340704026832
 20
1104.100189155494
 30
0.0
 40
0.3708740022037113
100
AcDbArc
 50
182.2270823837577
 51
214.5807700028194
  0
LWPOLYLINE
  5
E2E
330
DEB
100
AcDbEntity
  8
0
  6
Continuous
 62
     7
370
    15
100
AcDbPolyline
 90
        9
 70
   128
 43
0.0
 10
2167.97710653754
 20
1103.570171591237
 10
2168.020012029324
 20
1103.568764198067
 10
2168.056005437952
 20
1103.583660480702
 10
2168.082557952514
 20
1103.613789470105
 10
2168.097562230584
 20
1103.657106844286
 10
2168.100091041494
 20
1103.710351651363
 10
2168.089975797852
 20
1103.769727644763
 10
2168.067890849232
 20
1103.83095196076
 10
2168.035353482181
 20
1103.889693145098
  0
ARC
  5
E2F
330
DEB
100
AcDbEntity
  8
0
  6
Continuous
 62
     7
370
    15
100
AcDbCircle
 10
2167.953029696647
 20
1103.477185518539
 30
0.0
 40
0.0960526104970791
100
AcDbArc
 50
75.48324811280716
 51
173.1517993928905
  0
LINE
  5
E30
330
DEB
100
AcDbEntity
  8
0
  6
Continuous
 62
     7
370
    15
100
AcDbLine
 10
2167.798909662035
 20
1103.216472705325
 30
0.0
 11
2167.857662368859
 21
1103.488638761482
 31
0.0
  0
ARC
  5
E31
330
DEB
100
AcDbEntity
  8
0
  6
Continuous
 62
     7
370
    15
100
AcDbCircle
 10
2168.12403247782
 20
1103.174129866276
 30
0.0
 40
0.3278685123070439
100
AcDbArc
 50
172.5797662338048
 51
213.9366742467798
  0
LWPOLYLINE
  5
E32
330
DEB
100
AcDbEntity
  8
0
  6
Continuous
 62
     7
370
    15
100
AcDbPolyline
 90
        9
 70
   128
 43
0.0
 10
2167.7857598453
 20
1102.684171782406
 10
2167.827569519023
 20
1102.682569607912
 10
2167.862972871772
 20
1102.696346433805
 10
2167.889441092637
 20
1102.724723308797
 10
2167.90520401398
 20
1102.765704612162
 10
2167.909250111437
 20
1102.816467410733
 10
2167.90124221022
 20
1102.873556129496
 10
2167.881686072511
 20
1102.933174585153
 10
2167.852014691159
 20
1102.991088654789
  0
ARC
  5
E33
330
DEB
100
AcDbEntity
  8
0
  6
Continuous
 62
     7
370
    15
100
AcDbCircle
 10
2167.761874753286
 20
1102.590911786762
 30
0.0
 40
0.0962700597701296
100
AcDbArc
 50
75.63459043526245
 51
173.0323023778331
  0
LINE
  5
E34
330
DEB
100
AcDbEntity
  8
0
  6
Continuous
 62
     7
370
    15
100
AcDbLine
 10
2167.607562969796
 20
1102.330424226869
 30
0.0
 11
2167.66631567662
 21
1102.602590283026
 31
0.0
  0
ARC
  5
E35
330
DEB
100
AcDbEntity
  8
0
  6
Continuous
 62
     7
370
    15
100
AcDbCircle
 10
2167.933060583238
 20
1102.288271563278
 30
0.0
 40
0.3282156964627453
100
AcDbArc
 50
172.6211363500573
 51
213.9359047551374
  0
LWPOLYLINE
  5
E36
330
DEB
100
AcDbEntity
  8
0
  6
Continuous
 62
     7
370
    15
100
AcDbPolyline
 90
        9
 70
   128
 43
0.0
 10
2167.594497446758
 20
1101.798074642235
 10
2167.63630712048
 20
1101.796472467741
 10
2167.671626179533
 20
1101.810346624974
 10
2167.698094400397
 20
1101.838723499966
 10
2167.713941615437
 20
1101.879656141616
 10
2167.717903419198
 20
1101.930467601903
 10
2167.70989551798
 20
1101.987556320665
 10
2167.690423673969
 20
1102.047077444981
 10
2167.660752292617
 20
1102.105040184242
  0
ARC
  5
E37
330
DEB
100
AcDbEntity
  8
0
  6
Continuous
 62
     7
370
    15
100
AcDbCircle
 10
2167.570420605866
 20
1101.705088569536
 30
0.0
 40
0.0960526104970443
100
AcDbArc
 50
75.48324811275344
 51
173.1517993928517
  0
LINE
  5
E38
330
DEB
100
AcDbEntity
  8
0
  6
Continuous
 62
     7
370
    15
100
AcDbLine
 10
2167.416300571254
 20
1101.444375756323
 30
0.0
 11
2167.475053278078
 21
1101.71654181248
 31
0.0
  0
ARC
  5
E39
330
DEB
100
AcDbEntity
  8
0
  6
Continuous
 62
     7
370
    15
100
AcDbCircle
 10
2167.740730324087
 20
1101.401909111747
 30
0.0
 40
0.3271973111522926
100
AcDbArc
 50
172.5425946066156
 51
213.9793707636207
  0
LWPOLYLINE
  5
E3A
330
DEB
100
AcDbEntity
  8
0
  6
Continuous
 62
     7
370
    15
100
AcDbPolyline
 90
        9
 70
   128
 43
0.0
 10
2167.403150754518
 20
1100.912074833404
 10
2167.444960428241
 20
1100.91047265891
 10
2167.48036378099
 20
1100.924298154428
 10
2167.506832001855
 20
1100.95267502942
 10
2167.522594923198
 20
1100.99360766316
 10
2167.526641020655
 20
1101.044370461731
 10
2167.518633119438
 20
1101.101459180494
 10
2167.499076981729
 20
1101.161077636151
 10
2167.469405600377
 20
1101.219040375412
  0
ARC
  5
E3B
330
DEB
100
AcDbEntity
  8
0
  6
Continuous
 62
     7
370
    15
100
AcDbCircle
 10
2167.379248343174
 20
1100.81883322447
 30
0.0
 40
0.0962565473344206
100
AcDbArc
 50
75.6218882180956
 51
173.0131592875453
  0
LINE
  5
E3C
330
DEB
100
AcDbEntity
  8
0
  6
Continuous
 62
     7
370
    15
100
AcDbLine
 10
2167.224953879014
 20
1100.558327277868
 30
0.0
 11
2167.283706585839
 21
1100.830542003649
 31
0.0
  0
ARC
  5
E3D
330
DEB
100
AcDbEntity
  8
0
  6
Continuous
 62
     7
370
    15
100
AcDbCircle
 10
2167.550453558126
 20
1100.516175101762
 30
0.0
 40
0.3282176824188679
100
AcDbArc
 50
172.6212670553385
 51
213.9357740498752
  0
ARC
  5
E3E
330
DEB
100
AcDbEntity
  8
0
  6
Continuous
 62
     7
370
    15
100
AcDbCircle
 10
2167.00668559161
 20
1100.150043181399
 30
0.0
 40
0.3273250125554984
100
AcDbArc
 50
352.551049128672
 51
33.97091624144859
  0
LINE
  5
E3F
330
DEB
100
AcDbEntity
  8
0
  6
Continuous
 62
     7
370
    15
100
AcDbLine
 10
2167.331248230958
 20
1100.107607854329
 30
0.0
 11
2166.069287292845
 21
1094.262705500279
 31
0.0
  0
ARC
  5
E40
330
DEB
100
AcDbEntity
  8
0
  6
Continuous
 62
     7
370
    15
100
AcDbCircle
 10
2166.460802052879
 20
1094.181408322536
 30
0.0
 40
0.3998662756883944
100
AcDbArc
 50
168.2693606341688
 51
180.3251711097797
  0
LINE
  5
E41
330
DEB
100
AcDbEntity
  8
0
  6
Continuous
 62
     7
370
    15
100
AcDbLine
 10
2166.06094221684
 20
1094.179138971045
 30
0.0
 11
2166.06094221684
 21
1091.406698115622
 31
0.0
  0
ARC
  5
E42
330
DEB
100
AcDbEntity
  8
0
  6
Continuous
 62
     7
370
    15
100
AcDbCircle
 10
2166.5212978603
 20
1091.427540850109
 30
0.0
 40
0.4608272323185151
100
AcDbArc
 50
182.5923126185858
 51
237.4011139501837
  0
LINE
  5
E43
330
DEB
100
AcDbEntity
  8
0
  6
Continuous
 62
     7
370
    15
100
AcDbLine
 10
2166.273025158547
 20
1091.03931101662
 30
0.0
 11
2167.050887394664
 21
1090.590260706014
 31
0.0
  0
ARC
  5
E44
330
DEB
100
AcDbEntity
  8
0
  6
Continuous
 62
     7
370
    15
100
AcDbCircle
 10
2167.133689756395
 20
1090.691747990941
 30
0.0
 40
0.1309805333251381
100
AcDbArc
 50
230.7893720419845
 51
9.241098306244998
  0
LINE
  5
E45
330
DEB
100
AcDbEntity
  8
0
  6
Continuous
 62
     7
370
    15
100
AcDbLine
 10
2167.262970336371
 20
1090.712782052636
 30
0.0
 11
2167.262970336371
 21
1091.437643113125
 31
0.0
  0
ARC
  5
E46
330
DEB
100
AcDbEntity
  8
0
  6
Continuous
 62
     7
370
    15
100
AcDbCircle
 10
2166.561692553189
 20
1091.417025561854
 30
0.0
 40
0.7015807954930421
100
AcDbArc
 50
1.684009562584207
 51
28.51418270548009
  0
LWPOLYLINE
  5
E47
330
DEB
100
AcDbEntity
  8
0
  6
Continuous
 62
     7
370
    15
100
AcDbPolyline
 90
       17
 70
   128
 43
0.0
 10
2167.178170877167
 20
1091.751943594617
 10
2167.10761705276
 20
1091.915028887831
 10
2167.064374386187
 20
1092.078214082986
 10
2167.050887394664
 20
1092.23213050664
 10
2167.067999015159
 20
1092.367896031317
 10
2167.114613429613
 20
1092.477747749001
 10
2167.188117533416
 20
1092.555309693617
 10
2167.28421234802
 20
1092.596128191086
 10
2167.397503076818
 20
1092.597817923572
 10
2167.521330517743
 20
1092.560329596595
 10
2167.648614000245
 20
1092.485804009257
 10
2167.771935678989
 20
1092.378596396957
 10
2167.884383470815
 20
1092.244741144619
 10
2167.979298173662
 20
1092.09207343702
 10
2168.051284990918
 20
1091.929328965644
 10
2168.096297825128
 20
1091.765827584026
 10
2168.111554984289
 20
1091.611132612473
  0
LINE
  5
E48
330
DEB
100
AcDbEntity
  8
0
  6
Continuous
 62
     7
370
    15
100
AcDbLine
 10
2168.111554984289
 20
1091.611132612473
 30
0.0
 11
2168.111470690592
 21
1089.777188128729
 31
0.0
  0
ARC
  5
E49
330
DEB
100
AcDbEntity
  8
0
  6
Continuous
 62
     7
370
    15
100
AcDbCircle
 10
2167.680432852776
 20
1089.707216515034
 30
0.0
 40
0.4366802541365919
100
AcDbArc
 50
230.7961097235597
 51
9.220557080421809
  0
LINE
  5
E4A
330
DEB
100
AcDbEntity
  8
0
  6
Continuous
 62
     7
370
    15
100
AcDbLine
 10
2167.404415159973
 20
1089.368832299071
 30
0.0
 11
2164.664279950886
 21
1090.95067868473
 31
0.0
  0
ARC
  5
E4B
330
DEB
100
AcDbEntity
  8
0
  6
Continuous
 62
     7
370
    15
100
AcDbCircle
 10
2168.919150859158
 20
1097.520769848431
 30
0.0
 40
7.82751712520683
100
AcDbArc
 50
189.0002071397165
 51
237.072415505668
  0
LWPOLYLINE
  5
E4C
330
DEB
100
AcDbEntity
  8
0
  6
Continuous
 62
     7
370
    15
100
AcDbPolyline
 90
        9
 70
   128
 43
0.0
 10
2161.188007885708
 20
1096.296248444178
 10
2161.185647662191
 20
1096.327907813798
 10
2161.188176473102
 20
1096.356720469106
 10
2161.195510024743
 20
1096.38168867488
 10
2161.207395436023
 20
1096.401960688953
 10
2161.223495532154
 20
1096.416757765686
 10
2161.24313596356
 20
1096.425666149991
 10
2161.265726674362
 20
1096.4282964295
 10
2161.290424727589
 20
1096.424624190305
  0
LINE
  5
E4D
330
DEB
100
AcDbEntity
  8
0
  6
Continuous
 62
     7
370
    15
100
AcDbLine
 10
2161.290424727589
 20
1096.424624190305
 30
0.0
 11
2161.959632388245
 21
1096.245363750695
 31
0.0
  0
LINE
  5
E4E
330
DEB
100
AcDbEntity
  8
0
  6
Continuous
 62
     7
370
    15
100
AcDbLine
 10
2161.959632388245
 20
1096.245363750695
 30
0.0
 11
2162.093322191722
 21
1097.043777159146
 31
0.0
  0
LINE
  5
E4F
330
DEB
100
AcDbEntity
  8
0
  6
Continuous
 62
     7
370
    15
100
AcDbLine
 10
2162.093322191722
 20
1097.043777159146
 30
0.0
 11
2161.917064071249
 21
1102.304557729803
 31
0.0
  0
ARC
  5
E50
330
DEB
100
AcDbEntity
  8
0
  6
Continuous
 62
     7
370
    15
100
AcDbCircle
 10
2160.252217017525
 20
1102.18780574554
 30
0.0
 40
1.668935810066534
100
AcDbArc
 50
4.011456936305794
 51
57.29552052154832
  0
LINE
  5
E51
330
DEB
100
AcDbEntity
  8
0
  6
Continuous
 62
     7
370
    15
100
AcDbLine
 10
2161.153953232111
 20
1103.592162729155
 30
0.0
 11
2161.145355275015
 21
1103.597126224135
 31
0.0
  0
LWPOLYLINE
  5
E52
330
DEB
100
AcDbEntity
  8
0
  6
Continuous
 62
     7
370
    15
100
AcDbPolyline
 90
        9
 70
   128
 43
0.0
 10
2161.145355275015
 20
1103.597126224135
 10
2160.99320515189
 20
1103.667293546719
 10
2160.847124174952
 20
1103.69930445276
 10
2160.713097196687
 20
1103.691796754336
 10
2160.596266132615
 20
1103.645208960553
 10
2160.501520017162
 20
1103.561293636665
 10
2160.432652066695
 20
1103.443433677544
 10
2160.392275385822
 20
1103.29642328645
 10
2160.382075848482
 20
1103.126127311391
  0
LINE
  5
E53
330
DEB
100
AcDbEntity
  8
0
  6
Continuous
 62
     7
370
    15
100
AcDbLine
 10
2160.382075848482
 20
1103.126127311391
 30
0.0
 11
2160.525543720813
 21
1098.143028209571
 31
0.0
  0
LWPOLYLINE
  5
E54
330
DEB
100
AcDbEntity
  8
0
  6
Continuous
 62
     7
370
    15
100
AcDbPolyline
 90
        9
 70
   128
 43
0.0
 10
2160.525543720813
 20
1098.143028209571
 10
2160.522762028811
 20
1098.095696738208
 10
2160.511550967108
 20
1098.05483753602
 10
2160.492416297884
 20
1098.022105417717
 10
2160.466032370716
 20
1097.998838861264
 10
2160.43366359106
 20
1097.985841034115
 10
2160.396405776976
 20
1097.983769079034
 10
2160.355860508708
 20
1097.992647481115
 10
2160.313545072804
 20
1098.012160030166
  0
LINE
  5
E55
330
DEB
100
AcDbEntity
  8
0
  6
Continuous
 62
     7
370
    15
100
AcDbLine
 10
2160.313545072804
 20
1098.012160030166
 30
0.0
 11
2159.549507002998
 21
1098.45322981943
 31
0.0
  0
ARC
  5
E56
330
DEB
100
AcDbEntity
  8
0
  6
Continuous
 62
     7
370
    15
100
AcDbCircle
 10
2159.952909449351
 20
1099.121708490128
 30
0.0
 40
0.7807671015750249
100
AcDbArc
 50
217.9722766038263
 51
238.8905537522714
  0
LINE
  5
E57
330
DEB
100
AcDbEntity
  8
0
  6
Continuous
 62
     7
370
    15
100
AcDbLine
 10
2159.337424061291
 20
1098.641318019795
 30
0.0
 11
2157.444440507273
 21
1100.996141876733
 31
0.0
  0
ARC
  5
E58
330
DEB
100
AcDbEntity
  8
0
  6
Continuous
 62
     7
370
    15
100
AcDbCircle
 10
2154.36660421676
 20
1098.593358445344
 30
0.0
 40
3.904669569804858
100
AcDbArc
 50
37.97819422848754
 51
58.89525762403428
  0
LINE
  5
E59
330
DEB
100
AcDbEntity
  8
0
  6
Continuous
 62
     7
370
    15
100
AcDbLine
 10
2156.383772917648
 20
1101.936631524456
 30
0.0
 11
2143.140390178555
 21
1109.581873646181
 31
0.0
  0
ARC
  5
E5A
330
DEB
100
AcDbEntity
  8
0
  6
Continuous
 62
     7
370
    15
100
AcDbCircle
 10
2142.155517080064
 20
1108.027133967276
 30
0.0
 40
1.840432147429299
100
AcDbArc
 50
57.64717446153618
 51
92.36027878657688
  0
LINE
  5
E5B
330
DEB
100
AcDbEntity
  8
0
  6
Continuous
 62
     7
370
    15
100
AcDbLine
 10
2142.079722588929
 20
1109.866004730654
 30
0.0
 11
2140.186739034911
 21
1109.696773163545
 31
0.0
  0
ARC
  5
E5C
330
DEB
100
AcDbEntity
  8
0
  6
Continuous
 62
     7
370
    15
100
AcDbCircle
 10
2140.171508610769
 20
1110.064371243976
 30
0.0
 40
0.3679134606890083
100
AcDbArc
 50
237.6526201471981
 51
272.3725374258549
  0
LINE
  5
E5D
330
DEB
100
AcDbEntity
  8
0
  6
Continuous
 62
     7
370
    15
100
AcDbLine
 10
2139.974656093205
 20
1109.75355071556
 30
0.0
 11
2139.210618023399
 21
1110.194620504825
 31
0.0
  0
ARC
  5
E5E
330
DEB
100
AcDbEntity
  8
0
  6
Continuous
 62
     7
370
    15
100
AcDbCircle
 10
2139.456771687131
 20
1110.581183967573
 30
0.0
 40
0.458282595022477
100
AcDbArc
 50
181.3662355511143
 51
237.5120650503923
  0
LINE
  5
E5F
330
DEB
100
AcDbEntity
  8
0
  6
Continuous
 62
     7
370
    15
100
AcDbLine
 10
2138.998619375389
 20
1110.57025711318
 30
0.0
 11
2139.14208724772
 21
1115.387711735448
 31
0.0
  0
ARC
  5
E60
330
DEB
100
AcDbEntity
  8
0
  6
Continuous
 62
     7
370
    15
100
AcDbCircle
 10
2137.49174498244
 20
1115.347728736615
 30
0.0
 40
1.65082653018525
100
AcDbArc
 50
1.387838803834001
 51
57.49693861725475
  0
LINE
  5
E61
330
DEB
100
AcDbEntity
  8
0
  6
Continuous
 62
     7
370
    15
100
AcDbLine
 10
2138.378807821188
 20
1116.739974315842
 30
0.0
 11
2138.370209864092
 21
1116.744937810822
 31
0.0
  0
ARC
  5
E62
330
DEB
100
AcDbEntity
  8
0
  6
Continuous
 62
     7
370
    15
100
AcDbCircle
 10
2138.071766573108
 20
1116.385659604656
 30
0.0
 40
0.4670644788028685
100
AcDbArc
 50
50.28444767338018
 51
185.807147399411
  0
LINE
  5
E63
330
DEB
100
AcDbEntity
  8
0
  6
Continuous
 62
     7
370
    15
100
AcDbLine
 10
2137.607099024954
 20
1116.338401832259
 30
0.0
 11
2137.430840904481
 21
1111.281124555809
 31
0.0
  0
LINE
  5
E64
330
DEB
100
AcDbEntity
  8
0
  6
Continuous
 62
     7
370
    15
100
AcDbLine
 10
2137.430840904481
 20
1111.281124555809
 30
0.0
 11
2137.56444641426
 21
1110.328404847518
 31
0.0
  0
LINE
  5
E65
330
DEB
100
AcDbEntity
  8
0
  6
Continuous
 62
     7
370
    15
100
AcDbLine
 10
2137.56444641426
 20
1110.328404847518
 30
0.0
 11
2138.233738368613
 21
1109.734965906752
 31
0.0
  0
ARC
  5
E66
330
DEB
100
AcDbEntity
  8
0
  6
Continuous
 62
     7
370
    15
100
AcDbCircle
 10
2138.040765165655
 20
1109.51025134854
 30
0.0
 40
0.2962014343860739
100
AcDbArc
 50
355.7581242380854
 51
49.34572684442013
  0
LWPOLYLINE
  5
E67
330
DEB
100
AcDbEntity
  8
0
  6
Continuous
 62
     7
370
    15
100
AcDbPolyline
 90
       16
 70
   128
 43
0.0
 10
2138.336155210495
 20
1109.488342191968
 10
2138.261808169721
 20
1109.163611477506
 10
2138.158379803476
 20
1108.865208301398
 10
2138.026713048728
 20
1108.595663563241
 10
2137.867903723539
 20
1108.357289173049
 10
2137.683469114455
 20
1108.152080727819
 10
2137.474842214326
 20
1107.98183913814
 10
2137.243877484486
 20
1107.847975997148
 10
2136.992513679968
 20
1107.751683892576
 10
2136.722942436892
 20
1107.69371740926
 10
2136.437355391382
 20
1107.674709457973
 10
2136.138365648045
 20
1107.694660283913
 10
2135.828417724097
 20
1107.753472777203
 10
2135.510209017839
 20
1107.850636159888
 10
2135.186436927579
 20
1107.985323301447
 10
2134.85979885162
 20
1108.156439388422
  0
LINE
  5
E68
330
DEB
100
AcDbEntity
  8
0
  6
Continuous
 62
     7
370
    15
100
AcDbLine
 10
2134.85979885162
 20
1108.156439388422
 30
0.0
 11
2132.119747936229
 21
1109.738237112366
 31
0.0
  0
ARC
  5
E69
330
DEB
100
AcDbEntity
  8
0
  6
Continuous
 62
     7
370
    15
100
AcDbCircle
 10
2132.947737076921
 20
1111.032711493991
 30
0.0
 40
1.536629409385787
100
AcDbArc
 50
182.6023705606462
 51
237.3956576882456
  0
LINE
  5
E6A
330
DEB
100
AcDbEntity
  8
0
  6
Continuous
 62
     7
370
    15
100
AcDbLine
 10
2131.412692405611
 20
1110.962941881201
 30
0.0
 11
2131.412608111913
 21
1112.796983688375
 31
0.0
  0
LWPOLYLINE
  5
E6B
330
DEB
100
AcDbEntity
  8
0
  6
Continuous
 62
     7
370
    15
100
AcDbPolyline
 90
       17
 70
   128
 43
0.0
 10
2131.412608111913
 20
1112.796983688375
 10
2131.427865271074
 20
1112.934087453731
 10
2131.472793811587
 20
1113.045642450101
 10
2131.544864922541
 20
1113.125224049694
 10
2131.639779625388
 20
1113.168305573994
 10
2131.752143123517
 20
1113.172380031101
 10
2131.875549095957
 20
1113.137154802141
 10
2132.00283257846
 20
1113.064722008679
 10
2132.126660019385
 20
1112.959242215526
 10
2132.239866454485
 20
1112.8267984535
 10
2132.336045562787
 20
1112.674982582982
 10
2132.40954966659
 20
1112.51255460654
 10
2132.456164081043
 20
1112.348883031516
 10
2132.473191407842
 20
1112.193409512062
 10
2132.459788710015
 20
1112.055016175652
 10
2132.416546043443
 20
1111.941757900597
 10
2132.345992219036
 20
1111.860132319124
  0
ARC
  5
E6C
330
DEB
100
AcDbEntity
  8
0
  6
Continuous
 62
     7
370
    15
100
AcDbCircle
 10
2132.525695506471
 20
1111.664898724311
 30
0.0
 40
0.2653477493005065
100
AcDbArc
 50
132.6281002452868
 51
184.5737695951565
  0
LINE
  5
E6D
330
DEB
100
AcDbEntity
  8
0
  6
Continuous
 62
     7
370
    15
100
AcDbLine
 10
2132.261192759832
 20
1111.643739209212
 30
0.0
 11
2132.261192759832
 21
1110.918878148723
 31
0.0
  0
ARC
  5
E6E
330
DEB
100
AcDbEntity
  8
0
  6
Continuous
 62
     7
370
    15
100
AcDbCircle
 10
2132.721548403292
 20
1110.93972088321
 30
0.0
 40
0.4608272323189468
100
AcDbArc
 50
182.5923126185988
 51
237.4011139501257
  0
LINE
  5
E6F
330
DEB
100
AcDbEntity
  8
0
  6
Continuous
 62
     7
370
    15
100
AcDbLine
 10
2132.473275701538
 20
1110.551491049721
 30
0.0
 11
2133.251137937655
 21
1110.102440739116
 31
0.0
  0
ARC
  5
E70
330
DEB
100
AcDbEntity
  8
0
  6
Continuous
 62
     7
370
    15
100
AcDbCircle
 10
2133.333940299387
 20
1110.203928024042
 30
0.0
 40
0.1309805333251381
100
AcDbArc
 50
230.7893720419845
 51
9.24109830620433
  0
LINE
  5
E71
330
DEB
100
AcDbEntity
  8
0
  6
Continuous
 62
     7
370
    15
100
AcDbLine
 10
2133.463220879363
 20
1110.224962085737
 30
0.0
 11
2133.463220879363
 21
1112.99740294116
 31
0.0
  0
ARC
  5
E72
330
DEB
100
AcDbEntity
  8
0
  6
Continuous
 62
     7
370
    15
100
AcDbCircle
 10
2132.910582994163
 20
1112.994895250543
 30
0.0
 40
0.5526435747108698
100
AcDbArc
 50
0.259987790202733
 51
9.97301802081894
  0
LINE
  5
E73
330
DEB
100
AcDbEntity
  8
0
  6
Continuous
 62
     7
370
    15
100
AcDbLine
 10
2133.454875803357
 20
1113.090604490062
 30
0.0
 11
2132.192830571547
 21
1120.392584591237
 31
0.0
  0
ARC
  5
E74
330
DEB
100
AcDbEntity
  8
0
  6
Continuous
 62
     7
370
    15
100
AcDbCircle
 10
2132.330543328827
 20
1120.438526734735
 30
0.0
 40
0.145173978614909
100
AcDbArc
 50
125.6069543849372
 51
198.4491358695474
  0
ARC
  5
E75
330
DEB
100
AcDbEntity
  8
0
  6
Continuous
 62
     7
370
    15
100
AcDbCircle
 10
2132.161484477397
 20
1120.674592249949
 30
0.0
 40
0.1451841154280723
100
AcDbArc
 50
305.6099059621479
 51
18.44618429215173
  0
LINE
  5
E76
330
DEB
100
AcDbEntity
  8
0
  6
Continuous
 62
     7
370
    15
100
AcDbLine
 10
2132.299209217189
 20
1120.720530506577
 30
0.0
 11
2132.240456510364
 21
1121.060579663761
 31
0.0
  0
ARC
  5
E77
330
DEB
100
AcDbEntity
  8
0
  6
Continuous
 62
     7
370
    15
100
AcDbCircle
 10
2131.837165792678
 20
1120.983290773939
 30
0.0
 40
0.4106299738957097
100
AcDbArc
 50
10.84894012559785
 51
46.2711354508605
  0
LWPOLYLINE
  5
E78
330
DEB
100
AcDbEntity
  8
0
  6
Continuous
 62
     7
370
    15
100
AcDbPolyline
 90
        9
 70
   128
 43
0.0
 10
2132.121012341684
 20
1121.280019795235
 10
2132.079202667962
 20
1121.326690042514
 10
2132.043799315213
 20
1121.381391379048
 10
2132.017331094348
 20
1121.440327811373
 10
2132.001568173005
 20
1121.499459926709
 10
2131.997522075547
 20
1121.554894249968
 10
2132.005529976765
 20
1121.602737242786
 10
2132.025086114474
 20
1121.639776662452
 10
2132.054757495826
 20
1121.663481554003
  0
ARC
  5
E79
330
DEB
100
AcDbEntity
  8
0
  6
Continuous
 62
     7
370
    15
100
AcDbCircle
 10
2131.970282775307
 20
1121.781439481975
 30
0.0
 40
0.1450863576566848
100
AcDbArc
 50
305.6080719841265
 51
18.51129161746115
  0
LINE
  5
E7A
330
DEB
100
AcDbEntity
  8
0
  6
Continuous
 62
     7
370
    15
100
AcDbLine
 10
2132.10786252495
 20
1121.827503173388
 30
0.0
 11
2132.049109818125
 21
1122.167503660948
 31
0.0
  0
ARC
  5
E7B
330
DEB
100
AcDbEntity
  8
0
  6
Continuous
 62
     7
370
    15
100
AcDbCircle
 10
2131.647052692735
 20
1122.090886231744
 30
0.0
 40
0.4092922703090988
100
AcDbArc
 50
10.78912734246733
 51
46.33094823400933
  0
LWPOLYLINE
  5
E7C
330
DEB
100
AcDbEntity
  8
0
  6
Continuous
 62
     7
370
    15
100
AcDbPolyline
 90
        9
 70
   128
 43
0.0
 10
2131.929665649445
 20
1122.386943792422
 10
2131.887855975723
 20
1122.4336140397
 10
2131.85253691667
 20
1122.488266714519
 10
2131.826068695805
 20
1122.547203146844
 10
2131.810221480765
 20
1122.60643259352
 10
2131.806259677005
 20
1122.661818255064
 10
2131.814267578223
 20
1122.709661247882
 10
2131.833739422234
 20
1122.746700659639
 10
2131.863410803586
 20
1122.77040555119
  0
ARC
  5
E7D
330
DEB
100
AcDbEntity
  8
0
  6
Continuous
 62
     7
370
    15
100
AcDbCircle
 10
2131.778887369126
 20
1122.888436365362
 30
0.0
 40
0.1451739786152493
100
AcDbArc
 50
305.6069543849554
 51
18.44913586940738
  0
LINE
  5
E7E
330
DEB
100
AcDbEntity
  8
0
  6
Continuous
 62
     7
370
    15
100
AcDbLine
 10
2131.916600126407
 20
1122.93437850886
 30
0.0
 11
2131.857763125886
 21
1123.274427658135
 31
0.0
  0
ARC
  5
E7F
330
DEB
100
AcDbEntity
  8
0
  6
Continuous
 62
     7
370
    15
100
AcDbCircle
 10
2131.455309243653
 20
1123.197703008521
 30
0.0
 40
0.4097020858895506
100
AcDbArc
 50
10.79347019103561
 51
46.29264081664117
  0
LWPOLYLINE
  5
E80
330
DEB
100
AcDbEntity
  8
0
  6
Continuous
 62
     7
370
    15
100
AcDbPolyline
 90
        9
 70
   128
 43
0.0
 10
2131.738403250903
 20
1123.493867797518
 10
2131.696509283483
 20
1123.540586706512
 10
2131.661190224431
 20
1123.595190711706
 10
2131.634722003566
 20
1123.654127144031
 10
2131.618959082223
 20
1123.713307928992
 10
2131.614912984765
 20
1123.768742252251
 10
2131.622920885983
 20
1123.816585245068
 10
2131.642477023692
 20
1123.853624664735
 10
2131.672064111347
 20
1123.877329548377
  0
ARC
  5
E81
330
DEB
100
AcDbEntity
  8
0
  6
Continuous
 62
     7
370
    15
100
AcDbCircle
 10
2131.58784000516
 20
1123.995276935155
 30
0.0
 40
0.144932005128989
100
AcDbArc
 50
305.5299484209223
 51
18.53612169895945
  0
LINE
  5
E82
330
DEB
100
AcDbEntity
  8
0
  6
Continuous
 62
     7
370
    15
100
AcDbLine
 10
2131.725253434167
 20
1124.041351175671
 30
0.0
 11
2131.666500727343
 21
1124.381351663231
 31
0.0
  0
ARC
  5
E83
330
DEB
100
AcDbEntity
  8
0
  6
Continuous
 62
     7
370
    15
100
AcDbCircle
 10
2131.264443601953
 20
1124.304734234027
 30
0.0
 40
0.4092922703091778
100
AcDbArc
 50
10.78912734246733
 51
46.33094823400933
  0
LWPOLYLINE
  5
E84
330
DEB
100
AcDbEntity
  8
0
  6
Continuous
 62
     7
370
    15
100
AcDbPolyline
 90
        9
 70
   128
 43
0.0
 10
2131.547056558663
 20
1124.600791794705
 10
2131.504151066879
 20
1124.648922027911
 10
2131.468157658251
 20
1124.70537541558
 10
2131.441605143689
 20
1124.766161285746
 10
2131.426600865619
 20
1124.826802230644
 10
2131.423987761011
 20
1124.883015402366
 10
2131.434187298351
 20
1124.930663922332
 10
2131.456272246971
 20
1124.966389499409
 10
2131.488725320324
 20
1124.987612501098
  0
ARC
  5
E85
330
DEB
100
AcDbEntity
  8
0
  6
Continuous
 62
     7
370
    15
100
AcDbCircle
 10
2131.437211119667
 20
1125.093523802811
 30
0.0
 40
0.1177748559750448
100
AcDbArc
 50
295.9378261757194
 51
7.216865851797976
  0
LINE
  5
E86
330
DEB
100
AcDbEntity
  8
0
  6
Continuous
 62
     7
370
    15
100
AcDbLine
 10
2131.554052935516
 20
1125.108319301083
 30
0.0
 11
2131.554052935516
 21
1125.421410998946
 31
0.0
  0
ARC
  5
E87
330
DEB
100
AcDbEntity
  8
0
  6
Continuous
 62
     7
370
    15
100
AcDbCircle
 10
2131.170687967145
 20
1125.403788033706
 30
0.0
 40
0.3837698110553402
100
AcDbArc
 50
2.631985911157638
 51
39.75773012105321
  0
LWPOLYLINE
  5
E88
330
DEB
100
AcDbEntity
  8
0
  6
Continuous
 62
     7
370
    15
100
AcDbPolyline
 90
        9
 70
   128
 43
0.0
 10
2131.465713141037
 20
1125.649225224547
 10
2131.429045382833
 20
1125.702807041063
 10
2131.400975581724
 20
1125.76130529648
 10
2131.383358199046
 20
1125.820680585932
 10
2131.377289052861
 20
1125.877039442238
 10
2131.383358199046
 20
1125.926342341887
 10
2131.400975581724
 20
1125.965425703886
 10
2131.429045382833
 20
1125.991515256782
 10
2131.465713141037
 20
1126.002761380816
  0
ARC
  5
E89
330
DEB
100
AcDbEntity
  8
0
  6
Continuous
 62
     7
370
    15
100
AcDbCircle
 10
2131.4454861453
 20
1126.110885141516
 30
0.0
 40
0.1099994499275251
100
AcDbArc
 50
280.5959982882664
 51
9.25734374376889
  0
LINE
  5
E8A
330
DEB
100
AcDbEntity
  8
0
  6
Continuous
 62
     7
370
    15
100
AcDbLine
 10
2131.554052935516
 20
1126.128580650735
 30
0.0
 11
2131.554052935516
 21
1126.442110375224
 31
0.0
  0
ARC
  5
E8B
330
DEB
100
AcDbEntity
  8
0
  6
Continuous
 62
     7
370
    15
100
AcDbCircle
 10
2131.171742833821
 20
1126.42475166665
 30
0.0
 40
0.3827039830229833
100
AcDbArc
 50
2.599717100687224
 51
39.53608768662708
  0
LWPOLYLINE
  5
E8C
330
DEB
100
AcDbEntity
  8
0
  6
Continuous
 62
     7
370
    15
100
AcDbPolyline
 90
        9
 70
   128
 43
0.0
 10
2131.466893252795
 20
1126.668367283556
 10
2131.427949564772
 20
1126.726669840143
 10
2131.399289707784
 20
1126.790181011573
 10
2131.383021024259
 20
1126.85393669383
 10
2131.380492213348
 20
1126.912826702839
 10
2131.391956156143
 20
1126.962130108699
 10
2131.416485621977
 20
1126.998001924027
 10
2131.452141855817
 20
1127.017570459028
 10
2131.496058871965
 20
1127.0193266864
  0
ARC
  5
E8D
330
DEB
100
AcDbEntity
  8
0
  6
Continuous
 62
     7
370
    15
100
AcDbCircle
 10
2131.512690190212
 20
1127.115012685528
 30
0.0
 40
0.0971206011915873
100
AcDbArc
 50
260.1398454715912
 51
357.1042119169788
  0
LINE
  5
E8E
330
DEB
100
AcDbEntity
  8
0
  6
Continuous
 62
     7
370
    15
100
AcDbLine
 10
2131.60968677555
 20
1127.110106199154
 30
0.0
 11
2131.656891245882
 21
1127.391615739711
 31
0.0
  0
ARC
  5
E8F
330
DEB
100
AcDbEntity
  8
0
  6
Continuous
 62
     7
370
    15
100
AcDbCircle
 10
2131.317750209577
 20
1127.4225429156
 30
0.0
 40
0.3405482825016728
100
AcDbArc
 50
354.7894569193431
 51
35.10038601007212
  0
ARC
  5
E90
330
DEB
100
AcDbEntity
  8
0
  6
Continuous
 62
     7
370
    15
100
AcDbCircle
 10
2131.875606470403
 20
1127.814219954259
 30
0.0
 40
0.3410781661016924
100
AcDbArc
 50
174.8041820134413
 51
215.0458896120416
  0
LINE
  5
E91
330
DEB
100
AcDbEntity
  8
0
  6
Continuous
 62
     7
370
    15
100
AcDbLine
 10
2131.535929790656
 20
1127.845107955616
 30
0.0
 11
2131.86897418759
 21
1129.833877424473
 31
0.0
  0
LWPOLYLINE
  5
E92
330
DEB
100
AcDbEntity
  8
0
  6
Continuous
 62
     7
370
    15
100
AcDbPolyline
 90
        9
 70
   128
 43
0.0
 10
2132.026687694717
 20
1129.87638080588
 10
2131.999798005367
 20
1129.893023294499
 10
2131.973161197108
 20
1129.903582103718
 10
2131.947788794305
 20
1129.907667971449
 10
2131.924608027623
 20
1129.905134975824
 10
2131.904546127732
 20
1129.895983203846
 10
2131.88819315051
 20
1129.880699407134
 10
2131.876139151836
 20
1129.859770337304
 10
2131.86897418759
 20
1129.833877424473
  0
LINE
  5
E93
330
DEB
100
AcDbEntity
  8
0
  6
Continuous
 62
     7
370
    15
100
AcDbLine
 10
2132.456501255831
 20
1129.562940081761
 30
0.0
 11
2132.026687694717
 21
1129.87638080588
 31
0.0
  0
ARC
  5
E94
330
DEB
100
AcDbEntity
  8
0
  6
Continuous
 62
     7
370
    15
100
AcDbCircle
 10
2132.280395164849
 20
1129.323836978561
 30
0.0
 40
0.2969573188875987
100
AcDbArc
 50
356.2129894479598
 51
53.62732011951546
  0
LINE
  5
E95
330
DEB
100
AcDbEntity
  8
0
  6
Continuous
 62
     7
370
    15
100
AcDbLine
 10
2132.572320795539
 20
1129.277746946752
 30
0.0
 11
2132.576704067784
 21
1129.304223634069
 31
0.0
  0
ARC
  5
E96
330
DEB
100
AcDbEntity
  8
0
  6
Continuous
 62
     7
370
    15
100
AcDbCircle
 10
2132.79201213578
 20
1129.263023918437
 30
0.0
 40
0.2201841332606518
100
AcDbArc
 50
176.1659486378621
 51
232.1921727369588
  0
LINE
  5
E97
330
DEB
100
AcDbEntity
  8
0
  6
Continuous
 62
     7
370
    15
100
AcDbLine
 10
2132.969934164391
 20
1128.844721932473
 30
0.0
 11
2132.657035961046
 21
1129.089062759572
 31
0.0
  0
LWPOLYLINE
  5
E98
330
DEB
100
AcDbEntity
  8
0
  6
Continuous
 62
     7
370
    15
100
AcDbPolyline
 90
        9
 70
   128
 43
0.0
 10
2132.969934164391
 20
1128.844721932473
 10
2132.99741390962
 20
1128.826424731969
 10
2133.024809361153
 20
1128.814405905186
 10
2133.051024700926
 20
1128.809200715174
 10
2133.075048404577
 20
1128.810955075894
 10
2133.096037535135
 20
1128.819571569001
 10
2133.113064861934
 20
1128.834806759365
 10
2133.125540329093
 20
1128.856027886493
 10
2133.132958174432
 20
1128.882407519303
  0
LINE
  5
E99
330
DEB
100
AcDbEntity
  8
0
  6
Continuous
 62
     7
370
    15
100
AcDbLine
 10
2133.139617376496
 20
1128.922219897436
 30
0.0
 11
2133.132958174432
 21
1128.882407519303
 31
0.0
  0
ARC
  5
E9A
330
DEB
100
AcDbEntity
  8
0
  6
Continuous
 62
     7
370
    15
100
AcDbCircle
 10
2131.499018320457
 20
1129.016108756351
 30
0.0
 40
1.643283414540275
100
AcDbArc
 50
356.7246268115709
 51
25.64822633835427
  0
ARC
  5
E9B
330
DEB
100
AcDbEntity
  8
0
  6
Continuous
 62
     7
370
    15
100
AcDbCircle
 10
2134.145073051775
 20
1130.283685418916
 30
0.0
 40
1.290718149708653
100
AcDbArc
 50
177.6253176204037
 51
205.530580101224
  0
ARC
  5
E9C
330
DEB
100
AcDbEntity
  8
0
  6
Continuous
 62
     7
370
    15
100
AcDbCircle
 10
2139.845198806966
 20
1129.826695171702
 30
0.0
 40
7.008350862928381
100
AcDbArc
 50
165.1690936347942
 51
175.8230253480133
  0
ARC
  5
E9D
330
DEB
100
AcDbEntity
  8
0
  6
Continuous
 62
     7
370
    15
100
AcDbCircle
 10
2133.447094849275
 20
1131.545913495152
 30
0.0
 40
0.3840987829834705
100
AcDbArc
 50
105.108577211807
 51
168.7871131309697
  0
ARC
  5
E9E
330
DEB
100
AcDbEntity
  8
0
  6
Continuous
 62
     7
370
    15
100
AcDbCircle
 10
2133.215108809267
 20
1132.398679820471
 30
0.0
 40
0.4996603105227699
100
AcDbArc
 50
285.3028736375088
 51
350.4477631340309
  0
LINE
  5
E9F
330
DEB
100
AcDbEntity
  8
0
  6
Continuous
 62
     7
370
    15
100
AcDbLine
 10
2133.714500390184
 20
1132.35557519949
 30
0.0
 11
2133.707841188119
 21
1132.315762821356
 31
0.0
  0
ARC
  5
EA0
330
DEB
100
AcDbEntity
  8
0
  6
Continuous
 62
     7
370
    15
100
AcDbCircle
 10
2133.418323843002
 20
1132.375263510942
 30
0.0
 40
0.2968302152894081
100
AcDbArc
 50
356.1968631270955
 51
52.17225619138616
  0
LINE
  5
EA1
330
DEB
100
AcDbEntity
  8
0
  6
Continuous
 62
     7
370
    15
100
AcDbLine
 10
2133.287552814769
 20
1132.854009437298
 30
0.0
 11
2133.600366724417
 21
1132.609717271916
 31
0.0
  0
LWPOLYLINE
  5
EA2
330
DEB
100
AcDbEntity
  8
0
  6
Continuous
 62
     7
370
    15
100
AcDbPolyline
 90
        9
 70
   128
 43
0.0
 10
2133.287552814769
 20
1132.854009437298
 10
2133.267069446393
 20
1132.86763501029
 10
2133.246754665411
 20
1132.876539645473
 10
2133.227282821399
 20
1132.880431388372
 10
2133.20941255763
 20
1132.879115631674
 10
2133.193902517378
 20
1132.872689785814
 10
2133.181258462824
 20
1132.861348576749
 10
2133.171986156153
 20
1132.845627417812
 10
2133.166507065846
 20
1132.826013044802
  0
LINE
  5
EA3
330
DEB
100
AcDbEntity
  8
0
  6
Continuous
 62
     7
370
    15
100
AcDbLine
 10
2133.162039499904
 20
1132.799585019202
 30
0.0
 11
2133.166507065846
 21
1132.826013044802
 31
0.0
  0
LWPOLYLINE
  5
EA4
330
DEB
100
AcDbEntity
  8
0
  6
Continuous
 62
     7
370
    15
100
AcDbPolyline
 90
        9
 70
   128
 43
0.0
 10
2132.993030637375
 20
1132.766717163674
 10
2133.02118473218
 20
1132.746667919945
 10
2133.049423120682
 20
1132.733091744255
 10
2133.076565691124
 20
1132.726669900622
 10
2133.101600919139
 20
1132.727596972632
 10
2133.123517280365
 20
1132.735775526118
 10
2133.141303250436
 20
1132.750962118043
 10
2133.154368773475
 20
1132.772523987913
 10
2133.162039499904
 20
1132.799585019202
  0
LINE
  5
EA5
330
DEB
100
AcDbEntity
  8
0
  6
Continuous
 62
     7
370
    15
100
AcDbLine
 10
2132.569791984629
 20
1133.119386222516
 30
0.0
 11
2132.993030637375
 21
1132.766717163674
 31
0.0
  0
ARC
  5
EA6
330
DEB
100
AcDbEntity
  8
0
  6
Continuous
 62
     7
370
    15
100
AcDbCircle
 10
2132.758488866281
 20
1133.350051402958
 30
0.0
 40
0.2980149972962436
100
AcDbArc
 50
176.1758686728328
 51
230.7149343742337
  0
LINE
  5
EA7
330
DEB
100
AcDbEntity
  8
0
  6
Continuous
 62
     7
370
    15
100
AcDbLine
 10
2132.461137409167
 20
1133.36992725681
 30
0.0
 11
2132.859846596081
 21
1135.750785386497
 31
0.0
  0
LWPOLYLINE
  5
EA8
330
DEB
100
AcDbEntity
  8
0
  6
Continuous
 62
     7
370
    15
100
AcDbPolyline
 90
        9
 70
   128
 43
0.0
 10
2132.859846596081
 20
1135.750785386497
 10
2132.883701712337
 20
1135.84009638684
 10
2132.922813987756
 20
1135.914272565424
 10
2132.975834723183
 20
1135.971123662567
 10
2133.041162338374
 20
1136.00889742149
 10
2133.116942371997
 20
1136.026376927555
 10
2133.200730306836
 20
1136.02312392476
 10
2133.289997331983
 20
1135.99923551507
 10
2133.38204604913
 20
1135.955392820129
  0
LINE
  5
EA9
330
DEB
100
AcDbEntity
  8
0
  6
Continuous
 62
     7
370
    15
100
AcDbLine
 10
2133.38204604913
 20
1135.955392820129
 30
0.0
 11
2141.532993670046
 21
1131.249950916722
 31
0.0
  0
ARC
  5
EAA
330
DEB
100
AcDbEntity
  8
0
  6
Continuous
 62
     7
370
    15
100
AcDbCircle
 10
2141.108377004529
 20
1130.593532672697
 30
0.0
 40
0.781782721555558
100
AcDbArc
 50
14.51842096415714
 51
57.10242082985264
  0
LINE
  5
EAB
330
DEB
100
AcDbEntity
  8
0
  6
Continuous
 62
     7
370
    15
100
AcDbLine
 10
2141.865195130009
 20
1130.789518765744
 30
0.0
 11
2142.820832773145
 21
1127.206015275096
 31
0.0
  0
ARC
  5
EAC
330
DEB
100
AcDbEntity
  8
0
  6
Continuous
 62
     7
370
    15
100
AcDbCircle
 10
2144.334028635052
 20
1127.597739092579
 30
0.0
 40
1.563076858530888
100
AcDbArc
 50
194.5136544025886
 51
237.1100612280433
  0
LINE
  5
EAD
330
DEB
100
AcDbEntity
  8
0
  6
Continuous
 62
     7
370
    15
100
AcDbLine
 10
2144.535788039053
 20
1125.678728682527
 30
0.0
 11
2143.485235693071
 21
1126.285199642765
 31
0.0
  0
LWPOLYLINE
  5
EAE
330
DEB
100
AcDbEntity
  8
0
  6
Continuous
 62
     7
370
    15
100
AcDbPolyline
 90
        9
 70
   128
 43
0.0
 10
2145.232222563847
 20
1125.951441270605
 10
2145.200275252676
 20
1125.832392370049
 10
2145.148181747916
 20
1125.733490803878
 10
2145.077459336115
 20
1125.657705561591
 10
2144.990299653395
 20
1125.607372990838
 10
2144.88940009806
 20
1125.584002103101
 10
2144.777626655809
 20
1125.588371881304
 10
2144.658603955614
 20
1125.620239317433
 10
2144.535788039053
 20
1125.678728682527
  0
LINE
  5
EAF
330
DEB
100
AcDbEntity
  8
0
  6
Continuous
 62
     7
370
    15
100
AcDbLine
 10
2145.335313755305
 20
1126.567462388067
 30
0.0
 11
2145.232222563847
 21
1125.951441270605
 31
0.0
  0
LWPOLYLINE
  5
EB0
330
DEB
100
AcDbEntity
  8
0
  6
Continuous
 62
     7
370
    15
100
AcDbPolyline
 90
        9
 70
   128
 43
0.0
 10
2145.544277830222
 20
1126.649246965879
 10
2145.507441484624
 20
1126.666813244048
 10
2145.471700957086
 20
1126.676397806535
 10
2145.438152065672
 20
1126.677708738415
 10
2145.407890628441
 20
1126.670697472884
 10
2145.381759582364
 20
1126.655558767541
 10
2145.360517570714
 20
1126.632876729069
 10
2145.344923236766
 20
1126.603186794532
 10
2145.335313755305
 20
1126.567462388067
  0
LINE
  5
EB1
330
DEB
100
AcDbEntity
  8
0
  6
Continuous
 62
     7
370
    15
100
AcDbLine
 10
2145.874793416244
 20
1126.458444379415
 30
0.0
 11
2145.544277830222
 21
1126.649246965879
 31
0.0
  0
LWPOLYLINE
  5
EB2
330
DEB
100
AcDbEntity
  8
0
  6
Continuous
 62
     7
370
    15
100
AcDbPolyline
 90
        9
 70
   128
 43
0.0
 10
2145.96321750442
 20
1126.026509754319
 10
2146.007724576448
 20
1126.043012933444
 10
2146.038154601073
 20
1126.081902819192
 10
2146.051220124111
 20
1126.139139524215
 10
2146.045572446411
 20
1126.208590549203
 10
2146.021801623851
 20
1126.28285816652
 10
2145.982436467341
 20
1126.354155473443
 10
2145.931607368037
 20
1126.414841726412
 10
2145.874793416244
 20
1126.458444379415
  0
LINE
  5
EB3
330
DEB
100
AcDbEntity
  8
0
  6
Continuous
 62
     7
370
    15
100
AcDbLine
 10
2145.839474357193
 20
1126.015450138231
 30
0.0
 11
2145.96321750442
 21
1126.026509754319
 31
0.0
  0
LINE
  5
EB4
330
DEB
100
AcDbEntity
  8
0
  6
Continuous
 62
     7
370
    15
100
AcDbLine
 10
2145.839474357193
 20
1125.605846573919
 30
0.0
 11
2145.839474357193
 21
1126.015450138231
 31
0.0
  0
ARC
  5
EB5
330
DEB
100
AcDbEntity
  8
0
  6
Continuous
 62
     7
370
    15
100
AcDbCircle
 10
2146.073982816735
 20
1125.617722496112
 30
0.0
 40
0.2348089758190821
100
AcDbArc
 50
182.8990827505656
 51
228.3833889733906
  0
LINE
  5
EB6
330
DEB
100
AcDbEntity
  8
0
  6
Continuous
 62
     7
370
    15
100
AcDbLine
 10
2146.394126883595
 20
1125.020062342122
 30
0.0
 11
2145.918036082817
 21
1125.442177996611
 31
0.0
  0
ARC
  5
EB7
330
DEB
100
AcDbEntity
  8
0
  6
Continuous
 62
     7
370
    15
100
AcDbCircle
 10
2152.043751525181
 20
1131.32447573428
 30
0.0
 40
8.465452546085444
100
AcDbArc
 50
228.1352734583009
 51
239.6534923381838
  0
LINE
  5
EB8
330
DEB
100
AcDbEntity
  8
0
  6
Continuous
 62
     7
370
    15
100
AcDbLine
 10
2148.05909598717
 20
1123.850152115842
 30
0.0
 11
2147.766765445898
 21
1124.018910945186
 31
0.0
  0
ARC
  5
EB9
330
DEB
100
AcDbEntity
  8
0
  6
Continuous
 62
     7
370
    15
100
AcDbCircle
 10
2147.894652650188
 20
1123.593988729924
 30
0.0
 40
0.3044031723928286
100
AcDbArc
 50
4.131229686743432
 51
57.3016843377777
  0
LINE
  5
EBA
330
DEB
100
AcDbEntity
  8
0
  6
Continuous
 62
     7
370
    15
100
AcDbLine
 10
2148.21731525648
 20
1123.102455512605
 30
0.0
 11
2148.198264880953
 21
1123.61591826919
 31
0.0
  0
LWPOLYLINE
  5
EBB
330
DEB
100
AcDbEntity
  8
0
  6
Continuous
 62
     7
370
    15
100
AcDbPolyline
 90
        9
 70
   128
 43
0.0
 10
2148.076713369848
 20
1123.014058280425
 10
2148.104867464653
 20
1123.001066132326
 10
2148.131925741397
 20
1122.995228316284
 10
2148.156792382019
 20
1122.996690738349
 10
2148.178371568456
 20
1123.005501965324
 10
2148.195820363739
 20
1123.021223891485
 10
2148.208380124595
 20
1123.043272410148
 10
2148.21562938254
 20
1123.070771428515
 10
2148.21731525648
 20
1123.102455512605
  0
LINE
  5
EBC
330
DEB
100
AcDbEntity
  8
0
  6
Continuous
 62
     7
370
    15
100
AcDbLine
 10
2148.05117237965
 20
1123.02880278022
 30
0.0
 11
2148.076713369848
 21
1123.014058280425
 31
0.0
  0
ARC
  5
EBD
330
DEB
100
AcDbEntity
  8
0
  6
Continuous
 62
     7
370
    15
100
AcDbCircle
 10
2148.010425603004
 20
1122.978762585977
 30
0.0
 40
0.0645315492369994
100
AcDbArc
 50
50.84473019593176
 51
189.2460811002904
  0
LINE
  5
EBE
330
DEB
100
AcDbEntity
  8
0
  6
Continuous
 62
     7
370
    15
100
AcDbLine
 10
2147.946732489041
 20
1122.601571011724
 30
0.0
 11
2147.946732489041
 21
1122.968393975629
 31
0.0
  0
ARC
  5
EBF
330
DEB
100
AcDbEntity
  8
0
  6
Continuous
 62
     7
370
    15
100
AcDbCircle
 10
2148.25218114768
 20
1122.615420029035
 30
0.0
 40
0.305762454113365
100
AcDbArc
 50
182.5960080732659
 51
237.3940829737984
  0
LINE
  5
EC0
330
DEB
100
AcDbEntity
  8
0
  6
Continuous
 62
     7
370
    15
100
AcDbLine
 10
2148.125772301515
 20
1122.33570565001
 30
0.0
 11
2148.08741866937
 21
1122.357846730561
 31
0.0
  0
ARC
  5
EC1
330
DEB
100
AcDbEntity
  8
0
  6
Continuous
 62
     7
370
    15
100
AcDbCircle
 10
2148.444285769688
 20
1122.860034112138
 30
0.0
 40
0.6134909661967231
100
AcDbArc
 50
238.7226021951446
 51
295.3005807712564
  0
ARC
  5
EC2
330
DEB
100
AcDbEntity
  8
0
  6
Continuous
 62
     7
370
    15
100
AcDbCircle
 10
2148.909023736933
 20
1121.882422812479
 30
0.0
 40
0.4689657402996507
100
AcDbArc
 50
60.03174938820482
 51
115.5889923821595
  0
ARC
  5
EC3
330
DEB
100
AcDbEntity
  8
0
  6
Continuous
 62
     7
370
    15
100
AcDbCircle
 10
2145.136591860302
 20
1113.919011960629
 30
0.0
 40
9.279280929611436
100
AcDbArc
 50
55.58651263718293
 51
64.41886389551327
  0
ARC
  5
EC4
330
DEB
100
AcDbEntity
  8
0
  6
Continuous
 62
     7
370
    15
100
AcDbCircle
 10
2149.509347383736
 20
1120.354073252598
 30
0.0
 40
1.499457548676641
100
AcDbArc
 50
29.24425884344533
 51
54.46268861526664
  0
ARC
  5
EC5
330
DEB
100
AcDbEntity
  8
0
  6
Continuous
 62
     7
370
    15
100
AcDbCircle
 10
2152.48909054289
 20
1122.019311671049
 30
0.0
 40
1.914029530213439
100
AcDbArc
 50
209.1631391667082
 51
235.2575263833056
  0
LINE
  5
EC6
330
DEB
100
AcDbEntity
  8
0
  6
Continuous
 62
     7
370
    15
100
AcDbLine
 10
2151.398306500991
 20
1120.446511869273
 30
0.0
 11
2151.436744426833
 21
1120.424322127006
 31
0.0
  0
ARC
  5
EC7
330
DEB
100
AcDbEntity
  8
0
  6
Continuous
 62
     7
370
    15
100
AcDbCircle
 10
2151.491661993139
 20
1120.491663874501
 30
0.0
 40
0.0868956273037683
100
AcDbArc
 50
230.8025664843384
 51
9.237909343916156
  0
LINE
  5
EC8
330
DEB
100
AcDbEntity
  8
0
  6
Continuous
 62
     7
370
    15
100
AcDbLine
 10
2151.577430607163
 20
1120.50561360184
 30
0.0
 11
2151.577430607163
 21
1120.872436565745
 31
0.0
  0
ARC
  5
EC9
330
DEB
100
AcDbEntity
  8
0
  6
Continuous
 62
     7
370
    15
100
AcDbCircle
 10
2151.350586902491
 20
1120.86216242312
 30
0.0
 40
0.2270762522937459
100
AcDbArc
 50
2.593252427429796
 51
57.40674771830277
  0
LINE
  5
ECA
330
DEB
100
AcDbEntity
  8
0
  6
Continuous
 62
     7
370
    15
100
AcDbLine
 10
2151.472906422855
 20
1121.053477763053
 30
0.0
 11
2151.447449726355
 21
1121.068173601133
 31
0.0
  0
ARC
  5
ECB
330
DEB
100
AcDbEntity
  8
0
  6
Continuous
 62
     7
370
    15
100
AcDbCircle
 10
2151.610533333022
 20
1121.324413618411
 30
0.0
 40
0.3037354263470392
100
AcDbArc
 50
181.038938621675
 51
237.5253419111903
  0
LINE
  5
ECC
330
DEB
100
AcDbEntity
  8
0
  6
Continuous
 62
     7
370
    15
100
AcDbLine
 10
2151.306847839723
 20
1121.318906316211
 30
0.0
 11
2151.32589821525
 21
1121.810373977391
 31
0.0
  0
ARC
  5
ECD
330
DEB
100
AcDbEntity
  8
0
  6
Continuous
 62
     7
370
    15
100
AcDbCircle
 10
2151.410610764401
 20
1121.818526624164
 30
0.0
 40
0.0851039460491514
100
AcDbArc
 50
50.21710030258716
 51
185.497155933306
  0
LINE
  5
ECE
330
DEB
100
AcDbEntity
  8
0
  6
Continuous
 62
     7
370
    15
100
AcDbLine
 10
2151.465067109032
 20
1121.883926839473
 30
0.0
 11
2151.757397650304
 21
1121.71516801013
 31
0.0
  0
ARC
  5
ECF
330
DEB
100
AcDbEntity
  8
0
  6
Continuous
 62
     7
370
    15
100
AcDbCircle
 10
2154.669013639367
 20
1126.65694780301
 30
0.0
 40
5.735738417073206
100
AcDbArc
 50
239.4941022013981
 51
254.4351767447752
  0
LINE
  5
ED0
330
DEB
100
AcDbEntity
  8
0
  6
Continuous
 62
     7
370
    15
100
AcDbLine
 10
2153.12995191891
 20
1121.131553318477
 30
0.0
 11
2153.606127013386
 21
1121.003937572996
 31
0.0
  0
LWPOLYLINE
  5
ED1
330
DEB
100
AcDbEntity
  8
0
  6
Continuous
 62
     7
370
    15
100
AcDbPolyline
 90
        9
 70
   128
 43
0.0
 10
2153.68468873901
 20
1121.076900712619
 10
2153.683255746161
 20
1121.057773415517
 10
2153.679125355007
 20
1121.040738659186
 10
2153.672213271851
 20
1121.026380471218
 10
2153.662772377785
 20
1121.014990893091
 10
2153.651139847596
 20
1121.006861974193
 10
2153.637568562375
 20
1121.002237086379
 10
2153.622395696911
 20
1121.001310939786
 10
2153.606127013386
 20
1121.003937572996
  0
LINE
  5
ED2
330
DEB
100
AcDbEntity
  8
0
  6
Continuous
 62
     7
370
    15
100
AcDbLine
 10
2153.68468873901
 20
1121.076900712619
 30
0.0
 11
2153.68468873901
 21
1121.486504276931
 31
0.0
  0
LINE
  5
ED3
330
DEB
100
AcDbEntity
  8
0
  6
Continuous
 62
     7
370
    15
100
AcDbLine
 10
2153.68468873901
 20
1121.486504276931
 30
0.0
 11
2153.560945591783
 21
1121.640434689718
 31
0.0
  0
LWPOLYLINE
  5
ED4
330
DEB
100
AcDbEntity
  8
0
  6
Continuous
 62
     7
370
    15
100
AcDbPolyline
 90
        9
 70
   128
 43
0.0
 10
2153.560945591783
 20
1121.640434689718
 10
2153.516438519755
 20
1121.708324640407
 10
2153.48600849513
 20
1121.782348284745
 10
2153.472942972092
 20
1121.854670121571
 10
2153.478590649792
 20
1121.917600476683
 10
2153.502361472352
 20
1121.964422886459
 10
2153.541726628861
 20
1121.990270151109
 10
2153.592555728165
 20
1121.992270375188
 10
2153.649369679958
 20
1121.970277035702
  0
LINE
  5
ED5
330
DEB
100
AcDbEntity
  8
0
  6
Continuous
 62
     7
370
    15
100
AcDbLine
 10
2153.649369679958
 20
1121.970277035702
 30
0.0
 11
2153.979885265981
 21
1121.779474449238
 31
0.0
  0
ARC
  5
ED6
330
DEB
100
AcDbEntity
  8
0
  6
Continuous
 62
     7
370
    15
100
AcDbCircle
 10
2153.725124573424
 20
1121.385574058857
 30
0.0
 40
0.4691060946253359
100
AcDbArc
 50
8.686860187920373
 51
57.10665527547398
  0
LINE
  5
ED7
330
DEB
100
AcDbEntity
  8
0
  6
Continuous
 62
     7
370
    15
100
AcDbLine
 10
2154.188849340897
 20
1121.456425085992
 30
0.0
 11
2154.291940532355
 21
1120.721377412425
 31
0.0
  0
ARC
  5
ED8
330
DEB
100
AcDbEntity
  8
0
  6
Continuous
 62
     7
370
    15
100
AcDbCircle
 10
2155.838143295926
 20
1120.957791743752
 30
0.0
 40
1.564172216263996
100
AcDbArc
 50
188.6931949699613
 51
237.0934620091277
  0
LINE
  5
ED9
330
DEB
100
AcDbEntity
  8
0
  6
Continuous
 62
     7
370
    15
100
AcDbLine
 10
2154.988375057149
 20
1119.644578637475
 30
0.0
 11
2156.038843109435
 21
1119.038156338953
 31
0.0
  0
LWPOLYLINE
  5
EDA
330
DEB
100
AcDbEntity
  8
0
  6
Continuous
 62
     7
370
    15
100
AcDbPolyline
 90
        9
 70
   128
 43
0.0
 10
2156.703330323058
 20
1119.191820026474
 10
2156.65882325103
 20
1119.104064516295
 10
2156.599901956812
 20
1119.033731379348
 10
2156.527830845858
 20
1118.982572840778
 10
2156.444464379504
 20
1118.951659806344
 10
2156.351657019083
 20
1118.941771164058
 10
2156.251516107021
 20
1118.953150459783
 10
2156.146486160531
 20
1118.985505905145
 10
2156.038843109435
 20
1119.038156338953
  0
LINE
  5
EDB
330
DEB
100
AcDbEntity
  8
0
  6
Continuous
 62
     7
370
    15
100
AcDbLine
 10
2156.703330323058
 20
1119.191820026474
 30
0.0
 11
2157.658967966193
 21
1121.671967779944
 31
0.0
  0
LWPOLYLINE
  5
EDC
330
DEB
100
AcDbEntity
  8
0
  6
Continuous
 62
     7
370
    15
100
AcDbPolyline
 90
        9
 70
   128
 43
0.0
 10
2157.658967966193
 20
1121.671967779944
 10
2157.681221502207
 20
1121.715869869846
 10
2157.710724296165
 20
1121.751012107462
 10
2157.746717704793
 20
1121.776615707605
 10
2157.788358791122
 20
1121.79209655568
 10
2157.834804618181
 20
1121.797016545965
 10
2157.884875074212
 20
1121.791278228477
 10
2157.937390047456
 20
1121.775124840609
 10
2157.991169426157
 20
1121.748848289375
  0
LINE
  5
EDD
330
DEB
100
AcDbEntity
  8
0
  6
Continuous
 62
     7
370
    15
100
AcDbLine
 10
2157.991169426157
 20
1121.748848289375
 30
0.0
 11
2166.142032753375
 21
1117.043455047683
 31
0.0
  0
ARC
  5
EDE
330
DEB
100
AcDbEntity
  8
0
  6
Continuous
 62
     7
370
    15
100
AcDbCircle
 10
2165.504918695003
 20
1116.058737581063
 30
0.0
 40
1.172852425687687
100
AcDbArc
 50
8.686958031419411
 51
57.09705663440068
  0
LINE
  5
EDF
330
DEB
100
AcDbEntity
  8
0
  6
Continuous
 62
     7
370
    15
100
AcDbLine
 10
2166.664316500122
 20
1116.235880297328
 30
0.0
 11
2167.063025687035
 21
1113.39468233904
 31
0.0
  0
LWPOLYLINE
  5
EE0
330
DEB
100
AcDbEntity
  8
0
  6
Continuous
 62
     7
370
    15
100
AcDbPolyline
 90
        9
 70
   128
 43
0.0
 10
2167.063025687035
 20
1113.39468233904
 10
2167.065133029461
 20
1113.362414575379
 10
2167.062182750065
 20
1113.333212523523
 10
2167.054090555151
 20
1113.308146907313
 10
2167.041362206901
 20
1113.288093827457
 10
2167.024334880102
 20
1113.273783359969
 10
2167.003598630635
 20
1113.265848265341
 10
2166.979996395469
 20
1113.264434631544
 10
2166.954371111574
 20
1113.269591207298
  0
LINE
  5
EE1
330
DEB
100
AcDbEntity
  8
0
  6
Continuous
 62
     7
370
    15
100
AcDbLine
 10
2166.954371111574
 20
1113.269591207298
 30
0.0
 11
2166.531132458827
 21
1113.405583095475
 31
0.0
  0
ARC
  5
EE2
330
DEB
100
AcDbEntity
  8
0
  6
Continuous
 62
     7
370
    15
100
AcDbCircle
 10
2166.652270256694
 20
1113.672018656595
 30
0.0
 40
0.2926811820077293
100
AcDbArc
 50
187.5457451297702
 51
245.5505696316402
  0
LINE
  5
EE3
330
DEB
100
AcDbEntity
  8
0
  6
Continuous
 62
     7
370
    15
100
AcDbLine
 10
2166.362123596299
 20
1113.633584430146
 30
0.0
 11
2166.357656030357
 21
1113.665170597589
 31
0.0
  0
ARC
  5
EE4
330
DEB
100
AcDbEntity
  8
0
  6
Continuous
 62
     7
370
    15
100
AcDbCircle
 10
2166.139305255207
 20
1113.635162826073
 30
0.0
 40
0.2204031019747786
100
AcDbArc
 50
7.825094987353702
 51
63.80122648127439
  0
LINE
  5
EE5
330
DEB
100
AcDbEntity
  8
0
  6
Continuous
 62
     7
370
    15
100
AcDbLine
 10
2166.236610281433
 20
1113.832923436993
 30
0.0
 11
2165.923796371786
 21
1113.949798524028
 31
0.0
  0
LWPOLYLINE
  5
EE6
330
DEB
100
AcDbEntity
  8
0
  6
Continuous
 62
     7
370
    15
100
AcDbPolyline
 90
        9
 70
   128
 43
0.0
 10
2165.809662706018
 20
1113.827432377167
 10
2165.807555363593
 20
1113.860430185204
 10
2165.810842817776
 20
1113.890167634574
 10
2165.819440774872
 20
1113.915476646366
 10
2165.832927766397
 20
1113.935432458158
 10
2165.850882323862
 20
1113.9492563164
 10
2165.872630097694
 20
1113.956364122317
 10
2165.897243857224
 20
1113.956561110403
 10
2165.923796371786
 20
1113.949798524028
  0
LINE
  5
EE7
330
DEB
100
AcDbEntity
  8
0
  6
Continuous
 62
     7
370
    15
100
AcDbLine
 10
2165.809662706018
 20
1113.827432377167
 30
0.0
 11
2165.816321908083
 21
1113.779931447985
 31
0.0
  0
ARC
  5
EE8
330
DEB
100
AcDbEntity
  8
0
  6
Continuous
 62
     7
370
    15
100
AcDbCircle
 10
2167.876323025351
 20
1114.203538717684
 30
0.0
 40
2.103104306040146
100
AcDbArc
 50
191.6200090680163
 51
216.1029087518421
  0
ARC
  5
EE9
330
DEB
100
AcDbEntity
  8
0
  6
Continuous
 62
     7
370
    15
100
AcDbCircle
 10
2164.848873460598
 20
1111.997217833186
 30
0.0
 40
1.643000973964712
100
AcDbArc
 50
12.35311387071293
 51
36.05870837766558
  0
ARC
  5
EEA
330
DEB
100
AcDbEntity
  8
0
  6
Continuous
 62
     7
370
    15
100
AcDbCircle
 10
2154.948418550775
 20
1109.95372754879
 30
0.0
 40
11.75204558532921
100
AcDbArc
 50
4.213556732848513
 51
11.75886528489424
  0
ARC
  5
EEB
330
DEB
100
AcDbEntity
  8
0
  6
Continuous
 62
     7
370
    15
100
AcDbCircle
 10
2166.060133460254
 20
1110.730974066273
 30
0.0
 40
0.614644412072337
100
AcDbArc
 50
321.8936310741275
 51
8.064326801260335
  0
ARC
  5
EEC
330
DEB
100
AcDbEntity
  8
0
  6
Continuous
 62
     7
370
    15
100
AcDbCircle
 10
2167.178786078583
 20
1109.857857490827
 30
0.0
 40
0.8044132539959509
100
AcDbArc
 50
142.1301421596979
 51
189.1217687194127
  0
LINE
  5
EED
330
DEB
100
AcDbEntity
  8
0
  6
Continuous
 62
     7
370
    15
100
AcDbLine
 10
2166.384545719707
 20
1109.730331275736
 30
0.0
 11
2166.391204921771
 21
1109.682830346554
 31
0.0
  0
ARC
  5
EEE
330
DEB
100
AcDbEntity
  8
0
  6
Continuous
 62
     7
370
    15
100
AcDbCircle
 10
2166.685389174094
 20
1109.723347621937
 30
0.0
 40
0.2969613172102832
100
AcDbArc
 50
187.8418716730145
 51
243.789230069661
  0
LINE
  5
EEF
330
DEB
100
AcDbEntity
  8
0
  6
Continuous
 62
     7
370
    15
100
AcDbLine
 10
2166.554228931812
 20
1109.456921244182
 30
0.0
 11
2166.867127135156
 21
1109.339997495431
 31
0.0
  0
LWPOLYLINE
  5
EF0
330
DEB
100
AcDbEntity
  8
0
  6
Continuous
 62
     7
370
    15
100
AcDbPolyline
 90
        9
 70
   128
 43
0.0
 10
2166.951842300663
 20
1109.430871634463
 10
2166.953443880907
 20
1109.406342293726
 10
2166.950999363693
 20
1109.384294724208
 10
2166.94459304272
 20
1109.365507647818
 10
2166.934562092774
 20
1109.350662470947
 10
2166.921243688645
 20
1109.340391930357
 10
2166.905059298816
 20
1109.335134092221
 10
2166.886851860259
 20
1109.334986374885
 10
2166.867127135156
 20
1109.339997495431
  0
LINE
  5
EF1
330
DEB
100
AcDbEntity
  8
0
  6
Continuous
 62
     7
370
    15
100
AcDbLine
 10
2166.951842300663
 20
1109.430871634463
 30
0.0
 11
2166.947459028418
 21
1109.462409140191
 31
0.0
  0
LWPOLYLINE
  5
EF2
330
DEB
100
AcDbEntity
  8
0
  6
Continuous
 62
     7
370
    15
100
AcDbPolyline
 90
        9
 70
   128
 43
0.0
 10
2166.947459028418
 20
1109.462409140191
 10
2166.945351685993
 20
1109.496234331853
 10
2166.948976314964
 20
1109.526653187612
 10
2166.95816432794
 20
1109.552302942146
 10
2166.972494256434
 20
1109.572258833033
 10
2166.991544631961
 20
1109.585547428225
 10
2167.014303930157
 20
1109.591876615055
 10
2167.040097801445
 20
1109.590710964374
 10
2167.067661840372
 20
1109.582342375287
  0
LINE
  5
EF3
330
DEB
100
AcDbEntity
  8
0
  6
Continuous
 62
     7
370
    15
100
AcDbLine
 10
2167.067661840372
 20
1109.582342375287
 30
0.0
 11
2167.497475401485
 21
1109.399530924767
 31
0.0
  0
ARC
  5
EF4
330
DEB
100
AcDbEntity
  8
0
  6
Continuous
 62
     7
370
    15
100
AcDbCircle
 10
2167.355800223672
 20
1109.132373155551
 30
0.0
 40
0.3023989577719956
100
AcDbArc
 50
8.091170342349265
 51
62.06275619881111
  0
LINE
  5
EF5
330
DEB
100
AcDbEntity
  8
0
  6
Continuous
 62
     7
370
    15
100
AcDbLine
 10
2167.655188908613
 20
1109.174935403971
 30
0.0
 11
2167.988233305546
 21
1106.801641059257
 31
0.0
  0
ARC
  5
EF6
330
DEB
100
AcDbEntity
  8
0
  6
Continuous
 62
     7
370
    15
100
AcDbCircle
 10
2170.171823425546
 20
1118.75288433548
 30
0.0
 40
1.172852425687697
100
AcDbArc
 50
8.686958031419411
 51
57.09705663440068
  0
LINE
  5
EF7
330
DEB
100
AcDbEntity
  8
0
  6
Continuous
 62
     7
370
    15
100
AcDbLine
 10
2166.664316500122
 20
1116.235880297328
 30
0.0
 11
2171.331221230666
 21
1118.930027051745
 31
0.0
  0
LINE
  5
EF8
330
DEB
100
AcDbEntity
  8
0
  6
Continuous
 62
     7
370
    15
100
AcDbLine
 10
2166.142032753375
 20
1117.043455047683
 30
0.0
 11
2170.808937483919
 21
1119.737601802099
 31
0.0
  0
LINE
  5
EF9
330
DEB
100
AcDbEntity
  8
0
  6
Continuous
 62
     7
370
    15
100
AcDbLine
 10
2171.331221230666
 20
1118.930027051745
 30
0.0
 11
2171.729930417578
 21
1116.088829093456
 31
0.0
  0
LINE
  5
EFA
330
DEB
100
AcDbEntity
  8
0
  6
Continuous
 62
     7
370
    15
100
AcDbLine
 10
2167.063025687035
 20
1113.39468233904
 30
0.0
 11
2171.729930417578
 21
1116.088829093456
 31
0.0
  0
SPLINE
  5
EFB
330
DEB
100
AcDbEntity
  8
0
  6
Continuous
 62
     7
370
    15
100
AcDbSpline
210
0.0
220
0.0
230
1.0
 70
     8
 71
     3
 72
     9
 73
     5
 74
     0
 42
0.0000000001
 43
0.0000000001
 40
0.0
 40
0.0
 40
0.0
 40
0.0
 40
0.6211021089609809
 40
1.0
 40
1.0
 40
1.0
 40
1.0
 10
2166.162390669023
 20
1121.894323058108
 30
0.0
 10
2166.270088542052
 20
1121.873053894975
 30
0.0
 10
2166.443486557412
 20
1121.838809665522
 30
0.0
 10
2166.578786795833
 20
1121.768468986566
 30
0.0
 10
2166.630051770827
 20
1121.741817051655
 30
0.0
  0
LWPOLYLINE
  5
EFC
330
DEB
100
AcDbEntity
  8
0
  6
Continuous
 62
     7
370
    15
100
AcDbPolyline
 90
       18
 70
   128
 43
0.0
 10
2166.162390669023
 20
1121.894323058108
 10
2165.793702385959
 20
1121.933551528979
 10
2165.419400175601
 20
1121.946862789185
 10
2165.045085370579
 20
1121.93398677571
 10
2164.676269741471
 20
1121.895088339618
 10
2164.318164350969
 20
1121.830840001024
 10
2163.976222606142
 20
1121.742054182476
 10
2163.655247724838
 20
1121.630141194581
 10
2163.360098139744
 20
1121.496640546225
 10
2163.094958119185
 20
1121.343578470375
 10
2162.863703156433
 20
1121.173192241672
 10
2162.669843170238
 20
1120.987897386807
 10
2162.516044957164
 20
1120.79049861927
 10
2162.404751511542
 20
1120.583768777701
 10
2162.337370142984
 20
1120.370856046992
 10
2162.315065816724
 20
1120.154768709601
 10
2162.338124094127
 20
1119.938688642955
 10
2162.406077161636
 20
1119.725849427553
  0
SPLINE
  5
EFD
330
DEB
100
AcDbEntity
  8
0
  6
Continuous
 62
     7
370
    15
100
AcDbSpline
210
0.0
220
0.0
230
1.0
 70
     8
 71
     3
 72
     9
 73
     5
 74
     0
 42
0.0000000001
 43
0.0000000001
 40
0.0
 40
0.0
 40
0.0
 40
0.0
 40
0.6211566368611491
 40
1.0
 40
1.0
 40
1.0
 40
1.0
 10
2162.670253937374
 20
1119.45587442006
 30
0.0
 10
2162.597032530284
 20
1119.506190382308
 30
0.0
 10
2162.479153395223
 20
1119.587194044285
 30
0.0
 10
2162.426155182706
 20
1119.687753242649
 30
0.0
 10
2162.406077161636
 20
1119.725849427553
 30
0.0
  0
LINE
  5
EFE
330
DEB
100
AcDbEntity
  8
0
  6
Continuous
 62
     7
370
    15
100
AcDbLine
 10
2162.670253937374
 20
1119.45587442006
 30
0.0
 11
2164.203050524019
 21
1118.571009785464
 31
0.0
  0
SPLINE
  5
EFF
330
DEB
100
AcDbEntity
  8
0
  6
Continuous
 62
     7
370
    15
100
AcDbSpline
210
0.0
220
0.0
230
1.0
 70
     8
 71
     3
 72
     9
 73
     5
 74
     0
 42
0.0000000001
 43
0.0000000001
 40
0.0
 40
0.0
 40
0.0
 40
0.0
 40
0.6210244822690588
 40
0.9999999999999998
 40
0.9999999999999998
 40
0.9999999999999998
 40
0.9999999999999998
 10
2164.670627332126
 20
1118.418552440727
 30
0.0
 10
2164.562957982458
 20
1118.439805110647
 30
0.0
 10
2164.389584222257
 20
1118.47402706248
 30
0.0
 10
2164.254314454346
 20
1118.544356609116
 30
0.0
 10
2164.203050524019
 20
1118.571009785464
 30
0.0
  0
LWPOLYLINE
  5
F00
330
DEB
100
AcDbEntity
  8
0
  6
Continuous
 62
     7
370
    15
100
AcDbPolyline
 90
       18
 70
   128
 43
0.0
 10
2164.670627332126
 20
1118.418552440727
 10
2165.039399908887
 20
1118.37927530814
 10
2165.413702119245
 20
1118.365964047934
 10
2165.78793263057
 20
1118.378888723125
 10
2166.156832553375
 20
1118.417738497502
 10
2166.514853650181
 20
1118.482035497811
 10
2166.856879688704
 20
1118.570772654643
 10
2167.177854570008
 20
1118.682685642539
 10
2167.473004155103
 20
1118.816186290894
 10
2167.738144175661
 20
1118.969248366745
 10
2167.969399138414
 20
1119.139634595447
 10
2168.163259124609
 20
1119.324929450312
 10
2168.316973043985
 20
1119.522376879565
 10
2168.428350783305
 20
1119.729058059418
 10
2168.495647858166
 20
1119.942019451843
 10
2168.518036478122
 20
1120.158058127518
 10
2168.494978200719
 20
1120.374138194164
 10
2168.426940839513
 20
1120.587026071282
  0
SPLINE
  5
F01
330
DEB
100
AcDbEntity
  8
0
  6
Continuous
 62
     7
370
    15
100
AcDbSpline
210
0.0
220
0.0
230
1.0
 70
     8
 71
     3
 72
     9
 73
     5
 74
     0
 42
0.0000000001
 43
0.0000000001
 40
0.0
 40
0.0
 40
0.0
 40
0.0
 40
0.6212803240801269
 40
1.0
 40
1.0
 40
1.0
 40
1.0
 10
2168.162848357471
 20
1120.856952417059
 30
0.0
 10
2168.236079536713
 20
1120.806638641147
 30
0.0
 10
2168.35395093293
 20
1120.725654624814
 30
0.0
 10
2168.406891286112
 20
1120.62510586501
 30
0.0
 10
2168.426940839513
 20
1120.587026071282
 30
0.0
  0
LINE
  5
F02
330
DEB
100
AcDbEntity
  8
0
  6
Continuous
 62
     7
370
    15
100
AcDbLine
 10
2168.162848357471
 20
1120.856952417059
 30
0.0
 11
2166.630051770827
 21
1121.741817051655
 31
0.0
  0
LINE
  5
F03
330
DEB
100
AcDbEntity
  8
0
  6
Continuous
 62
     7
370
    15
100
AcDbLine
 10
2162.022411106919
 20
1123.666984195659
 30
0.0
 11
2159.335405293102
 21
1122.11580875704
 31
0.0
  0
LINE
  5
F04
330
DEB
100
AcDbEntity
  8
0
  6
Continuous
 62
     7
370
    15
100
AcDbLine
 10
2159.335405293102
 20
1122.11580875704
 30
0.0
 11
2161.445445116951
 21
1120.897708694721
 31
0.0
  0
LINE
  5
F05
330
DEB
100
AcDbEntity
  8
0
  6
Continuous
 62
     7
370
    15
100
AcDbLine
 10
2161.445445116951
 20
1120.897708694721
 30
0.0
 11
2164.132450930768
 21
1122.44888413334
 31
0.0
  0
LINE
  5
F06
330
DEB
100
AcDbEntity
  8
0
  6
Continuous
 62
     7
370
    15
100
AcDbLine
 10
2162.022411106919
 20
1123.666984195659
 30
0.0
 11
2164.132450930768
 21
1122.44888413334
 31
0.0
  0
LINE
  5
F07
330
DEB
100
AcDbEntity
  8
0
  6
Continuous
 62
     7
370
    15
100
AcDbLine
 10
2157.991169426157
 20
1121.748848289375
 30
0.0
 11
2162.6580741567
 21
1124.442995043792
 31
0.0
  0
LINE
  5
F08
330
DEB
100
AcDbEntity
  8
0
  6
Continuous
 62
     7
370
    15
100
AcDbLine
 10
2162.6580741567
 20
1124.442995043792
 30
0.0
 11
2170.808937483919
 21
1119.737601802099
 31
0.0
  0
ARC
  5
F09
330
DEB
100
AcDbEntity
  8
0
  6
Continuous
 62
     7
370
    15
100
AcDbCircle
 10
2171.625313828635
 20
1116.05577633332
 30
0.0
 40
0.1097137896291753
100
AcDbArc
 50
306.5490411160966
 51
17.5335076013447
  0
LINE
  5
F0A
330
DEB
100
AcDbEntity
  8
0
  6
Continuous
 62
     7
370
    15
100
AcDbLine
 10
2170.838522431303
 20
1111.823333826659
 30
0.0
 11
2171.333497160485
 21
1112.109076655609
 31
0.0
  0
ARC
  5
F0B
330
DEB
100
AcDbEntity
  8
0
  6
Continuous
 62
     7
370
    15
100
AcDbCircle
 10
2161.620994523663
 20
1112.538322306569
 30
0.0
 40
9.245216560715428
100
AcDbArc
 50
355.5645422156075
 51
4.263248745077626
  0
LINE
  5
F0C
330
DEB
100
AcDbEntity
  8
0
  6
Continuous
 62
     7
370
    15
100
AcDbLine
 10
2166.668699772367
 20
1110.817199335499
 30
0.0
 11
2170.840629773729
 21
1113.225603260966
 31
0.0
  0
LINE
  5
F0D
330
DEB
100
AcDbEntity
  8
0
  6
Continuous
 62
     7
370
    15
100
AcDbLine
 10
2166.453835138659
 20
1112.348714934747
 30
0.0
 11
2170.625765140021
 21
1114.757118860214
 31
0.0
  0
ARC
  5
F0E
330
DEB
100
AcDbEntity
  8
0
  6
Continuous
 62
     7
370
    15
100
AcDbCircle
 10
2157.610316033755
 20
1112.076146492211
 30
0.0
 40
13.28869926952193
100
AcDbArc
 50
11.6392129832246
 51
13.96817040041043
  0
ARC
  5
F0F
330
DEB
100
AcDbEntity
  8
0
  6
Continuous
 62
     7
370
    15
100
AcDbCircle
 10
2160.5229627672
 20
1112.816696723597
 30
0.0
 40
10.83366881665764
100
AcDbArc
 50
356.2549596099085
 51
14.7203782377296
  0
LINE
  5
F10
330
DEB
100
AcDbEntity
  8
0
  6
Continuous
 62
     7
370
    15
100
AcDbLine
 10
2165.816321908083
 20
1113.779931447985
 30
0.0
 11
2166.037165632015
 21
1113.907421816102
 31
0.0
  0
ARC
  5
F11
330
DEB
100
AcDbEntity
  8
0
  6
Continuous
 62
     7
370
    15
100
AcDbCircle
 10
2169.038269663657
 20
1114.410940078249
 30
0.0
 40
1.624802029958616
100
AcDbArc
 50
12.30168108114012
 51
30.7765485040899
  0
LINE
  5
F12
330
DEB
100
AcDbEntity
  8
0
  6
Continuous
 62
     7
370
    15
100
AcDbLine
 10
2172.65513803609
 20
1109.495787813673
 30
0.0
 11
2167.988233305546
 21
1106.801641059257
 31
0.0
  0
LINE
  5
F13
330
DEB
100
AcDbEntity
  8
0
  6
Continuous
 62
     7
370
    15
100
AcDbLine
 10
2167.655188908613
 20
1109.174935403971
 30
0.0
 11
2172.322093639156
 21
1111.869082158388
 31
0.0
  0
LINE
  5
F14
330
DEB
100
AcDbEntity
  8
0
  6
Continuous
 62
     7
370
    15
100
AcDbLine
 10
2172.322093639156
 20
1111.869082158388
 30
0.0
 11
2172.65513803609
 21
1109.495787813673
 31
0.0
  0
LINE
  5
F15
330
DEB
100
AcDbEntity
  8
0
  6
Continuous
 62
     7
370
    15
100
AcDbLine
 10
2167.497475401485
 20
1109.399530924767
 30
0.0
 11
2172.164380132029
 21
1112.093677679184
 31
0.0
  0
ARC
  5
F16
330
DEB
100
AcDbEntity
  8
0
  6
Continuous
 62
     7
370
    15
100
AcDbCircle
 10
2172.022704954215
 20
1111.826519909967
 30
0.0
 40
0.3023989577719087
100
AcDbArc
 50
8.091170342349265
 51
62.06275619882263
  0
LINE
  5
F17
330
DEB
100
AcDbEntity
  8
0
  6
Continuous
 62
     7
370
    15
100
AcDbLine
 10
2167.067661840372
 20
1109.582342375287
 30
0.0
 11
2171.734566570915
 21
1112.276489129703
 31
0.0
  0
LINE
  5
F18
330
DEB
100
AcDbEntity
  8
0
  6
Continuous
 62
     7
370
    15
100
AcDbLine
 10
2171.734566570915
 20
1112.276489129703
 30
0.0
 11
2172.164380132029
 21
1112.093677679184
 31
0.0
  0
LINE
  5
F19
330
DEB
100
AcDbEntity
  8
0
  6
Continuous
 62
     7
370
    15
100
AcDbLine
 10
2166.543776513381
 20
1110.351662650081
 30
0.0
 11
2170.715706514743
 21
1112.760066575548
 31
0.0
  0
ARC
  5
F1A
330
DEB
100
AcDbEntity
  8
0
  6
Continuous
 62
     7
370
    15
100
AcDbCircle
 10
2170.232063461616
 20
1113.13937799174
 30
0.0
 40
0.6146444120723221
100
AcDbArc
 50
321.8936310741275
 51
8.064326801260335
  0
ARC
  5
F1B
330
DEB
100
AcDbEntity
  8
0
  6
Continuous
 62
     7
370
    15
100
AcDbCircle
 10
2171.693323378266
 20
1112.197817461582
 30
0.0
 40
0.0888269795994483
100
AcDbArc
 50
62.33446976381165
 51
116.7144325762053
  0
ARC
  5
F1C
330
DEB
100
AcDbEntity
  8
0
  6
Continuous
 62
     7
370
    15
100
AcDbCircle
 10
2171.350716079945
 20
1112.266261416294
 30
0.0
 40
0.8044132539959393
100
AcDbArc
 50
142.1301421596979
 51
189.1217687194106
  0
LINE
  5
F1D
330
DEB
100
AcDbEntity
  8
0
  6
Continuous
 62
     7
370
    15
100
AcDbLine
 10
2166.384545719707
 20
1109.730331275736
 30
0.0
 11
2170.556475721068
 21
1112.138735201203
 31
0.0
  0
LINE
  5
F1E
330
DEB
100
AcDbEntity
  8
0
  6
Continuous
 62
     7
370
    15
100
AcDbLine
 10
2166.554228931812
 20
1109.456921244182
 30
0.0
 11
2170.726158933173
 21
1111.865325169649
 31
0.0
  0
LINE
  5
F1F
330
DEB
100
AcDbEntity
  8
0
  6
Continuous
 62
     7
370
    15
100
AcDbLine
 10
2170.838522431303
 20
1111.823333826659
 30
0.0
 11
2170.726158933173
 21
1111.865325169649
 31
0.0
  0
LINE
  5
F20
330
DEB
100
AcDbEntity
  8
0
  6
Continuous
 62
     7
370
    15
100
AcDbLine
 10
2171.333497160485
 20
1112.109076655609
 30
0.0
 11
2171.351030249465
 21
1112.102507901413
 31
0.0
  0
ARC
  5
F21
330
DEB
100
AcDbEntity
  8
0
  6
Continuous
 62
     7
370
    15
100
AcDbCircle
 10
2170.857319175456
 20
1112.131751547404
 30
0.0
 40
0.2969613172103118
100
AcDbArc
 50
187.8418716730145
 51
243.789230069661
  0
LINE
  5
F22
330
DEB
100
AcDbEntity
  8
0
  6
Continuous
 62
     7
370
    15
100
AcDbLine
 10
2166.391204921771
 20
1109.682830346554
 30
0.0
 11
2170.563134923133
 21
1112.091234272021
 31
0.0
  0
LINE
  5
F23
330
DEB
100
AcDbEntity
  8
0
  6
Continuous
 62
     7
370
    15
100
AcDbLine
 10
2170.563134923133
 20
1112.091234272021
 30
0.0
 11
2170.556475721068
 21
1112.138735201203
 31
0.0
  0
ARC
  5
F24
330
DEB
100
AcDbEntity
  8
0
  6
Continuous
 62
     7
370
    15
100
AcDbCircle
 10
2172.518936665946
 20
1109.456274268896
 30
0.0
 40
0.1418172537101019
100
AcDbArc
 50
307.8702611952282
 51
16.17803658835172
  0
LINE
  5
F25
330
DEB
100
AcDbEntity
  8
0
  6
Continuous
 62
     7
370
    15
100
AcDbLine
 10
2172.534176580863
 20
1109.181954721244
 30
0.0
 11
2167.86727185032
 21
1106.487807966828
 31
0.0
  0
ARC
  5
F26
330
DEB
100
AcDbEntity
  8
0
  6
Continuous
 62
     7
370
    15
100
AcDbCircle
 10
2172.67966134755
 20
1109.220826984741
 30
0.0
 40
0.1505884132573761
100
AcDbArc
 50
137.3483511100739
 51
194.95947698679
  0
LINE
  5
F27
330
DEB
100
AcDbEntity
  8
0
  6
Continuous
 62
     7
370
    15
100
AcDbLine
 10
2172.581381051196
 20
1108.845944059331
 30
0.0
 11
2167.914476320652
 21
1106.151797304915
 31
0.0
  0
LINE
  5
F28
330
DEB
100
AcDbEntity
  8
0
  6
Continuous
 62
     7
370
    15
100
AcDbLine
 10
2172.581381051196
 20
1108.845944059331
 30
0.0
 11
2172.534176580863
 21
1109.181954721244
 31
0.0
  0
LINE
  5
F29
330
DEB
100
AcDbEntity
  8
0
  6
Continuous
 62
     7
370
    15
100
AcDbLine
 10
2172.695008954781
 20
1108.623972561597
 30
0.0
 11
2168.028104224238
 21
1105.929825807181
 31
0.0
  0
ARC
  5
F2A
330
DEB
100
AcDbEntity
  8
0
  6
Continuous
 62
     7
370
    15
100
AcDbCircle
 10
2172.982494572121
 20
1108.911206336203
 30
0.0
 40
0.4063880183419191
100
AcDbArc
 50
189.2412042878443
 51
224.9748929215597
  0
LWPOLYLINE
  5
F2B
330
DEB
100
AcDbEntity
  8
0
  6
Continuous
 62
     7
370
    15
100
AcDbPolyline
 90
        9
 70
   128
 43
0.0
 10
2172.759493633003
 20
1108.250536579486
 10
2172.763033968277
 20
1108.252727044813
 10
2172.791778118962
 20
1108.28309958799
 10
2172.808046802487
 20
1108.328071848065
 10
2172.810575613398
 20
1108.384042154144
 10
2172.799111670602
 20
1108.446581546619
 10
2172.774497911072
 20
1108.510823142082
 10
2172.738925970929
 20
1108.571510826678
 10
2172.695008954781
 20
1108.623972561597
  0
LINE
  5
F2C
330
DEB
100
AcDbEntity
  8
0
  6
Continuous
 62
     7
370
    15
100
AcDbLine
 10
2172.63701489123
 20
1108.113714770945
 30
0.0
 11
2167.970110160687
 21
1105.419568016529
 31
0.0
  0
ARC
  5
F2D
330
DEB
100
AcDbEntity
  8
0
  6
Continuous
 62
     7
370
    15
100
AcDbCircle
 10
2172.798248452778
 20
1108.119166464851
 30
0.0
 40
0.1613257026515759
100
AcDbArc
 50
154.3851054188187
 51
181.9365701088069
  0
LINE
  5
F2E
330
DEB
100
AcDbEntity
  8
0
  6
Continuous
 62
     7
370
    15
100
AcDbLine
 10
2172.63701489123
 20
1107.800185046456
 30
0.0
 11
2167.970110160687
 21
1105.10603829204
 31
0.0
  0
LINE
  5
F2F
330
DEB
100
AcDbEntity
  8
0
  6
Continuous
 62
     7
370
    15
100
AcDbLine
 10
2172.63701489123
 20
1107.800185046456
 30
0.0
 11
2172.63701489123
 21
1108.113714770945
 31
0.0
  0
LINE
  5
F30
330
DEB
100
AcDbEntity
  8
0
  6
Continuous
 62
     7
370
    15
100
AcDbLine
 10
2172.725354685709
 20
1107.572370820856
 30
0.0
 11
2168.058449955166
 21
1104.878224066439
 31
0.0
  0
ARC
  5
F31
330
DEB
100
AcDbEntity
  8
0
  6
Continuous
 62
     7
370
    15
100
AcDbCircle
 10
2173.020379859599
 20
1107.817808011696
 30
0.0
 40
0.3837698110535582
100
AcDbArc
 50
182.631985911105
 51
219.7577301212017
  0
LWPOLYLINE
  5
F32
330
DEB
100
AcDbEntity
  8
0
  6
Continuous
 62
     7
370
    15
100
AcDbPolyline
 90
        9
 70
   128
 43
0.0
 10
2172.761938150216
 20
1107.230129450335
 10
2172.762022443913
 20
1107.23008078862
 10
2172.790092245021
 20
1107.256170341517
 10
2172.807709627699
 20
1107.29520503389
 10
2172.813778773885
 20
1107.344556603165
 10
2172.807709627699
 20
1107.400866789846
 10
2172.790092245021
 20
1107.460290748922
 10
2172.762022443913
 20
1107.51878900434
 10
2172.725354685709
 20
1107.572370820856
  0
LINE
  5
F33
330
DEB
100
AcDbEntity
  8
0
  6
Continuous
 62
     7
370
    15
100
AcDbLine
 10
2172.63701489123
 20
1107.093015394668
 30
0.0
 11
2167.970110160687
 21
1104.398868640251
 31
0.0
  0
ARC
  5
F34
330
DEB
100
AcDbEntity
  8
0
  6
Continuous
 62
     7
370
    15
100
AcDbCircle
 10
2172.799779636491
 20
1107.098323057289
 30
0.0
 40
0.1628512621458044
100
AcDbArc
 50
155.2101115717957
 51
181.8677198338639
  0
ARC
  5
F35
330
DEB
100
AcDbEntity
  8
0
  6
Continuous
 62
     7
370
    15
100
AcDbCircle
 10
2162.512329078191
 20
1124.245089145582
 30
0.0
 40
0.2457811474774846
100
AcDbArc
 50
53.63072205207107
 51
115.0808264175386
  0
LINE
  5
F36
330
DEB
100
AcDbEntity
  8
0
  6
Continuous
 62
     7
370
    15
100
AcDbLine
 10
2172.63701489123
 20
1106.779923696804
 30
0.0
 11
2167.970110160687
 21
1104.085776942388
 31
0.0
  0
LINE
  5
F37
330
DEB
100
AcDbEntity
  8
0
  6
Continuous
 62
     7
370
    15
100
AcDbLine
 10
2172.63701489123
 20
1106.779923696804
 30
0.0
 11
2172.63701489123
 21
1107.093015394668
 31
0.0
  0
LINE
  5
F38
330
DEB
100
AcDbEntity
  8
0
  6
Continuous
 62
     7
370
    15
100
AcDbLine
 10
2172.702258212725
 20
1106.583839899514
 30
0.0
 11
2168.035353482181
 21
1103.889693145098
 31
0.0
  0
ARC
  5
F39
330
DEB
100
AcDbEntity
  8
0
  6
Continuous
 62
     7
370
    15
100
AcDbCircle
 10
2173.007608757374
 20
1106.79433590991
 30
0.0
 40
0.3708740022036236
100
AcDbArc
 50
182.2270823837577
 51
214.5807700028194
  0
LWPOLYLINE
  5
F3A
330
DEB
100
AcDbEntity
  8
0
  6
Continuous
 62
     7
370
    15
100
AcDbPolyline
 90
        8
 70
   128
 43
0.0
 10
2172.715829497945
 20
1106.273182956338
 10
2172.722910168495
 20
1106.277807235118
 10
2172.749462683057
 20
1106.307936224522
 10
2172.764466961127
 20
1106.351253598703
 10
2172.766995772037
 20
1106.404498405779
 10
2172.756880528394
 20
1106.46387439918
 10
2172.734795579775
 20
1106.525098715177
 10
2172.702258212725
 20
1106.583839899514
  0
LINE
  5
F3B
330
DEB
100
AcDbEntity
  8
0
  6
Continuous
 62
     7
370
    15
100
AcDbLine
 10
2162.022411106919
 20
1121.230826114429
 30
0.0
 11
2162.022411106919
 21
1123.666984195659
 31
0.0
  0
LINE
  5
F3C
330
DEB
100
AcDbEntity
  8
0
  6
Continuous
 62
     7
370
    15
100
AcDbLine
 10
2172.465814392579
 20
1105.910619459741
 30
0.0
 11
2167.798909662035
 21
1103.216472705325
 31
0.0
  0
LINE
  5
F3D
330
DEB
100
AcDbEntity
  8
0
  6
Continuous
 62
     7
370
    15
100
AcDbLine
 10
2172.465814392579
 20
1105.910619459741
 30
0.0
 11
2172.519593771278
 21
1106.159958995093
 31
0.0
  0
LINE
  5
F3E
330
DEB
100
AcDbEntity
  8
0
  6
Continuous
 62
     7
370
    15
100
AcDbLine
 10
2172.518919421702
 20
1105.685235409205
 30
0.0
 11
2167.852014691159
 21
1102.991088654789
 31
0.0
  0
ARC
  5
F3F
330
DEB
100
AcDbEntity
  8
0
  6
Continuous
 62
     7
370
    15
100
AcDbCircle
 10
2172.790937208363
 20
1105.868276620692
 30
0.0
 40
0.3278685123072516
100
AcDbArc
 50
172.5797662338048
 51
213.9366742467582
  0
LWPOLYLINE
  5
F40
330
DEB
100
AcDbEntity
  8
0
  6
Continuous
 62
     7
370
    15
100
AcDbPolyline
 90
        8
 70
   128
 43
0.0
 10
2172.524482805706
 20
1105.387183147508
 10
2172.529877602315
 20
1105.390493188221
 10
2172.55634582318
 20
1105.418870063213
 10
2172.572108744523
 20
1105.459851366578
 10
2172.57615484198
 20
1105.51061416515
 10
2172.568146940763
 20
1105.567702883912
 10
2172.548590803054
 20
1105.627321339569
 10
2172.518919421702
 20
1105.685235409205
  0
LINE
  5
F41
330
DEB
100
AcDbEntity
  8
0
  6
Continuous
 62
     7
370
    15
100
AcDbLine
 10
2172.274467700339
 20
1105.024570981286
 30
0.0
 11
2167.607562969796
 21
1102.330424226869
 31
0.0
  0
LINE
  5
F42
330
DEB
100
AcDbEntity
  8
0
  6
Continuous
 62
     7
370
    15
100
AcDbLine
 10
2172.274467700339
 20
1105.024570981286
 30
0.0
 11
2172.328331372736
 21
1105.273910524547
 31
0.0
  0
LINE
  5
F43
330
DEB
100
AcDbEntity
  8
0
  6
Continuous
 62
     7
370
    15
100
AcDbLine
 10
2172.32765702316
 20
1104.799186938659
 30
0.0
 11
2167.660752292617
 21
1102.105040184242
 31
0.0
  0
ARC
  5
F44
330
DEB
100
AcDbEntity
  8
0
  6
Continuous
 62
     7
370
    15
100
AcDbCircle
 10
2172.599965313782
 20
1104.982418317695
 30
0.0
 40
0.3282156964626923
100
AcDbArc
 50
172.6211363500573
 51
213.9359047551374
  0
LWPOLYLINE
  5
F45
330
DEB
100
AcDbEntity
  8
0
  6
Continuous
 62
     7
370
    15
100
AcDbPolyline
 90
        8
 70
   128
 43
0.0
 10
2172.333220407164
 20
1104.501134676961
 10
2172.338530910076
 20
1104.50449337939
 10
2172.364999130941
 20
1104.532870254382
 10
2172.38084634598
 20
1104.573802896032
 10
2172.384808149741
 20
1104.624614356319
 10
2172.376800248524
 20
1104.681703075081
 10
2172.357328404512
 20
1104.741224199398
 10
2172.32765702316
 20
1104.799186938659
  0
LINE
  5
F46
330
DEB
100
AcDbEntity
  8
0
  6
Continuous
 62
     7
370
    15
100
AcDbLine
 10
2172.083205301797
 20
1104.13852251074
 30
0.0
 11
2167.416300571254
 21
1101.444375756323
 31
0.0
  0
LINE
  5
F47
330
DEB
100
AcDbEntity
  8
0
  6
Continuous
 62
     7
370
    15
100
AcDbLine
 10
2172.083205301797
 20
1104.13852251074
 30
0.0
 11
2172.136984680497
 21
1104.387862046091
 31
0.0
  0
LINE
  5
F48
330
DEB
100
AcDbEntity
  8
0
  6
Continuous
 62
     7
370
    15
100
AcDbLine
 10
2172.136310330921
 20
1103.913187129828
 30
0.0
 11
2167.469405600377
 21
1101.219040375412
 31
0.0
  0
ARC
  5
F49
330
DEB
100
AcDbEntity
  8
0
  6
Continuous
 62
     7
370
    15
100
AcDbCircle
 10
2172.40763505463
 20
1104.096055866164
 30
0.0
 40
0.3271973111522002
100
AcDbArc
 50
172.5425946066156
 51
213.9793707636314
  0
LWPOLYLINE
  5
F4A
330
DEB
100
AcDbEntity
  8
0
  6
Continuous
 62
     7
370
    15
100
AcDbPolyline
 90
        8
 70
   128
 43
0.0
 10
2172.141873714924
 20
1103.615086198506
 10
2172.147268511533
 20
1103.618444908844
 10
2172.173736732398
 20
1103.646821783836
 10
2172.189499653741
 20
1103.687754417576
 10
2172.193545751198
 20
1103.738517216148
 10
2172.185537849982
 20
1103.79560593491
 10
2172.165981712272
 20
1103.855224390567
 10
2172.136310330921
 20
1103.913187129828
  0
LINE
  5
F4B
330
DEB
100
AcDbEntity
  8
0
  6
Continuous
 62
     7
370
    15
100
AcDbLine
 10
2156.038843109435
 20
1119.038156338953
 30
0.0
 11
2156.533817838616
 21
1119.323899167902
 31
0.0
  0
ARC
  5
F4C
330
DEB
100
AcDbEntity
  8
0
  6
Continuous
 62
     7
370
    15
100
AcDbCircle
 10
2156.918736766485
 20
1119.975439773414
 30
0.0
 40
0.7567481362130853
100
AcDbArc
 50
239.4261402694759
 51
255.0538441529029
  0
LINE
  5
F4D
330
DEB
100
AcDbEntity
  8
0
  6
Continuous
 62
     7
370
    15
100
AcDbLine
 10
2171.891858609557
 20
1103.252474032284
 30
0.0
 11
2167.224953879014
 21
1100.558327277868
 31
0.0
  0
LINE
  5
F4E
330
DEB
100
AcDbEntity
  8
0
  6
Continuous
 62
     7
370
    15
100
AcDbLine
 10
2171.891858609557
 20
1103.252474032284
 30
0.0
 11
2171.945722281954
 21
1103.501813575545
 31
0.0
  0
LINE
  5
F4F
330
DEB
100
AcDbEntity
  8
0
  6
Continuous
 62
     7
370
    15
100
AcDbLine
 10
2171.945047932378
 20
1103.027089989657
 30
0.0
 11
2167.278143201835
 21
1100.33294323524
 31
0.0
  0
ARC
  5
F50
330
DEB
100
AcDbEntity
  8
0
  6
Continuous
 62
     7
370
    15
100
AcDbCircle
 10
2172.217358288669
 20
1103.210321856179
 30
0.0
 40
0.3282176824187537
100
AcDbArc
 50
172.6212670553256
 51
213.9357740498752
  0
LINE
  5
F51
330
DEB
100
AcDbEntity
  8
0
  6
Continuous
 62
     7
370
    15
100
AcDbLine
 10
2171.998152961502
 20
1102.801754608746
 30
0.0
 11
2167.331248230958
 21
1100.107607854329
 31
0.0
  0
ARC
  5
F52
330
DEB
100
AcDbEntity
  8
0
  6
Continuous
 62
     7
370
    15
100
AcDbCircle
 10
2171.673590322153
 20
1102.844189935815
 30
0.0
 40
0.3273250125555652
100
AcDbArc
 50
352.551049128672
 51
33.97091624144859
  0
LINE
  5
F53
330
DEB
100
AcDbEntity
  8
0
  6
Continuous
 62
     7
370
    15
100
AcDbLine
 10
2166.069287292845
 20
1094.262705500279
 30
0.0
 11
2170.736192023388
 21
1096.956852254695
 31
0.0
  0
LINE
  5
F54
330
DEB
100
AcDbEntity
  8
0
  6
Continuous
 62
     7
370
    15
100
AcDbLine
 10
2171.998152961502
 20
1102.801754608746
 30
0.0
 11
2170.736192023388
 21
1096.956852254695
 31
0.0
  0
LINE
  5
F55
330
DEB
100
AcDbEntity
  8
0
  6
Continuous
 62
     7
370
    15
100
AcDbLine
 10
2154.988375057149
 20
1119.644578637475
 30
0.0
 11
2155.483349786331
 21
1119.930321466425
 31
0.0
  0
LINE
  5
F56
330
DEB
100
AcDbEntity
  8
0
  6
Continuous
 62
     7
370
    15
100
AcDbLine
 10
2156.533817838616
 20
1119.323899167902
 30
0.0
 11
2155.483349786331
 21
1119.930321466425
 31
0.0
  0
ARC
  5
F57
330
DEB
100
AcDbEntity
  8
0
  6
Continuous
 62
     7
370
    15
100
AcDbCircle
 10
2160.110766917239
 20
1123.417382685888
 30
0.0
 40
1.674755909312423
100
AcDbArc
 50
195.4124749637751
 51
218.1994777217607
  0
LINE
  5
F58
330
DEB
100
AcDbEntity
  8
0
  6
Continuous
 62
     7
370
    15
100
AcDbLine
 10
2158.496239313373
 20
1122.972289468535
 30
0.0
 11
2154.819284041193
 21
1120.849628372018
 31
0.0
  0
LINE
  5
F59
330
DEB
100
AcDbEntity
  8
0
  6
Continuous
 62
     7
370
    15
100
AcDbLine
 10
2154.291940532355
 20
1120.721377412425
 30
0.0
 11
2158.958845262898
 21
1123.415524166841
 31
0.0
  0
ARC
  5
F5A
330
DEB
100
AcDbEntity
  8
0
  6
Continuous
 62
     7
370
    15
100
AcDbCircle
 10
2156.332049208261
 20
1121.242882545808
 30
0.0
 40
1.563044239904036
100
AcDbArc
 50
194.5719183642628
 51
237.1133704202746
  0
ARC
  5
F5B
330
DEB
100
AcDbEntity
  8
0
  6
Continuous
 62
     7
370
    15
100
AcDbCircle
 10
2160.557229782114
 20
1123.675108400625
 30
0.0
 40
1.61932610850853
100
AcDbArc
 50
189.2245340623358
 51
218.4819087982925
  0
LINE
  5
F5C
330
DEB
100
AcDbEntity
  8
0
  6
Continuous
 62
     7
370
    15
100
AcDbLine
 10
2154.188849340897
 20
1121.456425085992
 30
0.0
 11
2158.85575407144
 21
1124.150571840409
 31
0.0
  0
LINE
  5
F5D
330
DEB
100
AcDbEntity
  8
0
  6
Continuous
 62
     7
370
    15
100
AcDbLine
 10
2153.979885265981
 20
1121.779474449238
 30
0.0
 11
2158.646789996524
 21
1124.473621203654
 31
0.0
  0
ARC
  5
F5E
330
DEB
100
AcDbEntity
  8
0
  6
Continuous
 62
     7
370
    15
100
AcDbCircle
 10
2158.392029303967
 20
1124.079720813273
 30
0.0
 40
0.4691060946253748
100
AcDbArc
 50
8.686860187920373
 51
57.10665527547398
  0
LINE
  5
F5F
330
DEB
100
AcDbEntity
  8
0
  6
Continuous
 62
     7
370
    15
100
AcDbLine
 10
2158.85575407144
 20
1124.150571840409
 30
0.0
 11
2158.958845262898
 21
1123.415524166841
 31
0.0
  0
LINE
  5
F60
330
DEB
100
AcDbEntity
  8
0
  6
Continuous
 62
     7
370
    15
100
AcDbLine
 10
2153.649369679958
 20
1121.970277035702
 30
0.0
 11
2158.316274410501
 21
1124.664423790118
 31
0.0
  0
LINE
  5
F61
330
DEB
100
AcDbEntity
  8
0
  6
Continuous
 62
     7
370
    15
100
AcDbLine
 10
2158.316274410501
 20
1124.664423790118
 30
0.0
 11
2158.646789996524
 21
1124.473621203654
 31
0.0
  0
ARC
  5
F62
330
DEB
100
AcDbEntity
  8
0
  6
Continuous
 62
     7
370
    15
100
AcDbCircle
 10
2158.243646696986
 20
1124.568553288258
 30
0.0
 40
0.1202744274452822
100
AcDbArc
 50
52.85386562042266
 51
115.8172864462536
  0
LINE
  5
F63
330
DEB
100
AcDbEntity
  8
0
  6
Continuous
 62
     7
370
    15
100
AcDbLine
 10
2158.496239313373
 20
1122.209441765704
 30
0.0
 11
2158.496239313373
 21
1122.972289468535
 31
0.0
  0
LINE
  5
F64
330
DEB
100
AcDbEntity
  8
0
  6
Continuous
 62
     7
370
    15
100
AcDbLine
 10
2157.068611543791
 20
1120.13978542257
 30
0.0
 11
2156.094563877344
 21
1119.577479673744
 31
0.0
  0
LINE
  5
F65
330
DEB
100
AcDbEntity
  8
0
  6
Continuous
 62
     7
370
    15
100
AcDbLine
 10
2156.591536303863
 20
1119.293325024781
 30
0.0
 11
2156.785563372575
 21
1119.405334467361
 31
0.0
  0
LINE
  5
F66
330
DEB
100
AcDbEntity
  8
0
  6
Continuous
 62
     7
370
    15
100
AcDbLine
 10
2151.757397650304
 20
1121.71516801013
 30
0.0
 11
2156.424302380847
 21
1124.409314764546
 31
0.0
  0
ARC
  5
F67
330
DEB
100
AcDbEntity
  8
0
  6
Continuous
 62
     7
370
    15
100
AcDbCircle
 10
2159.612070773522
 20
1129.901533769453
 30
0.0
 40
6.350302112750287
100
AcDbArc
 50
239.8684612859298
 51
246.9161116796728
  0
LINE
  5
F68
330
DEB
100
AcDbEntity
  8
0
  6
Continuous
 62
     7
370
    15
100
AcDbLine
 10
2151.465067109032
 20
1121.883926839473
 30
0.0
 11
2156.131971839576
 21
1124.578073593889
 31
0.0
  0
LINE
  5
F69
330
DEB
100
AcDbEntity
  8
0
  6
Continuous
 62
     7
370
    15
100
AcDbLine
 10
2156.131971839576
 20
1124.578073593889
 30
0.0
 11
2156.424302380847
 21
1124.409314764546
 31
0.0
  0
ARC
  5
F6A
330
DEB
100
AcDbEntity
  8
0
  6
Continuous
 62
     7
370
    15
100
AcDbCircle
 10
2156.074326948759
 20
1124.498517451336
 30
0.0
 40
0.098245169119194
100
AcDbArc
 50
54.07361691478574
 51
114.5979886646656
  0
LINE
  5
F6B
330
DEB
100
AcDbEntity
  8
0
  6
Continuous
 62
     7
370
    15
100
AcDbLine
 10
2149.143281518265
 20
1122.288688929033
 30
0.0
 11
2153.315211519626
 21
1124.6970928545
 31
0.0
  0
ARC
  5
F6C
330
DEB
100
AcDbEntity
  8
0
  6
Continuous
 62
     7
370
    15
100
AcDbCircle
 10
2150.293199693292
 20
1118.396871325055
 30
0.0
 40
6.987513634948164
100
AcDbArc
 50
64.37447730675231
 51
74.85596790910012
  0
LINE
  5
F6D
330
DEB
100
AcDbEntity
  8
0
  6
Continuous
 62
     7
370
    15
100
AcDbLine
 10
2152.118662490402
 20
1125.141723612167
 30
0.0
 11
2152.613637219583
 21
1125.427466441116
 31
0.0
  0
LWPOLYLINE
  5
F6E
330
DEB
100
AcDbEntity
  8
0
  6
Continuous
 62
     7
370
    15
100
AcDbPolyline
 90
        3
 70
   128
 43
0.0
 10
2154.748710131178
 20
1123.846141631116
 10
2154.704203059151
 20
1123.877724041528
 10
2154.5528115793
 20
1123.982641547574
  0
LINE
  5
F6F
330
DEB
100
AcDbEntity
  8
0
  6
Continuous
 62
     7
370
    15
100
AcDbLine
 10
2150.380881577939
 20
1121.574237622107
 30
0.0
 11
2154.5528115793
 21
1123.982641547574
 31
0.0
  0
ARC
  5
F70
330
DEB
100
AcDbEntity
  8
0
  6
Continuous
 62
     7
370
    15
100
AcDbCircle
 10
2150.320422507124
 20
1117.454906057779
 30
0.0
 40
8.29581537785131
100
AcDbArc
 50
53.59683511462499
 51
73.95273130247622
  0
LINE
  5
F71
330
DEB
100
AcDbEntity
  8
0
  6
Continuous
 62
     7
370
    15
100
AcDbLine
 10
2168.111554984289
 20
1091.611132612473
 30
0.0
 11
2172.778459714832
 21
1094.305279366889
 31
0.0
  0
ARC
  5
F72
330
DEB
100
AcDbEntity
  8
0
  6
Continuous
 62
     7
370
    15
100
AcDbCircle
 10
2171.323178077209
 20
1094.527883760078
 30
0.0
 40
0.3608881795041026
100
AcDbArc
 50
52.87843308842326
 51
115.8122813389735
  0
LINE
  5
F73
330
DEB
100
AcDbEntity
  8
0
  6
Continuous
 62
     7
370
    15
100
AcDbLine
 10
2172.248083773172
 20
1095.223844437825
 30
0.0
 11
2171.540977040717
 21
1094.815640410046
 31
0.0
  0
ARC
  5
F74
330
DEB
100
AcDbEntity
  8
0
  6
Continuous
 62
     7
370
    15
100
AcDbCircle
 10
2171.627056108386
 20
1094.252864400321
 30
0.0
 40
1.152596023617674
100
AcDbArc
 50
2.606457399142488
 51
57.39748626576759
  0
LINE
  5
F75
330
DEB
100
AcDbEntity
  8
0
  6
Continuous
 62
     7
370
    15
100
AcDbLine
 10
2151.398306500991
 20
1120.446511869273
 30
0.0
 11
2151.577412332553
 21
1120.549907464996
 31
0.0
  0
LINE
  5
F76
330
DEB
100
AcDbEntity
  8
0
  6
Continuous
 62
     7
370
    15
100
AcDbLine
 10
2168.111470690592
 20
1089.777188128729
 30
0.0
 11
2172.778375421136
 21
1092.471334883145
 31
0.0
  0
LINE
  5
F77
330
DEB
100
AcDbEntity
  8
0
  6
Continuous
 62
     7
370
    15
100
AcDbLine
 10
2172.778459714832
 20
1094.305279366889
 30
0.0
 11
2172.778375421136
 21
1092.471334883145
 31
0.0
  0
ARC
  5
F78
330
DEB
100
AcDbEntity
  8
0
  6
Continuous
 62
     7
370
    15
100
AcDbCircle
 10
2153.841934582109
 20
1122.948666807153
 30
0.0
 40
1.254770843207477
100
AcDbArc
 50
44.95886375515234
 51
55.49074842173214
  0
LINE
  5
F79
330
DEB
100
AcDbEntity
  8
0
  6
Continuous
 62
     7
370
    15
100
AcDbLine
 10
2166.06094221684
 20
1094.179138971045
 30
0.0
 11
2170.727846947383
 21
1096.873285725462
 31
0.0
  0
ARC
  5
F7A
330
DEB
100
AcDbEntity
  8
0
  6
Continuous
 62
     7
370
    15
100
AcDbCircle
 10
2171.127706783421
 20
1096.875555076952
 30
0.0
 40
0.3998662756879365
100
AcDbArc
 50
168.2693606341561
 51
180.3251711097927
  0
LINE
  5
F7B
330
DEB
100
AcDbEntity
  8
0
  6
Continuous
 62
     7
370
    15
100
AcDbLine
 10
2170.727846947383
 20
1096.713868368653
 30
0.0
 11
2170.020740214929
 21
1096.305664340874
 31
0.0
  0
LINE
  5
F7C
330
DEB
100
AcDbEntity
  8
0
  6
Continuous
 62
     7
370
    15
100
AcDbLine
 10
2170.020740214929
 20
1094.191577503327
 30
0.0
 11
2170.020740214929
 21
1096.305664340874
 31
0.0
  0
LINE
  5
F7D
330
DEB
100
AcDbEntity
  8
0
  6
Continuous
 62
     7
370
    15
100
AcDbLine
 10
2170.727846947383
 20
1096.873285725462
 30
0.0
 11
2170.727846947383
 21
1096.713868368653
 31
0.0
  0
LWPOLYLINE
  5
F7E
330
DEB
100
AcDbEntity
  8
0
  6
Continuous
 62
     7
370
    15
100
AcDbPolyline
 90
        6
 70
   128
 43
0.0
 10
2172.778375421136
 20
1092.471334883145
 10
2172.764804135915
 20
1092.319873736594
 10
2172.724596042435
 20
1092.189897730082
 10
2172.659184133546
 20
1092.086492973888
 10
2172.571265807553
 20
1092.013528956307
 10
2172.571265807553
 20
1092.013480286682
  0
LINE
  5
F7F
330
DEB
100
AcDbEntity
  8
0
  6
Continuous
 62
     7
370
    15
100
AcDbLine
 10
2148.706471580297
 20
1122.305390292809
 30
0.0
 11
2152.878401581659
 21
1124.713794218276
 31
0.0
  0
ARC
  5
F80
330
DEB
100
AcDbEntity
  8
0
  6
Continuous
 62
     7
370
    15
100
AcDbCircle
 10
2153.080953738294
 20
1124.290826737945
 30
0.0
 40
0.4689657402996793
100
AcDbArc
 50
60.03174938820482
 51
115.5889923821595
  0
LINE
  5
F81
330
DEB
100
AcDbEntity
  8
0
  6
Continuous
 62
     7
370
    15
100
AcDbLine
 10
2148.198264880953
 20
1123.61591826919
 30
0.0
 11
2152.865169611496
 21
1126.310065023606
 31
0.0
  0
LINE
  5
F82
330
DEB
100
AcDbEntity
  8
0
  6
Continuous
 62
     7
370
    15
100
AcDbLine
 10
2148.05909598717
 20
1123.850152115842
 30
0.0
 11
2152.726000717713
 21
1126.544298870259
 31
0.0
  0
ARC
  5
F83
330
DEB
100
AcDbEntity
  8
0
  6
Continuous
 62
     7
370
    15
100
AcDbCircle
 10
2152.561557380731
 20
1126.288135484341
 30
0.0
 40
0.3044031723927347
100
AcDbArc
 50
4.131229686730438
 51
57.3016843377777
  0
LINE
  5
F84
330
DEB
100
AcDbEntity
  8
0
  6
Continuous
 62
     7
370
    15
100
AcDbLine
 10
2148.21731525648
 20
1123.102455512605
 30
0.0
 11
2152.884219987023
 21
1125.796602267021
 31
0.0
  0
LINE
  5
F85
330
DEB
100
AcDbEntity
  8
0
  6
Continuous
 62
     7
370
    15
100
AcDbLine
 10
2152.884219987023
 20
1125.796602267021
 30
0.0
 11
2152.865169611496
 21
1126.310065023606
 31
0.0
  0
LINE
  5
F86
330
DEB
100
AcDbEntity
  8
0
  6
Continuous
 62
     7
370
    15
100
AcDbLine
 10
2147.766765445898
 20
1124.018910945186
 30
0.0
 11
2152.433670176442
 21
1126.713057699602
 31
0.0
  0
LINE
  5
F87
330
DEB
100
AcDbEntity
  8
0
  6
Continuous
 62
     7
370
    15
100
AcDbLine
 10
2152.726000717713
 20
1126.544298870259
 30
0.0
 11
2152.433670176442
 21
1126.713057699602
 31
0.0
  0
LINE
  5
F88
330
DEB
100
AcDbEntity
  8
0
  6
Continuous
 62
     7
370
    15
100
AcDbLine
 10
2146.394126883595
 20
1125.020062342122
 30
0.0
 11
2151.061031614139
 21
1127.714209096538
 31
0.0
  0
ARC
  5
F89
330
DEB
100
AcDbEntity
  8
0
  6
Continuous
 62
     7
370
    15
100
AcDbCircle
 10
2156.710656255725
 20
1134.018622488697
 30
0.0
 40
8.465452546086826
100
AcDbArc
 50
228.1352734583009
 51
239.6534923381725
  0
LINE
  5
F8A
330
DEB
100
AcDbEntity
  8
0
  6
Continuous
 62
     7
370
    15
100
AcDbLine
 10
2148.125772301515
 20
1122.33570565001
 30
0.0
 11
2152.297702302876
 21
1124.744109575477
 31
0.0
  0
ARC
  5
F8B
330
DEB
100
AcDbEntity
  8
0
  6
Continuous
 62
     7
370
    15
100
AcDbCircle
 10
2152.616215771049
 20
1125.268438037605
 30
0.0
 40
0.6134909661967397
100
AcDbArc
 50
238.7226021951446
 51
295.3005807712447
  0
ARC
  5
F8C
330
DEB
100
AcDbEntity
  8
0
  6
Continuous
 62
     7
370
    15
100
AcDbCircle
 10
2152.783352645654
 20
1125.78108213086
 30
0.0
 40
0.1020543736515391
100
AcDbArc
 50
305.8239041819036
 51
8.74731846694959
  0
LINE
  5
F8D
330
DEB
100
AcDbEntity
  8
0
  6
Continuous
 62
     7
370
    15
100
AcDbLine
 10
2145.874793416244
 20
1126.458444379415
 30
0.0
 11
2150.541698146787
 21
1129.152591133832
 31
0.0
  0
LWPOLYLINE
  5
F8E
330
DEB
100
AcDbEntity
  8
0
  6
Continuous
 62
     7
370
    15
100
AcDbPolyline
 90
        9
 70
   128
 43
0.0
 10
2150.666705699471
 20
1128.731951294484
 10
2150.674629306991
 20
1128.73715968786
 10
2150.705059331616
 20
1128.776049573609
 10
2150.718124854654
 20
1128.833286278631
 10
2150.712477176954
 20
1128.90273730362
 10
2150.688706354394
 20
1128.977004920936
 10
2150.649341197885
 20
1129.04830222786
 10
2150.59851209858
 20
1129.108988480829
 10
2150.541698146787
 20
1129.152591133832
  0
LINE
  5
F8F
330
DEB
100
AcDbEntity
  8
0
  6
Continuous
 62
     7
370
    15
100
AcDbLine
 10
2147.946732489041
 20
1122.601571011724
 30
0.0
 11
2152.118662490402
 21
1125.009974937191
 31
0.0
  0
LINE
  5
F90
330
DEB
100
AcDbEntity
  8
0
  6
Continuous
 62
     7
370
    15
100
AcDbLine
 10
2152.118662490402
 20
1125.141723612167
 30
0.0
 11
2152.118662490402
 21
1125.009974937191
 31
0.0
  0
LINE
  5
F91
330
DEB
100
AcDbEntity
  8
0
  6
Continuous
 62
     7
370
    15
100
AcDbLine
 10
2152.613637219583
 20
1125.427466441116
 30
0.0
 11
2152.613637219583
 21
1125.565834185096
 31
0.0
  0
LINE
  5
F92
330
DEB
100
AcDbEntity
  8
0
  6
Continuous
 62
     7
370
    15
100
AcDbLine
 10
2145.544277830222
 20
1126.649246965879
 30
0.0
 11
2150.211182560765
 21
1129.343393720295
 31
0.0
  0
LINE
  5
F93
330
DEB
100
AcDbEntity
  8
0
  6
Continuous
 62
     7
370
    15
100
AcDbLine
 10
2150.541698146787
 20
1129.152591133832
 30
0.0
 11
2150.211182560765
 21
1129.343393720295
 31
0.0
  0
ARC
  5
F94
330
DEB
100
AcDbEntity
  8
0
  6
Continuous
 62
     7
370
    15
100
AcDbCircle
 10
2152.424111149042
 20
1125.023823954502
 30
0.0
 40
0.3057624541134589
100
AcDbArc
 50
182.5960080732789
 51
237.3940829737804
  0
LINE
  5
F95
330
DEB
100
AcDbEntity
  8
0
  6
Continuous
 62
     7
370
    15
100
AcDbLine
 10
2148.08741866937
 20
1122.357846730561
 30
0.0
 11
2152.259348670731
 21
1124.766250656028
 31
0.0
  0
LINE
  5
F96
330
DEB
100
AcDbEntity
  8
0
  6
Continuous
 62
     7
370
    15
100
AcDbLine
 10
2152.259348670731
 20
1124.766250656028
 30
0.0
 11
2152.297702302876
 21
1124.744109575477
 31
0.0
  0
ARC
  5
F97
330
DEB
100
AcDbEntity
  8
0
  6
Continuous
 62
     7
370
    15
100
AcDbCircle
 10
2171.172148076457
 20
1096.358050484338
 30
0.0
 40
1.152598963913733
100
AcDbArc
 50
182.605016463803
 51
237.3923545122822
  0
LINE
  5
F98
330
DEB
100
AcDbEntity
  8
0
  6
Continuous
 62
     7
370
    15
100
AcDbLine
 10
2170.551031862893
 20
1095.387123596841
 30
0.0
 11
2171.540977040717
 21
1094.815640410046
 31
0.0
  0
ARC
  5
F99
330
DEB
100
AcDbEntity
  8
0
  6
Continuous
 62
     7
370
    15
100
AcDbCircle
 10
2150.123658796667
 20
1129.225190649469
 30
0.0
 40
0.147079486111302
100
AcDbArc
 50
53.48180839118095
 51
115.1550682001097
  0
LINE
  5
F9A
330
DEB
100
AcDbEntity
  8
0
  6
Continuous
 62
     7
370
    15
100
AcDbLine
 10
2145.918036082817
 20
1125.442177996611
 30
0.0
 11
2150.58494081336
 21
1128.136324751027
 31
0.0
  0
LINE
  5
F9B
330
DEB
100
AcDbEntity
  8
0
  6
Continuous
 62
     7
370
    15
100
AcDbLine
 10
2151.061031614139
 20
1127.714209096538
 30
0.0
 11
2150.58494081336
 21
1128.136324751027
 31
0.0
  0
LINE
  5
F9C
330
DEB
100
AcDbEntity
  8
0
  6
Continuous
 62
     7
370
    15
100
AcDbLine
 10
2145.839474357193
 20
1125.605846573919
 30
0.0
 11
2150.506379087736
 21
1128.299993328335
 31
0.0
  0
LINE
  5
F9D
330
DEB
100
AcDbEntity
  8
0
  6
Continuous
 62
     7
370
    15
100
AcDbLine
 10
2150.506379087736
 20
1128.299993328335
 30
0.0
 11
2150.506379087736
 21
1128.639366623719
 31
0.0
  0
ARC
  5
F9E
330
DEB
100
AcDbEntity
  8
0
  6
Continuous
 62
     7
370
    15
100
AcDbCircle
 10
2150.740887547279
 20
1128.311869250529
 30
0.0
 40
0.2348089758190501
100
AcDbArc
 50
182.8990827505656
 51
228.3833889733722
  0
LINE
  5
F9F
330
DEB
100
AcDbEntity
  8
0
  6
Continuous
 62
     7
370
    15
100
AcDbLine
 10
2171.258138595348
 20
1095.795327624621
 30
0.0
 11
2170.551031862893
 21
1095.387123596841
 31
0.0
  0
LINE
  5
FA0
330
DEB
100
AcDbEntity
  8
0
  6
Continuous
 62
     7
370
    15
100
AcDbLine
 10
2172.248083773172
 20
1095.223844437825
 30
0.0
 11
2171.258138595348
 21
1095.795327624621
 31
0.0
  0
ARC
  5
FA1
330
DEB
100
AcDbEntity
  8
0
  6
Continuous
 62
     7
370
    15
100
AcDbCircle
 10
2171.879254808911
 20
1096.766254512117
 30
0.0
 40
1.152598963913579
100
AcDbArc
 50
182.605016463803
 51
237.3923545123002
  0
LINE
  5
FA2
330
DEB
100
AcDbEntity
  8
0
  6
Continuous
 62
     7
370
    15
100
AcDbLine
 10
2142.820832773145
 20
1127.206015275096
 30
0.0
 11
2147.487737503689
 21
1129.900162029513
 31
0.0
  0
LINE
  5
FA3
330
DEB
100
AcDbEntity
  8
0
  6
Continuous
 62
     7
370
    15
100
AcDbLine
 10
2141.865195130009
 20
1130.789518765744
 30
0.0
 11
2146.532099860552
 21
1133.48366552016
 31
0.0
  0
LINE
  5
FA4
330
DEB
100
AcDbEntity
  8
0
  6
Continuous
 62
     7
370
    15
100
AcDbLine
 10
2146.532099860552
 20
1133.48366552016
 30
0.0
 11
2147.487737503689
 21
1129.900162029513
 31
0.0
  0
LINE
  5
FA5
330
DEB
100
AcDbEntity
  8
0
  6
Continuous
 62
     7
370
    15
100
AcDbLine
 10
2144.535788039053
 20
1125.678728682527
 30
0.0
 11
2145.030762768235
 21
1125.964471511476
 31
0.0
  0
LWPOLYLINE
  5
FA6
330
DEB
100
AcDbEntity
  8
0
  6
Continuous
 62
     7
370
    15
100
AcDbPolyline
 90
        3
 70
   128
 43
0.0
 10
2145.030762768235
 20
1125.964471511476
 10
2145.138237231938
 20
1125.9119184011
 10
2145.21772618823
 20
1125.885595592651
  0
LINE
  5
FA7
330
DEB
100
AcDbEntity
  8
0
  6
Continuous
 62
     7
370
    15
100
AcDbLine
 10
2141.532993670046
 20
1131.249950916722
 30
0.0
 11
2146.19989840059
 21
1133.944097671138
 31
0.0
  0
ARC
  5
FA8
330
DEB
100
AcDbEntity
  8
0
  6
Continuous
 62
     7
370
    15
100
AcDbCircle
 10
2145.775281735072
 20
1133.287679427114
 30
0.0
 40
0.7817827215555515
100
AcDbArc
 50
14.51842096415714
 51
57.10242082985264
  0
LINE
  5
FA9
330
DEB
100
AcDbEntity
  8
0
  6
Continuous
 62
     7
370
    15
100
AcDbLine
 10
2140.058616895977
 20
1133.244061827173
 30
0.0
 11
2142.745622709794
 21
1134.795237265793
 31
0.0
  0
LINE
  5
FAA
330
DEB
100
AcDbEntity
  8
0
  6
Continuous
 62
     7
370
    15
100
AcDbLine
 10
2142.168656719827
 20
1132.025961764854
 30
0.0
 11
2140.058616895977
 21
1133.244061827173
 31
0.0
  0
LINE
  5
FAB
330
DEB
100
AcDbEntity
  8
0
  6
Continuous
 62
     7
370
    15
100
AcDbLine
 10
2144.855662533644
 20
1133.577137203473
 30
0.0
 11
2142.168656719827
 21
1132.025961764854
 31
0.0
  0
LINE
  5
FAC
330
DEB
100
AcDbEntity
  8
0
  6
Continuous
 62
     7
370
    15
100
AcDbLine
 10
2144.855662533644
 20
1133.577137203473
 30
0.0
 11
2142.745622709794
 21
1134.795237265793
 31
0.0
  0
SPLINE
  5
FAD
330
DEB
100
AcDbEntity
  8
0
  6
Continuous
 62
     7
370
    15
100
AcDbSpline
210
0.0
220
0.0
230
1.0
 70
     8
 71
     3
 72
     9
 73
     5
 74
     0
 42
0.0000000001
 43
0.0000000001
 40
0.0
 40
0.0
 40
0.0
 40
0.0
 40
0.6211566368611491
 40
1.0
 40
1.0
 40
1.0
 40
1.0
 10
2136.028219469274
 20
1134.835993543454
 30
0.0
 10
2135.954998062183
 20
1134.886309505701
 30
0.0
 10
2135.837118927123
 20
1134.967313167679
 30
0.0
 10
2135.784120714606
 20
1135.067872366043
 30
0.0
 10
2135.764042693535
 20
1135.105968550946
 30
0.0
  0
LINE
  5
FAE
330
DEB
100
AcDbEntity
  8
0
  6
Continuous
 62
     7
370
    15
100
AcDbLine
 10
2137.561016055919
 20
1133.951128908858
 30
0.0
 11
2136.028219469274
 21
1134.835993543454
 31
0.0
  0
SPLINE
  5
FAF
330
DEB
100
AcDbEntity
  8
0
  6
Continuous
 62
     7
370
    15
100
AcDbSpline
210
0.0
220
0.0
230
1.0
 70
     8
 71
     3
 72
     9
 73
     5
 74
     0
 42
0.0000000001
 43
0.0000000001
 40
0.0
 40
0.0
 40
0.0
 40
0.0
 40
0.6211021089609809
 40
1.0
 40
1.0
 40
1.0
 40
1.0
 10
2138.028677157723
 20
1133.798622902405
 30
0.0
 10
2137.920979284693
 20
1133.819892065539
 30
0.0
 10
2137.747581269334
 20
1133.854136294992
 30
0.0
 10
2137.612281030913
 20
1133.924476973947
 30
0.0
 10
2137.561016055919
 20
1133.951128908858
 30
0.0
  0
LWPOLYLINE
  5
FB0
330
DEB
100
AcDbEntity
  8
0
  6
Continuous
 62
     7
370
    15
100
AcDbPolyline
 90
       18
 70
   128
 43
0.0
 10
2141.78499066511
 20
1135.967096532961
 10
2141.852943732619
 20
1135.754257317558
 10
2141.876002010021
 20
1135.538177250912
 10
2141.853613390065
 20
1135.322138575237
 10
2141.786316315204
 20
1135.109177182812
 10
2141.674938575885
 20
1134.902496002959
 10
2141.521224656508
 20
1134.705048573706
 10
2141.327364670313
 20
1134.519753718841
 10
2141.096109707561
 20
1134.349367490139
 10
2140.830969687002
 20
1134.196305414288
 10
2140.535820101908
 20
1134.062804765933
 10
2140.214845220604
 20
1133.950891778037
 10
2139.87281918208
 20
1133.862154621205
 10
2139.514798085275
 20
1133.797857620896
 10
2139.14589816247
 20
1133.759007846519
 10
2138.771667651145
 20
1133.746083171328
 10
2138.397365440787
 20
1133.759394431534
 10
2138.028677157723
 20
1133.798622902405
  0
SPLINE
  5
FB1
330
DEB
100
AcDbEntity
  8
0
  6
Continuous
 62
     7
370
    15
100
AcDbSpline
210
0.0
220
0.0
230
1.0
 70
     8
 71
     3
 72
     9
 73
     5
 74
     0
 42
0.0000000001
 43
0.0000000001
 40
0.0
 40
0.0
 40
0.0
 40
0.0
 40
0.6211566368611491
 40
1.0
 40
1.0
 40
1.0
 40
1.0
 10
2141.520813889371
 20
1136.237071540453
 30
0.0
 10
2141.594035296462
 20
1136.186755578206
 30
0.0
 10
2141.711914431523
 20
1136.105751916229
 30
0.0
 10
2141.764912644039
 20
1136.005192717864
 30
0.0
 10
2141.78499066511
 20
1135.967096532961
 30
0.0
  0
LINE
  5
FB2
330
DEB
100
AcDbEntity
  8
0
  6
Continuous
 62
     7
370
    15
100
AcDbLine
 10
2139.988017302727
 20
1137.121936175049
 30
0.0
 11
2141.520813889371
 21
1136.237071540453
 31
0.0
  0
SPLINE
  5
FB3
330
DEB
100
AcDbEntity
  8
0
  6
Continuous
 62
     7
370
    15
100
AcDbSpline
210
0.0
220
0.0
230
1.0
 70
     8
 71
     3
 72
     9
 73
     5
 74
     0
 42
0.0000000001
 43
0.0000000001
 40
0.0
 40
0.0
 40
0.0
 40
0.0
 40
0.6211021089609809
 40
1.0
 40
1.0
 40
1.0
 40
1.0
 10
2139.520356200923
 20
1137.274442181502
 30
0.0
 10
2139.628054073952
 20
1137.253173018368
 30
0.0
 10
2139.801452089312
 20
1137.218928788915
 30
0.0
 10
2139.936752327733
 20
1137.14858810996
 30
0.0
 10
2139.988017302727
 20
1137.121936175049
 30
0.0
  0
LWPOLYLINE
  5
FB4
330
DEB
100
AcDbEntity
  8
0
  6
Continuous
 62
     7
370
    15
100
AcDbPolyline
 90
       18
 70
   128
 43
0.0
 10
2135.764042693535
 20
1135.105968550946
 10
2135.696089626026
 20
1135.318807766349
 10
2135.673031348624
 20
1135.534887832995
 10
2135.695335674883
 20
1135.750975170386
 10
2135.762717043441
 20
1135.963887901095
 10
2135.874010489064
 20
1136.170617742664
 10
2136.027808702138
 20
1136.368016510201
 10
2136.221668688333
 20
1136.553311365066
 10
2136.452923651085
 20
1136.723697593768
 10
2136.718063671643
 20
1136.876759669619
 10
2137.013213256738
 20
1137.010260317974
 10
2137.334188138042
 20
1137.12217330587
 10
2137.676129882868
 20
1137.210959124418
 10
2138.03423527337
 20
1137.275207463012
 10
2138.403050902478
 20
1137.314105899104
 10
2138.7773657075
 20
1137.326981912579
 10
2139.151667917859
 20
1137.313670652373
 10
2139.520356200923
 20
1137.274442181502
  0
LINE
  5
FB5
330
DEB
100
AcDbEntity
  8
0
  6
Continuous
 62
     7
370
    15
100
AcDbLine
 10
2133.38204604913
 20
1135.955392820129
 30
0.0
 11
2138.048950779674
 21
1138.649539574546
 31
0.0
  0
LINE
  5
FB6
330
DEB
100
AcDbEntity
  8
0
  6
Continuous
 62
     7
370
    15
100
AcDbLine
 10
2138.048950779674
 20
1138.649539574546
 30
0.0
 11
2146.19989840059
 21
1133.944097671138
 31
0.0
  0
LINE
  5
FB7
330
DEB
100
AcDbEntity
  8
0
  6
Continuous
 62
     7
370
    15
100
AcDbLine
 10
2143.485235693071
 20
1126.285199642765
 30
0.0
 11
2143.980210422252
 21
1126.570942471715
 31
0.0
  0
LINE
  5
FB8
330
DEB
100
AcDbEntity
  8
0
  6
Continuous
 62
     7
370
    15
100
AcDbLine
 10
2143.980210422252
 20
1126.570942471715
 30
0.0
 11
2145.030762768235
 21
1125.964471511476
 31
0.0
  0
LINE
  5
FB9
330
DEB
100
AcDbEntity
  8
0
  6
Continuous
 62
     7
370
    15
100
AcDbLine
 10
2147.179726194501
 20
1129.18346721422
 30
0.0
 11
2143.502770922321
 21
1127.060806117702
 31
0.0
  0
LINE
  5
FBA
330
DEB
100
AcDbEntity
  8
0
  6
Continuous
 62
     7
370
    15
100
AcDbLine
 10
2147.657165694432
 20
1128.693603568232
 30
0.0
 11
2148.152140423614
 21
1128.979346397182
 31
0.0
  0
ARC
  5
FBB
330
DEB
100
AcDbEntity
  8
0
  6
Continuous
 62
     7
370
    15
100
AcDbCircle
 10
2148.406888138015
 20
1129.901908261338
 30
0.0
 40
1.421999990785305
100
AcDbArc
 50
210.3468078392306
 51
238.181446731216
  0
ARC
  5
FBC
330
DEB
100
AcDbEntity
  8
0
  6
Continuous
 62
     7
370
    15
100
AcDbCircle
 10
2144.729932865836
 20
1127.779247164821
 30
0.0
 40
1.421999990785808
100
AcDbArc
 50
210.3468078392418
 51
238.1814467312049
  0
ARC
  5
FBD
330
DEB
100
AcDbEntity
  8
0
  6
Continuous
 62
     7
370
    15
100
AcDbCircle
 10
2149.000933365595
 20
1130.291885846996
 30
0.0
 40
1.563076858530972
100
AcDbArc
 50
194.5136544025886
 51
237.1100612280433
  0
LINE
  5
FBE
330
DEB
100
AcDbEntity
  8
0
  6
Continuous
 62
     7
370
    15
100
AcDbLine
 10
2141.322304208518
 20
1132.51452394083
 30
0.0
 11
2142.188908589229
 21
1133.014804001055
 31
0.0
  0
ARC
  5
FBF
330
DEB
100
AcDbEntity
  8
0
  6
Continuous
 62
     7
370
    15
100
AcDbCircle
 10
2142.285995669711
 20
1134.045597707463
 30
0.0
 40
1.035355768017996
100
AcDbArc
 50
264.6193716327015
 51
275.383186827039
  0
LINE
  5
FC0
330
DEB
100
AcDbEntity
  8
0
  6
Continuous
 62
     7
370
    15
100
AcDbLine
 10
2142.383128778691
 20
1133.014808337365
 30
0.0
 11
2143.13233115782
 21
1132.582303010027
 31
0.0
  0
LINE
  5
FC1
330
DEB
100
AcDbEntity
  8
0
  6
Continuous
 62
     7
370
    15
100
AcDbLine
 10
2141.693936000317
 20
1132.892304779642
 30
0.0
 11
2141.18094252616
 21
1132.59615995063
 31
0.0
  0
LWPOLYLINE
  5
FC2
330
DEB
100
AcDbEntity
  8
0
  6
Continuous
 62
     7
370
    15
100
AcDbPolyline
 90
        8
 70
   128
 43
0.0
 10
2142.383138430484
 20
1133.290172873716
 10
2142.241391314373
 20
1133.293793977774
 10
2142.10212121053
 20
1133.278115139776
 10
2141.973183248139
 20
1133.243972738897
 10
2141.861773332745
 20
1133.193282444076
 10
2141.773965652519
 20
1133.128966868915
 10
2141.714822871261
 20
1133.054532567605
 10
2141.69394351184
 20
1133.004425708457
  0
LINE
  5
FC3
330
DEB
100
AcDbEntity
  8
0
  6
Continuous
 62
     7
370
    15
100
AcDbLine
 10
2143.275974120673
 20
1133.805595946574
 30
0.0
 11
2142.383138430484
 21
1133.290172873716
 31
0.0
  0
LINE
  5
FC4
330
DEB
100
AcDbEntity
  8
0
  6
Continuous
 62
     7
370
    15
100
AcDbLine
 10
2143.417334650578
 20
1133.723990249685
 30
0.0
 11
2143.275974120673
 21
1133.805595946574
 31
0.0
  0
LINE
  5
FC5
330
DEB
100
AcDbEntity
  8
0
  6
Continuous
 62
     7
370
    15
100
AcDbLine
 10
2142.878103507872
 20
1132.892310351503
 30
0.0
 11
2143.273693827996
 21
1132.663940920676
 31
0.0
  0
LINE
  5
FC6
330
DEB
100
AcDbEntity
  8
0
  6
Continuous
 62
     7
370
    15
100
AcDbLine
 10
2147.179726194501
 20
1129.18346721422
 30
0.0
 11
2147.179726194501
 21
1127.694906732461
 31
0.0
  0
LINE
  5
FC7
330
DEB
100
AcDbEntity
  8
0
  6
Continuous
 62
     7
370
    15
100
AcDbLine
 10
2145.310196088321
 20
1126.417564600889
 30
0.0
 11
2144.778050758472
 21
1126.110363640924
 31
0.0
  0
LINE
  5
FC8
330
DEB
100
AcDbEntity
  8
0
  6
Continuous
 62
     7
370
    15
100
AcDbLine
 10
2141.693936000317
 20
1133.300545594452
 30
0.0
 11
2140.827331619607
 21
1132.800265534229
 31
0.0
  0
LINE
  5
FC9
330
DEB
100
AcDbEntity
  8
0
  6
Continuous
 62
     7
370
    15
100
AcDbLine
 10
2141.693936000317
 20
1132.892304779642
 30
0.0
 11
2141.693936000317
 21
1133.300545594452
 31
0.0
  0
LINE
  5
FCA
330
DEB
100
AcDbEntity
  8
0
  6
Continuous
 62
     7
370
    15
100
AcDbLine
 10
2140.261636618893
 20
1133.126834306928
 30
0.0
 11
2142.710279119959
 21
1134.540405534084
 31
0.0
  0
LINE
  5
FCB
330
DEB
100
AcDbEntity
  8
0
  6
Continuous
 62
     7
370
    15
100
AcDbLine
 10
2143.275974120673
 20
1134.213836761384
 30
0.0
 11
2142.710279119959
 21
1134.540405534084
 31
0.0
  0
LINE
  5
FCC
330
DEB
100
AcDbEntity
  8
0
  6
Continuous
 62
     7
370
    15
100
AcDbLine
 10
2143.275974120673
 20
1134.213836761384
 30
0.0
 11
2142.383138430484
 21
1133.698413688527
 31
0.0
  0
LWPOLYLINE
  5
FCD
330
DEB
100
AcDbEntity
  8
0
  6
Continuous
 62
     7
370
    15
100
AcDbPolyline
 90
        9
 70
   128
 43
0.0
 10
2142.383138430484
 20
1133.698413688527
 10
2142.241391314373
 20
1133.702034792585
 10
2142.10212121053
 20
1133.686355954587
 10
2141.973183248139
 20
1133.652213553708
 10
2141.861773332745
 20
1133.601523258887
 10
2141.773965652519
 20
1133.537207683726
 10
2141.714822871261
 20
1133.462773382416
 10
2141.687663384458
 20
1133.382374462807
 10
2141.693936000317
 20
1133.300545594452
  0
LINE
  5
FCE
330
DEB
100
AcDbEntity
  8
0
  6
Continuous
 62
     7
370
    15
100
AcDbLine
 10
2147.657165694432
 20
1128.693603568232
 30
0.0
 11
2148.283467863304
 21
1128.33204702209
 31
0.0
  0
LINE
  5
FCF
330
DEB
100
AcDbEntity
  8
0
  6
Continuous
 62
     7
370
    15
100
AcDbLine
 10
2142.878111019395
 20
1133.412672095129
 30
0.0
 11
2143.770946709584
 21
1133.928095167986
 31
0.0
  0
LINE
  5
FD0
330
DEB
100
AcDbEntity
  8
0
  6
Continuous
 62
     7
370
    15
100
AcDbLine
 10
2144.617255427683
 20
1133.439531544397
 30
0.0
 11
2143.770946709584
 21
1133.928095167986
 31
0.0
  0
LINE
  5
FD1
330
DEB
100
AcDbEntity
  8
0
  6
Continuous
 62
     7
370
    15
100
AcDbLine
 10
2143.627305887002
 20
1132.868045838977
 30
0.0
 11
2142.878103507872
 21
1133.300551166314
 31
0.0
  0
ARC
  5
FD2
330
DEB
100
AcDbEntity
  8
0
  6
Continuous
 62
     7
370
    15
100
AcDbCircle
 10
2142.682721656834
 20
1133.356624720548
 30
0.0
 40
0.2032690610981792
100
AcDbArc
 50
343.9868019122299
 51
16.00552104512752
  0
LINE
  5
FD3
330
DEB
100
AcDbEntity
  8
0
  6
Continuous
 62
     7
370
    15
100
AcDbLine
 10
2142.878103507872
 20
1132.892310351503
 30
0.0
 11
2142.878103507872
 21
1133.300551166314
 31
0.0
  0
LINE
  5
FD4
330
DEB
100
AcDbEntity
  8
0
  6
Continuous
 62
     7
370
    15
100
AcDbLine
 10
2142.745622709794
 20
1134.795237265793
 30
0.0
 11
2142.745622709794
 21
1134.520010536208
 31
0.0
  0
LINE
  5
FD5
330
DEB
100
AcDbEntity
  8
0
  6
Continuous
 62
     7
370
    15
100
AcDbLine
 10
2142.383138430484
 20
1133.290172873716
 30
0.0
 11
2142.383138430484
 21
1133.698413688527
 31
0.0
  0
LINE
  5
FD6
330
DEB
100
AcDbEntity
  8
0
  6
Continuous
 62
     7
370
    15
100
AcDbLine
 10
2142.878111019395
 20
1133.300537279043
 30
0.0
 11
2142.878111019395
 21
1133.412672095129
 31
0.0
  0
LINE
  5
FD7
330
DEB
100
AcDbEntity
  8
0
  6
Continuous
 62
     7
370
    15
100
AcDbLine
 10
2148.778442592486
 20
1128.617789851039
 30
0.0
 11
2148.152140423614
 21
1128.979346397182
 31
0.0
  0
LINE
  5
FD8
330
DEB
100
AcDbEntity
  8
0
  6
Continuous
 62
     7
370
    15
100
AcDbLine
 10
2143.275974120673
 20
1134.213836761384
 30
0.0
 11
2143.275974120673
 21
1133.805595946574
 31
0.0
  0
ARC
  5
FD9
330
DEB
100
AcDbEntity
  8
0
  6
Continuous
 62
     7
370
    15
100
AcDbCircle
 10
2137.829368455692
 20
1138.343546790494
 30
0.0
 40
0.3766271112075023
100
AcDbArc
 50
54.33654309821996
 51
114.3615365630971
  0
LINE
  5
FDA
330
DEB
100
AcDbEntity
  8
0
  6
Continuous
 62
     7
370
    15
100
AcDbLine
 10
2137.430840904481
 20
1111.281124555809
 30
0.0
 11
2139.047584546782
 21
1112.214450794102
 31
0.0
  0
LINE
  5
FDB
330
DEB
100
AcDbEntity
  8
0
  6
Continuous
 62
     7
370
    15
100
AcDbLine
 10
2137.56444641426
 20
1110.328404847518
 30
0.0
 11
2139.016305082059
 21
1111.166545016123
 31
0.0
  0
LINE
  5
FDC
330
DEB
100
AcDbEntity
  8
0
  6
Continuous
 62
     8
370
    15
100
AcDbLine
 10
2168.426940839513
 20
1120.587026071282
 30
0.0
 11
2168.372976574442
 21
1119.656835954532
 31
0.0
  0
LINE
  5
FDD
330
DEB
100
AcDbEntity
  8
0
  6
Continuous
 62
     8
370
    15
100
AcDbLine
 10
2166.177098931337
 20
1112.964311054821
 30
0.0
 11
2166.794791124675
 21
1113.320897167886
 31
0.0
  0
LINE
  5
FDE
330
DEB
100
AcDbEntity
  8
0
  6
Continuous
 62
     8
370
    15
100
AcDbLine
 10
2165.809662706018
 20
1113.827432377167
 30
0.0
 11
2165.983181116701
 21
1113.927602423475
 31
0.0
  0
SPLINE
  5
FDF
330
DEB
100
AcDbEntity
  8
0
  6
Continuous
 62
     8
370
    15
100
AcDbSpline
210
0.0
220
0.0
230
1.0
 70
     8
 71
     3
 72
     9
 73
     5
 74
     0
 42
0.0000000001
 43
0.0000000001
 40
0.0
 40
0.0
 40
0.0
 40
0.0
 40
0.0666681189898856
 40
1.0
 40
1.0
 40
1.0
 40
1.0
 10
2166.413576666525
 20
1118.4737366606
 30
0.0
 10
2166.407074688899
 20
1118.550140227639
 30
0.0
 10
2166.30954714915
 20
1119.696168767169
 30
0.0
 10
2166.233431671216
 20
1120.83314597865
 30
0.0
 10
2166.162390669023
 20
1121.894323058108
 30
0.0
  0
LINE
  5
FE0
330
DEB
100
AcDbEntity
  8
0
  6
Continuous
 62
     8
370
    15
100
AcDbLine
 10
2166.867127135156
 20
1109.339997495431
 30
0.0
 11
2166.95188922196
 21
1109.388929606593
 31
0.0
  0
LINE
  5
FE1
330
DEB
100
AcDbEntity
  8
0
  6
Continuous
 62
     8
370
    15
100
AcDbLine
 10
2168.085382449908
 20
1119.268368586982
 30
0.0
 11
2168.162848357471
 21
1120.856952417059
 31
0.0
  0
SPLINE
  5
FE2
330
DEB
100
AcDbEntity
  8
0
  6
Continuous
 62
     8
370
    15
100
AcDbSpline
210
0.0
220
0.0
230
1.0
 70
     8
 71
     3
 72
     9
 73
     5
 74
     0
 42
0.0000000001
 43
0.0000000001
 40
0.0
 40
0.0
 40
0.0
 40
0.0
 40
0.9880153319392299
 40
0.9999999999999998
 40
0.9999999999999998
 40
0.9999999999999998
 40
0.9999999999999998
 10
2166.630051770827
 20
1121.741817051655
 30
0.0
 10
2166.675127042351
 20
1120.691940114831
 30
0.0
 10
2166.720749078839
 20
1119.629328126043
 30
0.0
 10
2166.777059466703
 20
1118.561271110415
 30
0.0
 10
2166.77773432801
 20
1118.548470801613
 30
0.0
  0
LINE
  5
FE3
330
DEB
100
AcDbEntity
  8
0
  6
Continuous
 62
     8
370
    15
100
AcDbLine
 10
2167.99455632064
 20
1103.567665957703
 30
0.0
 11
2167.857662368859
 21
1103.488638761482
 31
0.0
  0
LINE
  5
FE4
330
DEB
100
AcDbEntity
  8
0
  6
Continuous
 62
     8
370
    15
100
AcDbLine
 10
2167.803209628401
 20
1102.681617479247
 30
0.0
 11
2167.66631567662
 21
1102.602590283026
 31
0.0
  0
LINE
  5
FE5
330
DEB
100
AcDbEntity
  8
0
  6
Continuous
 62
     8
370
    15
100
AcDbLine
 10
2167.611947229858
 20
1101.795569008701
 30
0.0
 11
2167.475053278078
 21
1101.71654181248
 31
0.0
  0
LINE
  5
FE6
330
DEB
100
AcDbEntity
  8
0
  6
Continuous
 62
     8
370
    15
100
AcDbLine
 10
2167.420600537619
 20
1100.90956919987
 30
0.0
 11
2167.283706585839
 21
1100.830542003649
 31
0.0
  0
LINE
  5
FE7
330
DEB
100
AcDbEntity
  8
0
  6
Continuous
 62
     8
370
    15
100
AcDbLine
 10
2153.606127013386
 20
1121.003937572996
 30
0.0
 11
2153.681118604596
 21
1121.047229297112
 31
0.0
  0
LINE
  5
FE8
330
DEB
100
AcDbEntity
  8
0
  6
Continuous
 62
     8
370
    15
100
AcDbLine
 10
2153.12995191891
 20
1121.131553318477
 30
0.0
 11
2153.684685940196
 21
1121.451794452441
 31
0.0
  0
LINE
  5
FE9
330
DEB
100
AcDbEntity
  8
0
  6
Continuous
 62
     8
370
    15
100
AcDbLine
 10
2162.878602273177
 20
1101.919184523634
 30
0.0
 11
2163.465110737701
 21
1102.257768653238
 31
0.0
  0
LINE
  5
FEA
330
DEB
100
AcDbEntity
  8
0
  6
Continuous
 62
     8
370
    15
100
AcDbLine
 10
2162.727210793326
 20
1094.737869804632
 30
0.0
 11
2165.917989408633
 21
1096.579867091234
 31
0.0
  0
LINE
  5
FEB
330
DEB
100
AcDbEntity
  8
0
  6
Continuous
 62
     8
370
    15
100
AcDbLine
 10
2151.436744426833
 20
1120.424322127006
 30
0.0
 11
2151.577469132016
 21
1120.505560770095
 31
0.0
  0
LINE
  5
FEC
330
DEB
100
AcDbEntity
  8
0
  6
Continuous
 62
     8
370
    15
100
AcDbLine
 10
2150.817691515905
 20
1121.086608966473
 30
0.0
 11
2151.308840924676
 21
1121.370143484954
 31
0.0
  0
LINE
  5
FED
330
DEB
100
AcDbEntity
  8
0
  6
Continuous
 62
     8
370
    15
100
AcDbLine
 10
2160.382075848482
 20
1103.126127311391
 30
0.0
 11
2161.17148171128
 21
1103.581841615832
 31
0.0
  0
LINE
  5
FEE
330
DEB
100
AcDbEntity
  8
0
  6
Continuous
 62
     8
370
    15
100
AcDbLine
 10
2166.06094221684
 20
1091.406698115622
 30
0.0
 11
2167.082610553748
 21
1091.996494692346
 31
0.0
  0
LINE
  5
FEF
330
DEB
100
AcDbEntity
  8
0
  6
Continuous
 62
     8
370
    15
100
AcDbLine
 10
2160.525543720813
 20
1098.143028209571
 30
0.0
 11
2162.027428969116
 21
1099.010048108378
 31
0.0
  0
LINE
  5
FF0
330
DEB
100
AcDbEntity
  8
0
  6
Continuous
 62
     8
370
    15
100
AcDbLine
 10
2167.050887394664
 20
1090.590260706014
 30
0.0
 11
2167.263019397937
 21
1090.712721904844
 31
0.0
  0
LINE
  5
FF1
330
DEB
100
AcDbEntity
  8
0
  6
Continuous
 62
     8
370
    15
100
AcDbLine
 10
2166.273025158547
 20
1091.03931101662
 30
0.0
 11
2167.239553810756
 21
1091.597276130919
 31
0.0
  0
LINE
  5
FF2
330
DEB
100
AcDbEntity
  8
0
  6
Continuous
 62
     8
370
    15
100
AcDbLine
 10
2147.946732489041
 20
1122.968393975629
 30
0.0
 11
2148.051247947632
 21
1123.028729465597
 31
0.0
  0
LINE
  5
FF3
330
DEB
100
AcDbEntity
  8
0
  6
Continuous
 62
     8
370
    15
100
AcDbLine
 10
2164.788107391811
 20
1091.875778201736
 30
0.0
 11
2165.495214124265
 21
1092.283982229515
 31
0.0
  0
LINE
  5
FF4
330
DEB
100
AcDbEntity
  8
0
  6
Continuous
 62
     8
370
    15
100
AcDbLine
 10
2164.13913021844
 20
1092.250424749347
 30
0.0
 11
2165.495230340924
 21
1093.033284686415
 31
0.0
  0
LINE
  5
FF5
330
DEB
100
AcDbEntity
  8
0
  6
Continuous
 62
     8
370
    15
100
AcDbLine
 10
2161.290424727589
 20
1096.424624190305
 30
0.0
 11
2162.064501155966
 21
1096.871489000622
 31
0.0
  0
LINE
  5
FF6
330
DEB
100
AcDbEntity
  8
0
  6
Continuous
 62
     8
370
    15
100
AcDbLine
 10
2141.78499066511
 20
1135.967096532961
 30
0.0
 11
2141.730443752786
 21
1135.027906741302
 31
0.0
  0
SPLINE
  5
FF7
330
DEB
100
AcDbEntity
  8
0
  6
Continuous
 62
     8
370
    15
100
AcDbSpline
210
0.0
220
0.0
230
1.0
 70
     8
 71
     3
 72
     9
 73
     5
 74
     0
 42
0.0000000001
 43
0.0000000001
 40
0.0
 40
0.0
 40
0.0
 40
0.0
 40
0.0669919268863958
 40
1.0
 40
1.0
 40
1.0
 40
1.0
 10
2139.771374928119
 20
1133.852883136013
 30
0.0
 10
2139.764930928305
 20
1133.929641942694
 30
0.0
 10
2139.668740236182
 20
1135.075433835065
 30
0.0
 10
2139.591976958613
 20
1136.213043334489
 30
0.0
 10
2139.520356200923
 20
1137.274442181502
 30
0.0
  0
LINE
  5
FF8
330
DEB
100
AcDbEntity
  8
0
  6
Continuous
 62
     8
370
    15
100
AcDbLine
 10
2141.443095100717
 20
1134.643961411519
 30
0.0
 11
2141.520813889371
 21
1136.237071540453
 31
0.0
  0
SPLINE
  5
FF9
330
DEB
100
AcDbEntity
  8
0
  6
Continuous
 62
     8
370
    15
100
AcDbSpline
210
0.0
220
0.0
230
1.0
 70
     8
 71
     3
 72
     9
 73
     5
 74
     0
 42
0.0000000001
 43
0.0000000001
 40
0.0
 40
0.0
 40
0.0
 40
0.0
 40
0.9902789214033466
 40
1.0
 40
1.0
 40
1.0
 40
1.0
 10
2139.988017302727
 20
1137.121936175049
 30
0.0
 10
2140.032266192812
 20
1136.07250801059
 30
0.0
 10
2140.076949452375
 20
1135.012778128658
 30
0.0
 10
2140.134800312365
 20
1133.94635446463
 30
0.0
 10
2140.135362685121
 20
1133.935987676375
 30
0.0
  0
LINE
  5
FFA
330
DEB
100
AcDbEntity
  8
0
  6
Continuous
 62
     8
370
    15
100
AcDbLine
 10
2133.346979871169
 20
1131.91673537456
 30
0.0
 11
2133.569514408126
 21
1132.04520182826
 31
0.0
  0
LINE
  5
FFB
330
DEB
100
AcDbEntity
  8
0
  6
Continuous
 62
     8
370
    15
100
AcDbLine
 10
2133.166507065846
 20
1132.826013044802
 30
0.0
 11
2133.251288744348
 21
1132.874956466012
 31
0.0
  0
LINE
  5
FFC
330
DEB
100
AcDbEntity
  8
0
  6
Continuous
 62
     8
370
    15
100
AcDbLine
 10
2133.162039499904
 20
1132.799585019202
 30
0.0
 11
2133.273431809521
 21
1132.863890430764
 31
0.0
  0
LINE
  5
FFD
330
DEB
100
AcDbEntity
  8
0
  6
Continuous
 62
     8
370
    15
100
AcDbLine
 10
2132.969934164391
 20
1128.844721932473
 30
0.0
 11
2133.141484020903
 21
1128.943755556648
 31
0.0
  0
LINE
  5
FFE
330
DEB
100
AcDbEntity
  8
0
  6
Continuous
 62
     8
370
    15
100
AcDbLine
 10
2132.657035961046
 20
1129.089062759572
 30
0.0
 11
2133.107455709088
 21
1129.349084545396
 31
0.0
  0
LINE
  5
FFF
330
DEB
100
AcDbEntity
  8
0
  6
Continuous
 62
     8
370
    15
100
AcDbLine
 10
2132.576704067784
 20
1129.304223634069
 30
0.0
 11
2133.042477451757
 21
1129.573108885252
 31
0.0
  0
LINE
  5
1000
330
DEB
100
AcDbEntity
  8
0
  6
Continuous
 62
     8
370
    15
100
AcDbLine
 10
2132.456501255831
 20
1129.562940081761
 30
0.0
 11
2132.935080860942
 21
1129.839218207047
 31
0.0
  0
LINE
  5
1001
330
DEB
100
AcDbEntity
  8
0
  6
Continuous
 62
     8
370
    15
100
AcDbLine
 10
2132.026687694717
 20
1129.87638080588
 30
0.0
 11
2132.856857133287
 21
1130.355627421715
 31
0.0
  0
LINE
  5
1002
330
DEB
100
AcDbEntity
  8
0
  6
Continuous
 62
     8
370
    15
100
AcDbLine
 10
2132.572320795539
 20
1129.277746946752
 30
0.0
 11
2133.049483212869
 21
1129.553206946946
 31
0.0
  0
LINE
  5
1003
330
DEB
100
AcDbEntity
  8
0
  6
Continuous
 62
     8
370
    15
100
AcDbLine
 10
2137.607099024954
 20
1116.338401832259
 30
0.0
 11
2138.340191923693
 21
1116.761607354518
 31
0.0
  0
LINE
  5
1004
330
DEB
100
AcDbEntity
  8
0
  6
Continuous
 62
     8
370
    15
100
AcDbLine
 10
2131.601703569752
 20
1127.080314072279
 30
0.0
 11
2131.496058871965
 21
1127.0193266864
 31
0.0
  0
LINE
  5
1005
330
DEB
100
AcDbEntity
  8
0
  6
Continuous
 62
     8
370
    15
100
AcDbLine
 10
2131.530403449781
 20
1126.040106301145
 30
0.0
 11
2131.465713141037
 21
1126.002761380816
 31
0.0
  0
LINE
  5
1006
330
DEB
100
AcDbEntity
  8
0
  6
Continuous
 62
     8
370
    15
100
AcDbLine
 10
2131.514454160343
 20
1125.002465444286
 30
0.0
 11
2131.488725320324
 21
1124.987612501098
 31
0.0
  0
LINE
  5
1007
330
DEB
100
AcDbEntity
  8
0
  6
Continuous
 62
     8
370
    15
100
AcDbLine
 10
2131.682949522792
 20
1123.883613562645
 30
0.0
 11
2131.672064111347
 21
1123.877329548377
 31
0.0
  0
LINE
  5
1008
330
DEB
100
AcDbEntity
  8
0
  6
Continuous
 62
     8
370
    15
100
AcDbLine
 10
2131.87429621503
 20
1122.776689565458
 30
0.0
 11
2131.863410803586
 21
1122.77040555119
 31
0.0
  0
LINE
  5
1009
330
DEB
100
AcDbEntity
  8
0
  6
Continuous
 62
     8
370
    15
100
AcDbLine
 10
2132.902330619379
 20
1119.305542086196
 30
0.0
 11
2133.418506036543
 21
1119.603523811805
 31
0.0
  0
LINE
  5
100A
330
DEB
100
AcDbEntity
  8
0
  6
Continuous
 62
     8
370
    15
100
AcDbLine
 10
2134.003796358364
 20
1112.932552720054
 30
0.0
 11
2136.698554064219
 21
1114.488203230693
 31
0.0
  0
LINE
  5
100B
330
DEB
100
AcDbEntity
  8
0
  6
Continuous
 62
     8
370
    15
100
AcDbLine
 10
2132.06564290727
 20
1121.669765568271
 30
0.0
 11
2132.054757495826
 21
1121.663481554003
 31
0.0
  0
LINE
  5
100C
330
DEB
100
AcDbEntity
  8
0
  6
Continuous
 62
     8
370
    15
100
AcDbLine
 10
2132.256905305812
 20
1120.562841563175
 30
0.0
 11
2132.246019894368
 21
1120.556557548907
 31
0.0
  0
LINE
  5
100D
330
DEB
100
AcDbEntity
  8
0
  6
Continuous
 62
     8
370
    15
100
AcDbLine
 10
2138.233738368613
 20
1109.734965906752
 30
0.0
 11
2139.134451094878
 21
1110.254936295743
 31
0.0
  0
LINE
  5
100E
330
DEB
100
AcDbEntity
  8
0
  6
Continuous
 62
     8
370
    15
100
AcDbLine
 10
2138.336155210495
 20
1109.488342191968
 30
0.0
 11
2139.385123180709
 21
1110.093898511544
 31
0.0
  0
LINE
  5
100F
330
DEB
100
AcDbEntity
  8
0
  6
Continuous
 62
     8
370
    15
100
AcDbLine
 10
2135.385032877762
 20
1108.849811816232
 30
0.0
 11
2136.797383484894
 21
1109.665144466886
 31
0.0
  0
LINE
  5
1010
330
DEB
100
AcDbEntity
  8
0
  6
Continuous
 62
     8
370
    15
100
AcDbLine
 10
2134.028915880076
 20
1112.652948081259
 30
0.0
 11
2136.704515661855
 21
1114.197538957739
 31
0.0
  0
LINE
  5
1011
330
DEB
100
AcDbEntity
  8
0
  6
Continuous
 62
     8
370
    15
100
AcDbLine
 10
2134.028915880076
 20
1110.449236129206
 30
0.0
 11
2136.749350195139
 21
1112.019709430828
 31
0.0
  0
LINE
  5
1012
330
DEB
100
AcDbEntity
  8
0
  6
Continuous
 62
     8
370
    15
100
AcDbLine
 10
2134.736055704391
 20
1109.224458363843
 30
0.0
 11
2136.782605293385
 21
1110.405906293743
 31
0.0
  0
LINE
  5
1013
330
DEB
100
AcDbEntity
  8
0
  6
Continuous
 62
     8
370
    15
100
AcDbLine
 10
2132.345992219036
 20
1111.860132319124
 30
0.0
 11
2133.463219479955
 21
1112.50509388846
 31
0.0
  0
LINE
  5
1014
330
DEB
100
AcDbEntity
  8
0
  6
Continuous
 62
     8
370
    15
100
AcDbLine
 10
2133.251137937655
 20
1110.102440739116
 30
0.0
 11
2133.463269940928
 21
1110.224901937945
 31
0.0
  0
LINE
  5
1015
330
DEB
100
AcDbEntity
  8
0
  6
Continuous
 62
     8
370
    15
100
AcDbLine
 10
2132.261192759832
 20
1111.643739209212
 30
0.0
 11
2133.463271834244
 21
1112.337684687826
 31
0.0
  0
LINE
  5
1016
330
DEB
100
AcDbEntity
  8
0
  6
Continuous
 62
     8
370
    15
100
AcDbLine
 10
2132.473275701538
 20
1110.551491049721
 30
0.0
 11
2133.463222772678
 21
1111.122975329505
 31
0.0
  0
LINE
  5
1017
330
DEB
100
AcDbEntity
  8
0
  6
Continuous
 62
     8
370
    15
100
AcDbLine
 10
2132.261192759832
 20
1110.918878148723
 30
0.0
 11
2133.463271834244
 21
1111.612823627336
 31
0.0
  0
ENDBLK
  5
DED
330
DEB
100
AcDbEntity
  8
0
100
AcDbBlockEnd
  0
ENDSEC
  0
SECTION
  2
ENTITIES
  0
INSERT
  5
C36
330
1F
100
AcDbEntity
  8
0
100
AcDbBlockReference
  2
1
 10
0.0
 20
0.0
 30
0.0
  0
INSERT
  5
CCC
330
1F
100
AcDbEntity
  8
0
100
AcDbBlockReference
  2
2
 10
0.0
 20
0.0
 30
0.0
  0
INSERT
  5
DEA
330
1F
100
AcDbEntity
  8
0
100
AcDbBlockReference
  2
3
 10
0.0
 20
0.0
 30
0.0
  0
INSERT
  5
1018
330
1F
100
AcDbEntity
  8
0
100
AcDbBlockReference
  2
4
 10
0.0
 20
0.0
 30
0.0
  0
ENDSEC
  0
SECTION
  2
OBJECTS
  0
DICTIONARY
  5
C
330
0
100
AcDbDictionary
281
     1
  3
ACAD_COLOR
350
6B
  3
ACAD_GROUP
350
D
  3
ACAD_LAYOUT
350
1A
  3
ACAD_MATERIAL
350
6A
  3
ACAD_MLEADERSTYLE
350
12D
  3
ACAD_MLINESTYLE
350
17
  3
ACAD_PLOTSETTINGS
350
19
  3
ACAD_PLOTSTYLENAME
350
E
  3
ACAD_SCALELIST
350
10C
  3
ACAD_TABLESTYLE
350
7E
  3
ACAD_VISUALSTYLE
350
EF
  3
ACDB_RECOMPOSE_DATA
350
15D
  3
AcDbVariableDictionary
350
5E
  3
DWGPROPS
350
1026
  0
DICTIONARY
  5
13C
330
10
100
AcDbDictionary
280
     1
281
     1
  3
ADSK_XREC_LAYER_RECONCILED
360
1019
  0
DICTIONARY
  5
6B
102
{ACAD_REACTORS
330
C
102
}
330
C
100
AcDbDictionary
281
     1
  0
DICTIONARY
  5
D
102
{ACAD_REACTORS
330
C
102
}
330
C
100
AcDbDictionary
281
     1
  0
DICTIONARY
  5
1A
102
{ACAD_REACTORS
330
C
102
}
330
C
100
AcDbDictionary
281
     1
  3
Layout1
350
D3
  3
Layout2
350
D7
  3
Model
350
22
  0
DICTIONARY
  5
6A
102
{ACAD_REACTORS
330
C
102
}
330
C
100
AcDbDictionary
281
     1
  3
ByBlock
350
ED
  3
ByLayer
350
EC
  3
Global
350
EE
  0
DICTIONARY
  5
12D
102
{ACAD_REACTORS
330
C
102
}
330
C
100
AcDbDictionary
281
     1
  3
Annotative
350
13B
  3
Standard
350
12E
  0
DICTIONARY
  5
17
102
{ACAD_REACTORS
330
C
102
}
330
C
100
AcDbDictionary
281
     1
  3
Standard
350
18
  0
DICTIONARY
  5
19
102
{ACAD_REACTORS
330
C
102
}
330
C
100
AcDbDictionary
281
     1
  0
ACDBDICTIONARYWDFLT
  5
E
102
{ACAD_REACTORS
330
C
102
}
330
C
100
AcDbDictionary
281
     1
  3
Normal
350
F
100
AcDbDictionaryWithDefault
340
F
  0
DICTIONARY
  5
10C
102
{ACAD_REACTORS
330
C
102
}
330
C
100
AcDbDictionary
281
     1
  3
A0
350
10D
  3
A1
350
188
  3
A2
350
189
  3
A3
350
18A
  3
A4
350
18B
  3
A5
350
18C
  3
A6
350
18D
  3
A7
350
18E
  3
A8
350
18F
  3
A9
350
190
  3
B0
350
191
  3
B1
350
192
  3
B2
350
193
  3
B3
350
194
  3
B4
350
195
  3
B5
350
196
  3
B6
350
197
  3
B7
350
198
  3
B8
350
199
  3
B9
350
19A
  3
C0
350
19B
  3
C1
350
19C
  3
C2
350
19D
  3
C3
350
19E
  3
C4
350
19F
  3
C5
350
1A0
  3
C6
350
1A1
  3
C7
350
1A2
  3
C8
350
1A3
  3
C9
350
1A4
  3
D0
350
1A5
  3
D1
350
1A6
  3
D2
350
1A7
  0
DICTIONARY
  5
7E
102
{ACAD_REACTORS
330
C
102
}
330
C
100
AcDbDictionary
281
     1
  3
Standard
350
7F
  0
DICTIONARY
  5
EF
102
{ACAD_REACTORS
330
C
102
}
330
C
100
AcDbDictionary
281
     1
  3
2dWireframe
350
F5
  3
3D Hidden
350
F7
  3
3dWireframe
350
F6
  3
Basic
350
F4
  3
Brighten
350
FB
  3
ColorChange
350
FF
  3
Conceptual
350
F8
  3
Dim
350
FA
  3
Facepattern
350
FE
  3
Flat
350
F0
  3
FlatWithEdges
350
F1
  3
Gouraud
350
F2
  3
GouraudWithEdges
350
F3
  3
Linepattern
350
FD
  3
Realistic
350
F9
  3
Thicken
350
FC
  0
XRECORD
  5
15D
102
{ACAD_REACTORS
330
C
102
}
330
C
100
AcDbXrecord
280
     1
 90
        1
330
7F
  0
DICTIONARY
  5
5E
102
{ACAD_REACTORS
330
C
102
}
330
C
100
AcDbDictionary
281
     1
  3
CANNOSCALE
350
146
  3
CMLEADERSTYLE
350
145
  3
CTABLESTYLE
350
84
  3
DIMASSOC
350
5F
  3
HIDETEXT
350
63
  3
INDEXCTL
350
1022
  3
LIGHTINGUNITS
350
1020
  3
MSLTSCALE
350
101F
  3
PSOLHEIGHT
350
1024
  3
PSOLWIDTH
350
1023
  3
SORTENTS
350
1021
  0
XRECORD
  5
1026
102
{ACAD_REACTORS
330
C
102
}
330
C
100
AcDbXrecord
280
     1
  1
DWGPROPS COOKIE
  2

  3

  4

  6

  7

  8
orhan kara
  9

300
=
301
=
302
=
303
=
304
=
305
=
306
=
307
=
308
=
309
=
 40
0.0013015162037037
 41
2458559.609083172
 42
2458956.422162384
  1

 90
        0
  0
XRECORD
  5
1019
102
{ACAD_REACTORS
330
13C
102
}
330
13C
100
AcDbXrecord
280
     1
290
     1
  0
LAYOUT
  5
D3
102
{ACAD_XDICTIONARY
360
102A
102
}
102
{ACAD_REACTORS
330
1A
102
}
330
1A
100
AcDbPlotSettings
  1

  2
C:\Documents and Settings\basas\Application Data\Autodesk\AutoCAD 2005\R16.1\enu\plotters\Default Windows System Printer.pc3
  4

  6

 40
0.0
 41
0.0
 42
0.0
 43
0.0
 44
0.0
 45
0.0
 46
0.0
 47
0.0
 48
0.0
 49
0.0
140
0.0
141
0.0
142
1.0
143
1.0
 70
   688
 72
     0
 73
     0
 74
     5
  7

 75
    16
147
1.0
148
0.0
149
0.0
100
AcDbLayout
  1
Layout1
 70
     1
 71
     1
 10
0.0
 20
0.0
 11
12.0
 21
9.0
 12
0.0
 22
0.0
 32
0.0
 14
0.0
 24
0.0
 34
0.0
 15
0.0
 25
0.0
 35
0.0
146
0.0
 13
0.0
 23
0.0
 33
0.0
 16
1.0
 26
0.0
 36
0.0
 17
0.0
 27
1.0
 37
0.0
 76
     0
330
D2
  0
LAYOUT
  5
D7
102
{ACAD_XDICTIONARY
360
102C
102
}
102
{ACAD_REACTORS
330
1A
102
}
330
1A
100
AcDbPlotSettings
  1

  2
C:\Documents and Settings\basas\Application Data\Autodesk\AutoCAD 2005\R16.1\enu\plotters\Default Windows System Printer.pc3
  4

  6

 40
0.0
 41
0.0
 42
0.0
 43
0.0
 44
0.0
 45
0.0
 46
0.0
 47
0.0
 48
0.0
 49
0.0
140
0.0
141
0.0
142
1.0
143
1.0
 70
   688
 72
     0
 73
     0
 74
     5
  7

 75
    16
147
1.0
148
0.0
149
0.0
100
AcDbLayout
  1
Layout2
 70
     1
 71
     2
 10
0.0
 20
0.0
 11
12.0
 21
9.0
 12
0.0
 22
0.0
 32
0.0
 14
0.0
 24
0.0
 34
0.0
 15
0.0
 25
0.0
 35
0.0
146
0.0
 13
0.0
 23
0.0
 33
0.0
 16
1.0
 26
0.0
 36
0.0
 17
0.0
 27
1.0
 37
0.0
 76
     0
330
D6
  0
LAYOUT
  5
22
102
{ACAD_XDICTIONARY
360
1027
102
}
102
{ACAD_REACTORS
330
1A
102
}
330
1A
100
AcDbPlotSettings
  1

  2
none_device
  4
ISO_A4_(210.00_x_297.00_MM)
  6

 40
7.5
 41
20.0
 42
7.5
 43
20.0
 44
210.0
 45
297.0
 46
11.54999923706054
 47
-13.65000009536743
 48
0.0
 49
0.0
140
0.0
141
0.0
142
1.0
143
8.704084754739808
 70
 11952
 72
     1
 73
     0
 74
     0
  7

 75
     0
147
0.1148885871608098
148
0.0
149
0.0
100
AcDbLayout
  1
Model
 70
     1
 71
     0
 10
0.0
 20
0.0
 11
12.0
 21
9.0
 12
0.0
 22
0.0
 32
0.0
 14
0.0
 24
0.0
 34
0.0
 15
0.0
 25
0.0
 35
0.0
146
0.0
 13
0.0
 23
0.0
 33
0.0
 16
1.0
 26
0.0
 36
0.0
 17
0.0
 27
1.0
 37
0.0
 76
     0
330
1F
331
EA
1001
ACAD_PSEXT
1000
None
1000
None
1000
Not applicable
1000
The layout will not be plotted unless a new plotter configuration name is selected.
1070
     0
  0
MATERIAL
  5
ED
102
{ACAD_XDICTIONARY
360
1030
102
}
102
{ACAD_REACTORS
330
6A
102
}
330
6A
100
AcDbMaterial
  1
ByBlock
  0
MATERIAL
  5
EC
102
{ACAD_XDICTIONARY
360
102E
102
}
102
{ACAD_REACTORS
330
6A
102
}
330
6A
100
AcDbMaterial
  1
ByLayer
  0
MATERIAL
  5
EE
102
{ACAD_XDICTIONARY
360
173
102
}
102
{ACAD_REACTORS
330
6A
102
}
330
6A
100
AcDbMaterial
  1
Global
 43
0.0007999999797903
 43
0.0
 43
0.0
 43
0.0
 43
0.0
 43
0.0007999999797903
 43
0.0
 43
0.0
 43
0.0
 43
0.0
 43
1.0
 43
0.0
 43
0.0
 43
0.0
 43
0.0
 43
1.0
 49
0.0007999999797903
 49
0.0
 49
0.0
 49
0.0
 49
0.0
 49
0.0007999999797903
 49
0.0
 49
0.0
 49
0.0
 49
0.0
 49
1.0
 49
0.0
 49
0.0
 49
0.0
 49
0.0
 49
1.0
142
0.0007999999797903
142
0.0
142
0.0
142
0.0
142
0.0
142
0.0007999999797903
142
0.0
142
0.0
142
0.0
142
0.0
142
1.0
142
0.0
142
0.0
142
0.0
142
0.0
142
1.0
144
0.0007999999797903
144
0.0
144
0.0
144
0.0
144
0.0
144
0.0007999999797903
144
0.0
144
0.0
144
0.0
144
0.0
144
1.0
144
0.0
144
0.0
144
0.0
144
0.0
144
1.0
1001
ACAD
1070
    -1
1070
     3
1070
     0
1000

1071
        0
1070
     0
  0
MLEADERSTYLE
  5
13B
102
{ACAD_REACTORS
330
12D
102
}
330
12D
100
AcDbMLeaderStyle
170
     2
171
     1
172
     0
 90
        2
 40
0.0
 41
0.0
173
     1
 91
-1056964608
340
14
 92
       -2
290
     1
 42
2.0
291
     1
 43
8.0
  3
Standard
 44
4.0
300

342
11
174
     1
178
     1
175
     1
176
     0
 93
-1056964608
 45
4.0
292
     0
297
     0
 46
4.0
 94
-1056964608
 47
1.0
 49
1.0
140
1.0
293
     1
141
0.0
294
     1
177
     0
142
1.0
295
     0
296
     1
143
3.75
1001
ACAD_MLEADERVER
1070
     2
  0
MLEADERSTYLE
  5
12E
102
{ACAD_REACTORS
330
12D
102
}
330
12D
100
AcDbMLeaderStyle
170
     2
171
     1
172
     0
 90
        2
 40
0.0
 41
0.0
173
     1
 91
-1056964608
340
14
 92
       -2
290
     1
 42
2.0
291
     1
 43
8.0
  3
Standard
 44
4.0
300

342
11
174
     1
178
     1
175
     1
176
     0
 93
-1056964608
 45
4.0
292
     0
297
     0
 46
4.0
 94
-1056964608
 47
1.0
 49
1.0
140
1.0
293
     1
141
0.0
294
     1
177
     0
142
1.0
295
     0
296
     0
143
3.75
1001
ACAD_MLEADERVER
1070
     2
  0
MLINESTYLE
  5
18
102
{ACAD_REACTORS
330
17
102
}
330
17
100
AcDbMlineStyle
  2
STANDARD
 70
     0
  3

 62
   256
 51
90.0
 52
90.0
 71
     2
 49
0.5
 62
   256
  6
BYLAYER
 49
-0.5
 62
   256
  6
BYLAYER
  0
ACDBPLACEHOLDER
  5
F
102
{ACAD_REACTORS
330
E
102
}
330
E
  0
SCALE
  5
10D
102
{ACAD_REACTORS
330
10C
102
}
330
10C
100
AcDbScale
 70
     0
300
1:1
140
1.0
141
1.0
290
     1
  0
SCALE
  5
188
102
{ACAD_REACTORS
330
10C
102
}
330
10C
100
AcDbScale
 70
     0
300
1:2
140
1.0
141
2.0
290
     0
  0
SCALE
  5
189
102
{ACAD_REACTORS
330
10C
102
}
330
10C
100
AcDbScale
 70
     0
300
1:4
140
1.0
141
4.0
290
     0
  0
SCALE
  5
18A
102
{ACAD_REACTORS
330
10C
102
}
330
10C
100
AcDbScale
 70
     0
300
1:5
140
1.0
141
5.0
290
     0
  0
SCALE
  5
18B
102
{ACAD_REACTORS
330
10C
102
}
330
10C
100
AcDbScale
 70
     0
300
1:8
140
1.0
141
8.0
290
     0
  0
SCALE
  5
18C
102
{ACAD_REACTORS
330
10C
102
}
330
10C
100
AcDbScale
 70
     0
300
1:10
140
1.0
141
10.0
290
     0
  0
SCALE
  5
18D
102
{ACAD_REACTORS
330
10C
102
}
330
10C
100
AcDbScale
 70
     0
300
1:16
140
1.0
141
16.0
290
     0
  0
SCALE
  5
18E
102
{ACAD_REACTORS
330
10C
102
}
330
10C
100
AcDbScale
 70
     0
300
1:20
140
1.0
141
20.0
290
     0
  0
SCALE
  5
18F
102
{ACAD_REACTORS
330
10C
102
}
330
10C
100
AcDbScale
 70
     0
300
1:30
140
1.0
141
30.0
290
     0
  0
SCALE
  5
190
102
{ACAD_REACTORS
330
10C
102
}
330
10C
100
AcDbScale
 70
     0
300
1:40
140
1.0
141
40.0
290
     0
  0
SCALE
  5
191
102
{ACAD_REACTORS
330
10C
102
}
330
10C
100
AcDbScale
 70
     0
300
1:50
140
1.0
141
50.0
290
     0
  0
SCALE
  5
192
102
{ACAD_REACTORS
330
10C
102
}
330
10C
100
AcDbScale
 70
     0
300
1:100
140
1.0
141
100.0
290
     0
  0
SCALE
  5
193
102
{ACAD_REACTORS
330
10C
102
}
330
10C
100
AcDbScale
 70
     0
300
2:1
140
2.0
141
1.0
290
     0
  0
SCALE
  5
194
102
{ACAD_REACTORS
330
10C
102
}
330
10C
100
AcDbScale
 70
     0
300
4:1
140
4.0
141
1.0
290
     0
  0
SCALE
  5
195
102
{ACAD_REACTORS
330
10C
102
}
330
10C
100
AcDbScale
 70
     0
300
8:1
140
8.0
141
1.0
290
     0
  0
SCALE
  5
196
102
{ACAD_REACTORS
330
10C
102
}
330
10C
100
AcDbScale
 70
     0
300
10:1
140
10.0
141
1.0
290
     0
  0
SCALE
  5
197
102
{ACAD_REACTORS
330
10C
102
}
330
10C
100
AcDbScale
 70
     0
300
100:1
140
100.0
141
1.0
290
     0
  0
SCALE
  5
198
102
{ACAD_REACTORS
330
10C
102
}
330
10C
100
AcDbScale
 70
     0
300
1/128" = 1'-0"
140
0.0078125
141
12.0
290
     0
  0
SCALE
  5
199
102
{ACAD_REACTORS
330
10C
102
}
330
10C
100
AcDbScale
 70
     0
300
1/64" = 1'-0"
140
0.015625
141
12.0
290
     0
  0
SCALE
  5
19A
102
{ACAD_REACTORS
330
10C
102
}
330
10C
100
AcDbScale
 70
     0
300
1/32" = 1'-0"
140
0.03125
141
12.0
290
     0
  0
SCALE
  5
19B
102
{ACAD_REACTORS
330
10C
102
}
330
10C
100
AcDbScale
 70
     0
300
1/16" = 1'-0"
140
0.0625
141
12.0
290
     0
  0
SCALE
  5
19C
102
{ACAD_REACTORS
330
10C
102
}
330
10C
100
AcDbScale
 70
     0
300
3/32" = 1'-0"
140
0.09375
141
12.0
290
     0
  0
SCALE
  5
19D
102
{ACAD_REACTORS
330
10C
102
}
330
10C
100
AcDbScale
 70
     0
300
1/8" = 1'-0"
140
0.125
141
12.0
290
     0
  0
SCALE
  5
19E
102
{ACAD_REACTORS
330
10C
102
}
330
10C
100
AcDbScale
 70
     0
300
3/16" = 1'-0"
140
0.1875
141
12.0
290
     0
  0
SCALE
  5
19F
102
{ACAD_REACTORS
330
10C
102
}
330
10C
100
AcDbScale
 70
     0
300
1/4" = 1'-0"
140
0.25
141
12.0
290
     0
  0
SCALE
  5
1A0
102
{ACAD_REACTORS
330
10C
102
}
330
10C
100
AcDbScale
 70
     0
300
3/8" = 1'-0"
140
0.375
141
12.0
290
     0
  0
SCALE
  5
1A1
102
{ACAD_REACTORS
330
10C
102
}
330
10C
100
AcDbScale
 70
     0
300
1/2" = 1'-0"
140
0.5
141
12.0
290
     0
  0
SCALE
  5
1A2
102
{ACAD_REACTORS
330
10C
102
}
330
10C
100
AcDbScale
 70
     0
300
3/4" = 1'-0"
140
0.75
141
12.0
290
     0
  0
SCALE
  5
1A3
102
{ACAD_REACTORS
330
10C
102
}
330
10C
100
AcDbScale
 70
     0
300
1" = 1'-0"
140
1.0
141
12.0
290
     0
  0
SCALE
  5
1A4
102
{ACAD_REACTORS
330
10C
102
}
330
10C
100
AcDbScale
 70
     0
300
1-1/2" = 1'-0"
140
1.5
141
12.0
290
     0
  0
SCALE
  5
1A5
102
{ACAD_REACTORS
330
10C
102
}
330
10C
100
AcDbScale
 70
     0
300
3" = 1'-0"
140
3.0
141
12.0
290
     0
  0
SCALE
  5
1A6
102
{ACAD_REACTORS
330
10C
102
}
330
10C
100
AcDbScale
 70
     0
300
6" = 1'-0"
140
6.0
141
12.0
290
     0
  0
SCALE
  5
1A7
102
{ACAD_REACTORS
330
10C
102
}
330
10C
100
AcDbScale
 70
     0
300
1'-0" = 1'-0"
140
12.0
141
12.0
290
     0
  0
TABLESTYLE
  5
7F
102
{ACAD_XDICTIONARY
360
162
102
}
102
{ACAD_REACTORS
330
7E
102
}
330
7E
100
AcDbTableStyle
  3
Standard
 70
     0
 71
     0
 40
1.5
 41
1.5
280
     0
281
     0
  7
Standard
140
4.5
170
     2
 62
     0
 63
     7
283
     0
274
    -2
284
     1
 64
     0
275
    -2
285
     1
 65
     0
276
    -2
286
     1
 66
     0
277
    -2
287
     1
 67
     0
278
    -2
288
     1
 68
     0
279
    -2
289
     1
 69
     0
  7
Standard
140
6.0
170
     5
 62
     0
 63
     7
283
     0
274
    -2
284
     1
 64
     0
275
    -2
285
     1
 65
     0
276
    -2
286
     1
 66
     0
277
    -2
287
     1
 67
     0
278
    -2
288
     1
 68
     0
279
    -2
289
     1
 69
     0
  7
Standard
140
4.5
170
     5
 62
     0
 63
     7
283
     0
274
    -2
284
     1
 64
     0
275
    -2
285
     1
 65
     0
276
    -2
286
     1
 66
     0
277
    -2
287
     1
 67
     0
278
    -2
288
     1
 68
     0
279
    -2
289
     1
 69
     0
  0
VISUALSTYLE
  5
F5
102
{ACAD_REACTORS
330
EF
102
}
330
EF
100
AcDbVisualStyle
  2
2dWireframe
 70
     4
 71
     0
 72
     2
 73
     1
 90
        0
 40
-0.6
 41
-30.0
 62
     5
 63
     7
 74
     1
 91
        4
 64
     7
 65
   257
 75
     1
175
     1
 42
1.0
 92
        0
 66
   257
 43
1.0
 76
     1
 77
     6
 78
     2
 67
     7
 79
     5
170
     0
171
     0
290
     0
174
     0
 93
        1
 44
0.0
173
     0
291
     0
 45
0.0
1001
ACAD
1000
AcDbSavedByObjectVersion
1070
     0
  0
VISUALSTYLE
  5
F7
102
{ACAD_REACTORS
330
EF
102
}
330
EF
100
AcDbVisualStyle
  2
3D Hidden
 70
     6
 71
     1
 72
     2
 73
     2
 90
        0
 40
-0.6
 41
-30.0
 62
     5
 63
     7
 74
     2
 91
        2
 64
     7
 65
   257
 75
     2
175
     1
 42
40.0
 92
        0
 66
   257
 43
1.0
 76
     1
 77
     6
 78
     2
 67
     7
 79
     3
170
     0
171
     0
290
     0
174
     0
 93
        1
 44
0.0
173
     0
291
     0
 45
0.0
1001
ACAD
1000
AcDbSavedByObjectVersion
1070
     0
  0
VISUALSTYLE
  5
F6
102
{ACAD_REACTORS
330
EF
102
}
330
EF
100
AcDbVisualStyle
  2
3dWireframe
 70
     5
 71
     0
 72
     2
 73
     1
 90
        0
 40
-0.6
 41
-30.0
 62
     5
 63
     7
 74
     1
 91
        4
 64
     7
 65
   257
 75
     1
175
     1
 42
1.0
 92
        0
 66
   257
 43
1.0
 76
     1
 77
     6
 78
     2
 67
     7
 79
     5
170
     0
171
     0
290
     0
174
     0
 93
        1
 44
0.0
173
     0
291
     0
 45
0.0
1001
ACAD
1000
AcDbSavedByObjectVersion
1070
     0
  0
VISUALSTYLE
  5
F4
102
{ACAD_REACTORS
330
EF
102
}
330
EF
100
AcDbVisualStyle
  2
Basic
 70
     7
 71
     1
 72
     0
 73
     1
 90
        0
 40
-0.6
 41
-30.0
 62
     5
 63
     7
 74
     0
 91
        4
 64
     7
 65
   257
 75
     1
175
     1
 42
1.0
 92
        8
 66
     7
 43
1.0
 76
     1
 77
     6
 78
     2
 67
     7
 79
     5
170
     0
171
     0
290
     0
174
     0
 93
        1
 44
0.0
173
     0
291
     1
 45
0.0
1001
ACAD
1000
AcDbSavedByObjectVersion
1070
     0
  0
VISUALSTYLE
  5
FB
102
{ACAD_REACTORS
330
EF
102
}
330
EF
100
AcDbVisualStyle
  2
Brighten
 70
    12
 71
     2
 72
     2
 73
     1
 90
        0
 40
-0.6
 41
-30.0
 62
     5
 63
     7
 74
     1
 91
        4
 64
     7
 65
   257
 75
     1
175
     1
 42
1.0
 92
        8
 66
     7
 43
1.0
 76
     1
 77
     6
 78
     2
 67
     7
 79
     5
170
     0
171
     0
290
     0
174
     0
 93
        1
 44
50.0
173
     0
291
     1
 45
0.0
1001
ACAD
1000
AcDbSavedByObjectVersion
1070
     0
  0
VISUALSTYLE
  5
FF
102
{ACAD_REACTORS
330
EF
102
}
330
EF
100
AcDbVisualStyle
  2
ColorChange
 70
    16
 71
     2
 72
     2
 73
     3
 90
        0
 40
-0.6
 41
-30.0
 62
     5
 63
     8
 74
     1
 91
        4
 64
     7
 65
   257
 75
     1
175
     1
 42
1.0
 92
        8
 66
     8
 43
1.0
 76
     1
 77
     6
 78
     2
 67
     7
 79
     5
170
     0
171
     0
290
     0
174
     0
 93
        1
 44
0.0
173
     0
291
     1
 45
0.0
1001
ACAD
1000
AcDbSavedByObjectVersion
1070
     0
  0
VISUALSTYLE
  5
F8
102
{ACAD_REACTORS
330
EF
102
}
330
EF
100
AcDbVisualStyle
  2
Conceptual
 70
     9
 71
     3
 72
     2
 73
     1
 90
        0
 40
-0.6
 41
-30.0
 62
     5
 63
     7
 74
     2
 91
        2
 64
     7
 65
   257
 75
     1
175
     1
 42
40.0
 92
        8
 66
     7
 43
1.0
 76
     1
 77
     6
 78
     2
 67
     7
 79
     3
170
     0
171
     0
290
     0
174
     0
 93
        1
 44
0.0
173
     0
291
     0
 45
0.0
1001
ACAD
1000
AcDbSavedByObjectVersion
1070
     0
  0
VISUALSTYLE
  5
FA
102
{ACAD_REACTORS
330
EF
102
}
330
EF
100
AcDbVisualStyle
  2
Dim
 70
    11
 71
     2
 72
     2
 73
     1
 90
        0
 40
-0.6
 41
-30.0
 62
     5
 63
     7
 74
     1
 91
        4
 64
     7
 65
   257
 75
     1
175
     1
 42
1.0
 92
        8
 66
     7
 43
1.0
 76
     1
 77
     6
 78
     2
 67
     7
 79
     5
170
     0
171
     0
290
     0
174
     0
 93
        1
 44
-50.0
173
     0
291
     1
 45
0.0
1001
ACAD
1000
AcDbSavedByObjectVersion
1070
     0
  0
VISUALSTYLE
  5
FE
102
{ACAD_REACTORS
330
EF
102
}
330
EF
100
AcDbVisualStyle
  2
Facepattern
 70
    15
 71
     2
 72
     2
 73
     1
 90
        0
 40
-0.6
 41
-30.0
 62
     5
 63
     7
 74
     1
 91
        4
 64
     7
 65
   257
 75
     1
175
     1
 42
1.0
 92
        8
 66
     7
 43
1.0
 76
     1
 77
     6
 78
     2
 67
     7
 79
     5
170
     0
171
     0
290
     0
174
     0
 93
        1
 44
0.0
173
     0
291
     1
 45
0.0
1001
ACAD
1000
AcDbSavedByObjectVersion
1070
     0
  0
VISUALSTYLE
  5
F0
102
{ACAD_REACTORS
330
EF
102
}
330
EF
100
AcDbVisualStyle
  2
Flat
 70
     0
 71
     2
 72
     1
 73
     1
 90
        2
 40
-0.6
 41
30.0
 62
     5
 63
     7
 74
     0
 91
        4
 64
     7
 65
   257
 75
     1
175
     1
 42
1.0
 92
        8
 66
     7
 43
1.0
 76
     1
 77
     6
 78
     2
 67
     7
 79
     5
170
     0
171
     0
290
     0
174
     0
 93
        1
 44
0.0
173
     0
291
     1
 45
0.0
1001
ACAD
1000
AcDbSavedByObjectVersion
1070
     0
  0
VISUALSTYLE
  5
F1
102
{ACAD_REACTORS
330
EF
102
}
330
EF
100
AcDbVisualStyle
  2
FlatWithEdges
 70
     1
 71
     2
 72
     1
 73
     1
 90
        2
 40
-0.6
 41
30.0
 62
     5
 63
     7
 74
     1
 91
        4
 64
     7
 65
   257
 75
     1
175
     1
 42
1.0
 92
        0
 66
   257
 43
1.0
 76
     1
 77
     6
 78
     2
 67
     7
 79
     5
170
     0
171
     0
290
     0
174
     0
 93
        1
 44
0.0
173
     0
291
     1
 45
0.0
1001
ACAD
1000
AcDbSavedByObjectVersion
1070
     0
  0
VISUALSTYLE
  5
F2
102
{ACAD_REACTORS
330
EF
102
}
330
EF
100
AcDbVisualStyle
  2
Gouraud
 70
     2
 71
     2
 72
     2
 73
     1
 90
        2
 40
-0.6
 41
30.0
 62
     5
 63
     7
 74
     0
 91
        4
 64
     7
 65
   257
 75
     1
175
     1
 42
1.0
 92
        0
 66
     7
 43
1.0
 76
     1
 77
     6
 78
     2
 67
     7
 79
     5
170
     0
171
     0
290
     0
174
     0
 93
        1
 44
0.0
173
     0
291
     1
 45
0.0
1001
ACAD
1000
AcDbSavedByObjectVersion
1070
     0
  0
VISUALSTYLE
  5
F3
102
{ACAD_REACTORS
330
EF
102
}
330
EF
100
AcDbVisualStyle
  2
GouraudWithEdges
 70
     3
 71
     2
 72
     2
 73
     1
 90
        2
 40
-0.6
 41
30.0
 62
     5
 63
     7
 74
     1
 91
        4
 64
     7
 65
   257
 75
     1
175
     1
 42
1.0
 92
        0
 66
   257
 43
1.0
 76
     1
 77
     6
 78
     2
 67
     7
 79
     5
170
     0
171
     0
290
     0
174
     0
 93
        1
 44
0.0
173
     0
291
     1
 45
0.0
1001
ACAD
1000
AcDbSavedByObjectVersion
1070
     0
  0
VISUALSTYLE
  5
FD
102
{ACAD_REACTORS
330
EF
102
}
330
EF
100
AcDbVisualStyle
  2
Linepattern
 70
    14
 71
     2
 72
     2
 73
     1
 90
        0
 40
-0.6
 41
-30.0
 62
     5
 63
     7
 74
     1
 91
        4
 64
     7
 65
   257
 75
     7
175
     7
 42
1.0
 92
        8
 66
     7
 43
1.0
 76
     1
 77
     6
 78
     2
 67
     7
 79
     5
170
     0
171
     0
290
     0
174
     0
 93
        1
 44
0.0
173
     0
291
     1
 45
0.0
1001
ACAD
1000
AcDbSavedByObjectVersion
1070
     0
  0
VISUALSTYLE
  5
F9
102
{ACAD_REACTORS
330
EF
102
}
330
EF
100
AcDbVisualStyle
  2
Realistic
 70
     8
 71
     2
 72
     2
 73
     1
 90
        0
 40
-0.6
 41
-30.0
 62
     5
 63
     7
 74
     1
 91
        0
 64
     7
 65
   257
 75
     1
175
     1
 42
1.0
 92
        8
 66
     8
 43
1.0
 76
     1
 77
     6
 78
     2
 67
     7
 79
     5
170
     0
171
     0
290
     0
174
     0
 93
       13
 44
0.0
173
     0
291
     0
 45
0.0
1001
ACAD
1000
AcDbSavedByObjectVersion
1070
     0
  0
VISUALSTYLE
  5
FC
102
{ACAD_REACTORS
330
EF
102
}
330
EF
100
AcDbVisualStyle
  2
Thicken
 70
    13
 71
     2
 72
     2
 73
     1
 90
        0
 40
-0.6
 41
-30.0
 62
     5
 63
     7
 74
     1
 91
        4
 64
     7
 65
   257
 75
     1
175
     1
 42
1.0
 92
       12
 66
     7
 43
1.0
 76
     1
 77
     6
 78
     2
 67
     7
 79
     5
170
     0
171
     0
290
     0
174
     0
 93
        1
 44
0.0
173
     0
291
     1
 45
0.0
1001
ACAD
1000
AcDbSavedByObjectVersion
1070
     0
  0
DICTIONARYVAR
  5
146
102
{ACAD_REACTORS
330
5E
102
}
330
5E
100
DictionaryVariables
280
     0
  1
1:1
  0
DICTIONARYVAR
  5
145
102
{ACAD_REACTORS
330
5E
102
}
330
5E
100
DictionaryVariables
280
     0
  1
STANDARD
  0
DICTIONARYVAR
  5
84
102
{ACAD_REACTORS
330
5E
102
}
330
5E
100
DictionaryVariables
280
     0
  1
STANDARD
  0
DICTIONARYVAR
  5
5F
102
{ACAD_REACTORS
330
5E
102
}
330
5E
100
DictionaryVariables
280
     0
  1
2
  0
DICTIONARYVAR
  5
63
102
{ACAD_REACTORS
330
5E
102
}
330
5E
100
DictionaryVariables
280
     0
  1
1
  0
DICTIONARYVAR
  5
1022
102
{ACAD_REACTORS
330
5E
102
}
330
5E
100
DictionaryVariables
280
     0
  1
0
  0
DICTIONARYVAR
  5
1020
102
{ACAD_REACTORS
330
5E
102
}
330
5E
100
DictionaryVariables
280
     0
  1
2
  0
DICTIONARYVAR
  5
101F
102
{ACAD_REACTORS
330
5E
102
}
330
5E
100
DictionaryVariables
280
     0
  1
1
  0
DICTIONARYVAR
  5
1024
102
{ACAD_REACTORS
330
5E
102
}
330
5E
100
DictionaryVariables
280
     0
  1
80.000000
  0
DICTIONARYVAR
  5
1023
102
{ACAD_REACTORS
330
5E
102
}
330
5E
100
DictionaryVariables
280
     0
  1
5.000000
  0
DICTIONARYVAR
  5
1021
102
{ACAD_REACTORS
330
5E
102
}
330
5E
100
DictionaryVariables
280
     0
  1
127
  0
DICTIONARY
  5
102A
330
D3
100
AcDbDictionary
280
     1
281
     1
  3
ACAD_XREC_ROUNDTRIP
360
102B
  0
DICTIONARY
  5
102C
330
D7
100
AcDbDictionary
280
     1
281
     1
  3
ACAD_XREC_ROUNDTRIP
360
102D
  0
DICTIONARY
  5
1027
330
22
100
AcDbDictionary
280
     1
281
     1
  3
ACAD_XREC_ROUNDTRIP
360
1028
  0
DICTIONARY
  5
1030
330
ED
100
AcDbDictionary
280
     1
281
     1
  3
ACAD_XREC_ROUNDTRIP
360
1031
  0
DICTIONARY
  5
102E
330
EC
100
AcDbDictionary
280
     1
281
     1
  3
ACAD_XREC_ROUNDTRIP
360
102F
  0
DICTIONARY
  5
173
330
EE
100
AcDbDictionary
280
     1
281
     1
  3
ACAD_XREC_ROUNDTRIP
360
1032
  3
BUMPTILE
360
175
  3
DIFFUSETILE
360
174
  3
OPACITYTILE
360
176
  3
REFLECTIONTILE
360
177
  0
DICTIONARY
  5
162
330
7F
100
AcDbDictionary
280
     1
281
     1
  3
ACAD_ROUNDTRIP_2008_TABLESTYLE_CELLSTYLEMAP
360
1025
  3
ACAD_XREC_ROUNDTRIP
360
1029
  0
XRECORD
  5
102B
102
{ACAD_REACTORS
330
102A
102
}
330
102A
100
AcDbXrecord
280
     1
102
SHADEPLOT
 70
     0
102
SHADEPLOTRESLEVEL
 70
     2
102
SHADEPLOTCUSTOMDPI
 70
   300
  0
XRECORD
  5
102D
102
{ACAD_REACTORS
330
102C
102
}
330
102C
100
AcDbXrecord
280
     1
102
SHADEPLOT
 70
     0
102
SHADEPLOTRESLEVEL
 70
     2
102
SHADEPLOTCUSTOMDPI
 70
   300
  0
XRECORD
  5
1028
102
{ACAD_REACTORS
330
1027
102
}
330
1027
100
AcDbXrecord
280
     1
102
SHADEPLOT
 70
     0
102
SHADEPLOTRESLEVEL
 70
     2
102
SHADEPLOTCUSTOMDPI
 70
   300
  0
XRECORD
  5
1031
102
{ACAD_REACTORS
330
1030
102
}
330
1030
100
AcDbXrecord
280
     1
102
MATERIAL
148
0.0
149
0.0
149
0.0
 93
        0
 94
       63
282
     0
 72
     1
 77
     1
171
     1
175
     1
179
     1
273
     0
  0
XRECORD
  5
102F
102
{ACAD_REACTORS
330
102E
102
}
330
102E
100
AcDbXrecord
280
     1
102
MATERIAL
148
0.0
149
0.0
149
0.0
 93
        0
 94
       63
282
     0
 72
     1
 77
     1
171
     1
175
     1
179
     1
273
     0
  0
XRECORD
  5
1032
102
{ACAD_REACTORS
330
173
102
}
330
173
100
AcDbXrecord
280
     1
102
MATERIAL
148
0.0
149
0.0
149
0.0
 93
        0
 94
       63
282
     0
 72
     1
 77
     1
171
     1
175
     1
179
     1
273
     0
  0
XRECORD
  5
175
102
{ACAD_REACTORS
330
173
102
}
330
173
100
AcDbXrecord
280
     1
270
     1
271
     1
  0
XRECORD
  5
174
102
{ACAD_REACTORS
330
173
102
}
330
173
100
AcDbXrecord
280
     1
270
     1
271
     1
  0
XRECORD
  5
176
102
{ACAD_REACTORS
330
173
102
}
330
173
100
AcDbXrecord
280
     1
270
     1
271
     1
  0
XRECORD
  5
177
102
{ACAD_REACTORS
330
173
102
}
330
173
100
AcDbXrecord
280
     1
270
     1
271
     1
  0
CELLSTYLEMAP
  5
1025
102
{ACAD_REACTORS
330
162
102
}
330
162
100
AcDbCellStyleMap
 90
        3
300
CELLSTYLE
  1
TABLEFORMAT_BEGIN
 90
        5
170
     1
 91
        0
 92
    32768
 62
   257
 93
        1
300
CONTENTFORMAT
  1
CONTENTFORMAT_BEGIN
 90
        0
 91
        0
 92
      512
 93
        0
300

 40
0.0
140
1.0
 94
        5
 62
     0
340
11
144
6.0
309
CONTENTFORMAT_END
171
     1
301
MARGIN
  1
CELLMARGIN_BEGIN
 40
1.5
 40
1.5
 40
1.5
 40
1.5
 40
4.5
 40
4.5
309
CELLMARGIN_END
 94
        6
 95
        1
302
GRIDFORMAT
  1
GRIDFORMAT_BEGIN
 90
        0
 91
        1
 62
     0
 92
       -2
340
14
 93
        0
 40
1.125
309
GRIDFORMAT_END
 95
        2
302
GRIDFORMAT
  1
GRIDFORMAT_BEGIN
 90
        0
 91
        1
 62
     0
 92
       -2
340
14
 93
        0
 40
1.125
309
GRIDFORMAT_END
 95
        4
302
GRIDFORMAT
  1
GRIDFORMAT_BEGIN
 90
        0
 91
        1
 62
     0
 92
       -2
340
14
 93
        0
 40
1.125
309
GRIDFORMAT_END
 95
        8
302
GRIDFORMAT
  1
GRIDFORMAT_BEGIN
 90
        0
 91
        1
 62
     0
 92
       -2
340
14
 93
        0
 40
1.125
309
GRIDFORMAT_END
 95
       16
302
GRIDFORMAT
  1
GRIDFORMAT_BEGIN
 90
        0
 91
        1
 62
     0
 92
       -2
340
14
 93
        0
 40
1.125
309
GRIDFORMAT_END
 95
       32
302
GRIDFORMAT
  1
GRIDFORMAT_BEGIN
 90
        0
 91
        1
 62
     0
 92
       -2
340
14
 93
        0
 40
1.125
309
GRIDFORMAT_END
309
TABLEFORMAT_END
  1
CELLSTYLE_BEGIN
 90
        1
 91
        1
300
_TITLE
309
CELLSTYLE_END
300
CELLSTYLE
  1
TABLEFORMAT_BEGIN
 90
        5
170
     1
 91
        0
 92
        0
 62
   257
 93
        1
300
CONTENTFORMAT
  1
CONTENTFORMAT_BEGIN
 90
        0
 91
        0
 92
      512
 93
        0
300

 40
0.0
140
1.0
 94
        5
 62
     0
340
11
144
4.5
309
CONTENTFORMAT_END
171
     1
301
MARGIN
  1
CELLMARGIN_BEGIN
 40
1.5
 40
1.5
 40
1.5
 40
1.5
 40
4.5
 40
4.5
309
CELLMARGIN_END
 94
        6
 95
        1
302
GRIDFORMAT
  1
GRIDFORMAT_BEGIN
 90
        0
 91
        1
 62
     0
 92
       -2
340
14
 93
        0
 40
1.125
309
GRIDFORMAT_END
 95
        2
302
GRIDFORMAT
  1
GRIDFORMAT_BEGIN
 90
        0
 91
        1
 62
     0
 92
       -2
340
14
 93
        0
 40
1.125
309
GRIDFORMAT_END
 95
        4
302
GRIDFORMAT
  1
GRIDFORMAT_BEGIN
 90
        0
 91
        1
 62
     0
 92
       -2
340
14
 93
        0
 40
1.125
309
GRIDFORMAT_END
 95
        8
302
GRIDFORMAT
  1
GRIDFORMAT_BEGIN
 90
        0
 91
        1
 62
     0
 92
       -2
340
14
 93
        0
 40
1.125
309
GRIDFORMAT_END
 95
       16
302
GRIDFORMAT
  1
GRIDFORMAT_BEGIN
 90
        0
 91
        1
 62
     0
 92
       -2
340
14
 93
        0
 40
1.125
309
GRIDFORMAT_END
 95
       32
302
GRIDFORMAT
  1
GRIDFORMAT_BEGIN
 90
        0
 91
        1
 62
     0
 92
       -2
340
14
 93
        0
 40
1.125
309
GRIDFORMAT_END
309
TABLEFORMAT_END
  1
CELLSTYLE_BEGIN
 90
        2
 91
        1
300
_HEADER
309
CELLSTYLE_END
300
CELLSTYLE
  1
TABLEFORMAT_BEGIN
 90
        5
170
     1
 91
        0
 92
        0
 62
   257
 93
        1
300
CONTENTFORMAT
  1
CONTENTFORMAT_BEGIN
 90
        0
 91
        0
 92
      512
 93
        0
300

 40
0.0
140
1.0
 94
        2
 62
     0
340
11
144
4.5
309
CONTENTFORMAT_END
171
     1
301
MARGIN
  1
CELLMARGIN_BEGIN
 40
1.5
 40
1.5
 40
1.5
 40
1.5
 40
4.5
 40
4.5
309
CELLMARGIN_END
 94
        6
 95
        1
302
GRIDFORMAT
  1
GRIDFORMAT_BEGIN
 90
        0
 91
        1
 62
     0
 92
       -2
340
14
 93
        0
 40
1.125
309
GRIDFORMAT_END
 95
        2
302
GRIDFORMAT
  1
GRIDFORMAT_BEGIN
 90
        0
 91
        1
 62
     0
 92
       -2
340
14
 93
        0
 40
1.125
309
GRIDFORMAT_END
 95
        4
302
GRIDFORMAT
  1
GRIDFORMAT_BEGIN
 90
        0
 91
        1
 62
     0
 92
       -2
340
14
 93
        0
 40
1.125
309
GRIDFORMAT_END
 95
        8
302
GRIDFORMAT
  1
GRIDFORMAT_BEGIN
 90
        0
 91
        1
 62
     0
 92
       -2
340
14
 93
        0
 40
1.125
309
GRIDFORMAT_END
 95
       16
302
GRIDFORMAT
  1
GRIDFORMAT_BEGIN
 90
        0
 91
        1
 62
     0
 92
       -2
340
14
 93
        0
 40
1.125
309
GRIDFORMAT_END
 95
       32
302
GRIDFORMAT
  1
GRIDFORMAT_BEGIN
 90
        0
 91
        1
 62
     0
 92
       -2
340
14
 93
        0
 40
1.125
309
GRIDFORMAT_END
309
TABLEFORMAT_END
  1
CELLSTYLE_BEGIN
 90
        3
 91
        2
300
_DATA
309
CELLSTYLE_END
  0
XRECORD
  5
1029
102
{ACAD_REACTORS
330
162
102
}
330
162
100
AcDbXrecord
280
     1
102
ACAD_ROUNDTRIP_PRE2007_TABLESTYLE
 90
      512
 91
        0
  1

 92
      512
 93
        0
  2

 94
      512
 95
        0
  3

  0
ENDSEC
  0
EOF
