  0
SECTION
  2
HEADER
  9
$ACADVER
  1
AC1015
  9
$ACADMAINTVER
 70
    20
  9
$DWGCODEPAGE
  3
ANSI_1254
  9
$INSBASE
 10
0.0
 20
0.0
 30
0.0
  9
$EXTMIN
 10
1983.837450616891
 20
1011.083685380408
 30
0.0
  9
$EXTMAX
 10
2133.060166913867
 20
1099.429767730388
 30
0.0
  9
$LIMMIN
 10
0.0
 20
0.0
  9
$LIMMAX
 10
420.0
 20
297.0
  9
$ORTHOMODE
 70
     1
  9
$REGENMODE
 70
     1
  9
$FILLMODE
 70
     1
  9
$QTEXTMODE
 70
     0
  9
$MIRRTEXT
 70
     0
  9
$LTSCALE
 40
1.0
  9
$ATTMODE
 70
     1
  9
$TEXTSIZE
 40
2.5
  9
$TRACEWID
 40
1.0
  9
$TEXTSTYLE
  7
Standard
  9
$CLAYER
  8
0
  9
$CELTYPE
  6
ByLayer
  9
$CECOLOR
 62
   256
  9
$CELTSCALE
 40
1.0
  9
$DISPSILH
 70
     0
  9
$DIMSCALE
 40
1.0
  9
$DIMASZ
 40
2.5
  9
$DIMEXO
 40
0.625
  9
$DIMDLI
 40
3.75
  9
$DIMRND
 40
0.0
  9
$DIMDLE
 40
0.0
  9
$DIMEXE
 40
1.25
  9
$DIMTP
 40
0.0
  9
$DIMTM
 40
0.0
  9
$DIMTXT
 40
2.5
  9
$DIMCEN
 40
2.5
  9
$DIMTSZ
 40
0.0
  9
$DIMTOL
 70
     0
  9
$DIMLIM
 70
     0
  9
$DIMTIH
 70
     0
  9
$DIMTOH
 70
     0
  9
$DIMSE1
 70
     0
  9
$DIMSE2
 70
     0
  9
$DIMTAD
 70
     1
  9
$DIMZIN
 70
     8
  9
$DIMBLK
  1

  9
$DIMASO
 70
     1
  9
$DIMSHO
 70
     1
  9
$DIMPOST
  1

  9
$DIMAPOST
  1

  9
$DIMALT
 70
     0
  9
$DIMALTD
 70
     3
  9
$DIMALTF
 40
0.03937007874016
  9
$DIMLFAC
 40
1.0
  9
$DIMTOFL
 70
     1
  9
$DIMTVP
 40
0.0
  9
$DIMTIX
 70
     0
  9
$DIMSOXD
 70
     0
  9
$DIMSAH
 70
     0
  9
$DIMBLK1
  1

  9
$DIMBLK2
  1

  9
$DIMSTYLE
  2
ISO-25
  9
$DIMCLRD
 70
     0
  9
$DIMCLRE
 70
     0
  9
$DIMCLRT
 70
     0
  9
$DIMTFAC
 40
1.0
  9
$DIMGAP
 40
0.625
  9
$DIMJUST
 70
     0
  9
$DIMSD1
 70
     0
  9
$DIMSD2
 70
     0
  9
$DIMTOLJ
 70
     0
  9
$DIMTZIN
 70
     8
  9
$DIMALTZ
 70
     0
  9
$DIMALTTZ
 70
     0
  9
$DIMUPT
 70
     0
  9
$DIMDEC
 70
     2
  9
$DIMTDEC
 70
     2
  9
$DIMALTU
 70
     2
  9
$DIMALTTD
 70
     3
  9
$DIMTXSTY
  7
Standard
  9
$DIMAUNIT
 70
     0
  9
$DIMADEC
 70
     0
  9
$DIMALTRND
 40
0.0
  9
$DIMAZIN
 70
     0
  9
$DIMDSEP
 70
    44
  9
$DIMATFIT
 70
     3
  9
$DIMFRAC
 70
     0
  9
$DIMLDRBLK
  1

  9
$DIMLUNIT
 70
     2
  9
$DIMLWD
 70
    -2
  9
$DIMLWE
 70
    -2
  9
$DIMTMOVE
 70
     0
  9
$LUNITS
 70
     2
  9
$LUPREC
 70
     4
  9
$SKETCHINC
 40
1.0
  9
$FILLETRAD
 40
0.0
  9
$AUNITS
 70
     0
  9
$AUPREC
 70
     0
  9
$MENU
  1
.
  9
$ELEVATION
 40
0.0
  9
$PELEVATION
 40
0.0
  9
$THICKNESS
 40
0.0
  9
$LIMCHECK
 70
     0
  9
$CHAMFERA
 40
0.0
  9
$CHAMFERB
 40
0.0
  9
$CHAMFERC
 40
0.0
  9
$CHAMFERD
 40
0.0
  9
$SKPOLY
 70
     0
  9
$TDCREATE
 40
2458445.562620289
  9
$TDUCREATE
 40
2458445.437620289
  9
$TDUPDATE
 40
2458956.385784075
  9
$TDUUPDATE
 40
2458956.260784074
  9
$TDINDWG
 40
0.0008013310
  9
$TDUSRTIMER
 40
0.0008011574
  9
$USRTIMER
 70
     1
  9
$ANGBASE
 50
0.0
  9
$ANGDIR
 70
     0
  9
$PDMODE
 70
     0
  9
$PDSIZE
 40
0.0
  9
$PLINEWID
 40
0.0
  9
$SPLFRAME
 70
     0
  9
$SPLINETYPE
 70
     6
  9
$SPLINESEGS
 70
     8
  9
$HANDSEED
  5
70E
  9
$SURFTAB1
 70
     6
  9
$SURFTAB2
 70
     6
  9
$SURFTYPE
 70
     6
  9
$SURFU
 70
     6
  9
$SURFV
 70
     6
  9
$UCSBASE
  2

  9
$UCSNAME
  2

  9
$UCSORG
 10
0.0
 20
0.0
 30
0.0
  9
$UCSXDIR
 10
1.0
 20
0.0
 30
0.0
  9
$UCSYDIR
 10
0.0
 20
1.0
 30
0.0
  9
$UCSORTHOREF
  2

  9
$UCSORTHOVIEW
 70
     0
  9
$UCSORGTOP
 10
0.0
 20
0.0
 30
0.0
  9
$UCSORGBOTTOM
 10
0.0
 20
0.0
 30
0.0
  9
$UCSORGLEFT
 10
0.0
 20
0.0
 30
0.0
  9
$UCSORGRIGHT
 10
0.0
 20
0.0
 30
0.0
  9
$UCSORGFRONT
 10
0.0
 20
0.0
 30
0.0
  9
$UCSORGBACK
 10
0.0
 20
0.0
 30
0.0
  9
$PUCSBASE
  2

  9
$PUCSNAME
  2

  9
$PUCSORG
 10
0.0
 20
0.0
 30
0.0
  9
$PUCSXDIR
 10
1.0
 20
0.0
 30
0.0
  9
$PUCSYDIR
 10
0.0
 20
1.0
 30
0.0
  9
$PUCSORTHOREF
  2

  9
$PUCSORTHOVIEW
 70
     0
  9
$PUCSORGTOP
 10
0.0
 20
0.0
 30
0.0
  9
$PUCSORGBOTTOM
 10
0.0
 20
0.0
 30
0.0
  9
$PUCSORGLEFT
 10
0.0
 20
0.0
 30
0.0
  9
$PUCSORGRIGHT
 10
0.0
 20
0.0
 30
0.0
  9
$PUCSORGFRONT
 10
0.0
 20
0.0
 30
0.0
  9
$PUCSORGBACK
 10
0.0
 20
0.0
 30
0.0
  9
$USERI1
 70
     0
  9
$USERI2
 70
     0
  9
$USERI3
 70
     0
  9
$USERI4
 70
     0
  9
$USERI5
 70
     0
  9
$USERR1
 40
0.0
  9
$USERR2
 40
0.0
  9
$USERR3
 40
0.0
  9
$USERR4
 40
0.0
  9
$USERR5
 40
0.0
  9
$WORLDVIEW
 70
     1
  9
$SHADEDGE
 70
     3
  9
$SHADEDIF
 70
    70
  9
$TILEMODE
 70
     1
  9
$MAXACTVP
 70
    64
  9
$PINSBASE
 10
0.0
 20
0.0
 30
0.0
  9
$PLIMCHECK
 70
     0
  9
$PEXTMIN
 10
0.0
 20
0.0
 30
0.0
  9
$PEXTMAX
 10
0.0
 20
0.0
 30
0.0
  9
$PLIMMIN
 10
0.0
 20
0.0
  9
$PLIMMAX
 10
12.0
 20
9.0
  9
$UNITMODE
 70
     0
  9
$VISRETAIN
 70
     1
  9
$PLINEGEN
 70
     0
  9
$PSLTSCALE
 70
     1
  9
$TREEDEPTH
 70
  3020
  9
$CMLSTYLE
  2
Standard
  9
$CMLJUST
 70
     0
  9
$CMLSCALE
 40
20.0
  9
$PROXYGRAPHICS
 70
     1
  9
$MEASUREMENT
 70
     1
  9
$CELWEIGHT
370
    -1
  9
$ENDCAPS
280
     0
  9
$JOINSTYLE
280
     0
  9
$LWDISPLAY
290
     0
  9
$INSUNITS
 70
     4
  9
$HYPERLINKBASE
  1

  9
$STYLESHEET
  1

  9
$XEDIT
290
     1
  9
$CEPSNTYPE
380
     0
  9
$PSTYLEMODE
290
     1
  9
$FINGERPRINTGUID
  2
{D6649602-F344-492B-B76B-C3718E66F07A}
  9
$VERSIONGUID
  2
{0D349074-7EA7-440F-A28C-1A0919B720C4}
  9
$EXTNAMES
290
     1
  9
$PSVPSCALE
 40
0.0
  9
$OLESTARTUP
290
     0
  0
ENDSEC
  0
SECTION
  2
CLASSES
  0
CLASS
  1
ACDBDICTIONARYWDFLT
  2
AcDbDictionaryWithDefault
  3
ObjectDBX Classes
 90
        0
280
     0
281
     0
  0
CLASS
  1
ACDBPLACEHOLDER
  2
AcDbPlaceHolder
  3
ObjectDBX Classes
 90
        0
280
     0
281
     0
  0
CLASS
  1
LAYOUT
  2
AcDbLayout
  3
ObjectDBX Classes
 90
        0
280
     0
281
     0
  0
CLASS
  1
DICTIONARYVAR
  2
AcDbDictionaryVar
  3
ObjectDBX Classes
 90
        0
280
     0
281
     0
  0
CLASS
  1
TABLESTYLE
  2
AcDbTableStyle
  3
ObjectDBX Classes
 90
     4095
280
     0
281
     0
  0
CLASS
  1
MATERIAL
  2
AcDbMaterial
  3
ObjectDBX Classes
 90
     1153
280
     0
281
     0
  0
CLASS
  1
VISUALSTYLE
  2
AcDbVisualStyle
  3
ObjectDBX Classes
 90
     4095
280
     0
281
     0
  0
CLASS
  1
SCALE
  2
AcDbScale
  3
ObjectDBX Classes
 90
     1153
280
     0
281
     0
  0
CLASS
  1
MLEADERSTYLE
  2
AcDbMLeaderStyle
  3
ACDB_MLEADERSTYLE_CLASS
 90
     4095
280
     0
281
     0
  0
CLASS
  1
CELLSTYLEMAP
  2
AcDbCellStyleMap
  3
ObjectDBX Classes
 90
     1152
280
     0
281
     0
  0
CLASS
  1
ACAD_EVALUATION_GRAPH
  2
AcDbEvalGraph
  3
ObjectDBX Classes
 90
    33921
280
     0
281
     0
  0
CLASS
  1
ACAECUSTOBJ
  2
AcAeEditorObj
  3
AcAeEditorObj
 90
    33792
280
     0
281
     0
  0
CLASS
  1
ACDB_DYNAMICBLOCKPURGEPREVENTER_VERSION
  2
AcDbDynamicBlockPurgePreventer
  3
ObjectDBX Classes
 90
    33921
280
     0
281
     0
  0
ENDSEC
  0
SECTION
  2
TABLES
  0
TABLE
  2
VPORT
  5
8
330
0
100
AcDbSymbolTable
 70
     1
  0
VPORT
  5
EA
330
8
100
AcDbSymbolTableRecord
100
AcDbViewportTableRecord
  2
*Active
 70
     0
 10
0.0
 20
0.0
 11
1.0
 21
1.0
 12
2086.202678227324
 22
1075.319651019833
 13
0.0
 23
0.0
 14
10.0
 24
10.0
 15
10.0
 25
10.0
 16
0.0
 26
0.0
 36
1.0
 17
0.0
 27
0.0
 37
0.0
 40
253.9021665799091
 41
1.903110047846889
 42
50.0
 43
0.0
 44
0.0
 50
0.0
 51
0.0
 71
     0
 72
  1000
 73
     1
 74
     3
 75
     0
 76
     0
 77
     0
 78
     0
281
     0
 65
     1
110
0.0
120
0.0
130
0.0
111
1.0
121
0.0
131
0.0
112
0.0
122
1.0
132
0.0
 79
     0
146
0.0
  0
ENDTAB
  0
TABLE
  2
LTYPE
  5
5
330
0
100
AcDbSymbolTable
 70
     1
  0
LTYPE
  5
14
330
5
100
AcDbSymbolTableRecord
100
AcDbLinetypeTableRecord
  2
ByBlock
 70
     0
  3

 72
    65
 73
     0
 40
0.0
  0
LTYPE
  5
15
330
5
100
AcDbSymbolTableRecord
100
AcDbLinetypeTableRecord
  2
ByLayer
 70
     0
  3

 72
    65
 73
     0
 40
0.0
  0
LTYPE
  5
16
330
5
100
AcDbSymbolTableRecord
100
AcDbLinetypeTableRecord
  2
Continuous
 70
     0
  3
Solid line
 72
    65
 73
     0
 40
0.0
  0
ENDTAB
  0
TABLE
  2
LAYER
  5
2
330
0
100
AcDbSymbolTable
 70
     1
  0
LAYER
  5
10
102
{ACAD_XDICTIONARY
360
13C
102
}
330
2
100
AcDbSymbolTableRecord
100
AcDbLayerTableRecord
  2
0
 70
     0
 62
     7
  6
Continuous
370
    -3
390
F
  0
ENDTAB
  0
TABLE
  2
STYLE
  5
3
330
0
100
AcDbSymbolTable
 70
     2
  0
STYLE
  5
11
330
3
100
AcDbSymbolTableRecord
100
AcDbTextStyleTableRecord
  2
Standard
 70
     0
 40
0.0
 41
1.0
 50
0.0
 71
     0
 42
2.5
  3
txt
  4

  0
STYLE
  5
132
330
3
100
AcDbSymbolTableRecord
100
AcDbTextStyleTableRecord
  2
Annotative
 70
     0
 40
0.0
 41
1.0
 50
0.0
 71
     0
 42
2.5
  3
txt.shx
  4

1001
AcadAnnotative
1000
AnnotativeData
1002
{
1070
     1
1070
     1
1002
}
  0
ENDTAB
  0
TABLE
  2
VIEW
  5
6
330
0
100
AcDbSymbolTable
 70
     0
  0
ENDTAB
  0
TABLE
  2
UCS
  5
7
330
0
100
AcDbSymbolTable
 70
     0
  0
ENDTAB
  0
TABLE
  2
APPID
  5
9
330
0
100
AcDbSymbolTable
 70
    12
  0
APPID
  5
12
330
9
100
AcDbSymbolTableRecord
100
AcDbRegAppTableRecord
  2
ACAD
 70
     0
  0
APPID
  5
9E
330
9
100
AcDbSymbolTableRecord
100
AcDbRegAppTableRecord
  2
ACAD_PSEXT
 70
     0
  0
APPID
  5
133
330
9
100
AcDbSymbolTableRecord
100
AcDbRegAppTableRecord
  2
AcadAnnoPO
 70
     0
  0
APPID
  5
134
330
9
100
AcDbSymbolTableRecord
100
AcDbRegAppTableRecord
  2
AcadAnnotative
 70
     0
  0
APPID
  5
135
330
9
100
AcDbSymbolTableRecord
100
AcDbRegAppTableRecord
  2
ACAD_DSTYLE_DIMJAG
 70
     0
  0
APPID
  5
136
330
9
100
AcDbSymbolTableRecord
100
AcDbRegAppTableRecord
  2
ACAD_DSTYLE_DIMTALN
 70
     0
  0
APPID
  5
165
330
9
100
AcDbSymbolTableRecord
100
AcDbRegAppTableRecord
  2
ACAD_MLEADERVER
 70
     0
  0
APPID
  5
689
330
9
100
AcDbSymbolTableRecord
100
AcDbRegAppTableRecord
  2
ACAUTHENVIRON
 70
     0
  0
APPID
  5
68D
330
9
100
AcDbSymbolTableRecord
100
AcDbRegAppTableRecord
  2
AcDbDynamicBlockTrueName
 70
     0
  0
APPID
  5
68E
330
9
100
AcDbSymbolTableRecord
100
AcDbRegAppTableRecord
  2
AcDbDynamicBlockGUID
 70
     0
  0
APPID
  5
690
330
9
100
AcDbSymbolTableRecord
100
AcDbRegAppTableRecord
  2
AcDbBlockRepETag
 70
     0
  0
APPID
  5
6EE
330
9
100
AcDbSymbolTableRecord
100
AcDbRegAppTableRecord
  2
ACAD_EXEMPT_FROM_CAD_STANDARDS
 70
     0
  0
ENDTAB
  0
TABLE
  2
DIMSTYLE
  5
A
330
0
100
AcDbSymbolTable
 70
     2
100
AcDbDimStyleTable
 71
     2
340
27
340
137
  0
DIMSTYLE
105
27
330
A
100
AcDbSymbolTableRecord
100
AcDbDimStyleTableRecord
  2
ISO-25
 70
     0
 41
2.5
 42
0.625
 43
3.75
 44
1.25
 73
     0
 74
     0
 77
     1
 78
     8
140
2.5
141
2.5
143
0.03937007874016
147
0.625
171
     3
172
     1
271
     2
272
     2
274
     3
278
    44
283
     0
284
     8
340
11
  0
DIMSTYLE
105
137
330
A
100
AcDbSymbolTableRecord
100
AcDbDimStyleTableRecord
  2
Annotative
 70
     0
 40
0.0
 41
2.5
 42
0.625
 43
3.75
 44
1.25
 73
     0
 74
     0
 77
     1
 78
     8
140
2.5
141
2.5
143
0.03937007874016
147
0.625
171
     3
172
     1
271
     2
272
     2
274
     3
278
    44
283
     0
284
     8
340
11
1001
AcadAnnotative
1000
AnnotativeData
1002
{
1070
     1
1070
     1
1002
}
1001
ACAD_DSTYLE_DIMJAG
1070
   388
1040
1.5
1001
ACAD_DSTYLE_DIMTALN
1070
   392
1070
     0
  0
ENDTAB
  0
TABLE
  2
BLOCK_RECORD
  5
1
330
0
100
AcDbSymbolTable
 70
     5
  0
BLOCK_RECORD
  5
1F
330
1
100
AcDbSymbolTableRecord
100
AcDbBlockTableRecord
  2
*Model_Space
340
22
  0
BLOCK_RECORD
  5
D2
330
1
100
AcDbSymbolTableRecord
100
AcDbBlockTableRecord
  2
*Paper_Space
340
D3
  0
BLOCK_RECORD
  5
D6
330
1
100
AcDbSymbolTableRecord
100
AcDbBlockTableRecord
  2
*Paper_Space0
340
D7
  0
BLOCK_RECORD
  5
4A7
102
{ACAD_XDICTIONARY
360
68A
102
}
330
1
100
AcDbSymbolTableRecord
100
AcDbBlockTableRecord
  2
1
340
0
310
2800000020000000200000000100080000000000000400000000000000000000000000000000000000000000000080000080000000808000800000008000800080800000C0C0C000C0DCC000F0CAA6000020400000206000002080000020A0000020C0000020E00000400000004020000040400000406000004080000040A0
310
000040C0000040E00000600000006020000060400000606000006080000060A0000060C0000060E00000800000008020000080400000806000008080000080A0000080C0000080E00000A0000000A0200000A0400000A0600000A0800000A0A00000A0C00000A0E00000C0000000C0200000C0400000C0600000C0800000C0
310
A00000C0C00000C0E00000E0000000E0200000E0400000E0600000E0800000E0A00000E0C00000E0E00040000000400020004000400040006000400080004000A0004000C0004000E00040200000402020004020400040206000402080004020A0004020C0004020E000404000004040200040404000404060004040800040
310
40A0004040C0004040E00040600000406020004060400040606000406080004060A0004060C0004060E00040800000408020004080400040806000408080004080A0004080C0004080E00040A0000040A0200040A0400040A0600040A0800040A0A00040A0C00040A0E00040C0000040C0200040C0400040C0600040C08000
310
40C0A00040C0C00040C0E00040E0000040E0200040E0400040E0600040E0800040E0A00040E0C00040E0E00080000000800020008000400080006000800080008000A0008000C0008000E00080200000802020008020400080206000802080008020A0008020C0008020E00080400000804020008040400080406000804080
310
008040A0008040C0008040E00080600000806020008060400080606000806080008060A0008060C0008060E00080800000808020008080400080806000808080008080A0008080C0008080E00080A0000080A0200080A0400080A0600080A0800080A0A00080A0C00080A0E00080C0000080C0200080C0400080C0600080C0
310
800080C0A00080C0C00080C0E00080E0000080E0200080E0400080E0600080E0800080E0A00080E0C00080E0E000C0000000C0002000C0004000C0006000C0008000C000A000C000C000C000E000C0200000C0202000C0204000C0206000C0208000C020A000C020C000C020E000C0400000C0402000C0404000C0406000C0
310
408000C040A000C040C000C040E000C0600000C0602000C0604000C0606000C0608000C060A000C060C000C060E000C0800000C0802000C0804000C0806000C0808000C080A000C080C000C080E000C0A00000C0A02000C0A04000C0A06000C0A08000C0A0A000C0A0C000C0A0E000C0C00000C0C02000C0C04000C0C06000
310
C0C08000C0C0A000F0FBFF00A4A0A000808080000000FF0000FF000000FFFF00FF000000FF00FF00FFFF0000FFFFFF0000000000000000000000000000000000000000000000000000000000000000000000000000000000000000000000000000000000000000000000000000000000000000000000000000000000000000
310
00000000000000000000000000000000000000000000000000000000000000FFFFFFFF00000000000000000000000000000000000000000000000000000000FF0000FF00000000000000000000000000000000000000000000000000000000FF0000FF00000000000000000000000000000000000000000000000000000000
310
FF0000FF00000000000000000000000000000000000000000000000000000000FF0000FF00000000000000000000000000000000000000000000000000000000FF0000FF00000000000000000000000000000000000000000000000000000000FF0000FF000000000000000000000000000000000000000000000000000000
310
00FF0000FF00000000000000000000000000000000000000000000000000000000FF0000FF00000000000000000000000000000000000000000000000000000000FF0000FF00000000000000000000000000000000000000000000000000000000FF0000FF0000000000000000000000000000000000000000000000000000
310
0000FF0000FF00000000000000000000000000000000000000000000000000000000FF0000FF00000000000000000000000000000000000000000000000000000000FF0000FF00000000000000000000000000000000000000000000000000000000FF0000FF00000000000000000000000000000000000000000000000000
310
000000FF0000FF00000000000000000000000000000000000000000000000000000000FFFFFFFF00000000000000000000000000000000000000000000000000FFFFFF00000000FFFFFF00000000000000000000000000000000000000000000FFFFFFFFFFFFFFFFFFFF000000000000000000000000000000000000000000
310
00FFFFFFFFFFFFFFFFFFFF00000000000000000000000000000000000000000000FF00FFFF000000FF00FF00000000000000000000000000000000000000000000FF0000FFFFFFFF0000FF000000000000000000000000FFFFFFFFFFFFFFFFFFFFFFFFFFFFFFFFFFFFFFFFFFFFFFFFFFFFFFFFFFFF0000FFFFFF0000000000
310
00000000000000000000000000000000000000FFFF000000FFFFFF000000000000000000000000000000000000000000000000FFFFFF0000FFFFFFFFFFFFFFFFFFFFFFFFFFFFFFFFFFFFFFFFFFFFFFFFFFFFFFFFFFFF0000000000000000000000000000000000000000000000000000000000000000000000000000000000
310
0000000000000000000000000000000000000000000000000000000000000000000000000000000000000000000000000000000000000000
102
{BLKREFS
331
4F8
102
}
1001
AcDbDynamicBlockGUID
1000
{4134A4BE-6661-4101-975E-C4808B3880FA}
1001
AcDbBlockRepETag
1070
     1
1071
       78
1001
ACAD
1000
DesignCenter Data
1002
{
1070
     1
1070
     4
1002
}
  0
BLOCK_RECORD
  5
4F9
102
{ACAD_XDICTIONARY
360
6EA
102
}
330
1
100
AcDbSymbolTableRecord
100
AcDbBlockTableRecord
  2
2
340
0
310
2800000020000000200000000100080000000000000400000000000000000000000000000000000000000000000080000080000000808000800000008000800080800000C0C0C000C0DCC000F0CAA6000020400000206000002080000020A0000020C0000020E00000400000004020000040400000406000004080000040A0
310
000040C0000040E00000600000006020000060400000606000006080000060A0000060C0000060E00000800000008020000080400000806000008080000080A0000080C0000080E00000A0000000A0200000A0400000A0600000A0800000A0A00000A0C00000A0E00000C0000000C0200000C0400000C0600000C0800000C0
310
A00000C0C00000C0E00000E0000000E0200000E0400000E0600000E0800000E0A00000E0C00000E0E00040000000400020004000400040006000400080004000A0004000C0004000E00040200000402020004020400040206000402080004020A0004020C0004020E000404000004040200040404000404060004040800040
310
40A0004040C0004040E00040600000406020004060400040606000406080004060A0004060C0004060E00040800000408020004080400040806000408080004080A0004080C0004080E00040A0000040A0200040A0400040A0600040A0800040A0A00040A0C00040A0E00040C0000040C0200040C0400040C0600040C08000
310
40C0A00040C0C00040C0E00040E0000040E0200040E0400040E0600040E0800040E0A00040E0C00040E0E00080000000800020008000400080006000800080008000A0008000C0008000E00080200000802020008020400080206000802080008020A0008020C0008020E00080400000804020008040400080406000804080
310
008040A0008040C0008040E00080600000806020008060400080606000806080008060A0008060C0008060E00080800000808020008080400080806000808080008080A0008080C0008080E00080A0000080A0200080A0400080A0600080A0800080A0A00080A0C00080A0E00080C0000080C0200080C0400080C0600080C0
310
800080C0A00080C0C00080C0E00080E0000080E0200080E0400080E0600080E0800080E0A00080E0C00080E0E000C0000000C0002000C0004000C0006000C0008000C000A000C000C000C000E000C0200000C0202000C0204000C0206000C0208000C020A000C020C000C020E000C0400000C0402000C0404000C0406000C0
310
408000C040A000C040C000C040E000C0600000C0602000C0604000C0606000C0608000C060A000C060C000C060E000C0800000C0802000C0804000C0806000C0808000C080A000C080C000C080E000C0A00000C0A02000C0A04000C0A06000C0A08000C0A0A000C0A0C000C0A0E000C0C00000C0C02000C0C04000C0C06000
310
C0C08000C0C0A000F0FBFF00A4A0A000808080000000FF0000FF000000FFFF00FF000000FF00FF00FFFF0000FFFFFF0000000000000000000000000000000000000000000000000000000000000000000000000000000000000000000000FF0000FF00000000000000000000000000000000000000000000000000000000FF
310
FFFFFF00000000000000000000000000000000000000000000000000000000FFFFFFFF00000000000000000000000000000000000000000000000000000000FFFFFFFF00000000000000000000000000000000000000000000000000000000FFFFFFFF00000000000000000000000000000000000000000000000000000000
310
FFFFFFFF00000000000000000000000000000000000000000000000000000000FFFFFFFF00000000000000000000000000000000000000000000000000000000FFFFFFFF00000000000000000000000000000000000000000000000000000000FFFFFFFF000000000000000000000000000000000000000000000000000000
310
FF00FFFFFF000000000000000000000000000000000000000000000000000000FFFF0000FFFF0000000000000000000000000000000000000000000000000000FFFF0000FFFF0000000000000000000000000000000000000000000000000000FFFF0000FFFF00000000000000000000000000000000000000000000000000
310
00FFFF0000FFFF0000000000000000000000000000000000000000000000000000FFFF0000FFFF0000000000000000000000000000000000000000000000000000FFFF0000FFFF0000000000000000000000000000000000000000000000000000FFFF0000FFFF000000000000000000000000000000000000000000000000
310
0000FFFF0000FFFF0000000000000000000000000000000000000000000000000000FFFF0000FFFF0000000000000000000000000000000000000000000000000000FFFF0000FFFF0000000000000000000000000000000000000000000000000000FFFF0000FFFF0000000000000000000000000000000000000000000000
310
000000FFFF0000FFFF0000000000000000000000000000000000000000000000000000FFFFFFFFFFFF0000000000000000000000000000000000000000000000000000FF00000000FF0000000000000000000000000000000000000000000000000000FF00000000FF00000000000000000000000000000000000000000000
310
0000FFFFFFFFFFFFFFFFFFFF00000000000000000000000000000000000000000000FF0000FF0000FF0000FF00000000000000000000000000000000000000000000FF0000FF0000FF0000FF00000000000000000000000000000000000000000000FFFFFFFFFFFFFFFFFFFF00000000000000000000000000000000000000
310
000000FFFFFFFFFFFFFFFFFFFF00000000000000000000000000000000000000000000000000000000000000000000000000000000000000
102
{BLKREFS
331
552
102
}
1001
AcDbDynamicBlockGUID
1000
{5BF7230B-9E7D-4E19-88AE-A4A49832AEBF}
1001
AcDbBlockRepETag
1070
     1
1071
       86
1001
ACAD
1000
DesignCenter Data
1002
{
1070
     1
1070
     4
1002
}
  0
BLOCK_RECORD
  5
553
330
1
100
AcDbSymbolTableRecord
100
AcDbBlockTableRecord
  2
3
340
0
310
2800000020000000200000000100080000000000000400000000000000000000000000000000000000000000000080000080000000808000800000008000800080800000C0C0C000C0DCC000F0CAA6000020400000206000002080000020A0000020C0000020E00000400000004020000040400000406000004080000040A0
310
000040C0000040E00000600000006020000060400000606000006080000060A0000060C0000060E00000800000008020000080400000806000008080000080A0000080C0000080E00000A0000000A0200000A0400000A0600000A0800000A0A00000A0C00000A0E00000C0000000C0200000C0400000C0600000C0800000C0
310
A00000C0C00000C0E00000E0000000E0200000E0400000E0600000E0800000E0A00000E0C00000E0E00040000000400020004000400040006000400080004000A0004000C0004000E00040200000402020004020400040206000402080004020A0004020C0004020E000404000004040200040404000404060004040800040
310
40A0004040C0004040E00040600000406020004060400040606000406080004060A0004060C0004060E00040800000408020004080400040806000408080004080A0004080C0004080E00040A0000040A0200040A0400040A0600040A0800040A0A00040A0C00040A0E00040C0000040C0200040C0400040C0600040C08000
310
40C0A00040C0C00040C0E00040E0000040E0200040E0400040E0600040E0800040E0A00040E0C00040E0E00080000000800020008000400080006000800080008000A0008000C0008000E00080200000802020008020400080206000802080008020A0008020C0008020E00080400000804020008040400080406000804080
310
008040A0008040C0008040E00080600000806020008060400080606000806080008060A0008060C0008060E00080800000808020008080400080806000808080008080A0008080C0008080E00080A0000080A0200080A0400080A0600080A0800080A0A00080A0C00080A0E00080C0000080C0200080C0400080C0600080C0
310
800080C0A00080C0C00080C0E00080E0000080E0200080E0400080E0600080E0800080E0A00080E0C00080E0E000C0000000C0002000C0004000C0006000C0008000C000A000C000C000C000E000C0200000C0202000C0204000C0206000C0208000C020A000C020C000C020E000C0400000C0402000C0404000C0406000C0
310
408000C040A000C040C000C040E000C0600000C0602000C0604000C0606000C0608000C060A000C060C000C060E000C0800000C0802000C0804000C0806000C0808000C080A000C080C000C080E000C0A00000C0A02000C0A04000C0A06000C0A08000C0A0A000C0A0C000C0A0E000C0C00000C0C02000C0C04000C0C06000
310
C0C08000C0C0A000F0FBFF00A4A0A000808080000000FF0000FF000000FFFF00FF000000FF00FF00FFFF0000FFFFFF0000000000000000000000000000000000000000000000000000000000000000000000000000000000000000000000000000000000000000000000000000000000000000000000000000000000000000
310
00000000000000000000000000000000000000000000000000000000000000000000000000000000000000000000000000000000000000000000000000000000000000000000000000000000000000000000000000000000000000000000000000000000000000000000000000000000000000000000000000000000000000
310
00000000000000000000000000000000000000000000000000000000000000000000000000000000000000000000000000000000000000000000000000000000000000000000000000000000000000000000000000000000000000000000000000000000000000000000000000000000000000000000000000000000000000
310
000000000000000000000000000000000000000000FFFFFFFFFFFFFFFFFFFFFFFFFFFFFFFFFFFFFFFFFFFFFFFFFFFFFFFF000000FF00FFFFFFFFFFFFFFFFFFFFFFFFFFFFFFFFFFFFFFFFFFFFFFFFFFFF00FF0000FF00FF000000000000000000000000000000000000000000000000FF00FF0000FF00FFFFFFFFFFFFFFFFFF
310
FFFFFFFFFFFFFFFFFFFFFFFFFFFFFFFFFF00FF0000FF00FF000000000000000000000000000000000000000000000000FF00FF0000FF00FF000000000000000000000000000000000000000000000000FF00FF0000FF00FFFFFFFFFFFFFFFFFFFFFFFFFFFFFFFFFFFFFFFFFFFFFFFFFFFF00FF0000FF00FF00000000000000
310
0000000000000000000000000000000000FF00FF0000FF00FFFFFFFFFFFFFFFFFFFFFFFFFFFFFFFFFFFFFFFFFFFFFFFFFFFF00FF000000FFFFFFFFFFFFFFFFFFFFFFFFFFFFFFFFFFFFFFFFFFFFFFFFFFFFFFFF0000000000000000000000000000000000000000000000000000000000000000000000000000000000000000
310
00000000000000000000000000000000000000000000000000000000000000000000000000000000000000000000000000000000000000000000000000000000000000000000000000000000000000000000000000000000000000000000000000000000000000000000000000000000000000000000000000000000000000
310
00000000000000000000000000000000000000000000000000000000000000000000000000000000000000000000000000000000000000000000000000000000000000000000000000000000000000000000000000000000000000000000000000000000000000000000000000000000000000000000000000000000000000
310
0000000000000000000000000000000000000000000000000000000000000000000000000000000000000000000000000000000000000000
102
{BLKREFS
331
575
102
}
1001
ACAD
1000
DesignCenter Data
1002
{
1070
     1
1070
     4
1002
}
  0
BLOCK_RECORD
  5
576
330
1
100
AcDbSymbolTableRecord
100
AcDbBlockTableRecord
  2
4
340
0
310
2800000020000000200000000100080000000000000400000000000000000000000000000000000000000000000080000080000000808000800000008000800080800000C0C0C000C0DCC000F0CAA6000020400000206000002080000020A0000020C0000020E00000400000004020000040400000406000004080000040A0
310
000040C0000040E00000600000006020000060400000606000006080000060A0000060C0000060E00000800000008020000080400000806000008080000080A0000080C0000080E00000A0000000A0200000A0400000A0600000A0800000A0A00000A0C00000A0E00000C0000000C0200000C0400000C0600000C0800000C0
310
A00000C0C00000C0E00000E0000000E0200000E0400000E0600000E0800000E0A00000E0C00000E0E00040000000400020004000400040006000400080004000A0004000C0004000E00040200000402020004020400040206000402080004020A0004020C0004020E000404000004040200040404000404060004040800040
310
40A0004040C0004040E00040600000406020004060400040606000406080004060A0004060C0004060E00040800000408020004080400040806000408080004080A0004080C0004080E00040A0000040A0200040A0400040A0600040A0800040A0A00040A0C00040A0E00040C0000040C0200040C0400040C0600040C08000
310
40C0A00040C0C00040C0E00040E0000040E0200040E0400040E0600040E0800040E0A00040E0C00040E0E00080000000800020008000400080006000800080008000A0008000C0008000E00080200000802020008020400080206000802080008020A0008020C0008020E00080400000804020008040400080406000804080
310
008040A0008040C0008040E00080600000806020008060400080606000806080008060A0008060C0008060E00080800000808020008080400080806000808080008080A0008080C0008080E00080A0000080A0200080A0400080A0600080A0800080A0A00080A0C00080A0E00080C0000080C0200080C0400080C0600080C0
310
800080C0A00080C0C00080C0E00080E0000080E0200080E0400080E0600080E0800080E0A00080E0C00080E0E000C0000000C0002000C0004000C0006000C0008000C000A000C000C000C000E000C0200000C0202000C0204000C0206000C0208000C020A000C020C000C020E000C0400000C0402000C0404000C0406000C0
310
408000C040A000C040C000C040E000C0600000C0602000C0604000C0606000C0608000C060A000C060C000C060E000C0800000C0802000C0804000C0806000C0808000C080A000C080C000C080E000C0A00000C0A02000C0A04000C0A06000C0A08000C0A0A000C0A0C000C0A0E000C0C00000C0C02000C0C04000C0C06000
310
C0C08000C0C0A000F0FBFF00A4A0A000808080000000FF0000FF000000FFFF00FF000000FF00FF00FFFF0000FFFFFF00000000000000000000000000000000000000000000000000000000000000000000000000000000000000000000000000FF0000000000000000000000000000000000000000000000000000000000FF
310
FFFFFF00000000000000000000000000000000000000000000000000000000FFFFFF00FF000000000000000000000000000000000000000000000000000000FFFFFF00FF000000000000000000000000000000000000000000000000000000FFFFFF00FF000000000000000000000000000000000000000000000000000000
310
FFFFFF00FF000000000000000000000000000000000000000000000000000000FFFFFF00FF000000000000000000000000000000000000000000000000000000FFFFFF00FF000000000000000000000000000000000000000000000000000000FFFFFFFFFF0000000000000000000000000000000000000000000000000000
310
FFFF00FFFFFF0000000000000000000000000000000000000000000000000000FFFFFFFFFFFF0000000000000000000000000000000000000000000000000000FFFFFFFFFFFF0000000000000000000000000000000000000000000000000000FFFFFFFFFFFF00000000000000000000000000000000000000000000000000
310
00FFFFFFFFFFFF0000000000000000000000000000000000000000000000000000FFFFFFFFFFFF00000000000000000000000000000000000000000000FFFFFFFFFFFFFFFF00FF000000000000000000000000000000000000FFFFFFFF00FFFFFFFFFFFFFFFFFFFF0000000000000000000000000000000000FFFF000000FF
310
FFFF0000FFFFFF00FFFF00000000000000000000000000000000FFFF0000FFFFFFFF000000FFFFFFFFFF00000000000000000000000000000000FFFFFFFFFF00FFFFFFFF000000FFFFFF0000000000000000000000000000000000FFFFFFFFFFFF00FF00FFFF000000FF000000000000000000000000000000000000FFFFFF
310
FFFFFFFFFFFFFFFF000000FFFF000000000000000000000000000000000000FFFFFFFF00FFFFFFFFFFFF000000FF00000000000000000000000000000000000000FFFFFFFF00FF00FFFFFF000000FFFF000000000000000000000000000000000000FFFFFFFF00FFFFFFFFFFFF000000FF0000000000000000000000000000
310
0000000000FFFFFF0000FFFFFFFFFFFF00FF0000000000000000000000000000000000000000FFFFFFFF0000FF00FFFFFFFF00000000000000000000000000000000000000000000FFFFFFFF0000FFFFFFFF000000000000000000000000000000000000000000000000FFFFFFFFFFFF000000000000000000000000000000
310
000000000000000000000000FFFF000000000000000000000000000000000000000000000000000000000000000000000000000000000000
102
{BLKREFS
331
631
102
}
1001
ACAD
1000
DesignCenter Data
1002
{
1070
     1
1070
     4
1002
}
  0
ENDTAB
  0
ENDSEC
  0
SECTION
  2
BLOCKS
  0
BLOCK
  5
20
330
1F
100
AcDbEntity
  8
0
100
AcDbBlockBegin
  2
*Model_Space
 70
     0
 10
0.0
 20
0.0
 30
0.0
  3
*Model_Space
  1

  0
ENDBLK
  5
21
330
1F
100
AcDbEntity
  8
0
100
AcDbBlockEnd
  0
BLOCK
  5
D4
330
D2
100
AcDbEntity
 67
     1
  8
0
100
AcDbBlockBegin
  2
*Paper_Space
 70
     0
 10
0.0
 20
0.0
 30
0.0
  3
*Paper_Space
  1

  0
ENDBLK
  5
D5
330
D2
100
AcDbEntity
 67
     1
  8
0
100
AcDbBlockEnd
  0
BLOCK
  5
D8
330
D6
100
AcDbEntity
 67
     1
  8
0
100
AcDbBlockBegin
  2
*Paper_Space0
 70
     0
 10
0.0
 20
0.0
 30
0.0
  3
*Paper_Space0
  1

  0
ENDBLK
  5
D9
330
D6
100
AcDbEntity
 67
     1
  8
0
100
AcDbBlockEnd
  0
BLOCK
  5
4A8
330
4A7
100
AcDbEntity
  8
0
100
AcDbBlockBegin
  2
1
 70
     0
 10
0.0
 20
0.0
 30
0.0
  3
1
  1

  0
LINE
  5
63B
330
4A7
100
AcDbEntity
  8
0
  6
Continuous
 62
     7
370
    15
100
AcDbLine
 10
2028.924164393952
 20
1093.191594926192
 30
0.0
 11
2028.924164393952
 21
1092.341587988212
 31
0.0
1001
AcDbBlockRepETag
1070
     1
1071
        0
1005
63B
  0
LINE
  5
63C
330
4A7
100
AcDbEntity
  8
0
  6
Continuous
 62
     7
370
    15
100
AcDbLine
 10
2028.924164393952
 20
1093.191594926192
 30
0.0
 11
2073.124167541077
 21
1093.191580025031
 31
0.0
1001
AcDbBlockRepETag
1070
     1
1071
        1
1005
63C
  0
LINE
  5
63D
330
4A7
100
AcDbEntity
  8
0
  6
Continuous
 62
     7
370
    15
100
AcDbLine
 10
2073.124167541077
 20
1092.391581384017
 30
0.0
 11
2073.124167541077
 21
1093.191580025031
 31
0.0
1001
AcDbBlockRepETag
1070
     1
1071
        2
1005
63D
  0
LINE
  5
63E
330
4A7
100
AcDbEntity
  8
0
  6
Continuous
 62
     7
370
    15
100
AcDbLine
 10
2072.624173978379
 20
1092.391581384017
 30
0.0
 11
2073.124167541077
 21
1092.391581384017
 31
0.0
1001
AcDbBlockRepETag
1070
     1
1071
        3
1005
63E
  0
LINE
  5
63F
330
4A7
100
AcDbEntity
  8
0
  6
Continuous
 62
     7
370
    15
100
AcDbLine
 10
2071.974155524781
 20
1092.391581384017
 30
0.0
 11
2072.624173978379
 21
1092.391581384017
 31
0.0
1001
AcDbBlockRepETag
1070
     1
1071
        4
1005
63F
  0
LINE
  5
640
330
4A7
100
AcDbEntity
  8
0
  6
Continuous
 62
     7
370
    15
100
AcDbLine
 10
2071.974155524781
 20
1088.491589871718
 30
0.0
 11
2071.974155524781
 21
1092.391581384017
 31
0.0
1001
AcDbBlockRepETag
1070
     1
1071
        5
1005
640
  0
LINE
  5
641
330
4A7
100
AcDbEntity
  8
0
  6
Continuous
 62
     7
370
    15
100
AcDbLine
 10
2073.124167541077
 20
1088.491589871718
 30
0.0
 11
2071.974155524781
 21
1088.491589871718
 31
0.0
1001
AcDbBlockRepETag
1070
     1
1071
        6
1005
641
  0
LINE
  5
642
330
4A7
100
AcDbEntity
  8
0
  6
Continuous
 62
     7
370
    15
100
AcDbLine
 10
2073.124167541077
 20
1087.691591230704
 30
0.0
 11
2073.124167541077
 21
1088.491589871718
 31
0.0
1001
AcDbBlockRepETag
1070
     1
1071
        7
1005
642
  0
LINE
  5
643
330
4A7
100
AcDbEntity
  8
0
  6
Continuous
 62
     7
370
    15
100
AcDbLine
 10
2073.124167541077
 20
1087.691591230704
 30
0.0
 11
2028.924164393952
 21
1087.691591230704
 31
0.0
1001
AcDbBlockRepETag
1070
     1
1071
        8
1005
643
  0
LINE
  5
644
330
4A7
100
AcDbEntity
  8
0
  6
Continuous
 62
     7
370
    15
100
AcDbLine
 10
2028.924164393952
 20
1088.541598168685
 30
0.0
 11
2028.924164393952
 21
1087.691591230704
 31
0.0
1001
AcDbBlockRepETag
1070
     1
1071
        9
1005
644
  0
LINE
  5
645
330
4A7
100
AcDbEntity
  8
0
  6
Continuous
 62
     7
370
    15
100
AcDbLine
 10
2028.924164393952
 20
1092.341587988212
 30
0.0
 11
2029.924151519349
 21
1092.341587988212
 31
0.0
1001
AcDbBlockRepETag
1070
     1
1071
       10
1005
645
  0
LINE
  5
646
330
4A7
100
AcDbEntity
  8
0
  6
Continuous
 62
     7
370
    15
100
AcDbLine
 10
2029.924151519349
 20
1088.541598168685
 30
0.0
 11
2028.924164393952
 21
1088.541598168685
 31
0.0
1001
AcDbBlockRepETag
1070
     1
1071
       11
1005
646
  0
LINE
  5
647
330
4A7
100
AcDbEntity
  8
0
  6
Continuous
 62
     7
370
    15
100
AcDbLine
 10
2029.924151519349
 20
1092.341587988212
 30
0.0
 11
2029.924151519349
 21
1088.541598168685
 31
0.0
1001
AcDbBlockRepETag
1070
     1
1071
       12
1005
647
  0
LINE
  5
648
330
4A7
100
AcDbEntity
  8
0
  6
Continuous
 62
     7
370
    15
100
AcDbLine
 10
2028.924164393952
 20
1087.691591230704
 30
0.0
 11
2027.924147466233
 21
1087.691591230704
 31
0.0
1001
AcDbBlockRepETag
1070
     1
1071
       13
1005
648
  0
LINE
  5
649
330
4A7
100
AcDbEntity
  8
0
  6
Continuous
 62
     7
370
    15
100
AcDbLine
 10
2027.924147466233
 20
1087.691591230704
 30
0.0
 11
2027.924147466233
 21
1088.541598168685
 31
0.0
1001
AcDbBlockRepETag
1070
     1
1071
       14
1005
649
  0
LINE
  5
64A
330
4A7
100
AcDbEntity
  8
0
  6
Continuous
 62
     7
370
    15
100
AcDbLine
 10
2028.924164393952
 20
1088.541598168685
 30
0.0
 11
2027.924147466233
 21
1088.541598168685
 31
0.0
1001
AcDbBlockRepETag
1070
     1
1071
       15
1005
64A
  0
LINE
  5
64B
330
4A7
100
AcDbEntity
  8
0
  6
Continuous
 62
     7
370
    15
100
AcDbLine
 10
2027.924177268555
 20
1093.191594926192
 30
0.0
 11
2028.924164393952
 21
1093.191594926192
 31
0.0
1001
AcDbBlockRepETag
1070
     1
1071
       16
1005
64B
  0
LINE
  5
64C
330
4A7
100
AcDbEntity
  8
0
  6
Continuous
 62
     7
370
    15
100
AcDbLine
 10
2027.924147466233
 20
1092.341587988212
 30
0.0
 11
2027.924177268555
 21
1093.191594926192
 31
0.0
1001
AcDbBlockRepETag
1070
     1
1071
       17
1005
64C
  0
LINE
  5
64D
330
4A7
100
AcDbEntity
  8
0
  6
Continuous
 62
     7
370
    15
100
AcDbLine
 10
2027.924147466233
 20
1092.341587988212
 30
0.0
 11
2028.924164393952
 21
1092.341587988212
 31
0.0
1001
AcDbBlockRepETag
1070
     1
1071
       18
1005
64D
  0
LINE
  5
64E
330
4A7
100
AcDbEntity
  8
0
  6
Continuous
 62
     7
370
    15
100
AcDbLine
 10
2074.124154666474
 20
1088.491589871718
 30
0.0
 11
2074.124154666474
 21
1087.691591230704
 31
0.0
1001
AcDbBlockRepETag
1070
     1
1071
       19
1005
64E
  0
LINE
  5
64F
330
4A7
100
AcDbEntity
  8
0
  6
Continuous
 62
     7
370
    15
100
AcDbLine
 10
2074.124154666474
 20
1087.691591230704
 30
0.0
 11
2073.124167541077
 21
1087.691591230704
 31
0.0
1001
AcDbBlockRepETag
1070
     1
1071
       20
1005
64F
  0
LINE
  5
650
330
4A7
100
AcDbEntity
  8
0
  6
Continuous
 62
     7
370
    15
100
AcDbLine
 10
2073.124167541077
 20
1088.491589871718
 30
0.0
 11
2074.124154666474
 21
1088.491589871718
 31
0.0
1001
AcDbBlockRepETag
1070
     1
1071
       21
1005
650
  0
LINE
  5
651
330
4A7
100
AcDbEntity
  8
0
  6
Continuous
 62
     7
370
    15
100
AcDbLine
 10
2074.124154666474
 20
1093.191580025031
 30
0.0
 11
2074.124154666474
 21
1092.391581384017
 31
0.0
1001
AcDbBlockRepETag
1070
     1
1071
       22
1005
651
  0
LINE
  5
652
330
4A7
100
AcDbEntity
  8
0
  6
Continuous
 62
     7
370
    15
100
AcDbLine
 10
2073.124167541077
 20
1093.191580025031
 30
0.0
 11
2074.124154666474
 21
1093.191580025031
 31
0.0
1001
AcDbBlockRepETag
1070
     1
1071
       23
1005
652
  0
LINE
  5
653
330
4A7
100
AcDbEntity
  8
0
  6
Continuous
 62
     7
370
    15
100
AcDbLine
 10
2074.124154666474
 20
1092.391581384017
 30
0.0
 11
2073.124167541077
 21
1092.391581384017
 31
0.0
1001
AcDbBlockRepETag
1070
     1
1071
       24
1005
653
  0
LINE
  5
654
330
4A7
100
AcDbEntity
  8
0
  6
Continuous
 62
     7
370
    15
100
AcDbLine
 10
2071.274158576539
 20
1093.191594926192
 30
0.0
 11
2030.774173358491
 21
1093.191594926192
 31
0.0
1001
AcDbBlockRepETag
1070
     1
1071
       25
1005
654
  0
LINE
  5
655
330
4A7
100
AcDbEntity
  8
0
  6
Continuous
 62
     7
370
    15
100
AcDbLine
 10
2071.274158576539
 20
1093.191580025031
 30
0.0
 11
2071.274158576539
 21
1093.191594926192
 31
0.0
1001
AcDbBlockRepETag
1070
     1
1071
       26
1005
655
  0
LINE
  5
656
330
4A7
100
AcDbEntity
  8
0
  6
Continuous
 62
     7
370
    15
100
AcDbLine
 10
2028.924164393952
 20
1088.541598168685
 30
0.0
 11
2028.924164393952
 21
1092.341587988212
 31
0.0
1001
AcDbBlockRepETag
1070
     1
1071
       27
1005
656
  0
LINE
  5
657
330
4A7
100
AcDbEntity
  8
0
  6
Continuous
 62
     7
370
    15
100
AcDbLine
 10
2027.924147466233
 20
1088.541598168685
 30
0.0
 11
2027.924147466233
 21
1092.341587988212
 31
0.0
1001
AcDbBlockRepETag
1070
     1
1071
       28
1005
657
  0
LINE
  5
658
330
4A7
100
AcDbEntity
  8
0
  6
Continuous
 62
     7
370
    15
100
AcDbLine
 10
2048.196819642594
 20
1052.593251952006
 30
0.0
 11
2053.846803525498
 21
1052.593251952006
 31
0.0
1001
AcDbBlockRepETag
1070
     1
1071
       29
1005
658
  0
LINE
  5
659
330
4A7
100
AcDbEntity
  8
0
  6
Continuous
 62
     7
370
    15
100
AcDbLine
 10
2048.196819642594
 20
1052.593251952006
 30
0.0
 11
2048.196819642594
 21
1078.225896803214
 31
0.0
1001
AcDbBlockRepETag
1070
     1
1071
       30
1005
659
  0
LINE
  5
65A
330
4A7
100
AcDbEntity
  8
0
  6
Continuous
 62
     7
370
    15
100
AcDbLine
 10
2053.846803525498
 20
1078.225896803214
 30
0.0
 11
2048.196819642594
 21
1078.225896803214
 31
0.0
1001
AcDbBlockRepETag
1070
     1
1071
       31
1005
65A
  0
LINE
  5
65B
330
4A7
100
AcDbEntity
  8
0
  6
Continuous
 62
     7
370
    15
100
AcDbLine
 10
2053.846803525498
 20
1078.225896803214
 30
0.0
 11
2053.846803525498
 21
1052.593251952006
 31
0.0
1001
AcDbBlockRepETag
1070
     1
1071
       32
1005
65B
  0
SPLINE
  5
65C
330
4A7
100
AcDbEntity
  8
0
  6
Continuous
 62
     7
370
    15
100
AcDbSpline
210
0.0
220
0.0
230
1.0
 70
     8
 71
     3
 72
    11
 73
     7
 74
     0
 42
0.0000000001
 43
0.0000000001
 40
0.0
 40
0.0
 40
0.0
 40
0.0
 40
0.2448987531202503
 40
0.4897566235771388
 40
0.7345733246335023
 40
1.0
 40
1.0
 40
1.0
 40
1.0
 10
2046.302107194474
 20
1083.754302111938
 30
0.0
 10
2046.247927686192
 20
1083.738117406314
 30
0.0
 10
2046.139577714194
 20
1083.705750696893
 30
0.0
 10
2046.010118624602
 20
1083.592527086471
 30
0.0
 10
2045.91688016069
 20
1083.442133940395
 30
0.0
 10
2045.904452516447
 20
1083.324765697947
 30
0.0
 10
2045.897987702897
 20
1083.263711181952
 30
0.0
1001
AcDbBlockRepETag
1070
     1
1071
       33
1005
65C
  0
LINE
  5
65D
330
4A7
100
AcDbEntity
  8
0
  6
Continuous
 62
     7
370
    15
100
AcDbLine
 10
2046.302107194474
 20
1083.754302111938
 30
0.0
 11
2046.321866134217
 21
1083.734200445487
 31
0.0
1001
AcDbBlockRepETag
1070
     1
1071
       34
1005
65D
  0
SPLINE
  5
65E
330
4A7
100
AcDbEntity
  8
0
  6
Continuous
 62
     7
370
    15
100
AcDbSpline
210
0.0
220
0.0
230
1.0
 70
     8
 71
     3
 72
    12
 73
     8
 74
     0
 42
0.0000000001
 43
0.0000000001
 40
0.0
 40
0.0
 40
0.0
 40
0.0
 40
0.2462092555430398
 40
0.4924028290532771
 40
0.7385314207248343
 40
0.984655514228095
 40
1.0
 40
1.0
 40
1.0
 40
1.0
 10
2046.321866134217
 20
1083.734200445487
 30
0.0
 10
2046.267879266849
 20
1083.717595510481
 30
0.0
 10
2046.159908970748
 20
1083.684386698103
 30
0.0
 10
2046.03041824354
 20
1083.570127767298
 30
0.0
 10
2045.944336032347
 20
1083.423294978766
 30
0.0
 10
2045.922019864965
 20
1083.307279931412
 30
0.0
 10
2045.92155860687
 20
1083.247870844114
 30
0.0
 10
2045.921531537583
 20
1083.244384375884
 30
0.0
1001
AcDbBlockRepETag
1070
     1
1071
       35
1005
65E
  0
LWPOLYLINE
  5
65F
330
4A7
100
AcDbEntity
  8
0
  6
Continuous
 62
     7
370
    15
100
AcDbPolyline
 90
        3
 70
   128
 43
0.0
 10
2045.921531537583
 20
1083.244384375884
 10
2045.910743096879
 20
1083.253205863311
 10
2045.897987702897
 20
1083.263711181952
1001
AcDbBlockRepETag
1070
     1
1071
       36
1005
65F
  0
SPLINE
  5
660
330
4A7
100
AcDbEntity
  8
0
  6
Continuous
 62
     7
370
    15
100
AcDbSpline
210
0.0
220
0.0
230
1.0
 70
     8
 71
     3
 72
    10
 73
     6
 74
     0
 42
0.0000000001
 43
0.0000000001
 40
0.0
 40
0.0
 40
0.0
 40
0.0
 40
0.5
 40
0.5
 40
1.0
 40
1.0
 40
1.0
 40
1.0
 10
2048.317192089199
 20
1086.817769999545
 30
0.0
 10
2048.163634884348
 20
1086.817769999546
 30
0.0
 10
2048.014556071624
 20
1086.743774654458
 30
0.0
 10
2047.828913385028
 20
1086.503701037656
 30
0.0
 10
2047.794769849737
 20
1086.339933516021
 30
0.0
 10
2047.833652088005
 20
1086.191380051156
 30
0.0
1001
AcDbBlockRepETag
1070
     1
1071
       37
1005
660
  0
SPLINE
  5
661
330
4A7
100
AcDbEntity
  8
0
  6
Continuous
 62
     7
370
    15
100
AcDbSpline
210
0.0
220
0.0
230
1.0
 70
     8
 71
     3
 72
    11
 73
     7
 74
     0
 42
0.0000000001
 43
0.0000000001
 40
0.0000000000000001
 40
0.0000000000000001
 40
0.0000000000000001
 40
0.0000000000000001
 40
0.0004637847022177
 40
0.0004637847022177
 40
0.0004637847022177
 40
0.0009008195091645
 40
0.0009008195091645
 40
0.0009008195091645
 40
0.0009008195091645
 10
2048.317192089199
 20
1086.817769999545
 30
0.0
 10
2048.322431434205
 20
1086.813725501551
 30
0.0
 10
2048.327653593235
 20
1086.809680988276
 30
0.0
 10
2048.332858898904
 20
1086.805636460164
 30
0.0
 10
2048.337763976073
 20
1086.801825209919
 30
0.0
 10
2048.342654087871
 20
1086.798013946457
 30
0.0
 10
2048.347529504003
 20
1086.794202670133
 30
0.0
1001
AcDbBlockRepETag
1070
     1
1071
       38
1005
661
  0
SPLINE
  5
662
330
4A7
100
AcDbEntity
  8
0
  6
Continuous
 62
     7
370
    15
100
AcDbSpline
210
0.0
220
0.0
230
1.0
 70
     8
 71
     3
 72
    13
 73
     9
 74
     0
 42
0.0000000001
 43
0.0000000001
 40
0.0
 40
0.0
 40
0.0
 40
0.0
 40
0.1859388876086534
 40
0.3718855625654837
 40
0.5577184043363501
 40
0.7434722935687952
 40
0.9292570541846515
 40
1.0
 40
1.0
 40
1.0
 40
1.0
 10
2048.347529986909
 20
1086.794198600127
 30
0.0
 10
2048.291298035235
 20
1086.788672310265
 30
0.0
 10
2048.178831776825
 20
1086.777619499094
 30
0.0
 10
2048.029205220559
 20
1086.691458994453
 30
0.0
 10
2047.915401838837
 20
1086.564495753274
 30
0.0
 10
2047.850847197612
 20
1086.406317860824
 30
0.0
 10
2047.842455431606
 20
1086.270273744079
 30
0.0
 10
2047.858141595854
 20
1086.19459826469
 30
0.0
 10
2047.862467387727
 20
1086.173729149177
 30
0.0
1001
AcDbBlockRepETag
1070
     1
1071
       39
1005
662
  0
LINE
  5
663
330
4A7
100
AcDbEntity
  8
0
  6
Continuous
 62
     7
370
    15
100
AcDbLine
 10
2047.862467387727
 20
1086.173729149177
 30
0.0
 11
2047.833648541978
 21
1086.191387025191
 31
0.0
1001
AcDbBlockRepETag
1070
     1
1071
       40
1005
663
  0
LINE
  5
664
330
4A7
100
AcDbEntity
  8
0
  6
Continuous
 62
     7
370
    15
100
AcDbLine
 10
2055.722174266389
 20
1083.683596102073
 30
0.0
 11
2055.741992810776
 21
1083.703742472007
 31
0.0
1001
AcDbBlockRepETag
1070
     1
1071
       41
1005
664
  0
SPLINE
  5
665
330
4A7
100
AcDbEntity
  8
0
  6
Continuous
 62
     7
370
    15
100
AcDbSpline
210
0.0
220
0.0
230
1.0
 70
     8
 71
     3
 72
    11
 73
     7
 74
     0
 42
0.0000000001
 43
0.0000000001
 40
0.0
 40
0.0
 40
0.0
 40
0.0
 40
0.2441665590041048
 40
0.4884011401760594
 40
0.7325439414774121
 40
1.0
 40
1.0
 40
1.0
 40
1.0
 10
2055.741992810776
 20
1083.703742472007
 30
0.0
 10
2055.796215228557
 20
1083.687763736389
 30
0.0
 10
2055.904675169898
 20
1083.655801813651
 30
0.0
 10
2056.0345856934
 20
1083.543114163775
 30
0.0
 10
2056.128729208436
 20
1083.392497744053
 30
0.0
 10
2056.141377510049
 20
1083.274487739472
 30
0.0
 10
2056.147989848664
 20
1083.212793914153
 30
0.0
1001
AcDbBlockRepETag
1070
     1
1071
       42
1005
665
  0
LWPOLYLINE
  5
666
330
4A7
100
AcDbEntity
  8
0
  6
Continuous
 62
     7
370
    15
100
AcDbPolyline
 90
        3
 70
   128
 43
0.0
 10
2056.147989848664
 20
1083.212793914153
 10
2056.13520465236
 20
1083.202243892028
 10
2056.124446013978
 20
1083.193377701118
1001
AcDbBlockRepETag
1070
     1
1071
       43
1005
666
  0
SPLINE
  5
667
330
4A7
100
AcDbEntity
  8
0
  6
Continuous
 62
     7
370
    15
100
AcDbSpline
210
0.0
220
0.0
230
1.0
 70
     8
 71
     3
 72
    12
 73
     8
 74
     0
 42
0.0000000001
 43
0.0000000001
 40
0.0
 40
0.0
 40
0.0
 40
0.0
 40
0.0242580217854333
 40
0.2697115168062347
 40
0.5151398208928369
 40
0.7605489717544283
 40
1.0
 40
1.0
 40
1.0
 40
1.0
 10
2056.124446013978
 20
1083.193377701118
 30
0.0
 10
2056.124378926877
 20
1083.19890546969
 30
0.0
 10
2056.12363302254
 20
1083.260365668692
 30
0.0
 10
2056.09936194115
 20
1083.378150801751
 30
0.0
 10
2056.011521443247
 20
1083.52394742102
 30
0.0
 10
2055.881690373201
 20
1083.635620289468
 30
0.0
 10
2055.774908913333
 20
1083.667735712861
 30
0.0
 10
2055.722174266389
 20
1083.683596102073
 30
0.0
1001
AcDbBlockRepETag
1070
     1
1071
       44
1005
667
  0
SPLINE
  5
668
330
4A7
100
AcDbEntity
  8
0
  6
Continuous
 62
     7
370
    15
100
AcDbSpline
210
0.0
220
0.0
230
1.0
 70
     8
 71
     3
 72
    13
 73
     9
 74
     0
 42
0.0000000001
 43
0.0000000001
 40
0.0
 40
0.0
 40
0.0
 40
0.0
 40
0.1852206360168725
 40
0.3704490293006662
 40
0.5555640291175244
 40
0.7406030953278773
 40
0.9256719255013404
 40
0.9999999999999998
 40
0.9999999999999998
 40
0.9999999999999998
 40
0.9999999999999998
 10
2053.677138904145
 20
1086.817772237136
 30
0.0
 10
2053.7333712698
 20
1086.812246029317
 30
0.0
 10
2053.845838356189
 20
1086.801193382233
 30
0.0
 10
2053.995458703675
 20
1086.715031647141
 30
0.0
 10
2054.109286217925
 20
1086.58807245789
 30
0.0
 10
2054.173752954707
 20
1086.429875619837
 30
0.0
 10
2054.182334748368
 20
1086.292630773764
 30
0.0
 10
2054.166013855238
 20
1086.215882122447
 30
0.0
 10
2054.161337235978
 20
1086.193890420272
 30
0.0
1001
AcDbBlockRepETag
1070
     1
1071
       45
1005
668
  0
LINE
  5
669
330
4A7
100
AcDbEntity
  8
0
  6
Continuous
 62
     7
370
    15
100
AcDbLine
 10
2054.161337235978
 20
1086.193890420272
 30
0.0
 11
2054.132577994874
 21
1086.176098433806
 31
0.0
1001
AcDbBlockRepETag
1070
     1
1071
       46
1005
669
  0
SPLINE
  5
66A
330
4A7
100
AcDbEntity
  8
0
  6
Continuous
 62
     7
370
    15
100
AcDbSpline
210
0.0
220
0.0
230
1.0
 70
     8
 71
     3
 72
    12
 73
     8
 74
     0
 42
0.0000000001
 43
0.0000000001
 40
0.0
 40
0.0
 40
0.0
 40
0.0
 40
0.5
 40
0.5
 40
0.75
 40
0.75
 40
1.0
 40
1.0
 40
1.0
 40
1.0
 10
2054.132586471763
 20
1086.176091822202
 30
0.0
 10
2054.168602842921
 20
1086.323964357763
 30
0.0
 10
2054.132971658144
 20
1086.484837334354
 30
0.0
 10
2053.993738817649
 20
1086.662183375437
 30
0.0
 10
2053.93387584651
 20
1086.710707470435
 30
0.0
 10
2053.797159337336
 20
1086.777139206277
 30
0.0
 10
2053.722052685841
 20
1086.794202670133
 30
0.0
 10
2053.64695490725
 20
1086.794202670133
 30
0.0
1001
AcDbBlockRepETag
1070
     1
1071
       47
1005
66A
  0
SPLINE
  5
66B
330
4A7
100
AcDbEntity
  8
0
  6
Continuous
 62
     7
370
    15
100
AcDbSpline
210
0.0
220
0.0
230
1.0
 70
     8
 71
     3
 72
    11
 73
     7
 74
     0
 42
0.0000000001
 43
0.0000000001
 40
0.0001000897121279
 40
0.0001000897121279
 40
0.0001000897121279
 40
0.0001000897121279
 40
0.0005360584385834
 40
0.0005360584385834
 40
0.0005360584385834
 40
0.0010009039475719
 40
0.0010009039475719
 40
0.0010009039475719
 40
0.0010009039475719
 10
2053.64695490725
 20
1086.794202670133
 30
0.0
 10
2053.651794085705
 20
1086.798004670716
 30
0.0
 10
2053.656647441149
 20
1086.801806658953
 30
0.0
 10
2053.661515226355
 20
1086.805608634513
 30
0.0
 10
2053.666705433719
 20
1086.809662437365
 30
0.0
 10
2053.67191204562
 20
1086.813716225848
 30
0.0
 10
2053.677135377987
 20
1086.817769999545
 30
0.0
1001
AcDbBlockRepETag
1070
     1
1071
       48
1005
66B
  0
CIRCLE
  5
66C
330
4A7
100
AcDbEntity
  8
0
  6
Continuous
 62
     7
370
    15
100
AcDbCircle
 10
2045.924161629724
 20
1085.691591890467
 30
0.0
 40
0.9999999999039062
1001
AcDbBlockRepETag
1070
     1
1071
       49
1005
66C
  0
ARC
  5
66D
330
4A7
100
AcDbEntity
  8
0
  6
Continuous
 62
     7
370
    15
100
AcDbCircle
 10
2056.121814202914
 20
1085.691588300233
 30
0.0
 40
2.023814078430828
100
AcDbArc
 50
165.6293307101512
 51
259.1824510236127
1001
AcDbBlockRepETag
1070
     1
1071
       50
1005
66D
  0
LINE
  5
66E
330
4A7
100
AcDbEntity
  8
0
  6
Continuous
 62
     7
370
    15
100
AcDbLine
 10
2048.317191222718
 20
1086.817772237136
 30
0.0
 11
2053.677138904145
 21
1086.817772237136
 31
0.0
1001
AcDbBlockRepETag
1070
     1
1071
       51
1005
66E
  0
ARC
  5
66F
330
4A7
100
AcDbEntity
  8
0
  6
Continuous
 62
     7
370
    15
100
AcDbCircle
 10
2045.924161629724
 20
1085.691591890467
 30
0.0
 40
1.973814078335105
100
AcDbArc
 50
281.0389231661879
 51
14.66750602669337
1001
AcDbBlockRepETag
1070
     1
1071
       52
1005
66F
  0
LINE
  5
670
330
4A7
100
AcDbEntity
  8
0
  6
Continuous
 62
     7
370
    15
100
AcDbLine
 10
2045.897987702897
 20
1083.263711181952
 30
0.0
 11
2045.897987702897
 21
1081.23292132981
 31
0.0
1001
AcDbBlockRepETag
1070
     1
1071
       53
1005
670
  0
LINE
  5
671
330
4A7
100
AcDbEntity
  8
0
  6
Continuous
 62
     7
370
    15
100
AcDbLine
 10
2056.147989848664
 20
1081.23292132981
 30
0.0
 11
2045.897987702897
 21
1081.23292132981
 31
0.0
1001
AcDbBlockRepETag
1070
     1
1071
       54
1005
671
  0
LINE
  5
672
330
4A7
100
AcDbEntity
  8
0
  6
Continuous
 62
     7
370
    15
100
AcDbLine
 10
2056.147989848664
 20
1083.212793914153
 30
0.0
 11
2056.147989848664
 21
1081.23292132981
 31
0.0
1001
AcDbBlockRepETag
1070
     1
1071
       55
1005
672
  0
ARC
  5
673
330
4A7
100
AcDbEntity
  8
0
  6
Continuous
 62
     7
370
    15
100
AcDbCircle
 10
2058.146814202915
 20
1087.541587921567
 30
0.0
 40
0.1500000000000673
100
AcDbArc
 50
89.99998551387028
 51
180.0
1001
AcDbBlockRepETag
1070
     1
1071
       56
1005
673
  0
LINE
  5
674
330
4A7
100
AcDbEntity
  8
0
  6
Continuous
 62
     7
370
    15
100
AcDbLine
 10
2048.196819642594
 20
1078.225896803214
 30
0.0
 11
2048.196819642594
 21
1078.304932562186
 31
0.0
1001
AcDbBlockRepETag
1070
     1
1071
       57
1005
674
  0
ARC
  5
675
330
4A7
100
AcDbEntity
  8
0
  6
Continuous
 62
     7
370
    15
100
AcDbCircle
 10
2055.346814202915
 20
1078.305561391347
 30
0.0
 40
1.5
100
AcDbArc
 50
90.0
 51
180.0
1001
AcDbBlockRepETag
1070
     1
1071
       58
1005
675
  0
LINE
  5
676
330
4A7
100
AcDbEntity
  8
0
  6
Continuous
 62
     7
370
    15
100
AcDbLine
 10
2044.646826604417
 20
1079.804928151443
 30
0.0
 11
2046.696809152177
 21
1079.804928151443
 31
0.0
1001
AcDbBlockRepETag
1070
     1
1071
       59
1005
676
  0
ARC
  5
677
330
4A7
100
AcDbEntity
  8
0
  6
Continuous
 62
     7
370
    15
100
AcDbCircle
 10
2043.896814202915
 20
1087.541591587584
 30
0.0
 40
0.1500000000000105
100
AcDbArc
 50
0.0
 51
89.99998551410477
1001
AcDbBlockRepETag
1070
     1
1071
       60
1005
677
  0
LINE
  5
678
330
4A7
100
AcDbEntity
  8
0
  6
Continuous
 62
     7
370
    15
100
AcDbLine
 10
2053.846803525498
 20
1078.305558410956
 30
0.0
 11
2053.846803525498
 21
1078.225896803214
 31
0.0
1001
AcDbBlockRepETag
1070
     1
1071
       61
1005
678
  0
LINE
  5
679
330
4A7
100
AcDbEntity
  8
0
  6
Continuous
 62
     7
370
    15
100
AcDbLine
 10
2057.996806720307
 20
1087.541581240966
 30
0.0
 11
2057.996806720307
 21
1080.405564156844
 31
0.0
1001
AcDbBlockRepETag
1070
     1
1071
       62
1005
679
  0
ARC
  5
67A
330
4A7
100
AcDbEntity
  8
0
  6
Continuous
 62
     7
370
    15
100
AcDbCircle
 10
2057.396814202915
 20
1080.405561391347
 30
0.0
 40
0.5999999999999944
100
AcDbArc
 50
270.0
 51
0.0
1001
AcDbBlockRepETag
1070
     1
1071
       63
1005
67A
  0
ARC
  5
67B
330
4A7
100
AcDbEntity
  8
0
  6
Continuous
 62
     7
370
    15
100
AcDbCircle
 10
2044.646814202915
 20
1080.404932805844
 30
0.0
 40
0.6000000000000228
100
AcDbArc
 50
180.0
 51
270.0
1001
AcDbBlockRepETag
1070
     1
1071
       64
1005
67B
  0
ARC
  5
67C
330
4A7
100
AcDbEntity
  8
0
  6
Continuous
 62
     7
370
    15
100
AcDbCircle
 10
2046.696814202915
 20
1078.304932805844
 30
0.0
 40
1.5
100
AcDbArc
 50
0.0
 51
90.00000000011725
1001
AcDbBlockRepETag
1070
     1
1071
       65
1005
67C
  0
LINE
  5
67D
330
4A7
100
AcDbEntity
  8
0
  6
Continuous
 62
     7
370
    15
100
AcDbLine
 10
2044.046816447785
 20
1080.404938308074
 30
0.0
 11
2044.046816447785
 21
1087.541596142127
 31
0.0
1001
AcDbBlockRepETag
1070
     1
1071
       66
1005
67D
  0
LINE
  5
67E
330
4A7
100
AcDbEntity
  8
0
  6
Continuous
 62
     7
370
    15
100
AcDbLine
 10
2055.346814015916
 20
1079.805554000213
 30
0.0
 11
2057.396826365998
 21
1079.805554000213
 31
0.0
1001
AcDbBlockRepETag
1070
     1
1071
       67
1005
67E
  0
LINE
  5
67F
330
4A7
100
AcDbEntity
  8
0
  6
Continuous
 62
     7
370
    15
100
AcDbLine
 10
2045.897987702897
 20
1081.23292132981
 30
0.0
 11
2045.921531537583
 21
1083.162964431121
 31
0.0
1001
AcDbBlockRepETag
1070
     1
1071
       68
1005
67F
  0
LINE
  5
680
330
4A7
100
AcDbEntity
  8
0
  6
Continuous
 62
     7
370
    15
100
AcDbLine
 10
2045.921531537583
 20
1083.162964431121
 30
0.0
 11
2056.124446013978
 21
1083.162964431121
 31
0.0
1001
AcDbBlockRepETag
1070
     1
1071
       69
1005
680
  0
LINE
  5
681
330
4A7
100
AcDbEntity
  8
0
  6
Continuous
 62
     7
370
    15
100
AcDbLine
 10
2056.147989848664
 20
1081.23292132981
 30
0.0
 11
2056.124446013978
 21
1083.162964431121
 31
0.0
1001
AcDbBlockRepETag
1070
     1
1071
       70
1005
681
  0
LINE
  5
682
330
4A7
100
AcDbEntity
  8
0
  6
Continuous
 62
     7
370
    15
100
AcDbLine
 10
2056.124446013978
 20
1083.162964431121
 30
0.0
 11
2056.124446013978
 21
1083.193377701118
 31
0.0
1001
AcDbBlockRepETag
1070
     1
1071
       71
1005
682
  0
LINE
  5
683
330
4A7
100
AcDbEntity
  8
0
  6
Continuous
 62
     7
370
    15
100
AcDbLine
 10
2045.921531537583
 20
1083.162964431121
 30
0.0
 11
2045.921531537583
 21
1083.244384375884
 31
0.0
1001
AcDbBlockRepETag
1070
     1
1071
       72
1005
683
  0
ARC
  5
684
330
4A7
100
AcDbEntity
  8
0
  6
Continuous
 62
     7
370
    15
100
AcDbCircle
 10
2056.121814202914
 20
1085.691588300233
 30
0.0
 40
2.04738140784319
100
AcDbArc
 50
166.3113629232207
 51
258.7437150965032
1001
AcDbBlockRepETag
1070
     1
1071
       73
1005
684
  0
ARC
  5
685
330
4A7
100
AcDbEntity
  8
0
  6
Continuous
 62
     7
370
    15
100
AcDbCircle
 10
2045.924161629724
 20
1085.691591890467
 30
0.0
 40
1.997381407746942
100
AcDbArc
 50
281.4846983825466
 51
13.96813462187122
1001
AcDbBlockRepETag
1070
     1
1071
       74
1005
685
  0
LINE
  5
686
330
4A7
100
AcDbEntity
  8
0
  6
Continuous
 62
     7
370
    15
100
AcDbLine
 10
2053.646949151566
 20
1086.794198600127
 30
0.0
 11
2048.347529986909
 21
1086.794198600127
 31
0.0
1001
AcDbBlockRepETag
1070
     1
1071
       75
1005
686
  0
CIRCLE
  5
687
330
4A7
100
AcDbEntity
  8
0
  6
Continuous
 62
     7
370
    15
100
AcDbCircle
 10
2045.921814202914
 20
1085.691591890467
 30
0.0
 40
0.5000000000720491
1001
AcDbBlockRepETag
1070
     1
1071
       76
1005
687
  0
LINE
  5
688
330
4A7
100
AcDbEntity
  8
0
  6
Continuous
 62
     7
370
    15
100
AcDbLine
 10
2072.674152473023
 20
1092.391581384017
 30
0.0
 11
2072.674152473023
 21
1088.491589871718
 31
0.0
1001
AcDbBlockRepETag
1070
     1
1071
       77
1005
688
  0
ENDBLK
  5
4A9
330
4A7
100
AcDbEntity
  8
0
100
AcDbBlockEnd
  0
BLOCK
  5
4FA
330
4F9
100
AcDbEntity
  8
0
100
AcDbBlockBegin
  2
2
 70
     0
 10
0.0
 20
0.0
 30
0.0
  3
2
  1

  0
LINE
  5
694
330
4F9
100
AcDbEntity
  8
0
  6
Continuous
 62
     7
370
    15
100
AcDbLine
 10
1996.437450633283
 20
1093.191580025031
 30
0.0
 11
1996.437450633283
 21
1092.391581384017
 31
0.0
1001
AcDbBlockRepETag
1070
     1
1071
        0
1005
694
  0
LINE
  5
695
330
4F9
100
AcDbEntity
  8
0
  6
Continuous
 62
     7
370
    15
100
AcDbLine
 10
1997.437450797195
 20
1093.191580025031
 30
0.0
 11
1996.437450633283
 21
1093.191580025031
 31
0.0
1001
AcDbBlockRepETag
1070
     1
1071
        1
1005
695
  0
LINE
  5
696
330
4F9
100
AcDbEntity
  8
0
  6
Continuous
 62
     7
370
    15
100
AcDbLine
 10
1997.437450797195
 20
1092.391581384017
 30
0.0
 11
1997.437450797195
 21
1093.191580025031
 31
0.0
1001
AcDbBlockRepETag
1070
     1
1071
        2
1005
696
  0
LINE
  5
697
330
4F9
100
AcDbEntity
  8
0
  6
Continuous
 62
     7
370
    15
100
AcDbLine
 10
1996.437450633283
 20
1092.391581384017
 30
0.0
 11
1997.437450797195
 21
1092.391581384017
 31
0.0
1001
AcDbBlockRepETag
1070
     1
1071
        3
1005
697
  0
LINE
  5
698
330
4F9
100
AcDbEntity
  8
0
  6
Continuous
 62
     7
370
    15
100
AcDbLine
 10
1984.837450780804
 20
1092.391581384017
 30
0.0
 11
1996.437450633283
 21
1092.391581384017
 31
0.0
1001
AcDbBlockRepETag
1070
     1
1071
        4
1005
698
  0
LINE
  5
699
330
4F9
100
AcDbEntity
  8
0
  6
Continuous
 62
     7
370
    15
100
AcDbLine
 10
1984.837450780804
 20
1093.191580025031
 30
0.0
 11
1984.837450780804
 21
1092.391581384017
 31
0.0
1001
AcDbBlockRepETag
1070
     1
1071
        5
1005
699
  0
LINE
  5
69A
330
4F9
100
AcDbEntity
  8
0
  6
Continuous
 62
     7
370
    15
100
AcDbLine
 10
1984.837450780804
 20
1093.191580025031
 30
0.0
 11
1996.437450633283
 21
1093.191580025031
 31
0.0
1001
AcDbBlockRepETag
1070
     1
1071
        6
1005
69A
  0
LINE
  5
69B
330
4F9
100
AcDbEntity
  8
0
  6
Continuous
 62
     7
370
    15
100
AcDbLine
 10
1984.837450780804
 20
1093.191594926192
 30
0.0
 11
1983.837450616891
 21
1093.191594926192
 31
0.0
1001
AcDbBlockRepETag
1070
     1
1071
        7
1005
69B
  0
LINE
  5
69C
330
4F9
100
AcDbEntity
  8
0
  6
Continuous
 62
     7
370
    15
100
AcDbLine
 10
1996.237450973029
 20
1093.191594926192
 30
0.0
 11
1985.037450441058
 21
1093.191594926192
 31
0.0
1001
AcDbBlockRepETag
1070
     1
1071
        8
1005
69C
  0
LINE
  5
69D
330
4F9
100
AcDbEntity
  8
0
  6
Continuous
 62
     7
370
    15
100
AcDbLine
 10
1996.437450633283
 20
1093.191594926192
 30
0.0
 11
1997.437450797195
 21
1093.191594926192
 31
0.0
1001
AcDbBlockRepETag
1070
     1
1071
        9
1005
69D
  0
LINE
  5
69E
330
4F9
100
AcDbEntity
  8
0
  6
Continuous
 62
     7
370
    15
100
AcDbLine
 10
1997.437450797195
 20
1093.191594926192
 30
0.0
 11
1997.437450797195
 21
1093.191580025031
 31
0.0
1001
AcDbBlockRepETag
1070
     1
1071
       10
1005
69E
  0
LINE
  5
69F
330
4F9
100
AcDbEntity
  8
0
  6
Continuous
 62
     7
370
    15
100
AcDbLine
 10
1983.837450616891
 20
1093.191580025031
 30
0.0
 11
1984.837450780804
 21
1093.191580025031
 31
0.0
1001
AcDbBlockRepETag
1070
     1
1071
       11
1005
69F
  0
LINE
  5
6A0
330
4F9
100
AcDbEntity
  8
0
  6
Continuous
 62
     7
370
    15
100
AcDbLine
 10
1983.837450616891
 20
1093.191594926192
 30
0.0
 11
1983.837450616891
 21
1093.191580025031
 31
0.0
1001
AcDbBlockRepETag
1070
     1
1071
       12
1005
6A0
  0
LINE
  5
6A1
330
4F9
100
AcDbEntity
  8
0
  6
Continuous
 62
     7
370
    15
100
AcDbLine
 10
1984.28034479254
 20
1093.191580025031
 30
0.0
 11
1984.283554130132
 21
1093.191580025031
 31
0.0
1001
AcDbBlockRepETag
1070
     1
1071
       13
1005
6A1
  0
LINE
  5
6A2
330
4F9
100
AcDbEntity
  8
0
  6
Continuous
 62
     7
370
    15
100
AcDbLine
 10
1984.283554130132
 20
1093.191580025031
 30
0.0
 11
1985.037461616929
 21
1093.191580025031
 31
0.0
1001
AcDbBlockRepETag
1070
     1
1071
       14
1005
6A2
  0
LINE
  5
6A3
330
4F9
100
AcDbEntity
  8
0
  6
Continuous
 62
     7
370
    15
100
AcDbLine
 10
1985.037461616929
 20
1093.191580025031
 30
0.0
 11
1996.441347286935
 21
1093.191580025031
 31
0.0
1001
AcDbBlockRepETag
1070
     1
1071
       15
1005
6A3
  0
LINE
  5
6A4
330
4F9
100
AcDbEntity
  8
0
  6
Continuous
 62
     7
370
    15
100
AcDbLine
 10
1996.991337970729
 20
1093.191580025031
 30
0.0
 11
1996.441347286935
 21
1093.191580025031
 31
0.0
1001
AcDbBlockRepETag
1070
     1
1071
       16
1005
6A4
  0
LINE
  5
6A5
330
4F9
100
AcDbEntity
  8
0
  6
Continuous
 62
     7
370
    15
100
AcDbLine
 10
1996.994557552869
 20
1093.191580025031
 30
0.0
 11
1996.991347283955
 21
1093.191580025031
 31
0.0
1001
AcDbBlockRepETag
1070
     1
1071
       17
1005
6A5
  0
LINE
  5
6A6
330
4F9
100
AcDbEntity
  8
0
  6
Continuous
 62
     7
370
    15
100
AcDbLine
 10
1996.994557552869
 20
1093.191580025031
 30
0.0
 11
1996.994557552869
 21
1093.191594926192
 31
0.0
1001
AcDbBlockRepETag
1070
     1
1071
       18
1005
6A6
  0
LINE
  5
6A7
330
4F9
100
AcDbEntity
  8
0
  6
Continuous
 62
     7
370
    15
100
AcDbLine
 10
1983.837450616891
 20
1092.391581384017
 30
0.0
 11
1983.837450616891
 21
1093.191580025031
 31
0.0
1001
AcDbBlockRepETag
1070
     1
1071
       19
1005
6A7
  0
LINE
  5
6A8
330
4F9
100
AcDbEntity
  8
0
  6
Continuous
 62
     7
370
    15
100
AcDbLine
 10
1984.837450780804
 20
1092.391581384017
 30
0.0
 11
1983.837450616891
 21
1092.391581384017
 31
0.0
1001
AcDbBlockRepETag
1070
     1
1071
       20
1005
6A8
  0
LINE
  5
6A9
330
4F9
100
AcDbEntity
  8
0
  6
Continuous
 62
     7
370
    15
100
AcDbLine
 10
1996.437450633283
 20
1088.491589871718
 30
0.0
 11
1996.437450633283
 21
1087.691591230704
 31
0.0
1001
AcDbBlockRepETag
1070
     1
1071
       21
1005
6A9
  0
LINE
  5
6AA
330
4F9
100
AcDbEntity
  8
0
  6
Continuous
 62
     7
370
    15
100
AcDbLine
 10
1997.437450797195
 20
1088.491589871718
 30
0.0
 11
1996.437450633283
 21
1088.491589871718
 31
0.0
1001
AcDbBlockRepETag
1070
     1
1071
       22
1005
6AA
  0
LINE
  5
6AB
330
4F9
100
AcDbEntity
  8
0
  6
Continuous
 62
     7
370
    15
100
AcDbLine
 10
1997.437450797195
 20
1087.691591230704
 30
0.0
 11
1997.437450797195
 21
1088.491589871718
 31
0.0
1001
AcDbBlockRepETag
1070
     1
1071
       23
1005
6AB
  0
LINE
  5
6AC
330
4F9
100
AcDbEntity
  8
0
  6
Continuous
 62
     7
370
    15
100
AcDbLine
 10
1996.437450633283
 20
1087.691591230704
 30
0.0
 11
1997.437450797195
 21
1087.691591230704
 31
0.0
1001
AcDbBlockRepETag
1070
     1
1071
       24
1005
6AC
  0
LINE
  5
6AD
330
4F9
100
AcDbEntity
  8
0
  6
Continuous
 62
     7
370
    15
100
AcDbLine
 10
1983.837450616891
 20
1087.691591230704
 30
0.0
 11
1983.837450616891
 21
1088.491589871718
 31
0.0
1001
AcDbBlockRepETag
1070
     1
1071
       25
1005
6AD
  0
LINE
  5
6AE
330
4F9
100
AcDbEntity
  8
0
  6
Continuous
 62
     7
370
    15
100
AcDbLine
 10
1984.837450780804
 20
1088.491589871718
 30
0.0
 11
1984.837450780804
 21
1087.691591230704
 31
0.0
1001
AcDbBlockRepETag
1070
     1
1071
       26
1005
6AE
  0
LINE
  5
6AF
330
4F9
100
AcDbEntity
  8
0
  6
Continuous
 62
     7
370
    15
100
AcDbLine
 10
1984.837450780804
 20
1087.691591230704
 30
0.0
 11
1983.837450616891
 21
1087.691591230704
 31
0.0
1001
AcDbBlockRepETag
1070
     1
1071
       27
1005
6AF
  0
LINE
  5
6B0
330
4F9
100
AcDbEntity
  8
0
  6
Continuous
 62
     7
370
    15
100
AcDbLine
 10
1983.837450616891
 20
1088.491589871718
 30
0.0
 11
1984.837450780804
 21
1088.491589871718
 31
0.0
1001
AcDbBlockRepETag
1070
     1
1071
       28
1005
6B0
  0
LINE
  5
6B1
330
4F9
100
AcDbEntity
  8
0
  6
Continuous
 62
     7
370
    15
100
AcDbLine
 10
1996.437450633283
 20
1087.691591230704
 30
0.0
 11
1984.837450780804
 21
1087.691591230704
 31
0.0
1001
AcDbBlockRepETag
1070
     1
1071
       29
1005
6B1
  0
LINE
  5
6B2
330
4F9
100
AcDbEntity
  8
0
  6
Continuous
 62
     7
370
    15
100
AcDbLine
 10
1996.437450633283
 20
1088.491589871718
 30
0.0
 11
1984.837450780804
 21
1088.491589871718
 31
0.0
1001
AcDbBlockRepETag
1070
     1
1071
       30
1005
6B2
  0
LINE
  5
6B3
330
4F9
100
AcDbEntity
  8
0
  6
Continuous
 62
     7
370
    15
100
AcDbLine
 10
1989.137450926835
 20
1092.391581384017
 30
0.0
 11
1989.137450926835
 21
1088.491589871718
 31
0.0
1001
AcDbBlockRepETag
1070
     1
1071
       31
1005
6B3
  0
LINE
  5
6B4
330
4F9
100
AcDbEntity
  8
0
  6
Continuous
 62
     7
370
    15
100
AcDbLine
 10
1992.137450487251
 20
1092.391581384017
 30
0.0
 11
1992.137450487251
 21
1088.491589871718
 31
0.0
1001
AcDbBlockRepETag
1070
     1
1071
       32
1005
6B4
  0
LINE
  5
6B5
330
4F9
100
AcDbEntity
  8
0
  6
Continuous
 62
     7
370
    15
100
AcDbLine
 10
1997.437450797195
 20
1088.491589871718
 30
0.0
 11
1997.437450797195
 21
1092.391581384017
 31
0.0
1001
AcDbBlockRepETag
1070
     1
1071
       33
1005
6B5
  0
LINE
  5
6B6
330
4F9
100
AcDbEntity
  8
0
  6
Continuous
 62
     7
370
    15
100
AcDbLine
 10
1983.837450616891
 20
1088.491589871718
 30
0.0
 11
1983.837450616891
 21
1092.391581384017
 31
0.0
1001
AcDbBlockRepETag
1070
     1
1071
       34
1005
6B6
  0
LINE
  5
6B7
330
4F9
100
AcDbEntity
  8
0
  6
Continuous
 62
     7
370
    15
100
AcDbLine
 10
1996.437450633283
 20
1093.191594926192
 30
0.0
 11
1996.994557552869
 21
1093.191594926192
 31
0.0
1001
AcDbBlockRepETag
1070
     1
1071
       35
1005
6B7
  0
ARC
  5
6B8
330
4F9
100
AcDbEntity
  8
0
  6
Continuous
 62
     7
370
    15
100
AcDbCircle
 10
1996.994557510543
 20
1092.69159119515
 30
0.0
 40
0.5000000000000413
100
AcDbArc
 50
90.0
 51
90.36781456371079
1001
AcDbBlockRepETag
1070
     1
1071
       36
1005
6B8
  0
LINE
  5
6B9
330
4F9
100
AcDbEntity
  8
0
  6
Continuous
 62
     7
370
    15
100
AcDbLine
 10
1986.962451361949
 20
1087.691591230704
 30
0.0
 11
1986.962451361949
 21
1087.541581240966
 31
0.0
1001
AcDbBlockRepETag
1070
     1
1071
       37
1005
6B9
  0
LINE
  5
6BA
330
4F9
100
AcDbEntity
  8
0
  6
Continuous
 62
     7
370
    15
100
AcDbLine
 10
1994.31245098346
 20
1087.541581240966
 30
0.0
 11
1986.962451361949
 21
1087.541581240966
 31
0.0
1001
AcDbBlockRepETag
1070
     1
1071
       38
1005
6BA
  0
LINE
  5
6BB
330
4F9
100
AcDbEntity
  8
0
  6
Continuous
 62
     7
370
    15
100
AcDbLine
 10
1994.31245098346
 20
1087.691591230704
 30
0.0
 11
1994.31245098346
 21
1087.541581240966
 31
0.0
1001
AcDbBlockRepETag
1070
     1
1071
       39
1005
6BB
  0
LINE
  5
6BC
330
4F9
100
AcDbEntity
  8
0
  6
Continuous
 62
     7
370
    15
100
AcDbLine
 10
1994.31245098346
 20
1087.691591230704
 30
0.0
 11
1986.962451361949
 21
1087.691591230704
 31
0.0
1001
AcDbBlockRepETag
1070
     1
1071
       40
1005
6BC
  0
ARC
  5
6BD
330
4F9
100
AcDbEntity
  8
0
  6
Continuous
 62
     7
370
    15
100
AcDbCircle
 10
1989.690132701468
 20
1082.941594292288
 30
0.0
 40
0.7500000000000031
100
AcDbArc
 50
90.0
 51
154.9999999999774
1001
AcDbBlockRepETag
1070
     1
1071
       41
1005
6BD
  0
LINE
  5
6BE
330
4F9
100
AcDbEntity
  8
0
  6
Continuous
 62
     7
370
    15
100
AcDbLine
 10
1988.53745008343
 20
1080.405564156844
 30
0.0
 11
1986.962451361949
 21
1080.405564156844
 31
0.0
1001
AcDbBlockRepETag
1070
     1
1071
       42
1005
6BE
  0
LINE
  5
6BF
330
4F9
100
AcDbEntity
  8
0
  6
Continuous
 62
     7
370
    15
100
AcDbLine
 10
1992.737450399334
 20
1080.405564156844
 30
0.0
 11
1994.31245098346
 21
1080.405564156844
 31
0.0
1001
AcDbBlockRepETag
1070
     1
1071
       43
1005
6BF
  0
ARC
  5
6C0
330
4F9
100
AcDbEntity
  8
0
  6
Continuous
 62
     7
370
    15
100
AcDbCircle
 10
1991.584768757246
 20
1082.941594292288
 30
0.0
 40
0.7500000000000289
100
AcDbArc
 50
25.00000000001666
 51
90.0
1001
AcDbBlockRepETag
1070
     1
1071
       44
1005
6C0
  0
LINE
  5
6C1
330
4F9
100
AcDbEntity
  8
0
  6
Continuous
 62
     7
370
    15
100
AcDbLine
 10
1991.584769212539
 20
1083.691598025634
 30
0.0
 11
1989.69013313287
 21
1083.691598025634
 31
0.0
1001
AcDbBlockRepETag
1070
     1
1071
       45
1005
6C1
  0
LINE
  5
6C2
330
4F9
100
AcDbEntity
  8
0
  6
Continuous
 62
     7
370
    15
100
AcDbLine
 10
1988.631142997081
 20
1082.445235101058
 30
0.0
 11
1989.010401763852
 21
1083.258555380179
 31
0.0
1001
AcDbBlockRepETag
1070
     1
1071
       46
1005
6C2
  0
LINE
  5
6C3
330
4F9
100
AcDbEntity
  8
0
  6
Continuous
 62
     7
370
    15
100
AcDbLine
 10
1992.643758417005
 20
1082.445235101058
 30
0.0
 11
1992.264499650235
 21
1083.258555380179
 31
0.0
1001
AcDbBlockRepETag
1070
     1
1071
       47
1005
6C3
  0
LINE
  5
6C4
330
4F9
100
AcDbEntity
  8
0
  6
Continuous
 62
     7
370
    15
100
AcDbLine
 10
1988.53745008343
 20
1082.022623268439
 30
0.0
 11
1988.53745008343
 21
1080.405564156844
 31
0.0
1001
AcDbBlockRepETag
1070
     1
1071
       48
1005
6C4
  0
ARC
  5
6C5
330
4F9
100
AcDbEntity
  8
0
  6
Continuous
 62
     7
370
    15
100
AcDbCircle
 10
1989.537450729357
 20
1082.022616350671
 30
0.0
 40
1.000000000000738
100
AcDbArc
 50
155.0000000000006
 51
179.999999999987
1001
AcDbBlockRepETag
1070
     1
1071
       49
1005
6C5
  0
ARC
  5
6C6
330
4F9
100
AcDbEntity
  8
0
  6
Continuous
 62
     7
370
    15
100
AcDbCircle
 10
1991.737450729357
 20
1082.022616350671
 30
0.0
 40
1.000000000000738
100
AcDbArc
 50
0.0000000000130276
 51
24.99999999999935
1001
AcDbBlockRepETag
1070
     1
1071
       50
1005
6C6
  0
LINE
  5
6C7
330
4F9
100
AcDbEntity
  8
0
  6
Continuous
 62
     7
370
    15
100
AcDbLine
 10
1992.737450399334
 20
1082.022623268439
 30
0.0
 11
1992.737450399334
 21
1080.405564156844
 31
0.0
1001
AcDbBlockRepETag
1070
     1
1071
       51
1005
6C7
  0
LINE
  5
6C8
330
4F9
100
AcDbEntity
  8
0
  6
Continuous
 62
     7
370
    15
100
AcDbLine
 10
1986.962451361949
 20
1087.541581240966
 30
0.0
 11
1986.962451361949
 21
1080.405564156844
 31
0.0
1001
AcDbBlockRepETag
1070
     1
1071
       52
1005
6C8
  0
LINE
  5
6C9
330
4F9
100
AcDbEntity
  8
0
  6
Continuous
 62
     7
370
    15
100
AcDbLine
 10
1994.31245098346
 20
1087.541581240966
 30
0.0
 11
1994.31245098346
 21
1080.405564156844
 31
0.0
1001
AcDbBlockRepETag
1070
     1
1071
       53
1005
6C9
  0
LINE
  5
6CA
330
4F9
100
AcDbEntity
  8
0
  6
Continuous
 62
     7
370
    15
100
AcDbLine
 10
1992.737450399334
 20
1079.805554000213
 30
0.0
 11
1994.31245098346
 21
1079.805554000213
 31
0.0
1001
AcDbBlockRepETag
1070
     1
1071
       54
1005
6CA
  0
LINE
  5
6CB
330
4F9
100
AcDbEntity
  8
0
  6
Continuous
 62
     7
370
    15
100
AcDbLine
 10
1992.737450399334
 20
1080.405564156844
 30
0.0
 11
1992.737450399334
 21
1079.805554000213
 31
0.0
1001
AcDbBlockRepETag
1070
     1
1071
       55
1005
6CB
  0
LINE
  5
6CC
330
4F9
100
AcDbEntity
  8
0
  6
Continuous
 62
     7
370
    15
100
AcDbLine
 10
1994.31245098346
 20
1080.405564156844
 30
0.0
 11
1994.31245098346
 21
1079.805554000213
 31
0.0
1001
AcDbBlockRepETag
1070
     1
1071
       56
1005
6CC
  0
LINE
  5
6CD
330
4F9
100
AcDbEntity
  8
0
  6
Continuous
 62
     7
370
    15
100
AcDbLine
 10
1988.53745008343
 20
1079.805554000213
 30
0.0
 11
1986.962451361949
 21
1079.805554000213
 31
0.0
1001
AcDbBlockRepETag
1070
     1
1071
       57
1005
6CD
  0
LINE
  5
6CE
330
4F9
100
AcDbEntity
  8
0
  6
Continuous
 62
     7
370
    15
100
AcDbLine
 10
1988.53745008343
 20
1080.405564156844
 30
0.0
 11
1988.53745008343
 21
1079.805554000213
 31
0.0
1001
AcDbBlockRepETag
1070
     1
1071
       58
1005
6CE
  0
LINE
  5
6CF
330
4F9
100
AcDbEntity
  8
0
  6
Continuous
 62
     7
370
    15
100
AcDbLine
 10
1986.962451361949
 20
1080.405564156844
 30
0.0
 11
1986.962451361949
 21
1079.805554000213
 31
0.0
1001
AcDbBlockRepETag
1070
     1
1071
       59
1005
6CF
  0
LINE
  5
6D0
330
4F9
100
AcDbEntity
  8
0
  6
Continuous
 62
     7
370
    15
100
AcDbLine
 10
1988.53745008343
 20
1078.305558410956
 30
0.0
 11
1986.962451361949
 21
1078.305558410956
 31
0.0
1001
AcDbBlockRepETag
1070
     1
1071
       60
1005
6D0
  0
LINE
  5
6D1
330
4F9
100
AcDbEntity
  8
0
  6
Continuous
 62
     7
370
    15
100
AcDbLine
 10
1988.53745008343
 20
1079.805554000213
 30
0.0
 11
1988.53745008343
 21
1078.305558410956
 31
0.0
1001
AcDbBlockRepETag
1070
     1
1071
       61
1005
6D1
  0
LINE
  5
6D2
330
4F9
100
AcDbEntity
  8
0
  6
Continuous
 62
     7
370
    15
100
AcDbLine
 10
1986.962451361949
 20
1079.805554000213
 30
0.0
 11
1986.962451361949
 21
1078.305558410956
 31
0.0
1001
AcDbBlockRepETag
1070
     1
1071
       62
1005
6D2
  0
LINE
  5
6D3
330
4F9
100
AcDbEntity
  8
0
  6
Continuous
 62
     7
370
    15
100
AcDbLine
 10
1992.737450399334
 20
1078.305558410956
 30
0.0
 11
1994.31245098346
 21
1078.305558410956
 31
0.0
1001
AcDbBlockRepETag
1070
     1
1071
       63
1005
6D3
  0
LINE
  5
6D4
330
4F9
100
AcDbEntity
  8
0
  6
Continuous
 62
     7
370
    15
100
AcDbLine
 10
1992.737450399334
 20
1079.805554000213
 30
0.0
 11
1992.737450399334
 21
1078.305558410956
 31
0.0
1001
AcDbBlockRepETag
1070
     1
1071
       64
1005
6D4
  0
LINE
  5
6D5
330
4F9
100
AcDbEntity
  8
0
  6
Continuous
 62
     7
370
    15
100
AcDbLine
 10
1994.31245098346
 20
1079.805554000213
 30
0.0
 11
1994.31245098346
 21
1078.305558410956
 31
0.0
1001
AcDbBlockRepETag
1070
     1
1071
       65
1005
6D5
  0
ARC
  5
6D6
330
4F9
100
AcDbEntity
  8
0
  6
Continuous
 62
     7
370
    15
100
AcDbCircle
 10
1990.191413343863
 20
1054.00352306637
 30
0.0
 40
0.1500000000000143
100
AcDbArc
 50
274.2499999999993
 51
4.249999999992341
1001
AcDbBlockRepETag
1070
     1
1071
       66
1005
6D6
  0
LINE
  5
6D7
330
4F9
100
AcDbEntity
  8
0
  6
Continuous
 62
     7
370
    15
100
AcDbLine
 10
1989.604179509814
 20
1053.809472469165
 30
0.0
 11
1989.625884913738
 21
1053.517379907443
 31
0.0
1001
AcDbBlockRepETag
1070
     1
1071
       67
1005
6D7
  0
ARC
  5
6D8
330
4F9
100
AcDbEntity
  8
0
  6
Continuous
 62
     7
370
    15
100
AcDbCircle
 10
1989.127260288018
 20
1053.480328382713
 30
0.0
 40
0.5000000000000393
100
AcDbArc
 50
319.2500000000043
 51
4.249999999992341
1001
AcDbBlockRepETag
1070
     1
1071
       68
1005
6D8
  0
LINE
  5
6D9
330
4F9
100
AcDbEntity
  8
0
  6
Continuous
 62
     7
370
    15
100
AcDbLine
 10
1989.506042324836
 20
1053.153948036506
 30
0.0
 11
1989.05355656714
 21
1052.607204975703
 31
0.0
1001
AcDbBlockRepETag
1070
     1
1071
       69
1005
6D9
  0
LINE
  5
6DA
330
4F9
100
AcDbEntity
  8
0
  6
Continuous
 62
     7
370
    15
100
AcDbLine
 10
1989.052078449066
 20
1052.607095130755
 30
0.0
 11
1988.865799032981
 21
1052.593251952006
 31
0.0
1001
AcDbBlockRepETag
1070
     1
1071
       70
1005
6DA
  0
LINE
  5
6DB
330
4F9
100
AcDbEntity
  8
0
  6
Continuous
 62
     7
370
    15
100
AcDbLine
 10
1988.53745008343
 20
1078.284339157416
 30
0.0
 11
1990.341000952656
 21
1054.014639107062
 31
0.0
1001
AcDbBlockRepETag
1070
     1
1071
       71
1005
6DB
  0
LINE
  5
6DC
330
4F9
100
AcDbEntity
  8
0
  6
Continuous
 62
     7
370
    15
100
AcDbLine
 10
1986.962451361949
 20
1078.225896803214
 30
0.0
 11
1988.867277126477
 21
1052.593361795127
 31
0.0
1001
AcDbBlockRepETag
1070
     1
1071
       72
1005
6DC
  0
LINE
  5
6DD
330
4F9
100
AcDbEntity
  8
0
  6
Continuous
 62
     7
370
    15
100
AcDbLine
 10
1990.202530049617
 20
1053.853937534167
 30
0.0
 11
1989.604179509814
 21
1053.809472469165
 31
0.0
1001
AcDbBlockRepETag
1070
     1
1071
       73
1005
6DD
  0
LINE
  5
6DE
330
4F9
100
AcDbEntity
  8
0
  6
Continuous
 62
     7
370
    15
100
AcDbLine
 10
1988.53745008343
 20
1078.305558410956
 30
0.0
 11
1988.53745008343
 21
1078.284339157416
 31
0.0
1001
AcDbBlockRepETag
1070
     1
1071
       74
1005
6DE
  0
LINE
  5
6DF
330
4F9
100
AcDbEntity
  8
0
  6
Continuous
 62
     7
370
    15
100
AcDbLine
 10
1986.962451361949
 20
1078.305558410956
 30
0.0
 11
1986.962451361949
 21
1078.225896803214
 31
0.0
1001
AcDbBlockRepETag
1070
     1
1071
       75
1005
6DF
  0
ARC
  5
6E0
330
4F9
100
AcDbEntity
  8
0
  6
Continuous
 62
     7
370
    15
100
AcDbCircle
 10
1992.147641170695
 20
1053.480328382713
 30
0.0
 40
0.5000000000000123
100
AcDbArc
 50
175.7500000000076
 51
220.7499999999957
1001
AcDbBlockRepETag
1070
     1
1071
       76
1005
6E0
  0
ARC
  5
6E1
330
4F9
100
AcDbEntity
  8
0
  6
Continuous
 62
     7
370
    15
100
AcDbCircle
 10
1991.083488114851
 20
1054.00352306637
 30
0.0
 40
0.1500000000000143
100
AcDbArc
 50
175.7500000000076
 51
265.7500000000007
1001
AcDbBlockRepETag
1070
     1
1071
       77
1005
6E1
  0
LINE
  5
6E2
330
4F9
100
AcDbEntity
  8
0
  6
Continuous
 62
     7
370
    15
100
AcDbLine
 10
1991.670721904273
 20
1053.809472469165
 30
0.0
 11
1991.649016500349
 21
1053.517379907443
 31
0.0
1001
AcDbBlockRepETag
1070
     1
1071
       78
1005
6E2
  0
LINE
  5
6E3
330
4F9
100
AcDbEntity
  8
0
  6
Continuous
 62
     7
370
    15
100
AcDbLine
 10
1991.072372295792
 20
1053.853937534167
 30
0.0
 11
1991.670721904273
 21
1053.809472469165
 31
0.0
1001
AcDbBlockRepETag
1070
     1
1071
       79
1005
6E3
  0
LINE
  5
6E4
330
4F9
100
AcDbEntity
  8
0
  6
Continuous
 62
     7
370
    15
100
AcDbLine
 10
1992.737450399334
 20
1078.284339157416
 30
0.0
 11
1990.93390046143
 21
1054.014639107062
 31
0.0
1001
AcDbBlockRepETag
1070
     1
1071
       80
1005
6E4
  0
LINE
  5
6E5
330
4F9
100
AcDbEntity
  8
0
  6
Continuous
 62
     7
370
    15
100
AcDbLine
 10
1991.768859089251
 20
1053.153948036506
 30
0.0
 11
1992.222822033699
 21
1052.607095130755
 31
0.0
1001
AcDbBlockRepETag
1070
     1
1071
       81
1005
6E5
  0
LINE
  5
6E6
330
4F9
100
AcDbEntity
  8
0
  6
Continuous
 62
     7
370
    15
100
AcDbLine
 10
1994.31245098346
 20
1078.225896803214
 30
0.0
 11
1992.407624286849
 21
1052.593361794635
 31
0.0
1001
AcDbBlockRepETag
1070
     1
1071
       82
1005
6E6
  0
LINE
  5
6E7
330
4F9
100
AcDbEntity
  8
0
  6
Continuous
 62
     7
370
    15
100
AcDbLine
 10
1992.222822033699
 20
1052.607095130755
 30
0.0
 11
1992.409102381105
 21
1052.593251952006
 31
0.0
1001
AcDbBlockRepETag
1070
     1
1071
       83
1005
6E7
  0
LINE
  5
6E8
330
4F9
100
AcDbEntity
  8
0
  6
Continuous
 62
     7
370
    15
100
AcDbLine
 10
1992.737450399334
 20
1078.305558410956
 30
0.0
 11
1992.737450399334
 21
1078.284339157416
 31
0.0
1001
AcDbBlockRepETag
1070
     1
1071
       84
1005
6E8
  0
LINE
  5
6E9
330
4F9
100
AcDbEntity
  8
0
  6
Continuous
 62
     7
370
    15
100
AcDbLine
 10
1994.31245098346
 20
1078.305558410956
 30
0.0
 11
1994.31245098346
 21
1078.225896803214
 31
0.0
1001
AcDbBlockRepETag
1070
     1
1071
       85
1005
6E9
  0
ENDBLK
  5
4FB
330
4F9
100
AcDbEntity
  8
0
100
AcDbBlockEnd
  0
BLOCK
  5
554
330
553
100
AcDbEntity
  8
0
100
AcDbBlockBegin
  2
3
 70
     0
 10
0.0
 20
0.0
 30
0.0
  3
3
  1

  0
ARC
  5
556
330
553
100
AcDbEntity
  8
0
  6
Continuous
 62
     7
370
    15
100
AcDbCircle
 10
2028.924162388094
 20
1012.083685492873
 30
0.0
 40
1.000000000000031
100
AcDbArc
 50
179.9999855139745
 51
270.0
  0
LINE
  5
557
330
553
100
AcDbEntity
  8
0
  6
Continuous
 62
     7
370
    15
100
AcDbLine
 10
2027.924177268555
 20
1023.683685396799
 30
0.0
 11
2027.924177268555
 21
1012.083685544321
 31
0.0
  0
ARC
  5
558
330
553
100
AcDbEntity
  8
0
  6
Continuous
 62
     7
370
    15
100
AcDbCircle
 10
2028.924162388094
 20
1023.683685492873
 30
0.0
 40
1.000000000000031
100
AcDbArc
 50
90.0
 51
179.9999855139745
  0
LINE
  5
559
330
553
100
AcDbEntity
  8
0
  6
Continuous
 62
     7
370
    15
100
AcDbLine
 10
2028.924164393952
 20
1024.683685560712
 30
0.0
 11
2073.124167541077
 21
1024.683685560712
 31
0.0
  0
ARC
  5
55A
330
553
100
AcDbEntity
  8
0
  6
Continuous
 62
     7
370
    15
100
AcDbCircle
 10
2073.12416238809
 20
1023.683685492873
 30
0.0
 40
1.0
100
AcDbArc
 50
0.0
 51
90.0
  0
LINE
  5
55B
330
553
100
AcDbEntity
  8
0
  6
Continuous
 62
     7
370
    15
100
AcDbLine
 10
2074.124154666474
 20
1012.083685544321
 30
0.0
 11
2074.124154666474
 21
1023.683685396799
 31
0.0
  0
ARC
  5
55C
330
553
100
AcDbEntity
  8
0
  6
Continuous
 62
     7
370
    15
100
AcDbCircle
 10
2073.12416238809
 20
1012.083685492873
 30
0.0
 40
1.0
100
AcDbArc
 50
270.0
 51
0.0
  0
LINE
  5
55D
330
553
100
AcDbEntity
  8
0
  6
Continuous
 62
     7
370
    15
100
AcDbLine
 10
2028.924164393952
 20
1011.083685380408
 30
0.0
 11
2073.124167541077
 21
1011.083685380408
 31
0.0
  0
LINE
  5
55E
330
553
100
AcDbEntity
  8
0
  6
Continuous
 62
     7
370
    15
100
AcDbLine
 10
2030.774173358491
 20
1012.283685204574
 30
0.0
 11
2030.774173358491
 21
1011.526579556057
 31
0.0
  0
LINE
  5
55F
330
553
100
AcDbEntity
  8
0
  6
Continuous
 62
     7
370
    15
100
AcDbLine
 10
2071.274158576539
 20
1011.526579556057
 30
0.0
 11
2071.274158576539
 21
1011.529788893649
 31
0.0
  0
LINE
  5
560
330
553
100
AcDbEntity
  8
0
  6
Continuous
 62
     7
370
    15
100
AcDbLine
 10
2071.274158576539
 20
1011.529788893649
 30
0.0
 11
2071.274158576539
 21
1012.283696380445
 31
0.0
  0
LINE
  5
561
330
553
100
AcDbEntity
  8
0
  6
Continuous
 62
     7
370
    15
100
AcDbLine
 10
2030.774173358491
 20
1023.483685736546
 30
0.0
 11
2030.774173358491
 21
1024.240792316386
 31
0.0
  0
LINE
  5
562
330
553
100
AcDbEntity
  8
0
  6
Continuous
 62
     7
370
    15
100
AcDbLine
 10
2030.774173358491
 20
1023.483685736546
 30
0.0
 11
2030.774173358491
 21
1012.283685204574
 31
0.0
  0
LINE
  5
563
330
553
100
AcDbEntity
  8
0
  6
Continuous
 62
     7
370
    15
100
AcDbLine
 10
2071.274158576539
 20
1012.283696380445
 30
0.0
 11
2071.274158576539
 21
1023.483577703127
 31
0.0
  0
LINE
  5
564
330
553
100
AcDbEntity
  8
0
  6
Continuous
 62
     7
370
    15
100
AcDbLine
 10
2071.274158576539
 20
1011.526579556057
 30
0.0
 11
2030.774173358491
 21
1011.526579556057
 31
0.0
  0
LINE
  5
565
330
553
100
AcDbEntity
  8
0
  6
Continuous
 62
     7
370
    15
100
AcDbLine
 10
2071.274158576539
 20
1012.283685204574
 30
0.0
 11
2030.774173358491
 21
1012.283685204574
 31
0.0
  0
LINE
  5
566
330
553
100
AcDbEntity
  8
0
  6
Continuous
 62
     7
370
    15
100
AcDbLine
 10
2071.274158576539
 20
1012.283685204574
 30
0.0
 11
2071.274158576539
 21
1011.526579556057
 31
0.0
  0
LINE
  5
567
330
553
100
AcDbEntity
  8
0
  6
Continuous
 62
     7
370
    15
100
AcDbLine
 10
2071.274158576539
 20
1012.783686217853
 30
0.0
 11
2030.774173358491
 21
1012.783686217853
 31
0.0
  0
LINE
  5
568
330
553
100
AcDbEntity
  8
0
  6
Continuous
 62
     7
370
    15
100
AcDbLine
 10
2027.924147466233
 20
1023.683685396799
 30
0.0
 11
2027.924177268555
 21
1023.683685396799
 31
0.0
  0
LINE
  5
569
330
553
100
AcDbEntity
  8
0
  6
Continuous
 62
     7
370
    15
100
AcDbLine
 10
2027.924147466233
 20
1012.083685544321
 30
0.0
 11
2027.924177268555
 21
1012.083685544321
 31
0.0
  0
LINE
  5
56A
330
553
100
AcDbEntity
  8
0
  6
Continuous
 62
     7
370
    15
100
AcDbLine
 10
2027.924147466233
 20
1013.883686211893
 30
0.0
 11
2027.924147466233
 21
1012.083685544321
 31
0.0
  0
LINE
  5
56B
330
553
100
AcDbEntity
  8
0
  6
Continuous
 62
     7
370
    15
100
AcDbLine
 10
2027.924147466233
 20
1012.083685544321
 30
0.0
 11
2027.924147466233
 21
1023.683685396799
 31
0.0
  0
LINE
  5
56C
330
553
100
AcDbEntity
  8
0
  6
Continuous
 62
     7
370
    15
100
AcDbLine
 10
2027.924147466233
 20
1023.683685396799
 30
0.0
 11
2027.924177268555
 21
1021.88368566055
 31
0.0
  0
ARC
  5
56D
330
553
100
AcDbEntity
  8
0
  6
Continuous
 62
     7
370
    15
100
AcDbCircle
 10
2028.924162198461
 20
1023.683685492873
 30
0.0
 40
1.0
100
AcDbArc
 50
90.0
 51
180.0
  0
ARC
  5
56E
330
553
100
AcDbEntity
  8
0
  6
Continuous
 62
     7
370
    15
100
AcDbCircle
 10
2028.924162198461
 20
1012.083685492873
 30
0.0
 40
1.0
100
AcDbArc
 50
180.0
 51
270.0
  0
LINE
  5
56F
330
553
100
AcDbEntity
  8
0
  6
Continuous
 62
     7
370
    15
100
AcDbLine
 10
2030.774173358491
 20
1023.483685736546
 30
0.0
 11
2071.274158576539
 21
1023.483685736546
 31
0.0
  0
LINE
  5
570
330
553
100
AcDbEntity
  8
0
  6
Continuous
 62
     7
370
    15
100
AcDbLine
 10
2071.274158576539
 20
1023.483685736546
 30
0.0
 11
2071.274158576539
 21
1024.240792316386
 31
0.0
  0
LINE
  5
571
330
553
100
AcDbEntity
  8
0
  6
Continuous
 62
     7
370
    15
100
AcDbLine
 10
2071.274158576539
 20
1024.240792316386
 30
0.0
 11
2030.774173358491
 21
1024.240792316386
 31
0.0
  0
LINE
  5
572
330
553
100
AcDbEntity
  8
0
  6
Continuous
 62
     7
370
    15
100
AcDbLine
 10
2071.274158576539
 20
1022.983685654589
 30
0.0
 11
2030.774173358491
 21
1022.983685654589
 31
0.0
  0
LINE
  5
573
330
553
100
AcDbEntity
  8
0
  6
Continuous
 62
     7
370
    15
100
AcDbLine
 10
2071.274158576539
 20
1020.383685414681
 30
0.0
 11
2030.774173358491
 21
1020.383685414681
 31
0.0
  0
LINE
  5
574
330
553
100
AcDbEntity
  8
0
  6
Continuous
 62
     7
370
    15
100
AcDbLine
 10
2071.274158576539
 20
1015.383685526439
 30
0.0
 11
2030.774173358491
 21
1015.383685526439
 31
0.0
  0
ENDBLK
  5
555
330
553
100
AcDbEntity
  8
0
100
AcDbBlockEnd
  0
BLOCK
  5
577
330
576
100
AcDbEntity
  8
0
100
AcDbBlockBegin
  2
4
 70
     0
 10
0.0
 20
0.0
 30
0.0
  3
4
  1

  0
LINE
  5
579
330
576
100
AcDbEntity
  8
0
  6
Continuous
 62
     7
370
    15
100
AcDbLine
 10
2097.130100469782
 20
1083.339243300251
 30
0.0
 11
2097.150245652371
 21
1082.563491107754
 31
0.0
  0
LINE
  5
57A
330
576
100
AcDbEntity
  8
0
  6
Continuous
 62
     7
370
    15
100
AcDbLine
 10
2097.240305492273
 20
1079.095460080896
 30
0.0
 11
2097.260450674862
 21
1078.319707888399
 31
0.0
  0
LINE
  5
57B
330
576
100
AcDbEntity
  8
0
  6
Continuous
 62
     7
370
    15
100
AcDbLine
 10
2113.477555119407
 20
1075.065731093586
 30
0.0
 11
2114.797858941546
 21
1074.744015482448
 31
0.0
  0
LINE
  5
57C
330
576
100
AcDbEntity
  8
0
  6
Continuous
 62
     7
370
    15
100
AcDbLine
 10
2109.301551351561
 20
1076.083289008482
 30
0.0
 11
2109.956741804166
 21
1075.923640150895
 31
0.0
  0
LINE
  5
57D
330
576
100
AcDbEntity
  8
0
  6
Continuous
 62
     7
370
    15
100
AcDbLine
 10
2111.816226100083
 20
1077.717756755484
 30
0.0
 11
2111.816144905483
 21
1077.717776539999
 31
0.0
  0
LINE
  5
57E
330
576
100
AcDbEntity
  8
0
  6
Continuous
 62
     7
370
    15
100
AcDbLine
 10
2119.84149419071
 20
1082.405787621333
 30
0.0
 11
2120.60134947854
 21
1082.244887826105
 31
0.0
  0
LINE
  5
57F
330
576
100
AcDbEntity
  8
0
  6
Continuous
 62
     7
370
    15
100
AcDbLine
 10
2132.948777046827
 20
1095.941154752123
 30
0.0
 11
2132.929817061945
 21
1096.671267263011
 31
0.0
  0
LINE
  5
580
330
576
100
AcDbEntity
  8
0
  6
Continuous
 62
     7
370
    15
100
AcDbLine
 10
2114.126470643425
 20
1053.204862465834
 30
0.0
 11
2114.683106447081
 21
1053.566676303357
 31
0.0
  0
LINE
  5
581
330
576
100
AcDbEntity
  8
0
  6
Continuous
 62
     7
370
    15
100
AcDbLine
 10
2133.060166913867
 20
1091.651745450588
 30
0.0
 11
2133.041206928985
 21
1092.381857961475
 31
0.0
  0
ARC
  5
582
330
576
100
AcDbEntity
  8
0
  6
Continuous
 62
     7
370
    15
100
AcDbCircle
 10
2107.798976981035
 20
1082.579114837297
 30
0.0
 40
1.998374908657206
100
AcDbArc
 50
255.81340983968
 51
296.5499831709676
  0
LINE
  5
583
330
576
100
AcDbEntity
  8
0
  6
Continuous
 62
     7
370
    15
100
AcDbLine
 10
2097.585064084146
 20
1083.011147797074
 30
0.0
 11
2107.309214290215
 21
1080.641684894762
 31
0.0
  0
LWPOLYLINE
  5
584
330
576
100
AcDbEntity
  8
0
  6
Continuous
 62
     7
370
    15
100
AcDbPolyline
 90
        9
 70
   128
 43
0.0
 10
2097.585064084146
 20
1083.011147797074
 10
2097.431976239512
 20
1083.057793223079
 10
2097.305725757389
 20
1083.116265757067
 10
2097.211120851195
 20
1083.184291221003
 10
2097.15183260123
 20
1083.259277711638
 10
2097.130128433586
 20
1083.338337020598
 10
2097.14683397376
 20
1083.418424497041
 10
2097.201321444655
 20
1083.496472442307
 10
2097.291479192284
 20
1083.569470073086
  0
LINE
  5
585
330
576
100
AcDbEntity
  8
0
  6
Continuous
 62
     7
370
    15
100
AcDbLine
 10
2097.291479192284
 20
1083.569470073086
 30
0.0
 11
2121.367710996222
 21
1099.219031361016
 31
0.0
  0
ARC
  5
586
330
576
100
AcDbEntity
  8
0
  6
Continuous
 62
     7
370
    15
100
AcDbCircle
 10
2122.26094648486
 20
1097.431347955844
 30
0.0
 40
1.998419774544609
100
AcDbArc
 50
75.81388741024031
 51
116.5495056004071
  0
LINE
  5
587
330
576
100
AcDbEntity
  8
0
  6
Continuous
 62
     7
370
    15
100
AcDbLine
 10
2132.474854228297
 20
1096.999362575951
 30
0.0
 11
2122.750704022229
 21
1099.368825478263
 31
0.0
  0
LWPOLYLINE
  5
588
330
576
100
AcDbEntity
  8
0
  6
Continuous
 62
     7
370
    15
100
AcDbPolyline
 90
        9
 70
   128
 43
0.0
 10
2132.76843912016
 20
1096.441040299939
 10
2132.858596867789
 20
1096.514037930718
 10
2132.913084338684
 20
1096.592085875984
 10
2132.929789878858
 20
1096.672173352427
 10
2132.908069477558
 20
1096.751222109494
 10
2132.848782008311
 20
1096.826208409894
 10
2132.754193335772
 20
1096.894244425723
 10
2132.627941292215
 20
1096.952717340182
 10
2132.474854228297
 20
1096.999362575951
  0
LINE
  5
589
330
576
100
AcDbEntity
  8
0
  6
Continuous
 62
     7
370
    15
100
AcDbLine
 10
2108.692207316223
 20
1080.79147901201
 30
0.0
 11
2132.76843912016
 21
1096.441040299939
 31
0.0
  0
LINE
  5
58A
330
576
100
AcDbEntity
  8
0
  6
Continuous
 62
     7
370
    15
100
AcDbLine
 10
2108.693981258892
 20
1081.69161510202
 30
0.0
 11
2109.328654460761
 21
1081.53696563908
 31
0.0
  0
LINE
  5
58B
330
576
100
AcDbEntity
  8
0
  6
Continuous
 62
     7
370
    15
100
AcDbLine
 10
2131.389445502489
 20
1095.876488385317
 30
0.0
 11
2109.328654460761
 21
1081.53696563908
 31
0.0
  0
LINE
  5
58C
330
576
100
AcDbEntity
  8
0
  6
Continuous
 62
     7
370
    15
100
AcDbLine
 10
2131.389445502489
 20
1095.876488385317
 30
0.0
 11
2131.386755150661
 21
1095.877143937598
 31
0.0
  0
LINE
  5
58D
330
576
100
AcDbEntity
  8
0
  6
Continuous
 62
     7
370
    15
100
AcDbLine
 10
2130.754762932013
 20
1096.031140131086
 30
0.0
 11
2121.365945641442
 21
1098.318893178413
 31
0.0
  0
LINE
  5
58E
330
576
100
AcDbEntity
  8
0
  6
Continuous
 62
     7
370
    15
100
AcDbLine
 10
2099.305146011824
 20
1083.979372524768
 30
0.0
 11
2098.670472029238
 21
1084.134022177944
 31
0.0
  0
LINE
  5
58F
330
576
100
AcDbEntity
  8
0
  6
Continuous
 62
     7
370
    15
100
AcDbLine
 10
2099.305146011824
 20
1083.979372524768
 30
0.0
 11
2108.693981258892
 21
1081.69161510202
 31
0.0
  0
LINE
  5
590
330
576
100
AcDbEntity
  8
0
  6
Continuous
 62
     7
370
    15
100
AcDbLine
 10
2108.692207316223
 20
1080.79147901201
 30
0.0
 11
2108.712352498812
 21
1080.015726819513
 31
0.0
  0
ARC
  5
591
330
576
100
AcDbEntity
  8
0
  6
Continuous
 62
     7
370
    15
100
AcDbCircle
 10
2107.81908695118
 20
1081.80349818636
 30
0.0
 40
1.998511896062885
100
AcDbArc
 50
255.814963844555
 51
296.5491493256554
  0
LINE
  5
592
330
576
100
AcDbEntity
  8
0
  6
Continuous
 62
     7
370
    15
100
AcDbLine
 10
2107.329343239149
 20
1079.865922150373
 30
0.0
 11
2107.309214290215
 21
1080.641684894762
 31
0.0
  0
LINE
  5
593
330
576
100
AcDbEntity
  8
0
  6
Continuous
 62
     7
370
    15
100
AcDbLine
 10
2097.60519303308
 20
1082.235385052686
 30
0.0
 11
2097.585064084146
 21
1083.011147797074
 31
0.0
  0
LINE
  5
594
330
576
100
AcDbEntity
  8
0
  6
Continuous
 62
     7
370
    15
100
AcDbLine
 10
2105.910482640681
 20
1076.765566542497
 30
0.0
 11
2105.820422800779
 21
1080.233597569355
 31
0.0
  0
LINE
  5
595
330
576
100
AcDbEntity
  8
0
  6
Continuous
 62
     7
370
    15
100
AcDbLine
 10
2107.419403079052
 20
1076.397891123515
 30
0.0
 11
2105.910482640681
 21
1076.765566542497
 31
0.0
  0
LINE
  5
596
330
576
100
AcDbEntity
  8
0
  6
Continuous
 62
     7
370
    15
100
AcDbLine
 10
2107.43954826164
 20
1075.622138931018
 30
0.0
 11
2107.419403079052
 21
1076.397891123515
 31
0.0
  0
LINE
  5
597
330
576
100
AcDbEntity
  8
0
  6
Continuous
 62
     7
370
    15
100
AcDbLine
 10
2107.43954826164
 20
1075.622138931018
 30
0.0
 11
2097.715398055572
 21
1077.991601833331
 31
0.0
  0
LINE
  5
598
330
576
100
AcDbEntity
  8
0
  6
Continuous
 62
     7
370
    15
100
AcDbLine
 10
2097.715398055572
 20
1077.991601833331
 30
0.0
 11
2097.695252872982
 21
1078.767354025827
 31
0.0
  0
LINE
  5
599
330
576
100
AcDbEntity
  8
0
  6
Continuous
 62
     7
370
    15
100
AcDbLine
 10
2097.695252872982
 20
1078.767354025827
 30
0.0
 11
2099.204188764291
 21
1078.399689348974
 31
0.0
  0
LINE
  5
59A
330
576
100
AcDbEntity
  8
0
  6
Continuous
 62
     7
370
    15
100
AcDbLine
 10
2099.114128924389
 20
1081.867720375832
 30
0.0
 11
2099.204188764291
 21
1078.399689348974
 31
0.0
  0
LINE
  5
59B
330
576
100
AcDbEntity
  8
0
  6
Continuous
 62
     7
370
    15
100
AcDbLine
 10
2099.114128924389
 20
1081.867720375832
 30
0.0
 11
2097.60519303308
 21
1082.235385052686
 31
0.0
  0
LINE
  5
59C
330
576
100
AcDbEntity
  8
0
  6
Continuous
 62
     7
370
    15
100
AcDbLine
 10
2105.820422800779
 20
1080.233597569355
 30
0.0
 11
2107.329343239149
 21
1079.865922150373
 31
0.0
  0
LINE
  5
59D
330
576
100
AcDbEntity
  8
0
  6
Continuous
 62
     7
370
    15
100
AcDbLine
 10
2109.257056565884
 20
1080.369785016143
 30
0.0
 11
2109.347116405786
 21
1076.901753989284
 31
0.0
  0
LINE
  5
59E
330
576
100
AcDbEntity
  8
0
  6
Continuous
 62
     7
370
    15
100
AcDbLine
 10
2132.787399105042
 20
1095.710927789052
 30
0.0
 11
2132.76843912016
 21
1096.441040299939
 31
0.0
  0
LINE
  5
59F
330
576
100
AcDbEntity
  8
0
  6
Continuous
 62
     7
370
    15
100
AcDbLine
 10
2132.515047071506
 20
1095.533898690737
 30
0.0
 11
2132.787399105042
 21
1095.710927789052
 31
0.0
  0
LINE
  5
5A0
330
576
100
AcDbEntity
  8
0
  6
Continuous
 62
     7
370
    15
100
AcDbLine
 10
2132.16097481762
 20
1095.303751366225
 30
0.0
 11
2132.515047071506
 21
1095.533898690737
 31
0.0
  0
LINE
  5
5A1
330
576
100
AcDbEntity
  8
0
  6
Continuous
 62
     7
370
    15
100
AcDbLine
 10
2132.253404699777
 20
1091.744454575577
 30
0.0
 11
2132.16097481762
 21
1095.303751366225
 31
0.0
  0
LINE
  5
5A2
330
576
100
AcDbEntity
  8
0
  6
Continuous
 62
     7
370
    15
100
AcDbLine
 10
2132.8798289872
 20
1092.151630998404
 30
0.0
 11
2132.253404699777
 21
1091.744454575577
 31
0.0
  0
LINE
  5
5A3
330
576
100
AcDbEntity
  8
0
  6
Continuous
 62
     7
370
    15
100
AcDbLine
 10
2132.898788972083
 20
1091.421518487517
 30
0.0
 11
2132.8798289872
 21
1092.151630998404
 31
0.0
  0
LINE
  5
5A4
330
576
100
AcDbEntity
  8
0
  6
Continuous
 62
     7
370
    15
100
AcDbLine
 10
2132.898788972083
 20
1091.421518487517
 30
0.0
 11
2108.822557521303
 21
1075.771943600158
 31
0.0
  0
LINE
  5
5A5
330
576
100
AcDbEntity
  8
0
  6
Continuous
 62
     7
370
    15
100
AcDbLine
 10
2108.802412338714
 20
1076.547695792655
 30
0.0
 11
2108.822557521303
 21
1075.771943600158
 31
0.0
  0
LINE
  5
5A6
330
576
100
AcDbEntity
  8
0
  6
Continuous
 62
     7
370
    15
100
AcDbLine
 10
2109.347116405786
 20
1076.901753989284
 30
0.0
 11
2108.802412338714
 21
1076.547695792655
 31
0.0
  0
LINE
  5
5A7
330
576
100
AcDbEntity
  8
0
  6
Continuous
 62
     7
370
    15
100
AcDbLine
 10
2108.712352498812
 20
1080.015726819513
 30
0.0
 11
2109.257056565884
 21
1080.369785016143
 31
0.0
  0
LINE
  5
5A8
330
576
100
AcDbEntity
  8
0
  6
Continuous
 62
     7
370
    15
100
AcDbLine
 10
2106.455202941408
 20
1077.119635291019
 30
0.0
 11
2106.377864906328
 21
1080.097774109713
 31
0.0
  0
LINE
  5
5A9
330
576
100
AcDbEntity
  8
0
  6
Continuous
 62
     7
370
    15
100
AcDbLine
 10
2105.910482640681
 20
1076.765566542497
 30
0.0
 11
2106.455202941408
 21
1077.119635291019
 31
0.0
  0
LINE
  5
5AA
330
576
100
AcDbEntity
  8
0
  6
Continuous
 62
     7
370
    15
100
AcDbLine
 10
2109.347116405786
 20
1076.901753989284
 30
0.0
 11
2106.442474853755
 21
1077.609521789678
 31
0.0
  0
ARC
  5
5AB
330
576
100
AcDbEntity
  8
0
  6
Continuous
 62
     7
370
    15
100
AcDbCircle
 10
2107.929291973671
 20
1077.559714967006
 30
0.0
 40
1.998511896063044
100
AcDbArc
 50
255.814963844555
 51
296.5491493256554
  0
ARC
  5
5AC
330
576
100
AcDbEntity
  8
0
  6
Continuous
 62
     7
370
    15
100
AcDbCircle
 10
2107.909146791082
 20
1078.335467159502
 30
0.0
 40
1.998511896063071
100
AcDbArc
 50
255.814963844555
 51
296.5491493256554
  0
LINE
  5
5AD
330
576
100
AcDbEntity
  8
0
  6
Continuous
 62
     7
370
    15
100
AcDbLine
 10
2131.389445149331
 20
1095.876501984745
 30
0.0
 11
2109.328654460761
 21
1081.53696563908
 31
0.0
  0
LINE
  5
5AE
330
576
100
AcDbEntity
  8
0
  6
Continuous
 62
     7
370
    15
100
AcDbLine
 10
2130.754771947462
 20
1096.031151447686
 30
0.0
 11
2108.693981258892
 21
1081.69161510202
 31
0.0
  0
LINE
  5
5AF
330
576
100
AcDbEntity
  8
0
  6
Continuous
 62
     7
370
    15
100
AcDbLine
 10
2130.754771947462
 20
1096.031151447686
 30
0.0
 11
2131.389445149331
 21
1095.876501984745
 31
0.0
  0
LINE
  5
5B0
330
576
100
AcDbEntity
  8
0
  6
Continuous
 62
     7
370
    15
100
AcDbLine
 10
2128.215326680967
 20
1094.382753159842
 30
0.0
 11
2108.691450107909
 21
1081.692227393943
 31
0.0
  0
LINE
  5
5B1
330
576
100
AcDbEntity
  8
0
  6
Continuous
 62
     7
370
    15
100
AcDbLine
 10
2128.217843713554
 20
1094.38213983989
 30
0.0
 11
2128.215326680967
 21
1094.382753159842
 31
0.0
  0
LINE
  5
5B2
330
576
100
AcDbEntity
  8
0
  6
Continuous
 62
     7
370
    15
100
AcDbLine
 10
2124.071282805795
 20
1093.578785289583
 30
0.0
 11
2106.576937807671
 21
1082.207457107955
 31
0.0
  0
LINE
  5
5B3
330
576
100
AcDbEntity
  8
0
  6
Continuous
 62
     7
370
    15
100
AcDbLine
 10
2126.185788480738
 20
1093.06354821001
 30
0.0
 11
2124.071282805795
 21
1093.578785289583
 31
0.0
  0
LWPOLYLINE
  5
5B4
330
576
100
AcDbEntity
  8
0
  6
Continuous
 62
     7
370
    15
100
AcDbPolyline
 90
        7
 70
   128
 43
0.0
 10
2097.60519303308
 20
1082.235385052686
 10
2097.4521214221
 20
1082.282041030582
 10
2097.325870939978
 20
1082.34051356457
 10
2097.231266033784
 20
1082.408539028507
 10
2097.171977783819
 20
1082.483525519142
 10
2097.150273616175
 20
1082.562584828102
 10
2097.150245652371
 20
1082.563491107754
  0
LINE
  5
5B5
330
576
100
AcDbEntity
  8
0
  6
Continuous
 62
     7
370
    15
100
AcDbLine
 10
2097.881772051588
 20
1082.167991660891
 30
0.0
 11
2097.946388281848
 21
1079.679745050361
 31
0.0
  0
LINE
  5
5B6
330
576
100
AcDbEntity
  8
0
  6
Continuous
 62
     7
370
    15
100
AcDbLine
 10
2097.946388281848
 20
1079.679745050361
 30
0.0
 11
2099.178731808267
 21
1079.379462536529
 31
0.0
  0
LWPOLYLINE
  5
5B7
330
576
100
AcDbEntity
  8
0
  6
Continuous
 62
     7
370
    15
100
AcDbPolyline
 90
        9
 70
   128
 43
0.0
 10
2097.401684214776
 20
1079.325686853731
 10
2097.311526467146
 20
1079.252689222952
 10
2097.257038996251
 20
1079.174641277686
 10
2097.240333456078
 20
1079.094553801243
 10
2097.262037623721
 20
1079.015494492284
 10
2097.321325873687
 20
1078.940508001648
 10
2097.41593077988
 20
1078.872482537712
 10
2097.542181262003
 20
1078.814010003724
 10
2097.695252872982
 20
1078.767354025827
  0
LINE
  5
5B8
330
576
100
AcDbEntity
  8
0
  6
Continuous
 62
     7
370
    15
100
AcDbLine
 10
2097.946388281848
 20
1079.679745050361
 30
0.0
 11
2097.401684214776
 21
1079.325686853731
 31
0.0
  0
LINE
  5
5B9
330
576
100
AcDbEntity
  8
0
  6
Continuous
 62
     7
370
    15
100
AcDbLine
 10
2124.02388266701
 20
1095.404073366516
 30
0.0
 11
2104.500006093951
 21
1082.713547600618
 31
0.0
  0
LINE
  5
5BA
330
576
100
AcDbEntity
  8
0
  6
Continuous
 62
     7
370
    15
100
AcDbLine
 10
2124.02388266701
 20
1095.404073366516
 30
0.0
 11
2124.071282805795
 21
1093.578785289583
 31
0.0
  0
LINE
  5
5BB
330
576
100
AcDbEntity
  8
0
  6
Continuous
 62
     7
370
    15
100
AcDbLine
 10
2121.425187050455
 20
1096.037291974553
 30
0.0
 11
2124.02388266701
 21
1095.404073366516
 31
0.0
  0
LINE
  5
5BC
330
576
100
AcDbEntity
  8
0
  6
Continuous
 62
     7
370
    15
100
AcDbLine
 10
2121.425187050455
 20
1096.037291974553
 30
0.0
 11
2101.901310477396
 21
1083.346766208655
 31
0.0
  0
LINE
  5
5BD
330
576
100
AcDbEntity
  8
0
  6
Continuous
 62
     7
370
    15
100
AcDbLine
 10
2121.796931391137
 20
1097.760448011795
 30
0.0
 11
2100.2435235963
 21
1083.750711062197
 31
0.0
  0
LINE
  5
5BE
330
576
100
AcDbEntity
  8
0
  6
Continuous
 62
     7
370
    15
100
AcDbLine
 10
2099.305146011824
 20
1083.979372524768
 30
0.0
 11
2121.365936700394
 21
1098.318908870434
 31
0.0
  0
LINE
  5
5BF
330
576
100
AcDbEntity
  8
0
  6
Continuous
 62
     7
370
    15
100
AcDbLine
 10
2121.492172208744
 20
1098.15533988284
 30
0.0
 11
2121.365936700394
 21
1098.318908870434
 31
0.0
  0
LINE
  5
5C0
330
576
100
AcDbEntity
  8
0
  6
Continuous
 62
     7
370
    15
100
AcDbLine
 10
2121.796931391137
 20
1097.760448011795
 30
0.0
 11
2121.492172208744
 21
1098.15533988284
 31
0.0
  0
LWPOLYLINE
  5
5C1
330
576
100
AcDbEntity
  8
0
  6
Continuous
 62
     7
370
    15
100
AcDbPolyline
 90
        7
 70
   128
 43
0.0
 10
2097.260450674862
 20
1078.319707888399
 10
2097.260478638666
 20
1078.318801608747
 10
2097.28218280631
 20
1078.239742299787
 10
2097.341471056276
 20
1078.164755809152
 10
2097.43607596247
 20
1078.096730345215
 10
2097.562326444592
 20
1078.038257811227
 10
2097.715398055572
 20
1077.991601833331
  0
LINE
  5
5C2
330
576
100
AcDbEntity
  8
0
  6
Continuous
 62
     7
370
    15
100
AcDbLine
 10
2121.804041164744
 20
1097.486664319855
 30
0.0
 11
2100.555063106148
 21
1083.674807007898
 31
0.0
  0
LINE
  5
5C3
330
576
100
AcDbEntity
  8
0
  6
Continuous
 62
     7
370
    15
100
AcDbLine
 10
2121.804041164744
 20
1097.486664319855
 30
0.0
 11
2121.796931391137
 21
1097.760448011795
 31
0.0
  0
LINE
  5
5C4
330
576
100
AcDbEntity
  8
0
  6
Continuous
 62
     7
370
    15
100
AcDbLine
 10
2120.731262717808
 20
1098.47355852361
 30
0.0
 11
2098.670472029238
 21
1084.134022177944
 31
0.0
  0
LINE
  5
5C5
330
576
100
AcDbEntity
  8
0
  6
Continuous
 62
     7
370
    15
100
AcDbLine
 10
2121.194910425729
 20
1098.360582477335
 30
0.0
 11
2120.731262717808
 21
1098.47355852361
 31
0.0
  0
LINE
  5
5C6
330
576
100
AcDbEntity
  8
0
  6
Continuous
 62
     7
370
    15
100
AcDbLine
 10
2121.425187050455
 20
1096.037291974553
 30
0.0
 11
2121.394462671652
 21
1097.220428643295
 31
0.0
  0
LWPOLYLINE
  5
5C7
330
576
100
AcDbEntity
  8
0
  6
Continuous
 62
     7
370
    15
100
AcDbPolyline
 90
       11
 70
   128
 43
0.0
 10
2115.058376667887
 20
1079.825240487377
 10
2115.121443017207
 20
1079.730253305113
 10
2115.20938450763
 20
1079.657588886509
 10
2115.310481365297
 20
1079.626291642652
 10
2115.42032325212
 20
1079.637740346571
 10
2115.534087313446
 20
1079.691399986335
 10
2115.64683144333
 20
1079.784970900829
 10
2115.753595218036
 20
1079.914316096821
 10
2115.849737271227
 20
1080.073818832991
 10
2115.931047870072
 20
1080.256497281459
 10
2115.987185604151
 20
1080.428953409978
  0
SPLINE
  5
5C8
330
576
100
AcDbEntity
  8
0
  6
Continuous
 62
     7
370
    15
100
AcDbSpline
210
0.0
220
0.0
230
1.0
 70
     8
 71
     3
 72
    11
 73
     7
 74
     0
 42
0.0000000001
 43
0.0000000001
 40
0.0
 40
0.0
 40
0.0
 40
0.0
 40
0.2441665590041048
 40
0.4884011401760594
 40
0.7325439414774121
 40
1.0
 40
1.0
 40
1.0
 40
1.0
 10
2120.905384710715
 20
1082.265984089109
 30
0.0
 10
2120.935298958841
 20
1082.270599359483
 30
0.0
 10
2120.995135788879
 20
1082.279831185996
 30
0.0
 10
2121.06857019015
 20
1082.222984160407
 30
0.0
 10
2121.123420818266
 20
1082.118857973725
 30
0.0
 10
2121.133107327928
 20
1082.015635357342
 30
0.0
 10
2121.138171287014
 20
1081.961672152386
 30
0.0
  0
LWPOLYLINE
  5
5C9
330
576
100
AcDbEntity
  8
0
  6
Continuous
 62
     7
370
    15
100
AcDbPolyline
 90
        9
 70
   128
 43
0.0
 10
2120.012547685797
 20
1083.045442849956
 10
2120.043091511014
 20
1082.918764481256
 10
2120.115828225888
 20
1082.711382728701
 10
2120.209446712127
 20
1082.537073012402
 10
2120.32188308373
 20
1082.399665843375
 10
2120.450682092784
 20
1082.302170358766
 10
2120.592981602131
 20
1082.2467365711
 10
2120.74566327931
 20
1082.234573542741
 10
2120.905384710715
 20
1082.265984089109
  0
ARC
  5
5CA
330
576
100
AcDbEntity
  8
0
  6
Continuous
 62
     7
370
    15
100
AcDbCircle
 10
2113.317699605326
 20
1081.1234702663
 30
0.0
 40
3.257866854414921
100
AcDbArc
 50
318.6190065743787
 51
354.3194915384087
  0
SPLINE
  5
5CB
330
576
100
AcDbEntity
  8
0
  6
Continuous
 62
     7
370
    15
100
AcDbSpline
210
0.0
220
0.0
230
1.0
 70
     8
 71
     3
 72
    11
 73
     7
 74
     0
 42
0.0000000001
 43
0.0000000001
 40
0.0
 40
0.0
 40
0.0
 40
0.0
 40
0.2448987531202503
 40
0.4897566235771388
 40
0.7345733246335023
 40
1.0
 40
1.0
 40
1.0
 40
1.0
 10
2115.762176156928
 20
1078.969815040931
 30
0.0
 10
2115.733047556327
 20
1078.935861249794
 30
0.0
 10
2115.674795217765
 20
1078.867959335664
 30
0.0
 10
2115.606960819242
 20
1078.718790050082
 30
0.0
 10
2115.55973711564
 20
1078.548522652636
 30
0.0
 10
2115.555749269976
 20
1078.437007276976
 30
0.0
 10
2115.553674807739
 20
1078.378997400157
 30
0.0
  0
LINE
  5
5CC
330
576
100
AcDbEntity
  8
0
  6
Continuous
 62
     7
370
    15
100
AcDbLine
 10
2115.553674807739
 20
1078.378997400157
 30
0.0
 11
2115.601804570619
 21
1076.525612904212
 31
0.0
  0
LINE
  5
5CD
330
576
100
AcDbEntity
  8
0
  6
Continuous
 62
     7
370
    15
100
AcDbLine
 10
2121.185094309559
 20
1080.15475690318
 30
0.0
 11
2115.601804570619
 21
1076.525612904212
 31
0.0
  0
LINE
  5
5CE
330
576
100
AcDbEntity
  8
0
  6
Continuous
 62
     7
370
    15
100
AcDbLine
 10
2121.138171287014
 20
1081.961672152386
 30
0.0
 11
2121.185094309559
 21
1080.15475690318
 31
0.0
  0
LWPOLYLINE
  5
5CF
330
576
100
AcDbEntity
  8
0
  6
Continuous
 62
     7
370
    15
100
AcDbPolyline
 90
       10
 70
   128
 43
0.0
 10
2116.9233971956
 20
1074.667337596083
 10
2116.904805250341
 20
1074.896983406323
 10
2116.861952947142
 20
1075.103516770186
 10
2116.796158518154
 20
1075.28067261453
 10
2116.709378593844
 20
1075.423029524183
 10
2116.604299248086
 20
1075.526317843015
 10
2116.484073787569
 20
1075.587346039656
 10
2116.352380976426
 20
1075.604301304201
 10
2116.213197058737
 20
1075.576629020581
 10
2116.070774933826
 20
1075.505199007232
  0
LINE
  5
5D0
330
576
100
AcDbEntity
  8
0
  6
Continuous
 62
     7
370
    15
100
AcDbLine
 10
2114.954126726231
 20
1074.779376538574
 30
0.0
 11
2116.070774933826
 21
1075.505199007232
 31
0.0
  0
LWPOLYLINE
  5
5D1
330
576
100
AcDbEntity
  8
0
  6
Continuous
 62
     7
370
    15
100
AcDbPolyline
 90
        9
 70
   128
 43
0.0
 10
2114.954126726231
 20
1074.779376538574
 10
2114.890087584381
 20
1074.748454662897
 10
2114.827963984026
 20
1074.739756455805
 10
2114.770140529907
 20
1074.753628791425
 10
2114.718859267046
 20
1074.789551456968
 10
2114.676055578415
 20
1074.846099630954
 10
2114.643386061188
 20
1074.921141779561
 10
2114.622131124813
 20
1075.011776345272
 10
2114.613074292265
 20
1075.114529872197
  0
LINE
  5
5D2
330
576
100
AcDbEntity
  8
0
  6
Continuous
 62
     7
370
    15
100
AcDbLine
 10
2114.613074292265
 20
1075.114529872197
 30
0.0
 11
2114.500166199676
 21
1079.462403116295
 31
0.0
  0
LINE
  5
5D3
330
576
100
AcDbEntity
  8
0
  6
Continuous
 62
     7
370
    15
100
AcDbLine
 10
2122.098880820328
 20
1084.401561505634
 30
0.0
 11
2122.211773727129
 21
1080.054273036957
 31
0.0
  0
ARC
  5
5D4
330
576
100
AcDbEntity
  8
0
  6
Continuous
 62
     7
370
    15
100
AcDbCircle
 10
2121.27048976236
 20
1079.997122394157
 30
0.0
 40
0.9430173372232198
100
AcDbArc
 50
311.8111338611142
 51
3.474483734797946
  0
LINE
  5
5D5
330
576
100
AcDbEntity
  8
0
  6
Continuous
 62
     7
370
    15
100
AcDbLine
 10
2120.782513592628
 20
1078.568414736449
 30
0.0
 11
2121.899178033878
 21
1079.294247757
 31
0.0
  0
ARC
  5
5D6
330
576
100
AcDbEntity
  8
0
  6
Continuous
 62
     7
370
    15
100
AcDbCircle
 10
2122.359414861745
 20
1076.809056660583
 30
0.0
 40
2.362616865185208
100
AcDbArc
 50
131.8696674054329
 51
183.4141096795073
  0
LINE
  5
5D7
330
576
100
AcDbEntity
  8
0
  6
Continuous
 62
     7
370
    15
100
AcDbLine
 10
2120.000991185874
 20
1076.668357631627
 30
0.0
 11
2120.00287916768
 21
1076.595655087562
 31
0.0
  0
LINE
  5
5D8
330
576
100
AcDbEntity
  8
0
  6
Continuous
 62
     7
370
    15
100
AcDbLine
 10
2120.00287916768
 20
1076.595655087562
 30
0.0
 11
2116.925270344776
 21
1074.59520622801
 31
0.0
  0
LINE
  5
5D9
330
576
100
AcDbEntity
  8
0
  6
Continuous
 62
     7
370
    15
100
AcDbLine
 10
2116.925270344776
 20
1074.59520622801
 30
0.0
 11
2116.9233971956
 21
1074.667337596083
 31
0.0
  0
LINE
  5
5DA
330
576
100
AcDbEntity
  8
0
  6
Continuous
 62
     7
370
    15
100
AcDbLine
 10
2113.292770470124
 20
1075.436245483335
 30
0.0
 11
2114.613074292265
 21
1075.114529872197
 31
0.0
  0
LINE
  5
5DB
330
576
100
AcDbEntity
  8
0
  6
Continuous
 62
     7
370
    15
100
AcDbLine
 10
2113.292770470124
 20
1075.436245483335
 30
0.0
 11
2113.249177372841
 21
1077.114931722442
 31
0.0
  0
LINE
  5
5DC
330
576
100
AcDbEntity
  8
0
  6
Continuous
 62
     7
370
    15
100
AcDbLine
 10
2112.828669577733
 20
1078.137183838188
 30
0.0
 11
2113.249177372841
 21
1077.114931722442
 31
0.0
  0
LWPOLYLINE
  5
5DD
330
576
100
AcDbEntity
  8
0
  6
Continuous
 62
     7
370
    15
100
AcDbPolyline
 90
        3
 70
   128
 43
0.0
 10
2112.733435516521
 20
1078.314022880514
 10
2112.783194393067
 20
1078.232507059975
 10
2112.828669577733
 20
1078.137183838188
  0
LINE
  5
5DE
330
576
100
AcDbEntity
  8
0
  6
Continuous
 62
     7
370
    15
100
AcDbLine
 10
2109.771957154885
 20
1076.294154540645
 30
0.0
 11
2109.769533432638
 21
1076.387487417547
 31
0.0
  0
ARC
  5
5DF
330
576
100
AcDbEntity
  8
0
  6
Continuous
 62
     7
370
    15
100
AcDbCircle
 10
2119.985786950282
 20
1083.010434849327
 30
0.0
 40
0.6216258286021722
100
AcDbArc
 50
211.6622814369525
 51
256.5779906636623
  0
SPLINE
  5
5E0
330
576
100
AcDbEntity
  8
0
  6
Continuous
 62
     7
370
    15
100
AcDbSpline
210
0.0
220
0.0
230
1.0
 70
     8
 71
     3
 72
    10
 73
     6
 74
     0
 42
0.0000000001
 43
0.0000000001
 40
0.0
 40
0.0
 40
0.0
 40
0.0
 40
0.0713962394841592
 40
0.7938152672076939
 40
1.0
 40
1.0
 40
1.0
 40
1.0
 10
2120.371348206308
 20
1082.119453431266
 30
0.0
 10
2120.371173277754
 20
1082.124462678244
 30
0.0
 10
2120.369228343993
 20
1082.180157722653
 30
0.0
 10
2120.362010511725
 20
1082.2507711619
 30
0.0
 10
2120.339253655888
 20
1082.292247006156
 30
0.0
 10
2120.334200783565
 20
1082.301456193357
 30
0.0
  0
LINE
  5
5E1
330
576
100
AcDbEntity
  8
0
  6
Continuous
 62
     7
370
    15
100
AcDbLine
 10
2120.372069001456
 20
1082.091696997963
 30
0.0
 11
2120.371348206308
 21
1082.119453431266
 31
0.0
  0
LINE
  5
5E2
330
576
100
AcDbEntity
  8
0
  6
Continuous
 62
     7
370
    15
100
AcDbLine
 10
2115.991709347577
 20
1079.244458775607
 30
0.0
 11
2120.372069001456
 21
1082.091696997963
 31
0.0
  0
LWPOLYLINE
  5
5E3
330
576
100
AcDbEntity
  8
0
  6
Continuous
 62
     7
370
    15
100
AcDbPolyline
 90
        7
 70
   128
 43
0.0
 10
2113.477555119407
 20
1075.065731093586
 10
2113.449836707768
 20
1075.075344402562
 10
2113.398555444907
 20
1075.111267068105
 10
2113.355751756277
 20
1075.167815242092
 10
2113.323082239049
 20
1075.242857390698
 10
2113.301827302673
 20
1075.33349195641
 10
2113.292770470124
 20
1075.436245483335
  0
LINE
  5
5E4
330
576
100
AcDbEntity
  8
0
  6
Continuous
 62
     7
370
    15
100
AcDbLine
 10
2121.185094309559
 20
1080.15475690318
 30
0.0
 11
2120.372069001456
 21
1082.091696997963
 31
0.0
  0
ARC
  5
5E5
330
576
100
AcDbEntity
  8
0
  6
Continuous
 62
     7
370
    15
100
AcDbCircle
 10
2111.590965197789
 20
1076.9379966092
 30
0.0
 40
0.811645464371576
100
AcDbArc
 50
28.49290546864591
 51
73.8867947157898
  0
LINE
  5
5E6
330
576
100
AcDbEntity
  8
0
  6
Continuous
 62
     7
370
    15
100
AcDbLine
 10
2112.304301070433
 20
1077.32519202838
 30
0.0
 11
2112.304887624178
 21
1077.324218048741
 31
0.0
  0
ARC
  5
5E7
330
576
100
AcDbEntity
  8
0
  6
Continuous
 62
     7
370
    15
100
AcDbCircle
 10
2110.263111722375
 20
1076.216265527229
 30
0.0
 40
2.323016922690815
100
AcDbArc
 50
359.1969108732561
 51
28.48609860813861
  0
LINE
  5
5E8
330
576
100
AcDbEntity
  8
0
  6
Continuous
 62
     7
370
    15
100
AcDbLine
 10
2112.5859004546
 20
1076.183705911817
 30
0.0
 11
2112.586628312906
 21
1076.155677489947
 31
0.0
  0
LINE
  5
5E9
330
576
100
AcDbEntity
  8
0
  6
Continuous
 62
     7
370
    15
100
AcDbLine
 10
2112.082768122353
 20
1075.828167854524
 30
0.0
 11
2112.586628312906
 21
1076.155677489947
 31
0.0
  0
LINE
  5
5EA
330
576
100
AcDbEntity
  8
0
  6
Continuous
 62
     7
370
    15
100
AcDbLine
 10
2112.082768122353
 20
1075.828167854524
 30
0.0
 11
2112.08228005822
 21
1075.846962264531
 31
0.0
  0
LWPOLYLINE
  5
5EB
330
576
100
AcDbEntity
  8
0
  6
Continuous
 62
     7
370
    15
100
AcDbPolyline
 90
       10
 70
   128
 43
0.0
 10
2112.08228005822
 20
1075.846962264531
 10
2112.063688112962
 20
1076.07660807477
 10
2112.020835809762
 20
1076.283141438634
 10
2111.955041380774
 20
1076.460297282977
 10
2111.868261456464
 20
1076.602654192631
 10
2111.763182110706
 20
1076.705942511463
 10
2111.642956650189
 20
1076.766970708104
 10
2111.511263839047
 20
1076.783925972649
 10
2111.372079921357
 20
1076.756253689028
 10
2111.229657796446
 20
1076.68482367568
  0
LINE
  5
5EC
330
576
100
AcDbEntity
  8
0
  6
Continuous
 62
     7
370
    15
100
AcDbLine
 10
2111.229657796446
 20
1076.68482367568
 30
0.0
 11
2110.113009588851
 21
1075.959001207021
 31
0.0
  0
LWPOLYLINE
  5
5ED
330
576
100
AcDbEntity
  8
0
  6
Continuous
 62
     7
370
    15
100
AcDbPolyline
 90
        9
 70
   128
 43
0.0
 10
2110.113009588851
 20
1075.959001207021
 10
2110.048970447001
 20
1075.928079331345
 10
2109.986846846647
 20
1075.919381124253
 10
2109.929023392527
 20
1075.933253459872
 10
2109.877742129667
 20
1075.969176125415
 10
2109.834938441036
 20
1076.025724299402
 10
2109.802268923809
 20
1076.100766448009
 10
2109.781013987433
 20
1076.19140101372
 10
2109.771957154885
 20
1076.294154540645
  0
LINE
  5
5EE
330
576
100
AcDbEntity
  8
0
  6
Continuous
 62
     7
370
    15
100
AcDbLine
 10
2115.603093373461
 20
1074.989053207221
 30
0.0
 11
2116.9233971956
 21
1074.667337596083
 31
0.0
  0
LINE
  5
5EF
330
576
100
AcDbEntity
  8
0
  6
Continuous
 62
     7
370
    15
100
AcDbLine
 10
2115.603093373461
 20
1074.989053207221
 30
0.0
 11
2115.588130189792
 21
1075.191477525127
 31
0.0
  0
LINE
  5
5F0
330
576
100
AcDbEntity
  8
0
  6
Continuous
 62
     7
370
    15
100
AcDbLine
 10
2115.936735498806
 20
1051.608811462393
 30
0.0
 11
2116.925270344776
 21
1074.59520622801
 31
0.0
  0
LINE
  5
5F1
330
576
100
AcDbEntity
  8
0
  6
Continuous
 62
     7
370
    15
100
AcDbLine
 10
2115.78025146299
 20
1051.659495518546
 30
0.0
 11
2115.936735498806
 21
1051.608811462393
 31
0.0
  0
LINE
  5
5F2
330
576
100
AcDbEntity
  8
0
  6
Continuous
 62
     7
370
    15
100
AcDbLine
 10
2115.78025146299
 20
1051.659495518546
 30
0.0
 11
2115.387212195432
 21
1052.233052205659
 31
0.0
  0
ARC
  5
5F3
330
576
100
AcDbEntity
  8
0
  6
Continuous
 62
     7
370
    15
100
AcDbCircle
 10
2115.87462402224
 20
1052.577107554835
 30
0.0
 40
0.5966107375910296
100
AcDbArc
 50
178.8371766417164
 51
215.2175884190103
  0
LINE
  5
5F4
330
576
100
AcDbEntity
  8
0
  6
Continuous
 62
     7
370
    15
100
AcDbLine
 10
2115.278136149707
 20
1052.589214995964
 30
0.0
 11
2115.289408947231
 21
1052.851357357245
 31
0.0
  0
LINE
  5
5F5
330
576
100
AcDbEntity
  8
0
  6
Continuous
 62
     7
370
    15
100
AcDbLine
 10
2115.289408947231
 20
1052.851357357245
 30
0.0
 11
2114.786764555367
 21
1053.014159553627
 31
0.0
  0
ARC
  5
5F6
330
576
100
AcDbEntity
  8
0
  6
Continuous
 62
     7
370
    15
100
AcDbCircle
 10
2114.850128415648
 20
1053.186132905608
 30
0.0
 40
0.1832752372285774
100
AcDbArc
 50
179.0701258753532
 51
249.7735984713424
  0
LINE
  5
5F7
330
576
100
AcDbEntity
  8
0
  6
Continuous
 62
     7
370
    15
100
AcDbLine
 10
2114.666877314532
 20
1053.189107215775
 30
0.0
 11
2115.603581437593
 21
1074.970258797214
 31
0.0
  0
LINE
  5
5F8
330
576
100
AcDbEntity
  8
0
  6
Continuous
 62
     7
370
    15
100
AcDbLine
 10
2115.603581437593
 20
1074.970258797214
 30
0.0
 11
2115.603093373461
 21
1074.989053207221
 31
0.0
  0
LINE
  5
5F9
330
576
100
AcDbEntity
  8
0
  6
Continuous
 62
     7
370
    15
100
AcDbLine
 10
2115.936735498806
 20
1051.608811462393
 30
0.0
 11
2119.01434432171
 21
1053.609260321946
 31
0.0
  0
LINE
  5
5FA
330
576
100
AcDbEntity
  8
0
  6
Continuous
 62
     7
370
    15
100
AcDbLine
 10
2120.00287916768
 20
1076.595655087562
 30
0.0
 11
2119.01434432171
 21
1053.609260321946
 31
0.0
  0
LINE
  5
5FB
330
576
100
AcDbEntity
  8
0
  6
Continuous
 62
     7
370
    15
100
AcDbLine
 10
2112.655489237708
 20
1075.412714414836
 30
0.0
 11
2113.282790142513
 21
1075.820460639851
 31
0.0
  0
LINE
  5
5FC
330
576
100
AcDbEntity
  8
0
  6
Continuous
 62
     7
370
    15
100
AcDbLine
 10
2112.08228005822
 20
1075.846962264531
 30
0.0
 11
2110.761974674646
 21
1076.16867825614
 31
0.0
  0
LINE
  5
5FD
330
576
100
AcDbEntity
  8
0
  6
Continuous
 62
     7
370
    15
100
AcDbLine
 10
2110.761974674646
 20
1076.16867825614
 30
0.0
 11
2110.747011490977
 21
1076.371102574046
 31
0.0
  0
LINE
  5
5FE
330
576
100
AcDbEntity
  8
0
  6
Continuous
 62
     7
370
    15
100
AcDbLine
 10
2114.169856284036
 20
1053.31021526825
 30
0.0
 11
2112.082768122353
 21
1075.828167854524
 31
0.0
  0
ARC
  5
5FF
330
576
100
AcDbEntity
  8
0
  6
Continuous
 62
     7
370
    15
100
AcDbCircle
 10
2114.072933277665
 20
1053.289709439625
 30
0.0
 40
0.0990684519494608
100
AcDbArc
 50
261.0878029524829
 51
11.94580957347586
  0
LINE
  5
600
330
576
100
AcDbEntity
  8
0
  6
Continuous
 62
     7
370
    15
100
AcDbLine
 10
2113.557049558741
 20
1053.273477667762
 30
0.0
 11
2114.057585523905
 21
1053.191837050126
 31
0.0
  0
LINE
  5
601
330
576
100
AcDbEntity
  8
0
  6
Continuous
 62
     7
370
    15
100
AcDbLine
 10
2113.582167556169
 20
1053.002468039234
 30
0.0
 11
2113.557049558741
 21
1053.273477667762
 31
0.0
  0
ARC
  5
602
330
576
100
AcDbEntity
  8
0
  6
Continuous
 62
     7
370
    15
100
AcDbCircle
 10
2113.196697035462
 20
1052.950385348499
 30
0.0
 40
0.3889731726074635
100
AcDbArc
 50
319.0133342461994
 51
7.694895588811423
  0
LINE
  5
603
330
576
100
AcDbEntity
  8
0
  6
Continuous
 62
     7
370
    15
100
AcDbLine
 10
2113.122252560058
 20
1052.307164431656
 30
0.0
 11
2113.490318196655
 21
1052.69526431309
 31
0.0
  0
LINE
  5
604
330
576
100
AcDbEntity
  8
0
  6
Continuous
 62
     7
370
    15
100
AcDbLine
 10
2113.122252560058
 20
1052.307164431656
 30
0.0
 11
2112.966423910788
 21
1052.332580940134
 31
0.0
  0
LINE
  5
605
330
576
100
AcDbEntity
  8
0
  6
Continuous
 62
     7
370
    15
100
AcDbLine
 10
2112.966423910788
 20
1052.332580940134
 30
0.0
 11
2110.763847823822
 21
1076.096546888066
 31
0.0
  0
LINE
  5
606
330
576
100
AcDbEntity
  8
0
  6
Continuous
 62
     7
370
    15
100
AcDbLine
 10
2110.763847823822
 20
1076.096546888066
 30
0.0
 11
2110.761974674646
 21
1076.16867825614
 31
0.0
  0
LINE
  5
607
330
576
100
AcDbEntity
  8
0
  6
Continuous
 62
     7
370
    15
100
AcDbLine
 10
2115.415217783818
 20
1075.079088247888
 30
0.0
 11
2115.547073171283
 21
1073.65648707754
 31
0.0
  0
LINE
  5
608
330
576
100
AcDbEntity
  8
0
  6
Continuous
 62
     7
370
    15
100
AcDbLine
 10
2112.586628312906
 20
1076.155677489947
 30
0.0
 11
2113.130051333258
 21
1070.292591708763
 31
0.0
  0
LINE
  5
609
330
576
100
AcDbEntity
  8
0
  6
Continuous
 62
     7
370
    15
100
AcDbLine
 10
2113.130051333258
 20
1070.292591708763
 30
0.0
 11
2115.199956008712
 21
1071.638031849361
 31
0.0
  0
LINE
  5
60A
330
576
100
AcDbEntity
  8
0
  6
Continuous
 62
     7
370
    15
100
AcDbLine
 10
2115.199956008712
 20
1071.638031849361
 30
0.0
 11
2114.910950109776
 21
1074.756165337784
 31
0.0
  0
LINE
  5
60B
330
576
100
AcDbEntity
  8
0
  6
Continuous
 62
     7
370
    15
100
AcDbLine
 10
2114.523637504036
 20
1055.256947040322
 30
0.0
 11
2114.76248327321
 21
1055.412197032782
 31
0.0
  0
LINE
  5
60C
330
576
100
AcDbEntity
  8
0
  6
Continuous
 62
     7
370
    15
100
AcDbLine
 10
2114.613684574081
 20
1054.285413834426
 30
0.0
 11
2114.523637504036
 21
1055.256947040322
 31
0.0
  0
LINE
  5
60D
330
576
100
AcDbEntity
  8
0
  6
Continuous
 62
     7
370
    15
100
AcDbLine
 10
2114.716914387591
 20
1054.352513318016
 30
0.0
 11
2114.613684574081
 21
1054.285413834426
 31
0.0
  0
LINE
  5
60E
330
576
100
AcDbEntity
  8
0
  6
Continuous
 62
     7
370
    15
100
AcDbLine
 10
2114.026234850721
 20
1060.623513295106
 30
0.0
 11
2115.014215107084
 21
1061.265701464828
 31
0.0
  0
LINE
  5
60F
330
576
100
AcDbEntity
  8
0
  6
Continuous
 62
     7
370
    15
100
AcDbLine
 10
2114.450742390969
 20
1056.043431095764
 30
0.0
 11
2114.026234850721
 21
1060.623513295106
 31
0.0
  0
LINE
  5
610
330
576
100
AcDbEntity
  8
0
  6
Continuous
 62
     7
370
    15
100
AcDbLine
 10
2114.799376370358
 20
1056.270043536331
 30
0.0
 11
2114.450742390969
 21
1056.043431095764
 31
0.0
  0
LINE
  5
611
330
576
100
AcDbEntity
  8
0
  6
Continuous
 62
     7
370
    15
100
AcDbLine
 10
2113.863291886892
 20
1062.381530746678
 30
0.0
 11
2115.096676309135
 21
1063.183231873379
 31
0.0
  0
LINE
  5
612
330
576
100
AcDbEntity
  8
0
  6
Continuous
 62
     7
370
    15
100
AcDbLine
 10
2113.953338956936
 20
1061.409997540783
 30
0.0
 11
2113.863291886892
 21
1062.381530746678
 31
0.0
  0
LINE
  5
613
330
576
100
AcDbEntity
  8
0
  6
Continuous
 62
     7
370
    15
100
AcDbLine
 10
2115.051107423516
 20
1062.123548158613
 30
0.0
 11
2113.953338956936
 21
1061.409997540783
 31
0.0
  0
LINE
  5
614
330
576
100
AcDbEntity
  8
0
  6
Continuous
 62
     7
370
    15
100
AcDbLine
 10
2113.365889233576
 20
1067.748097001462
 30
0.0
 11
2115.34840814301
 21
1069.036736305426
 31
0.0
  0
LINE
  5
615
330
576
100
AcDbEntity
  8
0
  6
Continuous
 62
     7
370
    15
100
AcDbLine
 10
2113.790396950403
 20
1063.168008002406
 30
0.0
 11
2113.365889233576
 21
1067.748097001462
 31
0.0
  0
LINE
  5
616
330
576
100
AcDbEntity
  8
0
  6
Continuous
 62
     7
370
    15
100
AcDbLine
 10
2115.133569582863
 20
1064.041071577214
 30
0.0
 11
2113.790396950403
 21
1063.168008002406
 31
0.0
  0
LINE
  5
617
330
576
100
AcDbEntity
  8
0
  6
Continuous
 62
     7
370
    15
100
AcDbLine
 10
2115.362898015246
 20
1069.880021387738
 30
0.0
 11
2113.292993339791
 21
1068.53458124714
 31
0.0
  0
LINE
  5
618
330
576
100
AcDbEntity
  8
0
  6
Continuous
 62
     7
370
    15
100
AcDbLine
 10
2115.27285112178
 20
1070.851547793919
 30
0.0
 11
2115.362898015246
 21
1069.880021387738
 31
0.0
  0
LINE
  5
619
330
576
100
AcDbEntity
  8
0
  6
Continuous
 62
     7
370
    15
100
AcDbLine
 10
2113.202946446326
 20
1069.506107653321
 30
0.0
 11
2115.27285112178
 21
1070.851547793919
 31
0.0
  0
LINE
  5
61A
330
576
100
AcDbEntity
  8
0
  6
Continuous
 62
     7
370
    15
100
AcDbLine
 10
2113.292993339791
 20
1068.53458124714
 30
0.0
 11
2113.202946446326
 21
1069.506107653321
 31
0.0
  0
LWPOLYLINE
  5
61B
330
576
100
AcDbEntity
  8
0
  6
Continuous
 62
     7
370
    15
100
AcDbPolyline
 90
        3
 70
   128
 43
0.0
 10
2121.138171287014
 20
1081.961672152386
 10
2120.722303444543
 20
1082.047214588492
 10
2120.371348206308
 20
1082.119453431266
  0
LINE
  5
61C
330
576
100
AcDbEntity
  8
0
  6
Continuous
 62
     7
370
    15
100
AcDbLine
 10
2114.284264431073
 20
1074.86916620182
 30
0.0
 11
2114.574285466718
 21
1071.740082764082
 31
0.0
  0
LINE
  5
61D
330
576
100
AcDbEntity
  8
0
  6
Continuous
 62
     7
370
    15
100
AcDbLine
 10
2114.574285466718
 20
1071.740082764082
 30
0.0
 11
2113.085578115258
 21
1070.772421474164
 31
0.0
  0
LINE
  5
61E
330
576
100
AcDbEntity
  8
0
  6
Continuous
 62
     7
370
    15
100
AcDbLine
 10
2114.574285466718
 20
1071.740082764082
 30
0.0
 11
2115.199956008712
 21
1071.638031849361
 31
0.0
  0
LINE
  5
61F
330
576
100
AcDbEntity
  8
0
  6
Continuous
 62
     7
370
    15
100
AcDbLine
 10
2114.691654355981
 20
1070.473766680537
 30
0.0
 11
2114.737227473251
 21
1069.98207230246
 31
0.0
  0
LINE
  5
620
330
576
100
AcDbEntity
  8
0
  6
Continuous
 62
     7
370
    15
100
AcDbLine
 10
2114.737227473251
 20
1069.98207230246
 30
0.0
 11
2113.248520121791
 21
1069.014411012542
 31
0.0
  0
LINE
  5
621
330
576
100
AcDbEntity
  8
0
  6
Continuous
 62
     7
370
    15
100
AcDbLine
 10
2114.737227473251
 20
1069.98207230246
 30
0.0
 11
2115.362898015246
 21
1069.880021387738
 31
0.0
  0
LINE
  5
622
330
576
100
AcDbEntity
  8
0
  6
Continuous
 62
     7
370
    15
100
AcDbLine
 10
2115.156076426279
 20
1064.564438450541
 30
0.0
 11
2113.745923732404
 21
1063.647837767808
 31
0.0
  0
LINE
  5
623
330
576
100
AcDbEntity
  8
0
  6
Continuous
 62
     7
370
    15
100
AcDbLine
 10
2114.854596362514
 20
1068.715756218914
 30
0.0
 11
2115.182476130782
 21
1065.178208669149
 31
0.0
  0
LINE
  5
624
330
576
100
AcDbEntity
  8
0
  6
Continuous
 62
     7
370
    15
100
AcDbLine
 10
2115.07361504765
 20
1062.646914841704
 30
0.0
 11
2113.908866519654
 21
1061.889827115949
 31
0.0
  0
LINE
  5
625
330
576
100
AcDbEntity
  8
0
  6
Continuous
 62
     7
370
    15
100
AcDbLine
 10
2114.821883213775
 20
1056.793410409658
 30
0.0
 11
2114.406269172969
 21
1056.523260861165
 31
0.0
  0
ARC
  5
626
330
576
100
AcDbEntity
  8
0
  6
Continuous
 62
     7
370
    15
100
AcDbCircle
 10
2132.660595734391
 20
1095.971483344651
 30
0.0
 40
0.2897728288887405
100
AcDbArc
 50
295.9505835599441
 51
353.9922294272757
  0
LINE
  5
627
330
576
100
AcDbEntity
  8
0
  6
Continuous
 62
     7
370
    15
100
AcDbLine
 10
2114.739422011725
 20
1054.875880001107
 30
0.0
 11
2114.569212136799
 21
1054.765243409593
 31
0.0
  0
LINE
  5
628
330
576
100
AcDbEntity
  8
0
  6
Continuous
 62
     7
370
    15
100
AcDbLine
 10
2132.226052360177
 20
1092.79772042487
 30
0.0
 11
2132.586244095338
 21
1092.709953274416
 31
0.0
  0
LWPOLYLINE
  5
629
330
576
100
AcDbEntity
  8
0
  6
Continuous
 62
     7
370
    15
100
AcDbPolyline
 90
        9
 70
   128
 43
0.0
 10
2132.8798289872
 20
1092.151630998404
 10
2132.969986734829
 20
1092.224628629183
 10
2133.024474205724
 20
1092.302676574449
 10
2133.041179745898
 20
1092.382764050892
 10
2133.019459344598
 20
1092.461812807959
 10
2132.960171875351
 20
1092.536799108359
 10
2132.865583202812
 20
1092.604835124188
 10
2132.739331159255
 20
1092.663308038647
 10
2132.586244095338
 20
1092.709953274416
  0
LINE
  5
62A
330
576
100
AcDbEntity
  8
0
  6
Continuous
 62
     7
370
    15
100
AcDbLine
 10
2113.122252560058
 20
1052.307164431656
 30
0.0
 11
2114.672274427263
 21
1053.314680219061
 31
0.0
  0
ARC
  5
62B
330
576
100
AcDbEntity
  8
0
  6
Continuous
 62
     7
370
    15
100
AcDbCircle
 10
2132.771985601431
 20
1091.682074043116
 30
0.0
 40
0.2897728288890298
100
AcDbArc
 50
295.9505835599732
 51
353.9922294272627
  0
LINE
  5
62C
330
576
100
AcDbEntity
  8
0
  6
Continuous
 62
     8
370
    15
100
AcDbLine
 10
2120.731279304621
 20
1098.473555476074
 30
0.0
 11
2098.670472029238
 21
1084.134022177944
 31
0.0
  0
LINE
  5
62D
330
576
100
AcDbEntity
  8
0
  6
Continuous
 62
     8
370
    15
100
AcDbLine
 10
2109.771957154885
 20
1076.294154540645
 30
0.0
 11
2109.665756180084
 21
1076.320032305246
 31
0.0
  0
LINE
  5
62E
330
576
100
AcDbEntity
  8
0
  6
Continuous
 62
     8
370
    15
100
AcDbLine
 10
2114.686524828553
 20
1053.646050346753
 30
0.0
 11
2114.169856284036
 21
1053.31021526825
 31
0.0
  0
LINE
  5
62F
330
576
100
AcDbEntity
  8
0
  6
Continuous
 62
     8
370
    15
100
AcDbLine
 10
2113.582167556169
 20
1053.002468039234
 30
0.0
 11
2113.910428298265
 21
1053.215837854876
 31
0.0
  0
LINE
  5
630
330
576
100
AcDbEntity
  8
0
  6
Continuous
 62
     8
370
    15
100
AcDbLine
 10
2113.490318196655
 20
1052.69526431309
 30
0.0
 11
2114.678865263196
 21
1053.467821113061
 31
0.0
  0
ENDBLK
  5
578
330
576
100
AcDbEntity
  8
0
100
AcDbBlockEnd
  0
ENDSEC
  0
SECTION
  2
ENTITIES
  0
INSERT
  5
4F8
330
1F
100
AcDbEntity
  8
0
100
AcDbBlockReference
  2
1
 10
0.0
 20
0.0
 30
0.0
  0
INSERT
  5
552
330
1F
100
AcDbEntity
  8
0
100
AcDbBlockReference
  2
2
 10
0.0
 20
0.0
 30
0.0
  0
INSERT
  5
575
330
1F
100
AcDbEntity
  8
0
100
AcDbBlockReference
  2
3
 10
0.0
 20
0.0
 30
0.0
  0
INSERT
  5
631
330
1F
100
AcDbEntity
  8
0
100
AcDbBlockReference
  2
4
 10
0.0
 20
0.0
 30
0.0
  0
ENDSEC
  0
SECTION
  2
OBJECTS
  0
DICTIONARY
  5
C
330
0
100
AcDbDictionary
281
     1
  3
ACAD_COLOR
350
6B
  3
ACAD_GROUP
350
D
  3
ACAD_LAYOUT
350
1A
  3
ACAD_MATERIAL
350
6A
  3
ACAD_MLEADERSTYLE
350
12D
  3
ACAD_MLINESTYLE
350
17
  3
ACAD_PLOTSETTINGS
350
19
  3
ACAD_PLOTSTYLENAME
350
E
  3
ACAD_SCALELIST
350
10C
  3
ACAD_TABLESTYLE
350
7E
  3
ACAD_VISUALSTYLE
350
EF
  3
ACDB_RECOMPOSE_DATA
350
15D
  3
AcDbVariableDictionary
350
5E
  3
DWGPROPS
350
701
  0
DICTIONARY
  5
13C
330
10
100
AcDbDictionary
280
     1
281
     1
  3
ADSK_XREC_LAYER_RECONCILED
360
632
  0
DICTIONARY
  5
68A
330
4A7
100
AcDbDictionary
280
     1
281
     1
  0
DICTIONARY
  5
6EA
330
4F9
100
AcDbDictionary
280
     1
281
     1
  0
DICTIONARY
  5
6B
102
{ACAD_REACTORS
330
C
102
}
330
C
100
AcDbDictionary
281
     1
  0
DICTIONARY
  5
D
102
{ACAD_REACTORS
330
C
102
}
330
C
100
AcDbDictionary
281
     1
  0
DICTIONARY
  5
1A
102
{ACAD_REACTORS
330
C
102
}
330
C
100
AcDbDictionary
281
     1
  3
Layout1
350
D3
  3
Layout2
350
D7
  3
Model
350
22
  0
DICTIONARY
  5
6A
102
{ACAD_REACTORS
330
C
102
}
330
C
100
AcDbDictionary
281
     1
  3
ByBlock
350
ED
  3
ByLayer
350
EC
  3
Global
350
EE
  0
DICTIONARY
  5
12D
102
{ACAD_REACTORS
330
C
102
}
330
C
100
AcDbDictionary
281
     1
  3
Annotative
350
13B
  3
Standard
350
12E
  0
DICTIONARY
  5
17
102
{ACAD_REACTORS
330
C
102
}
330
C
100
AcDbDictionary
281
     1
  3
Standard
350
18
  0
DICTIONARY
  5
19
102
{ACAD_REACTORS
330
C
102
}
330
C
100
AcDbDictionary
281
     1
  0
ACDBDICTIONARYWDFLT
  5
E
102
{ACAD_REACTORS
330
C
102
}
330
C
100
AcDbDictionary
281
     1
  3
Normal
350
F
100
AcDbDictionaryWithDefault
340
F
  0
DICTIONARY
  5
10C
102
{ACAD_REACTORS
330
C
102
}
330
C
100
AcDbDictionary
281
     1
  3
A0
350
10D
  3
A1
350
188
  3
A2
350
189
  3
A3
350
18A
  3
A4
350
18B
  3
A5
350
18C
  3
A6
350
18D
  3
A7
350
18E
  3
A8
350
18F
  3
A9
350
190
  3
B0
350
191
  3
B1
350
192
  3
B2
350
193
  3
B3
350
194
  3
B4
350
195
  3
B5
350
196
  3
B6
350
197
  3
B7
350
198
  3
B8
350
199
  3
B9
350
19A
  3
C0
350
19B
  3
C1
350
19C
  3
C2
350
19D
  3
C3
350
19E
  3
C4
350
19F
  3
C5
350
1A0
  3
C6
350
1A1
  3
C7
350
1A2
  3
C8
350
1A3
  3
C9
350
1A4
  3
D0
350
1A5
  3
D1
350
1A6
  3
D2
350
1A7
  0
DICTIONARY
  5
7E
102
{ACAD_REACTORS
330
C
102
}
330
C
100
AcDbDictionary
281
     1
  3
Standard
350
7F
  0
DICTIONARY
  5
EF
102
{ACAD_REACTORS
330
C
102
}
330
C
100
AcDbDictionary
281
     1
  3
2dWireframe
350
F5
  3
3D Hidden
350
F7
  3
3dWireframe
350
F6
  3
Basic
350
F4
  3
Brighten
350
FB
  3
ColorChange
350
FF
  3
Conceptual
350
F8
  3
Dim
350
FA
  3
Facepattern
350
FE
  3
Flat
350
F0
  3
FlatWithEdges
350
F1
  3
Gouraud
350
F2
  3
GouraudWithEdges
350
F3
  3
Linepattern
350
FD
  3
Realistic
350
F9
  3
Thicken
350
FC
  0
XRECORD
  5
15D
102
{ACAD_REACTORS
330
C
102
}
330
C
100
AcDbXrecord
280
     1
 90
        1
330
7F
  0
DICTIONARY
  5
5E
102
{ACAD_REACTORS
330
C
102
}
330
C
100
AcDbDictionary
281
     1
  3
CANNOSCALE
350
146
  3
CMLEADERSTYLE
350
145
  3
CTABLESTYLE
350
84
  3
DIMASSOC
350
5F
  3
HIDETEXT
350
63
  3
INDEXCTL
350
6FD
  3
LIGHTINGUNITS
350
6FB
  3
MSLTSCALE
350
6FA
  3
PSOLHEIGHT
350
6FF
  3
PSOLWIDTH
350
6FE
  3
SORTENTS
350
6FC
  0
XRECORD
  5
701
102
{ACAD_REACTORS
330
C
102
}
330
C
100
AcDbXrecord
280
     1
  1
DWGPROPS COOKIE
  2

  3

  4

  6

  7

  8
orhan kara
  9

300
=
301
=
302
=
303
=
304
=
305
=
306
=
307
=
308
=
309
=
 40
0.0008011458333333
 41
2458445.562620289
 42
2458956.385784075
  1

 90
        0
  0
XRECORD
  5
632
102
{ACAD_REACTORS
330
13C
102
}
330
13C
100
AcDbXrecord
280
     1
290
     1
  0
LAYOUT
  5
D3
102
{ACAD_XDICTIONARY
360
705
102
}
102
{ACAD_REACTORS
330
1A
102
}
330
1A
100
AcDbPlotSettings
  1

  2
C:\Documents and Settings\basas\Application Data\Autodesk\AutoCAD 2005\R16.1\enu\plotters\Default Windows System Printer.pc3
  4

  6

 40
0.0
 41
0.0
 42
0.0
 43
0.0
 44
0.0
 45
0.0
 46
0.0
 47
0.0
 48
0.0
 49
0.0
140
0.0
141
0.0
142
1.0
143
1.0
 70
   688
 72
     0
 73
     0
 74
     5
  7

 75
    16
147
1.0
148
0.0
149
0.0
100
AcDbLayout
  1
Layout1
 70
     1
 71
     1
 10
0.0
 20
0.0
 11
12.0
 21
9.0
 12
0.0
 22
0.0
 32
0.0
 14
0.0
 24
0.0
 34
0.0
 15
0.0
 25
0.0
 35
0.0
146
0.0
 13
0.0
 23
0.0
 33
0.0
 16
1.0
 26
0.0
 36
0.0
 17
0.0
 27
1.0
 37
0.0
 76
     0
330
D2
  0
LAYOUT
  5
D7
102
{ACAD_XDICTIONARY
360
707
102
}
102
{ACAD_REACTORS
330
1A
102
}
330
1A
100
AcDbPlotSettings
  1

  2
C:\Documents and Settings\basas\Application Data\Autodesk\AutoCAD 2005\R16.1\enu\plotters\Default Windows System Printer.pc3
  4

  6

 40
0.0
 41
0.0
 42
0.0
 43
0.0
 44
0.0
 45
0.0
 46
0.0
 47
0.0
 48
0.0
 49
0.0
140
0.0
141
0.0
142
1.0
143
1.0
 70
   688
 72
     0
 73
     0
 74
     5
  7

 75
    16
147
1.0
148
0.0
149
0.0
100
AcDbLayout
  1
Layout2
 70
     1
 71
     2
 10
0.0
 20
0.0
 11
12.0
 21
9.0
 12
0.0
 22
0.0
 32
0.0
 14
0.0
 24
0.0
 34
0.0
 15
0.0
 25
0.0
 35
0.0
146
0.0
 13
0.0
 23
0.0
 33
0.0
 16
1.0
 26
0.0
 36
0.0
 17
0.0
 27
1.0
 37
0.0
 76
     0
330
D6
  0
LAYOUT
  5
22
102
{ACAD_XDICTIONARY
360
702
102
}
102
{ACAD_REACTORS
330
1A
102
}
330
1A
100
AcDbPlotSettings
  1

  2
none_device
  4
ISO_A4_(210.00_x_297.00_MM)
  6

 40
7.5
 41
20.0
 42
7.5
 43
20.0
 44
210.0
 45
297.0
 46
11.54999923706054
 47
-13.65000009536743
 48
0.0
 49
0.0
140
0.0
141
0.0
142
1.0
143
8.704084754739808
 70
 11952
 72
     1
 73
     0
 74
     0
  7

 75
     0
147
0.1148885871608098
148
0.0
149
0.0
100
AcDbLayout
  1
Model
 70
     1
 71
     0
 10
0.0
 20
0.0
 11
12.0
 21
9.0
 12
0.0
 22
0.0
 32
0.0
 14
0.0
 24
0.0
 34
0.0
 15
0.0
 25
0.0
 35
0.0
146
0.0
 13
0.0
 23
0.0
 33
0.0
 16
1.0
 26
0.0
 36
0.0
 17
0.0
 27
1.0
 37
0.0
 76
     0
330
1F
331
EA
1001
ACAD_PSEXT
1000
None
1000
None
1000
Not applicable
1000
The layout will not be plotted unless a new plotter configuration name is selected.
1070
     0
  0
MATERIAL
  5
ED
102
{ACAD_XDICTIONARY
360
70B
102
}
102
{ACAD_REACTORS
330
6A
102
}
330
6A
100
AcDbMaterial
  1
ByBlock
  0
MATERIAL
  5
EC
102
{ACAD_XDICTIONARY
360
709
102
}
102
{ACAD_REACTORS
330
6A
102
}
330
6A
100
AcDbMaterial
  1
ByLayer
  0
MATERIAL
  5
EE
102
{ACAD_XDICTIONARY
360
173
102
}
102
{ACAD_REACTORS
330
6A
102
}
330
6A
100
AcDbMaterial
  1
Global
 43
0.0007999999797903
 43
0.0
 43
0.0
 43
0.0
 43
0.0
 43
0.0007999999797903
 43
0.0
 43
0.0
 43
0.0
 43
0.0
 43
1.0
 43
0.0
 43
0.0
 43
0.0
 43
0.0
 43
1.0
 49
0.0007999999797903
 49
0.0
 49
0.0
 49
0.0
 49
0.0
 49
0.0007999999797903
 49
0.0
 49
0.0
 49
0.0
 49
0.0
 49
1.0
 49
0.0
 49
0.0
 49
0.0
 49
0.0
 49
1.0
142
0.0007999999797903
142
0.0
142
0.0
142
0.0
142
0.0
142
0.0007999999797903
142
0.0
142
0.0
142
0.0
142
0.0
142
1.0
142
0.0
142
0.0
142
0.0
142
0.0
142
1.0
144
0.0007999999797903
144
0.0
144
0.0
144
0.0
144
0.0
144
0.0007999999797903
144
0.0
144
0.0
144
0.0
144
0.0
144
1.0
144
0.0
144
0.0
144
0.0
144
0.0
144
1.0
1001
ACAD
1070
    -1
1070
     3
1070
     0
1000

1071
        0
1070
     0
  0
MLEADERSTYLE
  5
13B
102
{ACAD_REACTORS
330
12D
102
}
330
12D
100
AcDbMLeaderStyle
170
     2
171
     1
172
     0
 90
        2
 40
0.0
 41
0.0
173
     1
 91
-1056964608
340
14
 92
       -2
290
     1
 42
2.0
291
     1
 43
8.0
  3
Standard
 44
4.0
300

342
11
174
     1
178
     1
175
     1
176
     0
 93
-1056964608
 45
4.0
292
     0
297
     0
 46
4.0
 94
-1056964608
 47
1.0
 49
1.0
140
1.0
293
     1
141
0.0
294
     1
177
     0
142
1.0
295
     0
296
     1
143
3.75
1001
ACAD_MLEADERVER
1070
     2
  0
MLEADERSTYLE
  5
12E
102
{ACAD_REACTORS
330
12D
102
}
330
12D
100
AcDbMLeaderStyle
170
     2
171
     1
172
     0
 90
        2
 40
0.0
 41
0.0
173
     1
 91
-1056964608
340
14
 92
       -2
290
     1
 42
2.0
291
     1
 43
8.0
  3
Standard
 44
4.0
300

342
11
174
     1
178
     1
175
     1
176
     0
 93
-1056964608
 45
4.0
292
     0
297
     0
 46
4.0
 94
-1056964608
 47
1.0
 49
1.0
140
1.0
293
     1
141
0.0
294
     1
177
     0
142
1.0
295
     0
296
     0
143
3.75
1001
ACAD_MLEADERVER
1070
     2
  0
MLINESTYLE
  5
18
102
{ACAD_REACTORS
330
17
102
}
330
17
100
AcDbMlineStyle
  2
STANDARD
 70
     0
  3

 62
   256
 51
90.0
 52
90.0
 71
     2
 49
0.5
 62
   256
  6
BYLAYER
 49
-0.5
 62
   256
  6
BYLAYER
  0
ACDBPLACEHOLDER
  5
F
102
{ACAD_REACTORS
330
E
102
}
330
E
  0
SCALE
  5
10D
102
{ACAD_REACTORS
330
10C
102
}
330
10C
100
AcDbScale
 70
     0
300
1:1
140
1.0
141
1.0
290
     1
  0
SCALE
  5
188
102
{ACAD_REACTORS
330
10C
102
}
330
10C
100
AcDbScale
 70
     0
300
1:2
140
1.0
141
2.0
290
     0
  0
SCALE
  5
189
102
{ACAD_REACTORS
330
10C
102
}
330
10C
100
AcDbScale
 70
     0
300
1:4
140
1.0
141
4.0
290
     0
  0
SCALE
  5
18A
102
{ACAD_REACTORS
330
10C
102
}
330
10C
100
AcDbScale
 70
     0
300
1:5
140
1.0
141
5.0
290
     0
  0
SCALE
  5
18B
102
{ACAD_REACTORS
330
10C
102
}
330
10C
100
AcDbScale
 70
     0
300
1:8
140
1.0
141
8.0
290
     0
  0
SCALE
  5
18C
102
{ACAD_REACTORS
330
10C
102
}
330
10C
100
AcDbScale
 70
     0
300
1:10
140
1.0
141
10.0
290
     0
  0
SCALE
  5
18D
102
{ACAD_REACTORS
330
10C
102
}
330
10C
100
AcDbScale
 70
     0
300
1:16
140
1.0
141
16.0
290
     0
  0
SCALE
  5
18E
102
{ACAD_REACTORS
330
10C
102
}
330
10C
100
AcDbScale
 70
     0
300
1:20
140
1.0
141
20.0
290
     0
  0
SCALE
  5
18F
102
{ACAD_REACTORS
330
10C
102
}
330
10C
100
AcDbScale
 70
     0
300
1:30
140
1.0
141
30.0
290
     0
  0
SCALE
  5
190
102
{ACAD_REACTORS
330
10C
102
}
330
10C
100
AcDbScale
 70
     0
300
1:40
140
1.0
141
40.0
290
     0
  0
SCALE
  5
191
102
{ACAD_REACTORS
330
10C
102
}
330
10C
100
AcDbScale
 70
     0
300
1:50
140
1.0
141
50.0
290
     0
  0
SCALE
  5
192
102
{ACAD_REACTORS
330
10C
102
}
330
10C
100
AcDbScale
 70
     0
300
1:100
140
1.0
141
100.0
290
     0
  0
SCALE
  5
193
102
{ACAD_REACTORS
330
10C
102
}
330
10C
100
AcDbScale
 70
     0
300
2:1
140
2.0
141
1.0
290
     0
  0
SCALE
  5
194
102
{ACAD_REACTORS
330
10C
102
}
330
10C
100
AcDbScale
 70
     0
300
4:1
140
4.0
141
1.0
290
     0
  0
SCALE
  5
195
102
{ACAD_REACTORS
330
10C
102
}
330
10C
100
AcDbScale
 70
     0
300
8:1
140
8.0
141
1.0
290
     0
  0
SCALE
  5
196
102
{ACAD_REACTORS
330
10C
102
}
330
10C
100
AcDbScale
 70
     0
300
10:1
140
10.0
141
1.0
290
     0
  0
SCALE
  5
197
102
{ACAD_REACTORS
330
10C
102
}
330
10C
100
AcDbScale
 70
     0
300
100:1
140
100.0
141
1.0
290
     0
  0
SCALE
  5
198
102
{ACAD_REACTORS
330
10C
102
}
330
10C
100
AcDbScale
 70
     0
300
1/128" = 1'-0"
140
0.0078125
141
12.0
290
     0
  0
SCALE
  5
199
102
{ACAD_REACTORS
330
10C
102
}
330
10C
100
AcDbScale
 70
     0
300
1/64" = 1'-0"
140
0.015625
141
12.0
290
     0
  0
SCALE
  5
19A
102
{ACAD_REACTORS
330
10C
102
}
330
10C
100
AcDbScale
 70
     0
300
1/32" = 1'-0"
140
0.03125
141
12.0
290
     0
  0
SCALE
  5
19B
102
{ACAD_REACTORS
330
10C
102
}
330
10C
100
AcDbScale
 70
     0
300
1/16" = 1'-0"
140
0.0625
141
12.0
290
     0
  0
SCALE
  5
19C
102
{ACAD_REACTORS
330
10C
102
}
330
10C
100
AcDbScale
 70
     0
300
3/32" = 1'-0"
140
0.09375
141
12.0
290
     0
  0
SCALE
  5
19D
102
{ACAD_REACTORS
330
10C
102
}
330
10C
100
AcDbScale
 70
     0
300
1/8" = 1'-0"
140
0.125
141
12.0
290
     0
  0
SCALE
  5
19E
102
{ACAD_REACTORS
330
10C
102
}
330
10C
100
AcDbScale
 70
     0
300
3/16" = 1'-0"
140
0.1875
141
12.0
290
     0
  0
SCALE
  5
19F
102
{ACAD_REACTORS
330
10C
102
}
330
10C
100
AcDbScale
 70
     0
300
1/4" = 1'-0"
140
0.25
141
12.0
290
     0
  0
SCALE
  5
1A0
102
{ACAD_REACTORS
330
10C
102
}
330
10C
100
AcDbScale
 70
     0
300
3/8" = 1'-0"
140
0.375
141
12.0
290
     0
  0
SCALE
  5
1A1
102
{ACAD_REACTORS
330
10C
102
}
330
10C
100
AcDbScale
 70
     0
300
1/2" = 1'-0"
140
0.5
141
12.0
290
     0
  0
SCALE
  5
1A2
102
{ACAD_REACTORS
330
10C
102
}
330
10C
100
AcDbScale
 70
     0
300
3/4" = 1'-0"
140
0.75
141
12.0
290
     0
  0
SCALE
  5
1A3
102
{ACAD_REACTORS
330
10C
102
}
330
10C
100
AcDbScale
 70
     0
300
1" = 1'-0"
140
1.0
141
12.0
290
     0
  0
SCALE
  5
1A4
102
{ACAD_REACTORS
330
10C
102
}
330
10C
100
AcDbScale
 70
     0
300
1-1/2" = 1'-0"
140
1.5
141
12.0
290
     0
  0
SCALE
  5
1A5
102
{ACAD_REACTORS
330
10C
102
}
330
10C
100
AcDbScale
 70
     0
300
3" = 1'-0"
140
3.0
141
12.0
290
     0
  0
SCALE
  5
1A6
102
{ACAD_REACTORS
330
10C
102
}
330
10C
100
AcDbScale
 70
     0
300
6" = 1'-0"
140
6.0
141
12.0
290
     0
  0
SCALE
  5
1A7
102
{ACAD_REACTORS
330
10C
102
}
330
10C
100
AcDbScale
 70
     0
300
1'-0" = 1'-0"
140
12.0
141
12.0
290
     0
  0
TABLESTYLE
  5
7F
102
{ACAD_XDICTIONARY
360
162
102
}
102
{ACAD_REACTORS
330
7E
102
}
330
7E
100
AcDbTableStyle
  3
Standard
 70
     0
 71
     0
 40
1.5
 41
1.5
280
     0
281
     0
  7
Standard
140
4.5
170
     2
 62
     0
 63
     7
283
     0
274
    -2
284
     1
 64
     0
275
    -2
285
     1
 65
     0
276
    -2
286
     1
 66
     0
277
    -2
287
     1
 67
     0
278
    -2
288
     1
 68
     0
279
    -2
289
     1
 69
     0
  7
Standard
140
6.0
170
     5
 62
     0
 63
     7
283
     0
274
    -2
284
     1
 64
     0
275
    -2
285
     1
 65
     0
276
    -2
286
     1
 66
     0
277
    -2
287
     1
 67
     0
278
    -2
288
     1
 68
     0
279
    -2
289
     1
 69
     0
  7
Standard
140
4.5
170
     5
 62
     0
 63
     7
283
     0
274
    -2
284
     1
 64
     0
275
    -2
285
     1
 65
     0
276
    -2
286
     1
 66
     0
277
    -2
287
     1
 67
     0
278
    -2
288
     1
 68
     0
279
    -2
289
     1
 69
     0
  0
VISUALSTYLE
  5
F5
102
{ACAD_REACTORS
330
EF
102
}
330
EF
100
AcDbVisualStyle
  2
2dWireframe
 70
     4
 71
     0
 72
     2
 73
     1
 90
        0
 40
-0.6
 41
-30.0
 62
     5
 63
     7
 74
     1
 91
        4
 64
     7
 65
   257
 75
     1
175
     1
 42
1.0
 92
        0
 66
   257
 43
1.0
 76
     1
 77
     6
 78
     2
 67
     7
 79
     5
170
     0
171
     0
290
     0
174
     0
 93
        1
 44
0.0
173
     0
291
     0
 45
0.0
1001
ACAD
1000
AcDbSavedByObjectVersion
1070
     0
  0
VISUALSTYLE
  5
F7
102
{ACAD_REACTORS
330
EF
102
}
330
EF
100
AcDbVisualStyle
  2
3D Hidden
 70
     6
 71
     1
 72
     2
 73
     2
 90
        0
 40
-0.6
 41
-30.0
 62
     5
 63
     7
 74
     2
 91
        2
 64
     7
 65
   257
 75
     2
175
     1
 42
40.0
 92
        0
 66
   257
 43
1.0
 76
     1
 77
     6
 78
     2
 67
     7
 79
     3
170
     0
171
     0
290
     0
174
     0
 93
        1
 44
0.0
173
     0
291
     0
 45
0.0
1001
ACAD
1000
AcDbSavedByObjectVersion
1070
     0
  0
VISUALSTYLE
  5
F6
102
{ACAD_REACTORS
330
EF
102
}
330
EF
100
AcDbVisualStyle
  2
3dWireframe
 70
     5
 71
     0
 72
     2
 73
     1
 90
        0
 40
-0.6
 41
-30.0
 62
     5
 63
     7
 74
     1
 91
        4
 64
     7
 65
   257
 75
     1
175
     1
 42
1.0
 92
        0
 66
   257
 43
1.0
 76
     1
 77
     6
 78
     2
 67
     7
 79
     5
170
     0
171
     0
290
     0
174
     0
 93
        1
 44
0.0
173
     0
291
     0
 45
0.0
1001
ACAD
1000
AcDbSavedByObjectVersion
1070
     0
  0
VISUALSTYLE
  5
F4
102
{ACAD_REACTORS
330
EF
102
}
330
EF
100
AcDbVisualStyle
  2
Basic
 70
     7
 71
     1
 72
     0
 73
     1
 90
        0
 40
-0.6
 41
-30.0
 62
     5
 63
     7
 74
     0
 91
        4
 64
     7
 65
   257
 75
     1
175
     1
 42
1.0
 92
        8
 66
     7
 43
1.0
 76
     1
 77
     6
 78
     2
 67
     7
 79
     5
170
     0
171
     0
290
     0
174
     0
 93
        1
 44
0.0
173
     0
291
     1
 45
0.0
1001
ACAD
1000
AcDbSavedByObjectVersion
1070
     0
  0
VISUALSTYLE
  5
FB
102
{ACAD_REACTORS
330
EF
102
}
330
EF
100
AcDbVisualStyle
  2
Brighten
 70
    12
 71
     2
 72
     2
 73
     1
 90
        0
 40
-0.6
 41
-30.0
 62
     5
 63
     7
 74
     1
 91
        4
 64
     7
 65
   257
 75
     1
175
     1
 42
1.0
 92
        8
 66
     7
 43
1.0
 76
     1
 77
     6
 78
     2
 67
     7
 79
     5
170
     0
171
     0
290
     0
174
     0
 93
        1
 44
50.0
173
     0
291
     1
 45
0.0
1001
ACAD
1000
AcDbSavedByObjectVersion
1070
     0
  0
VISUALSTYLE
  5
FF
102
{ACAD_REACTORS
330
EF
102
}
330
EF
100
AcDbVisualStyle
  2
ColorChange
 70
    16
 71
     2
 72
     2
 73
     3
 90
        0
 40
-0.6
 41
-30.0
 62
     5
 63
     8
 74
     1
 91
        4
 64
     7
 65
   257
 75
     1
175
     1
 42
1.0
 92
        8
 66
     8
 43
1.0
 76
     1
 77
     6
 78
     2
 67
     7
 79
     5
170
     0
171
     0
290
     0
174
     0
 93
        1
 44
0.0
173
     0
291
     1
 45
0.0
1001
ACAD
1000
AcDbSavedByObjectVersion
1070
     0
  0
VISUALSTYLE
  5
F8
102
{ACAD_REACTORS
330
EF
102
}
330
EF
100
AcDbVisualStyle
  2
Conceptual
 70
     9
 71
     3
 72
     2
 73
     1
 90
        0
 40
-0.6
 41
-30.0
 62
     5
 63
     7
 74
     2
 91
        2
 64
     7
 65
   257
 75
     1
175
     1
 42
40.0
 92
        8
 66
     7
 43
1.0
 76
     1
 77
     6
 78
     2
 67
     7
 79
     3
170
     0
171
     0
290
     0
174
     0
 93
        1
 44
0.0
173
     0
291
     0
 45
0.0
1001
ACAD
1000
AcDbSavedByObjectVersion
1070
     0
  0
VISUALSTYLE
  5
FA
102
{ACAD_REACTORS
330
EF
102
}
330
EF
100
AcDbVisualStyle
  2
Dim
 70
    11
 71
     2
 72
     2
 73
     1
 90
        0
 40
-0.6
 41
-30.0
 62
     5
 63
     7
 74
     1
 91
        4
 64
     7
 65
   257
 75
     1
175
     1
 42
1.0
 92
        8
 66
     7
 43
1.0
 76
     1
 77
     6
 78
     2
 67
     7
 79
     5
170
     0
171
     0
290
     0
174
     0
 93
        1
 44
-50.0
173
     0
291
     1
 45
0.0
1001
ACAD
1000
AcDbSavedByObjectVersion
1070
     0
  0
VISUALSTYLE
  5
FE
102
{ACAD_REACTORS
330
EF
102
}
330
EF
100
AcDbVisualStyle
  2
Facepattern
 70
    15
 71
     2
 72
     2
 73
     1
 90
        0
 40
-0.6
 41
-30.0
 62
     5
 63
     7
 74
     1
 91
        4
 64
     7
 65
   257
 75
     1
175
     1
 42
1.0
 92
        8
 66
     7
 43
1.0
 76
     1
 77
     6
 78
     2
 67
     7
 79
     5
170
     0
171
     0
290
     0
174
     0
 93
        1
 44
0.0
173
     0
291
     1
 45
0.0
1001
ACAD
1000
AcDbSavedByObjectVersion
1070
     0
  0
VISUALSTYLE
  5
F0
102
{ACAD_REACTORS
330
EF
102
}
330
EF
100
AcDbVisualStyle
  2
Flat
 70
     0
 71
     2
 72
     1
 73
     1
 90
        2
 40
-0.6
 41
30.0
 62
     5
 63
     7
 74
     0
 91
        4
 64
     7
 65
   257
 75
     1
175
     1
 42
1.0
 92
        8
 66
     7
 43
1.0
 76
     1
 77
     6
 78
     2
 67
     7
 79
     5
170
     0
171
     0
290
     0
174
     0
 93
        1
 44
0.0
173
     0
291
     1
 45
0.0
1001
ACAD
1000
AcDbSavedByObjectVersion
1070
     0
  0
VISUALSTYLE
  5
F1
102
{ACAD_REACTORS
330
EF
102
}
330
EF
100
AcDbVisualStyle
  2
FlatWithEdges
 70
     1
 71
     2
 72
     1
 73
     1
 90
        2
 40
-0.6
 41
30.0
 62
     5
 63
     7
 74
     1
 91
        4
 64
     7
 65
   257
 75
     1
175
     1
 42
1.0
 92
        0
 66
   257
 43
1.0
 76
     1
 77
     6
 78
     2
 67
     7
 79
     5
170
     0
171
     0
290
     0
174
     0
 93
        1
 44
0.0
173
     0
291
     1
 45
0.0
1001
ACAD
1000
AcDbSavedByObjectVersion
1070
     0
  0
VISUALSTYLE
  5
F2
102
{ACAD_REACTORS
330
EF
102
}
330
EF
100
AcDbVisualStyle
  2
Gouraud
 70
     2
 71
     2
 72
     2
 73
     1
 90
        2
 40
-0.6
 41
30.0
 62
     5
 63
     7
 74
     0
 91
        4
 64
     7
 65
   257
 75
     1
175
     1
 42
1.0
 92
        0
 66
     7
 43
1.0
 76
     1
 77
     6
 78
     2
 67
     7
 79
     5
170
     0
171
     0
290
     0
174
     0
 93
        1
 44
0.0
173
     0
291
     1
 45
0.0
1001
ACAD
1000
AcDbSavedByObjectVersion
1070
     0
  0
VISUALSTYLE
  5
F3
102
{ACAD_REACTORS
330
EF
102
}
330
EF
100
AcDbVisualStyle
  2
GouraudWithEdges
 70
     3
 71
     2
 72
     2
 73
     1
 90
        2
 40
-0.6
 41
30.0
 62
     5
 63
     7
 74
     1
 91
        4
 64
     7
 65
   257
 75
     1
175
     1
 42
1.0
 92
        0
 66
   257
 43
1.0
 76
     1
 77
     6
 78
     2
 67
     7
 79
     5
170
     0
171
     0
290
     0
174
     0
 93
        1
 44
0.0
173
     0
291
     1
 45
0.0
1001
ACAD
1000
AcDbSavedByObjectVersion
1070
     0
  0
VISUALSTYLE
  5
FD
102
{ACAD_REACTORS
330
EF
102
}
330
EF
100
AcDbVisualStyle
  2
Linepattern
 70
    14
 71
     2
 72
     2
 73
     1
 90
        0
 40
-0.6
 41
-30.0
 62
     5
 63
     7
 74
     1
 91
        4
 64
     7
 65
   257
 75
     7
175
     7
 42
1.0
 92
        8
 66
     7
 43
1.0
 76
     1
 77
     6
 78
     2
 67
     7
 79
     5
170
     0
171
     0
290
     0
174
     0
 93
        1
 44
0.0
173
     0
291
     1
 45
0.0
1001
ACAD
1000
AcDbSavedByObjectVersion
1070
     0
  0
VISUALSTYLE
  5
F9
102
{ACAD_REACTORS
330
EF
102
}
330
EF
100
AcDbVisualStyle
  2
Realistic
 70
     8
 71
     2
 72
     2
 73
     1
 90
        0
 40
-0.6
 41
-30.0
 62
     5
 63
     7
 74
     1
 91
        0
 64
     7
 65
   257
 75
     1
175
     1
 42
1.0
 92
        8
 66
     8
 43
1.0
 76
     1
 77
     6
 78
     2
 67
     7
 79
     5
170
     0
171
     0
290
     0
174
     0
 93
       13
 44
0.0
173
     0
291
     0
 45
0.0
1001
ACAD
1000
AcDbSavedByObjectVersion
1070
     0
  0
VISUALSTYLE
  5
FC
102
{ACAD_REACTORS
330
EF
102
}
330
EF
100
AcDbVisualStyle
  2
Thicken
 70
    13
 71
     2
 72
     2
 73
     1
 90
        0
 40
-0.6
 41
-30.0
 62
     5
 63
     7
 74
     1
 91
        4
 64
     7
 65
   257
 75
     1
175
     1
 42
1.0
 92
       12
 66
     7
 43
1.0
 76
     1
 77
     6
 78
     2
 67
     7
 79
     5
170
     0
171
     0
290
     0
174
     0
 93
        1
 44
0.0
173
     0
291
     1
 45
0.0
1001
ACAD
1000
AcDbSavedByObjectVersion
1070
     0
  0
DICTIONARYVAR
  5
146
102
{ACAD_REACTORS
330
5E
102
}
330
5E
100
DictionaryVariables
280
     0
  1
1:1
  0
DICTIONARYVAR
  5
145
102
{ACAD_REACTORS
330
5E
102
}
330
5E
100
DictionaryVariables
280
     0
  1
STANDARD
  0
DICTIONARYVAR
  5
84
102
{ACAD_REACTORS
330
5E
102
}
330
5E
100
DictionaryVariables
280
     0
  1
STANDARD
  0
DICTIONARYVAR
  5
5F
102
{ACAD_REACTORS
330
5E
102
}
330
5E
100
DictionaryVariables
280
     0
  1
2
  0
DICTIONARYVAR
  5
63
102
{ACAD_REACTORS
330
5E
102
}
330
5E
100
DictionaryVariables
280
     0
  1
1
  0
DICTIONARYVAR
  5
6FD
102
{ACAD_REACTORS
330
5E
102
}
330
5E
100
DictionaryVariables
280
     0
  1
0
  0
DICTIONARYVAR
  5
6FB
102
{ACAD_REACTORS
330
5E
102
}
330
5E
100
DictionaryVariables
280
     0
  1
2
  0
DICTIONARYVAR
  5
6FA
102
{ACAD_REACTORS
330
5E
102
}
330
5E
100
DictionaryVariables
280
     0
  1
1
  0
DICTIONARYVAR
  5
6FF
102
{ACAD_REACTORS
330
5E
102
}
330
5E
100
DictionaryVariables
280
     0
  1
80.000000
  0
DICTIONARYVAR
  5
6FE
102
{ACAD_REACTORS
330
5E
102
}
330
5E
100
DictionaryVariables
280
     0
  1
5.000000
  0
DICTIONARYVAR
  5
6FC
102
{ACAD_REACTORS
330
5E
102
}
330
5E
100
DictionaryVariables
280
     0
  1
127
  0
DICTIONARY
  5
705
330
D3
100
AcDbDictionary
280
     1
281
     1
  3
ACAD_XREC_ROUNDTRIP
360
706
  0
DICTIONARY
  5
707
330
D7
100
AcDbDictionary
280
     1
281
     1
  3
ACAD_XREC_ROUNDTRIP
360
708
  0
DICTIONARY
  5
702
330
22
100
AcDbDictionary
280
     1
281
     1
  3
ACAD_XREC_ROUNDTRIP
360
703
  0
DICTIONARY
  5
70B
330
ED
100
AcDbDictionary
280
     1
281
     1
  3
ACAD_XREC_ROUNDTRIP
360
70C
  0
DICTIONARY
  5
709
330
EC
100
AcDbDictionary
280
     1
281
     1
  3
ACAD_XREC_ROUNDTRIP
360
70A
  0
DICTIONARY
  5
173
330
EE
100
AcDbDictionary
280
     1
281
     1
  3
ACAD_XREC_ROUNDTRIP
360
70D
  3
BUMPTILE
360
175
  3
DIFFUSETILE
360
174
  3
OPACITYTILE
360
176
  3
REFLECTIONTILE
360
177
  0
DICTIONARY
  5
162
330
7F
100
AcDbDictionary
280
     1
281
     1
  3
ACAD_ROUNDTRIP_2008_TABLESTYLE_CELLSTYLEMAP
360
700
  3
ACAD_XREC_ROUNDTRIP
360
704
  0
XRECORD
  5
706
102
{ACAD_REACTORS
330
705
102
}
330
705
100
AcDbXrecord
280
     1
102
SHADEPLOT
 70
     0
102
SHADEPLOTRESLEVEL
 70
     2
102
SHADEPLOTCUSTOMDPI
 70
   300
  0
XRECORD
  5
708
102
{ACAD_REACTORS
330
707
102
}
330
707
100
AcDbXrecord
280
     1
102
SHADEPLOT
 70
     0
102
SHADEPLOTRESLEVEL
 70
     2
102
SHADEPLOTCUSTOMDPI
 70
   300
  0
XRECORD
  5
703
102
{ACAD_REACTORS
330
702
102
}
330
702
100
AcDbXrecord
280
     1
102
SHADEPLOT
 70
     0
102
SHADEPLOTRESLEVEL
 70
     2
102
SHADEPLOTCUSTOMDPI
 70
   300
  0
XRECORD
  5
70C
102
{ACAD_REACTORS
330
70B
102
}
330
70B
100
AcDbXrecord
280
     1
102
MATERIAL
148
0.0
149
0.0
149
0.0
 93
        0
 94
       63
282
     0
 72
     1
 77
     1
171
     1
175
     1
179
     1
273
     0
  0
XRECORD
  5
70A
102
{ACAD_REACTORS
330
709
102
}
330
709
100
AcDbXrecord
280
     1
102
MATERIAL
148
0.0
149
0.0
149
0.0
 93
        0
 94
       63
282
     0
 72
     1
 77
     1
171
     1
175
     1
179
     1
273
     0
  0
XRECORD
  5
70D
102
{ACAD_REACTORS
330
173
102
}
330
173
100
AcDbXrecord
280
     1
102
MATERIAL
148
0.0
149
0.0
149
0.0
 93
        0
 94
       63
282
     0
 72
     1
 77
     1
171
     1
175
     1
179
     1
273
     0
  0
XRECORD
  5
175
102
{ACAD_REACTORS
330
173
102
}
330
173
100
AcDbXrecord
280
     1
270
     1
271
     1
  0
XRECORD
  5
174
102
{ACAD_REACTORS
330
173
102
}
330
173
100
AcDbXrecord
280
     1
270
     1
271
     1
  0
XRECORD
  5
176
102
{ACAD_REACTORS
330
173
102
}
330
173
100
AcDbXrecord
280
     1
270
     1
271
     1
  0
XRECORD
  5
177
102
{ACAD_REACTORS
330
173
102
}
330
173
100
AcDbXrecord
280
     1
270
     1
271
     1
  0
CELLSTYLEMAP
  5
700
102
{ACAD_REACTORS
330
162
102
}
330
162
100
AcDbCellStyleMap
 90
        3
300
CELLSTYLE
  1
TABLEFORMAT_BEGIN
 90
        5
170
     1
 91
        0
 92
    32768
 62
   257
 93
        1
300
CONTENTFORMAT
  1
CONTENTFORMAT_BEGIN
 90
        0
 91
        0
 92
      512
 93
        0
300

 40
0.0
140
1.0
 94
        5
 62
     0
340
11
144
6.0
309
CONTENTFORMAT_END
171
     1
301
MARGIN
  1
CELLMARGIN_BEGIN
 40
1.5
 40
1.5
 40
1.5
 40
1.5
 40
4.5
 40
4.5
309
CELLMARGIN_END
 94
        6
 95
        1
302
GRIDFORMAT
  1
GRIDFORMAT_BEGIN
 90
        0
 91
        1
 62
     0
 92
       -2
340
14
 93
        0
 40
1.125
309
GRIDFORMAT_END
 95
        2
302
GRIDFORMAT
  1
GRIDFORMAT_BEGIN
 90
        0
 91
        1
 62
     0
 92
       -2
340
14
 93
        0
 40
1.125
309
GRIDFORMAT_END
 95
        4
302
GRIDFORMAT
  1
GRIDFORMAT_BEGIN
 90
        0
 91
        1
 62
     0
 92
       -2
340
14
 93
        0
 40
1.125
309
GRIDFORMAT_END
 95
        8
302
GRIDFORMAT
  1
GRIDFORMAT_BEGIN
 90
        0
 91
        1
 62
     0
 92
       -2
340
14
 93
        0
 40
1.125
309
GRIDFORMAT_END
 95
       16
302
GRIDFORMAT
  1
GRIDFORMAT_BEGIN
 90
        0
 91
        1
 62
     0
 92
       -2
340
14
 93
        0
 40
1.125
309
GRIDFORMAT_END
 95
       32
302
GRIDFORMAT
  1
GRIDFORMAT_BEGIN
 90
        0
 91
        1
 62
     0
 92
       -2
340
14
 93
        0
 40
1.125
309
GRIDFORMAT_END
309
TABLEFORMAT_END
  1
CELLSTYLE_BEGIN
 90
        1
 91
        1
300
_TITLE
309
CELLSTYLE_END
300
CELLSTYLE
  1
TABLEFORMAT_BEGIN
 90
        5
170
     1
 91
        0
 92
        0
 62
   257
 93
        1
300
CONTENTFORMAT
  1
CONTENTFORMAT_BEGIN
 90
        0
 91
        0
 92
      512
 93
        0
300

 40
0.0
140
1.0
 94
        5
 62
     0
340
11
144
4.5
309
CONTENTFORMAT_END
171
     1
301
MARGIN
  1
CELLMARGIN_BEGIN
 40
1.5
 40
1.5
 40
1.5
 40
1.5
 40
4.5
 40
4.5
309
CELLMARGIN_END
 94
        6
 95
        1
302
GRIDFORMAT
  1
GRIDFORMAT_BEGIN
 90
        0
 91
        1
 62
     0
 92
       -2
340
14
 93
        0
 40
1.125
309
GRIDFORMAT_END
 95
        2
302
GRIDFORMAT
  1
GRIDFORMAT_BEGIN
 90
        0
 91
        1
 62
     0
 92
       -2
340
14
 93
        0
 40
1.125
309
GRIDFORMAT_END
 95
        4
302
GRIDFORMAT
  1
GRIDFORMAT_BEGIN
 90
        0
 91
        1
 62
     0
 92
       -2
340
14
 93
        0
 40
1.125
309
GRIDFORMAT_END
 95
        8
302
GRIDFORMAT
  1
GRIDFORMAT_BEGIN
 90
        0
 91
        1
 62
     0
 92
       -2
340
14
 93
        0
 40
1.125
309
GRIDFORMAT_END
 95
       16
302
GRIDFORMAT
  1
GRIDFORMAT_BEGIN
 90
        0
 91
        1
 62
     0
 92
       -2
340
14
 93
        0
 40
1.125
309
GRIDFORMAT_END
 95
       32
302
GRIDFORMAT
  1
GRIDFORMAT_BEGIN
 90
        0
 91
        1
 62
     0
 92
       -2
340
14
 93
        0
 40
1.125
309
GRIDFORMAT_END
309
TABLEFORMAT_END
  1
CELLSTYLE_BEGIN
 90
        2
 91
        1
300
_HEADER
309
CELLSTYLE_END
300
CELLSTYLE
  1
TABLEFORMAT_BEGIN
 90
        5
170
     1
 91
        0
 92
        0
 62
   257
 93
        1
300
CONTENTFORMAT
  1
CONTENTFORMAT_BEGIN
 90
        0
 91
        0
 92
      512
 93
        0
300

 40
0.0
140
1.0
 94
        2
 62
     0
340
11
144
4.5
309
CONTENTFORMAT_END
171
     1
301
MARGIN
  1
CELLMARGIN_BEGIN
 40
1.5
 40
1.5
 40
1.5
 40
1.5
 40
4.5
 40
4.5
309
CELLMARGIN_END
 94
        6
 95
        1
302
GRIDFORMAT
  1
GRIDFORMAT_BEGIN
 90
        0
 91
        1
 62
     0
 92
       -2
340
14
 93
        0
 40
1.125
309
GRIDFORMAT_END
 95
        2
302
GRIDFORMAT
  1
GRIDFORMAT_BEGIN
 90
        0
 91
        1
 62
     0
 92
       -2
340
14
 93
        0
 40
1.125
309
GRIDFORMAT_END
 95
        4
302
GRIDFORMAT
  1
GRIDFORMAT_BEGIN
 90
        0
 91
        1
 62
     0
 92
       -2
340
14
 93
        0
 40
1.125
309
GRIDFORMAT_END
 95
        8
302
GRIDFORMAT
  1
GRIDFORMAT_BEGIN
 90
        0
 91
        1
 62
     0
 92
       -2
340
14
 93
        0
 40
1.125
309
GRIDFORMAT_END
 95
       16
302
GRIDFORMAT
  1
GRIDFORMAT_BEGIN
 90
        0
 91
        1
 62
     0
 92
       -2
340
14
 93
        0
 40
1.125
309
GRIDFORMAT_END
 95
       32
302
GRIDFORMAT
  1
GRIDFORMAT_BEGIN
 90
        0
 91
        1
 62
     0
 92
       -2
340
14
 93
        0
 40
1.125
309
GRIDFORMAT_END
309
TABLEFORMAT_END
  1
CELLSTYLE_BEGIN
 90
        3
 91
        2
300
_DATA
309
CELLSTYLE_END
  0
XRECORD
  5
704
102
{ACAD_REACTORS
330
162
102
}
330
162
100
AcDbXrecord
280
     1
102
ACAD_ROUNDTRIP_PRE2007_TABLESTYLE
 90
      512
 91
        0
  1

 92
      512
 93
        0
  2

 94
      512
 95
        0
  3

  0
ENDSEC
  0
EOF
