  0
SECTION
  2
HEADER
  9
$ACADVER
  1
AC1015
  9
$ACADMAINTVER
 70
    20
  9
$DWGCODEPAGE
  3
ANSI_1254
  9
$INSBASE
 10
0.0
 20
0.0
 30
0.0
  9
$EXTMIN
 10
1816.231894166603
 20
1001.519624651681
 30
0.0
  9
$EXTMAX
 10
1887.723204945947
 20
1047.759401657041
 30
0.0
  9
$LIMMIN
 10
0.0
 20
0.0
  9
$LIMMAX
 10
420.0
 20
297.0
  9
$ORTHOMODE
 70
     1
  9
$REGENMODE
 70
     1
  9
$FILLMODE
 70
     1
  9
$QTEXTMODE
 70
     0
  9
$MIRRTEXT
 70
     0
  9
$LTSCALE
 40
1.0
  9
$ATTMODE
 70
     1
  9
$TEXTSIZE
 40
2.5
  9
$TRACEWID
 40
1.0
  9
$TEXTSTYLE
  7
Standard
  9
$CLAYER
  8
0
  9
$CELTYPE
  6
ByLayer
  9
$CECOLOR
 62
   256
  9
$CELTSCALE
 40
1.0
  9
$DISPSILH
 70
     0
  9
$DIMSCALE
 40
1.0
  9
$DIMASZ
 40
2.5
  9
$DIMEXO
 40
0.625
  9
$DIMDLI
 40
3.75
  9
$DIMRND
 40
0.0
  9
$DIMDLE
 40
0.0
  9
$DIMEXE
 40
1.25
  9
$DIMTP
 40
0.0
  9
$DIMTM
 40
0.0
  9
$DIMTXT
 40
2.5
  9
$DIMCEN
 40
2.5
  9
$DIMTSZ
 40
0.0
  9
$DIMTOL
 70
     0
  9
$DIMLIM
 70
     0
  9
$DIMTIH
 70
     0
  9
$DIMTOH
 70
     0
  9
$DIMSE1
 70
     0
  9
$DIMSE2
 70
     0
  9
$DIMTAD
 70
     1
  9
$DIMZIN
 70
     8
  9
$DIMBLK
  1

  9
$DIMASO
 70
     1
  9
$DIMSHO
 70
     1
  9
$DIMPOST
  1

  9
$DIMAPOST
  1

  9
$DIMALT
 70
     0
  9
$DIMALTD
 70
     3
  9
$DIMALTF
 40
0.03937007874016
  9
$DIMLFAC
 40
1.0
  9
$DIMTOFL
 70
     1
  9
$DIMTVP
 40
0.0
  9
$DIMTIX
 70
     0
  9
$DIMSOXD
 70
     0
  9
$DIMSAH
 70
     0
  9
$DIMBLK1
  1

  9
$DIMBLK2
  1

  9
$DIMSTYLE
  2
ISO-25
  9
$DIMCLRD
 70
     0
  9
$DIMCLRE
 70
     0
  9
$DIMCLRT
 70
     0
  9
$DIMTFAC
 40
1.0
  9
$DIMGAP
 40
0.625
  9
$DIMJUST
 70
     0
  9
$DIMSD1
 70
     0
  9
$DIMSD2
 70
     0
  9
$DIMTOLJ
 70
     0
  9
$DIMTZIN
 70
     8
  9
$DIMALTZ
 70
     0
  9
$DIMALTTZ
 70
     0
  9
$DIMUPT
 70
     0
  9
$DIMDEC
 70
     2
  9
$DIMTDEC
 70
     2
  9
$DIMALTU
 70
     2
  9
$DIMALTTD
 70
     3
  9
$DIMTXSTY
  7
Standard
  9
$DIMAUNIT
 70
     0
  9
$DIMADEC
 70
     0
  9
$DIMALTRND
 40
0.0
  9
$DIMAZIN
 70
     0
  9
$DIMDSEP
 70
    44
  9
$DIMATFIT
 70
     3
  9
$DIMFRAC
 70
     0
  9
$DIMLDRBLK
  1

  9
$DIMLUNIT
 70
     2
  9
$DIMLWD
 70
    -2
  9
$DIMLWE
 70
    -2
  9
$DIMTMOVE
 70
     0
  9
$LUNITS
 70
     2
  9
$LUPREC
 70
     4
  9
$SKETCHINC
 40
1.0
  9
$FILLETRAD
 40
0.0
  9
$AUNITS
 70
     0
  9
$AUPREC
 70
     0
  9
$MENU
  1
.
  9
$ELEVATION
 40
0.0
  9
$PELEVATION
 40
0.0
  9
$THICKNESS
 40
0.0
  9
$LIMCHECK
 70
     0
  9
$CHAMFERA
 40
0.0
  9
$CHAMFERB
 40
0.0
  9
$CHAMFERC
 40
0.0
  9
$CHAMFERD
 40
0.0
  9
$SKPOLY
 70
     0
  9
$TDCREATE
 40
2458450.468155024
  9
$TDUCREATE
 40
2458450.343155023
  9
$TDUPDATE
 40
2458956.387037153
  9
$TDUUPDATE
 40
2458956.262037153
  9
$TDINDWG
 40
0.0004607176
  9
$TDUSRTIMER
 40
0.0004607176
  9
$USRTIMER
 70
     1
  9
$ANGBASE
 50
0.0
  9
$ANGDIR
 70
     0
  9
$PDMODE
 70
     0
  9
$PDSIZE
 40
0.0
  9
$PLINEWID
 40
0.0
  9
$SPLFRAME
 70
     0
  9
$SPLINETYPE
 70
     6
  9
$SPLINESEGS
 70
     8
  9
$HANDSEED
  5
83B
  9
$SURFTAB1
 70
     6
  9
$SURFTAB2
 70
     6
  9
$SURFTYPE
 70
     6
  9
$SURFU
 70
     6
  9
$SURFV
 70
     6
  9
$UCSBASE
  2

  9
$UCSNAME
  2

  9
$UCSORG
 10
0.0
 20
0.0
 30
0.0
  9
$UCSXDIR
 10
1.0
 20
0.0
 30
0.0
  9
$UCSYDIR
 10
0.0
 20
1.0
 30
0.0
  9
$UCSORTHOREF
  2

  9
$UCSORTHOVIEW
 70
     0
  9
$UCSORGTOP
 10
0.0
 20
0.0
 30
0.0
  9
$UCSORGBOTTOM
 10
0.0
 20
0.0
 30
0.0
  9
$UCSORGLEFT
 10
0.0
 20
0.0
 30
0.0
  9
$UCSORGRIGHT
 10
0.0
 20
0.0
 30
0.0
  9
$UCSORGFRONT
 10
0.0
 20
0.0
 30
0.0
  9
$UCSORGBACK
 10
0.0
 20
0.0
 30
0.0
  9
$PUCSBASE
  2

  9
$PUCSNAME
  2

  9
$PUCSORG
 10
0.0
 20
0.0
 30
0.0
  9
$PUCSXDIR
 10
1.0
 20
0.0
 30
0.0
  9
$PUCSYDIR
 10
0.0
 20
1.0
 30
0.0
  9
$PUCSORTHOREF
  2

  9
$PUCSORTHOVIEW
 70
     0
  9
$PUCSORGTOP
 10
0.0
 20
0.0
 30
0.0
  9
$PUCSORGBOTTOM
 10
0.0
 20
0.0
 30
0.0
  9
$PUCSORGLEFT
 10
0.0
 20
0.0
 30
0.0
  9
$PUCSORGRIGHT
 10
0.0
 20
0.0
 30
0.0
  9
$PUCSORGFRONT
 10
0.0
 20
0.0
 30
0.0
  9
$PUCSORGBACK
 10
0.0
 20
0.0
 30
0.0
  9
$USERI1
 70
     0
  9
$USERI2
 70
     0
  9
$USERI3
 70
     0
  9
$USERI4
 70
     0
  9
$USERI5
 70
     0
  9
$USERR1
 40
0.0
  9
$USERR2
 40
0.0
  9
$USERR3
 40
0.0
  9
$USERR4
 40
0.0
  9
$USERR5
 40
0.0
  9
$WORLDVIEW
 70
     1
  9
$SHADEDGE
 70
     3
  9
$SHADEDIF
 70
    70
  9
$TILEMODE
 70
     1
  9
$MAXACTVP
 70
    64
  9
$PINSBASE
 10
0.0
 20
0.0
 30
0.0
  9
$PLIMCHECK
 70
     0
  9
$PEXTMIN
 10
0.0
 20
0.0
 30
0.0
  9
$PEXTMAX
 10
0.0
 20
0.0
 30
0.0
  9
$PLIMMIN
 10
0.0
 20
0.0
  9
$PLIMMAX
 10
12.0
 20
9.0
  9
$UNITMODE
 70
     0
  9
$VISRETAIN
 70
     1
  9
$PLINEGEN
 70
     0
  9
$PSLTSCALE
 70
     1
  9
$TREEDEPTH
 70
  3020
  9
$CMLSTYLE
  2
Standard
  9
$CMLJUST
 70
     0
  9
$CMLSCALE
 40
20.0
  9
$PROXYGRAPHICS
 70
     1
  9
$MEASUREMENT
 70
     1
  9
$CELWEIGHT
370
    -1
  9
$ENDCAPS
280
     0
  9
$JOINSTYLE
280
     0
  9
$LWDISPLAY
290
     0
  9
$INSUNITS
 70
     4
  9
$HYPERLINKBASE
  1

  9
$STYLESHEET
  1

  9
$XEDIT
290
     1
  9
$CEPSNTYPE
380
     0
  9
$PSTYLEMODE
290
     1
  9
$FINGERPRINTGUID
  2
{A0198330-1147-41DA-81E7-6CC5A68DDE9C}
  9
$VERSIONGUID
  2
{18B8CCC9-ABB7-435A-88B6-E4A4073C9557}
  9
$EXTNAMES
290
     1
  9
$PSVPSCALE
 40
0.0
  9
$OLESTARTUP
290
     0
  0
ENDSEC
  0
SECTION
  2
CLASSES
  0
CLASS
  1
ACDBDICTIONARYWDFLT
  2
AcDbDictionaryWithDefault
  3
ObjectDBX Classes
 90
        0
280
     0
281
     0
  0
CLASS
  1
ACDBPLACEHOLDER
  2
AcDbPlaceHolder
  3
ObjectDBX Classes
 90
        0
280
     0
281
     0
  0
CLASS
  1
LAYOUT
  2
AcDbLayout
  3
ObjectDBX Classes
 90
        0
280
     0
281
     0
  0
CLASS
  1
DICTIONARYVAR
  2
AcDbDictionaryVar
  3
ObjectDBX Classes
 90
        0
280
     0
281
     0
  0
CLASS
  1
TABLESTYLE
  2
AcDbTableStyle
  3
ObjectDBX Classes
 90
     4095
280
     0
281
     0
  0
CLASS
  1
MATERIAL
  2
AcDbMaterial
  3
ObjectDBX Classes
 90
     1153
280
     0
281
     0
  0
CLASS
  1
VISUALSTYLE
  2
AcDbVisualStyle
  3
ObjectDBX Classes
 90
     4095
280
     0
281
     0
  0
CLASS
  1
SCALE
  2
AcDbScale
  3
ObjectDBX Classes
 90
     1153
280
     0
281
     0
  0
CLASS
  1
MLEADERSTYLE
  2
AcDbMLeaderStyle
  3
ACDB_MLEADERSTYLE_CLASS
 90
     4095
280
     0
281
     0
  0
CLASS
  1
CELLSTYLEMAP
  2
AcDbCellStyleMap
  3
ObjectDBX Classes
 90
     1152
280
     0
281
     0
  0
ENDSEC
  0
SECTION
  2
TABLES
  0
TABLE
  2
VPORT
  5
8
330
0
100
AcDbSymbolTable
 70
     1
  0
VPORT
  5
EA
330
8
100
AcDbSymbolTableRecord
100
AcDbViewportTableRecord
  2
*Active
 70
     0
 10
0.0
 20
0.0
 11
1.0
 21
1.0
 12
1851.946218547222
 22
1025.697521098022
 13
0.0
 23
0.0
 14
10.0
 24
10.0
 15
10.0
 25
10.0
 16
0.0
 26
0.0
 36
1.0
 17
0.0
 27
0.0
 37
0.0
 40
48.72087296123724
 41
1.903110047846889
 42
50.0
 43
0.0
 44
0.0
 50
0.0
 51
0.0
 71
     0
 72
  1000
 73
     1
 74
     3
 75
     0
 76
     0
 77
     0
 78
     0
281
     0
 65
     1
110
0.0
120
0.0
130
0.0
111
1.0
121
0.0
131
0.0
112
0.0
122
1.0
132
0.0
 79
     0
146
0.0
  0
ENDTAB
  0
TABLE
  2
LTYPE
  5
5
330
0
100
AcDbSymbolTable
 70
     1
  0
LTYPE
  5
14
330
5
100
AcDbSymbolTableRecord
100
AcDbLinetypeTableRecord
  2
ByBlock
 70
     0
  3

 72
    65
 73
     0
 40
0.0
  0
LTYPE
  5
15
330
5
100
AcDbSymbolTableRecord
100
AcDbLinetypeTableRecord
  2
ByLayer
 70
     0
  3

 72
    65
 73
     0
 40
0.0
  0
LTYPE
  5
16
330
5
100
AcDbSymbolTableRecord
100
AcDbLinetypeTableRecord
  2
Continuous
 70
     0
  3
Solid line
 72
    65
 73
     0
 40
0.0
  0
ENDTAB
  0
TABLE
  2
LAYER
  5
2
330
0
100
AcDbSymbolTable
 70
     1
  0
LAYER
  5
10
102
{ACAD_XDICTIONARY
360
13C
102
}
330
2
100
AcDbSymbolTableRecord
100
AcDbLayerTableRecord
  2
0
 70
     0
 62
     7
  6
Continuous
370
    -3
390
F
  0
ENDTAB
  0
TABLE
  2
STYLE
  5
3
330
0
100
AcDbSymbolTable
 70
     2
  0
STYLE
  5
11
330
3
100
AcDbSymbolTableRecord
100
AcDbTextStyleTableRecord
  2
Standard
 70
     0
 40
0.0
 41
1.0
 50
0.0
 71
     0
 42
2.5
  3
txt
  4

  0
STYLE
  5
132
330
3
100
AcDbSymbolTableRecord
100
AcDbTextStyleTableRecord
  2
Annotative
 70
     0
 40
0.0
 41
1.0
 50
0.0
 71
     0
 42
2.5
  3
txt.shx
  4

1001
AcadAnnotative
1000
AnnotativeData
1002
{
1070
     1
1070
     1
1002
}
  0
ENDTAB
  0
TABLE
  2
VIEW
  5
6
330
0
100
AcDbSymbolTable
 70
     0
  0
ENDTAB
  0
TABLE
  2
UCS
  5
7
330
0
100
AcDbSymbolTable
 70
     0
  0
ENDTAB
  0
TABLE
  2
APPID
  5
9
330
0
100
AcDbSymbolTable
 70
     7
  0
APPID
  5
12
330
9
100
AcDbSymbolTableRecord
100
AcDbRegAppTableRecord
  2
ACAD
 70
     0
  0
APPID
  5
9E
330
9
100
AcDbSymbolTableRecord
100
AcDbRegAppTableRecord
  2
ACAD_PSEXT
 70
     0
  0
APPID
  5
133
330
9
100
AcDbSymbolTableRecord
100
AcDbRegAppTableRecord
  2
AcadAnnoPO
 70
     0
  0
APPID
  5
134
330
9
100
AcDbSymbolTableRecord
100
AcDbRegAppTableRecord
  2
AcadAnnotative
 70
     0
  0
APPID
  5
135
330
9
100
AcDbSymbolTableRecord
100
AcDbRegAppTableRecord
  2
ACAD_DSTYLE_DIMJAG
 70
     0
  0
APPID
  5
136
330
9
100
AcDbSymbolTableRecord
100
AcDbRegAppTableRecord
  2
ACAD_DSTYLE_DIMTALN
 70
     0
  0
APPID
  5
165
330
9
100
AcDbSymbolTableRecord
100
AcDbRegAppTableRecord
  2
ACAD_MLEADERVER
 70
     0
  0
ENDTAB
  0
TABLE
  2
DIMSTYLE
  5
A
330
0
100
AcDbSymbolTable
 70
     2
100
AcDbDimStyleTable
 71
     2
340
27
340
137
  0
DIMSTYLE
105
27
330
A
100
AcDbSymbolTableRecord
100
AcDbDimStyleTableRecord
  2
ISO-25
 70
     0
 41
2.5
 42
0.625
 43
3.75
 44
1.25
 73
     0
 74
     0
 77
     1
 78
     8
140
2.5
141
2.5
143
0.03937007874016
147
0.625
171
     3
172
     1
271
     2
272
     2
274
     3
278
    44
283
     0
284
     8
340
11
  0
DIMSTYLE
105
137
330
A
100
AcDbSymbolTableRecord
100
AcDbDimStyleTableRecord
  2
Annotative
 70
     0
 40
0.0
 41
2.5
 42
0.625
 43
3.75
 44
1.25
 73
     0
 74
     0
 77
     1
 78
     8
140
2.5
141
2.5
143
0.03937007874016
147
0.625
171
     3
172
     1
271
     2
272
     2
274
     3
278
    44
283
     0
284
     8
340
11
1001
AcadAnnotative
1000
AnnotativeData
1002
{
1070
     1
1070
     1
1002
}
1001
ACAD_DSTYLE_DIMJAG
1070
   388
1040
1.5
1001
ACAD_DSTYLE_DIMTALN
1070
   392
1070
     0
  0
ENDTAB
  0
TABLE
  2
BLOCK_RECORD
  5
1
330
0
100
AcDbSymbolTable
 70
     5
  0
BLOCK_RECORD
  5
1F
330
1
100
AcDbSymbolTableRecord
100
AcDbBlockTableRecord
  2
*Model_Space
340
22
  0
BLOCK_RECORD
  5
D2
330
1
100
AcDbSymbolTableRecord
100
AcDbBlockTableRecord
  2
*Paper_Space
340
D3
  0
BLOCK_RECORD
  5
D6
330
1
100
AcDbSymbolTableRecord
100
AcDbBlockTableRecord
  2
*Paper_Space0
340
D7
  0
BLOCK_RECORD
  5
5F1
330
1
100
AcDbSymbolTableRecord
100
AcDbBlockTableRecord
  2
1
340
0
310
2800000020000000200000000100080000000000000400000000000000000000000000000000000000000000000080000080000000808000800000008000800080800000C0C0C000C0DCC000F0CAA6000020400000206000002080000020A0000020C0000020E00000400000004020000040400000406000004080000040A0
310
000040C0000040E00000600000006020000060400000606000006080000060A0000060C0000060E00000800000008020000080400000806000008080000080A0000080C0000080E00000A0000000A0200000A0400000A0600000A0800000A0A00000A0C00000A0E00000C0000000C0200000C0400000C0600000C0800000C0
310
A00000C0C00000C0E00000E0000000E0200000E0400000E0600000E0800000E0A00000E0C00000E0E00040000000400020004000400040006000400080004000A0004000C0004000E00040200000402020004020400040206000402080004020A0004020C0004020E000404000004040200040404000404060004040800040
310
40A0004040C0004040E00040600000406020004060400040606000406080004060A0004060C0004060E00040800000408020004080400040806000408080004080A0004080C0004080E00040A0000040A0200040A0400040A0600040A0800040A0A00040A0C00040A0E00040C0000040C0200040C0400040C0600040C08000
310
40C0A00040C0C00040C0E00040E0000040E0200040E0400040E0600040E0800040E0A00040E0C00040E0E00080000000800020008000400080006000800080008000A0008000C0008000E00080200000802020008020400080206000802080008020A0008020C0008020E00080400000804020008040400080406000804080
310
008040A0008040C0008040E00080600000806020008060400080606000806080008060A0008060C0008060E00080800000808020008080400080806000808080008080A0008080C0008080E00080A0000080A0200080A0400080A0600080A0800080A0A00080A0C00080A0E00080C0000080C0200080C0400080C0600080C0
310
800080C0A00080C0C00080C0E00080E0000080E0200080E0400080E0600080E0800080E0A00080E0C00080E0E000C0000000C0002000C0004000C0006000C0008000C000A000C000C000C000E000C0200000C0202000C0204000C0206000C0208000C020A000C020C000C020E000C0400000C0402000C0404000C0406000C0
310
408000C040A000C040C000C040E000C0600000C0602000C0604000C0606000C0608000C060A000C060C000C060E000C0800000C0802000C0804000C0806000C0808000C080A000C080C000C080E000C0A00000C0A02000C0A04000C0A06000C0A08000C0A0A000C0A0C000C0A0E000C0C00000C0C02000C0C04000C0C06000
310
C0C08000C0C0A000F0FBFF00A4A0A000808080000000FF0000FF000000FFFF00FF000000FF00FF00FFFF0000FFFFFF000000000000000000000000000000000000000000000000000000000000000000000000000000000000000000FFFFFFFFFFFFFFFF000000000000000000000000000000000000000000000000FF0000
310
00000000FF000000000000000000000000000000000000000000000000FF000000000000FF00000000000000000000000000000000000000FFFFFFFFFFFF000000000000FFFFFFFFFFFF0000000000000000000000000000FF00000000000000000000000000000000FF0000000000000000000000000000FF000000000000
310
00000000000000000000FF0000000000000000000000000000FF00000000000000000000000000000000FF000000000000000000000000FFFFFFFFFFFFFFFFFFFFFFFFFFFFFFFFFFFFFFFFFF00000000000000000000FF0000FFFFFFFFFFFFFFFFFFFFFFFFFFFFFFFFFFFF00FFFF00000000000000FF000000000000000000
310
000000000000000000000000FFFFFFFF000000000000FFFFFFFF000000000000000000000000000000000000FF00FFFF000000000000FF000000000000000000000000000000000000000000FFFFFFFF000000000000FF000000000000000000000000000000000000000000000000FF000000000000FF0000000000000000
310
00000000000000000000000000000000FF000000000000FFFFFFFF000000000000000000000000000000000000FFFFFFFF000000000000FF000000000000000000000000000000000000000000000000FF000000000000FF000000000000000000000000000000000000000000000000FF000000000000FFFFFFFF00000000
310
0000000000000000000000000000FFFFFFFF000000000000FFFFFFFF000000000000000000000000000000000000000000FF000000000000FF000000000000000000000000000000000000000000000000FF000000000000FF000000000000000000000000000000000000000000000000FF00000000000000FF0000000000
310
0000000000000000000000000000000000FF000000000000000000FF000000000000000000000000000000000000000000FF000000000000000000FF000000000000000000FFFF000000000000000000FF0000000000000000000000FF00000000000000FFFFFFFF0000000000000000FF0000000000000000000000FF0000
310
000000000000FFFF0000000000000000FF00000000000000000000000000FF0000000000FFFFFFFFFFFF000000000000FF00000000000000000000000000FF0000000000FFFFFFFFFFFF0000000000FF000000000000000000000000000000FFFF0000FFFFFFFFFFFFFFFF0000FFFF00000000000000000000000000000000
310
0000FFFFFF000000000000FFFFFF000000000000000000000000000000000000000000000000000000000000000000000000000000000000
102
{BLKREFS
331
640
102
}
1001
ACAD
1000
DesignCenter Data
1002
{
1070
     1
1070
     4
1002
}
  0
BLOCK_RECORD
  5
641
330
1
100
AcDbSymbolTableRecord
100
AcDbBlockTableRecord
  2
2
340
0
310
2800000020000000200000000100080000000000000400000000000000000000000000000000000000000000000080000080000000808000800000008000800080800000C0C0C000C0DCC000F0CAA6000020400000206000002080000020A0000020C0000020E00000400000004020000040400000406000004080000040A0
310
000040C0000040E00000600000006020000060400000606000006080000060A0000060C0000060E00000800000008020000080400000806000008080000080A0000080C0000080E00000A0000000A0200000A0400000A0600000A0800000A0A00000A0C00000A0E00000C0000000C0200000C0400000C0600000C0800000C0
310
A00000C0C00000C0E00000E0000000E0200000E0400000E0600000E0800000E0A00000E0C00000E0E00040000000400020004000400040006000400080004000A0004000C0004000E00040200000402020004020400040206000402080004020A0004020C0004020E000404000004040200040404000404060004040800040
310
40A0004040C0004040E00040600000406020004060400040606000406080004060A0004060C0004060E00040800000408020004080400040806000408080004080A0004080C0004080E00040A0000040A0200040A0400040A0600040A0800040A0A00040A0C00040A0E00040C0000040C0200040C0400040C0600040C08000
310
40C0A00040C0C00040C0E00040E0000040E0200040E0400040E0600040E0800040E0A00040E0C00040E0E00080000000800020008000400080006000800080008000A0008000C0008000E00080200000802020008020400080206000802080008020A0008020C0008020E00080400000804020008040400080406000804080
310
008040A0008040C0008040E00080600000806020008060400080606000806080008060A0008060C0008060E00080800000808020008080400080806000808080008080A0008080C0008080E00080A0000080A0200080A0400080A0600080A0800080A0A00080A0C00080A0E00080C0000080C0200080C0400080C0600080C0
310
800080C0A00080C0C00080C0E00080E0000080E0200080E0400080E0600080E0800080E0A00080E0C00080E0E000C0000000C0002000C0004000C0006000C0008000C000A000C000C000C000E000C0200000C0202000C0204000C0206000C0208000C020A000C020C000C020E000C0400000C0402000C0404000C0406000C0
310
408000C040A000C040C000C040E000C0600000C0602000C0604000C0606000C0608000C060A000C060C000C060E000C0800000C0802000C0804000C0806000C0808000C080A000C080C000C080E000C0A00000C0A02000C0A04000C0A06000C0A08000C0A0A000C0A0C000C0A0E000C0C00000C0C02000C0C04000C0C06000
310
C0C08000C0C0A000F0FBFF00A4A0A000808080000000FF0000FF000000FFFF00FF000000FF00FF00FFFF0000FFFFFF00000000000000000000000000000000000000000000000000000000000000000000000000000000000000000000FFFFFFFFFFFF0000000000000000000000000000000000000000000000000000FF00
310
000000FF0000000000000000000000000000000000000000000000000000FF00000000FF0000000000000000000000000000000000000000000000000000FFFFFFFFFFFF0000000000000000000000000000000000000000000000000000FF00000000FF0000000000000000000000000000000000000000000000000000FF
310
00000000FF0000000000000000000000000000000000000000000000000000FFFFFFFFFFFF000000000000000000000000000000000000000000000000FFFFFF00000000FF000000000000000000000000000000000000000000000000FFFFFF00000000FF000000000000000000000000000000000000000000000000FFFF
310
FFFFFFFFFFFFFFFF00000000000000000000000000000000000000000000FF00FF00000000FF00FF00000000000000000000000000000000000000000000FFFFFF00000000FFFFFF000000000000000000000000000000000000000000000000FF00000000FF00000000000000000000000000000000000000000000000000
310
00FF00000000FF0000000000000000000000000000000000000000000000000000FF00000000FF0000000000000000000000000000000000000000000000000000FF00000000FF0000000000000000000000000000000000000000000000000000FF00000000FF000000000000000000000000000000000000000000000000
310
FFFFFF00000000FFFFFF00000000000000000000000000000000000000000000FFFFFF00000000FFFFFF000000000000000000000000000000000000000000000000FF00000000FF0000000000000000000000000000000000000000000000000000FFFFFFFFFFFF0000000000000000000000000000000000000000000000
310
000000FFFFFFFFFFFF0000000000000000000000000000000000000000000000000000FFFF0000FFFF000000000000000000000000000000000000000000000000FFFFFF00000000FF000000000000000000000000000000000000000000000000FF00FF00000000FF00000000000000000000000000000000000000000000
310
0000FFFFFFFFFFFFFFFF0000000000000000000000000000000000000000000000000000FFFFFFFFFFFF0000000000000000000000000000000000000000000000000000FFFFFFFFFFFF0000000000000000000000000000000000000000000000000000FFFFFFFFFFFF000000000000000000000000000000000000000000
310
0000000000FFFFFFFFFFFF000000000000000000000000000000000000000000000000000000000000000000000000000000000000000000
102
{BLKREFS
331
696
102
}
1001
ACAD
1000
DesignCenter Data
1002
{
1070
     1
1070
     4
1002
}
  0
BLOCK_RECORD
  5
697
330
1
100
AcDbSymbolTableRecord
100
AcDbBlockTableRecord
  2
3
340
0
310
2800000020000000200000000100080000000000000400000000000000000000000000000000000000000000000080000080000000808000800000008000800080800000C0C0C000C0DCC000F0CAA6000020400000206000002080000020A0000020C0000020E00000400000004020000040400000406000004080000040A0
310
000040C0000040E00000600000006020000060400000606000006080000060A0000060C0000060E00000800000008020000080400000806000008080000080A0000080C0000080E00000A0000000A0200000A0400000A0600000A0800000A0A00000A0C00000A0E00000C0000000C0200000C0400000C0600000C0800000C0
310
A00000C0C00000C0E00000E0000000E0200000E0400000E0600000E0800000E0A00000E0C00000E0E00040000000400020004000400040006000400080004000A0004000C0004000E00040200000402020004020400040206000402080004020A0004020C0004020E000404000004040200040404000404060004040800040
310
40A0004040C0004040E00040600000406020004060400040606000406080004060A0004060C0004060E00040800000408020004080400040806000408080004080A0004080C0004080E00040A0000040A0200040A0400040A0600040A0800040A0A00040A0C00040A0E00040C0000040C0200040C0400040C0600040C08000
310
40C0A00040C0C00040C0E00040E0000040E0200040E0400040E0600040E0800040E0A00040E0C00040E0E00080000000800020008000400080006000800080008000A0008000C0008000E00080200000802020008020400080206000802080008020A0008020C0008020E00080400000804020008040400080406000804080
310
008040A0008040C0008040E00080600000806020008060400080606000806080008060A0008060C0008060E00080800000808020008080400080806000808080008080A0008080C0008080E00080A0000080A0200080A0400080A0600080A0800080A0A00080A0C00080A0E00080C0000080C0200080C0400080C0600080C0
310
800080C0A00080C0C00080C0E00080E0000080E0200080E0400080E0600080E0800080E0A00080E0C00080E0E000C0000000C0002000C0004000C0006000C0008000C000A000C000C000C000E000C0200000C0202000C0204000C0206000C0208000C020A000C020C000C020E000C0400000C0402000C0404000C0406000C0
310
408000C040A000C040C000C040E000C0600000C0602000C0604000C0606000C0608000C060A000C060C000C060E000C0800000C0802000C0804000C0806000C0808000C080A000C080C000C080E000C0A00000C0A02000C0A04000C0A06000C0A08000C0A0A000C0A0C000C0A0E000C0C00000C0C02000C0C04000C0C06000
310
C0C08000C0C0A000F0FBFF00A4A0A000808080000000FF0000FF000000FFFF00FF000000FF00FF00FFFF0000FFFFFF0000000000000000000000000000000000000000000000000000000000000000000000000000000000000000000000000000000000000000000000000000000000000000000000000000000000000000
310
00000000000000000000000000000000000000000000000000000000000000000000000000000000000000000000000000000000000000000000000000000000000000000000000000000000000000000000000000000000000000000000000000000000000000000000000000000000000000000000000000000000000000
310
0000000000000000000000000000000000000000000000000000000000000000000000000000000000000000000000000000000000000000000000000000000000000000000000000000000000000000000000000000000000000000000000000000000000000000000000000000000000000000FFFFFF0000000000000000
310
00000000000000000000000000FFFFFFFF00000000FF00FF00FFFFFFFFFFFFFFFFFFFFFFFFFFFFFFFFFFFFFFFFFF0000FF000000FFFFFFFFFFFFFFFFFFFFFFFFFFFFFFFFFFFFFFFFFFFFFFFFFFFFFFFFFFFF0000FFFFFFFFFFFFFFFFFFFFFFFFFFFFFFFFFFFFFFFFFFFFFFFFFFFFFFFFFFFF0000FFFFFF0000FFFFFFFF00FF
310
FFFFFFFFFFFFFFFFFF00FFFFFFFF0000FFFFFF0000FFFF000000FFFFFFFFFFFFFFFFFFFFFFFFFFFFFFFFFFFFFFFF000000FFFF0000FFFF000000FFFFFFFFFFFFFFFFFFFFFFFFFFFFFFFFFFFFFFFF000000FFFF0000FFFFFF0000FFFFFFFF00FFFFFFFFFFFFFFFFFFFF00FFFFFFFF0000FFFFFF0000FFFFFFFFFFFFFFFFFFFF
310
FFFFFFFFFFFFFFFFFFFFFFFFFFFFFFFFFFFFFFFF0000FFFFFFFFFFFFFFFFFFFFFFFFFFFFFFFFFFFFFFFFFFFFFFFFFFFFFFFFFFFF000000FF0000FF000000000000000000000000000000000000000000FF00FF00000000FFFFFFFF000000000000000000000000000000000000000000FFFFFF000000000000000000000000
310
00000000000000000000000000000000000000000000000000000000000000000000000000000000000000000000000000000000000000000000000000000000000000000000000000000000000000000000000000000000000000000000000000000000000000000000000000000000000000000000000000000000000000
310
00000000000000000000000000000000000000000000000000000000000000000000000000000000000000000000000000000000000000000000000000000000000000000000000000000000000000000000000000000000000000000000000000000000000000000000000000000000000000000000000000000000000000
310
0000000000000000000000000000000000000000000000000000000000000000000000000000000000000000000000000000000000000000
102
{BLKREFS
331
73F
102
}
1001
ACAD
1000
DesignCenter Data
1002
{
1070
     1
1070
     4
1002
}
  0
BLOCK_RECORD
  5
740
330
1
100
AcDbSymbolTableRecord
100
AcDbBlockTableRecord
  2
4
340
0
310
2800000020000000200000000100080000000000000400000000000000000000000000000000000000000000000080000080000000808000800000008000800080800000C0C0C000C0DCC000F0CAA6000020400000206000002080000020A0000020C0000020E00000400000004020000040400000406000004080000040A0
310
000040C0000040E00000600000006020000060400000606000006080000060A0000060C0000060E00000800000008020000080400000806000008080000080A0000080C0000080E00000A0000000A0200000A0400000A0600000A0800000A0A00000A0C00000A0E00000C0000000C0200000C0400000C0600000C0800000C0
310
A00000C0C00000C0E00000E0000000E0200000E0400000E0600000E0800000E0A00000E0C00000E0E00040000000400020004000400040006000400080004000A0004000C0004000E00040200000402020004020400040206000402080004020A0004020C0004020E000404000004040200040404000404060004040800040
310
40A0004040C0004040E00040600000406020004060400040606000406080004060A0004060C0004060E00040800000408020004080400040806000408080004080A0004080C0004080E00040A0000040A0200040A0400040A0600040A0800040A0A00040A0C00040A0E00040C0000040C0200040C0400040C0600040C08000
310
40C0A00040C0C00040C0E00040E0000040E0200040E0400040E0600040E0800040E0A00040E0C00040E0E00080000000800020008000400080006000800080008000A0008000C0008000E00080200000802020008020400080206000802080008020A0008020C0008020E00080400000804020008040400080406000804080
310
008040A0008040C0008040E00080600000806020008060400080606000806080008060A0008060C0008060E00080800000808020008080400080806000808080008080A0008080C0008080E00080A0000080A0200080A0400080A0600080A0800080A0A00080A0C00080A0E00080C0000080C0200080C0400080C0600080C0
310
800080C0A00080C0C00080C0E00080E0000080E0200080E0400080E0600080E0800080E0A00080E0C00080E0E000C0000000C0002000C0004000C0006000C0008000C000A000C000C000C000E000C0200000C0202000C0204000C0206000C0208000C020A000C020C000C020E000C0400000C0402000C0404000C0406000C0
310
408000C040A000C040C000C040E000C0600000C0602000C0604000C0606000C0608000C060A000C060C000C060E000C0800000C0802000C0804000C0806000C0808000C080A000C080C000C080E000C0A00000C0A02000C0A04000C0A06000C0A08000C0A0A000C0A0C000C0A0E000C0C00000C0C02000C0C04000C0C06000
310
C0C08000C0C0A000F0FBFF00A4A0A000808080000000FF0000FF000000FFFF00FF000000FF00FF00FFFF0000FFFFFF0000000000000000000000000000000000000000000000000000000000000000000000000000000000000000000000000000FF0000000000000000000000000000000000000000000000000000000000
310
FFFFFFFF00FF000000000000000000000000000000000000000000000000FFFF00FF00FFFFFFFFFF000000000000000000000000000000000000000000FF000000FFFFFF00FF0000FFFF00000000000000000000000000000000000000FF000000FFFFFFFFFFFFFF00FF000000000000000000000000000000000000FFFF00
310
FFFF0000FFFFFFFFFFFFFF00000000000000000000000000000000FFFF0000FF0000FFFFFFFFFFFFFFFFFFFF000000000000000000000000000000FF00FFFF00FFFFFF000000FFFFFF0000FFFF00000000000000000000000000FFFFFF00FFFFFF0000000000FFFFFF000000FF00000000000000000000000000FF00FFFFFF
310
00000000000000FFFFFF000000FF00000000000000000000000000FFFFFF000000000000000000FFFFFF000000FF000000000000000000000000FF00000000000000000000000000FFFF000000FF000000000000000000000000FFFF0000000000000000000000FFFFFF0000FF000000000000000000000000FFFFFF000000
310
0000000000000000FFFFFF0000FF000000000000000000000000FFFF00000000000000000000000000FFFF0000FFFF0000000000000000000000FFFF00000000000000000000000000FFFFFFFFFFFF0000000000000000000000FFFF000000000000000000000000FFFFFFFFFFFFFF0000000000000000000000FFFF000000
310
000000000000000000FFFF0000FFFF0000000000000000000000FFFFFF000000000000000000000000FF000000FF000000000000000000000000FFFFFF000000000000000000000000FF0000FFFF00000000000000000000000000FFFF00000000FFFFFF00000000FFFF00FFFFFF000000000000000000000000FF00000000
310
0000FFFFFF00000000FFFFFFFFFF00000000000000000000000000FFFF0000000000FFFFFFFF0000FFFFFFFFFFFF000000000000000000000000000000FF0000000000FFFFFF00FFFFFFFFFFFF00000000000000000000000000000000FF000000FFFFFFFFFFFFFFFFFFFFFFFF0000000000000000000000000000000000FF
310
0000FFFFFFFFFFFFFFFFFF00FF000000000000000000000000000000000000FF00FFFFFFFFFFFFFFFFFFFFFF00000000000000000000000000000000000000FFFFFFFFFFFFFFFFFF000000000000000000000000000000000000000000000000FFFFFFFFFFFFFF000000000000000000000000000000000000000000000000
310
000000FFFFFF0000000000000000000000000000000000000000000000000000000000000000000000000000000000000000000000000000
102
{BLKREFS
331
820
102
}
1001
ACAD
1000
DesignCenter Data
1002
{
1070
     1
1070
     4
1002
}
  0
ENDTAB
  0
ENDSEC
  0
SECTION
  2
BLOCKS
  0
BLOCK
  5
20
330
1F
100
AcDbEntity
  8
0
100
AcDbBlockBegin
  2
*Model_Space
 70
     0
 10
0.0
 20
0.0
 30
0.0
  3
*Model_Space
  1

  0
ENDBLK
  5
21
330
1F
100
AcDbEntity
  8
0
100
AcDbBlockEnd
  0
BLOCK
  5
D4
330
D2
100
AcDbEntity
 67
     1
  8
0
100
AcDbBlockBegin
  2
*Paper_Space
 70
     0
 10
0.0
 20
0.0
 30
0.0
  3
*Paper_Space
  1

  0
ENDBLK
  5
D5
330
D2
100
AcDbEntity
 67
     1
  8
0
100
AcDbBlockEnd
  0
BLOCK
  5
D8
330
D6
100
AcDbEntity
 67
     1
  8
0
100
AcDbBlockBegin
  2
*Paper_Space0
 70
     0
 10
0.0
 20
0.0
 30
0.0
  3
*Paper_Space0
  1

  0
ENDBLK
  5
D9
330
D6
100
AcDbEntity
 67
     1
  8
0
100
AcDbBlockEnd
  0
BLOCK
  5
5F2
330
5F1
100
AcDbEntity
  8
0
100
AcDbBlockBegin
  2
1
 70
     0
 10
0.0
 20
0.0
 30
0.0
  3
1
  1

  0
SPLINE
  5
5F4
330
5F1
100
AcDbEntity
  8
0
  6
Continuous
 62
     7
370
    15
100
AcDbSpline
210
0.0
220
0.0
230
1.0
 70
     8
 71
     3
 72
    14
 73
    10
 74
     0
 42
0.0000000001
 43
0.0000000001
 40
0.0
 40
0.0
 40
0.0
 40
0.0
 40
0.25
 40
0.25
 40
0.5
 40
0.5
 40
0.75
 40
0.75
 40
1.0
 40
1.0
 40
1.0
 40
1.0
 10
1856.016280806124
 20
1029.399153390231
 30
0.0
 10
1856.016280806124
 20
1029.137354002435
 30
0.0
 10
1855.908507709735
 20
1028.877166731474
 30
0.0
 10
1855.538267464893
 20
1028.506926486632
 30
0.0
 10
1855.278080193933
 20
1028.399153390243
 30
0.0
 10
1854.754481418341
 20
1028.399153390243
 30
0.0
 10
1854.49429414738
 20
1028.506926486632
 30
0.0
 10
1854.124053902538
 20
1028.877166731474
 30
0.0
 10
1854.016280806149
 20
1029.137354002435
 30
0.0
 10
1854.016280806149
 20
1029.399153390231
 30
0.0
  0
SPLINE
  5
5F5
330
5F1
100
AcDbEntity
  8
0
  6
Continuous
 62
     7
370
    15
100
AcDbSpline
210
0.0
220
0.0
230
1.0
 70
     8
 71
     3
 72
    14
 73
    10
 74
     0
 42
0.0000000001
 43
0.0000000001
 40
0.0
 40
0.0
 40
0.0
 40
0.0
 40
0.25
 40
0.25
 40
0.5
 40
0.5
 40
0.75
 40
0.75
 40
1.0
 40
1.0
 40
1.0
 40
1.0
 10
1854.016280806149
 20
1029.399153390231
 30
0.0
 10
1854.016280806149
 20
1029.660952778026
 30
0.0
 10
1854.124053902538
 20
1029.921140048987
 30
0.0
 10
1854.49429414738
 20
1030.291380293829
 30
0.0
 10
1854.754481418341
 20
1030.399153390218
 30
0.0
 10
1855.278080193933
 20
1030.399153390218
 30
0.0
 10
1855.538267464893
 20
1030.291380293829
 30
0.0
 10
1855.908507709735
 20
1029.921140048987
 30
0.0
 10
1856.016280806124
 20
1029.660952778026
 30
0.0
 10
1856.016280806124
 20
1029.399153390231
 30
0.0
  0
SPLINE
  5
5F6
330
5F1
100
AcDbEntity
  8
0
  6
Continuous
 62
     7
370
    15
100
AcDbSpline
210
0.0
220
0.0
230
1.0
 70
     8
 71
     3
 72
    14
 73
    10
 74
     0
 42
0.0000000001
 43
0.0000000001
 40
0.0
 40
0.0
 40
0.0
 40
0.0
 40
0.25
 40
0.25
 40
0.5
 40
0.5
 40
0.75
 40
0.75
 40
1.0
 40
1.0
 40
1.0
 40
1.0
 10
1835.726929902257
 20
1036.46604300255
 30
0.0
 10
1835.726929902257
 20
1036.2696934617
 30
0.0
 10
1835.646100079964
 20
1036.074553008477
 30
0.0
 10
1835.368419896329
 20
1035.796872824842
 30
0.0
 10
1835.173279443106
 20
1035.716043002549
 30
0.0
 10
1834.780580361407
 20
1035.716043002549
 30
0.0
 10
1834.585439908184
 20
1035.796872824842
 30
0.0
 10
1834.307759724549
 20
1036.074553008477
 30
0.0
 10
1834.226929902256
 20
1036.2696934617
 30
0.0
 10
1834.226929902256
 20
1036.46604300255
 30
0.0
  0
SPLINE
  5
5F7
330
5F1
100
AcDbEntity
  8
0
  6
Continuous
 62
     7
370
    15
100
AcDbSpline
210
0.0
220
0.0
230
1.0
 70
     8
 71
     3
 72
    14
 73
    10
 74
     0
 42
0.0000000001
 43
0.0000000001
 40
0.0
 40
0.0
 40
0.0
 40
0.0
 40
0.25
 40
0.25
 40
0.5
 40
0.5
 40
0.75
 40
0.75
 40
1.0
 40
1.0
 40
1.0
 40
1.0
 10
1834.226929902256
 20
1036.46604300255
 30
0.0
 10
1834.226929902256
 20
1036.662392543399
 30
0.0
 10
1834.307759724549
 20
1036.857532996622
 30
0.0
 10
1834.585439908184
 20
1037.135213180257
 30
0.0
 10
1834.780580361407
 20
1037.21604300255
 30
0.0
 10
1835.173279443106
 20
1037.21604300255
 30
0.0
 10
1835.368419896329
 20
1037.135213180257
 30
0.0
 10
1835.646100079964
 20
1036.857532996622
 30
0.0
 10
1835.726929902257
 20
1036.662392543399
 30
0.0
 10
1835.726929902257
 20
1036.46604300255
 30
0.0
  0
SPLINE
  5
5F8
330
5F1
100
AcDbEntity
  8
0
  6
Continuous
 62
     7
370
    15
100
AcDbSpline
210
0.0
220
0.0
230
1.0
 70
     8
 71
     3
 72
    10
 73
     6
 74
     0
 42
0.0000000001
 43
0.0000000001
 40
0.0
 40
0.0
 40
0.0
 40
0.0
 40
0.5
 40
0.5
 40
1.0
 40
1.0
 40
1.0
 40
1.0
 10
1852.837243549052
 20
1026.242298673821
 30
0.0
 10
1852.837243549052
 20
1026.189938796262
 30
0.0
 10
1852.815688929774
 20
1026.137901342069
 30
0.0
 10
1852.741640880805
 20
1026.063853293099
 30
0.0
 10
1852.689603426611
 20
1026.042298673822
 30
0.0
 10
1852.637243549052
 20
1026.042298673822
 30
0.0
  0
LINE
  5
5F9
330
5F1
100
AcDbEntity
  8
0
  6
Continuous
 62
     7
370
    15
100
AcDbLine
 10
1837.595318063246
 20
1026.042298673822
 30
0.0
 11
1852.637243549052
 21
1026.042298673822
 31
0.0
  0
SPLINE
  5
5FA
330
5F1
100
AcDbEntity
  8
0
  6
Continuous
 62
     7
370
    15
100
AcDbSpline
210
0.0
220
0.0
230
1.0
 70
     8
 71
     3
 72
    10
 73
     6
 74
     0
 42
0.0000000001
 43
0.0000000001
 40
0.0
 40
0.0
 40
0.0
 40
0.0
 40
0.5
 40
0.5
 40
1.0
 40
1.0
 40
1.0
 40
1.0
 10
1837.595318063246
 20
1026.042298673822
 30
0.0
 10
1837.542958185686
 20
1026.042298673822
 30
0.0
 10
1837.490920731493
 20
1026.0638532931
 30
0.0
 10
1837.416872682524
 20
1026.137901342069
 30
0.0
 10
1837.395318063246
 20
1026.189938796262
 30
0.0
 10
1837.395318063246
 20
1026.242298673821
 30
0.0
  0
LINE
  5
5FB
330
5F1
100
AcDbEntity
  8
0
  6
Continuous
 62
     7
370
    15
100
AcDbLine
 10
1837.395318063246
 20
1027.038682854612
 30
0.0
 11
1837.395318063246
 21
1026.242298673821
 31
0.0
  0
SPLINE
  5
5FC
330
5F1
100
AcDbEntity
  8
0
  6
Continuous
 62
     7
370
    15
100
AcDbSpline
210
0.0
220
0.0
230
1.0
 70
     8
 71
     3
 72
    10
 73
     6
 74
     0
 42
0.0000000001
 43
0.0000000001
 40
0.0
 40
0.0
 40
0.0
 40
0.0
 40
0.5
 40
0.5
 40
1.0
 40
1.0
 40
1.0
 40
1.0
 10
1852.637243549052
 20
1027.238682854613
 30
0.0
 10
1852.689603426611
 20
1027.238682854613
 30
0.0
 10
1852.741640880804
 20
1027.217128235335
 30
0.0
 10
1852.815688929774
 20
1027.143080186365
 30
0.0
 10
1852.837243549052
 20
1027.091042732172
 30
0.0
 10
1852.837243549052
 20
1027.038682854612
 30
0.0
  0
LINE
  5
5FD
330
5F1
100
AcDbEntity
  8
0
  6
Continuous
 62
     7
370
    15
100
AcDbLine
 10
1852.837243549052
 20
1027.038682854612
 30
0.0
 11
1852.837243549052
 21
1026.242298673821
 31
0.0
  0
SPLINE
  5
5FE
330
5F1
100
AcDbEntity
  8
0
  6
Continuous
 62
     7
370
    15
100
AcDbSpline
210
0.0
220
0.0
230
1.0
 70
     8
 71
     3
 72
    10
 73
     6
 74
     0
 42
0.0000000001
 43
0.0000000001
 40
0.0
 40
0.0
 40
0.0
 40
0.0
 40
0.5
 40
0.5
 40
1.0
 40
1.0
 40
1.0
 40
1.0
 10
1837.395318063246
 20
1027.038682854612
 30
0.0
 10
1837.395318063246
 20
1027.091042732172
 30
0.0
 10
1837.416872682524
 20
1027.143080186365
 30
0.0
 10
1837.490920731493
 20
1027.217128235335
 30
0.0
 10
1837.542958185686
 20
1027.238682854613
 30
0.0
 10
1837.595318063246
 20
1027.238682854613
 30
0.0
  0
LINE
  5
5FF
330
5F1
100
AcDbEntity
  8
0
  6
Continuous
 62
     7
370
    15
100
AcDbLine
 10
1852.637243549052
 20
1027.238682854613
 30
0.0
 11
1837.595318063246
 21
1027.238682854612
 31
0.0
  0
SPLINE
  5
600
330
5F1
100
AcDbEntity
  8
0
  6
Continuous
 62
     7
370
    15
100
AcDbSpline
210
0.0
220
0.0
230
1.0
 70
     8
 71
     3
 72
    14
 73
    10
 74
     0
 42
0.0000000001
 43
0.0000000001
 40
0.0
 40
0.0
 40
0.0
 40
0.0
 40
0.25
 40
0.25
 40
0.5
 40
0.5
 40
0.75
 40
0.75
 40
1.0
 40
1.0
 40
1.0
 40
1.0
 10
1844.116280806149
 20
1042.787361961035
 30
0.0
 10
1844.116280806149
 20
1043.049161348834
 30
0.0
 10
1844.224053902539
 20
1043.309348619798
 30
0.0
 10
1844.594294147385
 20
1043.679588864645
 30
0.0
 10
1844.854481418349
 20
1043.787361961035
 30
0.0
 10
1845.378080193948
 20
1043.787361961035
 30
0.0
 10
1845.638267464912
 20
1043.679588864645
 30
0.0
 10
1846.008507709759
 20
1043.309348619798
 30
0.0
 10
1846.116280806149
 20
1043.049161348834
 30
0.0
 10
1846.116280806149
 20
1042.787361961035
 30
0.0
  0
SPLINE
  5
601
330
5F1
100
AcDbEntity
  8
0
  6
Continuous
 62
     7
370
    15
100
AcDbSpline
210
0.0
220
0.0
230
1.0
 70
     8
 71
     3
 72
    14
 73
    10
 74
     0
 42
0.0000000001
 43
0.0000000001
 40
0.0
 40
0.0
 40
0.0
 40
0.0
 40
0.25
 40
0.25
 40
0.5
 40
0.5
 40
0.75
 40
0.75
 40
1.0
 40
1.0
 40
1.0
 40
1.0
 10
1846.116280806149
 20
1042.787361961035
 30
0.0
 10
1846.116280806149
 20
1042.525562573235
 30
0.0
 10
1846.008507709759
 20
1042.265375302271
 30
0.0
 10
1845.638267464912
 20
1041.895135057425
 30
0.0
 10
1845.378080193948
 20
1041.787361961034
 30
0.0
 10
1844.854481418349
 20
1041.787361961034
 30
0.0
 10
1844.594294147385
 20
1041.895135057425
 30
0.0
 10
1844.224053902539
 20
1042.265375302271
 30
0.0
 10
1844.116280806149
 20
1042.525562573235
 30
0.0
 10
1844.116280806149
 20
1042.787361961035
 30
0.0
  0
CIRCLE
  5
602
330
5F1
100
AcDbEntity
  8
0
  6
Continuous
 62
     7
370
    15
100
AcDbCircle
 10
1835.216280806141
 20
1029.399153390227
 30
0.0
 40
0.9999999999931503
  0
LINE
  5
603
330
5F1
100
AcDbEntity
  8
0
  6
Continuous
 62
     7
370
    15
100
AcDbLine
 10
1833.616280806149
 20
1038.833855088327
 30
0.0
 11
1833.616280806149
 21
1028.736411690427
 31
0.0
  0
ARC
  5
604
330
5F1
100
AcDbEntity
  8
0
  6
Continuous
 62
     7
370
    15
100
AcDbCircle
 10
1835.116280806149
 20
1038.833855088327
 30
0.0
 40
1.5
100
AcDbArc
 50
150.0000000000027
 51
180.0
  0
LINE
  5
605
330
5F1
100
AcDbEntity
  8
0
  6
Continuous
 62
     7
370
    15
100
AcDbLine
 10
1837.373163808351
 20
1045.742891114879
 30
0.0
 11
1833.817242700473
 21
1039.583855088326
 31
0.0
  0
ARC
  5
606
330
5F1
100
AcDbEntity
  8
0
  6
Continuous
 62
     7
370
    15
100
AcDbCircle
 10
1838.239189212136
 20
1045.242891114879
 30
0.0
 40
0.9999999999999655
100
AcDbArc
 50
107.500000000008
 51
150.0000000000083
  0
LINE
  5
607
330
5F1
100
AcDbEntity
  8
0
  6
Continuous
 62
     7
370
    15
100
AcDbLine
 10
1841.096410570343
 20
1047.192298673822
 30
0.0
 11
1837.938483412631
 21
1046.196608065627
 31
0.0
  0
LINE
  5
608
330
5F1
100
AcDbEntity
  8
0
  6
Continuous
 62
     7
370
    15
100
AcDbLine
 10
1842.122391653132
 20
1047.192298673822
 30
0.0
 11
1841.096410570343
 21
1047.192298673822
 31
0.0
  0
LINE
  5
609
330
5F1
100
AcDbEntity
  8
0
  6
Continuous
 62
     7
370
    15
100
AcDbLine
 10
1842.122398589193
 20
1046.693550641738
 30
0.0
 11
1842.122391653132
 21
1047.192298673822
 31
0.0
  0
ARC
  5
60A
330
5F1
100
AcDbEntity
  8
0
  6
Continuous
 62
     7
370
    15
100
AcDbCircle
 10
1842.322398589174
 20
1046.693553423126
 30
0.0
 40
0.2000000000000022
100
AcDbArc
 50
180.0007968089882
 51
270.0
  0
LINE
  5
60B
330
5F1
100
AcDbEntity
  8
0
  6
Continuous
 62
     7
370
    15
100
AcDbLine
 10
1842.69938766096
 20
1046.493553423126
 30
0.0
 11
1842.322398589174
 21
1046.493553423126
 31
0.0
  0
ARC
  5
60C
330
5F1
100
AcDbEntity
  8
0
  6
Continuous
 62
     7
370
    15
100
AcDbCircle
 10
1842.69938766096
 20
1046.293553423126
 30
0.0
 40
0.2000000000008129
100
AcDbArc
 50
2.499557014654647
 51
90.0
  0
LINE
  5
60D
330
5F1
100
AcDbEntity
  8
0
  6
Continuous
 62
     7
370
    15
100
AcDbLine
 10
1842.925296050921
 20
1045.704411676563
 30
0.0
 11
1842.89919737272
 21
1046.30227575576
 31
0.0
  0
SPLINE
  5
60E
330
5F1
100
AcDbEntity
  8
0
  6
Continuous
 62
     7
370
    15
100
AcDbSpline
210
0.0
220
0.0
230
1.0
 70
     8
 71
     3
 72
     8
 73
     4
 74
     0
 42
0.0000000001
 43
0.0000000001
 40
0.0
 40
0.0
 40
0.0
 40
0.0
 40
1.0
 40
1.0
 40
1.0
 40
1.0
 10
1842.925296050921
 20
1045.704411676563
 30
0.0
 10
1842.925422889628
 20
1045.701506077054
 30
0.0
 10
1842.925486339162
 20
1045.698597710579
 30
0.0
 10
1842.925486339162
 20
1045.69568934393
 30
0.0
  0
SPLINE
  5
60F
330
5F1
100
AcDbEntity
  8
0
  6
Continuous
 62
     7
370
    15
100
AcDbSpline
210
0.0
220
0.0
230
1.0
 70
     8
 71
     3
 72
    10
 73
     6
 74
     0
 42
0.0000000001
 43
0.0000000001
 40
0.0
 40
0.0
 40
0.0
 40
0.0
 40
0.5
 40
0.5
 40
1.0
 40
1.0
 40
1.0
 40
1.0
 10
1842.925486339162
 20
1045.69568934393
 30
0.0
 10
1842.925486339162
 20
1045.644667221238
 30
0.0
 10
1842.905063759991
 20
1045.593928806725
 30
0.0
 10
1842.834369920725
 20
1045.520339343444
 30
0.0
 10
1842.784491753259
 20
1045.497897488407
 30
0.0
 10
1842.733510713914
 20
1045.495850385241
 30
0.0
  0
SPLINE
  5
610
330
5F1
100
AcDbEntity
  8
0
  6
Continuous
 62
     7
370
    15
100
AcDbSpline
210
0.0
220
0.0
230
1.0
 70
     8
 71
     3
 72
    13
 73
     9
 74
     0
 42
0.0000000001
 43
0.0000000001
 40
0.0
 40
0.0
 40
0.0
 40
0.0
 40
0.1280104524594518
 40
0.2510755984417359
 40
0.3738450504906364
 40
0.5010008625525338
 40
0.74832905789736
 40
1.0
 40
1.0
 40
1.0
 40
1.0
 10
1842.733510713914
 20
1045.495850385241
 30
0.0
 10
1842.7205072526
 20
1045.49460285783
 30
0.0
 10
1842.695002680365
 20
1045.492155997554
 30
0.0
 10
1842.658705465255
 20
1045.479692238868
 30
0.0
 10
1842.625577672359
 20
1045.460662412645
 30
0.0
 10
1842.587374875025
 20
1045.42737624488
 30
0.0
 10
1842.549379366926
 20
1045.373077815067
 30
0.0
 10
1842.544164974889
 20
1045.321848836528
 30
0.0
 10
1842.541535088667
 20
1045.296011426553
 30
0.0
  0
LINE
  5
611
330
5F1
100
AcDbEntity
  8
0
  6
Continuous
 62
     7
370
    15
100
AcDbLine
 10
1842.541535088667
 20
1044.897123999208
 30
0.0
 11
1842.541535088667
 21
1045.296011426553
 31
0.0
  0
SPLINE
  5
612
330
5F1
100
AcDbEntity
  8
0
  6
Continuous
 62
     7
370
    15
100
AcDbSpline
210
0.0
220
0.0
230
1.0
 70
     8
 71
     3
 72
    13
 73
     9
 74
     0
 42
0.0000000001
 43
0.0000000001
 40
0.0
 40
0.0
 40
0.0
 40
0.0
 40
0.1281482339426854
 40
0.2510936230983605
 40
0.37374713155525
 40
0.5010535066078932
 40
0.7483541261407109
 40
1.0
 40
1.0
 40
1.0
 40
1.0
 10
1842.541535088667
 20
1044.897123999208
 30
0.0
 10
1842.542294300342
 20
1044.883724286826
 30
0.0
 10
1842.543781899541
 20
1044.857468893154
 30
0.0
 10
1842.555338103068
 20
1044.819812038463
 30
0.0
 10
1842.573942573907
 20
1044.785296585957
 30
0.0
 10
1842.607231063295
 20
1044.745352565509
 30
0.0
 10
1842.662407367851
 20
1044.705341037877
 30
0.0
 10
1842.715006488964
 20
1044.699878868517
 30
0.0
 10
1842.741535088667
 20
1044.697123999208
 30
0.0
  0
LINE
  5
613
330
5F1
100
AcDbEntity
  8
0
  6
Continuous
 62
     7
370
    15
100
AcDbLine
 10
1844.337586760554
 20
1044.697123999208
 30
0.0
 11
1842.741535088667
 21
1044.697123999208
 31
0.0
  0
LINE
  5
614
330
5F1
100
AcDbEntity
  8
0
  6
Continuous
 62
     7
370
    15
100
AcDbLine
 10
1844.537588503084
 20
1045.296008250518
 30
0.0
 11
1844.537586760552
 21
1044.897123125507
 31
0.0
  0
SPLINE
  5
615
330
5F1
100
AcDbEntity
  8
0
  6
Continuous
 62
     7
370
    15
100
AcDbSpline
210
0.0
220
0.0
230
1.0
 70
     8
 71
     3
 72
    13
 73
     9
 74
     0
 42
0.0000000001
 43
0.0000000001
 40
0.0
 40
0.0
 40
0.0
 40
0.0
 40
0.1280105496757866
 40
0.2510756112215582
 40
0.373844981520251
 40
0.5010008998219653
 40
0.7483290756513214
 40
1.0
 40
1.0
 40
1.0
 40
1.0
 10
1844.537588503084
 20
1045.296008250518
 30
0.0
 10
1844.536863871413
 20
1045.309051560311
 30
0.0
 10
1844.535442603087
 20
1045.334634271944
 30
0.0
 10
1844.524445339028
 20
1045.371403130575
 30
0.0
 10
1844.506759833801
 20
1045.405268494914
 30
0.0
 10
1844.475032709883
 20
1045.444776831439
 30
0.0
 10
1844.42230130303
 20
1045.484921012758
 30
0.0
 10
1844.371321711132
 20
1045.492186110334
 30
0.0
 10
1844.345610079565
 20
1045.495850272898
 30
0.0
  0
SPLINE
  5
616
330
5F1
100
AcDbEntity
  8
0
  6
Continuous
 62
     7
370
    15
100
AcDbSpline
210
0.0
220
0.0
230
1.0
 70
     8
 71
     3
 72
    10
 73
     6
 74
     0
 42
0.0000000001
 43
0.0000000001
 40
0.0
 40
0.0
 40
0.0
 40
0.0
 40
0.5
 40
0.5
 40
1.0
 40
1.0
 40
1.0
 40
1.0
 10
1844.345610079565
 20
1045.495850272897
 30
0.0
 10
1844.293174922732
 20
1045.497955029577
 30
0.0
 10
1844.241934080946
 20
1045.521684954921
 30
0.0
 10
1844.170892206182
 20
1045.598941376798
 30
0.0
 10
1844.151532518942
 20
1045.651987919887
 30
0.0
 10
1844.153822103842
 20
1045.704415331361
 30
0.0
  0
LINE
  5
617
330
5F1
100
AcDbEntity
  8
0
  6
Continuous
 62
     7
370
    15
100
AcDbLine
 10
1844.179931738659
 20
1046.302279410556
 30
0.0
 11
1844.153822103842
 21
1045.704415331361
 31
0.0
  0
ARC
  5
618
330
5F1
100
AcDbEntity
  8
0
  6
Continuous
 62
     7
370
    15
100
AcDbCircle
 10
1844.379741290841
 20
1046.293553423126
 30
0.0
 40
0.2000000000005286
100
AcDbArc
 50
90.0
 51
177.4993949655762
  0
LINE
  5
619
330
5F1
100
AcDbEntity
  8
0
  6
Continuous
 62
     7
370
    15
100
AcDbLine
 10
1845.853208916978
 20
1046.493553423126
 30
0.0
 11
1844.379741290841
 21
1046.493553423126
 31
0.0
  0
ARC
  5
61A
330
5F1
100
AcDbEntity
  8
0
  6
Continuous
 62
     7
370
    15
100
AcDbCircle
 10
1845.853208916978
 20
1046.293553423126
 30
0.0
 40
0.2000000000003013
100
AcDbArc
 50
2.50033587528783
 51
90.0
  0
LINE
  5
61B
330
5F1
100
AcDbEntity
  8
0
  6
Continuous
 62
     7
370
    15
100
AcDbLine
 10
1846.079125121835
 20
1045.704419183096
 30
0.0
 11
1846.053018510151
 21
1046.302278471908
 31
0.0
  0
SPLINE
  5
61C
330
5F1
100
AcDbEntity
  8
0
  6
Continuous
 62
     7
370
    15
100
AcDbSpline
210
0.0
220
0.0
230
1.0
 70
     8
 71
     3
 72
     8
 73
     4
 74
     0
 42
0.0000000001
 43
0.0000000001
 40
0.0
 40
0.0
 40
0.0
 40
0.0
 40
1.0
 40
1.0
 40
1.0
 40
1.0
 10
1846.079125121835
 20
1045.704419183096
 30
0.0
 10
1846.079252130186
 20
1045.701511619446
 30
0.0
 10
1846.079315664622
 20
1045.698601283301
 30
0.0
 10
1846.079315664622
 20
1045.695690946981
 30
0.0
  0
SPLINE
  5
61D
330
5F1
100
AcDbEntity
  8
0
  6
Continuous
 62
     7
370
    15
100
AcDbSpline
210
0.0
220
0.0
230
1.0
 70
     8
 71
     3
 72
    10
 73
     6
 74
     0
 42
0.0000000001
 43
0.0000000001
 40
0.0
 40
0.0
 40
0.0
 40
0.0
 40
0.5
 40
0.5
 40
1.0
 40
1.0
 40
1.0
 40
1.0
 10
1846.079315664622
 20
1045.695690946981
 30
0.0
 10
1846.079315664622
 20
1045.644667906335
 30
0.0
 10
1846.058892696612
 20
1045.593928580056
 30
0.0
 10
1845.988197530937
 20
1045.520337845197
 30
0.0
 10
1845.938318434778
 20
1045.497895638979
 30
0.0
 10
1845.887336475186
 20
1045.495848574546
 30
0.0
  0
SPLINE
  5
61E
330
5F1
100
AcDbEntity
  8
0
  6
Continuous
 62
     7
370
    15
100
AcDbSpline
210
0.0
220
0.0
230
1.0
 70
     8
 71
     3
 72
    13
 73
     9
 74
     0
 42
0.0000000001
 43
0.0000000001
 40
0.0
 40
0.0
 40
0.0
 40
0.0
 40
0.1280105369124614
 40
0.2510756095455999
 40
0.3738449905780623
 40
0.5010008949286903
 40
0.7483290733225863
 40
1.0
 40
1.0
 40
1.0
 40
1.0
 10
1845.887336475186
 20
1045.495848574547
 30
0.0
 10
1845.874332908486
 20
1045.494601047492
 30
0.0
 10
1845.848828145252
 20
1045.492154189419
 30
0.0
 10
1845.812530697873
 20
1045.479690230617
 30
0.0
 10
1845.779402787189
 20
1045.460660043412
 30
0.0
 10
1845.741200037735
 20
1045.427373257648
 30
0.0
 10
1845.703204908683
 20
1045.373073863276
 30
0.0
 10
1845.697991614432
 20
1045.321844371528
 30
0.0
 10
1845.695362281871
 20
1045.296006702622
 30
0.0
  0
LINE
  5
61F
330
5F1
100
AcDbEntity
  8
0
  6
Continuous
 62
     7
370
    15
100
AcDbLine
 10
1845.695362281871
 20
1044.897125799381
 30
0.0
 11
1845.695362281871
 21
1045.296006702622
 31
0.0
  0
SPLINE
  5
620
330
5F1
100
AcDbEntity
  8
0
  6
Continuous
 62
     7
370
    15
100
AcDbSpline
210
0.0
220
0.0
230
1.0
 70
     8
 71
     3
 72
    13
 73
     9
 74
     0
 42
0.0000000001
 43
0.0000000001
 40
0.0
 40
0.0
 40
0.0
 40
0.0
 40
0.1282760925718227
 40
0.2512700459128534
 40
0.3738837089795477
 40
0.5010629107461801
 40
0.7483049587497641
 40
0.9999999999999998
 40
0.9999999999999998
 40
0.9999999999999998
 40
0.9999999999999998
 10
1845.695362281871
 20
1044.897125799381
 30
0.0
 10
1845.696128936627
 20
1044.88371376694
 30
0.0
 10
1845.697630676913
 20
1044.857441981297
 30
0.0
 10
1845.709189961993
 20
1044.81977386391
 30
0.0
 10
1845.727784772093
 20
1044.785268496154
 30
0.0
 10
1845.761066587597
 20
1044.745349593478
 30
0.0
 10
1845.816243190516
 20
1044.705378411602
 30
0.0
 10
1845.868833636804
 20
1044.699892989181
 30
0.0
 10
1845.895363543746
 20
1044.697125799385
 30
0.0
  0
LINE
  5
621
330
5F1
100
AcDbEntity
  8
0
  6
Continuous
 62
     7
370
    15
100
AcDbLine
 10
1847.49140928886
 20
1044.697135869437
 30
0.0
 11
1845.895363543746
 21
1044.697125799385
 31
0.0
  0
SPLINE
  5
622
330
5F1
100
AcDbEntity
  8
0
  6
Continuous
 62
     7
370
    15
100
AcDbSpline
210
0.0
220
0.0
230
1.0
 70
     8
 71
     3
 72
    13
 73
     9
 74
     0
 42
0.0000000001
 43
0.0000000001
 40
0.0
 40
0.0
 40
0.0
 40
0.0
 40
0.1281482119456458
 40
0.2510936202333466
 40
0.3737471472134239
 40
0.5010534982318395
 40
0.7483541221522919
 40
1.0
 40
1.0
 40
1.0
 40
1.0
 10
1847.49140928886
 20
1044.697135869437
 30
0.0
 10
1847.504808940273
 20
1044.697895160209
 30
0.0
 10
1847.531064218688
 20
1044.699382914629
 30
0.0
 10
1847.568720861112
 20
1044.710939266958
 30
0.0
 10
1847.603236095359
 20
1044.729543809352
 30
0.0
 10
1847.643179840681
 20
1044.76283230303
 30
0.0
 10
1847.683191047346
 20
1044.818008473124
 30
0.0
 10
1847.688653177468
 20
1044.870607378542
 30
0.0
 10
1847.691408026985
 20
1044.897135869434
 30
0.0
  0
LINE
  5
623
330
5F1
100
AcDbEntity
  8
0
  6
Continuous
 62
     7
370
    15
100
AcDbLine
 10
1847.691408026985
 20
1045.296013202924
 30
0.0
 11
1847.691408026985
 21
1044.897135869434
 31
0.0
  0
SPLINE
  5
624
330
5F1
100
AcDbEntity
  8
0
  6
Continuous
 62
     7
370
    15
100
AcDbSpline
210
0.0
220
0.0
230
1.0
 70
     8
 71
     3
 72
    13
 73
     9
 74
     0
 42
0.0000000001
 43
0.0000000001
 40
0.0
 40
0.0
 40
0.0
 40
0.0
 40
0.1280104574687635
 40
0.2510755990993815
 40
0.3738450469354278
 40
0.5010008644729528
 40
0.7483290588118009
 40
1.0
 40
1.0
 40
1.0
 40
1.0
 10
1847.691408026985
 20
1045.296013202924
 30
0.0
 10
1847.690683226063
 20
1045.309056260051
 30
0.0
 10
1847.689261624818
 20
1045.334638493308
 30
0.0
 10
1847.6782641939
 20
1045.371406583928
 30
0.0
 10
1847.660578806203
 20
1045.405271238765
 30
0.0
 10
1847.628852151326
 20
1045.444778795319
 30
0.0
 10
1847.576121804177
 20
1045.48492226056
 30
0.0
 10
1847.525143225829
 20
1045.49218779209
 30
0.0
 10
1847.499432105548
 20
1045.495852173506
 30
0.0
  0
SPLINE
  5
625
330
5F1
100
AcDbEntity
  8
0
  6
Continuous
 62
     7
370
    15
100
AcDbSpline
210
0.0
220
0.0
230
1.0
 70
     8
 71
     3
 72
    10
 73
     6
 74
     0
 42
0.0000000001
 43
0.0000000001
 40
0.0
 40
0.0
 40
0.0
 40
0.0
 40
0.5
 40
0.5
 40
1.0
 40
1.0
 40
1.0
 40
1.0
 10
1847.499432105548
 20
1045.495852173505
 30
0.0
 10
1847.446997946136
 20
1045.497957547714
 30
0.0
 10
1847.39575830915
 20
1045.521687240674
 30
0.0
 10
1847.324717591115
 20
1045.598942085679
 30
0.0
 10
1847.305357816407
 20
1045.651987329101
 30
0.0
 10
1847.307646486804
 20
1045.704413807733
 30
0.0
  0
LINE
  5
626
330
5F1
100
AcDbEntity
  8
0
  6
Continuous
 62
     7
370
    15
100
AcDbLine
 10
1847.333746078749
 20
1046.302276086771
 30
0.0
 11
1847.307646486804
 21
1045.704413807733
 31
0.0
  0
ARC
  5
627
330
5F1
100
AcDbEntity
  8
0
  6
Continuous
 62
     7
370
    15
100
AcDbCircle
 10
1847.533555776059
 20
1046.293553423126
 30
0.0
 40
0.2000000000000739
100
AcDbArc
 50
90.0
 51
177.5003480670781
  0
LINE
  5
628
330
5F1
100
AcDbEntity
  8
0
  6
Continuous
 62
     7
370
    15
100
AcDbLine
 10
1847.91016995914
 20
1046.493553423126
 30
0.0
 11
1847.533555776059
 21
1046.493553423126
 31
0.0
  0
ARC
  5
629
330
5F1
100
AcDbEntity
  8
0
  6
Continuous
 62
     7
370
    15
100
AcDbCircle
 10
1847.91016995914
 20
1046.693553423126
 30
0.0
 40
0.1999999999999886
100
AcDbArc
 50
270.0
 51
0.0
  0
LINE
  5
62A
330
5F1
100
AcDbEntity
  8
0
  6
Continuous
 62
     7
370
    15
100
AcDbLine
 10
1848.11016995914
 20
1047.192298673822
 30
0.0
 11
1848.11016995914
 21
1046.693553423126
 31
0.0
  0
LINE
  5
62B
330
5F1
100
AcDbEntity
  8
0
  6
Continuous
 62
     7
370
    15
100
AcDbLine
 10
1849.136151041954
 20
1047.192298673822
 30
0.0
 11
1848.11016995914
 21
1047.192298673822
 31
0.0
  0
LINE
  5
62C
330
5F1
100
AcDbEntity
  8
0
  6
Continuous
 62
     7
370
    15
100
AcDbLine
 10
1852.294078199667
 20
1046.196608065627
 30
0.0
 11
1849.136151041954
 21
1047.192298673822
 31
0.0
  0
ARC
  5
62D
330
5F1
100
AcDbEntity
  8
0
  6
Continuous
 62
     7
370
    15
100
AcDbCircle
 10
1851.993372400163
 20
1045.242891114879
 30
0.0
 40
0.9999999999998959
100
AcDbArc
 50
29.99999999999729
 51
72.50000000000636
  0
LINE
  5
62E
330
5F1
100
AcDbEntity
  8
0
  6
Continuous
 62
     7
370
    15
100
AcDbLine
 10
1856.415318911826
 20
1039.583855088326
 30
0.0
 11
1852.859397803948
 21
1045.742891114879
 31
0.0
  0
ARC
  5
62F
330
5F1
100
AcDbEntity
  8
0
  6
Continuous
 62
     7
370
    15
100
AcDbCircle
 10
1855.116280806149
 20
1038.833855088327
 30
0.0
 40
1.5
100
AcDbArc
 50
0.0
 51
30.0000000000038
  0
LINE
  5
630
330
5F1
100
AcDbEntity
  8
0
  6
Continuous
 62
     7
370
    15
100
AcDbLine
 10
1856.616280806149
 20
1028.736411690428
 30
0.0
 11
1856.616280806149
 21
1038.833855088327
 31
0.0
  0
LINE
  5
631
330
5F1
100
AcDbEntity
  8
0
  6
Continuous
 62
     7
370
    15
100
AcDbLine
 10
1853.116280806149
 20
1025.236411690427
 30
0.0
 11
1856.616280806149
 21
1028.736411690428
 31
0.0
  0
LINE
  5
632
330
5F1
100
AcDbEntity
  8
0
  6
Continuous
 62
     7
370
    15
100
AcDbLine
 10
1853.116280806149
 20
1025.236411690427
 30
0.0
 11
1853.116280806149
 21
1022.692298673822
 31
0.0
  0
LINE
  5
633
330
5F1
100
AcDbEntity
  8
0
  6
Continuous
 62
     7
370
    15
100
AcDbLine
 10
1853.116280806149
 20
1022.692298673822
 30
0.0
 11
1848.366280806149
 21
1022.692298673822
 31
0.0
  0
LINE
  5
634
330
5F1
100
AcDbEntity
  8
0
  6
Continuous
 62
     7
370
    15
100
AcDbLine
 10
1848.366280806149
 20
1022.692298673822
 30
0.0
 11
1848.366280806149
 21
1020.192298673822
 31
0.0
  0
LINE
  5
635
330
5F1
100
AcDbEntity
  8
0
  6
Continuous
 62
     7
370
    15
100
AcDbLine
 10
1848.366280806149
 20
1020.192298673822
 30
0.0
 11
1841.866280806149
 21
1020.192298673822
 31
0.0
  0
LINE
  5
636
330
5F1
100
AcDbEntity
  8
0
  6
Continuous
 62
     7
370
    15
100
AcDbLine
 10
1841.866280806149
 20
1020.192298673822
 30
0.0
 11
1841.866280806149
 21
1022.692298673822
 31
0.0
  0
LINE
  5
637
330
5F1
100
AcDbEntity
  8
0
  6
Continuous
 62
     7
370
    15
100
AcDbLine
 10
1841.866280806149
 20
1022.692298673822
 30
0.0
 11
1837.116280806149
 21
1022.692298673822
 31
0.0
  0
LINE
  5
638
330
5F1
100
AcDbEntity
  8
0
  6
Continuous
 62
     7
370
    15
100
AcDbLine
 10
1837.116280806149
 20
1022.692298673822
 30
0.0
 11
1837.116280806149
 21
1025.236411690427
 31
0.0
  0
LINE
  5
639
330
5F1
100
AcDbEntity
  8
0
  6
Continuous
 62
     7
370
    15
100
AcDbLine
 10
1833.616280806149
 20
1028.736411690427
 30
0.0
 11
1837.116280806149
 21
1025.236411690427
 31
0.0
  0
CIRCLE
  5
63A
330
5F1
100
AcDbEntity
  8
0
  6
Continuous
 62
     7
370
    15
100
AcDbCircle
 10
1834.976280806149
 20
1032.749153390227
 30
0.0
 40
0.9799999999999897
  0
CIRCLE
  5
63B
330
5F1
100
AcDbEntity
  8
0
  6
Continuous
 62
     7
370
    15
100
AcDbCircle
 10
1855.256280806148
 20
1032.749153390227
 30
0.0
 40
0.9799999999999897
  0
CIRCLE
  5
63C
330
5F1
100
AcDbEntity
  8
0
  6
Continuous
 62
     7
370
    15
100
AcDbCircle
 10
1855.255631710042
 20
1036.466043002557
 30
0.0
 40
0.7500000000000285
  0
SPLINE
  5
63D
330
5F1
100
AcDbEntity
  8
0
  6
Continuous
 62
     7
370
    15
100
AcDbSpline
210
0.0
220
0.0
230
1.0
 70
     8
 71
     3
 72
    13
 73
     9
 74
     0
 42
0.0000000001
 43
0.0000000001
 40
0.0
 40
0.0
 40
0.0
 40
0.0
 40
0.1281482187053306
 40
0.2510936211057128
 40
0.3737471423897137
 40
0.501053500806844
 40
0.7483541233700839
 40
0.9999999999999998
 40
0.9999999999999998
 40
0.9999999999999998
 40
0.9999999999999998
 10
1844.337586760554
 20
1044.697123999208
 30
0.0
 10
1844.350986434038
 20
1044.697883207111
 30
0.0
 10
1844.377241754406
 20
1044.699370799086
 30
0.0
 10
1844.41489851261
 20
1044.710926941138
 30
0.0
 10
1844.44941389527
 20
1044.729531310741
 30
0.0
 10
1844.489357870648
 20
1044.762819628602
 30
0.0
 10
1844.529369417086
 20
1044.817995665269
 30
0.0
 10
1844.534831789056
 20
1044.870594613176
 30
0.0
 10
1844.537586760552
 20
1044.897123125507
 30
0.0
  0
LINE
  5
63E
330
5F1
100
AcDbEntity
  8
0
  6
Continuous
 62
     7
370
    15
100
AcDbLine
 10
1844.379741290841
 20
1046.493553423127
 30
0.0
 11
1842.69938766096
 21
1046.493553423127
 31
0.0
  0
LINE
  5
63F
330
5F1
100
AcDbEntity
  8
0
  6
Continuous
 62
     7
370
    15
100
AcDbLine
 10
1847.533555776059
 20
1046.493553423126
 30
0.0
 11
1845.853208916978
 21
1046.493553423126
 31
0.0
  0
ENDBLK
  5
5F3
330
5F1
100
AcDbEntity
  8
0
100
AcDbBlockEnd
  0
BLOCK
  5
642
330
641
100
AcDbEntity
  8
0
100
AcDbBlockBegin
  2
2
 70
     0
 10
0.0
 20
0.0
 30
0.0
  3
2
  1

  0
LINE
  5
644
330
641
100
AcDbEntity
  8
0
  6
Continuous
 62
     7
370
    15
100
AcDbLine
 10
1812.568810474326
 20
1030.399153390218
 30
0.0
 11
1810.597556480706
 21
1030.399153390218
 31
0.0
  0
LINE
  5
645
330
641
100
AcDbEntity
  8
0
  6
Continuous
 62
     7
370
    15
100
AcDbLine
 10
1810.597556480706
 20
1028.399153390243
 30
0.0
 11
1812.568810474326
 21
1028.399153390243
 31
0.0
  0
LINE
  5
646
330
641
100
AcDbEntity
  8
0
  6
Continuous
 62
     7
370
    15
100
AcDbLine
 10
1817.868810474326
 20
1035.716043002556
 30
0.0
 11
1819.838810474326
 21
1035.716043002556
 31
0.0
  0
LINE
  5
647
330
641
100
AcDbEntity
  8
0
  6
Continuous
 62
     7
370
    15
100
AcDbLine
 10
1819.838810474326
 20
1037.216043002557
 30
0.0
 11
1817.868810474326
 21
1037.216043002557
 31
0.0
  0
LINE
  5
648
330
641
100
AcDbEntity
  8
0
  6
Continuous
 62
     7
370
    15
100
AcDbLine
 10
1812.568810474326
 20
1043.787361961035
 30
0.0
 11
1811.297556480706
 21
1043.787361961035
 31
0.0
  0
LINE
  5
649
330
641
100
AcDbEntity
  8
0
  6
Continuous
 62
     7
370
    15
100
AcDbLine
 10
1811.297556480706
 20
1041.787361961035
 30
0.0
 11
1812.568810474326
 21
1041.787361961035
 31
0.0
  0
LINE
  5
64A
330
641
100
AcDbEntity
  8
0
  6
Continuous
 62
     7
370
    15
100
AcDbLine
 10
1817.868810474326
 20
1028.399153390239
 30
0.0
 11
1819.838810474326
 21
1028.399153390239
 31
0.0
  0
LINE
  5
64B
330
641
100
AcDbEntity
  8
0
  6
Continuous
 62
     7
370
    15
100
AcDbLine
 10
1819.838810474326
 20
1030.399153390214
 30
0.0
 11
1817.868810474326
 21
1030.399153390214
 31
0.0
  0
LINE
  5
64C
330
641
100
AcDbEntity
  8
0
  6
Continuous
 62
     7
370
    15
100
AcDbLine
 10
1812.568810474326
 20
1037.21604300255
 30
0.0
 11
1810.597556480706
 21
1037.21604300255
 31
0.0
  0
LINE
  5
64D
330
641
100
AcDbEntity
  8
0
  6
Continuous
 62
     7
370
    15
100
AcDbLine
 10
1810.597556480706
 20
1035.716043002549
 30
0.0
 11
1812.568810474326
 21
1035.716043002549
 31
0.0
  0
LINE
  5
64E
330
641
100
AcDbEntity
  8
0
  6
Continuous
 62
     7
370
    15
100
AcDbLine
 10
1812.568810474326
 20
1028.736411690428
 30
0.0
 11
1812.568810474326
 21
1038.833855088327
 31
0.0
  0
LINE
  5
64F
330
641
100
AcDbEntity
  8
0
  6
Continuous
 62
     7
370
    15
100
AcDbLine
 10
1812.568810474326
 20
1038.833855088327
 30
0.0
 11
1817.868810474326
 21
1038.833855088327
 31
0.0
  0
LINE
  5
650
330
641
100
AcDbEntity
  8
0
  6
Continuous
 62
     7
370
    15
100
AcDbLine
 10
1817.868810474326
 20
1038.833855088327
 30
0.0
 11
1817.868810474326
 21
1028.736411690428
 31
0.0
  0
LINE
  5
651
330
641
100
AcDbEntity
  8
0
  6
Continuous
 62
     7
370
    15
100
AcDbLine
 10
1817.868810474326
 20
1028.736411690428
 30
0.0
 11
1812.568810474326
 21
1028.736411690428
 31
0.0
  0
LINE
  5
652
330
641
100
AcDbEntity
  8
0
  6
Continuous
 62
     7
370
    15
100
AcDbLine
 10
1812.568810474326
 20
1039.583855088326
 30
0.0
 11
1812.568810474326
 21
1038.833855088327
 31
0.0
  0
LINE
  5
653
330
641
100
AcDbEntity
  8
0
  6
Continuous
 62
     7
370
    15
100
AcDbLine
 10
1817.868810474326
 20
1039.583855088327
 30
0.0
 11
1812.568810474326
 21
1039.583855088326
 31
0.0
  0
SPLINE
  5
654
330
641
100
AcDbEntity
  8
0
  6
Continuous
 62
     7
370
    15
100
AcDbSpline
210
0.0
220
0.0
230
1.0
 70
    24
 71
     3
 72
     8
 73
     4
 74
     0
 42
0.0000000001
 43
0.0000000001
 40
0.0
 40
0.0
 40
0.0
 40
0.0
 40
1.0
 40
1.0
 40
1.0
 40
1.0
 10
1817.868810474326
 20
1038.833855088327
 30
0.0
 10
1817.868810474326
 20
1039.095654476126
 30
0.0
 10
1817.868810474326
 20
1039.357130167797
 30
0.0
 10
1817.868810474326
 20
1039.583855088327
 30
0.0
  0
LINE
  5
655
330
641
100
AcDbEntity
  8
0
  6
Continuous
 62
     7
370
    15
100
AcDbLine
 10
1812.568810474326
 20
1025.236411690427
 30
0.0
 11
1812.568810474326
 21
1028.736411690428
 31
0.0
  0
LINE
  5
656
330
641
100
AcDbEntity
  8
0
  6
Continuous
 62
     7
370
    15
100
AcDbLine
 10
1817.868810474326
 20
1025.236411690427
 30
0.0
 11
1812.568810474326
 21
1025.236411690427
 31
0.0
  0
LINE
  5
657
330
641
100
AcDbEntity
  8
0
  6
Continuous
 62
     7
370
    15
100
AcDbLine
 10
1817.868810474326
 20
1028.736411690428
 30
0.0
 11
1817.868810474326
 21
1025.236411690427
 31
0.0
  0
ELLIPSE
  5
658
330
641
100
AcDbEntity
  8
0
  6
Continuous
 62
     7
370
    15
100
AcDbEllipse
 10
1815.218810474326
 20
1043.025734237764
 30
0.0
 11
0.0
 21
2.9365696952554
 31
0.0
210
0.0
220
0.0
230
1.0
 40
0.8513334466535006
 41
0.3890162787028361
 42
5.894169028476755
  0
LINE
  5
659
330
641
100
AcDbEntity
  8
0
  6
Continuous
 62
     7
370
    15
100
AcDbLine
 10
1816.167006420761
 20
1045.742891114879
 30
0.0
 11
1817.868810474326
 21
1045.742891114879
 31
0.0
  0
LINE
  5
65A
330
641
100
AcDbEntity
  8
0
  6
Continuous
 62
     7
370
    15
100
AcDbLine
 10
1812.568810474326
 20
1045.742891114879
 30
0.0
 11
1814.27061452789
 21
1045.742891114879
 31
0.0
  0
LINE
  5
65B
330
641
100
AcDbEntity
  8
0
  6
Continuous
 62
     7
370
    15
100
AcDbLine
 10
1812.568810474326
 20
1039.583855088326
 30
0.0
 11
1812.568810474326
 21
1045.742891114879
 31
0.0
  0
LINE
  5
65C
330
641
100
AcDbEntity
  8
0
  6
Continuous
 62
     7
370
    15
100
AcDbLine
 10
1817.868810474326
 20
1045.742891114879
 30
0.0
 11
1817.868810474326
 21
1039.583855088326
 31
0.0
  0
SPLINE
  5
65D
330
641
100
AcDbEntity
  8
0
  6
Continuous
 62
     7
370
    15
100
AcDbSpline
210
0.0
220
0.0
230
1.0
 70
     8
 71
     3
 72
    13
 73
     9
 74
     0
 42
0.0000000001
 43
0.0000000001
 40
0.0
 40
0.0
 40
0.0
 40
0.0
 40
0.1212288931312526
 40
0.2446367187362809
 40
0.3708383559587339
 40
0.5004090332587563
 40
0.7484206921211328
 40
1.0
 40
1.0
 40
1.0
 40
1.0
 10
1814.27061452789
 20
1045.742891114879
 30
0.0
 10
1814.305861786849
 20
1045.758842368771
 30
0.0
 10
1814.376989828633
 20
1045.791031579701
 30
0.0
 10
1814.489684829464
 20
1045.829396059879
 30
0.0
 10
1814.60765137078
 20
1045.86161773452
 30
0.0
 10
1814.76763693426
 20
1045.894732588561
 30
0.0
 10
1814.971820625669
 20
1045.922209021872
 30
0.0
 10
1815.136089502427
 20
1045.926012443744
 30
0.0
 10
1815.218810474326
 20
1045.927927735064
 30
0.0
  0
SPLINE
  5
65E
330
641
100
AcDbEntity
  8
0
  6
Continuous
 62
     7
370
    15
100
AcDbSpline
210
0.0
220
0.0
230
1.0
 70
     8
 71
     3
 72
    14
 73
    10
 74
     0
 42
0.0000000001
 43
0.0000000001
 40
0.0
 40
0.0
 40
0.0
 40
0.0
 40
0.1266729933632654
 40
0.2517769781118529
 40
0.3757211834248226
 40
0.4989263570814324
 40
0.6711295750404327
 40
0.8376817386240631
 40
1.0
 40
1.0
 40
1.0
 40
1.0
 10
1815.218810474326
 20
1045.927927735064
 30
0.0
 10
1815.260447312207
 20
1045.927412329194
 30
0.0
 10
1815.34320526196
 20
1045.926387901422
 30
0.0
 10
1815.466308851492
 20
1045.918417472779
 30
0.0
 10
1815.587469137727
 20
1045.905539000578
 30
0.0
 10
1815.722584588328
 20
1045.884665716312
 30
0.0
 10
1815.868881361149
 20
1045.852694206713
 30
0.0
 10
1816.02357342315
 20
1045.806411345584
 30
0.0
 10
1816.119607538328
 20
1045.763882016536
 30
0.0
 10
1816.167006420761
 20
1045.742891114879
 30
0.0
  0
SPLINE
  5
65F
330
641
100
AcDbEntity
  8
0
  6
Continuous
 62
     7
370
    15
100
AcDbSpline
210
0.0
220
0.0
230
1.0
 70
     8
 71
     3
 72
    24
 73
    20
 74
     0
 42
0.0000000001
 43
0.0000000001
 40
0.0
 40
0.0
 40
0.0
 40
0.0
 40
0.0227111705367899
 40
0.0882246991884773
 40
0.1530385216912897
 40
0.2174616820904765
 40
0.3041211796396666
 40
0.3881711653605313
 40
0.4295093574885219
 40
0.4705360203984352
 40
0.5113714973149719
 40
0.5521378246555774
 40
0.6047429903805617
 40
0.6562299104018811
 40
0.7069146027015841
 40
0.7571282339350908
 40
0.8072113160856289
 40
0.9039565915629154
 40
0.9999999999999998
 40
0.9999999999999998
 40
0.9999999999999998
 40
0.9999999999999998
 10
1817.654722931364
 20
1042.385934583686
 30
0.0
 10
1817.650722062618
 20
1042.407962927412
 30
0.0
 10
1817.635180131785
 20
1042.493535090927
 30
0.0
 10
1817.586417251936
 20
1042.638762648936
 30
0.0
 10
1817.515363783115
 20
1042.821009500944
 30
0.0
 10
1817.417021273561
 20
1043.017794003781
 30
0.0
 10
1817.288883786066
 20
1043.224795354286
 30
0.0
 10
1817.150129141622
 20
1043.401358345807
 30
0.0
 10
1817.027865004228
 20
1043.532374402985
 30
0.0
 10
1816.930900242772
 20
1043.625368576942
 30
0.0
 10
1816.82817182422
 20
1043.71360889621
 30
0.0
 10
1816.709269600772
 20
1043.805149961336
 30
0.0
 10
1816.573216077356
 20
1043.897320236442
 30
0.0
 10
1816.418712881974
 20
1043.986618627311
 30
0.0
 10
1816.258245239628
 20
1044.06459770773
 30
0.0
 10
1816.091789342171
 20
1044.131330630881
 30
0.0
 10
1815.86633361142
 20
1044.20344360014
 30
0.0
 10
1815.575443904774
 20
1044.267656599187
 30
0.0
 10
1815.337399409315
 20
1044.277046046483
 30
0.0
 10
1815.218810474326
 20
1044.281723678507
 30
0.0
  0
SPLINE
  5
660
330
641
100
AcDbEntity
  8
0
  6
Continuous
 62
     7
370
    15
100
AcDbSpline
210
0.0
220
0.0
230
1.0
 70
     8
 71
     3
 72
    25
 73
    21
 74
     0
 42
0.0000000001
 43
0.0000000001
 40
0.0
 40
0.0
 40
0.0
 40
0.0
 40
0.0385328016795415
 40
0.0769276001018336
 40
0.1153677893003232
 40
0.1540361174831644
 40
0.1931121321521191
 40
0.2431339784945892
 40
0.2933331452408853
 40
0.3440514680275867
 40
0.3956204595276259
 40
0.4483555919928668
 40
0.5298743434677922
 40
0.6122280613167201
 40
0.668081235874505
 40
0.7249983948205049
 40
0.7832334920941606
 40
0.8798940124764079
 40
0.978065049917817
 40
1.0
 40
1.0
 40
1.0
 40
1.0
 10
1815.218810474326
 20
1044.281723678507
 30
0.0
 10
1815.171314579812
 20
1044.280961569594
 30
0.0
 10
1815.0764928949
 20
1044.279440081221
 30
0.0
 10
1814.934967019289
 20
1044.267306045813
 30
0.0
 10
1814.794637117073
 20
1044.247943580494
 30
0.0
 10
1814.655508742998
 20
1044.220658475037
 30
0.0
 10
1814.505429303698
 20
1044.18254320514
 30
0.0
 10
1814.346062312617
 20
1044.1314152978
 30
0.0
 10
1814.179777510593
 20
1044.064815437881
 30
0.0
 10
1814.019308567969
 20
1043.986815458185
 30
0.0
 10
1813.864660234294
 20
1043.89743711108
 30
0.0
 10
1813.690222218622
 20
1043.779337299986
 30
0.0
 10
1813.503283261329
 20
1043.627332929692
 30
0.0
 10
1813.336060845518
 20
1043.457595966999
 30
0.0
 10
1813.204961344315
 20
1043.2972852505
 30
0.0
 10
1813.102504242755
 20
1043.150864397562
 30
0.0
 10
1812.990260641153
 20
1042.963428706797
 30
0.0
 10
1812.882799749274
 20
1042.730696624231
 30
0.0
 10
1812.808678430377
 20
1042.525861428377
 30
0.0
 10
1812.787252267276
 20
1042.409485683768
 30
0.0
 10
1812.783339208255
 20
1042.388231987749
 30
0.0
  0
SPLINE
  5
661
330
641
100
AcDbEntity
  8
0
  6
Continuous
 62
     7
370
    15
100
AcDbSpline
210
0.0
220
0.0
230
1.0
 70
    24
 71
     3
 72
    10
 73
     6
 74
     0
 42
0.0000000001
 43
0.0000000001
 40
0.0
 40
0.0
 40
0.0
 40
0.0
 40
0.5
 40
0.5
 40
1.0
 40
1.0
 40
1.0
 40
1.0
 10
1810.598810474326
 20
1029.399153390231
 30
0.0
 10
1810.598810474326
 20
1029.137354002435
 30
0.0
 10
1810.598810474326
 20
1028.877166731474
 30
0.0
 10
1810.598810474326
 20
1028.506926486632
 30
0.0
 10
1810.598810474326
 20
1028.399153390243
 30
0.0
 10
1810.598810474326
 20
1028.399153390243
 30
0.0
  0
SPLINE
  5
662
330
641
100
AcDbEntity
  8
0
  6
Continuous
 62
     7
370
    15
100
AcDbSpline
210
0.0
220
0.0
230
1.0
 70
    24
 71
     3
 72
    10
 73
     6
 74
     0
 42
0.0000000001
 43
0.0000000001
 40
0.0
 40
0.0
 40
0.0
 40
0.0
 40
0.5
 40
0.5
 40
1.0
 40
1.0
 40
1.0
 40
1.0
 10
1810.598810474326
 20
1030.399153390218
 30
0.0
 10
1810.598810474326
 20
1030.399153390218
 30
0.0
 10
1810.598810474326
 20
1030.291380293829
 30
0.0
 10
1810.598810474326
 20
1029.921140048987
 30
0.0
 10
1810.598810474326
 20
1029.660952778026
 30
0.0
 10
1810.598810474326
 20
1029.399153390231
 30
0.0
  0
LINE
  5
663
330
641
100
AcDbEntity
  8
0
  6
Continuous
 62
     7
370
    15
100
AcDbLine
 10
1819.838810474326
 20
1036.466043002557
 30
0.0
 11
1819.838810474326
 21
1037.216043002557
 31
0.0
  0
LINE
  5
664
330
641
100
AcDbEntity
  8
0
  6
Continuous
 62
     7
370
    15
100
AcDbLine
 10
1819.838810474326
 20
1035.716043002556
 30
0.0
 11
1819.838810474326
 21
1036.466043002557
 31
0.0
  0
LINE
  5
665
330
641
100
AcDbEntity
  8
0
  6
Continuous
 62
     7
370
    15
100
AcDbLine
 10
1817.868810474326
 20
1022.692298673822
 30
0.0
 11
1812.568810474326
 21
1022.692298673822
 31
0.0
  0
LINE
  5
666
330
641
100
AcDbEntity
  8
0
  6
Continuous
 62
     7
370
    15
100
AcDbLine
 10
1812.568810474326
 20
1025.236411690427
 30
0.0
 11
1812.568810474326
 21
1022.692298673822
 31
0.0
  0
LINE
  5
667
330
641
100
AcDbEntity
  8
0
  6
Continuous
 62
     7
370
    15
100
AcDbLine
 10
1817.868810474326
 20
1025.236411690427
 30
0.0
 11
1817.868810474326
 21
1022.692298673822
 31
0.0
  0
LINE
  5
668
330
641
100
AcDbEntity
  8
0
  6
Continuous
 62
     7
370
    15
100
AcDbLine
 10
1817.868810474326
 20
1046.196608065627
 30
0.0
 11
1812.568810474326
 21
1046.196608065627
 31
0.0
  0
LINE
  5
669
330
641
100
AcDbEntity
  8
0
  6
Continuous
 62
     7
370
    15
100
AcDbLine
 10
1812.568810474326
 20
1046.196608065627
 30
0.0
 11
1812.568810474326
 21
1045.742891114879
 31
0.0
  0
SPLINE
  5
66A
330
641
100
AcDbEntity
  8
0
  6
Continuous
 62
     7
370
    15
100
AcDbSpline
210
0.0
220
0.0
230
1.0
 70
    24
 71
     3
 72
     8
 73
     4
 74
     0
 42
0.0000000001
 43
0.0000000001
 40
0.0
 40
0.0
 40
0.0
 40
0.0
 40
1.0
 40
1.0
 40
1.0
 40
1.0
 10
1817.868810474326
 20
1045.742891114879
 30
0.0
 10
1817.868810474326
 20
1045.95702020649
 30
0.0
 10
1817.868810474326
 20
1046.122257059977
 30
0.0
 10
1817.868810474326
 20
1046.196608065627
 30
0.0
  0
LINE
  5
66B
330
641
100
AcDbEntity
  8
0
  6
Continuous
 62
     7
370
    15
100
AcDbLine
 10
1811.298810474326
 20
1027.038682854613
 30
0.0
 11
1812.568810474326
 21
1027.038682854613
 31
0.0
  0
LINE
  5
66C
330
641
100
AcDbEntity
  8
0
  6
Continuous
 62
     7
370
    15
100
AcDbLine
 10
1812.568810474326
 20
1027.238682854613
 30
0.0
 11
1811.298810474326
 21
1027.238682854613
 31
0.0
  0
SPLINE
  5
66D
330
641
100
AcDbEntity
  8
0
  6
Continuous
 62
     7
370
    15
100
AcDbSpline
210
0.0
220
0.0
230
1.0
 70
    24
 71
     3
 72
    10
 73
     6
 74
     0
 42
0.0000000001
 43
0.0000000001
 40
0.0
 40
0.0
 40
0.0
 40
0.0
 40
0.5
 40
0.5
 40
1.0
 40
1.0
 40
1.0
 40
1.0
 10
1811.298810474326
 20
1027.238682854613
 30
0.0
 10
1811.298810474326
 20
1027.238682854613
 30
0.0
 10
1811.298810474326
 20
1027.217128235335
 30
0.0
 10
1811.298810474326
 20
1027.143080186365
 30
0.0
 10
1811.298810474326
 20
1027.091042732173
 30
0.0
 10
1811.298810474326
 20
1027.038682854613
 30
0.0
  0
LINE
  5
66E
330
641
100
AcDbEntity
  8
0
  6
Continuous
 62
     7
370
    15
100
AcDbLine
 10
1812.568810474326
 20
1026.242298673821
 30
0.0
 11
1811.298810474326
 21
1026.242298673821
 31
0.0
  0
LINE
  5
66F
330
641
100
AcDbEntity
  8
0
  6
Continuous
 62
     7
370
    15
100
AcDbLine
 10
1811.298810474326
 20
1027.038682854613
 30
0.0
 11
1811.298810474326
 21
1026.242298673821
 31
0.0
  0
LINE
  5
670
330
641
100
AcDbEntity
  8
0
  6
Continuous
 62
     7
370
    15
100
AcDbLine
 10
1811.298810474326
 20
1026.042298673822
 30
0.0
 11
1812.568810474326
 21
1026.042298673822
 31
0.0
  0
SPLINE
  5
671
330
641
100
AcDbEntity
  8
0
  6
Continuous
 62
     7
370
    15
100
AcDbSpline
210
0.0
220
0.0
230
1.0
 70
    24
 71
     3
 72
    10
 73
     6
 74
     0
 42
0.0000000001
 43
0.0000000001
 40
0.0
 40
0.0
 40
0.0
 40
0.0
 40
0.5
 40
0.5
 40
1.0
 40
1.0
 40
1.0
 40
1.0
 10
1811.298810474326
 20
1026.242298673821
 30
0.0
 10
1811.298810474326
 20
1026.189938796262
 30
0.0
 10
1811.298810474326
 20
1026.137901342069
 30
0.0
 10
1811.298810474326
 20
1026.0638532931
 30
0.0
 10
1811.298810474326
 20
1026.042298673822
 30
0.0
 10
1811.298810474326
 20
1026.042298673822
 30
0.0
  0
LINE
  5
672
330
641
100
AcDbEntity
  8
0
  6
Continuous
 62
     7
370
    15
100
AcDbLine
 10
1817.868810474326
 20
1047.192298673821
 30
0.0
 11
1817.118810474326
 21
1047.192298673821
 31
0.0
  0
LINE
  5
673
330
641
100
AcDbEntity
  8
0
  6
Continuous
 62
     7
370
    15
100
AcDbLine
 10
1813.318810474326
 20
1047.192298673821
 30
0.0
 11
1812.568810474326
 21
1047.192298673821
 31
0.0
  0
LINE
  5
674
330
641
100
AcDbEntity
  8
0
  6
Continuous
 62
     7
370
    15
100
AcDbLine
 10
1813.318810474326
 20
1047.192298673822
 30
0.0
 11
1813.318810474326
 21
1046.230041750025
 31
0.0
  0
LINE
  5
675
330
641
100
AcDbEntity
  8
0
  6
Continuous
 62
     7
370
    15
100
AcDbLine
 10
1813.318810474326
 20
1046.230041750025
 30
0.0
 11
1817.118810474326
 21
1046.230041750025
 31
0.0
  0
LINE
  5
676
330
641
100
AcDbEntity
  8
0
  6
Continuous
 62
     7
370
    15
100
AcDbLine
 10
1817.118810474326
 20
1046.230041750025
 30
0.0
 11
1817.118810474326
 21
1047.192298673822
 31
0.0
  0
LINE
  5
677
330
641
100
AcDbEntity
  8
0
  6
Continuous
 62
     7
370
    15
100
AcDbLine
 10
1812.568810474326
 20
1046.196608065627
 30
0.0
 11
1812.568810474326
 21
1047.192298673822
 31
0.0
  0
LINE
  5
678
330
641
100
AcDbEntity
  8
0
  6
Continuous
 62
     7
370
    15
100
AcDbLine
 10
1817.868810474326
 20
1047.192298673822
 30
0.0
 11
1817.868810474326
 21
1046.196608065627
 31
0.0
  0
LINE
  5
679
330
641
100
AcDbEntity
  8
0
  6
Continuous
 62
     7
370
    15
100
AcDbLine
 10
1815.512346761201
 20
1046.257344676277
 30
0.0
 11
1816.968810474326
 21
1046.257344676277
 31
0.0
  0
LINE
  5
67A
330
641
100
AcDbEntity
  8
0
  6
Continuous
 62
     7
370
    15
100
AcDbLine
 10
1816.968810474326
 20
1046.257344676277
 30
0.0
 11
1816.968810474326
 21
1046.230041750025
 31
0.0
  0
LINE
  5
67B
330
641
100
AcDbEntity
  8
0
  6
Continuous
 62
     7
370
    15
100
AcDbLine
 10
1813.468810474326
 20
1046.230041750025
 30
0.0
 11
1813.468810474326
 21
1046.257344676277
 31
0.0
  0
LINE
  5
67C
330
641
100
AcDbEntity
  8
0
  6
Continuous
 62
     7
370
    15
100
AcDbLine
 10
1813.468810474326
 20
1046.257344676277
 30
0.0
 11
1814.925274187451
 21
1046.257344676277
 31
0.0
  0
SPLINE
  5
67D
330
641
100
AcDbEntity
  8
0
  6
Continuous
 62
     7
370
    15
100
AcDbSpline
210
0.0
220
0.0
230
1.0
 70
     8
 71
     3
 72
     9
 73
     5
 74
     0
 42
0.0000000001
 43
0.0000000001
 40
0.0
 40
0.0
 40
0.0
 40
0.0
 40
0.5499012799860736
 40
1.0
 40
1.0
 40
1.0
 40
1.0
 10
1814.925274187451
 20
1046.257344676277
 30
0.0
 10
1814.970306156452
 20
1046.24896633625
 30
0.0
 10
1815.052197162421
 20
1046.233730256009
 30
0.0
 10
1815.147783271567
 20
1046.231186631955
 30
0.0
 10
1815.190806456946
 20
1046.230041750025
 30
0.0
  0
SPLINE
  5
67E
330
641
100
AcDbEntity
  8
0
  6
Continuous
 62
     7
370
    15
100
AcDbSpline
210
0.0
220
0.0
230
1.0
 70
     8
 71
     3
 72
     9
 73
     5
 74
     0
 42
0.0000000001
 43
0.0000000001
 40
0.0
 40
0.0
 40
0.0
 40
0.0
 40
0.450098720027648
 40
1.0
 40
1.0
 40
1.0
 40
1.0
 10
1815.246814491699
 20
1046.230041750025
 30
0.0
 10
1815.28983767708
 20
1046.231186631955
 30
0.0
 10
1815.385423786229
 20
1046.233730256009
 30
0.0
 10
1815.4673147922
 20
1046.24896633625
 30
0.0
 10
1815.512346761201
 20
1046.257344676277
 30
0.0
  0
LINE
  5
67F
330
641
100
AcDbEntity
  8
0
  6
Continuous
 62
     7
370
    15
100
AcDbLine
 10
1815.506121526849
 20
1046.256392499756
 30
0.0
 11
1814.931499421801
 21
1046.256392499756
 31
0.0
  0
LINE
  5
680
330
641
100
AcDbEntity
  8
0
  6
Continuous
 62
     7
370
    15
100
AcDbLine
 10
1816.968810474326
 20
1046.835532828121
 30
0.0
 11
1815.618810474326
 21
1046.835532828121
 31
0.0
  0
LINE
  5
681
330
641
100
AcDbEntity
  8
0
  6
Continuous
 62
     7
370
    15
100
AcDbLine
 10
1816.968810474326
 20
1046.500749746317
 30
0.0
 11
1815.618810474326
 21
1046.500749746317
 31
0.0
  0
LINE
  5
682
330
641
100
AcDbEntity
  8
0
  6
Continuous
 62
     7
370
    15
100
AcDbLine
 10
1815.618810474326
 20
1046.500749746317
 30
0.0
 11
1815.618810474326
 21
1046.835532828121
 31
0.0
  0
LINE
  5
683
330
641
100
AcDbEntity
  8
0
  6
Continuous
 62
     7
370
    15
100
AcDbLine
 10
1816.968810474326
 20
1046.835532828121
 30
0.0
 11
1816.968810474326
 21
1046.500749746317
 31
0.0
  0
LINE
  5
684
330
641
100
AcDbEntity
  8
0
  6
Continuous
 62
     7
370
    15
100
AcDbLine
 10
1814.818810474326
 20
1046.500749746317
 30
0.0
 11
1813.468810474326
 21
1046.500749746317
 31
0.0
  0
LINE
  5
685
330
641
100
AcDbEntity
  8
0
  6
Continuous
 62
     7
370
    15
100
AcDbLine
 10
1814.818810474326
 20
1046.835532828121
 30
0.0
 11
1813.468810474326
 21
1046.835532828121
 31
0.0
  0
LINE
  5
686
330
641
100
AcDbEntity
  8
0
  6
Continuous
 62
     7
370
    15
100
AcDbLine
 10
1814.818810474326
 20
1046.835532828121
 30
0.0
 11
1814.818810474326
 21
1046.500749746317
 31
0.0
  0
LINE
  5
687
330
641
100
AcDbEntity
  8
0
  6
Continuous
 62
     7
370
    15
100
AcDbLine
 10
1813.468810474326
 20
1046.835532828121
 30
0.0
 11
1813.468810474326
 21
1046.500749746317
 31
0.0
  0
LINE
  5
688
330
641
100
AcDbEntity
  8
0
  6
Continuous
 62
     7
370
    15
100
AcDbLine
 10
1815.618810474326
 20
1046.500749746317
 30
0.0
 11
1815.618810474326
 21
1046.257344676277
 31
0.0
  0
LINE
  5
689
330
641
100
AcDbEntity
  8
0
  6
Continuous
 62
     7
370
    15
100
AcDbLine
 10
1816.968810474326
 20
1046.500749746317
 30
0.0
 11
1816.968810474326
 21
1046.257344676277
 31
0.0
  0
LINE
  5
68A
330
641
100
AcDbEntity
  8
0
  6
Continuous
 62
     7
370
    15
100
AcDbLine
 10
1814.818810474326
 20
1046.257344676277
 30
0.0
 11
1814.818810474326
 21
1046.500749746317
 31
0.0
  0
LINE
  5
68B
330
641
100
AcDbEntity
  8
0
  6
Continuous
 62
     7
370
    15
100
AcDbLine
 10
1813.468810474326
 20
1046.257344676277
 30
0.0
 11
1813.468810474326
 21
1046.500749746317
 31
0.0
  0
LINE
  5
68C
330
641
100
AcDbEntity
  8
0
  6
Continuous
 62
     7
370
    15
100
AcDbLine
 10
1813.318810474326
 20
1047.192298673821
 30
0.0
 11
1817.118810474326
 21
1047.192298673821
 31
0.0
  0
LINE
  5
68D
330
641
100
AcDbEntity
  8
0
  6
Continuous
 62
     7
370
    15
100
AcDbLine
 10
1817.868810474326
 20
1020.192298673822
 30
0.0
 11
1812.568810474326
 21
1020.192298673822
 31
0.0
  0
LINE
  5
68E
330
641
100
AcDbEntity
  8
0
  6
Continuous
 62
     7
370
    15
100
AcDbLine
 10
1812.568810474326
 20
1022.692298673822
 30
0.0
 11
1812.568810474326
 21
1020.192298673822
 31
0.0
  0
LINE
  5
68F
330
641
100
AcDbEntity
  8
0
  6
Continuous
 62
     7
370
    15
100
AcDbLine
 10
1817.868810474326
 20
1022.692298673822
 30
0.0
 11
1817.868810474326
 21
1020.192298673822
 31
0.0
  0
SPLINE
  5
690
330
641
100
AcDbEntity
  8
0
  6
Continuous
 62
     7
370
    15
100
AcDbSpline
210
0.0
220
0.0
230
1.0
 70
    24
 71
     3
 72
    10
 73
     6
 74
     0
 42
0.0000000001
 43
0.0000000001
 40
0.0
 40
0.0
 40
0.0
 40
0.0
 40
0.5
 40
0.5
 40
1.0
 40
1.0
 40
1.0
 40
1.0
 10
1811.298810474326
 20
1042.787361961035
 30
0.0
 10
1811.298810474326
 20
1042.525562573235
 30
0.0
 10
1811.298810474326
 20
1042.265375302271
 30
0.0
 10
1811.298810474326
 20
1041.895135057425
 30
0.0
 10
1811.298810474326
 20
1041.787361961035
 30
0.0
 10
1811.298810474326
 20
1041.787361961035
 30
0.0
  0
SPLINE
  5
691
330
641
100
AcDbEntity
  8
0
  6
Continuous
 62
     7
370
    15
100
AcDbSpline
210
0.0
220
0.0
230
1.0
 70
    24
 71
     3
 72
    10
 73
     6
 74
     0
 42
0.0000000001
 43
0.0000000001
 40
0.0
 40
0.0
 40
0.0
 40
0.0
 40
0.5
 40
0.5
 40
1.0
 40
1.0
 40
1.0
 40
1.0
 10
1811.298810474326
 20
1043.787361961035
 30
0.0
 10
1811.298810474326
 20
1043.787361961035
 30
0.0
 10
1811.298810474326
 20
1043.679588864645
 30
0.0
 10
1811.298810474326
 20
1043.309348619798
 30
0.0
 10
1811.298810474326
 20
1043.049161348834
 30
0.0
 10
1811.298810474326
 20
1042.787361961035
 30
0.0
  0
LINE
  5
692
330
641
100
AcDbEntity
  8
0
  6
Continuous
 62
     7
370
    15
100
AcDbLine
 10
1819.838810474326
 20
1029.399153390227
 30
0.0
 11
1819.838810474326
 21
1030.399153390214
 31
0.0
  0
LINE
  5
693
330
641
100
AcDbEntity
  8
0
  6
Continuous
 62
     7
370
    15
100
AcDbLine
 10
1819.838810474326
 20
1028.399153390239
 30
0.0
 11
1819.838810474326
 21
1029.399153390227
 31
0.0
  0
SPLINE
  5
694
330
641
100
AcDbEntity
  8
0
  6
Continuous
 62
     7
370
    15
100
AcDbSpline
210
0.0
220
0.0
230
1.0
 70
    24
 71
     3
 72
    10
 73
     6
 74
     0
 42
0.0000000001
 43
0.0000000001
 40
0.0
 40
0.0
 40
0.0
 40
0.0
 40
0.5
 40
0.5
 40
1.0
 40
1.0
 40
1.0
 40
1.0
 10
1810.598810474326
 20
1036.46604300255
 30
0.0
 10
1810.598810474326
 20
1036.2696934617
 30
0.0
 10
1810.598810474326
 20
1036.074553008477
 30
0.0
 10
1810.598810474326
 20
1035.796872824842
 30
0.0
 10
1810.598810474326
 20
1035.716043002549
 30
0.0
 10
1810.598810474326
 20
1035.716043002549
 30
0.0
  0
SPLINE
  5
695
330
641
100
AcDbEntity
  8
0
  6
Continuous
 62
     7
370
    15
100
AcDbSpline
210
0.0
220
0.0
230
1.0
 70
    24
 71
     3
 72
    10
 73
     6
 74
     0
 42
0.0000000001
 43
0.0000000001
 40
0.0
 40
0.0
 40
0.0
 40
0.0
 40
0.5
 40
0.5
 40
1.0
 40
1.0
 40
1.0
 40
1.0
 10
1810.598810474326
 20
1037.21604300255
 30
0.0
 10
1810.598810474326
 20
1037.21604300255
 30
0.0
 10
1810.598810474326
 20
1037.135213180257
 30
0.0
 10
1810.598810474326
 20
1036.857532996622
 30
0.0
 10
1810.598810474326
 20
1036.662392543399
 30
0.0
 10
1810.598810474326
 20
1036.46604300255
 30
0.0
  0
ENDBLK
  5
643
330
641
100
AcDbEntity
  8
0
100
AcDbBlockEnd
  0
BLOCK
  5
698
330
697
100
AcDbEntity
  8
0
100
AcDbBlockBegin
  2
3
 70
     0
 10
0.0
 20
0.0
 30
0.0
  3
3
  1

  0
LINE
  5
69A
330
697
100
AcDbEntity
  8
0
  6
Continuous
 62
     7
370
    15
100
AcDbLine
 10
1844.153631656024
 20
1000.953578761005
 30
0.0
 11
1844.153631656024
 21
996.2208647790784
 31
0.0
  0
LINE
  5
69B
330
697
100
AcDbEntity
  8
0
  6
Continuous
 62
     7
370
    15
100
AcDbLine
 10
1847.307456184114
 20
1000.953578761005
 30
0.0
 11
1847.307456184114
 21
996.2208649967893
 31
0.0
  0
LINE
  5
69C
330
697
100
AcDbEntity
  8
0
  6
Continuous
 62
     7
370
    15
100
AcDbLine
 10
1846.079315664622
 20
996.236097362247
 30
0.0
 11
1846.079315664622
 21
1000.953578761005
 31
0.0
  0
LINE
  5
69D
330
697
100
AcDbEntity
  8
0
  6
Continuous
 62
     7
370
    15
100
AcDbLine
 10
1842.925486339162
 20
996.236097362247
 30
0.0
 11
1842.925486339162
 21
1000.953578761005
 31
0.0
  0
LINE
  5
69E
330
697
100
AcDbEntity
  8
0
  6
Continuous
 62
     7
370
    15
100
AcDbLine
 10
1844.116280806149
 20
996.2235787610051
 30
0.0
 11
1844.116280806149
 21
994.9523247673848
 31
0.0
  0
LINE
  5
69F
330
697
100
AcDbEntity
  8
0
  6
Continuous
 62
     7
370
    15
100
AcDbLine
 10
1846.116280806149
 20
994.9523247673848
 30
0.0
 11
1846.116280806149
 21
996.2235787610051
 31
0.0
  0
LINE
  5
6A0
330
697
100
AcDbEntity
  8
0
  6
Continuous
 62
     7
370
    15
100
AcDbLine
 10
1834.226929902256
 20
996.2235787610051
 30
0.0
 11
1834.226929902256
 21
994.2523247673847
 31
0.0
  0
LINE
  5
6A1
330
697
100
AcDbEntity
  8
0
  6
Continuous
 62
     7
370
    15
100
AcDbLine
 10
1835.726929902257
 20
994.2523247673847
 30
0.0
 11
1835.726929902257
 21
996.2235787610051
 31
0.0
  0
LINE
  5
6A2
330
697
100
AcDbEntity
  8
0
  6
Continuous
 62
     7
370
    15
100
AcDbLine
 10
1856.005631710042
 20
1001.523578761005
 30
0.0
 11
1856.005631710042
 21
1003.493578761005
 31
0.0
  0
LINE
  5
6A3
330
697
100
AcDbEntity
  8
0
  6
Continuous
 62
     7
370
    15
100
AcDbLine
 10
1854.505631710042
 20
1003.493578761005
 30
0.0
 11
1854.505631710042
 21
1001.523578761005
 31
0.0
  0
LINE
  5
6A4
330
697
100
AcDbEntity
  8
0
  6
Continuous
 62
     7
370
    15
100
AcDbLine
 10
1854.01628080615
 20
996.2235787610051
 30
0.0
 11
1854.01628080615
 21
994.2523247673847
 31
0.0
  0
LINE
  5
6A5
330
697
100
AcDbEntity
  8
0
  6
Continuous
 62
     7
370
    15
100
AcDbLine
 10
1856.016280806124
 20
994.2523247673847
 30
0.0
 11
1856.016280806124
 21
996.2235787610051
 31
0.0
  0
LINE
  5
6A6
330
697
100
AcDbEntity
  8
0
  6
Continuous
 62
     7
370
    15
100
AcDbLine
 10
1836.216280806129
 20
1001.523578761005
 30
0.0
 11
1836.216280806129
 21
1003.493578761005
 31
0.0
  0
LINE
  5
6A7
330
697
100
AcDbEntity
  8
0
  6
Continuous
 62
     7
370
    15
100
AcDbLine
 10
1834.216280806154
 20
1003.493578761005
 30
0.0
 11
1834.216280806154
 21
1001.523578761005
 31
0.0
  0
LINE
  5
6A8
330
697
100
AcDbEntity
  8
0
  6
Continuous
 62
     7
370
    15
100
AcDbLine
 10
1848.11016995914
 20
1001.523578761005
 30
0.0
 11
1849.136151041954
 21
1001.523578761005
 31
0.0
  0
LINE
  5
6A9
330
697
100
AcDbEntity
  8
0
  6
Continuous
 62
     7
370
    15
100
AcDbLine
 10
1849.136151041954
 20
1001.523578761005
 30
0.0
 11
1849.136151041954
 21
1000.773578761005
 31
0.0
  0
LINE
  5
6AA
330
697
100
AcDbEntity
  8
0
  6
Continuous
 62
     7
370
    15
100
AcDbLine
 10
1849.136151041955
 20
996.9735787610051
 30
0.0
 11
1849.136151041955
 21
1000.773578761005
 31
0.0
  0
LINE
  5
6AB
330
697
100
AcDbEntity
  8
0
  6
Continuous
 62
     7
370
    15
100
AcDbLine
 10
1849.136151041954
 20
996.9735787610051
 30
0.0
 11
1849.136151041954
 21
996.2235787610051
 31
0.0
  0
LINE
  5
6AC
330
697
100
AcDbEntity
  8
0
  6
Continuous
 62
     7
370
    15
100
AcDbLine
 10
1849.136151041954
 20
996.2235787610051
 30
0.0
 11
1848.11016995914
 21
996.2235787610051
 31
0.0
  0
LINE
  5
6AD
330
697
100
AcDbEntity
  8
0
  6
Continuous
 62
     7
370
    15
100
AcDbLine
 10
1848.11016995914
 20
1001.523578761005
 30
0.0
 11
1848.11016995914
 21
996.2235787610051
 31
0.0
  0
LINE
  5
6AE
330
697
100
AcDbEntity
  8
0
  6
Continuous
 62
     7
370
    15
100
AcDbLine
 10
1842.122391653132
 20
996.2235787610051
 30
0.0
 11
1842.122391653132
 21
1001.523578761005
 31
0.0
  0
LINE
  5
6AF
330
697
100
AcDbEntity
  8
0
  6
Continuous
 62
     7
370
    15
100
AcDbLine
 10
1842.122391653132
 20
1001.523578761005
 30
0.0
 11
1842.122398589193
 21
1001.523578761005
 31
0.0
  0
LINE
  5
6B0
330
697
100
AcDbEntity
  8
0
  6
Continuous
 62
     7
370
    15
100
AcDbLine
 10
1842.122398589193
 20
996.2235787610051
 30
0.0
 11
1842.122398589193
 21
1001.523578761005
 31
0.0
  0
LINE
  5
6B1
330
697
100
AcDbEntity
  8
0
  6
Continuous
 62
     7
370
    15
100
AcDbLine
 10
1841.096410570343
 20
996.2235787610051
 30
0.0
 11
1841.096410570343
 21
996.9735787610051
 31
0.0
  0
LINE
  5
6B2
330
697
100
AcDbEntity
  8
0
  6
Continuous
 62
     7
370
    15
100
AcDbLine
 10
1841.096410570343
 20
996.9735787610051
 30
0.0
 11
1841.096410570343
 21
1000.773578761005
 31
0.0
  0
LINE
  5
6B3
330
697
100
AcDbEntity
  8
0
  6
Continuous
 62
     7
370
    15
100
AcDbLine
 10
1841.096410570343
 20
1000.773578761005
 30
0.0
 11
1841.096410570343
 21
1001.523578761005
 31
0.0
  0
LINE
  5
6B4
330
697
100
AcDbEntity
  8
0
  6
Continuous
 62
     7
370
    15
100
AcDbLine
 10
1841.096410570343
 20
1001.523578761005
 30
0.0
 11
1842.122391653132
 21
1001.523578761005
 31
0.0
  0
LINE
  5
6B5
330
697
100
AcDbEntity
  8
0
  6
Continuous
 62
     7
370
    15
100
AcDbLine
 10
1842.122391653132
 20
996.2235787610051
 30
0.0
 11
1841.096410570343
 21
996.2235787610051
 31
0.0
  0
LINE
  5
6B6
330
697
100
AcDbEntity
  8
0
  6
Continuous
 62
     7
370
    15
100
AcDbLine
 10
1841.096410570343
 20
1000.773578761005
 30
0.0
 11
1838.044521512291
 21
1000.773578761005
 31
0.0
  0
LINE
  5
6B7
330
697
100
AcDbEntity
  8
0
  6
Continuous
 62
     7
370
    15
100
AcDbLine
 10
1838.04452151229
 20
1000.773578761005
 30
0.0
 11
1838.04452151229
 21
996.9735787610051
 31
0.0
  0
LINE
  5
6B8
330
697
100
AcDbEntity
  8
0
  6
Continuous
 62
     7
370
    15
100
AcDbLine
 10
1838.044521512291
 20
996.9735787610051
 30
0.0
 11
1841.096410570343
 21
996.9735787610051
 31
0.0
  0
LINE
  5
6B9
330
697
100
AcDbEntity
  8
0
  6
Continuous
 62
     7
370
    15
100
AcDbLine
 10
1837.938483412631
 20
996.2235787610051
 30
0.0
 11
1837.938483412631
 21
1001.523578761005
 31
0.0
  0
LINE
  5
6BA
330
697
100
AcDbEntity
  8
0
  6
Continuous
 62
     7
370
    15
100
AcDbLine
 10
1837.938483412631
 20
1001.523578761005
 30
0.0
 11
1841.096410570343
 21
1001.523578761005
 31
0.0
  0
LINE
  5
6BB
330
697
100
AcDbEntity
  8
0
  6
Continuous
 62
     7
370
    15
100
AcDbLine
 10
1841.096410570343
 20
996.2235787610051
 30
0.0
 11
1837.938483412631
 21
996.2235787610051
 31
0.0
  0
LINE
  5
6BC
330
697
100
AcDbEntity
  8
0
  6
Continuous
 62
     7
370
    15
100
AcDbLine
 10
1849.136151041954
 20
1001.523578761005
 30
0.0
 11
1852.294078199667
 21
1001.523578761005
 31
0.0
  0
LINE
  5
6BD
330
697
100
AcDbEntity
  8
0
  6
Continuous
 62
     7
370
    15
100
AcDbLine
 10
1852.294078199667
 20
1001.523578761005
 30
0.0
 11
1852.294078199667
 21
996.2235787610051
 31
0.0
  0
LINE
  5
6BE
330
697
100
AcDbEntity
  8
0
  6
Continuous
 62
     7
370
    15
100
AcDbLine
 10
1849.136151041955
 20
996.9735787610051
 30
0.0
 11
1852.188040100007
 21
996.9735787610051
 31
0.0
  0
LINE
  5
6BF
330
697
100
AcDbEntity
  8
0
  6
Continuous
 62
     7
370
    15
100
AcDbLine
 10
1852.188040100007
 20
996.9735787610051
 30
0.0
 11
1852.188040100007
 21
1000.773578761005
 31
0.0
  0
LINE
  5
6C0
330
697
100
AcDbEntity
  8
0
  6
Continuous
 62
     7
370
    15
100
AcDbLine
 10
1852.188040100007
 20
1000.773578761005
 30
0.0
 11
1849.136151041955
 21
1000.773578761005
 31
0.0
  0
LINE
  5
6C1
330
697
100
AcDbEntity
  8
0
  6
Continuous
 62
     7
370
    15
100
AcDbLine
 10
1852.294078199667
 20
996.2235787610051
 30
0.0
 11
1849.136151041954
 21
996.2235787610051
 31
0.0
  0
LINE
  5
6C2
330
697
100
AcDbEntity
  8
0
  6
Continuous
 62
     7
370
    15
100
AcDbLine
 10
1840.061458692218
 20
999.2735787610051
 30
0.0
 11
1840.061458692218
 21
1000.623578761005
 31
0.0
  0
LINE
  5
6C3
330
697
100
AcDbEntity
  8
0
  6
Continuous
 62
     7
370
    15
100
AcDbLine
 10
1841.096410570343
 20
999.2735787610051
 30
0.0
 11
1840.061458692218
 21
999.2735787610051
 31
0.0
  0
LINE
  5
6C4
330
697
100
AcDbEntity
  8
0
  6
Continuous
 62
     7
370
    15
100
AcDbLine
 10
1841.096410570343
 20
1000.623578761005
 30
0.0
 11
1840.061458692218
 21
1000.623578761005
 31
0.0
  0
LINE
  5
6C5
330
697
100
AcDbEntity
  8
0
  6
Continuous
 62
     7
370
    15
100
AcDbLine
 10
1841.096410570343
 20
997.1235787610051
 30
0.0
 11
1840.061458692218
 21
997.1235787610051
 31
0.0
  0
LINE
  5
6C6
330
697
100
AcDbEntity
  8
0
  6
Continuous
 62
     7
370
    15
100
AcDbLine
 10
1840.061458692218
 20
997.1235787610051
 30
0.0
 11
1840.061458692218
 21
998.473578761005
 31
0.0
  0
LINE
  5
6C7
330
697
100
AcDbEntity
  8
0
  6
Continuous
 62
     7
370
    15
100
AcDbLine
 10
1840.061458692218
 20
998.473578761005
 30
0.0
 11
1841.096410570343
 21
998.473578761005
 31
0.0
  0
LINE
  5
6C8
330
697
100
AcDbEntity
  8
0
  6
Continuous
 62
     7
370
    15
100
AcDbLine
 10
1849.136151041955
 20
1000.623578761005
 30
0.0
 11
1850.17346750103
 21
1000.623578761005
 31
0.0
  0
LINE
  5
6C9
330
697
100
AcDbEntity
  8
0
  6
Continuous
 62
     7
370
    15
100
AcDbLine
 10
1850.17346750103
 20
1000.623578761005
 30
0.0
 11
1850.17346750103
 21
999.2735787610051
 31
0.0
  0
LINE
  5
6CA
330
697
100
AcDbEntity
  8
0
  6
Continuous
 62
     7
370
    15
100
AcDbLine
 10
1850.17346750103
 20
999.2735787610051
 30
0.0
 11
1849.136151041955
 21
999.2735787610051
 31
0.0
  0
LINE
  5
6CB
330
697
100
AcDbEntity
  8
0
  6
Continuous
 62
     7
370
    15
100
AcDbLine
 10
1850.17346750103
 20
998.473578761005
 30
0.0
 11
1850.17346750103
 21
997.1235787610051
 31
0.0
  0
LINE
  5
6CC
330
697
100
AcDbEntity
  8
0
  6
Continuous
 62
     7
370
    15
100
AcDbLine
 10
1849.136151041955
 20
997.1235787610051
 30
0.0
 11
1850.17346750103
 21
997.1235787610051
 31
0.0
  0
LINE
  5
6CD
330
697
100
AcDbEntity
  8
0
  6
Continuous
 62
     7
370
    15
100
AcDbLine
 10
1849.136151041955
 20
998.473578761005
 30
0.0
 11
1850.17346750103
 21
998.473578761005
 31
0.0
  0
LINE
  5
6CE
330
697
100
AcDbEntity
  8
0
  6
Continuous
 62
     7
370
    15
100
AcDbLine
 10
1847.91016995914
 20
1001.523578761005
 30
0.0
 11
1847.91016995914
 21
996.2235787610051
 31
0.0
  0
SPLINE
  5
6CF
330
697
100
AcDbEntity
  8
0
  6
Continuous
 62
     7
370
    15
100
AcDbSpline
210
0.0
220
0.0
230
1.0
 70
    24
 71
     3
 72
    13
 73
     9
 74
     0
 42
0.0000000001
 43
0.0000000001
 40
0.0
 40
0.0
 40
0.0
 40
0.0
 40
0.1281482339400369
 40
0.2510936230948604
 40
0.3737471315525992
 40
0.5010535066074268
 40
0.7483541261370629
 40
0.9999999999999998
 40
0.9999999999999998
 40
0.9999999999999998
 40
0.9999999999999998
 10
1847.91016995914
 20
1001.523578761005
 30
0.0
 10
1847.923569671522
 20
1001.523578761005
 30
0.0
 10
1847.949825065193
 20
1001.523578761005
 30
0.0
 10
1847.987481919884
 20
1001.523578761005
 30
0.0
 10
1848.02199737239
 20
1001.523578761005
 30
0.0
 10
1848.061941392838
 20
1001.523578761005
 30
0.0
 10
1848.101952920471
 20
1001.523578761005
 30
0.0
 10
1848.10741508983
 20
1001.523578761005
 30
0.0
 10
1848.11016995914
 20
1001.523578761005
 30
0.0
  0
LINE
  5
6D0
330
697
100
AcDbEntity
  8
0
  6
Continuous
 62
     7
370
    15
100
AcDbLine
 10
1847.91016995914
 20
996.2235787610051
 30
0.0
 11
1848.11016995914
 21
996.2235787610051
 31
0.0
  0
LINE
  5
6D1
330
697
100
AcDbEntity
  8
0
  6
Continuous
 62
     7
370
    15
100
AcDbLine
 10
1842.322398589174
 20
996.2235787610051
 30
0.0
 11
1842.322398589174
 21
1001.523578761005
 31
0.0
  0
SPLINE
  5
6D2
330
697
100
AcDbEntity
  8
0
  6
Continuous
 62
     7
370
    15
100
AcDbSpline
210
0.0
220
0.0
230
1.0
 70
    24
 71
     3
 72
    11
 73
     7
 74
     0
 42
0.0000000001
 43
0.0000000001
 40
0.0
 40
0.0
 40
0.0
 40
0.0
 40
0.0559370920018898
 40
0.3706247280013668
 40
0.6853123640006407
 40
1.0
 40
1.0
 40
1.0
 40
1.0
 10
1842.134917190435
 20
1001.523578761005
 30
0.0
 10
1842.135702484453
 20
1001.523578761005
 30
0.0
 10
1842.140905639845
 20
1001.523578761005
 30
0.0
 10
1842.178971123833
 20
1001.523578761005
 30
0.0
 10
1842.243451389425
 20
1001.523578761005
 30
0.0
 10
1842.296082855924
 20
1001.523578761005
 30
0.0
 10
1842.322398589174
 20
1001.523578761005
 30
0.0
  0
LINE
  5
6D3
330
697
100
AcDbEntity
  8
0
  6
Continuous
 62
     7
370
    15
100
AcDbLine
 10
1842.13870644321
 20
996.2235787610051
 30
0.0
 11
1842.322398589174
 21
996.2235787610051
 31
0.0
  0
LINE
  5
6D4
330
697
100
AcDbEntity
  8
0
  6
Continuous
 62
     7
370
    15
100
AcDbLine
 10
1847.533555776059
 20
996.2235787610051
 30
0.0
 11
1847.533555776059
 21
1000.953578761005
 31
0.0
  0
LINE
  5
6D5
330
697
100
AcDbEntity
  8
0
  6
Continuous
 62
     7
370
    15
100
AcDbLine
 10
1847.533555776059
 20
1000.953578761005
 30
0.0
 11
1845.853208916978
 21
1000.953578761005
 31
0.0
  0
LINE
  5
6D6
330
697
100
AcDbEntity
  8
0
  6
Continuous
 62
     7
370
    15
100
AcDbLine
 10
1845.853208916978
 20
1000.953578761005
 30
0.0
 11
1845.853208916978
 21
996.2235787610051
 31
0.0
  0
LINE
  5
6D7
330
697
100
AcDbEntity
  8
0
  6
Continuous
 62
     7
370
    15
100
AcDbLine
 10
1844.379741290841
 20
996.2235787610051
 30
0.0
 11
1844.379741290841
 21
1000.953578761005
 31
0.0
  0
LINE
  5
6D8
330
697
100
AcDbEntity
  8
0
  6
Continuous
 62
     7
370
    15
100
AcDbLine
 10
1844.379741290841
 20
1000.953578761005
 30
0.0
 11
1842.69938766096
 21
1000.953578761005
 31
0.0
  0
LINE
  5
6D9
330
697
100
AcDbEntity
  8
0
  6
Continuous
 62
     7
370
    15
100
AcDbLine
 10
1842.69938766096
 20
1000.953578761005
 30
0.0
 11
1842.69938766096
 21
996.2235787610051
 31
0.0
  0
LINE
  5
6DA
330
697
100
AcDbEntity
  8
0
  6
Continuous
 62
     7
370
    15
100
AcDbLine
 10
1842.322398589174
 20
1001.523578761005
 30
0.0
 11
1847.91016995914
 21
1001.523578761005
 31
0.0
  0
LINE
  5
6DB
330
697
100
AcDbEntity
  8
0
  6
Continuous
 62
     7
370
    15
100
AcDbLine
 10
1842.69938766096
 20
996.2235787610051
 30
0.0
 11
1842.322398589174
 21
996.2235787610051
 31
0.0
  0
LINE
  5
6DC
330
697
100
AcDbEntity
  8
0
  6
Continuous
 62
     7
370
    15
100
AcDbLine
 10
1845.853208916978
 20
996.2235787610051
 30
0.0
 11
1844.379741290841
 21
996.2235787610051
 31
0.0
  0
LINE
  5
6DD
330
697
100
AcDbEntity
  8
0
  6
Continuous
 62
     7
370
    15
100
AcDbLine
 10
1847.91016995914
 20
996.2235787610051
 30
0.0
 11
1847.533555776059
 21
996.2235787610051
 31
0.0
  0
LINE
  5
6DE
330
697
100
AcDbEntity
  8
0
  6
Continuous
 62
     7
370
    15
100
AcDbLine
 10
1842.89919737272
 20
996.2235787610051
 30
0.0
 11
1842.89919737272
 21
1000.953578761005
 31
0.0
  0
LINE
  5
6DF
330
697
100
AcDbEntity
  8
0
  6
Continuous
 62
     7
370
    15
100
AcDbLine
 10
1842.69938766096
 20
996.2235787610051
 30
0.0
 11
1842.89919737272
 21
996.2235787610051
 31
0.0
  0
LINE
  5
6E0
330
697
100
AcDbEntity
  8
0
  6
Continuous
 62
     7
370
    15
100
AcDbLine
 10
1847.333746078749
 20
1000.953578761005
 30
0.0
 11
1847.333746078749
 21
996.2235787610051
 31
0.0
  0
LINE
  5
6E1
330
697
100
AcDbEntity
  8
0
  6
Continuous
 62
     7
370
    15
100
AcDbLine
 10
1847.333746078749
 20
996.2235787610051
 30
0.0
 11
1847.533555776059
 21
996.2235787610051
 31
0.0
  0
LINE
  5
6E2
330
697
100
AcDbEntity
  8
0
  6
Continuous
 62
     7
370
    15
100
AcDbLine
 10
1846.053018510151
 20
996.2235787610051
 30
0.0
 11
1846.053018510151
 21
1000.953578761005
 31
0.0
  0
LINE
  5
6E3
330
697
100
AcDbEntity
  8
0
  6
Continuous
 62
     7
370
    15
100
AcDbLine
 10
1845.853208916978
 20
996.2235787610051
 30
0.0
 11
1846.053018510151
 21
996.2235787610051
 31
0.0
  0
LINE
  5
6E4
330
697
100
AcDbEntity
  8
0
  6
Continuous
 62
     7
370
    15
100
AcDbLine
 10
1844.179931738659
 20
1000.953578761005
 30
0.0
 11
1844.179931738659
 21
996.2235787610051
 31
0.0
  0
LINE
  5
6E5
330
697
100
AcDbEntity
  8
0
  6
Continuous
 62
     7
370
    15
100
AcDbLine
 10
1844.179931738659
 20
996.2235787610051
 30
0.0
 11
1844.379741290841
 21
996.2235787610051
 31
0.0
  0
LINE
  5
6E6
330
697
100
AcDbEntity
  8
0
  6
Continuous
 62
     7
370
    15
100
AcDbLine
 10
1844.153822103842
 20
996.2235787610051
 30
0.0
 11
1844.153822103842
 21
1000.953578761005
 31
0.0
  0
LINE
  5
6E7
330
697
100
AcDbEntity
  8
0
  6
Continuous
 62
     7
370
    15
100
AcDbLine
 10
1844.179931738659
 20
996.2235787610051
 30
0.0
 11
1844.153822103842
 21
996.2235787610051
 31
0.0
  0
LINE
  5
6E8
330
697
100
AcDbEntity
  8
0
  6
Continuous
 62
     7
370
    15
100
AcDbLine
 10
1846.079125121835
 20
1000.953578761005
 30
0.0
 11
1846.079125121835
 21
996.2235787610051
 31
0.0
  0
LINE
  5
6E9
330
697
100
AcDbEntity
  8
0
  6
Continuous
 62
     7
370
    15
100
AcDbLine
 10
1846.079125121835
 20
996.2235787610051
 30
0.0
 11
1846.053018510151
 21
996.2235787610051
 31
0.0
  0
LINE
  5
6EA
330
697
100
AcDbEntity
  8
0
  6
Continuous
 62
     7
370
    15
100
AcDbLine
 10
1847.307646486804
 20
996.2235787610051
 30
0.0
 11
1847.307646486804
 21
1000.953578761005
 31
0.0
  0
LINE
  5
6EB
330
697
100
AcDbEntity
  8
0
  6
Continuous
 62
     7
370
    15
100
AcDbLine
 10
1847.333746078749
 20
996.2235787610051
 30
0.0
 11
1847.307646486804
 21
996.2235787610051
 31
0.0
  0
LINE
  5
6EC
330
697
100
AcDbEntity
  8
0
  6
Continuous
 62
     7
370
    15
100
AcDbLine
 10
1842.925296050921
 20
1000.953578761005
 30
0.0
 11
1842.925296050921
 21
996.2235787610051
 31
0.0
  0
LINE
  5
6ED
330
697
100
AcDbEntity
  8
0
  6
Continuous
 62
     7
370
    15
100
AcDbLine
 10
1842.925296050921
 20
996.2235787610051
 30
0.0
 11
1842.89919737272
 21
996.2235787610051
 31
0.0
  0
LINE
  5
6EE
330
697
100
AcDbEntity
  8
0
  6
Continuous
 62
     7
370
    15
100
AcDbLine
 10
1839.471969276971
 20
997.1235787610051
 30
0.0
 11
1839.471969276971
 21
998.5800257338903
 31
0.0
  0
LINE
  5
6EF
330
697
100
AcDbEntity
  8
0
  6
Continuous
 62
     7
370
    15
100
AcDbLine
 10
1839.2894024947
 20
997.1235787610051
 30
0.0
 11
1839.2894024947
 21
998.5799977324814
 31
0.0
  0
LINE
  5
6F0
330
697
100
AcDbEntity
  8
0
  6
Continuous
 62
     7
370
    15
100
AcDbLine
 10
1839.471969276971
 20
998.5800257338903
 30
0.0
 11
1839.2894024947
 21
998.5799977324814
 31
0.0
  0
LINE
  5
6F1
330
697
100
AcDbEntity
  8
0
  6
Continuous
 62
     7
370
    15
100
AcDbLine
 10
1839.471969276971
 20
997.1235787610051
 30
0.0
 11
1839.2894024947
 21
997.1235787610051
 31
0.0
  0
LINE
  5
6F2
330
697
100
AcDbEntity
  8
0
  6
Continuous
 62
     7
370
    15
100
AcDbLine
 10
1838.227682438355
 20
1000.623578761005
 30
0.0
 11
1838.227682438355
 21
997.1235787610051
 31
0.0
  0
LINE
  5
6F3
330
697
100
AcDbEntity
  8
0
  6
Continuous
 62
     7
370
    15
100
AcDbLine
 10
1839.2894024947
 20
999.1671597895289
 30
0.0
 11
1839.2894024947
 21
1000.623578761005
 31
0.0
  0
SPLINE
  5
6F4
330
697
100
AcDbEntity
  8
0
  6
Continuous
 62
     7
370
    15
100
AcDbSpline
210
0.0
220
0.0
230
1.0
 70
     8
 71
     3
 72
    14
 73
    10
 74
     0
 42
0.0000000001
 43
0.0000000001
 40
0.0
 40
0.0
 40
0.0
 40
0.0
 40
0.1021225872302523
 40
0.2016953095067052
 40
0.3002671943152237
 40
0.399434180666943
 40
0.5007640930505211
 40
0.7482185533256539
 40
0.9999999999999998
 40
0.9999999999999998
 40
0.9999999999999998
 40
0.9999999999999998
 10
1839.2894024947
 20
999.1671597895289
 30
0.0
 10
1839.278106162686
 20
999.1494043567016
 30
0.0
 10
1839.255795553019
 20
999.1143368205502
 30
0.0
 10
1839.230492048992
 20
999.0572819988221
 30
0.0
 10
1839.212085727462
 20
998.9981616245991
 30
0.0
 10
1839.201071975757
 20
998.9365829550633
 30
0.0
 10
1839.195621525128
 20
998.8432671566314
 30
0.0
 10
1839.21167941479
 20
998.7155357811566
 30
0.0
 10
1839.263345534225
 20
998.6254373828572
 30
0.0
 10
1839.2894024947
 20
998.5799977324814
 30
0.0
  0
LINE
  5
6F5
330
697
100
AcDbEntity
  8
0
  6
Continuous
 62
     7
370
    15
100
AcDbLine
 10
1839.2894024947
 20
997.1235787610051
 30
0.0
 11
1838.227682438354
 21
997.1235787610051
 31
0.0
  0
LINE
  5
6F6
330
697
100
AcDbEntity
  8
0
  6
Continuous
 62
     7
370
    15
100
AcDbLine
 10
1838.227682438354
 20
1000.623578761005
 30
0.0
 11
1839.2894024947
 21
1000.623578761005
 31
0.0
  0
LINE
  5
6F7
330
697
100
AcDbEntity
  8
0
  6
Continuous
 62
     7
370
    15
100
AcDbLine
 10
1839.471969276971
 20
999.16713178812
 30
0.0
 11
1839.471969276971
 21
1000.623578761005
 31
0.0
  0
LINE
  5
6F8
330
697
100
AcDbEntity
  8
0
  6
Continuous
 62
     7
370
    15
100
AcDbLine
 10
1839.471969276971
 20
999.16713178812
 30
0.0
 11
1839.2894024947
 21
999.1671597895289
 31
0.0
  0
LINE
  5
6F9
330
697
100
AcDbEntity
  8
0
  6
Continuous
 62
     7
370
    15
100
AcDbLine
 10
1839.2894024947
 20
1000.623578761005
 30
0.0
 11
1839.471969276971
 21
1000.623578761005
 31
0.0
  0
SPLINE
  5
6FA
330
697
100
AcDbEntity
  8
0
  6
Continuous
 62
     7
370
    15
100
AcDbSpline
210
0.0
220
0.0
230
1.0
 70
     8
 71
     3
 72
    10
 73
     6
 74
     0
 42
0.0000000001
 43
0.0000000001
 40
0.0
 40
0.0
 40
0.0
 40
0.0
 40
0.5
 40
0.5
 40
1.0
 40
1.0
 40
1.0
 40
1.0
 10
1839.471969276971
 20
998.5800257338903
 30
0.0
 10
1839.413411545154
 20
998.6646841913552
 30
0.0
 10
1839.381132504163
 20
998.7689988857503
 30
0.0
 10
1839.381132504163
 20
998.9781586362598
 30
0.0
 10
1839.413411545154
 20
999.0824733306551
 30
0.0
 10
1839.471969276971
 20
999.16713178812
 30
0.0
  0
LINE
  5
6FB
330
697
100
AcDbEntity
  8
0
  6
Continuous
 62
     7
370
    15
100
AcDbLine
 10
1840.061458692218
 20
997.1235787610051
 30
0.0
 11
1839.471969276971
 21
997.1235787610051
 31
0.0
  0
LINE
  5
6FC
330
697
100
AcDbEntity
  8
0
  6
Continuous
 62
     7
370
    15
100
AcDbLine
 10
1840.061458692218
 20
1000.623578761005
 30
0.0
 11
1839.471969276971
 21
1000.623578761005
 31
0.0
  0
LINE
  5
6FD
330
697
100
AcDbEntity
  8
0
  6
Continuous
 62
     7
370
    15
100
AcDbLine
 10
1850.945517016757
 20
999.1671150478802
 30
0.0
 11
1850.945517016757
 21
1000.623578761005
 31
0.0
  0
LINE
  5
6FE
330
697
100
AcDbEntity
  8
0
  6
Continuous
 62
     7
370
    15
100
AcDbLine
 10
1852.007227884451
 20
997.1235787610051
 30
0.0
 11
1852.007227884451
 21
1000.623578761005
 31
0.0
  0
LINE
  5
6FF
330
697
100
AcDbEntity
  8
0
  6
Continuous
 62
     7
370
    15
100
AcDbLine
 10
1850.945517016757
 20
997.1235787610051
 30
0.0
 11
1850.945517016757
 21
998.5800424741301
 31
0.0
  0
SPLINE
  5
700
330
697
100
AcDbEntity
  8
0
  6
Continuous
 62
     7
370
    15
100
AcDbSpline
210
0.0
220
0.0
230
1.0
 70
     8
 71
     3
 72
     8
 73
     4
 74
     0
 42
0.0000000001
 43
0.0000000001
 40
0.0
 40
0.0
 40
0.0
 40
0.0
 40
1.0
 40
1.0
 40
1.0
 40
1.0
 10
1850.945517016757
 20
998.5800424741299
 30
0.0
 10
1851.004068029589
 20
998.6646978907383
 30
0.0
 10
1851.036342955188
 20
998.7690057788043
 30
0.0
 10
1851.036342955188
 20
998.8735787610051
 30
0.0
  0
SPLINE
  5
701
330
697
100
AcDbEntity
  8
0
  6
Continuous
 62
     7
370
    15
100
AcDbSpline
210
0.0
220
0.0
230
1.0
 70
     8
 71
     3
 72
     8
 73
     4
 74
     0
 42
0.0000000001
 43
0.0000000001
 40
0.0
 40
0.0
 40
0.0
 40
0.0
 40
1.0
 40
1.0
 40
1.0
 40
1.0
 10
1851.036342955188
 20
998.8735787610051
 30
0.0
 10
1851.036342955188
 20
998.9781517432058
 30
0.0
 10
1851.00406802959
 20
999.0824596312718
 30
0.0
 10
1850.945517016757
 20
999.1671150478802
 30
0.0
  0
LINE
  5
702
330
697
100
AcDbEntity
  8
0
  6
Continuous
 62
     7
370
    15
100
AcDbLine
 10
1852.007227884451
 20
997.1235787610051
 30
0.0
 11
1850.945517016757
 21
997.1235787610051
 31
0.0
  0
LINE
  5
703
330
697
100
AcDbEntity
  8
0
  6
Continuous
 62
     7
370
    15
100
AcDbLine
 10
1850.945517016757
 20
1000.623578761005
 30
0.0
 11
1852.007227884451
 21
1000.623578761005
 31
0.0
  0
LINE
  5
704
330
697
100
AcDbEntity
  8
0
  6
Continuous
 62
     7
370
    15
100
AcDbLine
 10
1850.7629343369
 20
1000.623578761005
 30
0.0
 11
1850.7629343369
 21
999.167131787367
 31
0.0
  0
LINE
  5
705
330
697
100
AcDbEntity
  8
0
  6
Continuous
 62
     7
370
    15
100
AcDbLine
 10
1850.7629343369
 20
999.1671317873674
 30
0.0
 11
1850.945517016757
 21
999.1671150478802
 31
0.0
  0
LINE
  5
706
330
697
100
AcDbEntity
  8
0
  6
Continuous
 62
     7
370
    15
100
AcDbLine
 10
1850.7629343369
 20
1000.623578761005
 30
0.0
 11
1850.945517016757
 21
1000.623578761005
 31
0.0
  0
SPLINE
  5
707
330
697
100
AcDbEntity
  8
0
  6
Continuous
 62
     7
370
    15
100
AcDbSpline
210
0.0
220
0.0
230
1.0
 70
     8
 71
     3
 72
     8
 73
     4
 74
     0
 42
0.0000000001
 43
0.0000000001
 40
0.0
 40
0.0
 40
0.0
 40
0.0
 40
1.0
 40
1.0
 40
1.0
 40
1.0
 10
1850.762934294223
 20
999.1671317873674
 30
0.0
 10
1850.82149250555
 20
999.0824733300392
 30
0.0
 10
1850.853771810845
 20
998.97815863595
 30
0.0
 10
1850.853771810845
 20
998.8735787610051
 30
0.0
  0
LINE
  5
708
330
697
100
AcDbEntity
  8
0
  6
Continuous
 62
     7
370
    15
100
AcDbLine
 10
1850.7629343369
 20
998.5800257346431
 30
0.0
 11
1850.945517016757
 21
998.5800424741301
 31
0.0
  0
SPLINE
  5
709
330
697
100
AcDbEntity
  8
0
  6
Continuous
 62
     7
370
    15
100
AcDbSpline
210
0.0
220
0.0
230
1.0
 70
     8
 71
     3
 72
     8
 73
     4
 74
     0
 42
0.0000000001
 43
0.0000000001
 40
0.0
 40
0.0
 40
0.0
 40
0.0
 40
1.0
 40
1.0
 40
1.0
 40
1.0
 10
1850.853771853522
 20
998.8735787610051
 30
0.0
 10
1850.853771853522
 20
998.7689988860603
 30
0.0
 10
1850.821492548227
 20
998.6646841919711
 30
0.0
 10
1850.7629343369
 20
998.5800257346427
 30
0.0
  0
LINE
  5
70A
330
697
100
AcDbEntity
  8
0
  6
Continuous
 62
     7
370
    15
100
AcDbLine
 10
1850.7629343369
 20
998.5800257346431
 30
0.0
 11
1850.7629343369
 21
997.1235787610051
 31
0.0
  0
LINE
  5
70B
330
697
100
AcDbEntity
  8
0
  6
Continuous
 62
     7
370
    15
100
AcDbLine
 10
1850.945517016757
 20
997.1235787610051
 30
0.0
 11
1850.7629343369
 21
997.1235787610051
 31
0.0
  0
LINE
  5
70C
330
697
100
AcDbEntity
  8
0
  6
Continuous
 62
     7
370
    15
100
AcDbLine
 10
1850.17346750103
 20
997.1235787610051
 30
0.0
 11
1850.7629343369
 21
997.1235787610051
 31
0.0
  0
LINE
  5
70D
330
697
100
AcDbEntity
  8
0
  6
Continuous
 62
     7
370
    15
100
AcDbLine
 10
1850.17346750103
 20
1000.623578761005
 30
0.0
 11
1850.7629343369
 21
1000.623578761005
 31
0.0
  0
LINE
  5
70E
330
697
100
AcDbEntity
  8
0
  6
Continuous
 62
     7
370
    15
100
AcDbLine
 10
1851.692886399767
 20
996.9735787610051
 30
0.0
 11
1851.692886399767
 21
997.1235787610051
 31
0.0
  0
LINE
  5
70F
330
697
100
AcDbEntity
  8
0
  6
Continuous
 62
     7
370
    15
100
AcDbLine
 10
1851.692886399767
 20
1000.623578761005
 30
0.0
 11
1851.692886399767
 21
1000.773578761005
 31
0.0
  0
LINE
  5
710
330
697
100
AcDbEntity
  8
0
  6
Continuous
 62
     7
370
    15
100
AcDbLine
 10
1838.495954119705
 20
1000.773578761005
 30
0.0
 11
1838.495954119705
 21
1000.623578761005
 31
0.0
  0
LINE
  5
711
330
697
100
AcDbEntity
  8
0
  6
Continuous
 62
     7
370
    15
100
AcDbLine
 10
1838.495954119705
 20
997.1235787610051
 30
0.0
 11
1838.495954119705
 21
996.9735787610051
 31
0.0
  0
LINE
  5
712
330
697
100
AcDbEntity
  8
0
  6
Continuous
 62
     7
370
    15
100
AcDbLine
 10
1852.859397803948
 20
999.8217747074406
 30
0.0
 11
1852.859397803948
 21
1001.523578761005
 31
0.0
  0
SPLINE
  5
713
330
697
100
AcDbEntity
  8
0
  6
Continuous
 62
     7
370
    15
100
AcDbSpline
210
0.0
220
0.0
230
1.0
 70
     8
 71
     3
 72
    14
 73
    10
 74
     0
 42
0.0000000001
 43
0.0000000001
 40
0.0
 40
0.0
 40
0.0
 40
0.0
 40
0.1266729933632654
 40
0.2517769781118529
 40
0.3757211834248226
 40
0.4989263570814324
 40
0.6711295750404327
 40
0.8376817386240631
 40
1.0
 40
1.0
 40
1.0
 40
1.0
 10
1852.721881033609
 20
998.8735787610051
 30
0.0
 10
1852.722367144942
 20
998.9152155988863
 30
0.0
 10
1852.723333346491
 20
998.9979735486397
 30
0.0
 10
1852.730753740645
 20
999.1210771381716
 30
0.0
 10
1852.742392439015
 20
999.2422374244062
 30
0.0
 10
1852.760524848272
 20
999.377352875007
 30
0.0
 10
1852.786360112547
 20
999.5236496478284
 30
0.0
 10
1852.820702744885
 20
999.678341709829
 30
0.0
 10
1852.846610630941
 20
999.7743758250072
 30
0.0
 10
1852.859397803948
 20
999.8217747074406
 30
0.0
  0
SPLINE
  5
714
330
697
100
AcDbEntity
  8
0
  6
Continuous
 62
     7
370
    15
100
AcDbSpline
210
0.0
220
0.0
230
1.0
 70
     8
 71
     3
 72
    13
 73
     9
 74
     0
 42
0.0000000001
 43
0.0000000001
 40
0.0
 40
0.0
 40
0.0
 40
0.0
 40
0.1212288931312526
 40
0.2446367187362809
 40
0.3708383559587339
 40
0.5004090332587563
 40
0.7484206921211328
 40
1.0
 40
1.0
 40
1.0
 40
1.0
 10
1852.859397803948
 20
997.9253828145695
 30
0.0
 10
1852.849814519457
 20
997.9606300735282
 30
0.0
 10
1852.830475703338
 20
998.0317581153119
 30
0.0
 10
1852.803646123948
 20
998.1444531161439
 30
0.0
 10
1852.779280035544
 20
998.2624196574592
 30
0.0
 10
1852.752159703419
 20
998.4224052209395
 30
0.0
 10
1852.727341403905
 20
998.6265889123483
 30
0.0
 10
1852.723709801635
 20
998.7908577891062
 30
0.0
 10
1852.721881033609
 20
998.8735787610051
 30
0.0
  0
LINE
  5
715
330
697
100
AcDbEntity
  8
0
  6
Continuous
 62
     7
370
    15
100
AcDbLine
 10
1852.859397803948
 20
996.2235787610051
 30
0.0
 11
1852.859397803948
 21
997.9253828145695
 31
0.0
  0
SPLINE
  5
716
330
697
100
AcDbEntity
  8
0
  6
Continuous
 62
     7
370
    15
100
AcDbSpline
210
0.0
220
0.0
230
1.0
 70
    24
 71
     3
 72
     8
 73
     4
 74
     0
 42
0.0000000001
 43
0.0000000001
 40
0.0
 40
0.0
 40
0.0
 40
0.0
 40
1.0
 40
1.0
 40
1.0
 40
1.0
 10
1852.859397803948
 20
1001.523578761005
 30
0.0
 10
1852.735770315265
 20
1001.523578761005
 30
0.0
 10
1852.529889462738
 20
1001.523578761005
 30
0.0
 10
1852.294078199667
 20
1001.523578761005
 30
0.0
  0
LINE
  5
717
330
697
100
AcDbEntity
  8
0
  6
Continuous
 62
     7
370
    15
100
AcDbLine
 10
1852.294078199667
 20
996.2235787610051
 30
0.0
 11
1852.859397803948
 21
996.2235787610051
 31
0.0
  0
LINE
  5
718
330
697
100
AcDbEntity
  8
0
  6
Continuous
 62
     7
370
    15
100
AcDbLine
 10
1837.373163808351
 20
997.9253828145699
 30
0.0
 11
1837.373163808351
 21
996.2235787610051
 31
0.0
  0
SPLINE
  5
719
330
697
100
AcDbEntity
  8
0
  6
Continuous
 62
     7
370
    15
100
AcDbSpline
210
0.0
220
0.0
230
1.0
 70
     8
 71
     3
 72
    14
 73
    10
 74
     0
 42
0.0000000001
 43
0.0000000001
 40
0.0
 40
0.0
 40
0.0
 40
0.0
 40
0.1266729932166915
 40
0.2517769779164223
 40
0.3757211832776818
 40
0.4989263570781223
 40
0.6711295748977788
 40
0.8376817384812859
 40
1.0
 40
1.0
 40
1.0
 40
1.0
 10
1837.510680578689
 20
998.8735787610051
 30
0.0
 10
1837.510194467357
 20
998.831941923172
 30
0.0
 10
1837.509228265808
 20
998.7491839734829
 30
0.0
 10
1837.501807871653
 20
998.6260803839995
 30
0.0
 10
1837.490169173279
 20
998.5049200977185
 30
0.0
 10
1837.472036764044
 20
998.3698046470937
 30
0.0
 10
1837.44620149979
 20
998.2235078742597
 30
0.0
 10
1837.411858867441
 20
998.0688158122612
 30
0.0
 10
1837.38595098137
 20
997.9727816970438
 30
0.0
 10
1837.373163808351
 20
997.9253828145699
 30
0.0
  0
SPLINE
  5
71A
330
697
100
AcDbEntity
  8
0
  6
Continuous
 62
     7
370
    15
100
AcDbSpline
210
0.0
220
0.0
230
1.0
 70
     8
 71
     3
 72
    13
 73
     9
 74
     0
 42
0.0000000001
 43
0.0000000001
 40
0.0
 40
0.0
 40
0.0
 40
0.0
 40
0.1212288932838383
 40
0.2446367189393132
 40
0.3708383561114126
 40
0.5004090332628516
 40
0.7484206923278466
 40
1.0
 40
1.0
 40
1.0
 40
1.0
 10
1837.373163808351
 20
999.8217747074404
 30
0.0
 10
1837.382747092855
 20
999.7865274484384
 30
0.0
 10
1837.402085908992
 20
999.7153994065973
 30
0.0
 10
1837.428915488402
 20
999.6027044057225
 30
0.0
 10
1837.453281576799
 20
999.4847378644514
 30
0.0
 10
1837.480401908886
 20
999.3247523009531
 30
0.0
 10
1837.505220208373
 20
999.1205686095906
 30
0.0
 10
1837.508851810658
 20
998.9562997328354
 30
0.0
 10
1837.510680578689
 20
998.8735787610051
 30
0.0
  0
LINE
  5
71B
330
697
100
AcDbEntity
  8
0
  6
Continuous
 62
     7
370
    15
100
AcDbLine
 10
1837.373163808351
 20
1001.523578761005
 30
0.0
 11
1837.373163808351
 21
999.8217747074404
 31
0.0
  0
SPLINE
  5
71C
330
697
100
AcDbEntity
  8
0
  6
Continuous
 62
     7
370
    15
100
AcDbSpline
210
0.0
220
0.0
230
1.0
 70
    24
 71
     3
 72
     8
 73
     4
 74
     0
 42
0.0000000001
 43
0.0000000001
 40
0.0
 40
0.0
 40
0.0
 40
0.0
 40
1.0
 40
1.0
 40
1.0
 40
1.0
 10
1837.938483412631
 20
1001.523578761005
 30
0.0
 10
1837.702672149561
 20
1001.523578761005
 30
0.0
 10
1837.496791297034
 20
1001.523578761005
 30
0.0
 10
1837.373163808351
 20
1001.523578761005
 30
0.0
  0
LINE
  5
71D
330
697
100
AcDbEntity
  8
0
  6
Continuous
 62
     7
370
    15
100
AcDbLine
 10
1837.373163808351
 20
996.2235787610051
 30
0.0
 11
1837.938483412631
 21
996.2235787610051
 31
0.0
  0
ELLIPSE
  5
71E
330
697
100
AcDbEntity
  8
0
  6
Continuous
 62
     7
370
    15
100
AcDbEllipse
 10
1854.42814905838
 20
998.8735787610051
 30
0.0
 11
0.0
 21
2.500000000000014
 31
0.0
210
0.0
220
0.0
230
1.0
 40
0.6781717216199429
 41
1.959812605497772
 42
7.464965355271601
  0
SPLINE
  5
71F
330
697
100
AcDbEntity
  8
0
  6
Continuous
 62
     7
370
    15
100
AcDbSpline
210
0.0
220
0.0
230
1.0
 70
     8
 71
     3
 72
    26
 73
    22
 74
     0
 42
0.0000000001
 43
0.0000000001
 40
0.0
 40
0.0
 40
0.0
 40
0.0
 40
0.0354766051537233
 40
0.0708261526572883
 40
0.1062174908017187
 40
0.1418188732758978
 40
0.1777956069236979
 40
0.2238500128928917
 40
0.2700676752436105
 40
0.3167633172081677
 40
0.3642421578124218
 40
0.412794647893694
 40
0.487847808628302
 40
0.5636697110856535
 40
0.6150929384013282
 40
0.6674957610842773
 40
0.7211119909323081
 40
0.8101059639975604
 40
0.9004906487359841
 40
0.9944493238300243
 40
1.0
 40
1.0
 40
1.0
 40
1.0
 10
1855.914825385662
 20
998.8735787610051
 30
0.0
 10
1855.914242657011
 20
998.9210746555301
 30
0.0
 10
1855.913079286721
 20
999.0158963404583
 30
0.0
 10
1855.903801282008
 20
999.1574222160949
 30
0.0
 10
1855.888996228413
 20
999.297752118283
 30
0.0
 10
1855.868133314433
 20
999.4368804924452
 30
0.0
 10
1855.838989369947
 20
999.5869599313081
 30
0.0
 10
1855.799895618579
 20
999.7463269244436
 30
0.0
 10
1855.748971601798
 20
999.9126117184102
 30
0.0
 10
1855.689330754924
 20
1000.07308069159
 30
0.0
 10
1855.620989694526
 20
1000.227728908258
 30
0.0
 10
1855.530687497503
 20
1000.402167453642
 30
0.0
 10
1855.414460668074
 20
1000.589103317598
 30
0.0
 10
1855.28467624666
 20
1000.756336924426
 30
0.0
 10
1855.162095925592
 20
1000.887407061031
 30
0.0
 10
1855.050147363169
 20
1000.98996620288
 30
0.0
 10
1854.906788230328
 20
1001.101730682221
 30
0.0
 10
1854.729092737689
 20
1001.212213776211
 30
0.0
 10
1854.513508766675
 20
1001.301141342415
 30
0.0
 10
1854.361011493075
 20
1001.34868291179
 30
0.0
 10
1854.280193430258
 20
1001.355093412495
 30
0.0
 10
1854.275685362527
 20
1001.355450993095
 30
0.0
  0
SPLINE
  5
720
330
697
100
AcDbEntity
  8
0
  6
Continuous
 62
     7
370
    15
100
AcDbSpline
210
0.0
220
0.0
230
1.0
 70
     8
 71
     3
 72
    25
 73
    21
 74
     0
 42
0.0000000001
 43
0.0000000001
 40
0.0
 40
0.0
 40
0.0
 40
0.0
 40
0.0043444561085717
 40
0.0985481744271958
 40
0.1589778941094411
 40
0.218762204393279
 40
0.2781861676987151
 40
0.3581209422598217
 40
0.4356487014869505
 40
0.4737790756778888
 40
0.5116220951245813
 40
0.5492887644924566
 40
0.5868916502489748
 40
0.6354146878918985
 40
0.6829062550094444
 40
0.7296578467853464
 40
0.7759749315489179
 40
0.8221715977655186
 40
0.9114095001635527
 40
1.0
 40
1.0
 40
1.0
 40
1.0
 10
1854.278314906079
 20
996.391899939647
 30
0.0
 10
1854.281838960742
 20
996.3921819807945
 30
0.0
 10
1854.361777425986
 20
996.3985797068831
 30
0.0
 10
1854.489287104937
 20
996.438975986204
 30
0.0
 10
1854.658705820198
 20
996.5044584012829
 30
0.0
 10
1854.797890036776
 20
996.5774225895655
 30
0.0
 10
1854.948404187493
 20
996.6752200510565
 30
0.0
 10
1855.106666171837
 20
996.8035494518701
 30
0.0
 10
1855.24167520626
 20
996.9422548033461
 30
0.0
 10
1855.341853005733
 20
997.0645252093868
 30
0.0
 10
1855.412958921029
 20
997.1614887327628
 30
0.0
 10
1855.480429776617
 20
997.2642174798702
 30
0.0
 10
1855.55042450663
 20
997.3831196100764
 30
0.0
 10
1855.62090033637
 20
997.5191731650026
 30
0.0
 10
1855.689180250915
 20
997.6736763514328
 30
0.0
 10
1855.74880512005
 20
997.8341439961118
 30
0.0
 10
1855.799830879868
 20
998.0005998929865
 30
0.0
 10
1855.854970365313
 20
998.2260556239346
 30
0.0
 10
1855.904069324406
 20
998.5169453305106
 30
0.0
 10
1855.911248744382
 20
998.7549898259848
 30
0.0
 10
1855.914825385662
 20
998.8735787610051
 30
0.0
  0
ELLIPSE
  5
721
330
697
100
AcDbEntity
  8
0
  6
Continuous
 62
     7
370
    15
100
AcDbEllipse
 10
1835.804412553918
 20
998.8735787610051
 30
0.0
 11
0.0
 21
2.500000000000014
 31
0.0
210
0.0
220
0.0
230
1.0
 40
0.6781717216199429
 41
5.101405259087426
 42
10.60655800886156
  0
SPLINE
  5
722
330
697
100
AcDbEntity
  8
0
  6
Continuous
 62
     7
370
    15
100
AcDbSpline
210
0.0
220
0.0
230
1.0
 70
     8
 71
     3
 72
    22
 73
    18
 74
     0
 42
0.0000000001
 43
0.0000000001
 40
0.0
 40
0.0
 40
0.0
 40
0.0
 40
0.0957293390994159
 40
0.1915809436482846
 40
0.2531074026897817
 40
0.3144607677259334
 40
0.3762070300239344
 40
0.4389015408022013
 40
0.4904298735185354
 40
0.5417327329261357
 40
0.5930850282194175
 40
0.670783626279132
 40
0.7501098390985473
 40
0.8086683725304704
 40
0.8672697517115135
 40
0.9262464665751684
 40
1.0
 40
1.0
 40
1.0
 40
1.0
 10
1834.316538197972
 20
998.8735787610051
 30
0.0
 10
1834.320471824905
 20
998.7550861991197
 30
0.0
 10
1834.328344102798
 20
998.517949736726
 30
0.0
 10
1834.385021911569
 20
998.2122444116493
 30
0.0
 10
1834.455422456407
 20
997.9585217535525
 30
0.0
 10
1834.53032234039
 20
997.7529567327469
 30
0.0
 10
1834.620080412955
 20
997.5567444291639
 30
0.0
 10
1834.717799489082
 20
997.3824496717609
 30
0.0
 10
1834.819212239471
 20
997.2290284856173
 30
0.0
 10
1834.921219746849
 20
997.0957012064555
 30
0.0
 10
1835.048759279689
 20
996.9519018307508
 30
0.0
 10
1835.207031190847
 20
996.8042727646105
 30
0.0
 10
1835.381902320925
 20
996.675682094054
 30
0.0
 10
1835.548129704334
 20
996.5774339338047
 30
0.0
 10
1835.701786333492
 20
996.5053183214346
 30
0.0
 10
1835.872359257847
 20
996.4416342689201
 30
0.0
 10
1835.993778185649
 20
996.4174579232855
 30
0.0
 10
1836.061246415879
 20
996.4040239778297
 30
0.0
  0
SPLINE
  5
723
330
697
100
AcDbEntity
  8
0
  6
Continuous
 62
     7
370
    15
100
AcDbSpline
210
0.0
220
0.0
230
1.0
 70
     8
 71
     3
 72
    24
 73
    20
 74
     0
 42
0.0000000001
 43
0.0000000001
 40
0.0
 40
0.0
 40
0.0
 40
0.0
 40
0.0744826096860346
 40
0.162821330952317
 40
0.2504058742151314
 40
0.3035557376961926
 40
0.3558232101386749
 40
0.4074673852306922
 40
0.4843325375084846
 40
0.5613262502503514
 40
0.6116338894536375
 40
0.6612166213339707
 40
0.710354984730953
 40
0.7593371542629219
 40
0.8084540538483928
 40
0.8565928529145086
 40
0.9043720903169813
 40
0.9520784690968358
 40
1.0
 40
1.0
 40
1.0
 40
1.0
 10
1836.063421598492
 20
1001.343660166957
 30
0.0
 10
1835.995242427493
 20
1001.329965213325
 30
0.0
 10
1835.846200612067
 20
1001.300027613299
 30
0.0
 10
1835.623685573116
 20
1001.210480951331
 30
0.0
 10
1835.427751024539
 20
1001.101514063155
 30
0.0
 10
1835.269895063825
 20
1000.989619072976
 30
0.0
 10
1835.146384708303
 20
1000.887038027093
 30
0.0
 10
1835.010918415042
 20
1000.755627979655
 30
0.0
 10
1834.867524867119
 20
1000.587903521108
 30
0.0
 10
1834.739683767408
 20
1000.401241333836
 30
0.0
 10
1834.640320756886
 20
1000.22712253315
 30
0.0
 10
1834.564982637601
 20
1000.072462943886
 30
0.0
 10
1834.49925232748
 20
999.9120151600541
 30
0.0
 10
1834.443137324078
 20
999.7457819006477
 30
0.0
 10
1834.397089757864
 20
999.5754246885111
 30
0.0
 10
1834.361030669075
 20
999.4023379358969
 30
0.0
 10
1834.335514857968
 20
999.2277502246876
 30
0.0
 10
1834.3195322094
 20
999.0512852410153
 30
0.0
 10
1834.317537697591
 20
998.9329030365908
 30
0.0
 10
1834.316538197972
 20
998.8735787610051
 30
0.0
  0
LINE
  5
724
330
697
100
AcDbEntity
  8
0
  6
Continuous
 62
     7
370
    15
100
AcDbLine
 10
1856.415318911826
 20
1001.523578761005
 30
0.0
 11
1856.415318911826
 21
996.2235787610051
 31
0.0
  0
LINE
  5
725
330
697
100
AcDbEntity
  8
0
  6
Continuous
 62
     7
370
    15
100
AcDbLine
 10
1852.859397803948
 20
1001.523578761005
 30
0.0
 11
1856.415318911826
 21
1001.523578761005
 31
0.0
  0
LINE
  5
726
330
697
100
AcDbEntity
  8
0
  6
Continuous
 62
     7
370
    15
100
AcDbLine
 10
1856.415318911826
 20
996.2235787610051
 30
0.0
 11
1852.859397803948
 21
996.2235787610051
 31
0.0
  0
LINE
  5
727
330
697
100
AcDbEntity
  8
0
  6
Continuous
 62
     7
370
    15
100
AcDbLine
 10
1833.817242700473
 20
996.2235787610051
 30
0.0
 11
1833.817242700473
 21
1001.523578761005
 31
0.0
  0
LINE
  5
728
330
697
100
AcDbEntity
  8
0
  6
Continuous
 62
     7
370
    15
100
AcDbLine
 10
1833.817242700473
 20
1001.523578761005
 30
0.0
 11
1837.373163808351
 21
1001.523578761005
 31
0.0
  0
LINE
  5
729
330
697
100
AcDbEntity
  8
0
  6
Continuous
 62
     7
370
    15
100
AcDbLine
 10
1837.373163808351
 20
996.2235787610051
 30
0.0
 11
1833.817242700473
 21
996.2235787610051
 31
0.0
  0
LINE
  5
72A
330
697
100
AcDbEntity
  8
0
  6
Continuous
 62
     7
370
    15
100
AcDbLine
 10
1847.28262928432
 20
996.2235787610051
 30
0.0
 11
1846.116280806149
 21
996.2235787610051
 31
0.0
  0
LINE
  5
72B
330
697
100
AcDbEntity
  8
0
  6
Continuous
 62
     7
370
    15
100
AcDbLine
 10
1844.128804901358
 20
996.2235787610051
 30
0.0
 11
1842.950313253405
 21
996.2235787610051
 31
0.0
  0
SPLINE
  5
72C
330
697
100
AcDbEntity
  8
0
  6
Continuous
 62
     7
370
    15
100
AcDbSpline
210
0.0
220
0.0
230
1.0
 70
    24
 71
     3
 72
    14
 73
    10
 74
     0
 42
0.0000000001
 43
0.0000000001
 40
0.0
 40
0.0
 40
0.0
 40
0.0
 40
0.25
 40
0.25
 40
0.5
 40
0.5
 40
0.75
 40
0.75
 40
1.0
 40
1.0
 40
1.0
 40
1.0
 10
1844.116280806149
 20
994.953578761005
 30
0.0
 10
1844.116280806149
 20
994.953578761005
 30
0.0
 10
1844.224053902539
 20
994.953578761005
 30
0.0
 10
1844.594294147386
 20
994.953578761005
 30
0.0
 10
1844.85448141835
 20
994.953578761005
 30
0.0
 10
1845.378080193948
 20
994.953578761005
 30
0.0
 10
1845.638267464912
 20
994.953578761005
 30
0.0
 10
1846.008507709759
 20
994.953578761005
 30
0.0
 10
1846.116280806149
 20
994.953578761005
 30
0.0
 10
1846.116280806149
 20
994.953578761005
 30
0.0
  0
LINE
  5
72D
330
697
100
AcDbEntity
  8
0
  6
Continuous
 62
     7
370
    15
100
AcDbLine
 10
1833.616280806149
 20
1001.523578761005
 30
0.0
 11
1833.616280806149
 21
996.2235787610051
 31
0.0
  0
SPLINE
  5
72E
330
697
100
AcDbEntity
  8
0
  6
Continuous
 62
     7
370
    15
100
AcDbSpline
210
0.0
220
0.0
230
1.0
 70
    24
 71
     3
 72
     8
 73
     4
 74
     0
 42
0.0000000001
 43
0.0000000001
 40
0.0
 40
0.0
 40
0.0
 40
0.0
 40
1.0
 40
1.0
 40
1.0
 40
1.0
 10
1833.817242700473
 20
1001.523578761005
 30
0.0
 10
1833.686343006573
 20
1001.523578761005
 30
0.0
 10
1833.616280806149
 20
1001.523578761005
 30
0.0
 10
1833.616280806149
 20
1001.523578761005
 30
0.0
  0
LINE
  5
72F
330
697
100
AcDbEntity
  8
0
  6
Continuous
 62
     7
370
    15
100
AcDbLine
 10
1833.616280806149
 20
996.2235787610051
 30
0.0
 11
1833.817242700473
 21
996.2235787610051
 31
0.0
  0
LINE
  5
730
330
697
100
AcDbEntity
  8
0
  6
Continuous
 62
     7
370
    15
100
AcDbLine
 10
1856.616280806149
 20
996.2235787610051
 30
0.0
 11
1856.616280806149
 21
1001.523578761005
 31
0.0
  0
SPLINE
  5
731
330
697
100
AcDbEntity
  8
0
  6
Continuous
 62
     7
370
    15
100
AcDbSpline
210
0.0
220
0.0
230
1.0
 70
    24
 71
     3
 72
     8
 73
     4
 74
     0
 42
0.0000000001
 43
0.0000000001
 40
0.0
 40
0.0
 40
0.0
 40
0.0
 40
1.0
 40
1.0
 40
1.0
 40
1.0
 10
1856.616280806149
 20
1001.523578761005
 30
0.0
 10
1856.616280806149
 20
1001.523578761005
 30
0.0
 10
1856.546218605726
 20
1001.523578761005
 30
0.0
 10
1856.415318911826
 20
1001.523578761005
 30
0.0
  0
LINE
  5
732
330
697
100
AcDbEntity
  8
0
  6
Continuous
 62
     7
370
    15
100
AcDbLine
 10
1856.415318911826
 20
996.2235787610051
 30
0.0
 11
1856.616280806149
 21
996.2235787610051
 31
0.0
  0
SPLINE
  5
733
330
697
100
AcDbEntity
  8
0
  6
Continuous
 62
     7
370
    15
100
AcDbSpline
210
0.0
220
0.0
230
1.0
 70
    24
 71
     3
 72
    14
 73
    10
 74
     0
 42
0.0000000001
 43
0.0000000001
 40
0.0
 40
0.0
 40
0.0
 40
0.0
 40
0.25
 40
0.25
 40
0.5
 40
0.5
 40
0.75
 40
0.75
 40
1.0
 40
1.0
 40
1.0
 40
1.0
 10
1834.226929902256
 20
994.2535787610053
 30
0.0
 10
1834.226929902256
 20
994.2535787610053
 30
0.0
 10
1834.307759724549
 20
994.2535787610051
 30
0.0
 10
1834.585439908184
 20
994.2535787610053
 30
0.0
 10
1834.780580361407
 20
994.2535787610051
 30
0.0
 10
1835.173279443106
 20
994.2535787610053
 30
0.0
 10
1835.368419896329
 20
994.2535787610051
 30
0.0
 10
1835.646100079964
 20
994.2535787610053
 30
0.0
 10
1835.726929902257
 20
994.2535787610051
 30
0.0
 10
1835.726929902257
 20
994.2535787610053
 30
0.0
  0
LINE
  5
734
330
697
100
AcDbEntity
  8
0
  6
Continuous
 62
     7
370
    15
100
AcDbLine
 10
1856.005631710042
 20
1003.493578761005
 30
0.0
 11
1854.505631710042
 21
1003.493578761005
 31
0.0
  0
SPLINE
  5
735
330
697
100
AcDbEntity
  8
0
  6
Continuous
 62
     7
370
    15
100
AcDbSpline
210
0.0
220
0.0
230
1.0
 70
    24
 71
     3
 72
    14
 73
    10
 74
     0
 42
0.0000000001
 43
0.0000000001
 40
0.0
 40
0.0
 40
0.0
 40
0.0
 40
0.25
 40
0.25
 40
0.5
 40
0.5
 40
0.75
 40
0.75
 40
1.0
 40
1.0
 40
1.0
 40
1.0
 10
1854.01628080615
 20
994.2535787610053
 30
0.0
 10
1854.016280806149
 20
994.2535787610053
 30
0.0
 10
1854.124053902539
 20
994.2535787610051
 30
0.0
 10
1854.49429414738
 20
994.2535787610053
 30
0.0
 10
1854.754481418341
 20
994.2535787610051
 30
0.0
 10
1855.278080193933
 20
994.2535787610053
 30
0.0
 10
1855.538267464893
 20
994.2535787610051
 30
0.0
 10
1855.908507709735
 20
994.2535787610053
 30
0.0
 10
1856.016280806124
 20
994.2535787610051
 30
0.0
 10
1856.016280806124
 20
994.2535787610053
 30
0.0
  0
LINE
  5
736
330
697
100
AcDbEntity
  8
0
  6
Continuous
 62
     7
370
    15
100
AcDbLine
 10
1836.216280806129
 20
1003.493578761005
 30
0.0
 11
1834.216280806154
 21
1003.493578761005
 31
0.0
  0
LINE
  5
737
330
697
100
AcDbEntity
  8
0
  6
Continuous
 62
     7
370
    15
100
AcDbLine
 10
1852.637243549052
 20
996.2235787610051
 30
0.0
 11
1852.637243549052
 21
994.953578761005
 31
0.0
  0
LINE
  5
738
330
697
100
AcDbEntity
  8
0
  6
Continuous
 62
     7
370
    15
100
AcDbLine
 10
1852.637243549052
 20
994.953578761005
 30
0.0
 11
1846.128799407391
 21
994.953578761005
 31
0.0
  0
LINE
  5
739
330
697
100
AcDbEntity
  8
0
  6
Continuous
 62
     7
370
    15
100
AcDbLine
 10
1844.103762204907
 20
994.953578761005
 30
0.0
 11
1837.595318063246
 21
994.953578761005
 31
0.0
  0
LINE
  5
73A
330
697
100
AcDbEntity
  8
0
  6
Continuous
 62
     7
370
    15
100
AcDbLine
 10
1837.595318063246
 20
994.953578761005
 30
0.0
 11
1837.595318063246
 21
996.2235787610051
 31
0.0
  0
LINE
  5
73B
330
697
100
AcDbEntity
  8
0
  6
Continuous
 62
     7
370
    15
100
AcDbLine
 10
1852.837243549052
 20
994.953578761005
 30
0.0
 11
1852.837243549052
 21
996.2235787610051
 31
0.0
  0
SPLINE
  5
73C
330
697
100
AcDbEntity
  8
0
  6
Continuous
 62
     7
370
    15
100
AcDbSpline
210
0.0
220
0.0
230
1.0
 70
    24
 71
     3
 72
    10
 73
     6
 74
     0
 42
0.0000000001
 43
0.0000000001
 40
0.0
 40
0.0
 40
0.0
 40
0.0
 40
0.5
 40
0.5
 40
1.0
 40
1.0
 40
1.0
 40
1.0
 10
1852.637243549052
 20
994.953578761005
 30
0.0
 10
1852.689603426611
 20
994.953578761005
 30
0.0
 10
1852.741640880804
 20
994.953578761005
 30
0.0
 10
1852.815688929774
 20
994.953578761005
 30
0.0
 10
1852.837243549052
 20
994.953578761005
 30
0.0
 10
1852.837243549052
 20
994.953578761005
 30
0.0
  0
LINE
  5
73D
330
697
100
AcDbEntity
  8
0
  6
Continuous
 62
     7
370
    15
100
AcDbLine
 10
1837.395318063246
 20
996.2235787610051
 30
0.0
 11
1837.395318063246
 21
994.953578761005
 31
0.0
  0
SPLINE
  5
73E
330
697
100
AcDbEntity
  8
0
  6
Continuous
 62
     7
370
    15
100
AcDbSpline
210
0.0
220
0.0
230
1.0
 70
    24
 71
     3
 72
    10
 73
     6
 74
     0
 42
0.0000000001
 43
0.0000000001
 40
0.0
 40
0.0
 40
0.0
 40
0.0
 40
0.5
 40
0.5
 40
1.0
 40
1.0
 40
1.0
 40
1.0
 10
1837.395318063246
 20
994.953578761005
 30
0.0
 10
1837.395318063246
 20
994.953578761005
 30
0.0
 10
1837.416872682524
 20
994.953578761005
 30
0.0
 10
1837.490920731493
 20
994.953578761005
 30
0.0
 10
1837.542958185686
 20
994.953578761005
 30
0.0
 10
1837.595318063246
 20
994.953578761005
 30
0.0
  0
ENDBLK
  5
699
330
697
100
AcDbEntity
  8
0
100
AcDbBlockEnd
  0
BLOCK
  5
741
330
740
100
AcDbEntity
  8
0
100
AcDbBlockBegin
  2
4
 70
     0
 10
0.0
 20
0.0
 30
0.0
  3
4
  1

  0
LINE
  5
743
330
740
100
AcDbEntity
  8
0
  6
Continuous
 62
     7
370
    15
100
AcDbLine
 10
1887.958427105328
 20
1042.926190362695
 30
0.0
 11
1887.495540864468
 21
1042.679077179538
 31
0.0
  0
LINE
  5
744
330
740
100
AcDbEntity
  8
0
  6
Continuous
 62
     7
370
    15
100
AcDbLine
 10
1886.560307698053
 20
1042.382942787323
 30
0.0
 11
1889.964521487397
 21
1044.200292346185
 31
0.0
  0
LINE
  5
745
330
740
100
AcDbEntity
  8
0
  6
Continuous
 62
     7
370
    15
100
AcDbLine
 10
1885.593043930299
 20
1041.213697666207
 30
0.0
 11
1884.679080848138
 21
1040.725775782634
 31
0.0
  0
LINE
  5
746
330
740
100
AcDbEntity
  8
0
  6
Continuous
 62
     7
370
    15
100
AcDbLine
 10
1885.620970986072
 20
1038.96145070826
 30
0.0
 11
1886.534934068233
 21
1039.449372591834
 31
0.0
  0
LINE
  5
747
330
740
100
AcDbEntity
  8
0
  6
Continuous
 62
     7
370
    15
100
AcDbLine
 10
1893.038245028804
 20
1026.332842265056
 30
0.0
 11
1891.621019686919
 21
1025.576252341725
 31
0.0
  0
LINE
  5
748
330
740
100
AcDbEntity
  8
0
  6
Continuous
 62
     7
370
    15
100
AcDbLine
 10
1892.562909824841
 20
1023.811927267374
 30
0.0
 11
1893.980135166726
 21
1024.568517190705
 31
0.0
  0
LINE
  5
749
330
740
100
AcDbEntity
  8
0
  6
Continuous
 62
     7
370
    15
100
AcDbLine
 10
1888.710051001673
 20
1045.581981943086
 30
0.0
 11
1885.307654569414
 21
1043.765602585656
 31
0.0
  0
LINE
  5
74A
330
740
100
AcDbEntity
  8
0
  6
Continuous
 62
     7
370
    15
100
AcDbLine
 10
1898.118837410688
 20
1033.107422040691
 30
0.0
 11
1898.950454661871
 21
1033.551383359839
 31
0.0
  0
LINE
  5
74B
330
740
100
AcDbEntity
  8
0
  6
Continuous
 62
     7
370
    15
100
AcDbLine
 10
1898.24403705842
 20
1034.87462716562
 30
0.0
 11
1898.035495936923
 21
1034.763296873632
 31
0.0
  0
LINE
  5
74C
330
740
100
AcDbEntity
  8
0
  6
Continuous
 62
     7
370
    15
100
AcDbLine
 10
1884.372412046799
 20
1043.469473822566
 30
0.0
 11
1887.776625613595
 21
1045.28682326262
 31
0.0
  0
LINE
  5
74D
330
740
100
AcDbEntity
  8
0
  6
Continuous
 62
     7
370
    15
100
AcDbLine
 10
1884.527652366354
 20
1047.721363016684
 30
0.0
 11
1880.716336560353
 21
1045.686680847073
 31
0.0
  0
LINE
  5
74E
330
740
100
AcDbEntity
  8
0
  6
Continuous
 62
     7
370
    15
100
AcDbLine
 10
1891.174026718712
 20
1022.900739285413
 30
0.0
 11
1892.089101258298
 21
1023.389254523806
 31
0.0
  0
LINE
  5
74F
330
740
100
AcDbEntity
  8
0
  6
Continuous
 62
     7
370
    15
100
AcDbLine
 10
1878.949415832661
 20
1039.070563947645
 30
0.0
 11
1877.532190490776
 21
1038.313974024314
 31
0.0
  0
LINE
  5
750
330
740
100
AcDbEntity
  8
0
  6
Continuous
 62
     7
370
    15
100
AcDbLine
 10
1878.238608094227
 20
1036.990730218533
 30
0.0
 11
1879.655833436112
 21
1037.747320141864
 31
0.0
  0
LINE
  5
751
330
740
100
AcDbEntity
  8
0
  6
Continuous
 62
     7
370
    15
100
AcDbLine
 10
1881.431392896554
 20
1029.606528925453
 30
0.0
 11
1880.516318356962
 21
1029.118013687057
 31
0.0
  0
LWPOLYLINE
  5
752
330
740
100
AcDbEntity
  8
0
  6
Continuous
 62
     7
370
    15
100
AcDbPolyline
 90
       40
 70
   128
 43
0.0
 10
1879.079668275736
 20
1032.61651923847
 10
1879.09556884235
 20
1032.474627412551
 10
1879.129024757819
 20
1032.327487843117
 10
1879.179169531507
 20
1032.178911367728
 10
1879.244704440114
 20
1032.032746039054
 10
1879.323932163931
 20
1031.892777462329
 10
1879.414800746529
 20
1031.762630750169
 10
1879.514956739348
 20
1031.645676634057
 10
1879.621806154785
 20
1031.544944164165
 10
1879.732581649104
 20
1031.463042258552
 10
1879.844414195191
 20
1031.402092133553
 10
1879.954407388845
 20
1031.363672365388
 10
1880.059712464128
 20
1031.348778005873
 10
1880.157602074902
 20
1031.357794811095
 10
1880.245540931669
 20
1031.390489250536
 10
1880.321251464231
 20
1031.446014555387
 10
1880.382772809562
 20
1031.522932649419
 10
1880.428511597135
 20
1031.6192513944
 10
1880.457283216377
 20
1031.732476185428
 10
1880.468342497462
 20
1031.859674559891
 10
1880.46140301082
 20
1031.997552146703
 10
1880.43664448551
 20
1032.142537988791
 10
1880.394708154331
 20
1032.290877029002
 10
1880.336680146234
 20
1032.438727364112
 10
1880.264063356147
 20
1032.582259748105
 10
1880.17873852079
 20
1032.717756767631
 10
1880.08291550858
 20
1032.841709121055
 10
1879.979076085198
 20
1032.950906507534
 10
1879.869909637167
 20
1033.042520772117
 10
1879.758243518148
 20
1033.114179153473
 10
1879.646969821968
 20
1033.164025737167
 10
1879.538970478909
 20
1033.190769522863
 10
1879.437042615226
 20
1033.19371786056
 10
1879.343826109048
 20
1033.17279438986
 10
1879.261735218923
 20
1033.128541017664
 10
1879.192896055782
 20
1033.062103883067
 10
1879.139091517792
 20
1032.975203672956
 10
1879.101715114225
 20
1032.870091057127
 10
1879.0817348743
 20
1032.749488397117
 10
1879.079668275736
 20
1032.61651923847
  0
LWPOLYLINE
  5
753
330
740
100
AcDbEntity
  8
0
  6
Continuous
 62
     7
370
    15
100
AcDbPolyline
 90
       22
 70
   128
 43
0.0
 10
1893.980135166726
 20
1024.568517190705
 10
1893.981335743026
 20
1024.569161254882
 10
1894.057046275587
 20
1024.624686559733
 10
1894.118567620918
 20
1024.701604653764
 10
1894.164306408491
 20
1024.797923398745
 10
1894.193078027732
 20
1024.911148189772
 10
1894.204137308818
 20
1025.038346564234
 10
1894.197197822176
 20
1025.176224151046
 10
1894.172439296865
 20
1025.321209993133
 10
1894.130502965687
 20
1025.469549033342
 10
1894.07247495759
 20
1025.617399368452
 10
1893.999858167504
 20
1025.760931752444
 10
1893.914533332147
 20
1025.896428771968
 10
1893.818710319937
 20
1026.020381125392
 10
1893.714870896556
 20
1026.129578511871
 10
1893.605704448526
 20
1026.221192776453
 10
1893.494038329508
 20
1026.292851157809
 10
1893.382764633328
 20
1026.342697741502
 10
1893.274765290269
 20
1026.369441527198
 10
1893.172837426587
 20
1026.372389864895
 10
1893.079620920411
 20
1026.351466394196
 10
1893.038245028804
 20
1026.332842265056
  0
LWPOLYLINE
  5
754
330
740
100
AcDbEntity
  8
0
  6
Continuous
 62
     7
370
    15
100
AcDbPolyline
 90
       22
 70
   128
 43
0.0
 10
1886.534934068233
 20
1039.449372591834
 10
1886.536134644532
 20
1039.45001665601
 10
1886.611845177094
 20
1039.505541960861
 10
1886.673366522426
 20
1039.582460054894
 10
1886.71910531
 20
1039.678778799875
 10
1886.747876929242
 20
1039.792003590904
 10
1886.758936210327
 20
1039.919201965368
 10
1886.751996723685
 20
1040.057079552181
 10
1886.727238198374
 20
1040.20206539427
 10
1886.685301867196
 20
1040.350404434481
 10
1886.627273859098
 20
1040.498254769593
 10
1886.554657069011
 20
1040.641787153587
 10
1886.469332233653
 20
1040.777284173113
 10
1886.373509221442
 20
1040.901236526539
 10
1886.26966979806
 20
1041.010433913019
 10
1886.160503350028
 20
1041.102048177602
 10
1886.048837231008
 20
1041.173706558959
 10
1885.937563534827
 20
1041.223553142653
 10
1885.829564191767
 20
1041.250296928349
 10
1885.727636328084
 20
1041.253245266046
 10
1885.634419821906
 20
1041.232321795346
 10
1885.593043930299
 20
1041.213697666207
  0
LWPOLYLINE
  5
755
330
740
100
AcDbEntity
  8
0
  6
Continuous
 62
     7
370
    15
100
AcDbPolyline
 90
       19
 70
   128
 43
0.0
 10
1879.655833436112
 20
1037.747320141864
 10
1879.708914942972
 20
1037.785108574902
 10
1879.762013516598
 20
1037.850998892059
 10
1879.799468152817
 20
1037.935889294103
 10
1879.820003378914
 20
1038.036888940206
 10
1879.822919892393
 20
1038.150558408555
 10
1879.808118374886
 20
1038.273026821739
 10
1879.77610287432
 20
1038.40012366483
 10
1879.727963640167
 20
1038.527520807273
 10
1879.66533999631
 20
1038.650879892178
 10
1879.590364515832
 20
1038.766000073861
 10
1879.505590398797
 20
1038.868961072607
 10
1879.413904526086
 20
1038.956256675092
 10
1879.318429150129
 20
1039.024914134272
 10
1879.222415570343
 20
1039.07259540272
 10
1879.129133414033
 20
1039.097676752028
 10
1879.041759293153
 20
1039.099304066925
 10
1878.963268628595
 20
1039.077421931156
 10
1878.949415832661
 20
1039.070563947645
  0
LINE
  5
756
330
740
100
AcDbEntity
  8
0
  6
Continuous
 62
     7
370
    15
100
AcDbLine
 10
1892.13365764664
 20
1023.496784728257
 30
0.0
 11
1892.115870286382
 21
1023.850193911756
 31
0.0
  0
LINE
  5
757
330
740
100
AcDbEntity
  8
0
  6
Continuous
 62
     7
370
    15
100
AcDbLine
 10
1891.481113312238
 20
1024.653148513107
 30
0.0
 11
1881.516957848513
 21
1029.601444083279
 31
0.0
  0
ARC
  5
758
330
740
100
AcDbEntity
  8
0
  6
Continuous
 62
     7
370
    15
100
AcDbCircle
 10
1881.469393805627
 20
1029.523524903284
 30
0.0
 40
0.0912893026957484
100
AcDbArc
 50
58.59894342220503
 51
114.5992585175786
  0
ARC
  5
759
330
740
100
AcDbEntity
  8
0
  6
Continuous
 62
     7
370
    15
100
AcDbCircle
 10
1892.025744184287
 20
1023.47850359339
 30
0.0
 40
0.1094509718957848
100
AcDbArc
 50
305.3705835875244
 51
9.614936901369702
  0
LINE
  5
75A
330
740
100
AcDbEntity
  8
0
  6
Continuous
 62
     7
370
    15
100
AcDbLine
 10
1878.256604815168
 20
1040.906296689544
 30
0.0
 11
1878.364709295764
 21
1038.758416640617
 31
0.0
  0
LINE
  5
75B
330
740
100
AcDbEntity
  8
0
  6
Continuous
 62
     7
370
    15
100
AcDbLine
 10
1878.448050769529
 20
1037.102541807676
 30
0.0
 11
1878.692009696328
 21
1032.255429932763
 31
0.0
  0
ARC
  5
75C
330
740
100
AcDbEntity
  8
0
  6
Continuous
 62
     7
370
    15
100
AcDbCircle
 10
1879.346163862537
 20
1040.999470528108
 30
0.0
 40
1.093535679297219
100
AcDbArc
 50
153.955003581769
 51
184.8877675734664
  0
LINE
  5
75D
330
740
100
AcDbEntity
  8
0
  6
Continuous
 62
     7
370
    15
100
AcDbLine
 10
1880.564936260199
 20
1045.531243196872
 30
0.0
 11
1878.363677277498
 21
1041.479616747624
 31
0.0
  0
ARC
  5
75E
330
740
100
AcDbEntity
  8
0
  6
Continuous
 62
     7
370
    15
100
AcDbCircle
 10
1880.887093239996
 20
1045.367238895412
 30
0.0
 40
0.3615003880073519
100
AcDbArc
 50
81.97679913589274
 51
153.0201772314764
  0
LINE
  5
75F
330
740
100
AcDbEntity
  8
0
  6
Continuous
 62
     7
370
    15
100
AcDbLine
 10
1883.085354204343
 20
1045.490304820628
 30
0.0
 11
1880.937549324159
 21
1045.725200784585
 31
0.0
  0
LINE
  5
760
330
740
100
AcDbEntity
  8
0
  6
Continuous
 62
     7
370
    15
100
AcDbLine
 10
1883.797104993915
 20
1045.136842523504
 30
0.0
 11
1883.085354204343
 21
1045.490304820628
 31
0.0
  0
LINE
  5
761
330
740
100
AcDbEntity
  8
0
  6
Continuous
 62
     7
370
    15
100
AcDbLine
 10
1883.81861597499
 20
1044.70954357969
 30
0.0
 11
1883.797104993915
 21
1045.136842523504
 31
0.0
  0
ARC
  5
762
330
740
100
AcDbEntity
  8
0
  6
Continuous
 62
     7
370
    15
100
AcDbCircle
 10
1884.121215289914
 20
1044.729837434592
 30
0.0
 40
0.3032790562155552
100
AcDbArc
 50
183.8368020681716
 51
239.2136147163235
  0
LINE
  5
763
330
740
100
AcDbEntity
  8
0
  6
Continuous
 62
     7
370
    15
100
AcDbLine
 10
1884.22751282084
 20
1044.339418918136
 30
0.0
 11
1883.965985319012
 21
1044.46929599437
 31
0.0
  0
ARC
  5
764
330
740
100
AcDbEntity
  8
0
  6
Continuous
 62
     7
370
    15
100
AcDbCircle
 10
1884.071899624749
 20
1044.078516437119
 30
0.0
 40
0.3037854035299445
100
AcDbArc
 50
5.324622615567562
 51
59.18637489862621
  0
LINE
  5
765
330
740
100
AcDbEntity
  8
0
  6
Continuous
 62
     7
370
    15
100
AcDbLine
 10
1884.418259608985
 20
1043.585502897299
 30
0.0
 11
1884.374374167037
 21
1044.106707263038
 31
0.0
  0
SPLINE
  5
766
330
740
100
AcDbEntity
  8
0
  6
Continuous
 62
     7
370
    15
100
AcDbSpline
210
0.0
220
0.0
230
1.0
 70
     8
 71
     3
 72
     8
 73
     4
 74
     0
 42
0.0000000001
 43
0.0000000001
 40
0.0
 40
0.0
 40
0.0
 40
0.0
 40
1.0
 40
1.0
 40
1.0
 40
1.0
 10
1884.418259608985
 20
1043.585502897299
 30
0.0
 10
1884.418472890772
 20
1043.582969861442
 30
0.0
 10
1884.418642317088
 20
1043.580456293322
 30
0.0
 10
1884.418767726758
 20
1043.577964584146
 30
0.0
  0
SPLINE
  5
767
330
740
100
AcDbEntity
  8
0
  6
Continuous
 62
     7
370
    15
100
AcDbSpline
210
0.0
220
0.0
230
1.0
 70
     8
 71
     3
 72
    10
 73
     6
 74
     0
 42
0.0000000001
 43
0.0000000001
 40
0.0
 40
0.0
 40
0.0
 40
0.0
 40
0.5
 40
0.5
 40
1.0
 40
1.0
 40
1.0
 40
1.0
 10
1884.418767726758
 20
1043.577964584146
 30
0.0
 10
1884.420967816462
 20
1043.534251976146
 30
0.0
 10
1884.408987977785
 20
1043.497818245505
 30
0.0
 10
1884.363118952405
 20
1043.459126173562
 30
0.0
 10
1884.329484820119
 20
1043.457082979273
 30
0.0
 10
1884.294206167815
 20
1043.472892702631
 30
0.0
  0
SPLINE
  5
768
330
740
100
AcDbEntity
  8
0
  6
Continuous
 62
     7
370
    15
100
AcDbSpline
210
0.0
220
0.0
230
1.0
 70
     8
 71
     3
 72
    13
 73
     9
 74
     0
 42
0.0000000001
 43
0.0000000001
 40
0.0
 40
0.0
 40
0.0
 40
0.0
 40
0.1280104524594518
 40
0.2510755984417359
 40
0.3738450504906364
 40
0.5010008625525338
 40
0.74832905789736
 40
1.0
 40
1.0
 40
1.0
 40
1.0
 10
1884.294206167815
 20
1043.47289270263
 30
0.0
 10
1884.285239109236
 20
1043.476303740242
 30
0.0
 10
1884.267651407954
 20
1043.482994040082
 30
0.0
 10
1884.243008490548
 20
1043.484820668892
 30
0.0
 10
1884.220847417802
 20
1043.479929993539
 30
0.0
 10
1884.195780415252
 20
1043.464573761464
 30
0.0
 10
1884.171763270082
 20
1043.43114410564
 30
0.0
 10
1884.170354914874
 20
1043.389050694408
 30
0.0
 10
1884.169644608873
 20
1043.367820821116
 30
0.0
  0
LINE
  5
769
330
740
100
AcDbEntity
  8
0
  6
Continuous
 62
     7
370
    15
100
AcDbLine
 10
1884.186844758065
 20
1043.026078674224
 30
0.0
 11
1884.169644608873
 21
1043.367820821116
 31
0.0
  0
SPLINE
  5
76A
330
740
100
AcDbEntity
  8
0
  6
Continuous
 62
     7
370
    15
100
AcDbSpline
210
0.0
220
0.0
230
1.0
 70
     8
 71
     3
 72
    13
 73
     9
 74
     0
 42
0.0000000001
 43
0.0000000001
 40
0.0
 40
0.0
 40
0.0
 40
0.0
 40
0.1281482339426854
 40
0.2510936230983605
 40
0.37374713155525
 40
0.5010535066078932
 40
0.7483541261407109
 40
1.0
 40
1.0
 40
1.0
 40
1.0
 10
1884.186844758065
 20
1043.026078674224
 30
0.0
 10
1884.187949243451
 20
1043.0143370699
 30
0.0
 10
1884.190113371889
 20
1042.991330572815
 30
0.0
 10
1884.199753997634
 20
1042.955087256969
 30
0.0
 10
1884.214148738557
 20
1042.919107091524
 30
0.0
 10
1884.238964261301
 20
1042.87341725039
 30
0.0
 10
1884.278966863563
 20
1042.820128968902
 30
0.0
 10
1884.315691825048
 20
1042.797328316169
 30
0.0
 10
1884.334214222034
 20
1042.785828705974
 30
0.0
  0
LINE
  5
76B
330
740
100
AcDbEntity
  8
0
  6
Continuous
 62
     7
370
    15
100
AcDbLine
 10
1885.441438377255
 20
1042.235970526582
 30
0.0
 11
1884.334214222034
 21
1042.785828705974
 31
0.0
  0
SPLINE
  5
76C
330
740
100
AcDbEntity
  8
0
  6
Continuous
 62
     7
370
    15
100
AcDbSpline
210
0.0
220
0.0
230
1.0
 70
     8
 71
     3
 72
    13
 73
     9
 74
     0
 42
0.0000000001
 43
0.0000000001
 40
0.0
 40
0.0
 40
0.0
 40
0.0
 40
0.1281482187053306
 40
0.2510936211057128
 40
0.3737471423897137
 40
0.501053500806844
 40
0.7483541233700839
 40
0.9999999999999998
 40
0.9999999999999998
 40
0.9999999999999998
 40
0.9999999999999998
 10
1885.441438377255
 20
1042.235970526582
 30
0.0
 10
1885.450701355405
 20
1042.232004627279
 30
0.0
 10
1885.468851234893
 20
1042.224233844142
 30
0.0
 10
1885.494476440775
 20
1042.221161247127
 30
0.0
 10
1885.517618467842
 20
1042.225209376833
 30
0.0
 10
1885.543893279917
 20
1042.239967595094
 30
0.0
 10
1885.56927116266
 20
1042.273454581922
 30
0.0
 10
1885.570792474742
 20
1042.316636266476
 30
0.0
 10
1885.571559755229
 20
1042.338415140326
 30
0.0
  0
LINE
  5
76D
330
740
100
AcDbEntity
  8
0
  6
Continuous
 62
     7
370
    15
100
AcDbLine
 10
1885.554360914156
 20
1042.680154714398
 30
0.0
 11
1885.571559755229
 21
1042.338415140326
 31
0.0
  0
SPLINE
  5
76E
330
740
100
AcDbEntity
  8
0
  6
Continuous
 62
     7
370
    15
100
AcDbSpline
210
0.0
220
0.0
230
1.0
 70
     8
 71
     3
 72
    13
 73
     9
 74
     0
 42
0.0000000001
 43
0.0000000001
 40
0.0
 40
0.0
 40
0.0
 40
0.0
 40
0.1280105496757866
 40
0.2510756112215582
 40
0.373844981520251
 40
0.5010008998219653
 40
0.7483290756513214
 40
1.0
 40
1.0
 40
1.0
 40
1.0
 10
1885.554360914156
 20
1042.680154714398
 30
0.0
 10
1885.553295786042
 20
1042.691579061754
 30
0.0
 10
1885.551206679379
 20
1042.713986394605
 30
0.0
 10
1885.541992095706
 20
1042.749276369111
 30
0.0
 10
1885.528262898052
 20
1042.784382984873
 30
0.0
 10
1885.504549323534
 20
1042.829161650508
 30
0.0
 10
1885.466237092779
 20
1042.881721286082
 30
0.0
 10
1885.430557899632
 20
1042.905508630055
 30
0.0
 10
1885.412563046503
 20
1042.9175058117
 30
0.0
  0
SPLINE
  5
76F
330
740
100
AcDbEntity
  8
0
  6
Continuous
 62
     7
370
    15
100
AcDbSpline
210
0.0
220
0.0
230
1.0
 70
     8
 71
     3
 72
    10
 73
     6
 74
     0
 42
0.0000000001
 43
0.0000000001
 40
0.0
 40
0.0
 40
0.0
 40
0.0
 40
0.5
 40
0.5
 40
1.0
 40
1.0
 40
1.0
 40
1.0
 10
1885.412563046503
 20
1042.917505811699
 30
0.0
 10
1885.37609660414
 20
1042.937373552731
 30
0.0
 10
1885.339526206426
 20
1042.975356949283
 30
0.0
 10
1885.286911218217
 20
1043.066020230758
 30
0.0
 10
1885.271193496922
 20
1043.118136872481
 30
0.0
 10
1885.270521157618
 20
1043.162264656877
 30
0.0
  0
LINE
  5
770
330
740
100
AcDbEntity
  8
0
  6
Continuous
 62
     7
370
    15
100
AcDbLine
 10
1885.262854032592
 20
1043.665482657607
 30
0.0
 11
1885.270521157618
 21
1043.162264656877
 31
0.0
  0
LWPOLYLINE
  5
771
330
740
100
AcDbEntity
  8
0
  6
Continuous
 62
     7
370
    15
100
AcDbPolyline
 90
        9
 70
   128
 43
0.0
 10
1885.262854032592
 20
1043.665482657607
 10
1885.264892598245
 20
1043.696006050456
 10
1885.271906595877
 20
1043.722648090331
 10
1885.283641206817
 20
1043.744440871398
 10
1885.299670112418
 20
1043.760592661493
 10
1885.319410982225
 20
1043.770516665762
 10
1885.342146630047
 20
1043.773852344936
 10
1885.367051069353
 20
1043.770478513725
 10
1885.393219521373
 20
1043.760517743483
  0
LINE
  5
772
330
740
100
AcDbEntity
  8
0
  6
Continuous
 62
     7
370
    15
100
AcDbLine
 10
1886.41540381298
 20
1043.252891179398
 30
0.0
 11
1885.393219521373
 21
1043.760517743483
 31
0.0
  0
ARC
  5
773
330
740
100
AcDbEntity
  8
0
  6
Continuous
 62
     7
370
    15
100
AcDbCircle
 10
1886.259790539553
 20
1042.991988621877
 30
0.0
 40
0.3037855088502784
100
AcDbArc
 50
5.325083788799222
 51
59.18636976280182
  0
LINE
  5
774
330
740
100
AcDbEntity
  8
0
  6
Continuous
 62
     7
370
    15
100
AcDbLine
 10
1886.606155698845
 20
1042.498978897373
 30
0.0
 11
1886.562264959789
 21
1043.020181892184
 31
0.0
  0
SPLINE
  5
775
330
740
100
AcDbEntity
  8
0
  6
Continuous
 62
     7
370
    15
100
AcDbSpline
210
0.0
220
0.0
230
1.0
 70
     8
 71
     3
 72
     8
 73
     4
 74
     0
 42
0.0000000001
 43
0.0000000001
 40
0.0
 40
0.0
 40
0.0
 40
0.0
 40
1.0
 40
1.0
 40
1.0
 40
1.0
 10
1886.606155698846
 20
1042.498978897373
 30
0.0
 10
1886.606369183013
 20
1042.496444120319
 30
0.0
 10
1886.606538753162
 20
1042.493928835457
 30
0.0
 10
1886.606664247764
 20
1042.491435438788
 30
0.0
  0
SPLINE
  5
776
330
740
100
AcDbEntity
  8
0
  6
Continuous
 62
     7
370
    15
100
AcDbSpline
210
0.0
220
0.0
230
1.0
 70
     8
 71
     3
 72
    10
 73
     6
 74
     0
 42
0.0000000001
 43
0.0000000001
 40
0.0
 40
0.0
 40
0.0
 40
0.0
 40
0.5
 40
0.5
 40
1.0
 40
1.0
 40
1.0
 40
1.0
 10
1886.606664247764
 20
1042.491435438788
 30
0.0
 10
1886.608864377051
 20
1042.447722044342
 30
0.0
 10
1886.596884307941
 20
1042.411287666516
 30
0.0
 10
1886.551014417227
 20
1042.372594962126
 30
0.0
 10
1886.517379655825
 20
1042.370551786913
 30
0.0
 10
1886.482100363449
 20
1042.38636186049
 30
0.0
  0
SPLINE
  5
777
330
740
100
AcDbEntity
  8
0
  6
Continuous
 62
     7
370
    15
100
AcDbSpline
210
0.0
220
0.0
230
1.0
 70
     8
 71
     3
 72
    13
 73
     9
 74
     0
 42
0.0000000001
 43
0.0000000001
 40
0.0
 40
0.0
 40
0.0
 40
0.0
 40
0.1280105369124614
 40
0.2510756095455999
 40
0.3738449905780623
 40
0.5010008949286903
 40
0.7483290733225863
 40
1.0
 40
1.0
 40
1.0
 40
1.0
 10
1886.482100363449
 20
1042.386361860491
 30
0.0
 10
1886.473133231747
 20
1042.389772934713
 30
0.0
 10
1886.455545397867
 20
1042.396463302242
 30
0.0
 10
1886.430902327959
 20
1042.398289839624
 30
0.0
 10
1886.408741189066
 20
1042.393398895585
 30
0.0
 10
1886.383674246381
 20
1042.37804211755
 30
0.0
 10
1886.359657405757
 20
1042.344611504766
 30
0.0
 10
1886.358249834243
 20
1042.302517275648
 30
0.0
 10
1886.357539923497
 20
1042.281286989777
 30
0.0
  0
LINE
  5
778
330
740
100
AcDbEntity
  8
0
  6
Continuous
 62
     7
370
    15
100
AcDbLine
 10
1886.374739791367
 20
1041.939550432335
 30
0.0
 11
1886.357539923497
 21
1042.281286989777
 31
0.0
  0
SPLINE
  5
779
330
740
100
AcDbEntity
  8
0
  6
Continuous
 62
     7
370
    15
100
AcDbSpline
210
0.0
220
0.0
230
1.0
 70
     8
 71
     3
 72
    13
 73
     9
 74
     0
 42
0.0000000001
 43
0.0000000001
 40
0.0
 40
0.0
 40
0.0
 40
0.0
 40
0.1282760925718227
 40
0.2512700459128534
 40
0.3738837089795477
 40
0.5010629107461801
 40
0.7483049587497641
 40
0.9999999999999998
 40
0.9999999999999998
 40
0.9999999999999998
 40
0.9999999999999998
 10
1886.374739791367
 20
1041.939550432335
 30
0.0
 10
1886.375849971465
 20
1041.927795708717
 30
0.0
 10
1886.378024616784
 20
1041.904770296235
 30
0.0
 10
1886.387667865936
 20
1041.868516269575
 30
0.0
 10
1886.402055470086
 20
1041.832548072358
 30
0.0
 10
1886.42686527989
 20
1041.786882049812
 30
0.0
 10
1886.466866349413
 20
1041.733628231291
 30
0.0
 10
1886.503586295617
 20
1041.710810645344
 30
0.0
 10
1886.522110130734
 20
1041.699300029358
 30
0.0
  0
LINE
  5
77A
330
740
100
AcDbEntity
  8
0
  6
Continuous
 62
     7
370
    15
100
AcDbLine
 10
1887.629329740168
 20
1041.149452519208
 30
0.0
 11
1886.522110130734
 21
1041.699300029358
 31
0.0
  0
SPLINE
  5
77B
330
740
100
AcDbEntity
  8
0
  6
Continuous
 62
     7
370
    15
100
AcDbSpline
210
0.0
220
0.0
230
1.0
 70
     8
 71
     3
 72
    13
 73
     9
 74
     0
 42
0.0000000001
 43
0.0000000001
 40
0.0
 40
0.0
 40
0.0
 40
0.0
 40
0.1281482119456458
 40
0.2510936202333466
 40
0.3737471472134239
 40
0.5010534982318395
 40
0.7483541221522919
 40
1.0
 40
1.0
 40
1.0
 40
1.0
 10
1887.629329740168
 20
1041.149452519208
 30
0.0
 10
1887.638592699434
 20
1041.145486698505
 30
0.0
 10
1887.656742542813
 20
1041.137716068994
 30
0.0
 10
1887.682367659308
 20
1041.134643692019
 30
0.0
 10
1887.705509575965
 20
1041.138692020892
 30
0.0
 10
1887.731784220863
 20
1041.153450469038
 30
0.0
 10
1887.757161862143
 20
1041.186937687235
 30
0.0
 10
1887.75868300828
 20
1041.230119418705
 30
0.0
 10
1887.759450205072
 20
1041.251898316212
 30
0.0
  0
LINE
  5
77C
330
740
100
AcDbEntity
  8
0
  6
Continuous
 62
     7
370
    15
100
AcDbLine
 10
1887.74225049113
 20
1041.593631815311
 30
0.0
 11
1887.759450205072
 21
1041.251898316212
 31
0.0
  0
SPLINE
  5
77D
330
740
100
AcDbEntity
  8
0
  6
Continuous
 62
     7
370
    15
100
AcDbSpline
210
0.0
220
0.0
230
1.0
 70
     8
 71
     3
 72
    13
 73
     9
 74
     0
 42
0.0000000001
 43
0.0000000001
 40
0.0
 40
0.0
 40
0.0
 40
0.0
 40
0.1280104574687635
 40
0.2510755990993815
 40
0.3738450469354278
 40
0.5010008644729528
 40
0.7483290588118009
 40
1.0
 40
1.0
 40
1.0
 40
1.0
 10
1887.74225049113
 20
1041.593631815311
 30
0.0
 10
1887.741185256497
 20
1041.605056004508
 30
0.0
 10
1887.739095939508
 20
1041.62746304221
 30
0.0
 10
1887.729881273197
 20
1041.662752416216
 30
0.0
 10
1887.71615218767
 20
1041.69785838363
 30
0.0
 10
1887.692438972171
 20
1041.742636219443
 30
0.0
 10
1887.654127507439
 20
1041.795194876447
 30
0.0
 10
1887.618448998707
 20
1041.818982243025
 30
0.0
 10
1887.600454490835
 20
1041.830979436024
 30
0.0
  0
SPLINE
  5
77E
330
740
100
AcDbEntity
  8
0
  6
Continuous
 62
     7
370
    15
100
AcDbSpline
210
0.0
220
0.0
230
1.0
 70
     8
 71
     3
 72
    10
 73
     6
 74
     0
 42
0.0000000001
 43
0.0000000001
 40
0.0
 40
0.0
 40
0.0
 40
0.0
 40
0.5
 40
0.5
 40
1.0
 40
1.0
 40
1.0
 40
1.0
 10
1887.600454490835
 20
1041.830979436024
 30
0.0
 10
1887.563988713781
 20
1041.850847362493
 30
0.0
 10
1887.52741916189
 20
1041.888830144887
 30
0.0
 10
1887.474805044129
 20
1041.979491676888
 30
0.0
 10
1887.459087318198
 20
1042.031607235269
 30
0.0
 10
1887.458414384703
 20
1042.075734535522
 30
0.0
  0
LINE
  5
77F
330
740
100
AcDbEntity
  8
0
  6
Continuous
 62
     7
370
    15
100
AcDbLine
 10
1887.450740370289
 20
1042.578954453872
 30
0.0
 11
1887.458414384703
 21
1042.075734535522
 31
0.0
  0
LWPOLYLINE
  5
780
330
740
100
AcDbEntity
  8
0
  6
Continuous
 62
     7
370
    15
100
AcDbPolyline
 90
        9
 70
   128
 43
0.0
 10
1887.450740370289
 20
1042.578954453872
 10
1887.452778546084
 20
1042.60947845164
 10
1887.459792274536
 20
1042.636121091796
 10
1887.471526741218
 20
1042.657914425676
 10
1887.487555623465
 20
1042.674066683834
 10
1887.507296579022
 20
1042.683991041669
 10
1887.530032403008
 20
1042.687326939234
 10
1887.55493708455
 20
1042.683953180674
 10
1887.581105816426
 20
1042.673992337364
  0
LINE
  5
781
330
740
100
AcDbEntity
  8
0
  6
Continuous
 62
     7
370
    15
100
AcDbLine
 10
1887.842373247833
 20
1042.544244414606
 30
0.0
 11
1887.581105816426
 21
1042.673992337364
 31
0.0
  0
LWPOLYLINE
  5
782
330
740
100
AcDbEntity
  8
0
  6
Continuous
 62
     7
370
    15
100
AcDbPolyline
 90
        9
 70
   128
 43
0.0
 10
1887.842373247833
 20
1042.544244414606
 10
1887.869275424084
 20
1042.53409463947
 10
1887.894812346928
 20
1042.530919709184
 10
1887.918002646743
 20
1042.534841634538
 10
1887.937955133311
 20
1042.545709698139
 10
1887.953903043763
 20
1042.5631062464
 10
1887.965233508845
 20
1042.586362739726
 10
1887.971511105137
 20
1042.614585444121
 10
1887.972494588134
 20
1042.646689776882
  0
LINE
  5
783
330
740
100
AcDbEntity
  8
0
  6
Continuous
 62
     7
370
    15
100
AcDbLine
 10
1887.950988538726
 20
1043.073983948221
 30
0.0
 11
1887.972494588134
 21
1042.646689776882
 31
0.0
  0
LINE
  5
784
330
740
100
AcDbEntity
  8
0
  6
Continuous
 62
     7
370
    15
100
AcDbLine
 10
1888.662739328316
 20
1042.720521651089
 30
0.0
 11
1887.950988538726
 21
1043.073983948221
 31
0.0
  0
LINE
  5
785
330
740
100
AcDbEntity
  8
0
  6
Continuous
 62
     7
370
    15
100
AcDbLine
 10
1890.89641318223
 20
1040.779533076745
 30
0.0
 11
1888.662739328316
 21
1042.720521651089
 31
0.0
  0
ARC
  5
786
330
740
100
AcDbEntity
  8
0
  6
Continuous
 62
     7
370
    15
100
AcDbCircle
 10
1889.822022303412
 20
1039.58435167361
 30
0.0
 40
1.60710122484121
100
AcDbArc
 50
22.37250548707685
 51
48.04650523496264
  0
LINE
  5
787
330
740
100
AcDbEntity
  8
0
  6
Continuous
 62
     7
370
    15
100
AcDbLine
 10
1894.040573134603
 20
1033.694319277489
 30
0.0
 11
1891.308155076576
 21
1040.196057262449
 31
0.0
  0
ARC
  5
788
330
740
100
AcDbEntity
  8
0
  6
Continuous
 62
     7
370
    15
100
AcDbCircle
 10
1892.073247487557
 20
1032.842991876534
 30
0.0
 40
2.143625094353803
100
AcDbArc
 50
3.732326383757845
 51
23.39974418954842
  0
LINE
  5
789
330
740
100
AcDbEntity
  8
0
  6
Continuous
 62
     7
370
    15
100
AcDbLine
 10
1894.64773094185
 20
1024.331665089316
 30
0.0
 11
1894.21232606069
 21
1032.982531846096
 31
0.0
  0
LINE
  5
78A
330
740
100
AcDbEntity
  8
0
  6
Continuous
 62
     7
370
    15
100
AcDbLine
 10
1892.370607486588
 20
1022.538871249476
 30
0.0
 11
1894.64773094185
 21
1024.331665089316
 31
0.0
  0
LINE
  5
78B
330
740
100
AcDbEntity
  8
0
  6
Continuous
 62
     7
370
    15
100
AcDbLine
 10
1892.370607486588
 20
1022.538871249476
 30
0.0
 11
1892.480310426432
 21
1020.359232121673
 31
0.0
  0
LINE
  5
78C
330
740
100
AcDbEntity
  8
0
  6
Continuous
 62
     7
370
    15
100
AcDbLine
 10
1892.480310426432
 20
1020.359232121673
 30
0.0
 11
1889.185107125726
 21
1021.995661817602
 31
0.0
  0
LINE
  5
78D
330
740
100
AcDbEntity
  8
0
  6
Continuous
 62
     7
370
    15
100
AcDbLine
 10
1889.185107125726
 20
1021.995661817602
 30
0.0
 11
1889.292907898655
 21
1019.853816001814
 31
0.0
  0
LINE
  5
78E
330
740
100
AcDbEntity
  8
0
  6
Continuous
 62
     7
370
    15
100
AcDbLine
 10
1889.292907898655
 20
1019.853816001814
 30
0.0
 11
1884.783682329268
 21
1022.093140848875
 31
0.0
  0
LINE
  5
78F
330
740
100
AcDbEntity
  8
0
  6
Continuous
 62
     7
370
    15
100
AcDbLine
 10
1884.783682329268
 20
1022.093140848875
 30
0.0
 11
1884.675881556339
 21
1024.234986664663
 31
0.0
  0
LINE
  5
790
330
740
100
AcDbEntity
  8
0
  6
Continuous
 62
     7
370
    15
100
AcDbLine
 10
1884.675881556339
 20
1024.234986664663
 30
0.0
 11
1881.380678255633
 21
1025.871416360593
 31
0.0
  0
LINE
  5
791
330
740
100
AcDbEntity
  8
0
  6
Continuous
 62
     7
370
    15
100
AcDbLine
 10
1881.380678255633
 20
1025.871416360593
 30
0.0
 11
1881.284794200144
 21
1027.776494195097
 31
0.0
  0
LINE
  5
792
330
740
100
AcDbEntity
  8
0
  6
Continuous
 62
     7
370
    15
100
AcDbLine
 10
1878.692009696328
 20
1032.255429932763
 30
0.0
 11
1880.591788636637
 21
1029.158303718165
 31
0.0
  0
LWPOLYLINE
  5
793
330
740
100
AcDbEntity
  8
0
  6
Continuous
 62
     7
370
    15
100
AcDbPolyline
 90
       40
 70
   128
 43
0.0
 10
1880.142300238586
 20
1034.887142595644
 10
1880.126717683304
 20
1035.026196585046
 10
1880.093930886143
 20
1035.170393363092
 10
1880.044789007929
 20
1035.315998308974
 10
1879.980564797494
 20
1035.459240331076
 10
1879.902921628152
 20
1035.596409536267
 10
1879.813870417206
 20
1035.723953314184
 10
1879.715717544242
 20
1035.838568347976
 10
1879.611005117114
 20
1035.93728616847
 10
1879.502445132681
 20
1036.017550035971
 10
1879.392849237514
 20
1036.077281158471
 10
1879.285055907732
 20
1036.114932531273
 10
1879.181856933955
 20
1036.129529003598
 10
1879.085925115395
 20
1036.12069253448
 10
1878.999745035763
 20
1036.088651983828
 10
1878.925548713852
 20
1036.034237185073
 10
1878.865257795427
 20
1035.958857452921
 10
1878.820433783605
 20
1035.864465082839
 10
1878.792237596749
 20
1035.753504787631
 10
1878.781399501285
 20
1035.628850380656
 10
1878.788200198194
 20
1035.49373034558
 10
1878.812463552998
 20
1035.351644220333
 10
1878.853561157553
 20
1035.206271960926
 10
1878.910428605489
 20
1035.061378632516
 10
1878.981593059775
 20
1034.920716896202
 10
1879.065211398425
 20
1034.787929817066
 10
1879.159117950392
 20
1034.666456510709
 10
1879.260880585307
 20
1034.559443071959
 10
1879.367863704378
 20
1034.469661092667
 10
1879.477296501017
 20
1034.399435878937
 10
1879.586344723275
 20
1034.350586226917
 10
1879.692184079473
 20
1034.324377316935
 10
1879.792073385883
 20
1034.321487945992
 10
1879.883425561937
 20
1034.341992947278
 10
1879.963874634261
 20
1034.38536125203
 10
1880.03133701414
 20
1034.450469643936
 10
1880.08406546137
 20
1034.535631849845
 10
1880.120694336866
 20
1034.638642213359
 10
1880.140274971993
 20
1034.756832820169
 10
1880.142300238586
 20
1034.887142595644
  0
LWPOLYLINE
  5
794
330
740
100
AcDbEntity
  8
0
  6
Continuous
 62
     7
370
    15
100
AcDbPolyline
 90
       40
 70
   128
 43
0.0
 10
1894.211084015072
 20
1027.900449072812
 10
1894.19550145979
 20
1028.039503062215
 10
1894.162714662629
 20
1028.183699840261
 10
1894.113572784415
 20
1028.329304786143
 10
1894.04934857398
 20
1028.472546808244
 10
1893.971705404638
 20
1028.609716013435
 10
1893.882654193692
 20
1028.737259791353
 10
1893.784501320729
 20
1028.851874825144
 10
1893.6797888936
 20
1028.950592645639
 10
1893.571228909166
 20
1029.03085651314
 10
1893.461633014
 20
1029.09058763564
 10
1893.353839684219
 20
1029.128239008441
 10
1893.250640710441
 20
1029.142835480766
 10
1893.154708891881
 20
1029.133999011648
 10
1893.068528812249
 20
1029.101958460996
 10
1892.994332490338
 20
1029.047543662242
 10
1892.934041571913
 20
1028.97216393009
 10
1892.889217560091
 20
1028.877771560008
 10
1892.861021373234
 20
1028.766811264799
 10
1892.85018327777
 20
1028.642156857825
 10
1892.85698397468
 20
1028.507036822748
 10
1892.881247329484
 20
1028.364950697501
 10
1892.922344934039
 20
1028.219578438094
 10
1892.979212381975
 20
1028.074685109685
 10
1893.050376836261
 20
1027.93402337337
 10
1893.133995174911
 20
1027.801236294235
 10
1893.227901726878
 20
1027.679762987878
 10
1893.329664361793
 20
1027.572749549128
 10
1893.436647480864
 20
1027.482967569836
 10
1893.546080277503
 20
1027.412742356106
 10
1893.65512849976
 20
1027.363892704086
 10
1893.760967855959
 20
1027.337683794103
 10
1893.860857162369
 20
1027.334794423161
 10
1893.952209338423
 20
1027.355299424446
 10
1894.032658410748
 20
1027.398667729199
 10
1894.100120790626
 20
1027.463776121105
 10
1894.152849237856
 20
1027.548938327014
 10
1894.189478113353
 20
1027.651948690527
 10
1894.209058748479
 20
1027.770139297338
 10
1894.211084015072
 20
1027.900449072812
  0
LWPOLYLINE
  5
795
330
740
100
AcDbEntity
  8
0
  6
Continuous
 62
     7
370
    15
100
AcDbPolyline
 90
       35
 70
   128
 43
0.0
 10
1892.850212561863
 20
1031.681079400295
 10
1892.865014079369
 20
1031.558610987111
 10
1892.897029579936
 20
1031.431514144021
 10
1892.945168814089
 20
1031.304117001578
 10
1893.007792457946
 20
1031.180757916673
 10
1893.082767938424
 20
1031.06563773499
 10
1893.167542055459
 20
1030.962676736244
 10
1893.259227928169
 20
1030.875381133759
 10
1893.354703304127
 20
1030.806723674579
 10
1893.450716883912
 20
1030.759042406131
 10
1893.543999040222
 20
1030.733961056823
 10
1893.631373161102
 20
1030.732333741926
 10
1893.709863825661
 20
1030.754215877695
 10
1893.776798128454
 20
1030.798862294243
 10
1893.82989670208
 20
1030.8647526114
 10
1893.867351338299
 20
1030.949643013444
 10
1893.887886564396
 20
1031.050642659546
 10
1893.890803077875
 20
1031.164312127896
 10
1893.876001560368
 20
1031.28678054108
 10
1893.843986059802
 20
1031.413877384171
 10
1893.795846825649
 20
1031.541274526613
 10
1893.733223181792
 20
1031.664633611518
 10
1893.658247701314
 20
1031.779753793201
 10
1893.573473584279
 20
1031.882714791947
 10
1893.481787711568
 20
1031.970010394432
 10
1893.386312335611
 20
1032.038667853612
 10
1893.290298755825
 20
1032.08634912206
 10
1893.197016599516
 20
1032.111430471368
 10
1893.109642478635
 20
1032.113057786266
 10
1893.031151814077
 20
1032.091175650496
 10
1892.964217511283
 20
1032.046529233949
 10
1892.911118937657
 20
1031.980638916791
 10
1892.873664301438
 20
1031.895748514747
 10
1892.853129075342
 20
1031.794748868645
 10
1892.850212561863
 20
1031.681079400295
  0
ELLIPSE
  5
796
330
740
100
AcDbEntity
  8
0
  6
Continuous
 62
     7
370
    15
100
AcDbEllipse
 10
1894.418811965513
 20
1038.344812392224
 30
0.0
 11
-1.140658268852831
 21
3.171987569396691
 31
0.0
210
0.0
220
0.0
230
1.0
 40
0.6003761256849454
 41
0.4765581359716422
 42
5.981710885745549
  0
LINE
  5
797
330
740
100
AcDbEntity
  8
0
  6
Continuous
 62
     7
370
    15
100
AcDbLine
 10
1893.89506396648
 20
1041.5770861933
 30
0.0
 11
1895.118569328772
 21
1042.230258134906
 31
0.0
  0
LINE
  5
798
330
740
100
AcDbEntity
  8
0
  6
Continuous
 62
     7
370
    15
100
AcDbLine
 10
1895.118569328771
 20
1042.230258134906
 30
0.0
 11
1897.850987386799
 21
1035.728520149946
 31
0.0
  0
LINE
  5
799
330
740
100
AcDbEntity
  8
0
  6
Continuous
 62
     7
370
    15
100
AcDbLine
 10
1897.850987386799
 20
1035.728520149946
 30
0.0
 11
1894.040573134603
 21
1033.694319277489
 31
0.0
  0
LINE
  5
79A
330
740
100
AcDbEntity
  8
0
  6
Continuous
 62
     7
370
    15
100
AcDbLine
 10
1891.308155076576
 20
1040.196057262449
 30
0.0
 11
1892.531660438868
 21
1040.849229204055
 31
0.0
  0
SPLINE
  5
79B
330
740
100
AcDbEntity
  8
0
  6
Continuous
 62
     7
370
    15
100
AcDbSpline
210
0.0
220
0.0
230
1.0
 70
     8
 71
     3
 72
    13
 73
     9
 74
     0
 42
0.0000000001
 43
0.0000000001
 40
0.0
 40
0.0
 40
0.0
 40
0.0
 40
0.1212288931312526
 40
0.2446367187362809
 40
0.3708383559587339
 40
0.5004090332587563
 40
0.7484206921211328
 40
1.0
 40
1.0
 40
1.0
 40
1.0
 10
1892.531660438868
 20
1040.849229204055
 30
0.0
 10
1892.549665311412
 20
1040.879725109291
 30
0.0
 10
1892.585998670786
 20
1040.941265044196
 30
0.0
 10
1892.646753608315
 20
1041.026630099437
 30
0.0
 10
1892.713272369149
 20
1041.107906954515
 30
0.0
 10
1892.808051334043
 20
1041.207025282605
 30
0.0
 10
1892.936446482636
 20
1041.317483631945
 30
0.0
 10
1893.051863603207
 20
1041.385041579621
 30
0.0
 10
1893.109984268399
 20
1041.419061773839
 30
0.0
  0
SPLINE
  5
79C
330
740
100
AcDbEntity
  8
0
  6
Continuous
 62
     7
370
    15
100
AcDbSpline
210
0.0
220
0.0
230
1.0
 70
     8
 71
     3
 72
    14
 73
    10
 74
     0
 42
0.0000000001
 43
0.0000000001
 40
0.0
 40
0.0
 40
0.0
 40
0.0
 40
0.1266729933632654
 40
0.2517769781118529
 40
0.3757211834248226
 40
0.4989263570814324
 40
0.6711295750404327
 40
0.8376817386240631
 40
1.0
 40
1.0
 40
1.0
 40
1.0
 10
1893.109984268399
 20
1041.419061773839
 30
0.0
 10
1893.140278363021
 20
1041.434433431519
 30
0.0
 10
1893.200491320779
 20
1041.464986349046
 30
0.0
 10
1893.294487579764
 20
1041.502849937671
 30
0.0
 10
1893.39022469638
 20
1041.534309500773
 30
0.0
 10
1893.500844425197
 20
1041.562038596155
 30
0.0
 10
1893.625325159346
 20
1041.581897214178
 30
0.0
 10
1893.762360554703
 20
1041.589786070995
 30
0.0
 10
1893.851210784032
 20
1041.581282996126
 30
0.0
 10
1893.89506396648
 20
1041.5770861933
 30
0.0
  0
SPLINE
  5
79D
330
740
100
AcDbEntity
  8
0
  6
Continuous
 62
     7
370
    15
100
AcDbSpline
210
0.0
220
0.0
230
1.0
 70
     8
 71
     3
 72
    33
 73
    29
 74
     0
 42
0.0000000001
 43
0.0000000001
 40
0.0
 40
0.0
 40
0.0
 40
0.0
 40
0.033964381767645
 40
0.0647381348264785
 40
0.0960981176399135
 40
0.1281842527080252
 40
0.1814418698160001
 40
0.2355317454157162
 40
0.2917604423687329
 40
0.3483559330395863
 40
0.4048722522859147
 40
0.461180126082668
 40
0.4973004522173386
 40
0.5330350013252494
 40
0.5685541622090512
 40
0.6163331382246076
 40
0.6626733821151929
 40
0.6854648423251786
 40
0.7080845435536377
 40
0.7305988360127135
 40
0.75307500344195
 40
0.7820784135995237
 40
0.8104652885109219
 40
0.8384098619994627
 40
0.8660947199805271
 40
0.8937076008364012
 40
0.9470472846260966
 40
1.0
 40
1.0
 40
1.0
 40
1.0
 10
1896.465084772557
 20
1036.213435046598
 30
0.0
 10
1896.472882256542
 20
1036.284281425796
 30
0.0
 10
1896.487744725496
 20
1036.419318844697
 30
0.0
 10
1896.488205855217
 20
1036.625297829498
 30
0.0
 10
1896.478363618215
 20
1036.828524958907
 30
0.0
 10
1896.451140649245
 20
1037.081520690755
 30
0.0
 10
1896.396748139071
 20
1037.383973840524
 30
0.0
 10
1896.301396212016
 20
1037.734994675889
 30
0.0
 10
1896.174099500773
 20
1038.085825482527
 30
0.0
 10
1896.01512651012
 20
1038.430333671736
 30
0.0
 10
1895.828722865726
 20
1038.760379759975
 30
0.0
 10
1895.641759182485
 20
1039.034324063942
 30
0.0
 10
1895.46615117271
 20
1039.256456404519
 30
0.0
 10
1895.309610480837
 20
1039.432560575363
 30
0.0
 10
1895.126303813099
 20
1039.615465697595
 30
0.0
 10
1894.915358564644
 20
1039.798082498732
 30
0.0
 10
1894.714355490925
 20
1039.942625718526
 30
0.0
 10
1894.551305248888
 20
1040.042455881762
 30
0.0
 10
1894.428255457262
 20
1040.109408634268
 30
0.0
 10
1894.3037877788
 20
1040.168823514845
 30
0.0
 10
1894.16579902774
 20
1040.225728240042
 30
0.0
 10
1894.015118465018
 20
1040.276754865463
 30
0.0
 10
1893.85282080716
 20
1040.317483338619
 30
0.0
 10
1893.692727358319
 20
1040.343243134425
 30
0.0
 10
1893.5347790507
 20
1040.354107064104
 30
0.0
 10
1893.331327251632
 20
1040.348352697372
 30
0.0
 10
1893.085363077347
 20
1040.308634781126
 30
0.0
 10
1892.908836485765
 20
1040.22778826195
 30
0.0
 10
1892.820894521584
 20
1040.187512167398
 30
0.0
  0
SPLINE
  5
79E
330
740
100
AcDbEntity
  8
0
  6
Continuous
 62
     7
370
    15
100
AcDbSpline
210
0.0
220
0.0
230
1.0
 70
     8
 71
     3
 72
    14
 73
    10
 74
     0
 42
0.0000000001
 43
0.0000000001
 40
0.0
 40
0.0
 40
0.0
 40
0.0
 40
0.132632087225059
 40
0.2647891594173399
 40
0.397102469233812
 40
0.5302010463641845
 40
0.6647029034853654
 40
0.8368809335810979
 40
1.0
 40
1.0
 40
1.0
 40
1.0
 10
1892.820894521584
 20
1040.187512167398
 30
0.0
 10
1892.787184816284
 20
1040.168428880551
 30
0.0
 10
1892.719886135269
 20
1040.13033065267
 30
0.0
 10
1892.625093819833
 20
1040.062421300971
 30
0.0
 10
1892.535319164026
 20
1039.986864462888
 30
0.0
 10
1892.450907622344
 20
1039.902930101541
 30
0.0
 10
1892.365016451044
 20
1039.802515326515
 30
0.0
 10
1892.280798173993
 20
1039.687015577267
 30
0.0
 10
1892.229811581806
 20
1039.596488828962
 30
0.0
 10
1892.205007056495
 20
1039.55244836806
 30
0.0
  0
LINE
  5
79F
330
740
100
AcDbEntity
  8
0
  6
Continuous
 62
     7
370
    15
100
AcDbLine
 10
1892.473153580512
 20
1044.754722523545
 30
0.0
 11
1891.933944016522
 21
1044.466863909518
 31
0.0
  0
LINE
  5
7A0
330
740
100
AcDbEntity
  8
0
  6
Continuous
 62
     7
370
    15
100
AcDbLine
 10
1892.473153580512
 20
1044.754722523545
 30
0.0
 11
1894.706827434426
 21
1042.813733949202
 31
0.0
  0
LINE
  5
7A1
330
740
100
AcDbEntity
  8
0
  6
Continuous
 62
     7
370
    15
100
AcDbLine
 10
1894.706827434426
 20
1042.813733949202
 30
0.0
 11
1890.89641318223
 21
1040.779533076745
 31
0.0
  0
LINE
  5
7A2
330
740
100
AcDbEntity
  8
0
  6
Continuous
 62
     7
370
    15
100
AcDbLine
 10
1889.201948892306
 20
1043.008380265115
 30
0.0
 11
1888.662739328316
 21
1042.720521651088
 31
0.0
  0
LINE
  5
7A3
330
740
100
AcDbEntity
  8
0
  6
Continuous
 62
     7
370
    15
100
AcDbLine
 10
1889.201948892306
 20
1043.008380265115
 30
0.0
 11
1891.360619581517
 21
1041.132566955941
 31
0.0
  0
LINE
  5
7A4
330
740
100
AcDbEntity
  8
0
  6
Continuous
 62
     7
370
    15
100
AcDbLine
 10
1891.360619581517
 20
1041.132566955941
 30
0.0
 11
1894.092614705733
 21
1042.591050600343
 31
0.0
  0
LINE
  5
7A5
330
740
100
AcDbEntity
  8
0
  6
Continuous
 62
     7
370
    15
100
AcDbLine
 10
1894.092614705733
 20
1042.591050600344
 30
0.0
 11
1891.933944016522
 21
1044.466863909518
 31
0.0
  0
SPLINE
  5
7A6
330
740
100
AcDbEntity
  8
0
  6
Continuous
 62
     7
370
    15
100
AcDbSpline
210
0.0
220
0.0
230
1.0
 70
     8
 71
     3
 72
     8
 73
     4
 74
     0
 42
0.0000000001
 43
0.0000000001
 40
0.0
 40
0.0
 40
0.0
 40
0.0
 40
1.0
 40
1.0
 40
1.0
 40
1.0
 10
1895.118569328772
 20
1042.230258134906
 30
0.0
 10
1895.023572287978
 20
1042.456301827882
 30
0.0
 10
1894.87362211539
 20
1042.668794897583
 30
0.0
 10
1894.706827434426
 20
1042.813733949202
 30
0.0
  0
LINE
  5
7A7
330
740
100
AcDbEntity
  8
0
  6
Continuous
 62
     7
370
    15
100
AcDbLine
 10
1894.21232606069
 20
1032.982531846096
 30
0.0
 11
1898.022740312887
 21
1035.016732718553
 31
0.0
  0
SPLINE
  5
7A8
330
740
100
AcDbEntity
  8
0
  6
Continuous
 62
     7
370
    15
100
AcDbSpline
210
0.0
220
0.0
230
1.0
 70
     8
 71
     3
 72
     8
 73
     4
 74
     0
 42
0.0000000001
 43
0.0000000001
 40
0.0
 40
0.0
 40
0.0
 40
0.0
 40
1.0
 40
1.0
 40
1.0
 40
1.0
 10
1898.022740312887
 20
1035.016732718553
 30
0.0
 10
1898.011451442344
 20
1035.241026287886
 30
0.0
 10
1897.951572488817
 20
1035.489179769148
 30
0.0
 10
1897.8509873868
 20
1035.728520149946
 30
0.0
  0
LINE
  5
7A9
330
740
100
AcDbEntity
  8
0
  6
Continuous
 62
     7
370
    15
100
AcDbLine
 10
1892.074504773114
 20
1042.425926349507
 30
0.0
 11
1893.121623658076
 21
1042.984933850628
 31
0.0
  0
LINE
  5
7AA
330
740
100
AcDbEntity
  8
0
  6
Continuous
 62
     7
370
    15
100
AcDbLine
 10
1893.121623658076
 20
1042.984933850628
 30
0.0
 11
1893.771936404224
 21
1042.419855544496
 31
0.0
  0
LINE
  5
7AB
330
740
100
AcDbEntity
  8
0
  6
Continuous
 62
     7
370
    15
100
AcDbLine
 10
1890.710322464253
 20
1041.697653605599
 30
0.0
 11
1891.652431244418
 21
1042.200601152956
 31
0.0
  0
SPLINE
  5
7AC
330
740
100
AcDbEntity
  8
0
  6
Continuous
 62
     7
370
    15
100
AcDbSpline
210
0.0
220
0.0
230
1.0
 70
     8
 71
     3
 72
     8
 73
     4
 74
     0
 42
0.0000000001
 43
0.0000000001
 40
0.0
 40
0.0
 40
0.0
 40
0.0
 40
1.0
 40
1.0
 40
1.0
 40
1.0
 10
1891.652431244418
 20
1042.200601152956
 30
0.0
 10
1891.754708317169
 20
1042.197106535524
 30
0.0
 10
1891.852528814936
 20
1042.217304443242
 30
0.0
 10
1891.927711151121
 20
1042.25744075487
 30
0.0
  0
SPLINE
  5
7AD
330
740
100
AcDbEntity
  8
0
  6
Continuous
 62
     7
370
    15
100
AcDbSpline
210
0.0
220
0.0
230
1.0
 70
     8
 71
     3
 72
     8
 73
     4
 74
     0
 42
0.0000000001
 43
0.0000000001
 40
0.0
 40
0.0
 40
0.0
 40
0.0
 40
1.0
 40
1.0
 40
1.0
 40
1.0
 10
1891.927711151121
 20
1042.25744075487
 30
0.0
 10
1892.002893487304
 20
1042.297577066498
 30
0.0
 10
1892.055056485122
 20
1042.357448289689
 30
0.0
 10
1892.074504773114
 20
1042.425926349507
 30
0.0
  0
LINE
  5
7AE
330
740
100
AcDbEntity
  8
0
  6
Continuous
 62
     7
370
    15
100
AcDbLine
 10
1898.458145194046
 20
1026.365865961773
 30
0.0
 11
1894.64773094185
 21
1024.331665089316
 31
0.0
  0
LINE
  5
7AF
330
740
100
AcDbEntity
  8
0
  6
Continuous
 62
     7
370
    15
100
AcDbLine
 10
1898.022740312887
 20
1035.016732718553
 30
0.0
 11
1898.458145194046
 21
1026.365865961773
 31
0.0
  0
LINE
  5
7B0
330
740
100
AcDbEntity
  8
0
  6
Continuous
 62
     7
370
    15
100
AcDbLine
 10
1890.752280159613
 20
1043.160633777223
 30
0.0
 11
1890.548970949546
 21
1043.052096556563
 31
0.0
  0
LINE
  5
7B1
330
740
100
AcDbEntity
  8
0
  6
Continuous
 62
     7
370
    15
100
AcDbLine
 10
1890.752280159613
 20
1043.160633777223
 30
0.0
 11
1891.503267200445
 21
1042.508074813508
 31
0.0
  0
LINE
  5
7B2
330
740
100
AcDbEntity
  8
0
  6
Continuous
 62
     7
370
    15
100
AcDbLine
 10
1891.503267200445
 20
1042.508074813508
 30
0.0
 11
1892.473844415626
 21
1043.026220318756
 31
0.0
  0
LINE
  5
7B3
330
740
100
AcDbEntity
  8
0
  6
Continuous
 62
     7
370
    15
100
AcDbLine
 10
1892.473844415626
 20
1043.026220318756
 30
0.0
 11
1892.749798676244
 21
1042.786433988833
 31
0.0
  0
LINE
  5
7B4
330
740
100
AcDbEntity
  8
0
  6
Continuous
 62
     7
370
    15
100
AcDbLine
 10
1890.43437446232
 20
1041.937443276739
 30
0.0
 11
1890.928110332188
 21
1042.201025625212
 31
0.0
  0
LINE
  5
7B5
330
740
100
AcDbEntity
  8
0
  6
Continuous
 62
     7
370
    15
100
AcDbLine
 10
1889.201948892306
 20
1043.008380265115
 30
0.0
 11
1891.933944016522
 21
1044.466863909518
 31
0.0
  0
LINE
  5
7B6
330
740
100
AcDbEntity
  8
0
  6
Continuous
 62
     7
370
    15
100
AcDbLine
 10
1891.761402790922
 20
1045.108184820678
 30
0.0
 11
1887.950988538726
 21
1043.073983948221
 31
0.0
  0
LINE
  5
7B7
330
740
100
AcDbEntity
  8
0
  6
Continuous
 62
     7
370
    15
100
AcDbLine
 10
1891.761402790922
 20
1045.108184820678
 30
0.0
 11
1892.473153580512
 21
1044.754722523545
 31
0.0
  0
LINE
  5
7B8
330
740
100
AcDbEntity
  8
0
  6
Continuous
 62
     7
370
    15
100
AcDbLine
 10
1891.029802270126
 20
1042.634253557673
 30
0.0
 11
1890.164247545083
 21
1042.172174618139
 31
0.0
  0
LINE
  5
7B9
330
740
100
AcDbEntity
  8
0
  6
Continuous
 62
     7
370
    15
100
AcDbLine
 10
1890.278838816353
 20
1043.286841706886
 30
0.0
 11
1889.413265708092
 21
1042.824752953416
 31
0.0
  0
LINE
  5
7BA
330
740
100
AcDbEntity
  8
0
  6
Continuous
 62
     7
370
    15
100
AcDbLine
 10
1890.278838816353
 20
1043.286841706886
 30
0.0
 11
1891.029802270126
 21
1042.634253557673
 31
0.0
  0
LINE
  5
7BB
330
740
100
AcDbEntity
  8
0
  6
Continuous
 62
     7
370
    15
100
AcDbLine
 10
1890.928110332188
 20
1042.201025625212
 30
0.0
 11
1891.029802270126
 21
1042.634253557673
 31
0.0
  0
LINE
  5
7BC
330
740
100
AcDbEntity
  8
0
  6
Continuous
 62
     7
370
    15
100
AcDbLine
 10
1891.933944016522
 20
1044.466863909518
 30
0.0
 11
1891.846233879704
 21
1044.093212982698
 31
0.0
  0
LINE
  5
7BD
330
740
100
AcDbEntity
  8
0
  6
Continuous
 62
     7
370
    15
100
AcDbLine
 10
1890.785179329593
 20
1044.587025050292
 30
0.0
 11
1889.816018796544
 21
1045.068319505195
 31
0.0
  0
LINE
  5
7BE
330
740
100
AcDbEntity
  8
0
  6
Continuous
 62
     7
370
    15
100
AcDbLine
 10
1889.816018796544
 20
1045.068319505195
 30
0.0
 11
1886.41540381298
 21
1043.252891179398
 31
0.0
  0
LINE
  5
7BF
330
740
100
AcDbEntity
  8
0
  6
Continuous
 62
     7
370
    15
100
AcDbLine
 10
1885.393219521373
 20
1043.760517743483
 30
0.0
 11
1888.793834504937
 21
1045.57594606928
 31
0.0
  0
LINE
  5
7C0
330
740
100
AcDbEntity
  8
0
  6
Continuous
 62
     7
370
    15
100
AcDbLine
 10
1888.793834504937
 20
1045.57594606928
 30
0.0
 11
1887.628127804403
 21
1046.154847243933
 31
0.0
  0
LINE
  5
7C1
330
740
100
AcDbEntity
  8
0
  6
Continuous
 62
     7
370
    15
100
AcDbLine
 10
1887.628127804403
 20
1046.154847243933
 30
0.0
 11
1884.22751282084
 21
1044.339418918136
 31
0.0
  0
LINE
  5
7C2
330
740
100
AcDbEntity
  8
0
  6
Continuous
 62
     7
370
    15
100
AcDbLine
 10
1883.965985319012
 20
1044.46929599437
 30
0.0
 11
1887.776399571208
 21
1046.503496866827
 31
0.0
  0
LINE
  5
7C3
330
740
100
AcDbEntity
  8
0
  6
Continuous
 62
     7
370
    15
100
AcDbLine
 10
1887.776399571208
 20
1046.503496866826
 30
0.0
 11
1891.194978598225
 21
1044.805797596953
 31
0.0
  0
LINE
  5
7C4
330
740
100
AcDbEntity
  8
0
  6
Continuous
 62
     7
370
    15
100
AcDbLine
 10
1892.575536353564
 20
1043.459448251217
 30
0.0
 11
1891.604959138382
 21
1042.941302745968
 31
0.0
  0
LINE
  5
7C5
330
740
100
AcDbEntity
  8
0
  6
Continuous
 62
     7
370
    15
100
AcDbLine
 10
1891.604959138382
 20
1042.941302745968
 30
0.0
 11
1890.853995684609
 21
1043.593890895182
 31
0.0
  0
LINE
  5
7C6
330
740
100
AcDbEntity
  8
0
  6
Continuous
 62
     7
370
    15
100
AcDbLine
 10
1891.824572899791
 20
1044.11203640043
 30
0.0
 11
1892.575536353564
 21
1043.459448251217
 31
0.0
  0
LINE
  5
7C7
330
740
100
AcDbEntity
  8
0
  6
Continuous
 62
     7
370
    15
100
AcDbLine
 10
1891.824572899791
 20
1044.11203640043
 30
0.0
 11
1890.853995684609
 21
1043.593890895182
 31
0.0
  0
LINE
  5
7C8
330
740
100
AcDbEntity
  8
0
  6
Continuous
 62
     7
370
    15
100
AcDbLine
 10
1891.604959138382
 20
1042.941302745968
 30
0.0
 11
1891.503267200445
 21
1042.508074813508
 31
0.0
  0
LINE
  5
7C9
330
740
100
AcDbEntity
  8
0
  6
Continuous
 62
     7
370
    15
100
AcDbLine
 10
1890.853995684609
 20
1043.593890895182
 30
0.0
 11
1890.752280159613
 21
1043.160633777223
 31
0.0
  0
LINE
  5
7CA
330
740
100
AcDbEntity
  8
0
  6
Continuous
 62
     7
370
    15
100
AcDbLine
 10
1892.575536353564
 20
1043.459448251217
 30
0.0
 11
1892.473844415626
 21
1043.026220318756
 31
0.0
  0
LINE
  5
7CB
330
740
100
AcDbEntity
  8
0
  6
Continuous
 62
     7
370
    15
100
AcDbLine
 10
1886.562264959788
 20
1043.020181892184
 30
0.0
 11
1889.962879943352
 21
1044.83561021798
 31
0.0
  0
SPLINE
  5
7CC
330
740
100
AcDbEntity
  8
0
  6
Continuous
 62
     7
370
    15
100
AcDbSpline
210
0.0
220
0.0
230
1.0
 70
     8
 71
     3
 72
    10
 73
     6
 74
     0
 42
0.0000000001
 43
0.0000000001
 40
0.0
 40
0.0
 40
0.0
 40
0.0
 40
0.5
 40
0.5
 40
1.0
 40
1.0
 40
1.0
 40
1.0
 10
1889.962879943352
 20
1044.83561021798
 30
0.0
 10
1889.959146386651
 20
1044.879946243663
 30
0.0
 10
1889.94138487224
 20
1044.930273917156
 30
0.0
 10
1889.887329313085
 20
1045.015927821638
 30
0.0
 10
1889.851333137288
 20
1045.05078206346
 30
0.0
 10
1889.816018796544
 20
1045.068319505194
 30
0.0
  0
LINE
  5
7CD
330
740
100
AcDbEntity
  8
0
  6
Continuous
 62
     7
370
    15
100
AcDbLine
 10
1890.00677068241
 20
1044.31440722317
 30
0.0
 11
1889.962879943352
 21
1044.83561021798
 31
0.0
  0
LINE
  5
7CE
330
740
100
AcDbEntity
  8
0
  6
Continuous
 62
     7
370
    15
100
AcDbLine
 10
1890.00677068241
 20
1044.31440722317
 30
0.0
 11
1886.606155698845
 21
1042.498978897373
 31
0.0
  0
SPLINE
  5
7CF
330
740
100
AcDbEntity
  8
0
  6
Continuous
 62
     7
370
    15
100
AcDbSpline
210
0.0
220
0.0
230
1.0
 70
     8
 71
     3
 72
    15
 73
    11
 74
     0
 42
0.0000000001
 43
0.0000000001
 40
0.0
 40
0.0
 40
0.0
 40
0.0
 40
0.138547313172107
 40
0.2770946263441937
 40
0.4156419395162951
 40
0.5541892526883905
 40
0.6927365658604858
 40
0.8312838790325871
 40
0.9698311922046737
 40
0.9999999999999998
 40
0.9999999999999998
 40
0.9999999999999998
 40
0.9999999999999998
 10
1893.591893542029
 20
1028.97101747201
 30
0.0
 10
1893.597189473059
 20
1028.914808784742
 30
0.0
 10
1893.607781335118
 20
1028.802391410205
 30
0.0
 10
1893.656186064604
 20
1028.623806756278
 30
0.0
 10
1893.726368182047
 20
1028.446472824106
 30
0.0
 10
1893.818020659985
 20
1028.276257631257
 30
0.0
 10
1893.926940599104
 20
1028.119143350339
 30
0.0
 10
1894.049275219225
 20
1027.984351028231
 30
0.0
 10
1894.145671233696
 20
1027.896037080285
 30
0.0
 10
1894.199917076716
 20
1027.863716031564
 30
0.0
 10
1894.209616993963
 20
1027.857936574918
 30
0.0
  0
LINE
  5
7D0
330
740
100
AcDbEntity
  8
0
  6
Continuous
 62
     7
370
    15
100
AcDbLine
 10
1893.592971956764
 20
1029.006220709495
 30
0.0
 11
1893.591893542029
 21
1028.97101747201
 31
0.0
  0
SPLINE
  5
7D1
330
740
100
AcDbEntity
  8
0
  6
Continuous
 62
     7
370
    15
100
AcDbSpline
210
0.0
220
0.0
230
1.0
 70
     8
 71
     3
 72
     8
 73
     4
 74
     0
 42
0.0000000001
 43
0.0000000001
 40
0.0
 40
0.0
 40
0.0
 40
0.0
 40
1.0
 40
1.0
 40
1.0
 40
1.0
 10
1890.007279231328
 20
1044.306863764584
 30
0.0
 10
1890.007153736726
 20
1044.309357161253
 30
0.0
 10
1890.006984166577
 20
1044.311872446115
 30
0.0
 10
1890.00677068241
 20
1044.31440722317
 30
0.0
  0
SPLINE
  5
7D2
330
740
100
AcDbEntity
  8
0
  6
Continuous
 62
     7
370
    15
100
AcDbSpline
210
0.0
220
0.0
230
1.0
 70
     8
 71
     3
 72
    10
 73
     6
 74
     0
 42
0.0000000001
 43
0.0000000001
 40
0.0
 40
0.0
 40
0.0
 40
0.0
 40
0.1382132362142375
 40
0.5691066181071589
 40
1.0
 40
1.0
 40
1.0
 40
1.0
 10
1889.961336843913
 20
1044.202193651263
 30
0.0
 10
1889.96589754782
 20
1044.203635982442
 30
0.0
 10
1889.984676695518
 20
1044.209574923182
 30
0.0
 10
1890.004130726334
 20
1044.245303433606
 30
0.0
 10
1890.006229729663
 20
1044.286343654258
 30
0.0
 10
1890.007279231328
 20
1044.306863764584
 30
0.0
  0
SPLINE
  5
7D3
330
740
100
AcDbEntity
  8
0
  6
Continuous
 62
     7
370
    15
100
AcDbSpline
210
0.0
220
0.0
230
1.0
 70
     8
 71
     3
 72
    14
 73
    10
 74
     0
 42
0.0000000001
 43
0.0000000001
 40
0.0
 40
0.0
 40
0.0
 40
0.0
 40
0.25
 40
0.25
 40
0.5
 40
0.5
 40
0.75
 40
0.75
 40
1.0
 40
1.0
 40
1.0
 40
1.0
 10
1884.457200460235
 20
1040.188606057534
 30
0.0
 10
1884.445911589692
 20
1040.412899626867
 30
0.0
 10
1884.509457342115
 20
1040.598682961215
 30
0.0
 10
1884.750338126579
 20
1040.788329941279
 30
0.0
 10
1884.926189855043
 20
1040.791025772616
 30
0.0
 10
1885.289424468432
 20
1040.610639965217
 30
0.0
 10
1885.474570615371
 20
1040.428669112108
 30
0.0
 10
1885.747381147485
 20
1039.983918076763
 30
0.0
 10
1885.833365611041
 20
1039.723876597002
 30
0.0
 10
1885.844654481584
 20
1039.499583027669
 30
0.0
  0
SPLINE
  5
7D4
330
740
100
AcDbEntity
  8
0
  6
Continuous
 62
     7
370
    15
100
AcDbSpline
210
0.0
220
0.0
230
1.0
 70
     8
 71
     3
 72
    14
 73
    10
 74
     0
 42
0.0000000001
 43
0.0000000001
 40
0.0
 40
0.0
 40
0.0
 40
0.0
 40
0.25
 40
0.25
 40
0.5
 40
0.5
 40
0.75
 40
0.75
 40
1.0
 40
1.0
 40
1.0
 40
1.0
 10
1885.844654481584
 20
1039.499583027669
 30
0.0
 10
1885.855943352127
 20
1039.275289458335
 30
0.0
 10
1885.792397599703
 20
1039.089506123987
 30
0.0
 10
1885.55151681524
 20
1038.899859143924
 30
0.0
 10
1885.375665086775
 20
1038.897163312587
 30
0.0
 10
1885.012430473386
 20
1039.077549119985
 30
0.0
 10
1884.827284326448
 20
1039.259519973094
 30
0.0
 10
1884.554473794334
 20
1039.70427100844
 30
0.0
 10
1884.468489330777
 20
1039.9643124882
 30
0.0
 10
1884.457200460235
 20
1040.188606057534
 30
0.0
  0
SPLINE
  5
7D5
330
740
100
AcDbEntity
  8
0
  6
Continuous
 62
     7
370
    15
100
AcDbSpline
210
0.0
220
0.0
230
1.0
 70
     8
 71
     3
 72
    14
 73
    10
 74
     0
 42
0.0000000001
 43
0.0000000001
 40
0.0
 40
0.0
 40
0.0
 40
0.0
 40
0.25
 40
0.25
 40
0.5
 40
0.5
 40
0.75
 40
0.75
 40
1.0
 40
1.0
 40
1.0
 40
1.0
 10
1892.78659332035
 20
1024.350059586775
 30
0.0
 10
1892.797882190893
 20
1024.125766017445
 30
0.0
 10
1892.73433643847
 20
1023.939982683099
 30
0.0
 10
1892.49345565401
 20
1023.750335703038
 30
0.0
 10
1892.317603925548
 20
1023.747639871701
 30
0.0
 10
1891.954369312163
 20
1023.928025679097
 30
0.0
 10
1891.769223165228
 20
1024.109996532204
 30
0.0
 10
1891.496412633117
 20
1024.554747567544
 30
0.0
 10
1891.410428169561
 20
1024.814789047301
 30
0.0
 10
1891.399139299019
 20
1025.039082616632
 30
0.0
  0
SPLINE
  5
7D6
330
740
100
AcDbEntity
  8
0
  6
Continuous
 62
     7
370
    15
100
AcDbSpline
210
0.0
220
0.0
230
1.0
 70
     8
 71
     3
 72
    14
 73
    10
 74
     0
 42
0.0000000001
 43
0.0000000001
 40
0.0
 40
0.0
 40
0.0
 40
0.0
 40
0.25
 40
0.25
 40
0.5
 40
0.5
 40
0.75
 40
0.75
 40
1.0
 40
1.0
 40
1.0
 40
1.0
 10
1891.399139299019
 20
1025.039082616632
 30
0.0
 10
1891.387850428476
 20
1025.263376185963
 30
0.0
 10
1891.451396180898
 20
1025.449159520308
 30
0.0
 10
1891.692276965359
 20
1025.638806500369
 30
0.0
 10
1891.868128693822
 20
1025.641502331706
 30
0.0
 10
1892.231363307206
 20
1025.46111652431
 30
0.0
 10
1892.416509454142
 20
1025.279145671203
 30
0.0
 10
1892.689319986252
 20
1024.834394635863
 30
0.0
 10
1892.775304449808
 20
1024.574353156106
 30
0.0
 10
1892.78659332035
 20
1024.350059586775
 30
0.0
  0
LINE
  5
7D7
330
740
100
AcDbEntity
  8
0
  6
Continuous
 62
     7
370
    15
100
AcDbLine
 10
1889.758478024582
 20
1044.090295436642
 30
0.0
 11
1889.760996251697
 21
1044.040261897333
 31
0.0
  0
SPLINE
  5
7D8
330
740
100
AcDbEntity
  8
0
  6
Continuous
 62
     7
370
    15
100
AcDbSpline
210
0.0
220
0.0
230
1.0
 70
     8
 71
     3
 72
     9
 73
     5
 74
     0
 42
0.0000000001
 43
0.0000000001
 40
0.0
 40
0.0
 40
0.0
 40
0.0
 40
0.5591484020887603
 40
1.0
 40
1.0
 40
1.0
 40
1.0
 10
1888.793834504937
 20
1045.575946069279
 30
0.0
 10
1888.776009099726
 20
1045.582869295081
 30
0.0
 10
1888.744129539407
 20
1045.59525102733
 30
0.0
 10
1888.719937002484
 20
1045.583851698238
 30
0.0
 10
1888.709271683924
 20
1045.578826285793
 30
0.0
  0
LWPOLYLINE
  5
7D9
330
740
100
AcDbEntity
  8
0
  6
Continuous
 62
     7
370
    15
100
AcDbPolyline
 90
       14
 70
   128
 43
0.0
 10
1899.117541118152
 20
1033.95462162653
 10
1899.102739600645
 20
1034.077090039714
 10
1899.070724100079
 20
1034.204186882804
 10
1899.022584865926
 20
1034.331584025247
 10
1898.959961222069
 20
1034.454943110152
 10
1898.884985741591
 20
1034.570063291836
 10
1898.800211624556
 20
1034.673024290581
 10
1898.708525751845
 20
1034.760319893066
 10
1898.613050375888
 20
1034.828977352246
 10
1898.517036796102
 20
1034.876658620695
 10
1898.423754639792
 20
1034.901739970002
 10
1898.336380518912
 20
1034.9033672849
 10
1898.257889854354
 20
1034.881485149131
 10
1898.24403705842
 20
1034.87462716562
  0
ARC
  5
7DA
330
740
100
AcDbEntity
  8
0
  6
Continuous
 62
     7
370
    15
100
AcDbCircle
 10
1898.70800301753
 20
1033.888082252493
 30
0.0
 40
0.4149083563370104
100
AcDbArc
 50
305.7570746197086
 51
9.228445869177747
  0
LINE
  5
7DB
330
740
100
AcDbEntity
  8
0
  6
Continuous
 62
     7
370
    15
100
AcDbLine
 10
1884.374374167037
 20
1044.106707263038
 30
0.0
 11
1887.774989150601
 21
1045.922135588834
 31
0.0
  0
SPLINE
  5
7DC
330
740
100
AcDbEntity
  8
0
  6
Continuous
 62
     7
370
    15
100
AcDbSpline
210
0.0
220
0.0
230
1.0
 70
     8
 71
     3
 72
    10
 73
     6
 74
     0
 42
0.0000000001
 43
0.0000000001
 40
0.0
 40
0.0
 40
0.0
 40
0.0
 40
0.5
 40
0.5
 40
1.0
 40
1.0
 40
1.0
 40
1.0
 10
1887.774989150601
 20
1045.922135588834
 30
0.0
 10
1887.771256038963
 20
1045.966471796851
 30
0.0
 10
1887.753494687222
 20
1046.016799999328
 30
0.0
 10
1887.699438957313
 20
1046.102454929644
 30
0.0
 10
1887.663442459491
 20
1046.137309646091
 30
0.0
 10
1887.628127804403
 20
1046.154847243931
 30
0.0
  0
LINE
  5
7DD
330
740
100
AcDbEntity
  8
0
  6
Continuous
 62
     7
370
    15
100
AcDbLine
 10
1887.818874592549
 20
1045.400931223095
 30
0.0
 11
1887.774989150601
 21
1045.922135588834
 31
0.0
  0
LINE
  5
7DE
330
740
100
AcDbEntity
  8
0
  6
Continuous
 62
     7
370
    15
100
AcDbLine
 10
1887.818874592549
 20
1045.400931223095
 30
0.0
 11
1884.418259608986
 21
1043.585502897299
 31
0.0
  0
LINE
  5
7DF
330
740
100
AcDbEntity
  8
0
  6
Continuous
 62
     7
370
    15
100
AcDbLine
 10
1883.797104993915
 20
1045.136842523504
 30
0.0
 11
1887.607519246111
 21
1047.171043395961
 31
0.0
  0
LINE
  5
7E0
330
740
100
AcDbEntity
  8
0
  6
Continuous
 62
     7
370
    15
100
AcDbLine
 10
1883.81861597499
 20
1044.70954357969
 30
0.0
 11
1887.629030227186
 21
1046.743744452147
 31
0.0
  0
LINE
  5
7E1
330
740
100
AcDbEntity
  8
0
  6
Continuous
 62
     7
370
    15
100
AcDbLine
 10
1887.607519246111
 20
1047.171043395961
 30
0.0
 11
1887.629030227186
 21
1046.743744452147
 31
0.0
  0
LINE
  5
7E2
330
740
100
AcDbEntity
  8
0
  6
Continuous
 62
     7
370
    15
100
AcDbLine
 10
1883.085354204343
 20
1045.490304820628
 30
0.0
 11
1883.624563768333
 21
1045.778163434655
 31
0.0
  0
LINE
  5
7E3
330
740
100
AcDbEntity
  8
0
  6
Continuous
 62
     7
370
    15
100
AcDbLine
 10
1883.624563768333
 20
1045.778163434655
 30
0.0
 11
1886.356558892549
 21
1047.236647079057
 31
0.0
  0
LINE
  5
7E4
330
740
100
AcDbEntity
  8
0
  6
Continuous
 62
     7
370
    15
100
AcDbLine
 10
1886.356558892549
 20
1047.236647079057
 30
0.0
 11
1886.895768456539
 21
1047.524505693085
 31
0.0
  0
LINE
  5
7E5
330
740
100
AcDbEntity
  8
0
  6
Continuous
 62
     7
370
    15
100
AcDbLine
 10
1886.895768456539
 20
1047.524505693085
 30
0.0
 11
1887.607519246111
 21
1047.171043395961
 31
0.0
  0
SPLINE
  5
7E6
330
740
100
AcDbEntity
  8
0
  6
Continuous
 62
     7
370
    15
100
AcDbSpline
210
0.0
220
0.0
230
1.0
 70
     8
 71
     3
 72
    13
 73
     9
 74
     0
 42
0.0000000001
 43
0.0000000001
 40
0.0
 40
0.0
 40
0.0
 40
0.0
 40
0.1281481854576099
 40
0.2510936167836359
 40
0.3737471660686074
 40
0.5010534881453652
 40
0.7483541173494005
 40
1.0
 40
1.0
 40
1.0
 40
1.0
 10
1887.629030227187
 20
1046.743744452147
 30
0.0
 10
1887.630134827723
 20
1046.732002902896
 30
0.0
 10
1887.632299182552
 20
1046.708996505593
 30
0.0
 10
1887.641940015652
 20
1046.672753477598
 30
0.0
 10
1887.656334845245
 20
1046.636773669977
 30
0.0
 10
1887.681150348398
 20
1046.591084345134
 30
0.0
 10
1887.721152714547
 20
1046.537796771864
 30
0.0
 10
1887.757877342486
 20
1046.514996357017
 30
0.0
 10
1887.776399571208
 20
1046.503496866826
 30
0.0
  0
SPLINE
  5
7E7
330
740
100
AcDbEntity
  8
0
  6
Continuous
 62
     7
370
    15
100
AcDbSpline
210
0.0
220
0.0
230
1.0
 70
     8
 71
     3
 72
     8
 73
     4
 74
     0
 42
0.0000000001
 43
0.0000000001
 40
0.0
 40
0.0
 40
0.0
 40
0.0
 40
1.0
 40
1.0
 40
1.0
 40
1.0
 10
1887.819382710321
 20
1045.393392909942
 30
0.0
 10
1887.819257300652
 20
1045.395884619118
 30
0.0
 10
1887.819087874335
 20
1045.398398187239
 30
0.0
 10
1887.818874592549
 20
1045.400931223095
 30
0.0
  0
SPLINE
  5
7E8
330
740
100
AcDbEntity
  8
0
  6
Continuous
 62
     7
370
    15
100
AcDbSpline
210
0.0
220
0.0
230
1.0
 70
     8
 71
     3
 72
    10
 73
     6
 74
     0
 42
0.0000000001
 43
0.0000000001
 40
0.0
 40
0.0
 40
0.0
 40
0.0
 40
0.1382140748696106
 40
0.5691070374348828
 40
1.0
 40
1.0
 40
1.0
 40
1.0
 10
1887.773441100941
 20
1045.288724582778
 30
0.0
 10
1887.778001752451
 20
1045.290166903855
 30
0.0
 10
1887.796780584286
 20
1045.29610577134
 30
0.0
 10
1887.816234269869
 20
1045.331833678378
 30
0.0
 10
1887.818333230171
 20
1045.372873166088
 30
0.0
 10
1887.819382710321
 20
1045.393392909942
 30
0.0
  0
LINE
  5
7E9
330
740
100
AcDbEntity
  8
0
  6
Continuous
 62
     7
370
    15
100
AcDbLine
 10
1896.181021738784
 20
1024.573072121933
 30
0.0
 11
1892.370607486588
 21
1022.538871249476
 31
0.0
  0
LINE
  5
7EA
330
740
100
AcDbEntity
  8
0
  6
Continuous
 62
     7
370
    15
100
AcDbLine
 10
1898.458145194046
 20
1026.365865961773
 30
0.0
 11
1896.181021738784
 21
1024.573072121933
 31
0.0
  0
LINE
  5
7EB
330
740
100
AcDbEntity
  8
0
  6
Continuous
 62
     7
370
    15
100
AcDbLine
 10
1886.356558892549
 20
1047.236647079057
 30
0.0
 11
1884.280873835452
 21
1047.463655615474
 31
0.0
  0
LINE
  5
7EC
330
740
100
AcDbEntity
  8
0
  6
Continuous
 62
     7
370
    15
100
AcDbLine
 10
1884.280873835452
 20
1047.463655615474
 30
0.0
 11
1881.548878711235
 21
1046.005171971071
 31
0.0
  0
LINE
  5
7ED
330
740
100
AcDbEntity
  8
0
  6
Continuous
 62
     7
370
    15
100
AcDbLine
 10
1881.548878711235
 20
1046.005171971071
 30
0.0
 11
1883.624563768333
 21
1045.778163434655
 31
0.0
  0
LINE
  5
7EE
330
740
100
AcDbEntity
  8
0
  6
Continuous
 62
     7
370
    15
100
AcDbLine
 10
1880.937549324159
 20
1045.725200784585
 30
0.0
 11
1884.747963576355
 21
1047.759401657041
 31
0.0
  0
LINE
  5
7EF
330
740
100
AcDbEntity
  8
0
  6
Continuous
 62
     7
370
    15
100
AcDbLine
 10
1884.747963576355
 20
1047.759401657041
 30
0.0
 11
1886.895768456539
 21
1047.524505693085
 31
0.0
  0
LINE
  5
7F0
330
740
100
AcDbEntity
  8
0
  6
Continuous
 62
     7
370
    15
100
AcDbLine
 10
1887.570582838197
 20
1045.176826720056
 30
0.0
 11
1887.580540152636
 21
1044.978989249251
 31
0.0
  0
LINE
  5
7F1
330
740
100
AcDbEntity
  8
0
  6
Continuous
 62
     7
370
    15
100
AcDbLine
 10
1883.412128958236
 20
1045.801396494583
 30
0.0
 11
1884.014574125142
 21
1046.123013621493
 31
0.0
  0
LINE
  5
7F2
330
740
100
AcDbEntity
  8
0
  6
Continuous
 62
     7
370
    15
100
AcDbLine
 10
1884.014574125142
 20
1046.123013621493
 30
0.0
 11
1884.227008714382
 21
1046.099780443659
 31
0.0
  0
LINE
  5
7F3
330
740
100
AcDbEntity
  8
0
  6
Continuous
 62
     7
370
    15
100
AcDbLine
 10
1884.802165582637
 20
1046.406829631955
 30
0.0
 11
1884.589730993398
 21
1046.430062809788
 31
0.0
  0
LINE
  5
7F4
330
740
100
AcDbEntity
  8
0
  6
Continuous
 62
     7
370
    15
100
AcDbLine
 10
1884.622104127986
 20
1046.310703294001
 30
0.0
 11
1884.589730993398
 21
1046.430062809788
 31
0.0
  0
LINE
  5
7F5
330
740
100
AcDbEntity
  8
0
  6
Continuous
 62
     7
370
    15
100
AcDbLine
 10
1884.589730993398
 20
1046.430062809788
 30
0.0
 11
1885.56030820858
 21
1046.948208315036
 31
0.0
  0
LINE
  5
7F6
330
740
100
AcDbEntity
  8
0
  6
Continuous
 62
     7
370
    15
100
AcDbLine
 10
1885.77274279782
 20
1046.924975137203
 30
0.0
 11
1885.56030820858
 21
1046.948208315036
 31
0.0
  0
LINE
  5
7F7
330
740
100
AcDbEntity
  8
0
  6
Continuous
 62
     7
370
    15
100
AcDbLine
 10
1882.886968550826
 20
1045.858830976304
 30
0.0
 11
1883.565982178058
 21
1046.221324401298
 31
0.0
  0
LINE
  5
7F8
330
740
100
AcDbEntity
  8
0
  6
Continuous
 62
     7
370
    15
100
AcDbLine
 10
1883.64602247769
 20
1045.926261238898
 30
0.0
 11
1883.565982178058
 21
1046.221324401298
 31
0.0
  0
SPLINE
  5
7F9
330
740
100
AcDbEntity
  8
0
  6
Continuous
 62
     7
370
    15
100
AcDbSpline
210
0.0
220
0.0
230
1.0
 70
     8
 71
     3
 72
    10
 73
     6
 74
     0
 42
0.0000000001
 43
0.0000000001
 40
0.0
 40
0.0
 40
0.0
 40
0.0
 40
0.5
 40
0.5
 40
1.0
 40
1.0
 40
1.0
 40
1.0
 10
1891.220596118283
 20
1023.009344141838
 30
0.0
 10
1891.222853892392
 20
1022.964485427971
 30
0.0
 10
1891.210144741907
 20
1022.927328761102
 30
0.0
 10
1891.161968585014
 20
1022.889399365089
 30
0.0
 10
1891.126798239321
 20
1022.888860198822
 30
0.0
 10
1891.090474777982
 20
1022.906898779561
 30
0.0
  0
LINE
  5
7FA
330
740
100
AcDbEntity
  8
0
  6
Continuous
 62
     7
370
    15
100
AcDbLine
 10
1880.65548477592
 20
1028.089015316179
 30
0.0
 11
1891.090474777982
 21
1022.906898779562
 31
0.0
  0
SPLINE
  5
7FB
330
740
100
AcDbEntity
  8
0
  6
Continuous
 62
     7
370
    15
100
AcDbSpline
210
0.0
220
0.0
230
1.0
 70
     8
 71
     3
 72
    10
 73
     6
 74
     0
 42
0.0000000001
 43
0.0000000001
 40
0.0
 40
0.0
 40
0.0
 40
0.0
 40
0.5
 40
0.5
 40
1.0
 40
1.0
 40
1.0
 40
1.0
 10
1880.65548477592
 20
1028.089015316179
 30
0.0
 10
1880.619161314581
 20
1028.107053896919
 30
0.0
 10
1880.582132085194
 20
1028.143448067541
 30
0.0
 10
1880.52756997877
 20
1028.232398274609
 30
0.0
 10
1880.510373086059
 20
1028.284406570562
 30
0.0
 10
1880.508115311951
 20
1028.329265284428
 30
0.0
  0
LINE
  5
7FC
330
740
100
AcDbEntity
  8
0
  6
Continuous
 62
     7
370
    15
100
AcDbLine
 10
1880.473774979856
 20
1029.011558134583
 30
0.0
 11
1880.50811531195
 21
1028.329265284428
 31
0.0
  0
SPLINE
  5
7FD
330
740
100
AcDbEntity
  8
0
  6
Continuous
 62
     7
370
    15
100
AcDbSpline
210
0.0
220
0.0
230
1.0
 70
     8
 71
     3
 72
    10
 73
     6
 74
     0
 42
0.0000000001
 43
0.0000000001
 40
0.0
 40
0.0
 40
0.0
 40
0.0
 40
0.5
 40
0.5
 40
1.0
 40
1.0
 40
1.0
 40
1.0
 10
1880.473774979856
 20
1029.011558134583
 30
0.0
 10
1880.471517205747
 20
1029.05641684845
 30
0.0
 10
1880.484226356232
 20
1029.09357351532
 30
0.0
 10
1880.532402513124
 20
1029.131502911332
 30
0.0
 10
1880.567572858818
 20
1029.1320420776
 30
0.0
 10
1880.603896320156
 20
1029.11400349686
 30
0.0
  0
LINE
  5
7FE
330
740
100
AcDbEntity
  8
0
  6
Continuous
 62
     7
370
    15
100
AcDbLine
 10
1891.038886322219
 20
1023.931886960242
 30
0.0
 11
1880.603896320156
 21
1029.114003496859
 31
0.0
  0
SPLINE
  5
7FF
330
740
100
AcDbEntity
  8
0
  6
Continuous
 62
     7
370
    15
100
AcDbSpline
210
0.0
220
0.0
230
1.0
 70
     8
 71
     3
 72
    10
 73
     6
 74
     0
 42
0.0000000001
 43
0.0000000001
 40
0.0
 40
0.0
 40
0.0
 40
0.0
 40
0.5
 40
0.5
 40
1.0
 40
1.0
 40
1.0
 40
1.0
 10
1891.038886322219
 20
1023.931886960242
 30
0.0
 10
1891.075209783558
 20
1023.913848379502
 30
0.0
 10
1891.112239012945
 20
1023.877454208881
 30
0.0
 10
1891.166801119368
 20
1023.788504001812
 30
0.0
 10
1891.183998012079
 20
1023.736495705859
 30
0.0
 10
1891.186255786188
 20
1023.691636991993
 30
0.0
  0
LINE
  5
800
330
740
100
AcDbEntity
  8
0
  6
Continuous
 62
     7
370
    15
100
AcDbLine
 10
1891.186255786188
 20
1023.691636991993
 30
0.0
 11
1891.220596118283
 21
1023.009344141838
 31
0.0
  0
LINE
  5
801
330
740
100
AcDbEntity
  8
0
  6
Continuous
 62
     7
370
    15
100
AcDbLine
 10
1884.313095077028
 20
1047.084702079257
 30
0.0
 11
1882.164773487934
 21
1045.937814270842
 31
0.0
  0
LINE
  5
802
330
740
100
AcDbEntity
  8
0
  6
Continuous
 62
     7
370
    15
100
AcDbLine
 10
1884.313095077028
 20
1047.084702079257
 30
0.0
 11
1885.03520675855
 21
1047.005674271328
 31
0.0
  0
LINE
  5
803
330
740
100
AcDbEntity
  8
0
  6
Continuous
 62
     7
370
    15
100
AcDbLine
 10
1883.988120040422
 20
1046.446683942566
 30
0.0
 11
1885.03520675855
 21
1047.005674271328
 31
0.0
  0
SPLINE
  5
804
330
740
100
AcDbEntity
  8
0
  6
Continuous
 62
     7
370
    15
100
AcDbSpline
210
0.0
220
0.0
230
1.0
 70
     8
 71
     3
 72
    14
 73
    10
 74
     0
 42
0.0000000001
 43
0.0000000001
 40
0.0
 40
0.0
 40
0.0
 40
0.0
 40
0.1021225872302523
 40
0.2016953095067052
 40
0.3002671943152237
 40
0.399434180666943
 40
0.5007640930505211
 40
0.7482185533256539
 40
0.9999999999999998
 40
0.9999999999999998
 40
0.9999999999999998
 40
0.9999999999999998
 10
1883.988120040422
 20
1046.446683942566
 30
0.0
 10
1883.967671824438
 20
1046.440710031901
 30
0.0
 10
1883.92728595718
 20
1046.428911371161
 30
0.0
 10
1883.869056848459
 20
1046.408896510043
 30
0.0
 10
1883.814033725701
 20
1046.387575482978
 30
0.0
 10
1883.762271157655
 20
1046.364760677225
 30
0.0
 10
1883.691475094053
 20
1046.329350699514
 30
0.0
 10
1883.610564634972
 20
1046.27913068158
 30
0.0
 10
1883.580928617637
 20
1046.240704178351
 30
0.0
 10
1883.565982178058
 20
1046.221324401298
 30
0.0
  0
LINE
  5
805
330
740
100
AcDbEntity
  8
0
  6
Continuous
 62
     7
370
    15
100
AcDbLine
 10
1892.13365764664
 20
1023.496784728257
 30
0.0
 11
1891.220596118283
 21
1023.009344141838
 31
0.0
  0
LINE
  5
806
330
740
100
AcDbEntity
  8
0
  6
Continuous
 62
     7
370
    15
100
AcDbLine
 10
1880.603896320156
 20
1029.11400349686
 30
0.0
 11
1881.516957848513
 21
1029.601444083279
 31
0.0
  0
LINE
  5
807
330
740
100
AcDbEntity
  8
0
  6
Continuous
 62
     7
370
    15
100
AcDbLine
 10
1884.280873835452
 20
1047.463655615474
 30
0.0
 11
1884.385822761051
 21
1047.076742771035
 31
0.0
  0
SPLINE
  5
808
330
740
100
AcDbEntity
  8
0
  6
Continuous
 62
     7
370
    15
100
AcDbSpline
210
0.0
220
0.0
230
1.0
 70
     8
 71
     3
 72
    10
 73
     6
 74
     0
 42
0.0000000001
 43
0.0000000001
 40
0.0
 40
0.0
 40
0.0
 40
0.0
 40
0.4920082921852275
 40
0.984016584370507
 40
1.0
 40
1.0
 40
1.0
 40
1.0
 10
1884.747963576355
 20
1047.759401657041
 30
0.0
 10
1884.709074326547
 20
1047.760092937063
 30
0.0
 10
1884.63129582693
 20
1047.761475497106
 30
0.0
 10
1884.557744477211
 20
1047.743454163219
 30
0.0
 10
1884.527965570789
 20
1047.721121661978
 30
0.0
 10
1884.527028609356
 20
1047.720418993718
 30
0.0
  0
LINE
  5
809
330
740
100
AcDbEntity
  8
0
  6
Continuous
 62
     7
370
    15
100
AcDbLine
 10
1884.077767990526
 20
1046.11610234439
 30
0.0
 11
1883.988120040422
 21
1046.446683942566
 31
0.0
  0
LINE
  5
80A
330
740
100
AcDbEntity
  8
0
  6
Continuous
 62
     7
370
    15
100
AcDbLine
 10
1885.03520675855
 20
1047.005674271328
 30
0.0
 11
1885.115236432321
 21
1046.710605436281
 31
0.0
  0
LINE
  5
80B
330
740
100
AcDbEntity
  8
0
  6
Continuous
 62
     7
370
    15
100
AcDbLine
 10
1896.290724678628
 20
1022.393432994129
 30
0.0
 11
1892.480310426432
 21
1020.359232121673
 31
0.0
  0
LINE
  5
80C
330
740
100
AcDbEntity
  8
0
  6
Continuous
 62
     7
370
    15
100
AcDbLine
 10
1896.181021738784
 20
1024.573072121933
 30
0.0
 11
1896.290724678628
 21
1022.393432994129
 31
0.0
  0
SPLINE
  5
80D
330
740
100
AcDbEntity
  8
0
  6
Continuous
 62
     7
370
    15
100
AcDbSpline
210
0.0
220
0.0
230
1.0
 70
     8
 71
     3
 72
    14
 73
    10
 74
     0
 42
0.0000000001
 43
0.0000000001
 40
0.0
 40
0.0
 40
0.0
 40
0.0
 40
0.25
 40
0.25
 40
0.5
 40
0.5
 40
0.75
 40
0.75
 40
1.0
 40
1.0
 40
1.0
 40
1.0
 10
1878.406596104312
 20
1037.394449782378
 30
0.0
 10
1878.41506275722
 20
1037.226229605378
 30
0.0
 10
1878.367403442902
 20
1037.086892104617
 30
0.0
 10
1878.186742854555
 20
1036.944656869569
 30
0.0
 10
1878.054854058206
 20
1036.942634996066
 30
0.0
 10
1877.782428098164
 20
1037.077924351615
 30
0.0
 10
1877.64356848796
 20
1037.214402491447
 30
0.0
 10
1877.438960588874
 20
1037.547965767956
 30
0.0
 10
1877.374472241207
 20
1037.742996877777
 30
0.0
 10
1877.3660055883
 20
1037.911217054777
 30
0.0
  0
SPLINE
  5
80E
330
740
100
AcDbEntity
  8
0
  6
Continuous
 62
     7
370
    15
100
AcDbSpline
210
0.0
220
0.0
230
1.0
 70
     8
 71
     3
 72
    14
 73
    10
 74
     0
 42
0.0000000001
 43
0.0000000001
 40
0.0
 40
0.0
 40
0.0
 40
0.0
 40
0.25
 40
0.25
 40
0.5
 40
0.5
 40
0.75
 40
0.75
 40
1.0
 40
1.0
 40
1.0
 40
1.0
 10
1877.3660055883
 20
1037.911217054777
 30
0.0
 10
1877.357538935393
 20
1038.079437231777
 30
0.0
 10
1877.40519824971
 20
1038.218774732538
 30
0.0
 10
1877.585858838058
 20
1038.361009967586
 30
0.0
 10
1877.717747634407
 20
1038.363031841089
 30
0.0
 10
1877.990173594449
 20
1038.22774248554
 30
0.0
 10
1878.129033204652
 20
1038.091264345708
 30
0.0
 10
1878.333641103738
 20
1037.757701069199
 30
0.0
 10
1878.398129451406
 20
1037.562669959378
 30
0.0
 10
1878.406596104312
 20
1037.394449782378
 30
0.0
  0
LINE
  5
80F
330
740
100
AcDbEntity
  8
0
  6
Continuous
 62
     7
370
    15
100
AcDbLine
 10
1891.319484079791
 20
1020.935709665578
 30
0.0
 11
1889.292907898655
 21
1019.853816001814
 31
0.0
  0
SPLINE
  5
810
330
740
100
AcDbEntity
  8
0
  6
Continuous
 62
     7
370
    15
100
AcDbSpline
210
0.0
220
0.0
230
1.0
 70
     8
 71
     3
 72
    15
 73
    11
 74
     0
 42
0.0000000001
 43
0.0000000001
 40
0.0
 40
0.0
 40
0.0
 40
0.0
 40
0.138547313172107
 40
0.2770946263441937
 40
0.4156419395162951
 40
0.5541892526883905
 40
0.6927365658604858
 40
0.8312838790325871
 40
0.9698311922046737
 40
0.9999999999999998
 40
0.9999999999999998
 40
0.9999999999999998
 40
0.9999999999999998
 10
1879.523109765543
 20
1035.957710994842
 30
0.0
 10
1879.528405696573
 20
1035.901502307573
 30
0.0
 10
1879.538997558632
 20
1035.789084933036
 30
0.0
 10
1879.587402288118
 20
1035.610500279109
 30
0.0
 10
1879.657584405561
 20
1035.433166346938
 30
0.0
 10
1879.749236883499
 20
1035.262951154088
 30
0.0
 10
1879.858156822618
 20
1035.10583687317
 30
0.0
 10
1879.980491442739
 20
1034.971044551062
 30
0.0
 10
1880.07688745721
 20
1034.882730603116
 30
0.0
 10
1880.13113330023
 20
1034.850409554396
 30
0.0
 10
1880.140833217478
 20
1034.84463009775
 30
0.0
  0
LINE
  5
811
330
740
100
AcDbEntity
  8
0
  6
Continuous
 62
     7
370
    15
100
AcDbLine
 10
1879.524188180278
 20
1035.992914232326
 30
0.0
 11
1879.523109765543
 21
1035.957710994842
 31
0.0
  0
LINE
  5
812
330
740
100
AcDbEntity
  8
0
  6
Continuous
 62
     7
370
    15
100
AcDbLine
 10
1879.821830595001
 20
1033.065636714405
 30
0.0
 11
1879.820182743615
 21
1033.011845068401
 31
0.0
  0
SPLINE
  5
813
330
740
100
AcDbEntity
  8
0
  6
Continuous
 62
     7
370
    15
100
AcDbSpline
210
0.0
220
0.0
230
1.0
 70
     8
 71
     3
 72
    15
 73
    11
 74
     0
 42
0.0000000001
 43
0.0000000001
 40
0.0
 40
0.0
 40
0.0
 40
0.0
 40
0.1370935763267555
 40
0.2741871526534793
 40
0.4112807289802522
 40
0.5483743053069778
 40
0.6854678816337032
 40
0.822561457960476
 40
0.9596550342871999
 40
1.0
 40
1.0
 40
1.0
 40
1.0
 10
1879.820182743615
 20
1033.011845068401
 30
0.0
 10
1879.825586761707
 20
1032.954489349116
 30
0.0
 10
1879.836394797891
 20
1032.839777910547
 30
0.0
 10
1879.885787276442
 20
1032.657547411093
 30
0.0
 10
1879.957402071713
 20
1032.476599209948
 30
0.0
 10
1880.050923552067
 20
1032.302892334945
 30
0.0
 10
1880.162071782641
 20
1032.142638460101
 30
0.0
 10
1880.286882741756
 20
1032.004845897111
 30
0.0
 10
1880.388698537778
 20
1031.912331374971
 30
0.0
 10
1880.447552732369
 20
1031.87755209342
 30
0.0
 10
1880.460934664138
 20
1031.869644178343
 30
0.0
  0
LINE
  5
814
330
740
100
AcDbEntity
  8
0
  6
Continuous
 62
     8
370
    15
100
AcDbLine
 10
1887.971323380994
 20
1042.613084823028
 30
0.0
 11
1887.842373247833
 21
1042.544244414606
 31
0.0
  0
LINE
  5
815
330
740
100
AcDbEntity
  8
0
  6
Continuous
 62
     8
370
    15
100
AcDbLine
 10
1887.581105816426
 20
1042.673992337364
 30
0.0
 11
1887.960915239996
 21
1042.8767547169
 31
0.0
  0
LINE
  5
816
330
740
100
AcDbEntity
  8
0
  6
Continuous
 62
     8
370
    15
100
AcDbLine
 10
1887.629329740168
 20
1041.149452519208
 30
0.0
 11
1887.75520803979
 21
1041.216653020248
 31
0.0
  0
LINE
  5
817
330
740
100
AcDbEntity
  8
0
  6
Continuous
 62
     8
370
    15
100
AcDbLine
 10
1887.456547537187
 20
1042.198152191264
 30
0.0
 11
1886.522110130734
 21
1041.699300029358
 31
0.0
  0
LINE
  5
818
330
740
100
AcDbEntity
  8
0
  6
Continuous
 62
     8
370
    15
100
AcDbLine
 10
1886.539739856643
 20
1042.378554960773
 30
0.0
 11
1886.357539923497
 21
1042.281286989777
 31
0.0
  0
LINE
  5
819
330
740
100
AcDbEntity
  8
0
  6
Continuous
 62
     8
370
    15
100
AcDbLine
 10
1887.451723270434
 20
1042.514501234987
 30
0.0
 11
1886.374739791367
 21
1041.939550432335
 31
0.0
  0
LINE
  5
81A
330
740
100
AcDbEntity
  8
0
  6
Continuous
 62
     8
370
    15
100
AcDbLine
 10
1885.441438377255
 20
1042.235970526582
 30
0.0
 11
1885.5673176395
 21
1042.30317154152
 31
0.0
  0
LINE
  5
81B
330
740
100
AcDbEntity
  8
0
  6
Continuous
 62
     8
370
    15
100
AcDbLine
 10
1885.2686559657
 20
1043.284683183314
 30
0.0
 11
1884.334214222034
 21
1042.785828705974
 31
0.0
  0
LINE
  5
81C
330
740
100
AcDbEntity
  8
0
  6
Continuous
 62
     8
370
    15
100
AcDbLine
 10
1884.351825105971
 20
1043.465078416121
 30
0.0
 11
1884.169644608873
 21
1043.367820821116
 31
0.0
  0
LINE
  5
81D
330
740
100
AcDbEntity
  8
0
  6
Continuous
 62
     8
370
    15
100
AcDbLine
 10
1885.26383599043
 20
1043.601033615997
 30
0.0
 11
1884.186844758065
 21
1043.026078674224
 31
0.0
  0
LINE
  5
81E
330
740
100
AcDbEntity
  8
0
  6
Continuous
 62
     8
370
    15
100
AcDbLine
 10
1891.186255786188
 20
1023.691636991993
 30
0.0
 11
1891.85495566428
 21
1024.048624391628
 31
0.0
  0
LINE
  5
81F
330
740
100
AcDbEntity
  8
0
  6
Continuous
 62
     8
370
    15
100
AcDbLine
 10
1891.675144707562
 20
1024.271555373415
 30
0.0
 11
1891.038886322219
 21
1023.931886960242
 31
0.0
  0
ENDBLK
  5
742
330
740
100
AcDbEntity
  8
0
100
AcDbBlockEnd
  0
ENDSEC
  0
SECTION
  2
ENTITIES
  0
INSERT
  5
640
330
1F
100
AcDbEntity
  8
0
100
AcDbBlockReference
  2
1
 10
0.0
 20
0.0
 30
0.0
  0
INSERT
  5
696
330
1F
100
AcDbEntity
  8
0
100
AcDbBlockReference
  2
2
 10
5.634337685897662
 20
0.0
 30
0.0
  0
INSERT
  5
73F
330
1F
100
AcDbEntity
  8
0
100
AcDbBlockReference
  2
3
 10
0.0
 20
7.267299884296676
 30
0.0
  0
INSERT
  5
820
330
1F
100
AcDbEntity
  8
0
100
AcDbBlockReference
  2
4
 10
-11.39970642792036
 20
0.0
 30
0.0
  0
ENDSEC
  0
SECTION
  2
OBJECTS
  0
DICTIONARY
  5
C
330
0
100
AcDbDictionary
281
     1
  3
ACAD_COLOR
350
6B
  3
ACAD_GROUP
350
D
  3
ACAD_LAYOUT
350
1A
  3
ACAD_MATERIAL
350
6A
  3
ACAD_MLEADERSTYLE
350
12D
  3
ACAD_MLINESTYLE
350
17
  3
ACAD_PLOTSETTINGS
350
19
  3
ACAD_PLOTSTYLENAME
350
E
  3
ACAD_SCALELIST
350
10C
  3
ACAD_TABLESTYLE
350
7E
  3
ACAD_VISUALSTYLE
350
EF
  3
ACDB_RECOMPOSE_DATA
350
15D
  3
AcDbVariableDictionary
350
5E
  3
DWGPROPS
350
82E
  0
DICTIONARY
  5
13C
330
10
100
AcDbDictionary
280
     1
281
     1
  3
ADSK_XREC_LAYER_RECONCILED
360
821
  0
DICTIONARY
  5
6B
102
{ACAD_REACTORS
330
C
102
}
330
C
100
AcDbDictionary
281
     1
  0
DICTIONARY
  5
D
102
{ACAD_REACTORS
330
C
102
}
330
C
100
AcDbDictionary
281
     1
  0
DICTIONARY
  5
1A
102
{ACAD_REACTORS
330
C
102
}
330
C
100
AcDbDictionary
281
     1
  3
Layout1
350
D3
  3
Layout2
350
D7
  3
Model
350
22
  0
DICTIONARY
  5
6A
102
{ACAD_REACTORS
330
C
102
}
330
C
100
AcDbDictionary
281
     1
  3
ByBlock
350
ED
  3
ByLayer
350
EC
  3
Global
350
EE
  0
DICTIONARY
  5
12D
102
{ACAD_REACTORS
330
C
102
}
330
C
100
AcDbDictionary
281
     1
  3
Annotative
350
13B
  3
Standard
350
12E
  0
DICTIONARY
  5
17
102
{ACAD_REACTORS
330
C
102
}
330
C
100
AcDbDictionary
281
     1
  3
Standard
350
18
  0
DICTIONARY
  5
19
102
{ACAD_REACTORS
330
C
102
}
330
C
100
AcDbDictionary
281
     1
  0
ACDBDICTIONARYWDFLT
  5
E
102
{ACAD_REACTORS
330
C
102
}
330
C
100
AcDbDictionary
281
     1
  3
Normal
350
F
100
AcDbDictionaryWithDefault
340
F
  0
DICTIONARY
  5
10C
102
{ACAD_REACTORS
330
C
102
}
330
C
100
AcDbDictionary
281
     1
  3
A0
350
10D
  3
A1
350
188
  3
A2
350
189
  3
A3
350
18A
  3
A4
350
18B
  3
A5
350
18C
  3
A6
350
18D
  3
A7
350
18E
  3
A8
350
18F
  3
A9
350
190
  3
B0
350
191
  3
B1
350
192
  3
B2
350
193
  3
B3
350
194
  3
B4
350
195
  3
B5
350
196
  3
B6
350
197
  3
B7
350
198
  3
B8
350
199
  3
B9
350
19A
  3
C0
350
19B
  3
C1
350
19C
  3
C2
350
19D
  3
C3
350
19E
  3
C4
350
19F
  3
C5
350
1A0
  3
C6
350
1A1
  3
C7
350
1A2
  3
C8
350
1A3
  3
C9
350
1A4
  3
D0
350
1A5
  3
D1
350
1A6
  3
D2
350
1A7
  0
DICTIONARY
  5
7E
102
{ACAD_REACTORS
330
C
102
}
330
C
100
AcDbDictionary
281
     1
  3
Standard
350
7F
  0
DICTIONARY
  5
EF
102
{ACAD_REACTORS
330
C
102
}
330
C
100
AcDbDictionary
281
     1
  3
2dWireframe
350
F5
  3
3D Hidden
350
F7
  3
3dWireframe
350
F6
  3
Basic
350
F4
  3
Brighten
350
FB
  3
ColorChange
350
FF
  3
Conceptual
350
F8
  3
Dim
350
FA
  3
Facepattern
350
FE
  3
Flat
350
F0
  3
FlatWithEdges
350
F1
  3
Gouraud
350
F2
  3
GouraudWithEdges
350
F3
  3
Linepattern
350
FD
  3
Realistic
350
F9
  3
Thicken
350
FC
  0
XRECORD
  5
15D
102
{ACAD_REACTORS
330
C
102
}
330
C
100
AcDbXrecord
280
     1
 90
        1
330
7F
  0
DICTIONARY
  5
5E
102
{ACAD_REACTORS
330
C
102
}
330
C
100
AcDbDictionary
281
     1
  3
CANNOSCALE
350
146
  3
CMLEADERSTYLE
350
145
  3
CTABLESTYLE
350
84
  3
DIMASSOC
350
5F
  3
HIDETEXT
350
63
  3
INDEXCTL
350
82A
  3
LIGHTINGUNITS
350
828
  3
MSLTSCALE
350
827
  3
PSOLHEIGHT
350
82C
  3
PSOLWIDTH
350
82B
  3
SORTENTS
350
829
  0
XRECORD
  5
82E
102
{ACAD_REACTORS
330
C
102
}
330
C
100
AcDbXrecord
280
     1
  1
DWGPROPS COOKIE
  2

  3

  4

  6

  7

  8
orhan kara
  9

300
=
301
=
302
=
303
=
304
=
305
=
306
=
307
=
308
=
309
=
 40
0.0004607175925926
 41
2458450.468155024
 42
2458956.387037153
  1

 90
        0
  0
XRECORD
  5
821
102
{ACAD_REACTORS
330
13C
102
}
330
13C
100
AcDbXrecord
280
     1
290
     1
  0
LAYOUT
  5
D3
102
{ACAD_XDICTIONARY
360
832
102
}
102
{ACAD_REACTORS
330
1A
102
}
330
1A
100
AcDbPlotSettings
  1

  2
C:\Documents and Settings\basas\Application Data\Autodesk\AutoCAD 2005\R16.1\enu\plotters\Default Windows System Printer.pc3
  4

  6

 40
0.0
 41
0.0
 42
0.0
 43
0.0
 44
0.0
 45
0.0
 46
0.0
 47
0.0
 48
0.0
 49
0.0
140
0.0
141
0.0
142
1.0
143
1.0
 70
   688
 72
     0
 73
     0
 74
     5
  7

 75
    16
147
1.0
148
0.0
149
0.0
100
AcDbLayout
  1
Layout1
 70
     1
 71
     1
 10
0.0
 20
0.0
 11
12.0
 21
9.0
 12
0.0
 22
0.0
 32
0.0
 14
0.0
 24
0.0
 34
0.0
 15
0.0
 25
0.0
 35
0.0
146
0.0
 13
0.0
 23
0.0
 33
0.0
 16
1.0
 26
0.0
 36
0.0
 17
0.0
 27
1.0
 37
0.0
 76
     0
330
D2
  0
LAYOUT
  5
D7
102
{ACAD_XDICTIONARY
360
834
102
}
102
{ACAD_REACTORS
330
1A
102
}
330
1A
100
AcDbPlotSettings
  1

  2
C:\Documents and Settings\basas\Application Data\Autodesk\AutoCAD 2005\R16.1\enu\plotters\Default Windows System Printer.pc3
  4

  6

 40
0.0
 41
0.0
 42
0.0
 43
0.0
 44
0.0
 45
0.0
 46
0.0
 47
0.0
 48
0.0
 49
0.0
140
0.0
141
0.0
142
1.0
143
1.0
 70
   688
 72
     0
 73
     0
 74
     5
  7

 75
    16
147
1.0
148
0.0
149
0.0
100
AcDbLayout
  1
Layout2
 70
     1
 71
     2
 10
0.0
 20
0.0
 11
12.0
 21
9.0
 12
0.0
 22
0.0
 32
0.0
 14
0.0
 24
0.0
 34
0.0
 15
0.0
 25
0.0
 35
0.0
146
0.0
 13
0.0
 23
0.0
 33
0.0
 16
1.0
 26
0.0
 36
0.0
 17
0.0
 27
1.0
 37
0.0
 76
     0
330
D6
  0
LAYOUT
  5
22
102
{ACAD_XDICTIONARY
360
82F
102
}
102
{ACAD_REACTORS
330
1A
102
}
330
1A
100
AcDbPlotSettings
  1

  2
none_device
  4
ISO_A4_(210.00_x_297.00_MM)
  6

 40
7.5
 41
20.0
 42
7.5
 43
20.0
 44
210.0
 45
297.0
 46
11.54999923706054
 47
-13.65000009536743
 48
0.0
 49
0.0
140
0.0
141
0.0
142
1.0
143
8.704084754739808
 70
 11952
 72
     1
 73
     0
 74
     0
  7

 75
     0
147
0.1148885871608098
148
0.0
149
0.0
100
AcDbLayout
  1
Model
 70
     1
 71
     0
 10
0.0
 20
0.0
 11
12.0
 21
9.0
 12
0.0
 22
0.0
 32
0.0
 14
0.0
 24
0.0
 34
0.0
 15
0.0
 25
0.0
 35
0.0
146
0.0
 13
0.0
 23
0.0
 33
0.0
 16
1.0
 26
0.0
 36
0.0
 17
0.0
 27
1.0
 37
0.0
 76
     0
330
1F
331
EA
1001
ACAD_PSEXT
1000
None
1000
None
1000
Not applicable
1000
The layout will not be plotted unless a new plotter configuration name is selected.
1070
     0
  0
MATERIAL
  5
ED
102
{ACAD_XDICTIONARY
360
838
102
}
102
{ACAD_REACTORS
330
6A
102
}
330
6A
100
AcDbMaterial
  1
ByBlock
  0
MATERIAL
  5
EC
102
{ACAD_XDICTIONARY
360
836
102
}
102
{ACAD_REACTORS
330
6A
102
}
330
6A
100
AcDbMaterial
  1
ByLayer
  0
MATERIAL
  5
EE
102
{ACAD_XDICTIONARY
360
173
102
}
102
{ACAD_REACTORS
330
6A
102
}
330
6A
100
AcDbMaterial
  1
Global
 43
0.0007999999797903
 43
0.0
 43
0.0
 43
0.0
 43
0.0
 43
0.0007999999797903
 43
0.0
 43
0.0
 43
0.0
 43
0.0
 43
1.0
 43
0.0
 43
0.0
 43
0.0
 43
0.0
 43
1.0
 49
0.0007999999797903
 49
0.0
 49
0.0
 49
0.0
 49
0.0
 49
0.0007999999797903
 49
0.0
 49
0.0
 49
0.0
 49
0.0
 49
1.0
 49
0.0
 49
0.0
 49
0.0
 49
0.0
 49
1.0
142
0.0007999999797903
142
0.0
142
0.0
142
0.0
142
0.0
142
0.0007999999797903
142
0.0
142
0.0
142
0.0
142
0.0
142
1.0
142
0.0
142
0.0
142
0.0
142
0.0
142
1.0
144
0.0007999999797903
144
0.0
144
0.0
144
0.0
144
0.0
144
0.0007999999797903
144
0.0
144
0.0
144
0.0
144
0.0
144
1.0
144
0.0
144
0.0
144
0.0
144
0.0
144
1.0
1001
ACAD
1070
    -1
1070
     3
1070
     0
1000

1071
        0
1070
     0
  0
MLEADERSTYLE
  5
13B
102
{ACAD_REACTORS
330
12D
102
}
330
12D
100
AcDbMLeaderStyle
170
     2
171
     1
172
     0
 90
        2
 40
0.0
 41
0.0
173
     1
 91
-1056964608
340
14
 92
       -2
290
     1
 42
2.0
291
     1
 43
8.0
  3
Standard
 44
4.0
300

342
11
174
     1
178
     1
175
     1
176
     0
 93
-1056964608
 45
4.0
292
     0
297
     0
 46
4.0
 94
-1056964608
 47
1.0
 49
1.0
140
1.0
293
     1
141
0.0
294
     1
177
     0
142
1.0
295
     0
296
     1
143
3.75
1001
ACAD_MLEADERVER
1070
     2
  0
MLEADERSTYLE
  5
12E
102
{ACAD_REACTORS
330
12D
102
}
330
12D
100
AcDbMLeaderStyle
170
     2
171
     1
172
     0
 90
        2
 40
0.0
 41
0.0
173
     1
 91
-1056964608
340
14
 92
       -2
290
     1
 42
2.0
291
     1
 43
8.0
  3
Standard
 44
4.0
300

342
11
174
     1
178
     1
175
     1
176
     0
 93
-1056964608
 45
4.0
292
     0
297
     0
 46
4.0
 94
-1056964608
 47
1.0
 49
1.0
140
1.0
293
     1
141
0.0
294
     1
177
     0
142
1.0
295
     0
296
     0
143
3.75
1001
ACAD_MLEADERVER
1070
     2
  0
MLINESTYLE
  5
18
102
{ACAD_REACTORS
330
17
102
}
330
17
100
AcDbMlineStyle
  2
STANDARD
 70
     0
  3

 62
   256
 51
90.0
 52
90.0
 71
     2
 49
0.5
 62
   256
  6
BYLAYER
 49
-0.5
 62
   256
  6
BYLAYER
  0
ACDBPLACEHOLDER
  5
F
102
{ACAD_REACTORS
330
E
102
}
330
E
  0
SCALE
  5
10D
102
{ACAD_REACTORS
330
10C
102
}
330
10C
100
AcDbScale
 70
     0
300
1:1
140
1.0
141
1.0
290
     1
  0
SCALE
  5
188
102
{ACAD_REACTORS
330
10C
102
}
330
10C
100
AcDbScale
 70
     0
300
1:2
140
1.0
141
2.0
290
     0
  0
SCALE
  5
189
102
{ACAD_REACTORS
330
10C
102
}
330
10C
100
AcDbScale
 70
     0
300
1:4
140
1.0
141
4.0
290
     0
  0
SCALE
  5
18A
102
{ACAD_REACTORS
330
10C
102
}
330
10C
100
AcDbScale
 70
     0
300
1:5
140
1.0
141
5.0
290
     0
  0
SCALE
  5
18B
102
{ACAD_REACTORS
330
10C
102
}
330
10C
100
AcDbScale
 70
     0
300
1:8
140
1.0
141
8.0
290
     0
  0
SCALE
  5
18C
102
{ACAD_REACTORS
330
10C
102
}
330
10C
100
AcDbScale
 70
     0
300
1:10
140
1.0
141
10.0
290
     0
  0
SCALE
  5
18D
102
{ACAD_REACTORS
330
10C
102
}
330
10C
100
AcDbScale
 70
     0
300
1:16
140
1.0
141
16.0
290
     0
  0
SCALE
  5
18E
102
{ACAD_REACTORS
330
10C
102
}
330
10C
100
AcDbScale
 70
     0
300
1:20
140
1.0
141
20.0
290
     0
  0
SCALE
  5
18F
102
{ACAD_REACTORS
330
10C
102
}
330
10C
100
AcDbScale
 70
     0
300
1:30
140
1.0
141
30.0
290
     0
  0
SCALE
  5
190
102
{ACAD_REACTORS
330
10C
102
}
330
10C
100
AcDbScale
 70
     0
300
1:40
140
1.0
141
40.0
290
     0
  0
SCALE
  5
191
102
{ACAD_REACTORS
330
10C
102
}
330
10C
100
AcDbScale
 70
     0
300
1:50
140
1.0
141
50.0
290
     0
  0
SCALE
  5
192
102
{ACAD_REACTORS
330
10C
102
}
330
10C
100
AcDbScale
 70
     0
300
1:100
140
1.0
141
100.0
290
     0
  0
SCALE
  5
193
102
{ACAD_REACTORS
330
10C
102
}
330
10C
100
AcDbScale
 70
     0
300
2:1
140
2.0
141
1.0
290
     0
  0
SCALE
  5
194
102
{ACAD_REACTORS
330
10C
102
}
330
10C
100
AcDbScale
 70
     0
300
4:1
140
4.0
141
1.0
290
     0
  0
SCALE
  5
195
102
{ACAD_REACTORS
330
10C
102
}
330
10C
100
AcDbScale
 70
     0
300
8:1
140
8.0
141
1.0
290
     0
  0
SCALE
  5
196
102
{ACAD_REACTORS
330
10C
102
}
330
10C
100
AcDbScale
 70
     0
300
10:1
140
10.0
141
1.0
290
     0
  0
SCALE
  5
197
102
{ACAD_REACTORS
330
10C
102
}
330
10C
100
AcDbScale
 70
     0
300
100:1
140
100.0
141
1.0
290
     0
  0
SCALE
  5
198
102
{ACAD_REACTORS
330
10C
102
}
330
10C
100
AcDbScale
 70
     0
300
1/128" = 1'-0"
140
0.0078125
141
12.0
290
     0
  0
SCALE
  5
199
102
{ACAD_REACTORS
330
10C
102
}
330
10C
100
AcDbScale
 70
     0
300
1/64" = 1'-0"
140
0.015625
141
12.0
290
     0
  0
SCALE
  5
19A
102
{ACAD_REACTORS
330
10C
102
}
330
10C
100
AcDbScale
 70
     0
300
1/32" = 1'-0"
140
0.03125
141
12.0
290
     0
  0
SCALE
  5
19B
102
{ACAD_REACTORS
330
10C
102
}
330
10C
100
AcDbScale
 70
     0
300
1/16" = 1'-0"
140
0.0625
141
12.0
290
     0
  0
SCALE
  5
19C
102
{ACAD_REACTORS
330
10C
102
}
330
10C
100
AcDbScale
 70
     0
300
3/32" = 1'-0"
140
0.09375
141
12.0
290
     0
  0
SCALE
  5
19D
102
{ACAD_REACTORS
330
10C
102
}
330
10C
100
AcDbScale
 70
     0
300
1/8" = 1'-0"
140
0.125
141
12.0
290
     0
  0
SCALE
  5
19E
102
{ACAD_REACTORS
330
10C
102
}
330
10C
100
AcDbScale
 70
     0
300
3/16" = 1'-0"
140
0.1875
141
12.0
290
     0
  0
SCALE
  5
19F
102
{ACAD_REACTORS
330
10C
102
}
330
10C
100
AcDbScale
 70
     0
300
1/4" = 1'-0"
140
0.25
141
12.0
290
     0
  0
SCALE
  5
1A0
102
{ACAD_REACTORS
330
10C
102
}
330
10C
100
AcDbScale
 70
     0
300
3/8" = 1'-0"
140
0.375
141
12.0
290
     0
  0
SCALE
  5
1A1
102
{ACAD_REACTORS
330
10C
102
}
330
10C
100
AcDbScale
 70
     0
300
1/2" = 1'-0"
140
0.5
141
12.0
290
     0
  0
SCALE
  5
1A2
102
{ACAD_REACTORS
330
10C
102
}
330
10C
100
AcDbScale
 70
     0
300
3/4" = 1'-0"
140
0.75
141
12.0
290
     0
  0
SCALE
  5
1A3
102
{ACAD_REACTORS
330
10C
102
}
330
10C
100
AcDbScale
 70
     0
300
1" = 1'-0"
140
1.0
141
12.0
290
     0
  0
SCALE
  5
1A4
102
{ACAD_REACTORS
330
10C
102
}
330
10C
100
AcDbScale
 70
     0
300
1-1/2" = 1'-0"
140
1.5
141
12.0
290
     0
  0
SCALE
  5
1A5
102
{ACAD_REACTORS
330
10C
102
}
330
10C
100
AcDbScale
 70
     0
300
3" = 1'-0"
140
3.0
141
12.0
290
     0
  0
SCALE
  5
1A6
102
{ACAD_REACTORS
330
10C
102
}
330
10C
100
AcDbScale
 70
     0
300
6" = 1'-0"
140
6.0
141
12.0
290
     0
  0
SCALE
  5
1A7
102
{ACAD_REACTORS
330
10C
102
}
330
10C
100
AcDbScale
 70
     0
300
1'-0" = 1'-0"
140
12.0
141
12.0
290
     0
  0
TABLESTYLE
  5
7F
102
{ACAD_XDICTIONARY
360
162
102
}
102
{ACAD_REACTORS
330
7E
102
}
330
7E
100
AcDbTableStyle
  3
Standard
 70
     0
 71
     0
 40
1.5
 41
1.5
280
     0
281
     0
  7
Standard
140
4.5
170
     2
 62
     0
 63
     7
283
     0
274
    -2
284
     1
 64
     0
275
    -2
285
     1
 65
     0
276
    -2
286
     1
 66
     0
277
    -2
287
     1
 67
     0
278
    -2
288
     1
 68
     0
279
    -2
289
     1
 69
     0
  7
Standard
140
6.0
170
     5
 62
     0
 63
     7
283
     0
274
    -2
284
     1
 64
     0
275
    -2
285
     1
 65
     0
276
    -2
286
     1
 66
     0
277
    -2
287
     1
 67
     0
278
    -2
288
     1
 68
     0
279
    -2
289
     1
 69
     0
  7
Standard
140
4.5
170
     5
 62
     0
 63
     7
283
     0
274
    -2
284
     1
 64
     0
275
    -2
285
     1
 65
     0
276
    -2
286
     1
 66
     0
277
    -2
287
     1
 67
     0
278
    -2
288
     1
 68
     0
279
    -2
289
     1
 69
     0
  0
VISUALSTYLE
  5
F5
102
{ACAD_REACTORS
330
EF
102
}
330
EF
100
AcDbVisualStyle
  2
2dWireframe
 70
     4
 71
     0
 72
     2
 73
     1
 90
        0
 40
-0.6
 41
-30.0
 62
     5
 63
     7
 74
     1
 91
        4
 64
     7
 65
   257
 75
     1
175
     1
 42
1.0
 92
        0
 66
   257
 43
1.0
 76
     1
 77
     6
 78
     2
 67
     7
 79
     5
170
     0
171
     0
290
     0
174
     0
 93
        1
 44
0.0
173
     0
291
     0
 45
0.0
1001
ACAD
1000
AcDbSavedByObjectVersion
1070
     0
  0
VISUALSTYLE
  5
F7
102
{ACAD_REACTORS
330
EF
102
}
330
EF
100
AcDbVisualStyle
  2
3D Hidden
 70
     6
 71
     1
 72
     2
 73
     2
 90
        0
 40
-0.6
 41
-30.0
 62
     5
 63
     7
 74
     2
 91
        2
 64
     7
 65
   257
 75
     2
175
     1
 42
40.0
 92
        0
 66
   257
 43
1.0
 76
     1
 77
     6
 78
     2
 67
     7
 79
     3
170
     0
171
     0
290
     0
174
     0
 93
        1
 44
0.0
173
     0
291
     0
 45
0.0
1001
ACAD
1000
AcDbSavedByObjectVersion
1070
     0
  0
VISUALSTYLE
  5
F6
102
{ACAD_REACTORS
330
EF
102
}
330
EF
100
AcDbVisualStyle
  2
3dWireframe
 70
     5
 71
     0
 72
     2
 73
     1
 90
        0
 40
-0.6
 41
-30.0
 62
     5
 63
     7
 74
     1
 91
        4
 64
     7
 65
   257
 75
     1
175
     1
 42
1.0
 92
        0
 66
   257
 43
1.0
 76
     1
 77
     6
 78
     2
 67
     7
 79
     5
170
     0
171
     0
290
     0
174
     0
 93
        1
 44
0.0
173
     0
291
     0
 45
0.0
1001
ACAD
1000
AcDbSavedByObjectVersion
1070
     0
  0
VISUALSTYLE
  5
F4
102
{ACAD_REACTORS
330
EF
102
}
330
EF
100
AcDbVisualStyle
  2
Basic
 70
     7
 71
     1
 72
     0
 73
     1
 90
        0
 40
-0.6
 41
-30.0
 62
     5
 63
     7
 74
     0
 91
        4
 64
     7
 65
   257
 75
     1
175
     1
 42
1.0
 92
        8
 66
     7
 43
1.0
 76
     1
 77
     6
 78
     2
 67
     7
 79
     5
170
     0
171
     0
290
     0
174
     0
 93
        1
 44
0.0
173
     0
291
     1
 45
0.0
1001
ACAD
1000
AcDbSavedByObjectVersion
1070
     0
  0
VISUALSTYLE
  5
FB
102
{ACAD_REACTORS
330
EF
102
}
330
EF
100
AcDbVisualStyle
  2
Brighten
 70
    12
 71
     2
 72
     2
 73
     1
 90
        0
 40
-0.6
 41
-30.0
 62
     5
 63
     7
 74
     1
 91
        4
 64
     7
 65
   257
 75
     1
175
     1
 42
1.0
 92
        8
 66
     7
 43
1.0
 76
     1
 77
     6
 78
     2
 67
     7
 79
     5
170
     0
171
     0
290
     0
174
     0
 93
        1
 44
50.0
173
     0
291
     1
 45
0.0
1001
ACAD
1000
AcDbSavedByObjectVersion
1070
     0
  0
VISUALSTYLE
  5
FF
102
{ACAD_REACTORS
330
EF
102
}
330
EF
100
AcDbVisualStyle
  2
ColorChange
 70
    16
 71
     2
 72
     2
 73
     3
 90
        0
 40
-0.6
 41
-30.0
 62
     5
 63
     8
 74
     1
 91
        4
 64
     7
 65
   257
 75
     1
175
     1
 42
1.0
 92
        8
 66
     8
 43
1.0
 76
     1
 77
     6
 78
     2
 67
     7
 79
     5
170
     0
171
     0
290
     0
174
     0
 93
        1
 44
0.0
173
     0
291
     1
 45
0.0
1001
ACAD
1000
AcDbSavedByObjectVersion
1070
     0
  0
VISUALSTYLE
  5
F8
102
{ACAD_REACTORS
330
EF
102
}
330
EF
100
AcDbVisualStyle
  2
Conceptual
 70
     9
 71
     3
 72
     2
 73
     1
 90
        0
 40
-0.6
 41
-30.0
 62
     5
 63
     7
 74
     2
 91
        2
 64
     7
 65
   257
 75
     1
175
     1
 42
40.0
 92
        8
 66
     7
 43
1.0
 76
     1
 77
     6
 78
     2
 67
     7
 79
     3
170
     0
171
     0
290
     0
174
     0
 93
        1
 44
0.0
173
     0
291
     0
 45
0.0
1001
ACAD
1000
AcDbSavedByObjectVersion
1070
     0
  0
VISUALSTYLE
  5
FA
102
{ACAD_REACTORS
330
EF
102
}
330
EF
100
AcDbVisualStyle
  2
Dim
 70
    11
 71
     2
 72
     2
 73
     1
 90
        0
 40
-0.6
 41
-30.0
 62
     5
 63
     7
 74
     1
 91
        4
 64
     7
 65
   257
 75
     1
175
     1
 42
1.0
 92
        8
 66
     7
 43
1.0
 76
     1
 77
     6
 78
     2
 67
     7
 79
     5
170
     0
171
     0
290
     0
174
     0
 93
        1
 44
-50.0
173
     0
291
     1
 45
0.0
1001
ACAD
1000
AcDbSavedByObjectVersion
1070
     0
  0
VISUALSTYLE
  5
FE
102
{ACAD_REACTORS
330
EF
102
}
330
EF
100
AcDbVisualStyle
  2
Facepattern
 70
    15
 71
     2
 72
     2
 73
     1
 90
        0
 40
-0.6
 41
-30.0
 62
     5
 63
     7
 74
     1
 91
        4
 64
     7
 65
   257
 75
     1
175
     1
 42
1.0
 92
        8
 66
     7
 43
1.0
 76
     1
 77
     6
 78
     2
 67
     7
 79
     5
170
     0
171
     0
290
     0
174
     0
 93
        1
 44
0.0
173
     0
291
     1
 45
0.0
1001
ACAD
1000
AcDbSavedByObjectVersion
1070
     0
  0
VISUALSTYLE
  5
F0
102
{ACAD_REACTORS
330
EF
102
}
330
EF
100
AcDbVisualStyle
  2
Flat
 70
     0
 71
     2
 72
     1
 73
     1
 90
        2
 40
-0.6
 41
30.0
 62
     5
 63
     7
 74
     0
 91
        4
 64
     7
 65
   257
 75
     1
175
     1
 42
1.0
 92
        8
 66
     7
 43
1.0
 76
     1
 77
     6
 78
     2
 67
     7
 79
     5
170
     0
171
     0
290
     0
174
     0
 93
        1
 44
0.0
173
     0
291
     1
 45
0.0
1001
ACAD
1000
AcDbSavedByObjectVersion
1070
     0
  0
VISUALSTYLE
  5
F1
102
{ACAD_REACTORS
330
EF
102
}
330
EF
100
AcDbVisualStyle
  2
FlatWithEdges
 70
     1
 71
     2
 72
     1
 73
     1
 90
        2
 40
-0.6
 41
30.0
 62
     5
 63
     7
 74
     1
 91
        4
 64
     7
 65
   257
 75
     1
175
     1
 42
1.0
 92
        0
 66
   257
 43
1.0
 76
     1
 77
     6
 78
     2
 67
     7
 79
     5
170
     0
171
     0
290
     0
174
     0
 93
        1
 44
0.0
173
     0
291
     1
 45
0.0
1001
ACAD
1000
AcDbSavedByObjectVersion
1070
     0
  0
VISUALSTYLE
  5
F2
102
{ACAD_REACTORS
330
EF
102
}
330
EF
100
AcDbVisualStyle
  2
Gouraud
 70
     2
 71
     2
 72
     2
 73
     1
 90
        2
 40
-0.6
 41
30.0
 62
     5
 63
     7
 74
     0
 91
        4
 64
     7
 65
   257
 75
     1
175
     1
 42
1.0
 92
        0
 66
     7
 43
1.0
 76
     1
 77
     6
 78
     2
 67
     7
 79
     5
170
     0
171
     0
290
     0
174
     0
 93
        1
 44
0.0
173
     0
291
     1
 45
0.0
1001
ACAD
1000
AcDbSavedByObjectVersion
1070
     0
  0
VISUALSTYLE
  5
F3
102
{ACAD_REACTORS
330
EF
102
}
330
EF
100
AcDbVisualStyle
  2
GouraudWithEdges
 70
     3
 71
     2
 72
     2
 73
     1
 90
        2
 40
-0.6
 41
30.0
 62
     5
 63
     7
 74
     1
 91
        4
 64
     7
 65
   257
 75
     1
175
     1
 42
1.0
 92
        0
 66
   257
 43
1.0
 76
     1
 77
     6
 78
     2
 67
     7
 79
     5
170
     0
171
     0
290
     0
174
     0
 93
        1
 44
0.0
173
     0
291
     1
 45
0.0
1001
ACAD
1000
AcDbSavedByObjectVersion
1070
     0
  0
VISUALSTYLE
  5
FD
102
{ACAD_REACTORS
330
EF
102
}
330
EF
100
AcDbVisualStyle
  2
Linepattern
 70
    14
 71
     2
 72
     2
 73
     1
 90
        0
 40
-0.6
 41
-30.0
 62
     5
 63
     7
 74
     1
 91
        4
 64
     7
 65
   257
 75
     7
175
     7
 42
1.0
 92
        8
 66
     7
 43
1.0
 76
     1
 77
     6
 78
     2
 67
     7
 79
     5
170
     0
171
     0
290
     0
174
     0
 93
        1
 44
0.0
173
     0
291
     1
 45
0.0
1001
ACAD
1000
AcDbSavedByObjectVersion
1070
     0
  0
VISUALSTYLE
  5
F9
102
{ACAD_REACTORS
330
EF
102
}
330
EF
100
AcDbVisualStyle
  2
Realistic
 70
     8
 71
     2
 72
     2
 73
     1
 90
        0
 40
-0.6
 41
-30.0
 62
     5
 63
     7
 74
     1
 91
        0
 64
     7
 65
   257
 75
     1
175
     1
 42
1.0
 92
        8
 66
     8
 43
1.0
 76
     1
 77
     6
 78
     2
 67
     7
 79
     5
170
     0
171
     0
290
     0
174
     0
 93
       13
 44
0.0
173
     0
291
     0
 45
0.0
1001
ACAD
1000
AcDbSavedByObjectVersion
1070
     0
  0
VISUALSTYLE
  5
FC
102
{ACAD_REACTORS
330
EF
102
}
330
EF
100
AcDbVisualStyle
  2
Thicken
 70
    13
 71
     2
 72
     2
 73
     1
 90
        0
 40
-0.6
 41
-30.0
 62
     5
 63
     7
 74
     1
 91
        4
 64
     7
 65
   257
 75
     1
175
     1
 42
1.0
 92
       12
 66
     7
 43
1.0
 76
     1
 77
     6
 78
     2
 67
     7
 79
     5
170
     0
171
     0
290
     0
174
     0
 93
        1
 44
0.0
173
     0
291
     1
 45
0.0
1001
ACAD
1000
AcDbSavedByObjectVersion
1070
     0
  0
DICTIONARYVAR
  5
146
102
{ACAD_REACTORS
330
5E
102
}
330
5E
100
DictionaryVariables
280
     0
  1
1:1
  0
DICTIONARYVAR
  5
145
102
{ACAD_REACTORS
330
5E
102
}
330
5E
100
DictionaryVariables
280
     0
  1
STANDARD
  0
DICTIONARYVAR
  5
84
102
{ACAD_REACTORS
330
5E
102
}
330
5E
100
DictionaryVariables
280
     0
  1
STANDARD
  0
DICTIONARYVAR
  5
5F
102
{ACAD_REACTORS
330
5E
102
}
330
5E
100
DictionaryVariables
280
     0
  1
2
  0
DICTIONARYVAR
  5
63
102
{ACAD_REACTORS
330
5E
102
}
330
5E
100
DictionaryVariables
280
     0
  1
1
  0
DICTIONARYVAR
  5
82A
102
{ACAD_REACTORS
330
5E
102
}
330
5E
100
DictionaryVariables
280
     0
  1
0
  0
DICTIONARYVAR
  5
828
102
{ACAD_REACTORS
330
5E
102
}
330
5E
100
DictionaryVariables
280
     0
  1
2
  0
DICTIONARYVAR
  5
827
102
{ACAD_REACTORS
330
5E
102
}
330
5E
100
DictionaryVariables
280
     0
  1
1
  0
DICTIONARYVAR
  5
82C
102
{ACAD_REACTORS
330
5E
102
}
330
5E
100
DictionaryVariables
280
     0
  1
80.000000
  0
DICTIONARYVAR
  5
82B
102
{ACAD_REACTORS
330
5E
102
}
330
5E
100
DictionaryVariables
280
     0
  1
5.000000
  0
DICTIONARYVAR
  5
829
102
{ACAD_REACTORS
330
5E
102
}
330
5E
100
DictionaryVariables
280
     0
  1
127
  0
DICTIONARY
  5
832
330
D3
100
AcDbDictionary
280
     1
281
     1
  3
ACAD_XREC_ROUNDTRIP
360
833
  0
DICTIONARY
  5
834
330
D7
100
AcDbDictionary
280
     1
281
     1
  3
ACAD_XREC_ROUNDTRIP
360
835
  0
DICTIONARY
  5
82F
330
22
100
AcDbDictionary
280
     1
281
     1
  3
ACAD_XREC_ROUNDTRIP
360
830
  0
DICTIONARY
  5
838
330
ED
100
AcDbDictionary
280
     1
281
     1
  3
ACAD_XREC_ROUNDTRIP
360
839
  0
DICTIONARY
  5
836
330
EC
100
AcDbDictionary
280
     1
281
     1
  3
ACAD_XREC_ROUNDTRIP
360
837
  0
DICTIONARY
  5
173
330
EE
100
AcDbDictionary
280
     1
281
     1
  3
ACAD_XREC_ROUNDTRIP
360
83A
  3
BUMPTILE
360
175
  3
DIFFUSETILE
360
174
  3
OPACITYTILE
360
176
  3
REFLECTIONTILE
360
177
  0
DICTIONARY
  5
162
330
7F
100
AcDbDictionary
280
     1
281
     1
  3
ACAD_ROUNDTRIP_2008_TABLESTYLE_CELLSTYLEMAP
360
82D
  3
ACAD_XREC_ROUNDTRIP
360
831
  0
XRECORD
  5
833
102
{ACAD_REACTORS
330
832
102
}
330
832
100
AcDbXrecord
280
     1
102
SHADEPLOT
 70
     0
102
SHADEPLOTRESLEVEL
 70
     2
102
SHADEPLOTCUSTOMDPI
 70
   300
  0
XRECORD
  5
835
102
{ACAD_REACTORS
330
834
102
}
330
834
100
AcDbXrecord
280
     1
102
SHADEPLOT
 70
     0
102
SHADEPLOTRESLEVEL
 70
     2
102
SHADEPLOTCUSTOMDPI
 70
   300
  0
XRECORD
  5
830
102
{ACAD_REACTORS
330
82F
102
}
330
82F
100
AcDbXrecord
280
     1
102
SHADEPLOT
 70
     0
102
SHADEPLOTRESLEVEL
 70
     2
102
SHADEPLOTCUSTOMDPI
 70
   300
  0
XRECORD
  5
839
102
{ACAD_REACTORS
330
838
102
}
330
838
100
AcDbXrecord
280
     1
102
MATERIAL
148
0.0
149
0.0
149
0.0
 93
        0
 94
       63
282
     0
 72
     1
 77
     1
171
     1
175
     1
179
     1
273
     0
  0
XRECORD
  5
837
102
{ACAD_REACTORS
330
836
102
}
330
836
100
AcDbXrecord
280
     1
102
MATERIAL
148
0.0
149
0.0
149
0.0
 93
        0
 94
       63
282
     0
 72
     1
 77
     1
171
     1
175
     1
179
     1
273
     0
  0
XRECORD
  5
83A
102
{ACAD_REACTORS
330
173
102
}
330
173
100
AcDbXrecord
280
     1
102
MATERIAL
148
0.0
149
0.0
149
0.0
 93
        0
 94
       63
282
     0
 72
     1
 77
     1
171
     1
175
     1
179
     1
273
     0
  0
XRECORD
  5
175
102
{ACAD_REACTORS
330
173
102
}
330
173
100
AcDbXrecord
280
     1
270
     1
271
     1
  0
XRECORD
  5
174
102
{ACAD_REACTORS
330
173
102
}
330
173
100
AcDbXrecord
280
     1
270
     1
271
     1
  0
XRECORD
  5
176
102
{ACAD_REACTORS
330
173
102
}
330
173
100
AcDbXrecord
280
     1
270
     1
271
     1
  0
XRECORD
  5
177
102
{ACAD_REACTORS
330
173
102
}
330
173
100
AcDbXrecord
280
     1
270
     1
271
     1
  0
CELLSTYLEMAP
  5
82D
102
{ACAD_REACTORS
330
162
102
}
330
162
100
AcDbCellStyleMap
 90
        3
300
CELLSTYLE
  1
TABLEFORMAT_BEGIN
 90
        5
170
     1
 91
        0
 92
    32768
 62
   257
 93
        1
300
CONTENTFORMAT
  1
CONTENTFORMAT_BEGIN
 90
        0
 91
        0
 92
      512
 93
        0
300

 40
0.0
140
1.0
 94
        5
 62
     0
340
11
144
6.0
309
CONTENTFORMAT_END
171
     1
301
MARGIN
  1
CELLMARGIN_BEGIN
 40
1.5
 40
1.5
 40
1.5
 40
1.5
 40
4.5
 40
4.5
309
CELLMARGIN_END
 94
        6
 95
        1
302
GRIDFORMAT
  1
GRIDFORMAT_BEGIN
 90
        0
 91
        1
 62
     0
 92
       -2
340
14
 93
        0
 40
1.125
309
GRIDFORMAT_END
 95
        2
302
GRIDFORMAT
  1
GRIDFORMAT_BEGIN
 90
        0
 91
        1
 62
     0
 92
       -2
340
14
 93
        0
 40
1.125
309
GRIDFORMAT_END
 95
        4
302
GRIDFORMAT
  1
GRIDFORMAT_BEGIN
 90
        0
 91
        1
 62
     0
 92
       -2
340
14
 93
        0
 40
1.125
309
GRIDFORMAT_END
 95
        8
302
GRIDFORMAT
  1
GRIDFORMAT_BEGIN
 90
        0
 91
        1
 62
     0
 92
       -2
340
14
 93
        0
 40
1.125
309
GRIDFORMAT_END
 95
       16
302
GRIDFORMAT
  1
GRIDFORMAT_BEGIN
 90
        0
 91
        1
 62
     0
 92
       -2
340
14
 93
        0
 40
1.125
309
GRIDFORMAT_END
 95
       32
302
GRIDFORMAT
  1
GRIDFORMAT_BEGIN
 90
        0
 91
        1
 62
     0
 92
       -2
340
14
 93
        0
 40
1.125
309
GRIDFORMAT_END
309
TABLEFORMAT_END
  1
CELLSTYLE_BEGIN
 90
        1
 91
        1
300
_TITLE
309
CELLSTYLE_END
300
CELLSTYLE
  1
TABLEFORMAT_BEGIN
 90
        5
170
     1
 91
        0
 92
        0
 62
   257
 93
        1
300
CONTENTFORMAT
  1
CONTENTFORMAT_BEGIN
 90
        0
 91
        0
 92
      512
 93
        0
300

 40
0.0
140
1.0
 94
        5
 62
     0
340
11
144
4.5
309
CONTENTFORMAT_END
171
     1
301
MARGIN
  1
CELLMARGIN_BEGIN
 40
1.5
 40
1.5
 40
1.5
 40
1.5
 40
4.5
 40
4.5
309
CELLMARGIN_END
 94
        6
 95
        1
302
GRIDFORMAT
  1
GRIDFORMAT_BEGIN
 90
        0
 91
        1
 62
     0
 92
       -2
340
14
 93
        0
 40
1.125
309
GRIDFORMAT_END
 95
        2
302
GRIDFORMAT
  1
GRIDFORMAT_BEGIN
 90
        0
 91
        1
 62
     0
 92
       -2
340
14
 93
        0
 40
1.125
309
GRIDFORMAT_END
 95
        4
302
GRIDFORMAT
  1
GRIDFORMAT_BEGIN
 90
        0
 91
        1
 62
     0
 92
       -2
340
14
 93
        0
 40
1.125
309
GRIDFORMAT_END
 95
        8
302
GRIDFORMAT
  1
GRIDFORMAT_BEGIN
 90
        0
 91
        1
 62
     0
 92
       -2
340
14
 93
        0
 40
1.125
309
GRIDFORMAT_END
 95
       16
302
GRIDFORMAT
  1
GRIDFORMAT_BEGIN
 90
        0
 91
        1
 62
     0
 92
       -2
340
14
 93
        0
 40
1.125
309
GRIDFORMAT_END
 95
       32
302
GRIDFORMAT
  1
GRIDFORMAT_BEGIN
 90
        0
 91
        1
 62
     0
 92
       -2
340
14
 93
        0
 40
1.125
309
GRIDFORMAT_END
309
TABLEFORMAT_END
  1
CELLSTYLE_BEGIN
 90
        2
 91
        1
300
_HEADER
309
CELLSTYLE_END
300
CELLSTYLE
  1
TABLEFORMAT_BEGIN
 90
        5
170
     1
 91
        0
 92
        0
 62
   257
 93
        1
300
CONTENTFORMAT
  1
CONTENTFORMAT_BEGIN
 90
        0
 91
        0
 92
      512
 93
        0
300

 40
0.0
140
1.0
 94
        2
 62
     0
340
11
144
4.5
309
CONTENTFORMAT_END
171
     1
301
MARGIN
  1
CELLMARGIN_BEGIN
 40
1.5
 40
1.5
 40
1.5
 40
1.5
 40
4.5
 40
4.5
309
CELLMARGIN_END
 94
        6
 95
        1
302
GRIDFORMAT
  1
GRIDFORMAT_BEGIN
 90
        0
 91
        1
 62
     0
 92
       -2
340
14
 93
        0
 40
1.125
309
GRIDFORMAT_END
 95
        2
302
GRIDFORMAT
  1
GRIDFORMAT_BEGIN
 90
        0
 91
        1
 62
     0
 92
       -2
340
14
 93
        0
 40
1.125
309
GRIDFORMAT_END
 95
        4
302
GRIDFORMAT
  1
GRIDFORMAT_BEGIN
 90
        0
 91
        1
 62
     0
 92
       -2
340
14
 93
        0
 40
1.125
309
GRIDFORMAT_END
 95
        8
302
GRIDFORMAT
  1
GRIDFORMAT_BEGIN
 90
        0
 91
        1
 62
     0
 92
       -2
340
14
 93
        0
 40
1.125
309
GRIDFORMAT_END
 95
       16
302
GRIDFORMAT
  1
GRIDFORMAT_BEGIN
 90
        0
 91
        1
 62
     0
 92
       -2
340
14
 93
        0
 40
1.125
309
GRIDFORMAT_END
 95
       32
302
GRIDFORMAT
  1
GRIDFORMAT_BEGIN
 90
        0
 91
        1
 62
     0
 92
       -2
340
14
 93
        0
 40
1.125
309
GRIDFORMAT_END
309
TABLEFORMAT_END
  1
CELLSTYLE_BEGIN
 90
        3
 91
        2
300
_DATA
309
CELLSTYLE_END
  0
XRECORD
  5
831
102
{ACAD_REACTORS
330
162
102
}
330
162
100
AcDbXrecord
280
     1
102
ACAD_ROUNDTRIP_PRE2007_TABLESTYLE
 90
      512
 91
        0
  1

 92
      512
 93
        0
  2

 94
      512
 95
        0
  3

  0
ENDSEC
  0
EOF
