  0
SECTION
  2
HEADER
  9
$ACADVER
  1
AC1015
  9
$ACADMAINTVER
 70
    20
  9
$DWGCODEPAGE
  3
ANSI_1254
  9
$INSBASE
 10
0.0
 20
0.0
 30
0.0
  9
$EXTMIN
 10
1986.243563501848
 20
955.7806518779571
 30
0.0
  9
$EXTMAX
 10
2076.030723599238
 20
1002.67735963657
 30
0.0
  9
$LIMMIN
 10
0.0
 20
0.0
  9
$LIMMAX
 10
420.0
 20
297.0
  9
$ORTHOMODE
 70
     0
  9
$REGENMODE
 70
     1
  9
$FILLMODE
 70
     1
  9
$QTEXTMODE
 70
     0
  9
$MIRRTEXT
 70
     0
  9
$LTSCALE
 40
1.0
  9
$ATTMODE
 70
     1
  9
$TEXTSIZE
 40
2.5
  9
$TRACEWID
 40
1.0
  9
$TEXTSTYLE
  7
Standard
  9
$CLAYER
  8
0
  9
$CELTYPE
  6
ByLayer
  9
$CECOLOR
 62
   256
  9
$CELTSCALE
 40
1.0
  9
$DISPSILH
 70
     0
  9
$DIMSCALE
 40
1.0
  9
$DIMASZ
 40
2.5
  9
$DIMEXO
 40
0.625
  9
$DIMDLI
 40
3.75
  9
$DIMRND
 40
0.0
  9
$DIMDLE
 40
0.0
  9
$DIMEXE
 40
1.25
  9
$DIMTP
 40
0.0
  9
$DIMTM
 40
0.0
  9
$DIMTXT
 40
2.5
  9
$DIMCEN
 40
2.5
  9
$DIMTSZ
 40
0.0
  9
$DIMTOL
 70
     0
  9
$DIMLIM
 70
     0
  9
$DIMTIH
 70
     0
  9
$DIMTOH
 70
     0
  9
$DIMSE1
 70
     0
  9
$DIMSE2
 70
     0
  9
$DIMTAD
 70
     1
  9
$DIMZIN
 70
     8
  9
$DIMBLK
  1

  9
$DIMASO
 70
     1
  9
$DIMSHO
 70
     1
  9
$DIMPOST
  1

  9
$DIMAPOST
  1

  9
$DIMALT
 70
     0
  9
$DIMALTD
 70
     3
  9
$DIMALTF
 40
0.03937007874016
  9
$DIMLFAC
 40
1.0
  9
$DIMTOFL
 70
     1
  9
$DIMTVP
 40
0.0
  9
$DIMTIX
 70
     0
  9
$DIMSOXD
 70
     0
  9
$DIMSAH
 70
     0
  9
$DIMBLK1
  1

  9
$DIMBLK2
  1

  9
$DIMSTYLE
  2
ISO-25
  9
$DIMCLRD
 70
     0
  9
$DIMCLRE
 70
     0
  9
$DIMCLRT
 70
     0
  9
$DIMTFAC
 40
1.0
  9
$DIMGAP
 40
0.625
  9
$DIMJUST
 70
     0
  9
$DIMSD1
 70
     0
  9
$DIMSD2
 70
     0
  9
$DIMTOLJ
 70
     0
  9
$DIMTZIN
 70
     8
  9
$DIMALTZ
 70
     0
  9
$DIMALTTZ
 70
     0
  9
$DIMUPT
 70
     0
  9
$DIMDEC
 70
     2
  9
$DIMTDEC
 70
     2
  9
$DIMALTU
 70
     2
  9
$DIMALTTD
 70
     3
  9
$DIMTXSTY
  7
Standard
  9
$DIMAUNIT
 70
     0
  9
$DIMADEC
 70
     0
  9
$DIMALTRND
 40
0.0
  9
$DIMAZIN
 70
     0
  9
$DIMDSEP
 70
    44
  9
$DIMATFIT
 70
     3
  9
$DIMFRAC
 70
     0
  9
$DIMLDRBLK
  1

  9
$DIMLUNIT
 70
     2
  9
$DIMLWD
 70
    -2
  9
$DIMLWE
 70
    -2
  9
$DIMTMOVE
 70
     0
  9
$LUNITS
 70
     2
  9
$LUPREC
 70
     4
  9
$SKETCHINC
 40
1.0
  9
$FILLETRAD
 40
0.0
  9
$AUNITS
 70
     0
  9
$AUPREC
 70
     0
  9
$MENU
  1
.
  9
$ELEVATION
 40
0.0
  9
$PELEVATION
 40
0.0
  9
$THICKNESS
 40
0.0
  9
$LIMCHECK
 70
     0
  9
$CHAMFERA
 40
0.0
  9
$CHAMFERB
 40
0.0
  9
$CHAMFERC
 40
0.0
  9
$CHAMFERD
 40
0.0
  9
$SKPOLY
 70
     0
  9
$TDCREATE
 40
2458450.567189306
  9
$TDUCREATE
 40
2458450.442189306
  9
$TDUPDATE
 40
2458956.385143796
  9
$TDUUPDATE
 40
2458956.260143796
  9
$TDINDWG
 40
0.0003917245
  9
$TDUSRTIMER
 40
0.0003917245
  9
$USRTIMER
 70
     1
  9
$ANGBASE
 50
0.0
  9
$ANGDIR
 70
     0
  9
$PDMODE
 70
     0
  9
$PDSIZE
 40
0.0
  9
$PLINEWID
 40
0.0
  9
$SPLFRAME
 70
     0
  9
$SPLINETYPE
 70
     6
  9
$SPLINESEGS
 70
     8
  9
$HANDSEED
  5
588
  9
$SURFTAB1
 70
     6
  9
$SURFTAB2
 70
     6
  9
$SURFTYPE
 70
     6
  9
$SURFU
 70
     6
  9
$SURFV
 70
     6
  9
$UCSBASE
  2

  9
$UCSNAME
  2

  9
$UCSORG
 10
0.0
 20
0.0
 30
0.0
  9
$UCSXDIR
 10
1.0
 20
0.0
 30
0.0
  9
$UCSYDIR
 10
0.0
 20
1.0
 30
0.0
  9
$UCSORTHOREF
  2

  9
$UCSORTHOVIEW
 70
     0
  9
$UCSORGTOP
 10
0.0
 20
0.0
 30
0.0
  9
$UCSORGBOTTOM
 10
0.0
 20
0.0
 30
0.0
  9
$UCSORGLEFT
 10
0.0
 20
0.0
 30
0.0
  9
$UCSORGRIGHT
 10
0.0
 20
0.0
 30
0.0
  9
$UCSORGFRONT
 10
0.0
 20
0.0
 30
0.0
  9
$UCSORGBACK
 10
0.0
 20
0.0
 30
0.0
  9
$PUCSBASE
  2

  9
$PUCSNAME
  2

  9
$PUCSORG
 10
0.0
 20
0.0
 30
0.0
  9
$PUCSXDIR
 10
1.0
 20
0.0
 30
0.0
  9
$PUCSYDIR
 10
0.0
 20
1.0
 30
0.0
  9
$PUCSORTHOREF
  2

  9
$PUCSORTHOVIEW
 70
     0
  9
$PUCSORGTOP
 10
0.0
 20
0.0
 30
0.0
  9
$PUCSORGBOTTOM
 10
0.0
 20
0.0
 30
0.0
  9
$PUCSORGLEFT
 10
0.0
 20
0.0
 30
0.0
  9
$PUCSORGRIGHT
 10
0.0
 20
0.0
 30
0.0
  9
$PUCSORGFRONT
 10
0.0
 20
0.0
 30
0.0
  9
$PUCSORGBACK
 10
0.0
 20
0.0
 30
0.0
  9
$USERI1
 70
     0
  9
$USERI2
 70
     0
  9
$USERI3
 70
     0
  9
$USERI4
 70
     0
  9
$USERI5
 70
     0
  9
$USERR1
 40
0.0
  9
$USERR2
 40
0.0
  9
$USERR3
 40
0.0
  9
$USERR4
 40
0.0
  9
$USERR5
 40
0.0
  9
$WORLDVIEW
 70
     1
  9
$SHADEDGE
 70
     3
  9
$SHADEDIF
 70
    70
  9
$TILEMODE
 70
     1
  9
$MAXACTVP
 70
    64
  9
$PINSBASE
 10
0.0
 20
0.0
 30
0.0
  9
$PLIMCHECK
 70
     0
  9
$PEXTMIN
 10
0.0
 20
0.0
 30
0.0
  9
$PEXTMAX
 10
0.0
 20
0.0
 30
0.0
  9
$PLIMMIN
 10
0.0
 20
0.0
  9
$PLIMMAX
 10
12.0
 20
9.0
  9
$UNITMODE
 70
     0
  9
$VISRETAIN
 70
     1
  9
$PLINEGEN
 70
     0
  9
$PSLTSCALE
 70
     1
  9
$TREEDEPTH
 70
  3020
  9
$CMLSTYLE
  2
Standard
  9
$CMLJUST
 70
     0
  9
$CMLSCALE
 40
20.0
  9
$PROXYGRAPHICS
 70
     1
  9
$MEASUREMENT
 70
     1
  9
$CELWEIGHT
370
    -1
  9
$ENDCAPS
280
     0
  9
$JOINSTYLE
280
     0
  9
$LWDISPLAY
290
     0
  9
$INSUNITS
 70
     4
  9
$HYPERLINKBASE
  1

  9
$STYLESHEET
  1

  9
$XEDIT
290
     1
  9
$CEPSNTYPE
380
     0
  9
$PSTYLEMODE
290
     1
  9
$FINGERPRINTGUID
  2
{F9A9FAC2-D04B-41C5-AB22-9954109859C7}
  9
$VERSIONGUID
  2
{6EA21733-3831-42E7-8656-044D32DFB809}
  9
$EXTNAMES
290
     1
  9
$PSVPSCALE
 40
0.0
  9
$OLESTARTUP
290
     0
  0
ENDSEC
  0
SECTION
  2
CLASSES
  0
CLASS
  1
ACDBDICTIONARYWDFLT
  2
AcDbDictionaryWithDefault
  3
ObjectDBX Classes
 90
        0
280
     0
281
     0
  0
CLASS
  1
ACDBPLACEHOLDER
  2
AcDbPlaceHolder
  3
ObjectDBX Classes
 90
        0
280
     0
281
     0
  0
CLASS
  1
LAYOUT
  2
AcDbLayout
  3
ObjectDBX Classes
 90
        0
280
     0
281
     0
  0
CLASS
  1
DICTIONARYVAR
  2
AcDbDictionaryVar
  3
ObjectDBX Classes
 90
        0
280
     0
281
     0
  0
CLASS
  1
TABLESTYLE
  2
AcDbTableStyle
  3
ObjectDBX Classes
 90
     4095
280
     0
281
     0
  0
CLASS
  1
MATERIAL
  2
AcDbMaterial
  3
ObjectDBX Classes
 90
     1153
280
     0
281
     0
  0
CLASS
  1
VISUALSTYLE
  2
AcDbVisualStyle
  3
ObjectDBX Classes
 90
     4095
280
     0
281
     0
  0
CLASS
  1
SCALE
  2
AcDbScale
  3
ObjectDBX Classes
 90
     1153
280
     0
281
     0
  0
CLASS
  1
MLEADERSTYLE
  2
AcDbMLeaderStyle
  3
ACDB_MLEADERSTYLE_CLASS
 90
     4095
280
     0
281
     0
  0
CLASS
  1
CELLSTYLEMAP
  2
AcDbCellStyleMap
  3
ObjectDBX Classes
 90
     1152
280
     0
281
     0
  0
ENDSEC
  0
SECTION
  2
TABLES
  0
TABLE
  2
VPORT
  5
8
330
0
100
AcDbSymbolTable
 70
     1
  0
VPORT
  5
EA
330
8
100
AcDbSymbolTableRecord
100
AcDbViewportTableRecord
  2
*Active
 70
     0
 10
0.0
 20
0.0
 11
1.0
 21
1.0
 12
2042.348767380705
 22
980.6794945397497
 13
0.0
 23
0.0
 14
10.0
 24
10.0
 15
10.0
 25
10.0
 16
0.0
 26
0.0
 36
1.0
 17
0.0
 27
0.0
 37
0.0
 40
79.09009892779974
 41
1.903110047846889
 42
50.0
 43
0.0
 44
0.0
 50
0.0
 51
0.0
 71
     0
 72
  1000
 73
     1
 74
     3
 75
     0
 76
     0
 77
     0
 78
     0
281
     0
 65
     1
110
0.0
120
0.0
130
0.0
111
1.0
121
0.0
131
0.0
112
0.0
122
1.0
132
0.0
 79
     0
146
0.0
  0
ENDTAB
  0
TABLE
  2
LTYPE
  5
5
330
0
100
AcDbSymbolTable
 70
     1
  0
LTYPE
  5
14
330
5
100
AcDbSymbolTableRecord
100
AcDbLinetypeTableRecord
  2
ByBlock
 70
     0
  3

 72
    65
 73
     0
 40
0.0
  0
LTYPE
  5
15
330
5
100
AcDbSymbolTableRecord
100
AcDbLinetypeTableRecord
  2
ByLayer
 70
     0
  3

 72
    65
 73
     0
 40
0.0
  0
LTYPE
  5
16
330
5
100
AcDbSymbolTableRecord
100
AcDbLinetypeTableRecord
  2
Continuous
 70
     0
  3
Solid line
 72
    65
 73
     0
 40
0.0
  0
ENDTAB
  0
TABLE
  2
LAYER
  5
2
330
0
100
AcDbSymbolTable
 70
     1
  0
LAYER
  5
10
102
{ACAD_XDICTIONARY
360
13C
102
}
330
2
100
AcDbSymbolTableRecord
100
AcDbLayerTableRecord
  2
0
 70
     0
 62
     7
  6
Continuous
370
    -3
390
F
  0
ENDTAB
  0
TABLE
  2
STYLE
  5
3
330
0
100
AcDbSymbolTable
 70
     2
  0
STYLE
  5
11
330
3
100
AcDbSymbolTableRecord
100
AcDbTextStyleTableRecord
  2
Standard
 70
     0
 40
0.0
 41
1.0
 50
0.0
 71
     0
 42
2.5
  3
txt
  4

  0
STYLE
  5
132
330
3
100
AcDbSymbolTableRecord
100
AcDbTextStyleTableRecord
  2
Annotative
 70
     0
 40
0.0
 41
1.0
 50
0.0
 71
     0
 42
2.5
  3
txt.shx
  4

1001
AcadAnnotative
1000
AnnotativeData
1002
{
1070
     1
1070
     1
1002
}
  0
ENDTAB
  0
TABLE
  2
VIEW
  5
6
330
0
100
AcDbSymbolTable
 70
     0
  0
ENDTAB
  0
TABLE
  2
UCS
  5
7
330
0
100
AcDbSymbolTable
 70
     0
  0
ENDTAB
  0
TABLE
  2
APPID
  5
9
330
0
100
AcDbSymbolTable
 70
     7
  0
APPID
  5
12
330
9
100
AcDbSymbolTableRecord
100
AcDbRegAppTableRecord
  2
ACAD
 70
     0
  0
APPID
  5
9E
330
9
100
AcDbSymbolTableRecord
100
AcDbRegAppTableRecord
  2
ACAD_PSEXT
 70
     0
  0
APPID
  5
133
330
9
100
AcDbSymbolTableRecord
100
AcDbRegAppTableRecord
  2
AcadAnnoPO
 70
     0
  0
APPID
  5
134
330
9
100
AcDbSymbolTableRecord
100
AcDbRegAppTableRecord
  2
AcadAnnotative
 70
     0
  0
APPID
  5
135
330
9
100
AcDbSymbolTableRecord
100
AcDbRegAppTableRecord
  2
ACAD_DSTYLE_DIMJAG
 70
     0
  0
APPID
  5
136
330
9
100
AcDbSymbolTableRecord
100
AcDbRegAppTableRecord
  2
ACAD_DSTYLE_DIMTALN
 70
     0
  0
APPID
  5
165
330
9
100
AcDbSymbolTableRecord
100
AcDbRegAppTableRecord
  2
ACAD_MLEADERVER
 70
     0
  0
ENDTAB
  0
TABLE
  2
DIMSTYLE
  5
A
330
0
100
AcDbSymbolTable
 70
     2
100
AcDbDimStyleTable
 71
     2
340
27
340
137
  0
DIMSTYLE
105
27
330
A
100
AcDbSymbolTableRecord
100
AcDbDimStyleTableRecord
  2
ISO-25
 70
     0
 41
2.5
 42
0.625
 43
3.75
 44
1.25
 73
     0
 74
     0
 77
     1
 78
     8
140
2.5
141
2.5
143
0.03937007874016
147
0.625
171
     3
172
     1
271
     2
272
     2
274
     3
278
    44
283
     0
284
     8
340
11
  0
DIMSTYLE
105
137
330
A
100
AcDbSymbolTableRecord
100
AcDbDimStyleTableRecord
  2
Annotative
 70
     0
 40
0.0
 41
2.5
 42
0.625
 43
3.75
 44
1.25
 73
     0
 74
     0
 77
     1
 78
     8
140
2.5
141
2.5
143
0.03937007874016
147
0.625
171
     3
172
     1
271
     2
272
     2
274
     3
278
    44
283
     0
284
     8
340
11
1001
AcadAnnotative
1000
AnnotativeData
1002
{
1070
     1
1070
     1
1002
}
1001
ACAD_DSTYLE_DIMJAG
1070
   388
1040
1.5
1001
ACAD_DSTYLE_DIMTALN
1070
   392
1070
     0
  0
ENDTAB
  0
TABLE
  2
BLOCK_RECORD
  5
1
330
0
100
AcDbSymbolTable
 70
     5
  0
BLOCK_RECORD
  5
1F
330
1
100
AcDbSymbolTableRecord
100
AcDbBlockTableRecord
  2
*Model_Space
340
22
  0
BLOCK_RECORD
  5
D2
330
1
100
AcDbSymbolTableRecord
100
AcDbBlockTableRecord
  2
*Paper_Space
340
D3
  0
BLOCK_RECORD
  5
D6
330
1
100
AcDbSymbolTableRecord
100
AcDbBlockTableRecord
  2
*Paper_Space0
340
D7
  0
BLOCK_RECORD
  5
423
330
1
100
AcDbSymbolTableRecord
100
AcDbBlockTableRecord
  2
1
340
0
310
2800000020000000200000000100080000000000000400000000000000000000000000000000000000000000000080000080000000808000800000008000800080800000C0C0C000C0DCC000F0CAA6000020400000206000002080000020A0000020C0000020E00000400000004020000040400000406000004080000040A0
310
000040C0000040E00000600000006020000060400000606000006080000060A0000060C0000060E00000800000008020000080400000806000008080000080A0000080C0000080E00000A0000000A0200000A0400000A0600000A0800000A0A00000A0C00000A0E00000C0000000C0200000C0400000C0600000C0800000C0
310
A00000C0C00000C0E00000E0000000E0200000E0400000E0600000E0800000E0A00000E0C00000E0E00040000000400020004000400040006000400080004000A0004000C0004000E00040200000402020004020400040206000402080004020A0004020C0004020E000404000004040200040404000404060004040800040
310
40A0004040C0004040E00040600000406020004060400040606000406080004060A0004060C0004060E00040800000408020004080400040806000408080004080A0004080C0004080E00040A0000040A0200040A0400040A0600040A0800040A0A00040A0C00040A0E00040C0000040C0200040C0400040C0600040C08000
310
40C0A00040C0C00040C0E00040E0000040E0200040E0400040E0600040E0800040E0A00040E0C00040E0E00080000000800020008000400080006000800080008000A0008000C0008000E00080200000802020008020400080206000802080008020A0008020C0008020E00080400000804020008040400080406000804080
310
008040A0008040C0008040E00080600000806020008060400080606000806080008060A0008060C0008060E00080800000808020008080400080806000808080008080A0008080C0008080E00080A0000080A0200080A0400080A0600080A0800080A0A00080A0C00080A0E00080C0000080C0200080C0400080C0600080C0
310
800080C0A00080C0C00080C0E00080E0000080E0200080E0400080E0600080E0800080E0A00080E0C00080E0E000C0000000C0002000C0004000C0006000C0008000C000A000C000C000C000E000C0200000C0202000C0204000C0206000C0208000C020A000C020C000C020E000C0400000C0402000C0404000C0406000C0
310
408000C040A000C040C000C040E000C0600000C0602000C0604000C0606000C0608000C060A000C060C000C060E000C0800000C0802000C0804000C0806000C0808000C080A000C080C000C080E000C0A00000C0A02000C0A04000C0A06000C0A08000C0A0A000C0A0C000C0A0E000C0C00000C0C02000C0C04000C0C06000
310
C0C08000C0C0A000F0FBFF00A4A0A000808080000000FF0000FF000000FFFF00FF000000FF00FF00FFFF0000FFFFFF00000000000000000000000000000000000000000000000000000000000000000000000000FFFFFFFF00000000FFFFFFFFFFFFFFFF00000000FFFFFFFF00000000000000FF00000000FF000000FF00FF
310
0000FF00FF000000FF00000000FF000000000000FF00000000FF000000FF00FF0000FF00FF000000FF00000000FF000000000000FFFFFFFFFFFFFFFFFFFFFFFFFFFFFFFFFFFFFFFFFFFFFFFFFFFF000000000000000000FFFFFF0000000000000000000000000000FFFF00FF00000000000000000000FFFFFFFFFF00000000
310
000000000000000000FFFFFFFF00000000000000000000FFFFFFFFFF000000000000000000000000FFFFFFFF00FF0000000000000000FFFFFF000000000000000000000000000000000000FFFFFF0000000000000000FFFF0000000000000000000000000000000000000000FF00FF000000000000FF000000000000000000
310
000000000000000000000000000000FF000000000000FFFFFFFF000000000000000000000000000000000000FFFFFFFF000000000000FF000000000000000000000000000000000000000000000000FF000000000000FF000000000000000000000000000000000000000000000000FF000000000000FF0000000000000000
310
00000000000000000000000000000000FF000000000000FF000000000000000000000000000000000000000000000000FF000000000000FF000000000000000000000000000000000000000000000000FF000000000000FF000000000000000000000000000000000000000000000000FF000000000000FFFFFFFF00000000
310
0000000000000000000000000000FFFFFFFF000000000000FF000000000000000000000000000000000000000000000000FF000000000000FF000000000000000000000000000000000000000000000000FF000000000000FF000000000000000000000000000000000000000000000000FF00000000000000FF0000000000
310
0000000000000000000000000000000000FF000000000000000000FF000000000000000000000000000000000000000000FF000000000000000000FF0000000000000000000000000000000000000000FF0000000000000000000000FF00000000000000FFFFFFFF0000000000000000FF0000000000000000000000FF0000
310
00000000000000000000000000000000FF00000000000000000000000000FF0000000000000000000000000000000000FF00000000000000000000000000FF00000000000000000000000000000000FF000000000000000000000000000000FFFF000000000000000000000000FFFF00000000000000000000000000000000
310
0000FFFFFFFFFFFFFFFFFFFFFFFF000000000000000000000000000000000000000000000000000000000000000000000000000000000000
102
{BLKREFS
331
48C
102
}
1001
ACAD
1000
DesignCenter Data
1002
{
1070
     1
1070
     4
1002
}
  0
BLOCK_RECORD
  5
48D
330
1
100
AcDbSymbolTableRecord
100
AcDbBlockTableRecord
  2
2
340
0
310
2800000020000000200000000100080000000000000400000000000000000000000000000000000000000000000080000080000000808000800000008000800080800000C0C0C000C0DCC000F0CAA6000020400000206000002080000020A0000020C0000020E00000400000004020000040400000406000004080000040A0
310
000040C0000040E00000600000006020000060400000606000006080000060A0000060C0000060E00000800000008020000080400000806000008080000080A0000080C0000080E00000A0000000A0200000A0400000A0600000A0800000A0A00000A0C00000A0E00000C0000000C0200000C0400000C0600000C0800000C0
310
A00000C0C00000C0E00000E0000000E0200000E0400000E0600000E0800000E0A00000E0C00000E0E00040000000400020004000400040006000400080004000A0004000C0004000E00040200000402020004020400040206000402080004020A0004020C0004020E000404000004040200040404000404060004040800040
310
40A0004040C0004040E00040600000406020004060400040606000406080004060A0004060C0004060E00040800000408020004080400040806000408080004080A0004080C0004080E00040A0000040A0200040A0400040A0600040A0800040A0A00040A0C00040A0E00040C0000040C0200040C0400040C0600040C08000
310
40C0A00040C0C00040C0E00040E0000040E0200040E0400040E0600040E0800040E0A00040E0C00040E0E00080000000800020008000400080006000800080008000A0008000C0008000E00080200000802020008020400080206000802080008020A0008020C0008020E00080400000804020008040400080406000804080
310
008040A0008040C0008040E00080600000806020008060400080606000806080008060A0008060C0008060E00080800000808020008080400080806000808080008080A0008080C0008080E00080A0000080A0200080A0400080A0600080A0800080A0A00080A0C00080A0E00080C0000080C0200080C0400080C0600080C0
310
800080C0A00080C0C00080C0E00080E0000080E0200080E0400080E0600080E0800080E0A00080E0C00080E0E000C0000000C0002000C0004000C0006000C0008000C000A000C000C000C000E000C0200000C0202000C0204000C0206000C0208000C020A000C020C000C020E000C0400000C0402000C0404000C0406000C0
310
408000C040A000C040C000C040E000C0600000C0602000C0604000C0606000C0608000C060A000C060C000C060E000C0800000C0802000C0804000C0806000C0808000C080A000C080C000C080E000C0A00000C0A02000C0A04000C0A06000C0A08000C0A0A000C0A0C000C0A0E000C0C00000C0C02000C0C04000C0C06000
310
C0C08000C0C0A000F0FBFF00A4A0A000808080000000FF0000FF000000FFFF00FF000000FF00FF00FFFF0000FFFFFF0000000000000000000000000000000000000000000000000000000000000000000000000000000000000000000000000000000000000000000000000000000000000000000000000000000000000000
310
00000000000000000000000000000000000000000000000000000000000000000000000000000000000000000000000000000000000000000000000000000000000000000000000000000000000000000000000000000000000000000000000000000000000000000000000000000000000000000000000000000000000000
310
00000000000000000000000000000000000000000000000000000000000000000000000000000000000000000000000000000000000000000000000000000000000000000000000000000000000000000000000000000000000000000000000000000000000000000000000000000000000000000000000000000000000000
310
00000000000000000000000000000000000000000000000000000000000000FFFF00000000FFFF000000000000000000000000000000000000000000000000FFFF00000000FFFF000000000000000000000000000000000000000000000000FFFFFFFFFFFFFFFF000000000000000000000000000000000000000000000000
310
FF000000000000FF000000000000000000000000000000000000000000000000FF000000000000FF00000000000000000000000000FFFFFFFFFFFFFFFFFFFFFFFFFFFFFFFFFFFFFFFFFFFFFFFFFFFFFFFFFFFF0000FFFF000000FFFF000000FF000000000000000000FF0000FFFF000000FFFF0000FFFF000000FFFF000000
310
FF000000000000000000FF0000FFFF000000FFFF0000FFFF000000FFFF000000FF000000000000000000FF0000FFFF000000FFFF0000FFFFFFFFFFFFFFFFFFFFFFFFFFFFFFFFFFFFFFFFFFFFFFFFFFFFFFFFFFFF00000000000000000000000000000000000000000000000000000000000000000000000000000000000000
310
00000000000000000000000000000000000000000000000000000000000000000000000000000000000000000000000000000000000000000000000000000000000000000000000000000000000000000000000000000000000000000000000000000000000000000000000000000000000000000000000000000000000000
310
00000000000000000000000000000000000000000000000000000000000000000000000000000000000000000000000000000000000000000000000000000000000000000000000000000000000000000000000000000000000000000000000000000000000000000000000000000000000000000000000000000000000000
310
0000000000000000000000000000000000000000000000000000000000000000000000000000000000000000000000000000000000000000
102
{BLKREFS
331
4B6
102
}
1001
ACAD
1000
DesignCenter Data
1002
{
1070
     1
1070
     4
1002
}
  0
BLOCK_RECORD
  5
4B7
330
1
100
AcDbSymbolTableRecord
100
AcDbBlockTableRecord
  2
3
340
0
310
2800000020000000200000000100080000000000000400000000000000000000000000000000000000000000000080000080000000808000800000008000800080800000C0C0C000C0DCC000F0CAA6000020400000206000002080000020A0000020C0000020E00000400000004020000040400000406000004080000040A0
310
000040C0000040E00000600000006020000060400000606000006080000060A0000060C0000060E00000800000008020000080400000806000008080000080A0000080C0000080E00000A0000000A0200000A0400000A0600000A0800000A0A00000A0C00000A0E00000C0000000C0200000C0400000C0600000C0800000C0
310
A00000C0C00000C0E00000E0000000E0200000E0400000E0600000E0800000E0A00000E0C00000E0E00040000000400020004000400040006000400080004000A0004000C0004000E00040200000402020004020400040206000402080004020A0004020C0004020E000404000004040200040404000404060004040800040
310
40A0004040C0004040E00040600000406020004060400040606000406080004060A0004060C0004060E00040800000408020004080400040806000408080004080A0004080C0004080E00040A0000040A0200040A0400040A0600040A0800040A0A00040A0C00040A0E00040C0000040C0200040C0400040C0600040C08000
310
40C0A00040C0C00040C0E00040E0000040E0200040E0400040E0600040E0800040E0A00040E0C00040E0E00080000000800020008000400080006000800080008000A0008000C0008000E00080200000802020008020400080206000802080008020A0008020C0008020E00080400000804020008040400080406000804080
310
008040A0008040C0008040E00080600000806020008060400080606000806080008060A0008060C0008060E00080800000808020008080400080806000808080008080A0008080C0008080E00080A0000080A0200080A0400080A0600080A0800080A0A00080A0C00080A0E00080C0000080C0200080C0400080C0600080C0
310
800080C0A00080C0C00080C0E00080E0000080E0200080E0400080E0600080E0800080E0A00080E0C00080E0E000C0000000C0002000C0004000C0006000C0008000C000A000C000C000C000E000C0200000C0202000C0204000C0206000C0208000C020A000C020C000C020E000C0400000C0402000C0404000C0406000C0
310
408000C040A000C040C000C040E000C0600000C0602000C0604000C0606000C0608000C060A000C060C000C060E000C0800000C0802000C0804000C0806000C0808000C080A000C080C000C080E000C0A00000C0A02000C0A04000C0A06000C0A08000C0A0A000C0A0C000C0A0E000C0C00000C0C02000C0C04000C0C06000
310
C0C08000C0C0A000F0FBFF00A4A0A000808080000000FF0000FF000000FFFF00FF000000FF00FF00FFFF0000FFFFFF000000000000000000000000000000000000000000000000000000000000000000000000000000000000000000FFFFFFFFFFFFFFFF000000000000000000000000000000000000000000000000FFFFFF
310
FFFFFFFFFF000000000000000000000000000000000000000000000000FF000000FF0000FF000000000000000000000000000000000000000000000000FFFFFFFFFFFFFFFF00000000000000000000000000000000000000000000000000000000FF0000FF0000000000000000000000000000000000000000000000000000
310
0000FF0000FF00000000000000000000000000000000000000000000000000000000FF0000FF00000000000000000000000000000000000000000000000000000000FF0000FF00000000000000000000000000000000000000000000000000000000FF0000FF00000000000000000000000000000000000000000000000000
310
000000FFFFFFFF00000000000000000000000000000000000000000000000000000000FF0000FF00000000000000000000000000000000000000000000000000000000FF0000FF00000000000000000000000000000000000000000000000000000000FF0000FF000000000000000000000000000000000000000000000000
310
00000000FF0000FF00000000000000000000000000000000000000000000000000000000FF0000FF00000000000000000000000000000000000000000000000000000000FF0000FF00000000000000000000000000000000000000000000000000000000FF0000FF0000000000000000000000000000000000000000000000
310
0000000000FF0000FF00000000000000000000000000000000000000000000000000000000FF0000FF00000000000000000000000000000000000000000000000000000000FF0000FF00000000000000000000000000000000000000000000000000000000FFFFFFFF00000000000000000000000000000000000000000000
310
000000000000FFFFFFFF00000000000000000000000000000000000000000000000000000000FF0000FF00000000000000000000000000000000000000000000000000000000FF0000FF00000000000000000000000000000000000000000000000000000000FF0000FF000000000000000000000000000000000000000000
310
00000000000000FF0000FF00000000000000000000000000000000000000000000000000000000FF0000FF00000000000000000000000000000000000000000000000000000000FFFFFFFF00000000000000000000000000000000000000000000000000000000FFFFFFFF0000000000000000000000000000000000000000
310
0000000000000000FFFFFFFF0000000000000000000000000000000000000000000000000000000000000000000000000000000000000000
102
{BLKREFS
331
4DF
102
}
1001
ACAD
1000
DesignCenter Data
1002
{
1070
     1
1070
     4
1002
}
  0
BLOCK_RECORD
  5
4E0
330
1
100
AcDbSymbolTableRecord
100
AcDbBlockTableRecord
  2
4
340
0
310
2800000020000000200000000100080000000000000400000000000000000000000000000000000000000000000080000080000000808000800000008000800080800000C0C0C000C0DCC000F0CAA6000020400000206000002080000020A0000020C0000020E00000400000004020000040400000406000004080000040A0
310
000040C0000040E00000600000006020000060400000606000006080000060A0000060C0000060E00000800000008020000080400000806000008080000080A0000080C0000080E00000A0000000A0200000A0400000A0600000A0800000A0A00000A0C00000A0E00000C0000000C0200000C0400000C0600000C0800000C0
310
A00000C0C00000C0E00000E0000000E0200000E0400000E0600000E0800000E0A00000E0C00000E0E00040000000400020004000400040006000400080004000A0004000C0004000E00040200000402020004020400040206000402080004020A0004020C0004020E000404000004040200040404000404060004040800040
310
40A0004040C0004040E00040600000406020004060400040606000406080004060A0004060C0004060E00040800000408020004080400040806000408080004080A0004080C0004080E00040A0000040A0200040A0400040A0600040A0800040A0A00040A0C00040A0E00040C0000040C0200040C0400040C0600040C08000
310
40C0A00040C0C00040C0E00040E0000040E0200040E0400040E0600040E0800040E0A00040E0C00040E0E00080000000800020008000400080006000800080008000A0008000C0008000E00080200000802020008020400080206000802080008020A0008020C0008020E00080400000804020008040400080406000804080
310
008040A0008040C0008040E00080600000806020008060400080606000806080008060A0008060C0008060E00080800000808020008080400080806000808080008080A0008080C0008080E00080A0000080A0200080A0400080A0600080A0800080A0A00080A0C00080A0E00080C0000080C0200080C0400080C0600080C0
310
800080C0A00080C0C00080C0E00080E0000080E0200080E0400080E0600080E0800080E0A00080E0C00080E0E000C0000000C0002000C0004000C0006000C0008000C000A000C000C000C000E000C0200000C0202000C0204000C0206000C0208000C020A000C020C000C020E000C0400000C0402000C0404000C0406000C0
310
408000C040A000C040C000C040E000C0600000C0602000C0604000C0606000C0608000C060A000C060C000C060E000C0800000C0802000C0804000C0806000C0808000C080A000C080C000C080E000C0A00000C0A02000C0A04000C0A06000C0A08000C0A0A000C0A0C000C0A0E000C0C00000C0C02000C0C04000C0C06000
310
C0C08000C0C0A000F0FBFF00A4A0A000808080000000FF0000FF000000FFFF00FF000000FF00FF00FFFF0000FFFFFF000000000000000000000000000000000000000000000000000000000000000000000000000000000000000000000000000000000000FFFF000000000000000000000000000000000000000000000000
310
0000000000FF00FFFF00000000000000000000000000000000000000000000FFFF00000000FF00FFFFFF0000000000000000000000000000000000000000FFFF00FFFF00FFFFFFFFFFFF0000000000000000000000000000000000FFFFFFFFFFFF00FFFFFFFFFFFFFFFF0000000000000000000000000000000000FFFFFFFF
310
FFFFFFFFFFFFFFFFFFFF000000000000000000000000000000000000FFFFFF00FFFFFF00FFFF00FFFFFF00000000000000000000000000000000000000FFFFFFFF000000000000FFFF00FF00000000000000000000000000000000FFFF00FF00000000000000FFFFFFFFFF0000000000000000000000000000FFFFFFFFFF00
310
0000000000000000FFFF00FF0000000000000000000000000000FFFFFFFF0000000000000000000000FF00FF0000000000000000000000000000FFFFFFFF0000000000000000000000FF00FF000000000000000000000000000000FFFF000000000000000000000000FF00FF000000000000000000000000000000FF000000
310
000000000000000000FFFF00FF0000000000000000000000000000FFFF000000000000000000000000FFFF00FF0000000000000000000000000000FFFF00000000000000000000000000FFFFFF0000000000000000000000000000FFFF00000000000000000000000000FFFFFF0000000000000000000000000000FF000000
310
00000000000000000000FF0000FF0000000000000000000000000000FF00000000000000000000000000FF00FF000000000000000000000000000000FF00000000000000000000000000FF00FF000000000000000000000000000000FFFF0000000000000000000000FF0000FF000000000000000000000000000000FFFF00
310
00000000FFFF00000000FF00FF00000000000000000000000000000000FFFF0000000000FFFF000000FF00FFFF00000000000000000000000000000000FF000000000000FFFF0000FF00FFFF0000000000000000000000000000000000FF000000000000000000FF0000FF00000000000000000000000000000000000000FF
310
000000000000FFFF00FFFF0000000000000000000000000000000000000000FF00000000FFFF0000FFFF00000000000000000000000000000000000000000000FFFFFFFF0000FFFF00000000000000000000000000000000000000000000000000FFFF00FFFF00000000000000000000000000000000000000000000000000
310
000000FFFFFF0000000000000000000000000000000000000000000000000000000000000000000000000000000000000000000000000000
102
{BLKREFS
331
56B
102
}
1001
ACAD
1000
DesignCenter Data
1002
{
1070
     1
1070
     4
1002
}
  0
ENDTAB
  0
ENDSEC
  0
SECTION
  2
BLOCKS
  0
BLOCK
  5
20
330
1F
100
AcDbEntity
  8
0
100
AcDbBlockBegin
  2
*Model_Space
 70
     0
 10
0.0
 20
0.0
 30
0.0
  3
*Model_Space
  1

  0
ENDBLK
  5
21
330
1F
100
AcDbEntity
  8
0
100
AcDbBlockEnd
  0
BLOCK
  5
D4
330
D2
100
AcDbEntity
 67
     1
  8
0
100
AcDbBlockBegin
  2
*Paper_Space
 70
     0
 10
0.0
 20
0.0
 30
0.0
  3
*Paper_Space
  1

  0
ENDBLK
  5
D5
330
D2
100
AcDbEntity
 67
     1
  8
0
100
AcDbBlockEnd
  0
BLOCK
  5
D8
330
D6
100
AcDbEntity
 67
     1
  8
0
100
AcDbBlockBegin
  2
*Paper_Space0
 70
     0
 10
0.0
 20
0.0
 30
0.0
  3
*Paper_Space0
  1

  0
ENDBLK
  5
D9
330
D6
100
AcDbEntity
 67
     1
  8
0
100
AcDbBlockEnd
  0
BLOCK
  5
424
330
423
100
AcDbEntity
  8
0
100
AcDbBlockBegin
  2
1
 70
     0
 10
0.0
 20
0.0
 30
0.0
  3
1
  1

  0
LINE
  5
426
330
423
100
AcDbEntity
  8
0
  6
Continuous
 62
     7
370
    15
100
AcDbLine
 10
2018.453727260709
 20
974.0404767407362
 30
0.0
 11
2018.453727260709
 21
976.5110637644719
 31
0.0
  0
LINE
  5
427
330
423
100
AcDbEntity
  8
0
  6
Continuous
 62
     7
370
    15
100
AcDbLine
 10
2018.453727260709
 20
976.5110637644713
 30
0.0
 11
2019.890880428414
 21
976.5110637644713
 31
0.0
  0
LINE
  5
428
330
423
100
AcDbEntity
  8
0
  6
Continuous
 62
     7
370
    15
100
AcDbLine
 10
2019.890880428414
 20
973.8405072017052
 30
0.0
 11
2018.653696799741
 21
973.840507201705
 31
0.0
  0
ELLIPSE
  5
429
330
423
100
AcDbEntity
  8
0
  6
Continuous
 62
     7
370
    15
100
AcDbEllipse
 10
2018.653757726318
 20
974.0405376673136
 30
0.0
 11
0.1414644378339176
 21
0.1414644378339176
 31
0.0
210
0.0
220
0.0
230
1.0
 40
0.9996954598821263
 41
2.356346783439338
 42
3.926838523740119
  0
LINE
  5
42A
330
423
100
AcDbEntity
  8
0
  6
Continuous
 62
     7
370
    15
100
AcDbLine
 10
2019.890880428414
 20
976.5110637644713
 30
0.0
 11
2019.890880428414
 21
973.8405072017044
 31
0.0
  0
ELLIPSE
  5
42B
330
423
100
AcDbEntity
  8
0
  6
Continuous
 62
     7
370
    15
100
AcDbEllipse
 10
2021.640880428414
 20
973.8143160057587
 30
0.0
 11
1.749999999999971
 21
0.0
 31
0.0
210
0.0
220
0.0
230
1.0
 40
0.0174550649282183
 41
3.141592653589786
 42
6.283185307179586
  0
LINE
  5
42C
330
423
100
AcDbEntity
  8
0
  6
Continuous
 62
     7
370
    15
100
AcDbLine
 10
2023.390880428414
 20
973.8405072017052
 30
0.0
 11
2023.390880428414
 21
973.8143160057587
 31
0.0
  0
LINE
  5
42D
330
423
100
AcDbEntity
  8
0
  6
Continuous
 62
     7
370
    15
100
AcDbLine
 10
2024.628064057087
 20
973.840507201705
 30
0.0
 11
2023.390880428414
 21
973.8405072017052
 31
0.0
  0
LINE
  5
42E
330
423
100
AcDbEntity
  8
0
  6
Continuous
 62
     7
370
    15
100
AcDbLine
 10
2024.690910887063
 20
973.7776603694094
 30
0.0
 11
2024.628064057087
 21
973.840507201705
 31
0.0
  0
LINE
  5
42F
330
423
100
AcDbEntity
  8
0
  6
Continuous
 62
     7
370
    15
100
AcDbLine
 10
2024.690880428414
 20
973.7776603694094
 30
0.0
 11
2018.590880428414
 21
973.7776603694094
 31
0.0
  0
LINE
  5
430
330
423
100
AcDbEntity
  8
0
  6
Continuous
 62
     7
370
    15
100
AcDbLine
 10
2018.653696799741
 20
973.840507201705
 30
0.0
 11
2018.590849967445
 21
973.7776603694094
 31
0.0
  0
LINE
  5
431
330
423
100
AcDbEntity
  8
0
  6
Continuous
 62
     7
370
    15
100
AcDbLine
 10
2019.890880428414
 20
973.8143160057587
 30
0.0
 11
2019.890880428414
 21
973.8405072017052
 31
0.0
  0
LINE
  5
432
330
423
100
AcDbEntity
  8
0
  6
Continuous
 62
     7
370
    15
100
AcDbLine
 10
2023.390880428414
 20
973.8405072017052
 30
0.0
 11
2023.390880428414
 21
976.5110637644713
 31
0.0
  0
LINE
  5
433
330
423
100
AcDbEntity
  8
0
  6
Continuous
 62
     7
370
    15
100
AcDbLine
 10
2023.390880428414
 20
976.5110637644713
 30
0.0
 11
2024.828033596118
 21
976.5110637644713
 31
0.0
  0
LINE
  5
434
330
423
100
AcDbEntity
  8
0
  6
Continuous
 62
     7
370
    15
100
AcDbLine
 10
2024.828033596118
 20
976.5110637644719
 30
0.0
 11
2024.828033596118
 21
974.0404767407362
 31
0.0
  0
ELLIPSE
  5
435
330
423
100
AcDbEntity
  8
0
  6
Continuous
 62
     7
370
    15
100
AcDbEllipse
 10
2024.628003130509
 20
974.0405376673136
 30
0.0
 11
0.1414644378339176
 21
-0.1414644378339176
 31
0.0
210
0.0
220
0.0
230
1.0
 40
0.9996954598820259
 41
5.497939437030516
 42
7.068431177330091
  0
ELLIPSE
  5
436
330
423
100
AcDbEntity
  8
0
  6
Continuous
 62
     7
370
    15
100
AcDbEllipse
 10
2021.640880428414
 20
976.5372549604183
 30
0.0
 11
1.749999999999971
 21
0.0
 31
0.0
210
0.0
220
0.0
230
1.0
 40
0.017455064928202
 41
0.0
 42
3.141592653602685
  0
LINE
  5
437
330
423
100
AcDbEntity
  8
0
  6
Continuous
 62
     7
370
    15
100
AcDbLine
 10
2018.390880428414
 20
976.5739105967675
 30
0.0
 11
2018.453727260709
 21
976.5110637644719
 31
0.0
  0
LINE
  5
438
330
423
100
AcDbEntity
  8
0
  6
Continuous
 62
     7
370
    15
100
AcDbLine
 10
2024.890880428414
 20
976.5739105967675
 30
0.0
 11
2018.390880428414
 21
976.5739105967675
 31
0.0
  0
LINE
  5
439
330
423
100
AcDbEntity
  8
0
  6
Continuous
 62
     7
370
    15
100
AcDbLine
 10
2024.828033596118
 20
976.5110637644719
 30
0.0
 11
2024.890880428414
 21
976.5739105967675
 31
0.0
  0
LINE
  5
43A
330
423
100
AcDbEntity
  8
0
  6
Continuous
 62
     7
370
    15
100
AcDbLine
 10
2023.390880428414
 20
976.5110637644713
 30
0.0
 11
2023.390880428414
 21
976.5372549604178
 31
0.0
  0
LINE
  5
43B
330
423
100
AcDbEntity
  8
0
  6
Continuous
 62
     7
370
    15
100
AcDbLine
 10
2019.890880428414
 20
976.5372549604178
 30
0.0
 11
2019.890880428414
 21
976.5110637644713
 31
0.0
  0
LINE
  5
43C
330
423
100
AcDbEntity
  8
0
  6
Continuous
 62
     7
370
    15
100
AcDbLine
 10
2024.828033596118
 20
974.0404767407362
 30
0.0
 11
2024.890880428414
 21
973.9776299107594
 31
0.0
  0
LINE
  5
43D
330
423
100
AcDbEntity
  8
0
  6
Continuous
 62
     7
370
    15
100
AcDbLine
 10
2024.890880428414
 20
973.9776603694094
 30
0.0
 11
2024.890880428414
 21
976.5739105967675
 31
0.0
  0
LINE
  5
43E
330
423
100
AcDbEntity
  8
0
  6
Continuous
 62
     7
370
    15
100
AcDbLine
 10
2018.390880428414
 20
973.9776299084404
 30
0.0
 11
2018.453727260709
 21
974.0404767407362
 31
0.0
  0
LINE
  5
43F
330
423
100
AcDbEntity
  8
0
  6
Continuous
 62
     7
370
    15
100
AcDbLine
 10
2018.390880428414
 20
976.5739105967675
 30
0.0
 11
2018.390880428414
 21
973.9776603694094
 31
0.0
  0
ARC
  5
440
330
423
100
AcDbEntity
  8
0
  6
Continuous
 62
     7
370
    15
100
AcDbCircle
 10
2024.690880428414
 20
973.9776603694094
 30
0.0
 40
0.2000000001934831
100
AcDbArc
 50
270.0043629909046
 51
359.9956371198101
  0
ARC
  5
441
330
423
100
AcDbEntity
  8
0
  6
Continuous
 62
     7
370
    15
100
AcDbCircle
 10
2018.590880428414
 20
973.9776603694094
 30
0.0
 40
0.2000000000000196
100
AcDbArc
 50
180.0043632123403
 51
269.9956367876531
  0
LINE
  5
442
330
423
100
AcDbEntity
  8
0
  6
Continuous
 62
     7
370
    15
100
AcDbLine
 10
2013.577042094099
 20
978.7856117203302
 30
0.0
 11
2011.245428075365
 21
981.1172257390625
 31
0.0
  0
LINE
  5
443
330
423
100
AcDbEntity
  8
0
  6
Continuous
 62
     7
370
    15
100
AcDbLine
 10
2011.245428075365
 20
981.1172257390625
 30
0.0
 11
2013.190339530196
 21
976.053413030077
 31
0.0
  0
ARC
  5
444
330
423
100
AcDbEntity
  8
0
  6
Continuous
 62
     7
370
    15
100
AcDbCircle
 10
2013.377042094099
 20
976.1251218345003
 30
0.0
 40
0.200000000000017
100
AcDbArc
 50
201.0108063325075
 51
0.0000000000195413
  0
LINE
  5
445
330
423
100
AcDbEntity
  8
0
  6
Continuous
 62
     7
370
    15
100
AcDbLine
 10
2013.577042094099
 20
976.1251218345003
 30
0.0
 11
2013.577042094099
 21
978.7856117203302
 31
0.0
  0
CIRCLE
  5
446
330
423
100
AcDbEntity
  8
0
  6
Continuous
 62
     7
370
    15
100
AcDbCircle
 10
2011.640880428426
 20
982.9845150858185
 30
0.0
 40
0.999999999987267
  0
CIRCLE
  5
447
330
423
100
AcDbEntity
  8
0
  6
Continuous
 62
     7
370
    15
100
AcDbCircle
 10
2011.401529524521
 20
990.1514046981445
 30
0.0
 40
0.75
  0
CIRCLE
  5
448
330
423
100
AcDbEntity
  8
0
  6
Continuous
 62
     7
370
    15
100
AcDbCircle
 10
2021.640880428414
 20
996.4727236566226
 30
0.0
 40
1.0
  0
ARC
  5
449
330
423
100
AcDbEntity
  8
0
  6
Continuous
 62
     7
370
    15
100
AcDbCircle
 10
2028.617972022427
 20
998.9282528104665
 30
0.0
 40
1.000000000000008
100
AcDbArc
 50
29.99999999999729
 51
72.49999999999393
  0
LINE
  5
44A
330
423
100
AcDbEntity
  8
0
  6
Continuous
 62
     7
370
    15
100
AcDbLine
 10
2029.483997426211
 20
999.4282528104664
 30
0.0
 11
2033.03991853409
 21
993.2692167839144
 31
0.0
  0
ARC
  5
44B
330
423
100
AcDbEntity
  8
0
  6
Continuous
 62
     7
370
    15
100
AcDbCircle
 10
2031.740880428413
 20
992.5192167839144
 30
0.0
 40
1.5
100
AcDbArc
 50
0.0
 51
29.99999999999729
  0
LINE
  5
44C
330
423
100
AcDbEntity
  8
0
  6
Continuous
 62
     7
370
    15
100
AcDbLine
 10
2033.240880428413
 20
992.5192167839144
 30
0.0
 11
2033.240880428413
 21
982.3217733860145
 31
0.0
  0
LINE
  5
44D
330
423
100
AcDbEntity
  8
0
  6
Continuous
 62
     7
370
    15
100
AcDbLine
 10
2033.240880428413
 20
982.3217733860142
 30
0.0
 11
2033.227970705226
 21
982.3088636628261
 31
0.0
  0
LINE
  5
44E
330
423
100
AcDbEntity
  8
0
  6
Continuous
 62
     7
370
    15
100
AcDbLine
 10
2033.227970705226
 20
982.3088636628265
 30
0.0
 11
2031.084339642837
 21
976.7276603694114
 31
0.0
  0
LINE
  5
44F
330
423
100
AcDbEntity
  8
0
  6
Continuous
 62
     7
370
    15
100
AcDbLine
 10
2031.084339642837
 20
976.7276603694114
 30
0.0
 11
2032.932929077495
 21
976.7276603694114
 31
0.0
  0
ARC
  5
450
330
423
100
AcDbEntity
  8
0
  6
Continuous
 62
     7
370
    15
100
AcDbCircle
 10
2032.932929077495
 20
976.4276603694105
 30
0.0
 40
0.3000000000010345
100
AcDbArc
 50
0.0
 51
90.0
  0
LINE
  5
451
330
423
100
AcDbEntity
  8
0
  6
Continuous
 62
     7
370
    15
100
AcDbLine
 10
2033.232929077495
 20
976.4276603694105
 30
0.0
 11
2033.232929077495
 21
974.7776603694115
 31
0.0
  0
ARC
  5
452
330
423
100
AcDbEntity
  8
0
  6
Continuous
 62
     7
370
    15
100
AcDbCircle
 10
2032.232929077494
 20
974.7776603694115
 30
0.0
 40
1.0
100
AcDbArc
 50
270.0
 51
0.0
  0
LINE
  5
453
330
423
100
AcDbEntity
  8
0
  6
Continuous
 62
     7
370
    15
100
AcDbLine
 10
2032.232929077494
 20
973.7776603694115
 30
0.0
 11
2030.151115348616
 21
973.7776603694113
 31
0.0
  0
ARC
  5
454
330
423
100
AcDbEntity
  8
0
  6
Continuous
 62
     7
370
    15
100
AcDbCircle
 10
2030.151115348616
 20
975.2776603694114
 30
0.0
 40
1.500000000000056
100
AcDbArc
 50
199.9999955439712
 51
270.0
  0
LINE
  5
455
330
423
100
AcDbEntity
  8
0
  6
Continuous
 62
     7
370
    15
100
AcDbLine
 10
2028.741576377537
 20
974.7646302640461
 30
0.0
 11
2028.544990548017
 21
975.3047455223375
 31
0.0
  0
ARC
  5
456
330
423
100
AcDbEntity
  8
0
  6
Continuous
 62
     7
370
    15
100
AcDbCircle
 10
2028.732929077494
 20
975.3731495363863
 30
0.0
 40
0.2000000000003019
100
AcDbArc
 50
90.00000000002605
 51
199.9999955439957
  0
LINE
  5
457
330
423
100
AcDbEntity
  8
0
  6
Continuous
 62
     7
370
    15
100
AcDbLine
 10
2028.732929077494
 20
975.5731495363862
 30
0.0
 11
2028.932929077495
 21
975.5731495363864
 31
0.0
  0
ARC
  5
458
330
423
100
AcDbEntity
  8
0
  6
Continuous
 62
     7
370
    15
100
AcDbCircle
 10
2028.932929077495
 20
975.7731495363865
 30
0.0
 40
0.2000000000000455
100
AcDbArc
 50
270.000000000026
 51
0.0
  0
LINE
  5
459
330
423
100
AcDbEntity
  8
0
  6
Continuous
 62
     7
370
    15
100
AcDbLine
 10
2029.132929077494
 20
975.7731495363865
 30
0.0
 11
2029.132929077494
 21
978.7776603694114
 31
0.0
  0
LINE
  5
45A
330
423
100
AcDbEntity
  8
0
  6
Continuous
 62
     7
370
    15
100
AcDbLine
 10
2029.132929077494
 20
978.7776603694094
 30
0.0
 11
2027.722467017967
 21
978.7776603694094
 31
0.0
  0
LINE
  5
45B
330
423
100
AcDbEntity
  8
0
  6
Continuous
 62
     7
370
    15
100
AcDbLine
 10
2027.722467017966
 20
978.7776603694114
 30
0.0
 11
2028.822036860089
 21
976.8731495363864
 31
0.0
  0
ARC
  5
45C
330
423
100
AcDbEntity
  8
0
  6
Continuous
 62
     7
370
    15
100
AcDbCircle
 10
2028.648831779333
 20
976.7731495363864
 30
0.0
 40
0.2000000000003263
100
AcDbArc
 50
265.0000000010462
 51
30.00000000000945
  0
LINE
  5
45D
330
423
100
AcDbEntity
  8
0
  6
Continuous
 62
     7
370
    15
100
AcDbLine
 10
2028.631400630787
 20
976.5739105967675
 30
0.0
 11
2024.890880428414
 21
976.5739105967675
 31
0.0
  0
LINE
  5
45E
330
423
100
AcDbEntity
  8
0
  6
Continuous
 62
     7
370
    15
100
AcDbLine
 10
2018.390880428414
 20
976.5739105967675
 30
0.0
 11
2014.650360226041
 21
976.5739105967675
 31
0.0
  0
ARC
  5
45F
330
423
100
AcDbEntity
  8
0
  6
Continuous
 62
     7
370
    15
100
AcDbCircle
 10
2014.632929077495
 20
976.7731495363864
 30
0.0
 40
0.2000000000003263
100
AcDbArc
 50
150.0000000000027
 51
274.9999999989538
  0
LINE
  5
460
330
423
100
AcDbEntity
  8
0
  6
Continuous
 62
     7
370
    15
100
AcDbLine
 10
2014.459723996738
 20
976.8731495363864
 30
0.0
 11
2015.55929383886
 21
978.7776603694114
 31
0.0
  0
LINE
  5
461
330
423
100
AcDbEntity
  8
0
  6
Continuous
 62
     7
370
    15
100
AcDbLine
 10
2015.55929383886
 20
978.7776603694094
 30
0.0
 11
2014.132929077495
 21
978.7776603694094
 31
0.0
  0
LINE
  5
462
330
423
100
AcDbEntity
  8
0
  6
Continuous
 62
     7
370
    15
100
AcDbLine
 10
2014.132929077495
 20
978.7776603694114
 30
0.0
 11
2014.132929077494
 21
975.7731495363865
 31
0.0
  0
ARC
  5
463
330
423
100
AcDbEntity
  8
0
  6
Continuous
 62
     7
370
    15
100
AcDbCircle
 10
2014.332929077494
 20
975.7731495363865
 30
0.0
 40
0.1999999999999886
100
AcDbArc
 50
180.0
 51
269.999999999987
  0
LINE
  5
464
330
423
100
AcDbEntity
  8
0
  6
Continuous
 62
     7
370
    15
100
AcDbLine
 10
2014.532929077494
 20
975.5731495363864
 30
0.0
 11
2014.332929077494
 21
975.5731495363864
 31
0.0
  0
ARC
  5
465
330
423
100
AcDbEntity
  8
0
  6
Continuous
 62
     7
370
    15
100
AcDbCircle
 10
2014.532929077494
 20
975.3731495363863
 30
0.0
 40
0.2000000000001223
100
AcDbArc
 50
340.0000044560043
 51
89.99999999998697
  0
LINE
  5
466
330
423
100
AcDbEntity
  8
0
  6
Continuous
 62
     7
370
    15
100
AcDbLine
 10
2014.524281777451
 20
974.7646302640461
 30
0.0
 11
2014.720867606972
 21
975.3047455223375
 31
0.0
  0
ARC
  5
467
330
423
100
AcDbEntity
  8
0
  6
Continuous
 62
     7
370
    15
100
AcDbCircle
 10
2013.114742806373
 20
975.2776603694114
 30
0.0
 40
1.499999999999916
100
AcDbArc
 50
270.000000000013
 51
340.0000044560288
  0
LINE
  5
468
330
423
100
AcDbEntity
  8
0
  6
Continuous
 62
     7
370
    15
100
AcDbLine
 10
2013.114742806373
 20
973.7776603694117
 30
0.0
 11
2011.032929077494
 21
973.7776603694117
 31
0.0
  0
ARC
  5
469
330
423
100
AcDbEntity
  8
0
  6
Continuous
 62
     7
370
    15
100
AcDbCircle
 10
2011.032929077494
 20
974.7776603694115
 30
0.0
 40
1.0
100
AcDbArc
 50
180.0
 51
270.0
  0
LINE
  5
46A
330
423
100
AcDbEntity
  8
0
  6
Continuous
 62
     7
370
    15
100
AcDbLine
 10
2010.032929077494
 20
976.4276603694105
 30
0.0
 11
2010.032929077494
 21
974.7776603694115
 31
0.0
  0
ARC
  5
46B
330
423
100
AcDbEntity
  8
0
  6
Continuous
 62
     7
370
    15
100
AcDbCircle
 10
2010.332929077494
 20
976.4276603694105
 30
0.0
 40
0.3000000000010345
100
AcDbArc
 50
90.0
 51
180.0
  0
LINE
  5
46C
330
423
100
AcDbEntity
  8
0
  6
Continuous
 62
     7
370
    15
100
AcDbLine
 10
2010.332929077494
 20
976.7276603694114
 30
0.0
 11
2012.18151851215
 21
976.7276603694114
 31
0.0
  0
LINE
  5
46D
330
423
100
AcDbEntity
  8
0
  6
Continuous
 62
     7
370
    15
100
AcDbLine
 10
2012.18151851215
 20
976.7276603694114
 30
0.0
 11
2010.040880428413
 21
982.3010710801407
 31
0.0
  0
LINE
  5
46E
330
423
100
AcDbEntity
  8
0
  6
Continuous
 62
     7
370
    15
100
AcDbLine
 10
2010.040880428413
 20
982.3010710801407
 30
0.0
 11
2010.040880428413
 21
992.5192167839144
 31
0.0
  0
ARC
  5
46F
330
423
100
AcDbEntity
  8
0
  6
Continuous
 62
     7
370
    15
100
AcDbCircle
 10
2011.540880428413
 20
992.5192167839144
 30
0.0
 40
1.5
100
AcDbArc
 50
150.0000000000027
 51
180.0
  0
LINE
  5
470
330
423
100
AcDbEntity
  8
0
  6
Continuous
 62
     7
370
    15
100
AcDbLine
 10
2010.241842322737
 20
993.2692167839144
 30
0.0
 11
2013.797763430615
 21
999.4282528104664
 31
0.0
  0
ARC
  5
471
330
423
100
AcDbEntity
  8
0
  6
Continuous
 62
     7
370
    15
100
AcDbCircle
 10
2014.663788834399
 20
998.9282528104665
 30
0.0
 40
0.9999999999997374
100
AcDbArc
 50
107.4999999999936
 51
149.9999999999905
  0
LINE
  5
472
330
423
100
AcDbEntity
  8
0
  6
Continuous
 62
     7
370
    15
100
AcDbLine
 10
2014.363083034895
 20
999.8819697612143
 30
0.0
 11
2017.521010192608
 21
1000.877660369409
 31
0.0
  0
LINE
  5
473
330
423
100
AcDbEntity
  8
0
  6
Continuous
 62
     7
370
    15
100
AcDbLine
 10
2017.521010192608
 20
1000.877660369409
 30
0.0
 11
2025.76075066422
 21
1000.877660369409
 31
0.0
  0
LINE
  5
474
330
423
100
AcDbEntity
  8
0
  6
Continuous
 62
     7
370
    15
100
AcDbLine
 10
2025.76075066422
 20
1000.877660369409
 30
0.0
 11
2028.918677821931
 21
999.8819697612145
 31
0.0
  0
CIRCLE
  5
475
330
423
100
AcDbEntity
  8
0
  6
Continuous
 62
     7
370
    15
100
AcDbCircle
 10
2031.880231332306
 20
990.1514046981375
 30
0.0
 40
0.7500000000003979
  0
LINE
  5
476
330
423
100
AcDbEntity
  8
0
  6
Continuous
 62
     7
370
    15
100
AcDbLine
 10
2030.075518624793
 20
976.0534130300774
 30
0.0
 11
2032.010513335087
 21
981.0914062926874
 31
0.0
  0
LINE
  5
477
330
423
100
AcDbEntity
  8
0
  6
Continuous
 62
     7
370
    15
100
AcDbLine
 10
2032.010513335087
 20
981.0914062926874
 30
0.0
 11
2029.696767411809
 21
978.7776603694094
 31
0.0
  0
LINE
  5
478
330
423
100
AcDbEntity
  8
0
  6
Continuous
 62
     7
370
    15
100
AcDbLine
 10
2029.696767411809
 20
978.7776603694094
 30
0.0
 11
2029.688816060889
 21
978.7776603694094
 31
0.0
  0
LINE
  5
479
330
423
100
AcDbEntity
  8
0
  6
Continuous
 62
     7
370
    15
100
AcDbLine
 10
2029.688816060889
 20
978.7776603694094
 30
0.0
 11
2029.688816060889
 21
976.1251218345003
 31
0.0
  0
ARC
  5
47A
330
423
100
AcDbEntity
  8
0
  6
Continuous
 62
     7
370
    15
100
AcDbCircle
 10
2029.888816060889
 20
976.1251218345003
 30
0.0
 40
0.2000000000000845
100
AcDbArc
 50
179.9999999999804
 51
338.9891936676146
  0
CIRCLE
  5
47B
330
423
100
AcDbEntity
  8
0
  6
Continuous
 62
     7
370
    15
100
AcDbCircle
 10
2031.640880428421
 20
982.9845150858144
 30
0.0
 40
0.9999999999931503
  0
LINE
  5
47C
330
423
100
AcDbEntity
  8
0
  6
Continuous
 62
     7
370
    15
100
AcDbLine
 10
2011.391833471672
 20
980.8918277361849
 30
0.0
 11
2013.521185886329
 21
978.7624753215284
 31
0.0
  0
LINE
  5
47D
330
423
100
AcDbEntity
  8
0
  6
Continuous
 62
     7
370
    15
100
AcDbLine
 10
2011.245428075366
 20
981.1172257390627
 30
0.0
 11
2011.391833471672
 21
980.8918277361849
 31
0.0
  0
LINE
  5
47E
330
423
100
AcDbEntity
  8
0
  6
Continuous
 62
     7
370
    15
100
AcDbLine
 10
2013.521185886329
 20
978.7624753215284
 30
0.0
 11
2013.577042094099
 21
978.7856117203302
 31
0.0
  0
LINE
  5
47F
330
423
100
AcDbEntity
  8
0
  6
Continuous
 62
     7
370
    15
100
AcDbLine
 10
2013.242482016199
 20
976.0734399394712
 30
0.0
 11
2011.391833471672
 21
980.8918277361847
 31
0.0
  0
LINE
  5
480
330
423
100
AcDbEntity
  8
0
  6
Continuous
 62
     7
370
    15
100
AcDbLine
 10
2013.190339530196
 20
976.053413030077
 30
0.0
 11
2013.242482016199
 21
976.0734399394712
 31
0.0
  0
LINE
  5
481
330
423
100
AcDbEntity
  8
0
  6
Continuous
 62
     7
370
    15
100
AcDbLine
 10
2029.696767411809
 20
978.7776603694094
 30
0.0
 11
2029.775760018381
 21
978.7776603694094
 31
0.0
  0
LINE
  5
482
330
423
100
AcDbEntity
  8
0
  6
Continuous
 62
     7
370
    15
100
AcDbLine
 10
2032.010513335087
 20
981.0914062926874
 30
0.0
 11
2031.864107938781
 21
980.8660082898095
 31
0.0
  0
LINE
  5
483
330
423
100
AcDbEntity
  8
0
  6
Continuous
 62
     7
370
    15
100
AcDbLine
 10
2029.775760018381
 20
978.7776603694094
 30
0.0
 11
2031.864107938781
 21
980.8660082898096
 31
0.0
  0
LINE
  5
484
330
423
100
AcDbEntity
  8
0
  6
Continuous
 62
     7
370
    15
100
AcDbLine
 10
2031.864107938781
 20
980.8660082898095
 30
0.0
 11
2030.023376138789
 21
976.0734399394713
 31
0.0
  0
LINE
  5
485
330
423
100
AcDbEntity
  8
0
  6
Continuous
 62
     7
370
    15
100
AcDbLine
 10
2030.023376138789
 20
976.0734399394713
 30
0.0
 11
2030.075518624793
 21
976.0534130300774
 31
0.0
  0
LINE
  5
486
330
423
100
AcDbEntity
  8
0
  6
Continuous
 62
     7
370
    15
100
AcDbLine
 10
2029.74467226866
 20
976.1251218345003
 30
0.0
 11
2029.74467226866
 21
978.7776603694094
 31
0.0
  0
LINE
  5
487
330
423
100
AcDbEntity
  8
0
  6
Continuous
 62
     7
370
    15
100
AcDbLine
 10
2029.688816060889
 20
976.1251218345003
 30
0.0
 11
2029.74467226866
 21
976.1251218345003
 31
0.0
  0
LINE
  5
488
330
423
100
AcDbEntity
  8
0
  6
Continuous
 62
     7
370
    15
100
AcDbLine
 10
2013.521185886329
 20
976.1251218345003
 30
0.0
 11
2013.577042094099
 21
976.1251218345003
 31
0.0
  0
LINE
  5
489
330
423
100
AcDbEntity
  8
0
  6
Continuous
 62
     7
370
    15
100
AcDbLine
 10
2013.521185886329
 20
978.7624753215284
 30
0.0
 11
2013.521185886329
 21
976.1251218345003
 31
0.0
  0
ARC
  5
48A
330
423
100
AcDbEntity
  8
0
  6
Continuous
 62
     7
370
    15
100
AcDbCircle
 10
2013.377042094099
 20
976.1251218345003
 30
0.0
 40
0.1441437922297837
100
AcDbArc
 50
201.0108063325837
 51
0.0000000014590858
  0
ARC
  5
48B
330
423
100
AcDbEntity
  8
0
  6
Continuous
 62
     7
370
    15
100
AcDbCircle
 10
2029.888816060889
 20
976.1251218345003
 30
0.0
 40
0.1441437922297837
100
AcDbArc
 50
179.9999999985409
 51
338.9891936675978
  0
ENDBLK
  5
425
330
423
100
AcDbEntity
  8
0
100
AcDbBlockEnd
  0
BLOCK
  5
48E
330
48D
100
AcDbEntity
  8
0
100
AcDbBlockBegin
  2
2
 70
     0
 10
0.0
 20
0.0
 30
0.0
  3
2
  1

  0
LINE
  5
490
330
48D
100
AcDbEntity
  8
0
  6
Continuous
 62
     7
370
    15
100
AcDbLine
 10
2017.521010192608
 20
959.3811444887947
 30
0.0
 11
2025.76075066422
 21
959.3811444887947
 31
0.0
  0
LINE
  5
491
330
48D
100
AcDbEntity
  8
0
  6
Continuous
 62
     7
370
    15
100
AcDbLine
 10
2017.521010192608
 20
959.3811444887947
 30
0.0
 11
2017.521010192608
 21
962.5811444887947
 31
0.0
  0
LINE
  5
492
330
48D
100
AcDbEntity
  8
0
  6
Continuous
 62
     7
370
    15
100
AcDbLine
 10
2025.76075066422
 20
959.3811444887947
 30
0.0
 11
2025.76075066422
 21
962.5811444887947
 31
0.0
  0
LINE
  5
493
330
48D
100
AcDbEntity
  8
0
  6
Continuous
 62
     7
370
    15
100
AcDbLine
 10
2017.521010192608
 20
962.5811444887947
 30
0.0
 11
2025.76075066422
 21
962.5811444887947
 31
0.0
  0
LINE
  5
494
330
48D
100
AcDbEntity
  8
0
  6
Continuous
 62
     7
370
    15
100
AcDbLine
 10
2025.76075066422
 20
959.3811444887947
 30
0.0
 11
2028.918677821931
 21
959.3811444887947
 31
0.0
  0
LINE
  5
495
330
48D
100
AcDbEntity
  8
0
  6
Continuous
 62
     7
370
    15
100
AcDbLine
 10
2028.918677821931
 20
962.5811444887947
 30
0.0
 11
2028.918677821931
 21
959.3811444887947
 31
0.0
  0
LINE
  5
496
330
48D
100
AcDbEntity
  8
0
  6
Continuous
 62
     7
370
    15
100
AcDbLine
 10
2025.76075066422
 20
962.5811444887947
 30
0.0
 11
2028.918677821931
 21
962.5811444887947
 31
0.0
  0
LINE
  5
497
330
48D
100
AcDbEntity
  8
0
  6
Continuous
 62
     7
370
    15
100
AcDbLine
 10
2014.363083034895
 20
959.3811444887947
 30
0.0
 11
2017.521010192608
 21
959.3811444887947
 31
0.0
  0
LINE
  5
498
330
48D
100
AcDbEntity
  8
0
  6
Continuous
 62
     7
370
    15
100
AcDbLine
 10
2014.363083034895
 20
962.5811444887947
 30
0.0
 11
2014.363083034895
 21
959.3811444887947
 31
0.0
  0
LINE
  5
499
330
48D
100
AcDbEntity
  8
0
  6
Continuous
 62
     7
370
    15
100
AcDbLine
 10
2017.521010192608
 20
962.5811444887947
 30
0.0
 11
2014.363083034895
 21
962.5811444887947
 31
0.0
  0
LINE
  5
49A
330
48D
100
AcDbEntity
  8
0
  6
Continuous
 62
     7
370
    15
100
AcDbLine
 10
2029.483997426211
 20
962.5811444887947
 30
0.0
 11
2029.483997426211
 21
959.3811444887947
 31
0.0
  0
LINE
  5
49B
330
48D
100
AcDbEntity
  8
0
  6
Continuous
 62
     7
370
    15
100
AcDbLine
 10
2028.918677821931
 20
959.3811444887947
 30
0.0
 11
2029.483997426211
 21
959.3811444887947
 31
0.0
  0
LINE
  5
49C
330
48D
100
AcDbEntity
  8
0
  6
Continuous
 62
     7
370
    15
100
AcDbLine
 10
2028.918677821931
 20
962.5811444887947
 30
0.0
 11
2029.483997426211
 21
962.5811444887947
 31
0.0
  0
LINE
  5
49D
330
48D
100
AcDbEntity
  8
0
  6
Continuous
 62
     7
370
    15
100
AcDbLine
 10
2013.797763430615
 20
962.5811444887947
 30
0.0
 11
2013.797763430615
 21
959.3811444887947
 31
0.0
  0
LINE
  5
49E
330
48D
100
AcDbEntity
  8
0
  6
Continuous
 62
     7
370
    15
100
AcDbLine
 10
2013.797763430615
 20
959.3811444887947
 30
0.0
 11
2014.363083034895
 21
959.3811444887947
 31
0.0
  0
LINE
  5
49F
330
48D
100
AcDbEntity
  8
0
  6
Continuous
 62
     7
370
    15
100
AcDbLine
 10
2013.797763430615
 20
962.5811444887947
 30
0.0
 11
2014.363083034895
 21
962.5811444887947
 31
0.0
  0
LINE
  5
4A0
330
48D
100
AcDbEntity
  8
0
  6
Continuous
 62
     7
370
    15
100
AcDbLine
 10
2010.241842322737
 20
959.3811444887947
 30
0.0
 11
2010.241842322737
 21
962.5811444887947
 31
0.0
  0
LINE
  5
4A1
330
48D
100
AcDbEntity
  8
0
  6
Continuous
 62
     7
370
    15
100
AcDbLine
 10
2010.241842322737
 20
959.3811444887947
 30
0.0
 11
2013.797763430615
 21
959.3811444887947
 31
0.0
  0
LINE
  5
4A2
330
48D
100
AcDbEntity
  8
0
  6
Continuous
 62
     7
370
    15
100
AcDbLine
 10
2010.241842322737
 20
962.5811444887947
 30
0.0
 11
2013.797763430615
 21
962.5811444887947
 31
0.0
  0
LINE
  5
4A3
330
48D
100
AcDbEntity
  8
0
  6
Continuous
 62
     7
370
    15
100
AcDbLine
 10
2033.03991853409
 20
959.3811444887947
 30
0.0
 11
2033.03991853409
 21
962.5811444887947
 31
0.0
  0
LINE
  5
4A4
330
48D
100
AcDbEntity
  8
0
  6
Continuous
 62
     7
370
    15
100
AcDbLine
 10
2029.483997426211
 20
959.3811444887947
 30
0.0
 11
2033.03991853409
 21
959.3811444887947
 31
0.0
  0
LINE
  5
4A5
330
48D
100
AcDbEntity
  8
0
  6
Continuous
 62
     7
370
    15
100
AcDbLine
 10
2033.03991853409
 20
962.5811444887947
 30
0.0
 11
2029.483997426211
 21
962.5811444887947
 31
0.0
  0
LINE
  5
4A6
330
48D
100
AcDbEntity
  8
0
  6
Continuous
 62
     7
370
    15
100
AcDbLine
 10
2010.040880428413
 20
962.5811444887947
 30
0.0
 11
2010.040880428413
 21
959.3811444887947
 31
0.0
  0
LINE
  5
4A7
330
48D
100
AcDbEntity
  8
0
  6
Continuous
 62
     7
370
    15
100
AcDbLine
 10
2010.040880428413
 20
959.3811444887947
 30
0.0
 11
2010.241842322737
 21
959.3811444887947
 31
0.0
  0
LINE
  5
4A8
330
48D
100
AcDbEntity
  8
0
  6
Continuous
 62
     7
370
    15
100
AcDbLine
 10
2010.040880428413
 20
962.5811444887947
 30
0.0
 11
2010.241842322737
 21
962.5811444887947
 31
0.0
  0
LINE
  5
4A9
330
48D
100
AcDbEntity
  8
0
  6
Continuous
 62
     7
370
    15
100
AcDbLine
 10
2033.240880428413
 20
962.5811444887947
 30
0.0
 11
2033.240880428413
 21
959.3811444887947
 31
0.0
  0
LINE
  5
4AA
330
48D
100
AcDbEntity
  8
0
  6
Continuous
 62
     7
370
    15
100
AcDbLine
 10
2033.03991853409
 20
959.3811444887947
 30
0.0
 11
2033.240880428413
 21
959.3811444887947
 31
0.0
  0
LINE
  5
4AB
330
48D
100
AcDbEntity
  8
0
  6
Continuous
 62
     7
370
    15
100
AcDbLine
 10
2033.03991853409
 20
962.5811444887947
 30
0.0
 11
2033.240880428413
 21
962.5811444887947
 31
0.0
  0
LINE
  5
4AC
330
48D
100
AcDbEntity
  8
0
  6
Continuous
 62
     7
370
    15
100
AcDbLine
 10
2010.032929077494
 20
962.5811444887947
 30
0.0
 11
2010.032929077494
 21
959.3811444887947
 31
0.0
  0
LINE
  5
4AD
330
48D
100
AcDbEntity
  8
0
  6
Continuous
 62
     7
370
    15
100
AcDbLine
 10
2010.032929077494
 20
959.3811444887947
 30
0.0
 11
2010.040880428413
 21
959.3811444887947
 31
0.0
  0
LINE
  5
4AE
330
48D
100
AcDbEntity
  8
0
  6
Continuous
 62
     7
370
    15
100
AcDbLine
 10
2010.032929077494
 20
962.5811444887947
 30
0.0
 11
2010.040880428413
 21
962.5811444887947
 31
0.0
  0
ARC
  5
4AF
330
48D
100
AcDbEntity
  8
0
  6
Continuous
 62
     7
370
    15
100
AcDbCircle
 10
2021.640880428414
 20
957.281144488796
 30
0.0
 40
1.75
100
AcDbArc
 50
0.0
 51
180.0
  0
LINE
  5
4B0
330
48D
100
AcDbEntity
  8
0
  6
Continuous
 62
     7
370
    15
100
AcDbLine
 10
2019.890880428414
 20
957.281144488796
 30
0.0
 11
2019.890880428414
 21
955.7806518779571
 31
0.0
  0
LINE
  5
4B1
330
48D
100
AcDbEntity
  8
0
  6
Continuous
 62
     7
370
    15
100
AcDbLine
 10
2018.453727260709
 20
955.7806518779571
 30
0.0
 11
2019.890880428414
 21
955.7806518779571
 31
0.0
  0
LINE
  5
4B2
330
48D
100
AcDbEntity
  8
0
  6
Continuous
 62
     7
370
    15
100
AcDbLine
 10
2024.828033596118
 20
955.7806518779571
 30
0.0
 11
2024.890880428414
 21
959.3811444887947
 31
0.0
  0
LINE
  5
4B3
330
48D
100
AcDbEntity
  8
0
  6
Continuous
 62
     7
370
    15
100
AcDbLine
 10
2023.390880428414
 20
955.7806518779571
 30
0.0
 11
2024.828033596118
 21
955.7806518779571
 31
0.0
  0
LINE
  5
4B4
330
48D
100
AcDbEntity
  8
0
  6
Continuous
 62
     7
370
    15
100
AcDbLine
 10
2023.390880428414
 20
955.7806518779571
 30
0.0
 11
2023.390880428414
 21
957.281144488796
 31
0.0
  0
LINE
  5
4B5
330
48D
100
AcDbEntity
  8
0
  6
Continuous
 62
     7
370
    15
100
AcDbLine
 10
2018.390880428414
 20
959.3811444887951
 30
0.0
 11
2018.453727260709
 21
955.7806518779571
 31
0.0
  0
ENDBLK
  5
48F
330
48D
100
AcDbEntity
  8
0
100
AcDbBlockEnd
  0
BLOCK
  5
4B8
330
4B7
100
AcDbEntity
  8
0
100
AcDbBlockBegin
  2
3
 70
     0
 10
0.0
 20
0.0
 30
0.0
  3
3
  1

  0
LINE
  5
4BA
330
4B7
100
AcDbEntity
  8
0
  6
Continuous
 62
     7
370
    15
100
AcDbLine
 10
1993.044056112685
 20
982.3217733860145
 30
0.0
 11
1993.044056112685
 21
982.3088636628265
 31
0.0
  0
LINE
  5
4BB
330
4B7
100
AcDbEntity
  8
0
  6
Continuous
 62
     7
370
    15
100
AcDbLine
 10
1993.044056112685
 20
982.3088636628263
 30
0.0
 11
1989.844056112685
 21
982.3088636628263
 31
0.0
  0
LINE
  5
4BC
330
4B7
100
AcDbEntity
  8
0
  6
Continuous
 62
     7
370
    15
100
AcDbLine
 10
1989.844056112685
 20
982.3217733860142
 30
0.0
 11
1989.844056112685
 21
982.3088636628261
 31
0.0
  0
LINE
  5
4BD
330
4B7
100
AcDbEntity
  8
0
  6
Continuous
 62
     7
370
    15
100
AcDbLine
 10
1989.844056112685
 20
982.3217733860145
 30
0.0
 11
1993.044056112685
 21
982.3217733860145
 31
0.0
  0
LINE
  5
4BE
330
4B7
100
AcDbEntity
  8
0
  6
Continuous
 62
     7
370
    15
100
AcDbLine
 10
1993.044056112685
 20
992.5192167839144
 30
0.0
 11
1989.844056112685
 21
992.5192167839144
 31
0.0
  0
LINE
  5
4BF
330
4B7
100
AcDbEntity
  8
0
  6
Continuous
 62
     7
370
    15
100
AcDbLine
 10
1993.044056112685
 20
982.3217733860145
 30
0.0
 11
1993.044056112685
 21
992.5192167839144
 31
0.0
  0
LINE
  5
4C0
330
4B7
100
AcDbEntity
  8
0
  6
Continuous
 62
     7
370
    15
100
AcDbLine
 10
1989.844056112685
 20
992.5192167839144
 30
0.0
 11
1989.844056112685
 21
982.3217733860145
 31
0.0
  0
LINE
  5
4C1
330
4B7
100
AcDbEntity
  8
0
  6
Continuous
 62
     7
370
    15
100
AcDbLine
 10
1989.844056112685
 20
993.2692167839144
 30
0.0
 11
1993.044056112685
 21
993.2692167839144
 31
0.0
  0
LINE
  5
4C2
330
4B7
100
AcDbEntity
  8
0
  6
Continuous
 62
     7
370
    15
100
AcDbLine
 10
1993.044056112685
 20
993.2692167839144
 30
0.0
 11
1993.044056112685
 21
992.5192167839144
 31
0.0
  0
LINE
  5
4C3
330
4B7
100
AcDbEntity
  8
0
  6
Continuous
 62
     7
370
    15
100
AcDbLine
 10
1989.844056112685
 20
993.2692167839144
 30
0.0
 11
1989.844056112685
 21
992.5192167839144
 31
0.0
  0
LINE
  5
4C4
330
4B7
100
AcDbEntity
  8
0
  6
Continuous
 62
     7
370
    15
100
AcDbLine
 10
1989.844056112685
 20
976.4276603694105
 30
0.0
 11
1993.044056112685
 21
976.4276603694105
 31
0.0
  0
LINE
  5
4C5
330
4B7
100
AcDbEntity
  8
0
  6
Continuous
 62
     7
370
    15
100
AcDbLine
 10
1993.044056112685
 20
974.7776603694113
 30
0.0
 11
1989.844056112685
 21
974.7776603694113
 31
0.0
  0
LINE
  5
4C6
330
4B7
100
AcDbEntity
  8
0
  6
Continuous
 62
     7
370
    15
100
AcDbLine
 10
1993.044056112685
 20
974.7776603694113
 30
0.0
 11
1993.044056112685
 21
976.4276603694105
 31
0.0
  0
LINE
  5
4C7
330
4B7
100
AcDbEntity
  8
0
  6
Continuous
 62
     7
370
    15
100
AcDbLine
 10
1989.844056112685
 20
976.4276603694105
 30
0.0
 11
1989.844056112685
 21
974.7776603694113
 31
0.0
  0
LINE
  5
4C8
330
4B7
100
AcDbEntity
  8
0
  6
Continuous
 62
     7
370
    15
100
AcDbLine
 10
1993.044056112685
 20
976.7276603694114
 30
0.0
 11
1989.844056112685
 21
976.7276603694114
 31
0.0
  0
LINE
  5
4C9
330
4B7
100
AcDbEntity
  8
0
  6
Continuous
 62
     7
370
    15
100
AcDbLine
 10
1993.044056112685
 20
976.7276603694114
 30
0.0
 11
1993.044056112685
 21
976.4276603694105
 31
0.0
  0
LINE
  5
4CA
330
4B7
100
AcDbEntity
  8
0
  6
Continuous
 62
     7
370
    15
100
AcDbLine
 10
1989.844056112685
 20
976.7276603694114
 30
0.0
 11
1989.844056112685
 21
976.4276603694105
 31
0.0
  0
LINE
  5
4CB
330
4B7
100
AcDbEntity
  8
0
  6
Continuous
 62
     7
370
    15
100
AcDbLine
 10
1993.044056112685
 20
973.7776603694115
 30
0.0
 11
1989.844056112685
 21
973.7776603694115
 31
0.0
  0
LINE
  5
4CC
330
4B7
100
AcDbEntity
  8
0
  6
Continuous
 62
     7
370
    15
100
AcDbLine
 10
1993.044056112685
 20
974.7776603694113
 30
0.0
 11
1993.044056112685
 21
973.7776603694115
 31
0.0
  0
LINE
  5
4CD
330
4B7
100
AcDbEntity
  8
0
  6
Continuous
 62
     7
370
    15
100
AcDbLine
 10
1989.844056112685
 20
974.7776603694113
 30
0.0
 11
1989.844056112685
 21
973.7776603694115
 31
0.0
  0
LINE
  5
4CE
330
4B7
100
AcDbEntity
  8
0
  6
Continuous
 62
     7
370
    15
100
AcDbLine
 10
1993.044056112685
 20
976.7276603694114
 30
0.0
 11
1993.044056112685
 21
982.3088636628263
 31
0.0
  0
LINE
  5
4CF
330
4B7
100
AcDbEntity
  8
0
  6
Continuous
 62
     7
370
    15
100
AcDbLine
 10
1989.844056112685
 20
982.3088636628265
 30
0.0
 11
1989.844056112685
 21
976.7276603694114
 31
0.0
  0
LINE
  5
4D0
330
4B7
100
AcDbEntity
  8
0
  6
Continuous
 62
     7
370
    15
100
AcDbLine
 10
1993.044056112685
 20
999.4282528104664
 30
0.0
 11
1989.844056112685
 21
999.4282528104664
 31
0.0
  0
LINE
  5
4D1
330
4B7
100
AcDbEntity
  8
0
  6
Continuous
 62
     7
370
    15
100
AcDbLine
 10
1993.044056112685
 20
993.2692167839144
 30
0.0
 11
1993.044056112685
 21
999.4282528104664
 31
0.0
  0
LINE
  5
4D2
330
4B7
100
AcDbEntity
  8
0
  6
Continuous
 62
     7
370
    15
100
AcDbLine
 10
1989.844056112685
 20
999.4282528104664
 30
0.0
 11
1989.844056112685
 21
993.2692167839144
 31
0.0
  0
LINE
  5
4D3
330
4B7
100
AcDbEntity
  8
0
  6
Continuous
 62
     7
370
    15
100
AcDbLine
 10
1993.044056112685
 20
999.8819697612143
 30
0.0
 11
1989.844056112685
 21
999.8819697612145
 31
0.0
  0
LINE
  5
4D4
330
4B7
100
AcDbEntity
  8
0
  6
Continuous
 62
     7
370
    15
100
AcDbLine
 10
1993.044056112685
 20
999.8819697612143
 30
0.0
 11
1993.044056112685
 21
999.4282528104664
 31
0.0
  0
LINE
  5
4D5
330
4B7
100
AcDbEntity
  8
0
  6
Continuous
 62
     7
370
    15
100
AcDbLine
 10
1989.844056112685
 20
999.8819697612145
 30
0.0
 11
1989.844056112685
 21
999.4282528104664
 31
0.0
  0
LINE
  5
4D6
330
4B7
100
AcDbEntity
  8
0
  6
Continuous
 62
     7
370
    15
100
AcDbLine
 10
1989.844056112685
 20
1000.877660369409
 30
0.0
 11
1993.044056112685
 21
1000.877660369409
 31
0.0
  0
LINE
  5
4D7
330
4B7
100
AcDbEntity
  8
0
  6
Continuous
 62
     7
370
    15
100
AcDbLine
 10
1993.044056112685
 20
1000.877660369409
 30
0.0
 11
1993.044056112685
 21
999.8819697612143
 31
0.0
  0
LINE
  5
4D8
330
4B7
100
AcDbEntity
  8
0
  6
Continuous
 62
     7
370
    15
100
AcDbLine
 10
1989.844056112685
 20
1000.877660369409
 30
0.0
 11
1989.844056112685
 21
999.8819697612145
 31
0.0
  0
LINE
  5
4D9
330
4B7
100
AcDbEntity
  8
0
  6
Continuous
 62
     7
370
    15
100
AcDbLine
 10
1989.844056112685
 20
973.7776603694094
 30
0.0
 11
1986.243563501848
 21
973.8405072017048
 31
0.0
  0
LINE
  5
4DA
330
4B7
100
AcDbEntity
  8
0
  6
Continuous
 62
     7
370
    15
100
AcDbLine
 10
1986.243563501848
 20
974.0404767407362
 30
0.0
 11
1986.243563501848
 21
973.8405072017048
 31
0.0
  0
LINE
  5
4DB
330
4B7
100
AcDbEntity
  8
0
  6
Continuous
 62
     7
370
    15
100
AcDbLine
 10
1986.243563501848
 20
974.0404767407362
 30
0.0
 11
1989.844056112685
 21
973.9776299107592
 31
0.0
  0
ELLIPSE
  5
4DC
330
4B7
100
AcDbEntity
  8
0
  6
Continuous
 62
     7
370
    15
100
AcDbEllipse
 10
1989.845801486238
 20
973.9776603694092
 30
0.0
 11
0.0017453735530921
 21
0.1999999994201857
 31
0.0
210
0.0
220
0.0
230
1.0
 40
0.0087255388490349
 41
1.57094862004301
 42
3.141592651005161
  0
LINE
  5
4DD
330
4B7
100
AcDbEntity
  8
0
  6
Continuous
 62
     7
370
    15
100
AcDbLine
 10
1986.243563501848
 20
976.5110637644717
 30
0.0
 11
1986.243563501848
 21
974.0404767407362
 31
0.0
  0
LINE
  5
4DE
330
4B7
100
AcDbEntity
  8
0
  6
Continuous
 62
     7
370
    15
100
AcDbLine
 10
1986.243563501848
 20
976.5110637644717
 30
0.0
 11
1989.844056112685
 21
976.5739105967675
 31
0.0
  0
ENDBLK
  5
4B9
330
4B7
100
AcDbEntity
  8
0
100
AcDbBlockEnd
  0
BLOCK
  5
4E1
330
4E0
100
AcDbEntity
  8
0
100
AcDbBlockBegin
  2
4
 70
     0
 10
0.0
 20
0.0
 30
0.0
  3
4
  1

  0
LINE
  5
4E3
330
4E0
100
AcDbEntity
  8
0
  6
Continuous
 62
     7
370
    15
100
AcDbLine
 10
2062.394776792069
 20
1002.629476405509
 30
0.0
 11
2060.132035092272
 21
1001.323223426592
 31
0.0
  0
LINE
  5
4E4
330
4E0
100
AcDbEntity
  8
0
  6
Continuous
 62
     7
370
    15
100
AcDbLine
 10
2075.167199372817
 20
976.4792618517846
 30
0.0
 11
2073.24943032778
 21
975.3721573474665
 31
0.0
  0
LINE
  5
4E5
330
4E0
100
AcDbEntity
  8
0
  6
Continuous
 62
     7
370
    15
100
AcDbLine
 10
2073.555212030418
 20
972.6993870363836
 30
0.0
 11
2075.817953730215
 21
974.0056400152999
 31
0.0
  0
LINE
  5
4E6
330
4E0
100
AcDbEntity
  8
0
  6
Continuous
 62
     7
370
    15
100
AcDbLine
 10
2070.620905033401
 20
976.4846675246898
 30
0.0
 11
2070.863221642421
 21
976.6245539255116
 31
0.0
  0
LINE
  5
4E7
330
4E0
100
AcDbEntity
  8
0
  6
Continuous
 62
     7
370
    15
100
AcDbLine
 10
2070.863221642421
 20
975.8746067769093
 30
0.0
 11
2070.480387056683
 21
975.6536010748012
 31
0.0
  0
LINE
  5
4E8
330
4E0
100
AcDbEntity
  8
0
  6
Continuous
 62
     7
370
    15
100
AcDbLine
 10
2065.230087337463
 20
974.4239275389436
 30
0.0
 11
2067.819939776301
 21
975.8164124512976
 31
0.0
  0
LINE
  5
4E9
330
4E0
100
AcDbEntity
  8
0
  6
Continuous
 62
     7
370
    15
100
AcDbLine
 10
2067.821699718376
 20
975.8173932877902
 30
0.0
 11
2069.758359714141
 21
976.9354033058325
 31
0.0
  0
LINE
  5
4EA
330
4E0
100
AcDbEntity
  8
0
  6
Continuous
 62
     7
370
    15
100
AcDbLine
 10
2060.286592557279
 20
980.4787541886767
 30
0.0
 11
2061.95351172796
 21
981.4410461429504
 31
0.0
  0
LINE
  5
4EB
330
4E0
100
AcDbEntity
  8
0
  6
Continuous
 62
     7
370
    15
100
AcDbLine
 10
2058.489696909841
 20
984.7299503089921
 30
0.0
 11
2057.419626346219
 21
984.1122117215482
 31
0.0
  0
LINE
  5
4EC
330
4E0
100
AcDbEntity
  8
0
  6
Continuous
 62
     7
370
    15
100
AcDbLine
 10
2059.863548469091
 20
984.4535004820878
 30
0.0
 11
2058.214848385335
 21
987.3091327852145
 31
0.0
  0
LINE
  5
4ED
330
4E0
100
AcDbEntity
  8
0
  6
Continuous
 62
     7
370
    15
100
AcDbLine
 10
2058.214848385335
 20
987.3091327852145
 30
0.0
 11
2059.590108463853
 21
982.3804023003322
 31
0.0
  0
LWPOLYLINE
  5
4EE
330
4E0
100
AcDbEntity
  8
0
  6
Continuous
 62
     7
370
    15
100
AcDbPolyline
 90
        9
 70
   128
 43
0.0
 10
2059.863548469091
 20
982.2811019106987
 10
2059.855126059532
 20
982.2304479332418
 10
2059.830862031285
 20
982.1955517016043
 10
2059.793646493579
 20
982.1805697358868
 10
2059.747912221053
 20
982.1872865508847
 10
2059.699106662158
 20
982.2149021009986
 10
2059.653043088904
 20
982.2601270743527
 10
2059.615208173035
 20
982.3175746855559
 10
2059.590108463853
 20
982.3804023003322
  0
LINE
  5
4EF
330
4E0
100
AcDbEntity
  8
0
  6
Continuous
 62
     7
370
    15
100
AcDbLine
 10
2059.863548469091
 20
982.2811019106987
 30
0.0
 11
2059.863548469091
 21
984.4535004820878
 31
0.0
  0
LWPOLYLINE
  5
4F0
330
4E0
100
AcDbEntity
  8
0
  6
Continuous
 62
     7
370
    15
100
AcDbPolyline
 90
       40
 70
   128
 43
0.0
 10
2059.201582206998
 20
988.2642214340954
 10
2059.192425359895
 20
988.400489926915
 10
2059.165191976115
 20
988.5438014079776
 10
2059.120587385994
 20
988.6904441852012
 10
2059.059766824987
 20
988.8366202876841
 10
2058.984305513674
 20
988.9785438311545
 10
2058.896157860382
 20
989.1125390703857
 10
2058.797606843029
 20
989.2351355990658
 10
2058.691204881197
 20
989.3431582314994
 10
2058.579707729809
 20
989.4338092382477
 10
2058.466003106518
 20
989.5047408058529
 10
2058.353035901341
 20
989.5541158439728
 10
2058.243731905553
 20
989.5806555650553
 10
2058.140922035232
 20
989.5836726042654
 10
2058.047269012012
 20
989.563088821872
 10
2057.965198400004
 20
989.5194373270271
 10
2057.896835784948
 20
989.4538486705181
 10
2057.843951722665
 20
989.3680215640966
 10
2057.807915882589
 20
989.2641788847354
 10
2057.78966157405
 20
989.1450101032848
 10
2057.78966157405
 20
989.0136016285872
 10
2057.807915882589
 20
988.8733568711117
 10
2057.843951722665
 20
988.7279080964102
 10
2057.896835784948
 20
988.5810223513461
 10
2057.965198400004
 20
988.4365038995614
 10
2058.047269012012
 20
988.2980956930451
 10
2058.140922035232
 20
988.1693824316439
 10
2058.243731905553
 20
988.0536977212173
 10
2058.353035901341
 20
987.9540377349998
 10
2058.466003106518
 20
987.8729836142852
 10
2058.579707729809
 20
987.812634618224
 10
2058.691204881197
 20
987.7745537541144
 10
2058.797606843029
 20
987.759727296334
 10
2058.896157860382
 20
987.7685392423515
 10
2058.984305513674
 20
987.8007613673933
 10
2059.059766824987
 20
987.8555591353467
 10
2059.120587385994
 20
987.9315133128054
 10
2059.165191976115
 20
988.0266567264703
 10
2059.192425359895
 20
988.138525211904
 10
2059.201582206998
 20
988.2642214340954
  0
LWPOLYLINE
  5
4F1
330
4E0
100
AcDbEntity
  8
0
  6
Continuous
 62
     7
370
    15
100
AcDbPolyline
 90
       35
 70
   128
 43
0.0
 10
2058.855558864476
 20
994.3160343205724
 10
2058.846528986969
 20
994.433776393245
 10
2058.819746856096
 20
994.5579345755017
 10
2058.776124505202
 20
994.6842808093572
 10
2058.717147441129
 20
994.8085125253529
 10
2058.644824057057
 20
994.9263991614005
 10
2058.561617239089
 20
995.0339262294985
 10
2058.470360495616
 20
995.1274320243074
 10
2058.374161465585
 20
995.2037323181327
 10
2058.276296091587
 20
995.2602287959804
 10
2058.180097061556
 20
995.2949975380576
 10
2058.088840318083
 20
995.3068545365532
 10
2058.005633500115
 20
995.2953960156046
 10
2057.933310116043
 20
995.2610121813991
 10
2057.874333051969
 20
995.2048739341723
 10
2057.830710701075
 20
995.1288929946029
 10
2057.803928570203
 20
995.035656802459
 10
2057.794898692696
 20
994.9283404044393
 10
2057.803928570203
 20
994.8105983317667
 10
2057.830710701075
 20
994.6864401495099
 10
2057.874333051969
 20
994.5600939156545
 10
2057.933310116043
 20
994.4358621996586
 10
2058.005633500115
 20
994.3179755636112
 10
2058.088840318083
 20
994.2104484955132
 10
2058.180097061556
 20
994.1169427007043
 10
2058.276296091587
 20
994.040642406879
 10
2058.374161465585
 20
993.9841459290311
 10
2058.470360495616
 20
993.9493771869541
 10
2058.561617239089
 20
993.9375201884583
 10
2058.644824057057
 20
993.9489787094071
 10
2058.717147441129
 20
993.9833625436124
 10
2058.776124505202
 20
994.0395007908392
 10
2058.819746856096
 20
994.1154817304086
 10
2058.846528986969
 20
994.2087179225525
 10
2058.855558864476
 20
994.3160343205724
  0
LWPOLYLINE
  5
4F2
330
4E0
100
AcDbEntity
  8
0
  6
Continuous
 62
     7
370
    15
100
AcDbPolyline
 90
       40
 70
   128
 43
0.0
 10
2066.272650018864
 20
995.1958536522701
 10
2066.26349317176
 20
995.3321221450917
 10
2066.236259787981
 20
995.4754336261558
 10
2066.191655197859
 20
995.6220764033814
 10
2066.13083463685
 20
995.7682525058663
 10
2066.055373325537
 20
995.9101760493384
 10
2065.967225672244
 20
996.0441712885712
 10
2065.868674654889
 20
996.1667678172529
 10
2065.762272693057
 20
996.2747904496879
 10
2065.650775541667
 20
996.3654414564373
 10
2065.537070918375
 20
996.4363730240435
 10
2065.424103713196
 20
996.4857480621642
 10
2065.314799717407
 20
996.512287783247
 10
2065.211989847083
 20
996.515304822457
 10
2065.118336823863
 20
996.4947210400634
 10
2065.036266211854
 20
996.451069545218
 10
2064.967903596798
 20
996.3854808887083
 10
2064.915019534514
 20
996.2996537822855
 10
2064.878983694438
 20
996.1958111029231
 10
2064.860729385898
 20
996.0766423214707
 10
2064.860729385898
 20
995.9452338467714
 10
2064.878983694438
 20
995.8049890892944
 10
2064.915019534514
 20
995.6595403145909
 10
2064.967903596798
 20
995.512654569525
 10
2065.036266211854
 20
995.3681361177384
 10
2065.118336823863
 20
995.2297279112203
 10
2065.211989847083
 20
995.1010146498173
 10
2065.314799717407
 20
994.9853299393895
 10
2065.424103713196
 20
994.8856699531706
 10
2065.537070918375
 20
994.8046158324549
 10
2065.650775541667
 20
994.744266836393
 10
2065.762272693057
 20
994.7061859722831
 10
2065.868674654889
 20
994.6913595145025
 10
2065.967225672244
 20
994.7001714605198
 10
2066.055373325537
 20
994.7323935855623
 10
2066.13083463685
 20
994.7871913535163
 10
2066.191655197859
 20
994.863145530976
 10
2066.236259787981
 20
994.9582889446419
 10
2066.26349317176
 20
995.0701574300772
 10
2066.272650018864
 20
995.1958536522701
  0
ARC
  5
4F3
330
4E0
100
AcDbEntity
  8
0
  6
Continuous
 62
     7
370
    15
100
AcDbCircle
 10
2069.55686075007
 20
994.2156941958407
 30
0.0
 40
1.666400461877801
100
AcDbArc
 50
21.10673226447209
 51
46.12970872735388
  0
LINE
  5
4F4
330
4E0
100
AcDbEntity
  8
0
  6
Continuous
 62
     7
370
    15
100
AcDbLine
 10
2071.111464452459
 20
994.815775713525
 30
0.0
 11
2073.625880381204
 21
988.3351300172337
 31
0.0
  0
ARC
  5
4F5
330
4E0
100
AcDbEntity
  8
0
  6
Continuous
 62
     7
370
    15
100
AcDbCircle
 10
2071.815532479603
 20
987.6029240699288
 30
0.0
 40
1.952814654313624
100
AcDbArc
 50
1.108153109224382
 51
22.02116220104117
  0
LINE
  5
4F6
330
4E0
100
AcDbEntity
  8
0
  6
Continuous
 62
     7
370
    15
100
AcDbLine
 10
2073.767981899441
 20
987.6406909479731
 30
0.0
 11
2073.767981899441
 21
979.3140622366928
 31
0.0
  0
LINE
  5
4F7
330
4E0
100
AcDbEntity
  8
0
  6
Continuous
 62
     7
370
    15
100
AcDbLine
 10
2073.767981899441
 20
979.3140622366925
 30
0.0
 11
2073.758853346632
 21
979.3087907222053
 31
0.0
  0
LINE
  5
4F8
330
4E0
100
AcDbEntity
  8
0
  6
Continuous
 62
     7
370
    15
100
AcDbLine
 10
2073.758853346631
 20
979.3087907222057
 30
0.0
 11
2072.243077286054
 21
975.6265493477458
 31
0.0
  0
LINE
  5
4F9
330
4E0
100
AcDbEntity
  8
0
  6
Continuous
 62
     7
370
    15
100
AcDbLine
 10
2072.243077286054
 20
975.6265493477458
 30
0.0
 11
2073.55022741093
 21
974.8719476428036
 31
0.0
  0
ARC
  5
4FA
330
4E0
100
AcDbEntity
  8
0
  6
Continuous
 62
     7
370
    15
100
AcDbCircle
 10
2073.301794614879
 20
974.4835659267874
 30
0.0
 40
0.4610414422695947
100
AcDbArc
 50
2.605478485408507
 51
57.39452166010724
  0
LINE
  5
4FB
330
4E0
100
AcDbEntity
  8
0
  6
Continuous
 62
     7
370
    15
100
AcDbLine
 10
2073.762359445287
 20
974.5045241824634
 30
0.0
 11
2073.762359445287
 21
973.1572318428529
 31
0.0
  0
ARC
  5
4FC
330
4E0
100
AcDbEntity
  8
0
  6
Continuous
 62
     7
370
    15
100
AcDbCircle
 10
2073.329121808694
 20
973.0910507263001
 30
0.0
 40
0.438263379657189
100
AcDbArc
 50
231.3254267580365
 51
8.685324996706683
  0
LINE
  5
4FD
330
4E0
100
AcDbEntity
  8
0
  6
Continuous
 62
     7
370
    15
100
AcDbLine
 10
2073.0552526641
 20
972.7488950868785
 30
0.0
 11
2071.583188059242
 21
973.5986998946588
 31
0.0
  0
ARC
  5
4FE
330
4E0
100
AcDbEntity
  8
0
  6
Continuous
 62
     7
370
    15
100
AcDbCircle
 10
2072.856924231214
 20
975.5680274319949
 30
0.0
 40
2.345347476409441
100
AcDbArc
 50
194.5206595236052
 51
237.1057216372303
  0
LINE
  5
4FF
330
4E0
100
AcDbEntity
  8
0
  6
Continuous
 62
     7
370
    15
100
AcDbLine
 10
2070.586493494446
 20
974.9799806186899
 30
0.0
 11
2070.447486321307
 21
975.5012539031522
 31
0.0
  0
LWPOLYLINE
  5
500
330
4E0
100
AcDbEntity
  8
0
  6
Continuous
 62
     7
370
    15
100
AcDbPolyline
 90
        9
 70
   128
 43
0.0
 10
2070.447486321307
 20
975.5012539031522
 10
2070.439798133371
 20
975.5437680305147
 10
2070.440167454093
 20
975.5826496664663
 10
2070.44857311554
 20
975.6156702767695
 10
2070.464533340033
 20
975.6409372568871
 10
2070.487133353647
 20
975.6570024082314
 10
2070.515077817261
 20
975.6629449429054
 10
2070.546765070031
 20
975.6584242594488
 10
2070.580378929947
 20
975.6436994647021
  0
LINE
  5
501
330
4E0
100
AcDbEntity
  8
0
  6
Continuous
 62
     7
370
    15
100
AcDbLine
 10
2070.580378929947
 20
975.6436994647021
 30
0.0
 11
2070.721800286184
 21
975.5620586535199
 31
0.0
  0
ARC
  5
502
330
4E0
100
AcDbEntity
  8
0
  6
Continuous
 62
     7
370
    15
100
AcDbCircle
 10
2070.777006768936
 20
975.6297405653349
 30
0.0
 40
0.0873418394857263
100
AcDbArc
 50
230.7967147643985
 51
9.214036990437078
  0
LINE
  5
503
330
4E0
100
AcDbEntity
  8
0
  6
Continuous
 62
     7
370
    15
100
AcDbLine
 10
2070.863221642421
 20
975.643726004715
 30
0.0
 11
2070.863221642421
 21
978.0970317196326
 31
0.0
  0
LINE
  5
504
330
4E0
100
AcDbEntity
  8
0
  6
Continuous
 62
     7
370
    15
100
AcDbLine
 10
2070.863221642421
 20
978.0970317196311
 30
0.0
 11
2069.865874355524
 21
978.672788053039
 31
0.0
  0
LINE
  5
505
330
4E0
100
AcDbEntity
  8
0
  6
Continuous
 62
     7
370
    15
100
AcDbLine
 10
2069.865874355523
 20
978.6727880530412
 30
0.0
 11
2070.643387647276
 21
976.6688283618851
 31
0.0
  0
LWPOLYLINE
  5
506
330
4E0
100
AcDbEntity
  8
0
  6
Continuous
 62
     7
370
    15
100
AcDbPolyline
 90
        9
 70
   128
 43
0.0
 10
2070.643387647276
 20
976.6688283618851
 10
2070.657906837206
 20
976.6193365974011
 10
2070.662300861922
 20
976.5726933654992
 10
2070.656244960255
 20
976.5323460546959
 10
2070.640186722244
 20
976.5012767237013
 10
2070.615313007869
 20
976.4817816982743
 10
2070.583462226558
 20
976.4753018504139
 10
2070.546988460851
 20
976.4823161039037
 10
2070.508587476797
 20
976.5023060371857
  0
LINE
  5
507
330
4E0
100
AcDbEntity
  8
0
  6
Continuous
 62
     7
370
    15
100
AcDbLine
 10
2070.508587476797
 20
976.5023060371857
 30
0.0
 11
2067.863640276533
 21
978.0292015550129
 31
0.0
  0
LINE
  5
508
330
4E0
100
AcDbEntity
  8
0
  6
Continuous
 62
     7
370
    15
100
AcDbLine
 10
2067.863640276533
 20
978.0292015550129
 30
0.0
 11
2063.267446198821
 21
980.6825279184366
 31
0.0
  0
LINE
  5
509
330
4E0
100
AcDbEntity
  8
0
  6
Continuous
 62
     7
370
    15
100
AcDbLine
 10
2063.267446198821
 20
980.6825279184366
 30
0.0
 11
2060.622498998558
 21
982.2094234362637
 31
0.0
  0
ARC
  5
50A
330
4E0
100
AcDbEntity
  8
0
  6
Continuous
 62
     7
370
    15
100
AcDbCircle
 10
2060.737749798924
 20
982.4469291573478
 30
0.0
 40
0.2639918834601444
100
AcDbArc
 50
161.2967141291793
 51
244.1147952923259
  0
LINE
  5
50B
330
4E0
100
AcDbEntity
  8
0
  6
Continuous
 62
     7
370
    15
100
AcDbLine
 10
2060.487698828078
 20
982.5315827249728
 30
0.0
 11
2061.265212119831
 21
983.6378446775043
 31
0.0
  0
LINE
  5
50C
330
4E0
100
AcDbEntity
  8
0
  6
Continuous
 62
     7
370
    15
100
AcDbLine
 10
2061.265212119831
 20
983.6378446775027
 30
0.0
 11
2060.256619924624
 21
984.2200925583012
 31
0.0
  0
LINE
  5
50D
330
4E0
100
AcDbEntity
  8
0
  6
Continuous
 62
     7
370
    15
100
AcDbLine
 10
2060.256619924624
 20
984.2200925583027
 30
0.0
 11
2060.256619924624
 21
981.7667868433851
 31
0.0
  0
ARC
  5
50E
330
4E0
100
AcDbEntity
  8
0
  6
Continuous
 62
     7
370
    15
100
AcDbCircle
 10
2060.563663144896
 20
981.7807590138366
 30
0.0
 40
0.3073609615131874
100
AcDbArc
 50
182.6054784855262
 51
237.3945216600348
  0
LINE
  5
50F
330
4E0
100
AcDbEntity
  8
0
  6
Continuous
 62
     7
370
    15
100
AcDbLine
 10
2060.539462637098
 20
981.4401970586436
 30
0.0
 11
2060.398041280861
 21
981.5218378698258
 31
0.0
  0
ARC
  5
510
330
4E0
100
AcDbEntity
  8
0
  6
Continuous
 62
     7
370
    15
100
AcDbCircle
 10
2060.395701226212
 20
981.1978435901263
 30
0.0
 40
0.2817845754515472
100
AcDbArc
 50
349.0497914057809
 51
59.32404831589775
  0
LINE
  5
511
330
4E0
100
AcDbEntity
  8
0
  6
Continuous
 62
     7
370
    15
100
AcDbLine
 10
2060.533348072599
 20
980.7835379385318
 30
0.0
 11
2060.672355245737
 21
981.144316957104
 31
0.0
  0
ARC
  5
512
330
4E0
100
AcDbEntity
  8
0
  6
Continuous
 62
     7
370
    15
100
AcDbCircle
 10
2059.948822785186
 20
981.0408804565982
 30
0.0
 40
0.6386665665503731
100
AcDbArc
 50
229.8073954822858
 51
336.2380740842069
  0
LINE
  5
513
330
4E0
100
AcDbEntity
  8
0
  6
Continuous
 62
     7
370
    15
100
AcDbLine
 10
2059.536653507803
 20
980.5530162644194
 30
0.0
 11
2058.064588902945
 21
981.4028210721998
 31
0.0
  0
ARC
  5
514
330
4E0
100
AcDbEntity
  8
0
  6
Continuous
 62
     7
370
    15
100
AcDbCircle
 10
2058.886209821654
 20
982.6936807119103
 30
0.0
 40
1.53015670553524
100
AcDbArc
 50
182.4763980378334
 51
237.5236021078102
  0
LINE
  5
515
330
4E0
100
AcDbEntity
  8
0
  6
Continuous
 62
     7
370
    15
100
AcDbLine
 10
2057.357482121758
 20
983.9748582796074
 30
0.0
 11
2057.357482121758
 21
982.6275659399966
 31
0.0
  0
ARC
  5
516
330
4E0
100
AcDbEntity
  8
0
  6
Continuous
 62
     7
370
    15
100
AcDbCircle
 10
2057.486804431986
 20
983.9958364386772
 30
0.0
 40
0.131012759229143
100
AcDbArc
 50
50.7967147648563
 51
189.2140369902572
  0
LINE
  5
517
330
4E0
100
AcDbEntity
  8
0
  6
Continuous
 62
     7
370
    15
100
AcDbLine
 10
2057.569614156114
 20
984.0973593064004
 30
0.0
 11
2058.87676428099
 21
983.3427576014585
 31
0.0
  0
LINE
  5
518
330
4E0
100
AcDbEntity
  8
0
  6
Continuous
 62
     7
370
    15
100
AcDbLine
 10
2058.87676428099
 20
983.3427576014585
 30
0.0
 11
2057.363104575912
 21
988.7674920561902
 31
0.0
  0
LINE
  5
519
330
4E0
100
AcDbEntity
  8
0
  6
Continuous
 62
     7
370
    15
100
AcDbLine
 10
2057.363104575912
 20
988.7674920561902
 30
0.0
 11
2057.363104575912
 21
997.1110250451165
 31
0.0
  0
ARC
  5
51A
330
4E0
100
AcDbEntity
  8
0
  6
Continuous
 62
     7
370
    15
100
AcDbCircle
 10
2058.282942489856
 20
997.1487973238501
 30
0.0
 40
0.9206131288268421
100
AcDbArc
 50
147.6507958588707
 51
182.3514761559019
  0
LINE
  5
51B
330
4E0
100
AcDbEntity
  8
0
  6
Continuous
 62
     7
370
    15
100
AcDbLine
 10
2057.505206094149
 20
997.6413971936844
 30
0.0
 11
2060.019622022894
 21
1001.218960052502
 31
0.0
  0
ARC
  5
51C
330
4E0
100
AcDbEntity
  8
0
  6
Continuous
 62
     7
370
    15
100
AcDbCircle
 10
2060.319520738357
 20
1001.002619346294
 30
0.0
 40
0.3697871559404259
100
AcDbArc
 50
74.33572057152201
 51
144.194102257294
  0
LINE
  5
51D
330
4E0
100
AcDbEntity
  8
0
  6
Continuous
 62
     7
370
    15
100
AcDbLine
 10
2060.419363348618
 20
1001.358672704478
 30
0.0
 11
2062.65235505633
 21
1000.88261604803
 31
0.0
  0
LINE
  5
51E
330
4E0
100
AcDbEntity
  8
0
  6
Continuous
 62
     7
370
    15
100
AcDbLine
 10
2062.65235505633
 20
1000.88261604803
 30
0.0
 11
2068.478731419024
 21
997.5191205678614
 31
0.0
  0
LINE
  5
51F
330
4E0
100
AcDbEntity
  8
0
  6
Continuous
 62
     7
370
    15
100
AcDbLine
 10
2068.478731419024
 20
997.5191205678614
 30
0.0
 11
2070.711723126735
 21
995.4170198762085
 31
0.0
  0
LWPOLYLINE
  5
520
330
4E0
100
AcDbEntity
  8
0
  6
Continuous
 62
     7
370
    15
100
AcDbPolyline
 90
       35
 70
   128
 43
0.0
 10
2073.336187782658
 20
985.9565451828292
 10
2073.327157905151
 20
986.074287255502
 10
2073.300375774278
 20
986.1984454377587
 10
2073.256753423385
 20
986.3247916716144
 10
2073.197776359311
 20
986.4490233876102
 10
2073.12545297524
 20
986.5669100236578
 10
2073.042246157271
 20
986.6744370917556
 10
2072.950989413798
 20
986.7679428865647
 10
2072.854790383767
 20
986.8442431803901
 10
2072.756925009769
 20
986.9007396582379
 10
2072.660725979738
 20
986.9355084003151
 10
2072.569469236265
 20
986.9473653988107
 10
2072.486262418296
 20
986.9359068778619
 10
2072.413939034225
 20
986.9015230436566
 10
2072.354961970151
 20
986.8453847964298
 10
2072.311339619258
 20
986.7694038568604
 10
2072.284557488385
 20
986.6761676647163
 10
2072.275527610878
 20
986.5688512666965
 10
2072.284557488385
 20
986.451109194024
 10
2072.311339619258
 20
986.3269510117671
 10
2072.354961970151
 20
986.2006047779114
 10
2072.413939034225
 20
986.0763730619156
 10
2072.486262418296
 20
985.958486425868
 10
2072.569469236265
 20
985.85095935777
 10
2072.660725979738
 20
985.7574535629611
 10
2072.756925009769
 20
985.6811532691356
 10
2072.854790383767
 20
985.6246567912878
 10
2072.950989413798
 20
985.5898880492107
 10
2073.042246157271
 20
985.5780310507149
 10
2073.12545297524
 20
985.5894895716639
 10
2073.197776359311
 20
985.6238734058692
 10
2073.256753423385
 20
985.680011653096
 10
2073.300375774278
 20
985.7559925926654
 10
2073.327157905151
 20
985.8492287848095
 10
2073.336187782658
 20
985.9565451828292
  0
LINE
  5
521
330
4E0
100
AcDbEntity
  8
0
  6
Continuous
 62
     7
370
    15
100
AcDbLine
 10
2071.529733103192
 20
975.4878037091284
 30
0.0
 11
2072.897980984401
 21
978.8116581291458
 31
0.0
  0
LINE
  5
522
330
4E0
100
AcDbEntity
  8
0
  6
Continuous
 62
     7
370
    15
100
AcDbLine
 10
2072.897980984401
 20
978.8116581291458
 30
0.0
 11
2071.261915552108
 21
977.8668706246856
 31
0.0
  0
LINE
  5
523
330
4E0
100
AcDbEntity
  8
0
  6
Continuous
 62
     7
370
    15
100
AcDbLine
 10
2071.261915552108
 20
977.8668706246854
 30
0.0
 11
2071.256293097953
 21
977.8701163983807
 31
0.0
  0
LINE
  5
524
330
4E0
100
AcDbEntity
  8
0
  6
Continuous
 62
     7
370
    15
100
AcDbLine
 10
2071.256293097953
 20
977.8701163983809
 30
0.0
 11
2071.256293097953
 21
975.704210429528
 31
0.0
  0
LWPOLYLINE
  5
525
330
4E0
100
AcDbEntity
  8
0
  6
Continuous
 62
     7
370
    15
100
AcDbPolyline
 90
        9
 70
   128
 43
0.0
 10
2071.529733103192
 20
975.4878037091284
 10
2071.50463339401
 20
975.4539556017272
 10
2071.466798478141
 20
975.4401912545617
 10
2071.420734904886
 20
975.4481501508363
 10
2071.371929345992
 20
975.4768842995853
 10
2071.326195073465
 20
975.5229711516888
 10
2071.28897953576
 20
975.5809212626381
 10
2071.264715507513
 20
975.6438321449813
 10
2071.256293097953
 20
975.704210429528
  0
LWPOLYLINE
  5
526
330
4E0
100
AcDbEntity
  8
0
  6
Continuous
 62
     7
370
    15
100
AcDbPolyline
 90
       40
 70
   128
 43
0.0
 10
2073.343717830729
 20
980.1001403158645
 10
2073.334560983626
 20
980.2364088086848
 10
2073.307327599847
 20
980.3797202897483
 10
2073.262723009726
 20
980.5263630669728
 10
2073.201902448717
 20
980.6725391694564
 10
2073.126441137404
 20
980.8144627129278
 10
2073.038293484112
 20
980.9484579521598
 10
2072.939742466758
 20
981.0710544808408
 10
2072.833340504926
 20
981.1790771132749
 10
2072.721843353537
 20
981.2697281200238
 10
2072.608138730246
 20
981.3406596876294
 10
2072.495171525068
 20
981.3900347257495
 10
2072.38586752928
 20
981.4165744468324
 10
2072.283057658957
 20
981.4195914860421
 10
2072.189404635738
 20
981.3990077036489
 10
2072.107334023729
 20
981.3553562088037
 10
2072.038971408673
 20
981.2897675522943
 10
2071.986087346389
 20
981.2039404458721
 10
2071.950051506313
 20
981.1000977665106
 10
2071.931797197773
 20
980.9809289850591
 10
2071.931797197773
 20
980.8495205103607
 10
2071.950051506313
 20
980.7092757528845
 10
2071.986087346389
 20
980.563826978182
 10
2072.038971408673
 20
980.4169412331171
 10
2072.107334023729
 20
980.2724227813316
 10
2072.189404635738
 20
980.1340145748145
 10
2072.283057658957
 20
980.0053013134123
 10
2072.38586752928
 20
979.8896166029852
 10
2072.495171525068
 20
979.789956616767
 10
2072.608138730246
 20
979.7089024960518
 10
2072.721843353537
 20
979.6485534999904
 10
2072.833340504926
 20
979.6104726358807
 10
2072.939742466758
 20
979.5956461781001
 10
2073.038293484112
 20
979.6044581241176
 10
2073.126441137404
 20
979.6366802491597
 10
2073.201902448717
 20
979.6914780171134
 10
2073.262723009726
 20
979.7674321945725
 10
2073.307327599847
 20
979.862575608238
 10
2073.334560983626
 20
979.9744440936724
 10
2073.343717830729
 20
980.1001403158645
  0
LINE
  5
527
330
4E0
100
AcDbEntity
  8
0
  6
Continuous
 62
     7
370
    15
100
AcDbLine
 10
2073.625880381204
 20
988.3351300172337
 30
0.0
 11
2075.888622081001
 21
989.6413829961502
 31
0.0
  0
LINE
  5
528
330
4E0
100
AcDbEntity
  8
0
  6
Continuous
 62
     7
370
    15
100
AcDbLine
 10
2073.374206152256
 20
996.1220286924413
 30
0.0
 11
2071.111464452459
 21
994.815775713525
 31
0.0
  0
LINE
  5
529
330
4E0
100
AcDbEntity
  8
0
  6
Continuous
 62
     7
370
    15
100
AcDbLine
 10
2075.888622081001
 20
989.6413829961502
 30
0.0
 11
2073.374206152256
 21
996.1220286924413
 31
0.0
  0
LINE
  5
52A
330
4E0
100
AcDbEntity
  8
0
  6
Continuous
 62
     7
370
    15
100
AcDbLine
 10
2068.478731419024
 20
997.5191205678614
 30
0.0
 11
2070.741473118821
 21
998.8253735467777
 31
0.0
  0
LINE
  5
52B
330
4E0
100
AcDbEntity
  8
0
  6
Continuous
 62
     7
370
    15
100
AcDbLine
 10
2072.974464826532
 20
996.7232728551248
 30
0.0
 11
2070.711723126735
 21
995.4170198762085
 31
0.0
  0
LINE
  5
52C
330
4E0
100
AcDbEntity
  8
0
  6
Continuous
 62
     7
370
    15
100
AcDbLine
 10
2070.741473118821
 20
998.8253735467777
 30
0.0
 11
2072.974464826532
 21
996.7232728551248
 31
0.0
  0
ARC
  5
52D
330
4E0
100
AcDbEntity
  8
0
  6
Continuous
 62
     7
370
    15
100
AcDbCircle
 10
2071.819602449867
 20
995.5219471747563
 30
0.0
 40
1.666400461878671
100
AcDbArc
 50
21.10673226447817
 51
46.12970872735388
  0
LINE
  5
52E
330
4E0
100
AcDbEntity
  8
0
  6
Continuous
 62
     7
370
    15
100
AcDbLine
 10
2062.65235505633
 20
1000.88261604803
 30
0.0
 11
2064.915096756127
 21
1002.188869026946
 31
0.0
  0
LINE
  5
52F
330
4E0
100
AcDbEntity
  8
0
  6
Continuous
 62
     7
370
    15
100
AcDbLine
 10
2064.915096756127
 20
1002.188869026946
 30
0.0
 11
2070.741473118821
 21
998.8253735467781
 31
0.0
  0
LINE
  5
530
330
4E0
100
AcDbEntity
  8
0
  6
Continuous
 62
     7
370
    15
100
AcDbLine
 10
2076.030723599238
 20
988.9469439268895
 30
0.0
 11
2073.767981899441
 21
987.6406909479731
 31
0.0
  0
ARC
  5
531
330
4E0
100
AcDbEntity
  8
0
  6
Continuous
 62
     7
370
    15
100
AcDbCircle
 10
2074.078274179399
 20
988.909177048845
 30
0.0
 40
1.952814654314079
100
AcDbArc
 50
1.108153109224382
 51
22.02116220103512
  0
LINE
  5
532
330
4E0
100
AcDbEntity
  8
0
  6
Continuous
 62
     7
370
    15
100
AcDbLine
 10
2073.767981899441
 20
979.3140622366928
 30
0.0
 11
2076.030723599238
 21
980.6203152156092
 31
0.0
  0
LINE
  5
533
330
4E0
100
AcDbEntity
  8
0
  6
Continuous
 62
     7
370
    15
100
AcDbLine
 10
2076.030723599238
 20
980.6203152156092
 30
0.0
 11
2076.030723599238
 21
988.9469439268895
 31
0.0
  0
LINE
  5
534
330
4E0
100
AcDbEntity
  8
0
  6
Continuous
 62
     7
370
    15
100
AcDbLine
 10
2062.682105048415
 20
1002.664925683395
 30
0.0
 11
2060.419363348618
 21
1001.358672704478
 31
0.0
  0
LINE
  5
535
330
4E0
100
AcDbEntity
  8
0
  6
Continuous
 62
     7
370
    15
100
AcDbLine
 10
2064.915096756127
 20
1002.188869026946
 30
0.0
 11
2062.682105048415
 21
1002.664925683395
 31
0.0
  0
LINE
  5
536
330
4E0
100
AcDbEntity
  8
0
  6
Continuous
 62
     7
370
    15
100
AcDbLine
 10
2076.021595046428
 20
980.615043701122
 30
0.0
 11
2073.758853346632
 21
979.3087907222057
 31
0.0
  0
LINE
  5
537
330
4E0
100
AcDbEntity
  8
0
  6
Continuous
 62
     7
370
    15
100
AcDbLine
 10
2076.030723599238
 20
980.6203152156092
 30
0.0
 11
2076.021595046428
 21
980.615043701122
 31
0.0
  0
LINE
  5
538
330
4E0
100
AcDbEntity
  8
0
  6
Continuous
 62
     7
370
    15
100
AcDbLine
 10
2072.243077286054
 20
975.6265493477458
 30
0.0
 11
2072.525919998529
 21
975.7898309701102
 31
0.0
  0
LINE
  5
539
330
4E0
100
AcDbEntity
  8
0
  6
Continuous
 62
     7
370
    15
100
AcDbLine
 10
2074.104335956652
 20
975.9574884529893
 30
0.0
 11
2076.021595046428
 21
980.615043701122
 31
0.0
  0
ARC
  5
53A
330
4E0
100
AcDbEntity
  8
0
  6
Continuous
 62
     7
370
    15
100
AcDbCircle
 10
2062.583613751177
 20
1002.281060137761
 30
0.0
 40
0.3962994988088551
100
AcDbArc
 50
75.60960962719295
 51
118.457100654903
  0
LINE
  5
53B
330
4E0
100
AcDbEntity
  8
0
  6
Continuous
 62
     7
370
    15
100
AcDbLine
 10
2071.261915552108
 20
977.8668706246854
 30
0.0
 11
2072.873609797603
 21
978.7524537422294
 31
0.0
  0
LINE
  5
53C
330
4E0
100
AcDbEntity
  8
0
  6
Continuous
 62
     7
370
    15
100
AcDbLine
 10
2075.812969110728
 20
976.1782006217199
 30
0.0
 11
2073.55022741093
 21
974.8719476428036
 31
0.0
  0
LINE
  5
53D
330
4E0
100
AcDbEntity
  8
0
  6
Continuous
 62
     7
370
    15
100
AcDbLine
 10
2073.762359445287
 20
974.5045241824634
 30
0.0
 11
2076.025101145084
 21
975.8107771613799
 31
0.0
  0
ARC
  5
53E
330
4E0
100
AcDbEntity
  8
0
  6
Continuous
 62
     7
370
    15
100
AcDbCircle
 10
2075.564536314676
 20
975.7898189057039
 30
0.0
 40
0.4610414422693022
100
AcDbArc
 50
2.605478485395493
 51
57.39452166012171
  0
LINE
  5
53F
330
4E0
100
AcDbEntity
  8
0
  6
Continuous
 62
     7
370
    15
100
AcDbLine
 10
2072.525919998529
 20
975.7898309701102
 30
0.0
 11
2073.337288195391
 21
975.321438080085
 31
0.0
  0
LINE
  5
540
330
4E0
100
AcDbEntity
  8
0
  6
Continuous
 62
     7
370
    15
100
AcDbLine
 10
2073.337288195391
 20
975.321438080085
 30
0.0
 11
2075.317187182713
 21
976.4644094366369
 31
0.0
  0
LINE
  5
541
330
4E0
100
AcDbEntity
  8
0
  6
Continuous
 62
     7
370
    15
100
AcDbLine
 10
2075.317187182713
 20
976.4644094366369
 30
0.0
 11
2075.812969110728
 21
976.1782006217199
 31
0.0
  0
LINE
  5
542
330
4E0
100
AcDbEntity
  8
0
  6
Continuous
 62
     7
370
    15
100
AcDbLine
 10
2076.025101145084
 20
974.4634848217692
 30
0.0
 11
2073.762359445287
 21
973.1572318428529
 31
0.0
  0
LINE
  5
543
330
4E0
100
AcDbEntity
  8
0
  6
Continuous
 62
     7
370
    15
100
AcDbLine
 10
2076.025101145084
 20
974.4634848217692
 30
0.0
 11
2076.025101145084
 21
975.8107771613799
 31
0.0
  0
ARC
  5
544
330
4E0
100
AcDbEntity
  8
0
  6
Continuous
 62
     7
370
    15
100
AcDbCircle
 10
2075.229468090395
 20
976.3433297436364
 30
0.0
 40
0.149515655415335
100
AcDbArc
 50
54.07764644588771
 51
114.6118951255852
  0
ARC
  5
545
330
4E0
100
AcDbEntity
  8
0
  6
Continuous
 62
     7
370
    15
100
AcDbCircle
 10
2075.538679803332
 20
974.4077780947129
 30
0.0
 40
0.4896008181678581
100
AcDbArc
 50
304.7789244315197
 51
6.533255961861873
  0
ARC
  5
546
330
4E0
100
AcDbEntity
  8
0
  6
Continuous
 62
     7
370
    15
100
AcDbCircle
 10
2074.269798732179
 20
975.9007755965095
 30
0.0
 40
0.1749122013327914
100
AcDbArc
 50
161.0806969873868
 51
192.5878286671281
  0
LINE
  5
547
330
4E0
100
AcDbEntity
  8
0
  6
Continuous
 62
     7
370
    15
100
AcDbLine
 10
2065.273268114506
 20
974.5164680621719
 30
0.0
 11
2067.863640276533
 21
975.9092324157764
 31
0.0
  0
LINE
  5
548
330
4E0
100
AcDbEntity
  8
0
  6
Continuous
 62
     7
370
    15
100
AcDbLine
 10
2065.273268114506
 20
976.5338031963672
 30
0.0
 11
2065.273268114506
 21
974.5164680621719
 31
0.0
  0
LINE
  5
549
330
4E0
100
AcDbEntity
  8
0
  6
Continuous
 62
     7
370
    15
100
AcDbLine
 10
2065.273268114506
 20
976.5338031963674
 30
0.0
 11
2067.863640276533
 21
978.0292015550129
 31
0.0
  0
LINE
  5
54A
330
4E0
100
AcDbEntity
  8
0
  6
Continuous
 62
     7
370
    15
100
AcDbLine
 10
2067.863640276533
 20
975.9092572865075
 30
0.0
 11
2067.863640276533
 21
978.0292015550129
 31
0.0
  0
ELLIPSE
  5
54B
330
4E0
100
AcDbEntity
  8
0
  6
Continuous
 62
     7
370
    15
100
AcDbEllipse
 10
2064.080618997186
 20
978.4687053962466
 30
0.0
 11
1.749928570456745
 21
0.0269232261755121
 31
0.0
210
0.0
220
0.0
230
1.0
 40
0.5872748834124622
 41
5.488751972559187
 42
8.630344626149277
  0
LINE
  5
54C
330
4E0
100
AcDbEntity
  8
0
  6
Continuous
 62
     7
370
    15
100
AcDbLine
 10
2062.84318213011
 20
979.1830624940912
 30
0.0
 11
2061.782173629865
 21
978.5491691440794
 31
0.0
  0
LINE
  5
54D
330
4E0
100
AcDbEntity
  8
0
  6
Continuous
 62
     7
370
    15
100
AcDbLine
 10
2060.765952879378
 20
979.1358208961023
 30
0.0
 11
2061.782173629865
 21
978.5491691440794
 31
0.0
  0
LINE
  5
54E
330
4E0
100
AcDbEntity
  8
0
  6
Continuous
 62
     7
370
    15
100
AcDbLine
 10
2063.267446198821
 20
980.6825279184367
 30
0.0
 11
2060.765952879378
 21
979.1358208961026
 31
0.0
  0
LINE
  5
54F
330
4E0
100
AcDbEntity
  8
0
  6
Continuous
 62
     7
370
    15
100
AcDbLine
 10
2064.257047364018
 20
977.1204549483897
 30
0.0
 11
2065.273268114506
 21
976.533803196367
 31
0.0
  0
LINE
  5
550
330
4E0
100
AcDbEntity
  8
0
  6
Continuous
 62
     7
370
    15
100
AcDbLine
 10
2064.257047364018
 20
977.1204549483897
 30
0.0
 11
2065.318055864262
 21
977.7543482984015
 31
0.0
  0
LINE
  5
551
330
4E0
100
AcDbEntity
  8
0
  6
Continuous
 62
     7
370
    15
100
AcDbLine
 10
2065.131868297426
 20
974.4348131493103
 30
0.0
 11
2064.257047364018
 21
974.9398365244417
 31
0.0
  0
LINE
  5
552
330
4E0
100
AcDbEntity
  8
0
  6
Continuous
 62
     7
370
    15
100
AcDbLine
 10
2064.257047364018
 20
974.9398365244417
 30
0.0
 11
2064.257047364018
 21
977.1204549483897
 31
0.0
  0
ELLIPSE
  5
553
330
4E0
100
AcDbEntity
  8
0
  6
Continuous
 62
     7
370
    15
100
AcDbEllipse
 10
2065.13182521583
 20
974.5981710585763
 30
0.0
 11
-0.1000223415011874
 21
0.1732625335835963
 31
0.0
210
0.0
220
0.0
230
1.0
 40
0.5772057093582427
 41
2.356427998021095
 42
3.926919738320978
  0
ELLIPSE
  5
554
330
4E0
100
AcDbEntity
  8
0
  6
Continuous
 62
     7
370
    15
100
AcDbEllipse
 10
2067.72345308577
 20
975.9916105662528
 30
0.0
 11
-0.0973703674566764
 21
0.1747143462879421
 31
0.0
210
0.0
220
0.0
230
1.0
 40
0.5772928154138264
 41
3.132867980397975
 42
3.935720607614969
  0
LINE
  5
555
330
4E0
100
AcDbEntity
  8
0
  6
Continuous
 62
     7
370
    15
100
AcDbLine
 10
2062.84318213011
 20
976.9596717093385
 30
0.0
 11
2062.84318213011
 21
979.1830624940912
 31
0.0
  0
ELLIPSE
  5
556
330
4E0
100
AcDbEntity
  8
0
  6
Continuous
 62
     7
370
    15
100
AcDbEllipse
 10
2064.080618997186
 20
976.2453146114935
 30
0.0
 11
1.749937878874987
 21
-0.0259998815340623
 31
0.0
210
0.0
220
0.0
230
1.0
 40
0.5671245594179998
 41
1.385789919188377
 42
2.364620402098652
  0
LINE
  5
557
330
4E0
100
AcDbEntity
  8
0
  6
Continuous
 62
     7
370
    15
100
AcDbLine
 10
2061.782173629865
 20
978.5491691440794
 30
0.0
 11
2061.782173629865
 21
976.3685507201309
 31
0.0
  0
LINE
  5
558
330
4E0
100
AcDbEntity
  8
0
  6
Continuous
 62
     7
370
    15
100
AcDbLine
 10
2062.84318213011
 20
976.9596717093385
 30
0.0
 11
2061.782173629865
 21
976.3685507201314
 31
0.0
  0
LINE
  5
559
330
4E0
100
AcDbEntity
  8
0
  6
Continuous
 62
     7
370
    15
100
AcDbLine
 10
2060.765952879378
 20
977.118485761907
 30
0.0
 11
2060.765952879378
 21
979.1358208961025
 31
0.0
  0
ELLIPSE
  5
55A
330
4E0
100
AcDbEntity
  8
0
  6
Continuous
 62
     7
370
    15
100
AcDbEllipse
 10
2060.907395778054
 20
977.0368822635768
 30
0.0
 11
-0.0999918658326919
 21
0.1732097767663844
 31
0.0
210
0.0
220
0.0
230
0.9999999999999998
 40
0.5775574346069808
 41
0.7856317702405887
 42
2.356123510541704
  0
LINE
  5
55B
330
4E0
100
AcDbEntity
  8
0
  6
Continuous
 62
     7
370
    15
100
AcDbLine
 10
2061.782173629865
 20
976.3685507201314
 30
0.0
 11
2060.907352696458
 21
976.8735740952628
 31
0.0
  0
LINE
  5
55C
330
4E0
100
AcDbEntity
  8
0
  6
Continuous
 62
     7
370
    15
100
AcDbLine
 10
2058.768147579918
 20
983.7320239330438
 30
0.0
 11
2058.348238796604
 21
983.9744321138478
 31
0.0
  0
LINE
  5
55D
330
4E0
100
AcDbEntity
  8
0
  6
Continuous
 62
     8
370
    15
100
AcDbLine
 10
2073.169916604328
 20
975.4180596429577
 30
0.0
 11
2074.104335956652
 21
975.9574884529893
 31
0.0
  0
LINE
  5
55E
330
4E0
100
AcDbEntity
  8
0
  6
Continuous
 62
     8
370
    15
100
AcDbLine
 10
2071.256293097953
 20
975.704210429528
 30
0.0
 11
2071.726786517375
 21
975.9665012249129
 31
0.0
  0
LINE
  5
55F
330
4E0
100
AcDbEntity
  8
0
  6
Continuous
 62
     8
370
    15
100
AcDbLine
 10
2070.643387647276
 20
976.6688283618851
 30
0.0
 11
2070.863221642421
 21
976.795735825981
 31
0.0
  0
LINE
  5
560
330
4E0
100
AcDbEntity
  8
0
  6
Continuous
 62
     8
370
    15
100
AcDbLine
 10
2070.721800286184
 20
975.5620586535199
 30
0.0
 11
2070.863221642421
 21
975.6436994647021
 31
0.0
  0
LINE
  5
561
330
4E0
100
AcDbEntity
  8
0
  6
Continuous
 62
     8
370
    15
100
AcDbLine
 10
2070.863221642421
 20
975.8069810870667
 30
0.0
 11
2070.580378929947
 21
975.6436994647021
 31
0.0
  0
LINE
  5
562
330
4E0
100
AcDbEntity
  8
0
  6
Continuous
 62
     8
370
    15
100
AcDbLine
 10
2069.699764815584
 20
976.9692294207599
 30
0.0
 11
2067.863640276533
 21
975.9092572865075
 31
0.0
  0
LINE
  5
563
330
4E0
100
AcDbEntity
  8
0
  6
Continuous
 62
     8
370
    15
100
AcDbLine
 10
2059.590108463853
 20
982.3804023003322
 30
0.0
 11
2059.863548469091
 21
982.5351384986428
 31
0.0
  0
LINE
  5
564
330
4E0
100
AcDbEntity
  8
0
  6
Continuous
 62
     8
370
    15
100
AcDbLine
 10
2060.256619924624
 20
981.7667868433851
 30
0.0
 11
2060.822935535264
 21
982.0937138865701
 31
0.0
  0
LINE
  5
565
330
4E0
100
AcDbEntity
  8
0
  6
Continuous
 62
     8
370
    15
100
AcDbLine
 10
2061.247222590791
 20
981.8487781830171
 30
0.0
 11
2060.539462637098
 21
981.4401970586436
 31
0.0
  0
LINE
  5
566
330
4E0
100
AcDbEntity
  8
0
  6
Continuous
 62
     8
370
    15
100
AcDbLine
 10
2060.672355245737
 20
981.144316957104
 30
0.0
 11
2061.569936346631
 21
981.6624794972501
 31
0.0
  0
LINE
  5
567
330
4E0
100
AcDbEntity
  8
0
  6
Continuous
 62
     8
370
    15
100
AcDbLine
 10
2061.105801234554
 20
981.9304189941993
 30
0.0
 11
2060.398041280861
 21
981.5218378698258
 31
0.0
  0
LINE
  5
568
330
4E0
100
AcDbEntity
  8
0
  6
Continuous
 62
     8
370
    15
100
AcDbLine
 10
2061.812910412902
 20
981.5222135544363
 30
0.0
 11
2060.533348072599
 21
980.7835379385318
 31
0.0
  0
LINE
  5
569
330
4E0
100
AcDbEntity
  8
0
  6
Continuous
 62
     8
370
    15
100
AcDbLine
 10
2058.514074486195
 20
984.6425846495085
 30
0.0
 11
2057.569614156114
 21
984.0973593064004
 31
0.0
  0
LINE
  5
56A
330
4E0
100
AcDbEntity
  8
0
  6
Continuous
 62
     8
370
    15
100
AcDbLine
 10
2058.348238796604
 20
983.9744321138478
 30
0.0
 11
2058.651637144311
 21
984.1495802518464
 31
0.0
  0
ENDBLK
  5
4E2
330
4E0
100
AcDbEntity
  8
0
100
AcDbBlockEnd
  0
ENDSEC
  0
SECTION
  2
ENTITIES
  0
INSERT
  5
48C
330
1F
100
AcDbEntity
  8
0
100
AcDbBlockReference
  2
1
 10
0.0
 20
0.0
 30
0.0
  0
INSERT
  5
4B6
330
1F
100
AcDbEntity
  8
0
100
AcDbBlockReference
  2
2
 10
0.0
 20
0.0
 30
0.0
  0
INSERT
  5
4DF
330
1F
100
AcDbEntity
  8
0
100
AcDbBlockReference
  2
3
 10
0.0
 20
0.0
 30
0.0
  0
INSERT
  5
56B
330
1F
100
AcDbEntity
  8
0
100
AcDbBlockReference
  2
4
 10
0.0
 20
0.0
 30
0.0
  0
ENDSEC
  0
SECTION
  2
OBJECTS
  0
DICTIONARY
  5
C
330
0
100
AcDbDictionary
281
     1
  3
ACAD_COLOR
350
6B
  3
ACAD_GROUP
350
D
  3
ACAD_LAYOUT
350
1A
  3
ACAD_MATERIAL
350
6A
  3
ACAD_MLEADERSTYLE
350
12D
  3
ACAD_MLINESTYLE
350
17
  3
ACAD_PLOTSETTINGS
350
19
  3
ACAD_PLOTSTYLENAME
350
E
  3
ACAD_SCALELIST
350
10C
  3
ACAD_TABLESTYLE
350
7E
  3
ACAD_VISUALSTYLE
350
EF
  3
ACDB_RECOMPOSE_DATA
350
15D
  3
AcDbVariableDictionary
350
5E
  3
DWGPROPS
350
57B
  0
DICTIONARY
  5
13C
330
10
100
AcDbDictionary
280
     1
281
     1
  3
ADSK_XREC_LAYER_RECONCILED
360
56C
  0
DICTIONARY
  5
6B
102
{ACAD_REACTORS
330
C
102
}
330
C
100
AcDbDictionary
281
     1
  0
DICTIONARY
  5
D
102
{ACAD_REACTORS
330
C
102
}
330
C
100
AcDbDictionary
281
     1
  0
DICTIONARY
  5
1A
102
{ACAD_REACTORS
330
C
102
}
330
C
100
AcDbDictionary
281
     1
  3
Layout1
350
D3
  3
Layout2
350
D7
  3
Model
350
22
  0
DICTIONARY
  5
6A
102
{ACAD_REACTORS
330
C
102
}
330
C
100
AcDbDictionary
281
     1
  3
ByBlock
350
ED
  3
ByLayer
350
EC
  3
Global
350
EE
  0
DICTIONARY
  5
12D
102
{ACAD_REACTORS
330
C
102
}
330
C
100
AcDbDictionary
281
     1
  3
Annotative
350
13B
  3
Standard
350
12E
  0
DICTIONARY
  5
17
102
{ACAD_REACTORS
330
C
102
}
330
C
100
AcDbDictionary
281
     1
  3
Standard
350
18
  0
DICTIONARY
  5
19
102
{ACAD_REACTORS
330
C
102
}
330
C
100
AcDbDictionary
281
     1
  0
ACDBDICTIONARYWDFLT
  5
E
102
{ACAD_REACTORS
330
C
102
}
330
C
100
AcDbDictionary
281
     1
  3
Normal
350
F
100
AcDbDictionaryWithDefault
340
F
  0
DICTIONARY
  5
10C
102
{ACAD_REACTORS
330
C
102
}
330
C
100
AcDbDictionary
281
     1
  3
A0
350
10D
  3
A1
350
188
  3
A2
350
189
  3
A3
350
18A
  3
A4
350
18B
  3
A5
350
18C
  3
A6
350
18D
  3
A7
350
18E
  3
A8
350
18F
  3
A9
350
190
  3
B0
350
191
  3
B1
350
192
  3
B2
350
193
  3
B3
350
194
  3
B4
350
195
  3
B5
350
196
  3
B6
350
197
  3
B7
350
198
  3
B8
350
199
  3
B9
350
19A
  3
C0
350
19B
  3
C1
350
19C
  3
C2
350
19D
  3
C3
350
19E
  3
C4
350
19F
  3
C5
350
1A0
  3
C6
350
1A1
  3
C7
350
1A2
  3
C8
350
1A3
  3
C9
350
1A4
  3
D0
350
1A5
  3
D1
350
1A6
  3
D2
350
1A7
  0
DICTIONARY
  5
7E
102
{ACAD_REACTORS
330
C
102
}
330
C
100
AcDbDictionary
281
     1
  3
Standard
350
7F
  0
DICTIONARY
  5
EF
102
{ACAD_REACTORS
330
C
102
}
330
C
100
AcDbDictionary
281
     1
  3
2dWireframe
350
F5
  3
3D Hidden
350
F7
  3
3dWireframe
350
F6
  3
Basic
350
F4
  3
Brighten
350
FB
  3
ColorChange
350
FF
  3
Conceptual
350
F8
  3
Dim
350
FA
  3
Facepattern
350
FE
  3
Flat
350
F0
  3
FlatWithEdges
350
F1
  3
Gouraud
350
F2
  3
GouraudWithEdges
350
F3
  3
Linepattern
350
FD
  3
Realistic
350
F9
  3
Thicken
350
FC
  0
XRECORD
  5
15D
102
{ACAD_REACTORS
330
C
102
}
330
C
100
AcDbXrecord
280
     1
 90
        1
330
7F
  0
DICTIONARY
  5
5E
102
{ACAD_REACTORS
330
C
102
}
330
C
100
AcDbDictionary
281
     1
  3
CANNOSCALE
350
146
  3
CMLEADERSTYLE
350
145
  3
CTABLESTYLE
350
84
  3
DIMASSOC
350
5F
  3
HIDETEXT
350
63
  3
INDEXCTL
350
577
  3
LIGHTINGUNITS
350
575
  3
MSLTSCALE
350
574
  3
PSOLHEIGHT
350
579
  3
PSOLWIDTH
350
578
  3
SORTENTS
350
576
  0
XRECORD
  5
57B
102
{ACAD_REACTORS
330
C
102
}
330
C
100
AcDbXrecord
280
     1
  1
DWGPROPS COOKIE
  2

  3

  4

  6

  7

  8
orhan kara
  9

300
=
301
=
302
=
303
=
304
=
305
=
306
=
307
=
308
=
309
=
 40
0.000391724537037
 41
2458450.567189306
 42
2458956.385143796
  1

 90
        0
  0
XRECORD
  5
56C
102
{ACAD_REACTORS
330
13C
102
}
330
13C
100
AcDbXrecord
280
     1
290
     1
  0
LAYOUT
  5
D3
102
{ACAD_XDICTIONARY
360
57F
102
}
102
{ACAD_REACTORS
330
1A
102
}
330
1A
100
AcDbPlotSettings
  1

  2
C:\Documents and Settings\basas\Application Data\Autodesk\AutoCAD 2005\R16.1\enu\plotters\Default Windows System Printer.pc3
  4

  6

 40
0.0
 41
0.0
 42
0.0
 43
0.0
 44
0.0
 45
0.0
 46
0.0
 47
0.0
 48
0.0
 49
0.0
140
0.0
141
0.0
142
1.0
143
1.0
 70
   688
 72
     0
 73
     0
 74
     5
  7

 75
    16
147
1.0
148
0.0
149
0.0
100
AcDbLayout
  1
Layout1
 70
     1
 71
     1
 10
0.0
 20
0.0
 11
12.0
 21
9.0
 12
0.0
 22
0.0
 32
0.0
 14
0.0
 24
0.0
 34
0.0
 15
0.0
 25
0.0
 35
0.0
146
0.0
 13
0.0
 23
0.0
 33
0.0
 16
1.0
 26
0.0
 36
0.0
 17
0.0
 27
1.0
 37
0.0
 76
     0
330
D2
  0
LAYOUT
  5
D7
102
{ACAD_XDICTIONARY
360
581
102
}
102
{ACAD_REACTORS
330
1A
102
}
330
1A
100
AcDbPlotSettings
  1

  2
C:\Documents and Settings\basas\Application Data\Autodesk\AutoCAD 2005\R16.1\enu\plotters\Default Windows System Printer.pc3
  4

  6

 40
0.0
 41
0.0
 42
0.0
 43
0.0
 44
0.0
 45
0.0
 46
0.0
 47
0.0
 48
0.0
 49
0.0
140
0.0
141
0.0
142
1.0
143
1.0
 70
   688
 72
     0
 73
     0
 74
     5
  7

 75
    16
147
1.0
148
0.0
149
0.0
100
AcDbLayout
  1
Layout2
 70
     1
 71
     2
 10
0.0
 20
0.0
 11
12.0
 21
9.0
 12
0.0
 22
0.0
 32
0.0
 14
0.0
 24
0.0
 34
0.0
 15
0.0
 25
0.0
 35
0.0
146
0.0
 13
0.0
 23
0.0
 33
0.0
 16
1.0
 26
0.0
 36
0.0
 17
0.0
 27
1.0
 37
0.0
 76
     0
330
D6
  0
LAYOUT
  5
22
102
{ACAD_XDICTIONARY
360
57C
102
}
102
{ACAD_REACTORS
330
1A
102
}
330
1A
100
AcDbPlotSettings
  1

  2
none_device
  4
ISO_A4_(210.00_x_297.00_MM)
  6

 40
7.5
 41
20.0
 42
7.5
 43
20.0
 44
210.0
 45
297.0
 46
11.54999923706054
 47
-13.65000009536743
 48
0.0
 49
0.0
140
0.0
141
0.0
142
1.0
143
8.704084754739808
 70
 11952
 72
     1
 73
     0
 74
     0
  7

 75
     0
147
0.1148885871608098
148
0.0
149
0.0
100
AcDbLayout
  1
Model
 70
     1
 71
     0
 10
0.0
 20
0.0
 11
12.0
 21
9.0
 12
0.0
 22
0.0
 32
0.0
 14
0.0
 24
0.0
 34
0.0
 15
0.0
 25
0.0
 35
0.0
146
0.0
 13
0.0
 23
0.0
 33
0.0
 16
1.0
 26
0.0
 36
0.0
 17
0.0
 27
1.0
 37
0.0
 76
     0
330
1F
331
EA
1001
ACAD_PSEXT
1000
None
1000
None
1000
Not applicable
1000
The layout will not be plotted unless a new plotter configuration name is selected.
1070
     0
  0
MATERIAL
  5
ED
102
{ACAD_XDICTIONARY
360
585
102
}
102
{ACAD_REACTORS
330
6A
102
}
330
6A
100
AcDbMaterial
  1
ByBlock
  0
MATERIAL
  5
EC
102
{ACAD_XDICTIONARY
360
583
102
}
102
{ACAD_REACTORS
330
6A
102
}
330
6A
100
AcDbMaterial
  1
ByLayer
  0
MATERIAL
  5
EE
102
{ACAD_XDICTIONARY
360
173
102
}
102
{ACAD_REACTORS
330
6A
102
}
330
6A
100
AcDbMaterial
  1
Global
 43
0.0007999999797903
 43
0.0
 43
0.0
 43
0.0
 43
0.0
 43
0.0007999999797903
 43
0.0
 43
0.0
 43
0.0
 43
0.0
 43
1.0
 43
0.0
 43
0.0
 43
0.0
 43
0.0
 43
1.0
 49
0.0007999999797903
 49
0.0
 49
0.0
 49
0.0
 49
0.0
 49
0.0007999999797903
 49
0.0
 49
0.0
 49
0.0
 49
0.0
 49
1.0
 49
0.0
 49
0.0
 49
0.0
 49
0.0
 49
1.0
142
0.0007999999797903
142
0.0
142
0.0
142
0.0
142
0.0
142
0.0007999999797903
142
0.0
142
0.0
142
0.0
142
0.0
142
1.0
142
0.0
142
0.0
142
0.0
142
0.0
142
1.0
144
0.0007999999797903
144
0.0
144
0.0
144
0.0
144
0.0
144
0.0007999999797903
144
0.0
144
0.0
144
0.0
144
0.0
144
1.0
144
0.0
144
0.0
144
0.0
144
0.0
144
1.0
1001
ACAD
1070
    -1
1070
     3
1070
     0
1000

1071
        0
1070
     0
  0
MLEADERSTYLE
  5
13B
102
{ACAD_REACTORS
330
12D
102
}
330
12D
100
AcDbMLeaderStyle
170
     2
171
     1
172
     0
 90
        2
 40
0.0
 41
0.0
173
     1
 91
-1056964608
340
14
 92
       -2
290
     1
 42
2.0
291
     1
 43
8.0
  3
Standard
 44
4.0
300

342
11
174
     1
178
     1
175
     1
176
     0
 93
-1056964608
 45
4.0
292
     0
297
     0
 46
4.0
 94
-1056964608
 47
1.0
 49
1.0
140
1.0
293
     1
141
0.0
294
     1
177
     0
142
1.0
295
     0
296
     1
143
3.75
1001
ACAD_MLEADERVER
1070
     2
  0
MLEADERSTYLE
  5
12E
102
{ACAD_REACTORS
330
12D
102
}
330
12D
100
AcDbMLeaderStyle
170
     2
171
     1
172
     0
 90
        2
 40
0.0
 41
0.0
173
     1
 91
-1056964608
340
14
 92
       -2
290
     1
 42
2.0
291
     1
 43
8.0
  3
Standard
 44
4.0
300

342
11
174
     1
178
     1
175
     1
176
     0
 93
-1056964608
 45
4.0
292
     0
297
     0
 46
4.0
 94
-1056964608
 47
1.0
 49
1.0
140
1.0
293
     1
141
0.0
294
     1
177
     0
142
1.0
295
     0
296
     0
143
3.75
1001
ACAD_MLEADERVER
1070
     2
  0
MLINESTYLE
  5
18
102
{ACAD_REACTORS
330
17
102
}
330
17
100
AcDbMlineStyle
  2
STANDARD
 70
     0
  3

 62
   256
 51
90.0
 52
90.0
 71
     2
 49
0.5
 62
   256
  6
BYLAYER
 49
-0.5
 62
   256
  6
BYLAYER
  0
ACDBPLACEHOLDER
  5
F
102
{ACAD_REACTORS
330
E
102
}
330
E
  0
SCALE
  5
10D
102
{ACAD_REACTORS
330
10C
102
}
330
10C
100
AcDbScale
 70
     0
300
1:1
140
1.0
141
1.0
290
     1
  0
SCALE
  5
188
102
{ACAD_REACTORS
330
10C
102
}
330
10C
100
AcDbScale
 70
     0
300
1:2
140
1.0
141
2.0
290
     0
  0
SCALE
  5
189
102
{ACAD_REACTORS
330
10C
102
}
330
10C
100
AcDbScale
 70
     0
300
1:4
140
1.0
141
4.0
290
     0
  0
SCALE
  5
18A
102
{ACAD_REACTORS
330
10C
102
}
330
10C
100
AcDbScale
 70
     0
300
1:5
140
1.0
141
5.0
290
     0
  0
SCALE
  5
18B
102
{ACAD_REACTORS
330
10C
102
}
330
10C
100
AcDbScale
 70
     0
300
1:8
140
1.0
141
8.0
290
     0
  0
SCALE
  5
18C
102
{ACAD_REACTORS
330
10C
102
}
330
10C
100
AcDbScale
 70
     0
300
1:10
140
1.0
141
10.0
290
     0
  0
SCALE
  5
18D
102
{ACAD_REACTORS
330
10C
102
}
330
10C
100
AcDbScale
 70
     0
300
1:16
140
1.0
141
16.0
290
     0
  0
SCALE
  5
18E
102
{ACAD_REACTORS
330
10C
102
}
330
10C
100
AcDbScale
 70
     0
300
1:20
140
1.0
141
20.0
290
     0
  0
SCALE
  5
18F
102
{ACAD_REACTORS
330
10C
102
}
330
10C
100
AcDbScale
 70
     0
300
1:30
140
1.0
141
30.0
290
     0
  0
SCALE
  5
190
102
{ACAD_REACTORS
330
10C
102
}
330
10C
100
AcDbScale
 70
     0
300
1:40
140
1.0
141
40.0
290
     0
  0
SCALE
  5
191
102
{ACAD_REACTORS
330
10C
102
}
330
10C
100
AcDbScale
 70
     0
300
1:50
140
1.0
141
50.0
290
     0
  0
SCALE
  5
192
102
{ACAD_REACTORS
330
10C
102
}
330
10C
100
AcDbScale
 70
     0
300
1:100
140
1.0
141
100.0
290
     0
  0
SCALE
  5
193
102
{ACAD_REACTORS
330
10C
102
}
330
10C
100
AcDbScale
 70
     0
300
2:1
140
2.0
141
1.0
290
     0
  0
SCALE
  5
194
102
{ACAD_REACTORS
330
10C
102
}
330
10C
100
AcDbScale
 70
     0
300
4:1
140
4.0
141
1.0
290
     0
  0
SCALE
  5
195
102
{ACAD_REACTORS
330
10C
102
}
330
10C
100
AcDbScale
 70
     0
300
8:1
140
8.0
141
1.0
290
     0
  0
SCALE
  5
196
102
{ACAD_REACTORS
330
10C
102
}
330
10C
100
AcDbScale
 70
     0
300
10:1
140
10.0
141
1.0
290
     0
  0
SCALE
  5
197
102
{ACAD_REACTORS
330
10C
102
}
330
10C
100
AcDbScale
 70
     0
300
100:1
140
100.0
141
1.0
290
     0
  0
SCALE
  5
198
102
{ACAD_REACTORS
330
10C
102
}
330
10C
100
AcDbScale
 70
     0
300
1/128" = 1'-0"
140
0.0078125
141
12.0
290
     0
  0
SCALE
  5
199
102
{ACAD_REACTORS
330
10C
102
}
330
10C
100
AcDbScale
 70
     0
300
1/64" = 1'-0"
140
0.015625
141
12.0
290
     0
  0
SCALE
  5
19A
102
{ACAD_REACTORS
330
10C
102
}
330
10C
100
AcDbScale
 70
     0
300
1/32" = 1'-0"
140
0.03125
141
12.0
290
     0
  0
SCALE
  5
19B
102
{ACAD_REACTORS
330
10C
102
}
330
10C
100
AcDbScale
 70
     0
300
1/16" = 1'-0"
140
0.0625
141
12.0
290
     0
  0
SCALE
  5
19C
102
{ACAD_REACTORS
330
10C
102
}
330
10C
100
AcDbScale
 70
     0
300
3/32" = 1'-0"
140
0.09375
141
12.0
290
     0
  0
SCALE
  5
19D
102
{ACAD_REACTORS
330
10C
102
}
330
10C
100
AcDbScale
 70
     0
300
1/8" = 1'-0"
140
0.125
141
12.0
290
     0
  0
SCALE
  5
19E
102
{ACAD_REACTORS
330
10C
102
}
330
10C
100
AcDbScale
 70
     0
300
3/16" = 1'-0"
140
0.1875
141
12.0
290
     0
  0
SCALE
  5
19F
102
{ACAD_REACTORS
330
10C
102
}
330
10C
100
AcDbScale
 70
     0
300
1/4" = 1'-0"
140
0.25
141
12.0
290
     0
  0
SCALE
  5
1A0
102
{ACAD_REACTORS
330
10C
102
}
330
10C
100
AcDbScale
 70
     0
300
3/8" = 1'-0"
140
0.375
141
12.0
290
     0
  0
SCALE
  5
1A1
102
{ACAD_REACTORS
330
10C
102
}
330
10C
100
AcDbScale
 70
     0
300
1/2" = 1'-0"
140
0.5
141
12.0
290
     0
  0
SCALE
  5
1A2
102
{ACAD_REACTORS
330
10C
102
}
330
10C
100
AcDbScale
 70
     0
300
3/4" = 1'-0"
140
0.75
141
12.0
290
     0
  0
SCALE
  5
1A3
102
{ACAD_REACTORS
330
10C
102
}
330
10C
100
AcDbScale
 70
     0
300
1" = 1'-0"
140
1.0
141
12.0
290
     0
  0
SCALE
  5
1A4
102
{ACAD_REACTORS
330
10C
102
}
330
10C
100
AcDbScale
 70
     0
300
1-1/2" = 1'-0"
140
1.5
141
12.0
290
     0
  0
SCALE
  5
1A5
102
{ACAD_REACTORS
330
10C
102
}
330
10C
100
AcDbScale
 70
     0
300
3" = 1'-0"
140
3.0
141
12.0
290
     0
  0
SCALE
  5
1A6
102
{ACAD_REACTORS
330
10C
102
}
330
10C
100
AcDbScale
 70
     0
300
6" = 1'-0"
140
6.0
141
12.0
290
     0
  0
SCALE
  5
1A7
102
{ACAD_REACTORS
330
10C
102
}
330
10C
100
AcDbScale
 70
     0
300
1'-0" = 1'-0"
140
12.0
141
12.0
290
     0
  0
TABLESTYLE
  5
7F
102
{ACAD_XDICTIONARY
360
162
102
}
102
{ACAD_REACTORS
330
7E
102
}
330
7E
100
AcDbTableStyle
  3
Standard
 70
     0
 71
     0
 40
1.5
 41
1.5
280
     0
281
     0
  7
Standard
140
4.5
170
     2
 62
     0
 63
     7
283
     0
274
    -2
284
     1
 64
     0
275
    -2
285
     1
 65
     0
276
    -2
286
     1
 66
     0
277
    -2
287
     1
 67
     0
278
    -2
288
     1
 68
     0
279
    -2
289
     1
 69
     0
  7
Standard
140
6.0
170
     5
 62
     0
 63
     7
283
     0
274
    -2
284
     1
 64
     0
275
    -2
285
     1
 65
     0
276
    -2
286
     1
 66
     0
277
    -2
287
     1
 67
     0
278
    -2
288
     1
 68
     0
279
    -2
289
     1
 69
     0
  7
Standard
140
4.5
170
     5
 62
     0
 63
     7
283
     0
274
    -2
284
     1
 64
     0
275
    -2
285
     1
 65
     0
276
    -2
286
     1
 66
     0
277
    -2
287
     1
 67
     0
278
    -2
288
     1
 68
     0
279
    -2
289
     1
 69
     0
  0
VISUALSTYLE
  5
F5
102
{ACAD_REACTORS
330
EF
102
}
330
EF
100
AcDbVisualStyle
  2
2dWireframe
 70
     4
 71
     0
 72
     2
 73
     1
 90
        0
 40
-0.6
 41
-30.0
 62
     5
 63
     7
 74
     1
 91
        4
 64
     7
 65
   257
 75
     1
175
     1
 42
1.0
 92
        0
 66
   257
 43
1.0
 76
     1
 77
     6
 78
     2
 67
     7
 79
     5
170
     0
171
     0
290
     0
174
     0
 93
        1
 44
0.0
173
     0
291
     0
 45
0.0
1001
ACAD
1000
AcDbSavedByObjectVersion
1070
     0
  0
VISUALSTYLE
  5
F7
102
{ACAD_REACTORS
330
EF
102
}
330
EF
100
AcDbVisualStyle
  2
3D Hidden
 70
     6
 71
     1
 72
     2
 73
     2
 90
        0
 40
-0.6
 41
-30.0
 62
     5
 63
     7
 74
     2
 91
        2
 64
     7
 65
   257
 75
     2
175
     1
 42
40.0
 92
        0
 66
   257
 43
1.0
 76
     1
 77
     6
 78
     2
 67
     7
 79
     3
170
     0
171
     0
290
     0
174
     0
 93
        1
 44
0.0
173
     0
291
     0
 45
0.0
1001
ACAD
1000
AcDbSavedByObjectVersion
1070
     0
  0
VISUALSTYLE
  5
F6
102
{ACAD_REACTORS
330
EF
102
}
330
EF
100
AcDbVisualStyle
  2
3dWireframe
 70
     5
 71
     0
 72
     2
 73
     1
 90
        0
 40
-0.6
 41
-30.0
 62
     5
 63
     7
 74
     1
 91
        4
 64
     7
 65
   257
 75
     1
175
     1
 42
1.0
 92
        0
 66
   257
 43
1.0
 76
     1
 77
     6
 78
     2
 67
     7
 79
     5
170
     0
171
     0
290
     0
174
     0
 93
        1
 44
0.0
173
     0
291
     0
 45
0.0
1001
ACAD
1000
AcDbSavedByObjectVersion
1070
     0
  0
VISUALSTYLE
  5
F4
102
{ACAD_REACTORS
330
EF
102
}
330
EF
100
AcDbVisualStyle
  2
Basic
 70
     7
 71
     1
 72
     0
 73
     1
 90
        0
 40
-0.6
 41
-30.0
 62
     5
 63
     7
 74
     0
 91
        4
 64
     7
 65
   257
 75
     1
175
     1
 42
1.0
 92
        8
 66
     7
 43
1.0
 76
     1
 77
     6
 78
     2
 67
     7
 79
     5
170
     0
171
     0
290
     0
174
     0
 93
        1
 44
0.0
173
     0
291
     1
 45
0.0
1001
ACAD
1000
AcDbSavedByObjectVersion
1070
     0
  0
VISUALSTYLE
  5
FB
102
{ACAD_REACTORS
330
EF
102
}
330
EF
100
AcDbVisualStyle
  2
Brighten
 70
    12
 71
     2
 72
     2
 73
     1
 90
        0
 40
-0.6
 41
-30.0
 62
     5
 63
     7
 74
     1
 91
        4
 64
     7
 65
   257
 75
     1
175
     1
 42
1.0
 92
        8
 66
     7
 43
1.0
 76
     1
 77
     6
 78
     2
 67
     7
 79
     5
170
     0
171
     0
290
     0
174
     0
 93
        1
 44
50.0
173
     0
291
     1
 45
0.0
1001
ACAD
1000
AcDbSavedByObjectVersion
1070
     0
  0
VISUALSTYLE
  5
FF
102
{ACAD_REACTORS
330
EF
102
}
330
EF
100
AcDbVisualStyle
  2
ColorChange
 70
    16
 71
     2
 72
     2
 73
     3
 90
        0
 40
-0.6
 41
-30.0
 62
     5
 63
     8
 74
     1
 91
        4
 64
     7
 65
   257
 75
     1
175
     1
 42
1.0
 92
        8
 66
     8
 43
1.0
 76
     1
 77
     6
 78
     2
 67
     7
 79
     5
170
     0
171
     0
290
     0
174
     0
 93
        1
 44
0.0
173
     0
291
     1
 45
0.0
1001
ACAD
1000
AcDbSavedByObjectVersion
1070
     0
  0
VISUALSTYLE
  5
F8
102
{ACAD_REACTORS
330
EF
102
}
330
EF
100
AcDbVisualStyle
  2
Conceptual
 70
     9
 71
     3
 72
     2
 73
     1
 90
        0
 40
-0.6
 41
-30.0
 62
     5
 63
     7
 74
     2
 91
        2
 64
     7
 65
   257
 75
     1
175
     1
 42
40.0
 92
        8
 66
     7
 43
1.0
 76
     1
 77
     6
 78
     2
 67
     7
 79
     3
170
     0
171
     0
290
     0
174
     0
 93
        1
 44
0.0
173
     0
291
     0
 45
0.0
1001
ACAD
1000
AcDbSavedByObjectVersion
1070
     0
  0
VISUALSTYLE
  5
FA
102
{ACAD_REACTORS
330
EF
102
}
330
EF
100
AcDbVisualStyle
  2
Dim
 70
    11
 71
     2
 72
     2
 73
     1
 90
        0
 40
-0.6
 41
-30.0
 62
     5
 63
     7
 74
     1
 91
        4
 64
     7
 65
   257
 75
     1
175
     1
 42
1.0
 92
        8
 66
     7
 43
1.0
 76
     1
 77
     6
 78
     2
 67
     7
 79
     5
170
     0
171
     0
290
     0
174
     0
 93
        1
 44
-50.0
173
     0
291
     1
 45
0.0
1001
ACAD
1000
AcDbSavedByObjectVersion
1070
     0
  0
VISUALSTYLE
  5
FE
102
{ACAD_REACTORS
330
EF
102
}
330
EF
100
AcDbVisualStyle
  2
Facepattern
 70
    15
 71
     2
 72
     2
 73
     1
 90
        0
 40
-0.6
 41
-30.0
 62
     5
 63
     7
 74
     1
 91
        4
 64
     7
 65
   257
 75
     1
175
     1
 42
1.0
 92
        8
 66
     7
 43
1.0
 76
     1
 77
     6
 78
     2
 67
     7
 79
     5
170
     0
171
     0
290
     0
174
     0
 93
        1
 44
0.0
173
     0
291
     1
 45
0.0
1001
ACAD
1000
AcDbSavedByObjectVersion
1070
     0
  0
VISUALSTYLE
  5
F0
102
{ACAD_REACTORS
330
EF
102
}
330
EF
100
AcDbVisualStyle
  2
Flat
 70
     0
 71
     2
 72
     1
 73
     1
 90
        2
 40
-0.6
 41
30.0
 62
     5
 63
     7
 74
     0
 91
        4
 64
     7
 65
   257
 75
     1
175
     1
 42
1.0
 92
        8
 66
     7
 43
1.0
 76
     1
 77
     6
 78
     2
 67
     7
 79
     5
170
     0
171
     0
290
     0
174
     0
 93
        1
 44
0.0
173
     0
291
     1
 45
0.0
1001
ACAD
1000
AcDbSavedByObjectVersion
1070
     0
  0
VISUALSTYLE
  5
F1
102
{ACAD_REACTORS
330
EF
102
}
330
EF
100
AcDbVisualStyle
  2
FlatWithEdges
 70
     1
 71
     2
 72
     1
 73
     1
 90
        2
 40
-0.6
 41
30.0
 62
     5
 63
     7
 74
     1
 91
        4
 64
     7
 65
   257
 75
     1
175
     1
 42
1.0
 92
        0
 66
   257
 43
1.0
 76
     1
 77
     6
 78
     2
 67
     7
 79
     5
170
     0
171
     0
290
     0
174
     0
 93
        1
 44
0.0
173
     0
291
     1
 45
0.0
1001
ACAD
1000
AcDbSavedByObjectVersion
1070
     0
  0
VISUALSTYLE
  5
F2
102
{ACAD_REACTORS
330
EF
102
}
330
EF
100
AcDbVisualStyle
  2
Gouraud
 70
     2
 71
     2
 72
     2
 73
     1
 90
        2
 40
-0.6
 41
30.0
 62
     5
 63
     7
 74
     0
 91
        4
 64
     7
 65
   257
 75
     1
175
     1
 42
1.0
 92
        0
 66
     7
 43
1.0
 76
     1
 77
     6
 78
     2
 67
     7
 79
     5
170
     0
171
     0
290
     0
174
     0
 93
        1
 44
0.0
173
     0
291
     1
 45
0.0
1001
ACAD
1000
AcDbSavedByObjectVersion
1070
     0
  0
VISUALSTYLE
  5
F3
102
{ACAD_REACTORS
330
EF
102
}
330
EF
100
AcDbVisualStyle
  2
GouraudWithEdges
 70
     3
 71
     2
 72
     2
 73
     1
 90
        2
 40
-0.6
 41
30.0
 62
     5
 63
     7
 74
     1
 91
        4
 64
     7
 65
   257
 75
     1
175
     1
 42
1.0
 92
        0
 66
   257
 43
1.0
 76
     1
 77
     6
 78
     2
 67
     7
 79
     5
170
     0
171
     0
290
     0
174
     0
 93
        1
 44
0.0
173
     0
291
     1
 45
0.0
1001
ACAD
1000
AcDbSavedByObjectVersion
1070
     0
  0
VISUALSTYLE
  5
FD
102
{ACAD_REACTORS
330
EF
102
}
330
EF
100
AcDbVisualStyle
  2
Linepattern
 70
    14
 71
     2
 72
     2
 73
     1
 90
        0
 40
-0.6
 41
-30.0
 62
     5
 63
     7
 74
     1
 91
        4
 64
     7
 65
   257
 75
     7
175
     7
 42
1.0
 92
        8
 66
     7
 43
1.0
 76
     1
 77
     6
 78
     2
 67
     7
 79
     5
170
     0
171
     0
290
     0
174
     0
 93
        1
 44
0.0
173
     0
291
     1
 45
0.0
1001
ACAD
1000
AcDbSavedByObjectVersion
1070
     0
  0
VISUALSTYLE
  5
F9
102
{ACAD_REACTORS
330
EF
102
}
330
EF
100
AcDbVisualStyle
  2
Realistic
 70
     8
 71
     2
 72
     2
 73
     1
 90
        0
 40
-0.6
 41
-30.0
 62
     5
 63
     7
 74
     1
 91
        0
 64
     7
 65
   257
 75
     1
175
     1
 42
1.0
 92
        8
 66
     8
 43
1.0
 76
     1
 77
     6
 78
     2
 67
     7
 79
     5
170
     0
171
     0
290
     0
174
     0
 93
       13
 44
0.0
173
     0
291
     0
 45
0.0
1001
ACAD
1000
AcDbSavedByObjectVersion
1070
     0
  0
VISUALSTYLE
  5
FC
102
{ACAD_REACTORS
330
EF
102
}
330
EF
100
AcDbVisualStyle
  2
Thicken
 70
    13
 71
     2
 72
     2
 73
     1
 90
        0
 40
-0.6
 41
-30.0
 62
     5
 63
     7
 74
     1
 91
        4
 64
     7
 65
   257
 75
     1
175
     1
 42
1.0
 92
       12
 66
     7
 43
1.0
 76
     1
 77
     6
 78
     2
 67
     7
 79
     5
170
     0
171
     0
290
     0
174
     0
 93
        1
 44
0.0
173
     0
291
     1
 45
0.0
1001
ACAD
1000
AcDbSavedByObjectVersion
1070
     0
  0
DICTIONARYVAR
  5
146
102
{ACAD_REACTORS
330
5E
102
}
330
5E
100
DictionaryVariables
280
     0
  1
1:1
  0
DICTIONARYVAR
  5
145
102
{ACAD_REACTORS
330
5E
102
}
330
5E
100
DictionaryVariables
280
     0
  1
STANDARD
  0
DICTIONARYVAR
  5
84
102
{ACAD_REACTORS
330
5E
102
}
330
5E
100
DictionaryVariables
280
     0
  1
STANDARD
  0
DICTIONARYVAR
  5
5F
102
{ACAD_REACTORS
330
5E
102
}
330
5E
100
DictionaryVariables
280
     0
  1
2
  0
DICTIONARYVAR
  5
63
102
{ACAD_REACTORS
330
5E
102
}
330
5E
100
DictionaryVariables
280
     0
  1
1
  0
DICTIONARYVAR
  5
577
102
{ACAD_REACTORS
330
5E
102
}
330
5E
100
DictionaryVariables
280
     0
  1
0
  0
DICTIONARYVAR
  5
575
102
{ACAD_REACTORS
330
5E
102
}
330
5E
100
DictionaryVariables
280
     0
  1
2
  0
DICTIONARYVAR
  5
574
102
{ACAD_REACTORS
330
5E
102
}
330
5E
100
DictionaryVariables
280
     0
  1
1
  0
DICTIONARYVAR
  5
579
102
{ACAD_REACTORS
330
5E
102
}
330
5E
100
DictionaryVariables
280
     0
  1
80.000000
  0
DICTIONARYVAR
  5
578
102
{ACAD_REACTORS
330
5E
102
}
330
5E
100
DictionaryVariables
280
     0
  1
5.000000
  0
DICTIONARYVAR
  5
576
102
{ACAD_REACTORS
330
5E
102
}
330
5E
100
DictionaryVariables
280
     0
  1
127
  0
DICTIONARY
  5
57F
330
D3
100
AcDbDictionary
280
     1
281
     1
  3
ACAD_XREC_ROUNDTRIP
360
580
  0
DICTIONARY
  5
581
330
D7
100
AcDbDictionary
280
     1
281
     1
  3
ACAD_XREC_ROUNDTRIP
360
582
  0
DICTIONARY
  5
57C
330
22
100
AcDbDictionary
280
     1
281
     1
  3
ACAD_XREC_ROUNDTRIP
360
57D
  0
DICTIONARY
  5
585
330
ED
100
AcDbDictionary
280
     1
281
     1
  3
ACAD_XREC_ROUNDTRIP
360
586
  0
DICTIONARY
  5
583
330
EC
100
AcDbDictionary
280
     1
281
     1
  3
ACAD_XREC_ROUNDTRIP
360
584
  0
DICTIONARY
  5
173
330
EE
100
AcDbDictionary
280
     1
281
     1
  3
ACAD_XREC_ROUNDTRIP
360
587
  3
BUMPTILE
360
175
  3
DIFFUSETILE
360
174
  3
OPACITYTILE
360
176
  3
REFLECTIONTILE
360
177
  0
DICTIONARY
  5
162
330
7F
100
AcDbDictionary
280
     1
281
     1
  3
ACAD_ROUNDTRIP_2008_TABLESTYLE_CELLSTYLEMAP
360
57A
  3
ACAD_XREC_ROUNDTRIP
360
57E
  0
XRECORD
  5
580
102
{ACAD_REACTORS
330
57F
102
}
330
57F
100
AcDbXrecord
280
     1
102
SHADEPLOT
 70
     0
102
SHADEPLOTRESLEVEL
 70
     2
102
SHADEPLOTCUSTOMDPI
 70
   300
  0
XRECORD
  5
582
102
{ACAD_REACTORS
330
581
102
}
330
581
100
AcDbXrecord
280
     1
102
SHADEPLOT
 70
     0
102
SHADEPLOTRESLEVEL
 70
     2
102
SHADEPLOTCUSTOMDPI
 70
   300
  0
XRECORD
  5
57D
102
{ACAD_REACTORS
330
57C
102
}
330
57C
100
AcDbXrecord
280
     1
102
SHADEPLOT
 70
     0
102
SHADEPLOTRESLEVEL
 70
     2
102
SHADEPLOTCUSTOMDPI
 70
   300
  0
XRECORD
  5
586
102
{ACAD_REACTORS
330
585
102
}
330
585
100
AcDbXrecord
280
     1
102
MATERIAL
148
0.0
149
0.0
149
0.0
 93
        0
 94
       63
282
     0
 72
     1
 77
     1
171
     1
175
     1
179
     1
273
     0
  0
XRECORD
  5
584
102
{ACAD_REACTORS
330
583
102
}
330
583
100
AcDbXrecord
280
     1
102
MATERIAL
148
0.0
149
0.0
149
0.0
 93
        0
 94
       63
282
     0
 72
     1
 77
     1
171
     1
175
     1
179
     1
273
     0
  0
XRECORD
  5
587
102
{ACAD_REACTORS
330
173
102
}
330
173
100
AcDbXrecord
280
     1
102
MATERIAL
148
0.0
149
0.0
149
0.0
 93
        0
 94
       63
282
     0
 72
     1
 77
     1
171
     1
175
     1
179
     1
273
     0
  0
XRECORD
  5
175
102
{ACAD_REACTORS
330
173
102
}
330
173
100
AcDbXrecord
280
     1
270
     1
271
     1
  0
XRECORD
  5
174
102
{ACAD_REACTORS
330
173
102
}
330
173
100
AcDbXrecord
280
     1
270
     1
271
     1
  0
XRECORD
  5
176
102
{ACAD_REACTORS
330
173
102
}
330
173
100
AcDbXrecord
280
     1
270
     1
271
     1
  0
XRECORD
  5
177
102
{ACAD_REACTORS
330
173
102
}
330
173
100
AcDbXrecord
280
     1
270
     1
271
     1
  0
CELLSTYLEMAP
  5
57A
102
{ACAD_REACTORS
330
162
102
}
330
162
100
AcDbCellStyleMap
 90
        3
300
CELLSTYLE
  1
TABLEFORMAT_BEGIN
 90
        5
170
     1
 91
        0
 92
    32768
 62
   257
 93
        1
300
CONTENTFORMAT
  1
CONTENTFORMAT_BEGIN
 90
        0
 91
        0
 92
      512
 93
        0
300

 40
0.0
140
1.0
 94
        5
 62
     0
340
11
144
6.0
309
CONTENTFORMAT_END
171
     1
301
MARGIN
  1
CELLMARGIN_BEGIN
 40
1.5
 40
1.5
 40
1.5
 40
1.5
 40
4.5
 40
4.5
309
CELLMARGIN_END
 94
        6
 95
        1
302
GRIDFORMAT
  1
GRIDFORMAT_BEGIN
 90
        0
 91
        1
 62
     0
 92
       -2
340
14
 93
        0
 40
1.125
309
GRIDFORMAT_END
 95
        2
302
GRIDFORMAT
  1
GRIDFORMAT_BEGIN
 90
        0
 91
        1
 62
     0
 92
       -2
340
14
 93
        0
 40
1.125
309
GRIDFORMAT_END
 95
        4
302
GRIDFORMAT
  1
GRIDFORMAT_BEGIN
 90
        0
 91
        1
 62
     0
 92
       -2
340
14
 93
        0
 40
1.125
309
GRIDFORMAT_END
 95
        8
302
GRIDFORMAT
  1
GRIDFORMAT_BEGIN
 90
        0
 91
        1
 62
     0
 92
       -2
340
14
 93
        0
 40
1.125
309
GRIDFORMAT_END
 95
       16
302
GRIDFORMAT
  1
GRIDFORMAT_BEGIN
 90
        0
 91
        1
 62
     0
 92
       -2
340
14
 93
        0
 40
1.125
309
GRIDFORMAT_END
 95
       32
302
GRIDFORMAT
  1
GRIDFORMAT_BEGIN
 90
        0
 91
        1
 62
     0
 92
       -2
340
14
 93
        0
 40
1.125
309
GRIDFORMAT_END
309
TABLEFORMAT_END
  1
CELLSTYLE_BEGIN
 90
        1
 91
        1
300
_TITLE
309
CELLSTYLE_END
300
CELLSTYLE
  1
TABLEFORMAT_BEGIN
 90
        5
170
     1
 91
        0
 92
        0
 62
   257
 93
        1
300
CONTENTFORMAT
  1
CONTENTFORMAT_BEGIN
 90
        0
 91
        0
 92
      512
 93
        0
300

 40
0.0
140
1.0
 94
        5
 62
     0
340
11
144
4.5
309
CONTENTFORMAT_END
171
     1
301
MARGIN
  1
CELLMARGIN_BEGIN
 40
1.5
 40
1.5
 40
1.5
 40
1.5
 40
4.5
 40
4.5
309
CELLMARGIN_END
 94
        6
 95
        1
302
GRIDFORMAT
  1
GRIDFORMAT_BEGIN
 90
        0
 91
        1
 62
     0
 92
       -2
340
14
 93
        0
 40
1.125
309
GRIDFORMAT_END
 95
        2
302
GRIDFORMAT
  1
GRIDFORMAT_BEGIN
 90
        0
 91
        1
 62
     0
 92
       -2
340
14
 93
        0
 40
1.125
309
GRIDFORMAT_END
 95
        4
302
GRIDFORMAT
  1
GRIDFORMAT_BEGIN
 90
        0
 91
        1
 62
     0
 92
       -2
340
14
 93
        0
 40
1.125
309
GRIDFORMAT_END
 95
        8
302
GRIDFORMAT
  1
GRIDFORMAT_BEGIN
 90
        0
 91
        1
 62
     0
 92
       -2
340
14
 93
        0
 40
1.125
309
GRIDFORMAT_END
 95
       16
302
GRIDFORMAT
  1
GRIDFORMAT_BEGIN
 90
        0
 91
        1
 62
     0
 92
       -2
340
14
 93
        0
 40
1.125
309
GRIDFORMAT_END
 95
       32
302
GRIDFORMAT
  1
GRIDFORMAT_BEGIN
 90
        0
 91
        1
 62
     0
 92
       -2
340
14
 93
        0
 40
1.125
309
GRIDFORMAT_END
309
TABLEFORMAT_END
  1
CELLSTYLE_BEGIN
 90
        2
 91
        1
300
_HEADER
309
CELLSTYLE_END
300
CELLSTYLE
  1
TABLEFORMAT_BEGIN
 90
        5
170
     1
 91
        0
 92
        0
 62
   257
 93
        1
300
CONTENTFORMAT
  1
CONTENTFORMAT_BEGIN
 90
        0
 91
        0
 92
      512
 93
        0
300

 40
0.0
140
1.0
 94
        2
 62
     0
340
11
144
4.5
309
CONTENTFORMAT_END
171
     1
301
MARGIN
  1
CELLMARGIN_BEGIN
 40
1.5
 40
1.5
 40
1.5
 40
1.5
 40
4.5
 40
4.5
309
CELLMARGIN_END
 94
        6
 95
        1
302
GRIDFORMAT
  1
GRIDFORMAT_BEGIN
 90
        0
 91
        1
 62
     0
 92
       -2
340
14
 93
        0
 40
1.125
309
GRIDFORMAT_END
 95
        2
302
GRIDFORMAT
  1
GRIDFORMAT_BEGIN
 90
        0
 91
        1
 62
     0
 92
       -2
340
14
 93
        0
 40
1.125
309
GRIDFORMAT_END
 95
        4
302
GRIDFORMAT
  1
GRIDFORMAT_BEGIN
 90
        0
 91
        1
 62
     0
 92
       -2
340
14
 93
        0
 40
1.125
309
GRIDFORMAT_END
 95
        8
302
GRIDFORMAT
  1
GRIDFORMAT_BEGIN
 90
        0
 91
        1
 62
     0
 92
       -2
340
14
 93
        0
 40
1.125
309
GRIDFORMAT_END
 95
       16
302
GRIDFORMAT
  1
GRIDFORMAT_BEGIN
 90
        0
 91
        1
 62
     0
 92
       -2
340
14
 93
        0
 40
1.125
309
GRIDFORMAT_END
 95
       32
302
GRIDFORMAT
  1
GRIDFORMAT_BEGIN
 90
        0
 91
        1
 62
     0
 92
       -2
340
14
 93
        0
 40
1.125
309
GRIDFORMAT_END
309
TABLEFORMAT_END
  1
CELLSTYLE_BEGIN
 90
        3
 91
        2
300
_DATA
309
CELLSTYLE_END
  0
XRECORD
  5
57E
102
{ACAD_REACTORS
330
162
102
}
330
162
100
AcDbXrecord
280
     1
102
ACAD_ROUNDTRIP_PRE2007_TABLESTYLE
 90
      512
 91
        0
  1

 92
      512
 93
        0
  2

 94
      512
 95
        0
  3

  0
ENDSEC
  0
EOF
