  0
SECTION
  2
HEADER
  9
$ACADVER
  1
AC1015
  9
$ACADMAINTVER
 70
    20
  9
$DWGCODEPAGE
  3
ANSI_1254
  9
$INSBASE
 10
0.0
 20
0.0
 30
0.0
  9
$EXTMIN
 10
1811.36403526909
 20
919.1931760814126
 30
0.0
  9
$EXTMAX
 10
1901.943489542891
 20
970.0677219765756
 30
0.0
  9
$LIMMIN
 10
0.0
 20
0.0
  9
$LIMMAX
 10
420.0
 20
297.0
  9
$ORTHOMODE
 70
     0
  9
$REGENMODE
 70
     1
  9
$FILLMODE
 70
     1
  9
$QTEXTMODE
 70
     0
  9
$MIRRTEXT
 70
     0
  9
$LTSCALE
 40
1.0
  9
$ATTMODE
 70
     1
  9
$TEXTSIZE
 40
2.5
  9
$TRACEWID
 40
1.0
  9
$TEXTSTYLE
  7
Standard
  9
$CLAYER
  8
0
  9
$CELTYPE
  6
ByLayer
  9
$CECOLOR
 62
   256
  9
$CELTSCALE
 40
1.0
  9
$DISPSILH
 70
     0
  9
$DIMSCALE
 40
1.0
  9
$DIMASZ
 40
2.5
  9
$DIMEXO
 40
0.625
  9
$DIMDLI
 40
3.75
  9
$DIMRND
 40
0.0
  9
$DIMDLE
 40
0.0
  9
$DIMEXE
 40
1.25
  9
$DIMTP
 40
0.0
  9
$DIMTM
 40
0.0
  9
$DIMTXT
 40
2.5
  9
$DIMCEN
 40
2.5
  9
$DIMTSZ
 40
0.0
  9
$DIMTOL
 70
     0
  9
$DIMLIM
 70
     0
  9
$DIMTIH
 70
     0
  9
$DIMTOH
 70
     0
  9
$DIMSE1
 70
     0
  9
$DIMSE2
 70
     0
  9
$DIMTAD
 70
     1
  9
$DIMZIN
 70
     8
  9
$DIMBLK
  1

  9
$DIMASO
 70
     1
  9
$DIMSHO
 70
     1
  9
$DIMPOST
  1

  9
$DIMAPOST
  1

  9
$DIMALT
 70
     0
  9
$DIMALTD
 70
     3
  9
$DIMALTF
 40
0.03937007874016
  9
$DIMLFAC
 40
1.0
  9
$DIMTOFL
 70
     1
  9
$DIMTVP
 40
0.0
  9
$DIMTIX
 70
     0
  9
$DIMSOXD
 70
     0
  9
$DIMSAH
 70
     0
  9
$DIMBLK1
  1

  9
$DIMBLK2
  1

  9
$DIMSTYLE
  2
ISO-25
  9
$DIMCLRD
 70
     0
  9
$DIMCLRE
 70
     0
  9
$DIMCLRT
 70
     0
  9
$DIMTFAC
 40
1.0
  9
$DIMGAP
 40
0.625
  9
$DIMJUST
 70
     0
  9
$DIMSD1
 70
     0
  9
$DIMSD2
 70
     0
  9
$DIMTOLJ
 70
     0
  9
$DIMTZIN
 70
     8
  9
$DIMALTZ
 70
     0
  9
$DIMALTTZ
 70
     0
  9
$DIMUPT
 70
     0
  9
$DIMDEC
 70
     2
  9
$DIMTDEC
 70
     2
  9
$DIMALTU
 70
     2
  9
$DIMALTTD
 70
     3
  9
$DIMTXSTY
  7
Standard
  9
$DIMAUNIT
 70
     0
  9
$DIMADEC
 70
     0
  9
$DIMALTRND
 40
0.0
  9
$DIMAZIN
 70
     0
  9
$DIMDSEP
 70
    44
  9
$DIMATFIT
 70
     3
  9
$DIMFRAC
 70
     0
  9
$DIMLDRBLK
  1

  9
$DIMLUNIT
 70
     2
  9
$DIMLWD
 70
    -2
  9
$DIMLWE
 70
    -2
  9
$DIMTMOVE
 70
     0
  9
$LUNITS
 70
     2
  9
$LUPREC
 70
     4
  9
$SKETCHINC
 40
1.0
  9
$FILLETRAD
 40
0.0
  9
$AUNITS
 70
     0
  9
$AUPREC
 70
     0
  9
$MENU
  1
.
  9
$ELEVATION
 40
0.0
  9
$PELEVATION
 40
0.0
  9
$THICKNESS
 40
0.0
  9
$LIMCHECK
 70
     0
  9
$CHAMFERA
 40
0.0
  9
$CHAMFERB
 40
0.0
  9
$CHAMFERC
 40
0.0
  9
$CHAMFERD
 40
0.0
  9
$SKPOLY
 70
     0
  9
$TDCREATE
 40
2458450.462708622
  9
$TDUCREATE
 40
2458450.337708623
  9
$TDUPDATE
 40
2458956.386845787
  9
$TDUUPDATE
 40
2458956.261845787
  9
$TDINDWG
 40
0.0015430324
  9
$TDUSRTIMER
 40
0.0015430324
  9
$USRTIMER
 70
     1
  9
$ANGBASE
 50
0.0
  9
$ANGDIR
 70
     0
  9
$PDMODE
 70
     0
  9
$PDSIZE
 40
0.0
  9
$PLINEWID
 40
0.0
  9
$SPLFRAME
 70
     0
  9
$SPLINETYPE
 70
     6
  9
$SPLINESEGS
 70
     8
  9
$HANDSEED
  5
C32
  9
$SURFTAB1
 70
     6
  9
$SURFTAB2
 70
     6
  9
$SURFTYPE
 70
     6
  9
$SURFU
 70
     6
  9
$SURFV
 70
     6
  9
$UCSBASE
  2

  9
$UCSNAME
  2

  9
$UCSORG
 10
0.0
 20
0.0
 30
0.0
  9
$UCSXDIR
 10
1.0
 20
0.0
 30
0.0
  9
$UCSYDIR
 10
0.0
 20
1.0
 30
0.0
  9
$UCSORTHOREF
  2

  9
$UCSORTHOVIEW
 70
     0
  9
$UCSORGTOP
 10
0.0
 20
0.0
 30
0.0
  9
$UCSORGBOTTOM
 10
0.0
 20
0.0
 30
0.0
  9
$UCSORGLEFT
 10
0.0
 20
0.0
 30
0.0
  9
$UCSORGRIGHT
 10
0.0
 20
0.0
 30
0.0
  9
$UCSORGFRONT
 10
0.0
 20
0.0
 30
0.0
  9
$UCSORGBACK
 10
0.0
 20
0.0
 30
0.0
  9
$PUCSBASE
  2

  9
$PUCSNAME
  2

  9
$PUCSORG
 10
0.0
 20
0.0
 30
0.0
  9
$PUCSXDIR
 10
1.0
 20
0.0
 30
0.0
  9
$PUCSYDIR
 10
0.0
 20
1.0
 30
0.0
  9
$PUCSORTHOREF
  2

  9
$PUCSORTHOVIEW
 70
     0
  9
$PUCSORGTOP
 10
0.0
 20
0.0
 30
0.0
  9
$PUCSORGBOTTOM
 10
0.0
 20
0.0
 30
0.0
  9
$PUCSORGLEFT
 10
0.0
 20
0.0
 30
0.0
  9
$PUCSORGRIGHT
 10
0.0
 20
0.0
 30
0.0
  9
$PUCSORGFRONT
 10
0.0
 20
0.0
 30
0.0
  9
$PUCSORGBACK
 10
0.0
 20
0.0
 30
0.0
  9
$USERI1
 70
     0
  9
$USERI2
 70
     0
  9
$USERI3
 70
     0
  9
$USERI4
 70
     0
  9
$USERI5
 70
     0
  9
$USERR1
 40
0.0
  9
$USERR2
 40
0.0
  9
$USERR3
 40
0.0
  9
$USERR4
 40
0.0
  9
$USERR5
 40
0.0
  9
$WORLDVIEW
 70
     1
  9
$SHADEDGE
 70
     3
  9
$SHADEDIF
 70
    70
  9
$TILEMODE
 70
     1
  9
$MAXACTVP
 70
    64
  9
$PINSBASE
 10
0.0
 20
0.0
 30
0.0
  9
$PLIMCHECK
 70
     0
  9
$PEXTMIN
 10
0.0
 20
0.0
 30
0.0
  9
$PEXTMAX
 10
0.0
 20
0.0
 30
0.0
  9
$PLIMMIN
 10
0.0
 20
0.0
  9
$PLIMMAX
 10
12.0
 20
9.0
  9
$UNITMODE
 70
     0
  9
$VISRETAIN
 70
     1
  9
$PLINEGEN
 70
     0
  9
$PSLTSCALE
 70
     1
  9
$TREEDEPTH
 70
  3020
  9
$CMLSTYLE
  2
Standard
  9
$CMLJUST
 70
     0
  9
$CMLSCALE
 40
20.0
  9
$PROXYGRAPHICS
 70
     1
  9
$MEASUREMENT
 70
     1
  9
$CELWEIGHT
370
    -1
  9
$ENDCAPS
280
     0
  9
$JOINSTYLE
280
     0
  9
$LWDISPLAY
290
     0
  9
$INSUNITS
 70
     4
  9
$HYPERLINKBASE
  1

  9
$STYLESHEET
  1

  9
$XEDIT
290
     1
  9
$CEPSNTYPE
380
     0
  9
$PSTYLEMODE
290
     1
  9
$FINGERPRINTGUID
  2
{276FE2C1-19F3-4B90-A0E9-5FF5711C3802}
  9
$VERSIONGUID
  2
{F91C0F2E-2D6E-4491-B8FC-A582F54F1C2C}
  9
$EXTNAMES
290
     1
  9
$PSVPSCALE
 40
0.0
  9
$OLESTARTUP
290
     0
  0
ENDSEC
  0
SECTION
  2
CLASSES
  0
CLASS
  1
ACDBDICTIONARYWDFLT
  2
AcDbDictionaryWithDefault
  3
ObjectDBX Classes
 90
        0
280
     0
281
     0
  0
CLASS
  1
ACDBPLACEHOLDER
  2
AcDbPlaceHolder
  3
ObjectDBX Classes
 90
        0
280
     0
281
     0
  0
CLASS
  1
LAYOUT
  2
AcDbLayout
  3
ObjectDBX Classes
 90
        0
280
     0
281
     0
  0
CLASS
  1
DICTIONARYVAR
  2
AcDbDictionaryVar
  3
ObjectDBX Classes
 90
        0
280
     0
281
     0
  0
CLASS
  1
TABLESTYLE
  2
AcDbTableStyle
  3
ObjectDBX Classes
 90
     4095
280
     0
281
     0
  0
CLASS
  1
MATERIAL
  2
AcDbMaterial
  3
ObjectDBX Classes
 90
     1153
280
     0
281
     0
  0
CLASS
  1
VISUALSTYLE
  2
AcDbVisualStyle
  3
ObjectDBX Classes
 90
     4095
280
     0
281
     0
  0
CLASS
  1
SCALE
  2
AcDbScale
  3
ObjectDBX Classes
 90
     1153
280
     0
281
     0
  0
CLASS
  1
MLEADERSTYLE
  2
AcDbMLeaderStyle
  3
ACDB_MLEADERSTYLE_CLASS
 90
     4095
280
     0
281
     0
  0
CLASS
  1
CELLSTYLEMAP
  2
AcDbCellStyleMap
  3
ObjectDBX Classes
 90
     1152
280
     0
281
     0
  0
ENDSEC
  0
SECTION
  2
TABLES
  0
TABLE
  2
VPORT
  5
8
330
0
100
AcDbSymbolTable
 70
     1
  0
VPORT
  5
EA
330
8
100
AcDbSymbolTableRecord
100
AcDbViewportTableRecord
  2
*Active
 70
     0
 10
0.0
 20
0.0
 11
1.0
 21
1.0
 12
1853.908568582738
 22
946.4948205164908
 13
0.0
 23
0.0
 14
10.0
 24
10.0
 15
10.0
 25
10.0
 16
0.0
 26
0.0
 36
1.0
 17
0.0
 27
0.0
 37
0.0
 40
60.11347368236574
 41
1.903110047846889
 42
50.0
 43
0.0
 44
0.0
 50
0.0
 51
0.0
 71
     0
 72
  1000
 73
     1
 74
     3
 75
     0
 76
     0
 77
     0
 78
     0
281
     0
 65
     1
110
0.0
120
0.0
130
0.0
111
1.0
121
0.0
131
0.0
112
0.0
122
1.0
132
0.0
 79
     0
146
0.0
  0
ENDTAB
  0
TABLE
  2
LTYPE
  5
5
330
0
100
AcDbSymbolTable
 70
     1
  0
LTYPE
  5
14
330
5
100
AcDbSymbolTableRecord
100
AcDbLinetypeTableRecord
  2
ByBlock
 70
     0
  3

 72
    65
 73
     0
 40
0.0
  0
LTYPE
  5
15
330
5
100
AcDbSymbolTableRecord
100
AcDbLinetypeTableRecord
  2
ByLayer
 70
     0
  3

 72
    65
 73
     0
 40
0.0
  0
LTYPE
  5
16
330
5
100
AcDbSymbolTableRecord
100
AcDbLinetypeTableRecord
  2
Continuous
 70
     0
  3
Solid line
 72
    65
 73
     0
 40
0.0
  0
ENDTAB
  0
TABLE
  2
LAYER
  5
2
330
0
100
AcDbSymbolTable
 70
     1
  0
LAYER
  5
10
102
{ACAD_XDICTIONARY
360
13C
102
}
330
2
100
AcDbSymbolTableRecord
100
AcDbLayerTableRecord
  2
0
 70
     0
 62
     7
  6
Continuous
370
    -3
390
F
  0
ENDTAB
  0
TABLE
  2
STYLE
  5
3
330
0
100
AcDbSymbolTable
 70
     2
  0
STYLE
  5
11
330
3
100
AcDbSymbolTableRecord
100
AcDbTextStyleTableRecord
  2
Standard
 70
     0
 40
0.0
 41
1.0
 50
0.0
 71
     0
 42
2.5
  3
txt
  4

  0
STYLE
  5
132
330
3
100
AcDbSymbolTableRecord
100
AcDbTextStyleTableRecord
  2
Annotative
 70
     0
 40
0.0
 41
1.0
 50
0.0
 71
     0
 42
2.5
  3
txt.shx
  4

1001
AcadAnnotative
1000
AnnotativeData
1002
{
1070
     1
1070
     1
1002
}
  0
ENDTAB
  0
TABLE
  2
VIEW
  5
6
330
0
100
AcDbSymbolTable
 70
     0
  0
ENDTAB
  0
TABLE
  2
UCS
  5
7
330
0
100
AcDbSymbolTable
 70
     0
  0
ENDTAB
  0
TABLE
  2
APPID
  5
9
330
0
100
AcDbSymbolTable
 70
     7
  0
APPID
  5
12
330
9
100
AcDbSymbolTableRecord
100
AcDbRegAppTableRecord
  2
ACAD
 70
     0
  0
APPID
  5
9E
330
9
100
AcDbSymbolTableRecord
100
AcDbRegAppTableRecord
  2
ACAD_PSEXT
 70
     0
  0
APPID
  5
133
330
9
100
AcDbSymbolTableRecord
100
AcDbRegAppTableRecord
  2
AcadAnnoPO
 70
     0
  0
APPID
  5
134
330
9
100
AcDbSymbolTableRecord
100
AcDbRegAppTableRecord
  2
AcadAnnotative
 70
     0
  0
APPID
  5
135
330
9
100
AcDbSymbolTableRecord
100
AcDbRegAppTableRecord
  2
ACAD_DSTYLE_DIMJAG
 70
     0
  0
APPID
  5
136
330
9
100
AcDbSymbolTableRecord
100
AcDbRegAppTableRecord
  2
ACAD_DSTYLE_DIMTALN
 70
     0
  0
APPID
  5
165
330
9
100
AcDbSymbolTableRecord
100
AcDbRegAppTableRecord
  2
ACAD_MLEADERVER
 70
     0
  0
ENDTAB
  0
TABLE
  2
DIMSTYLE
  5
A
330
0
100
AcDbSymbolTable
 70
     2
100
AcDbDimStyleTable
 71
     2
340
27
340
137
  0
DIMSTYLE
105
27
330
A
100
AcDbSymbolTableRecord
100
AcDbDimStyleTableRecord
  2
ISO-25
 70
     0
 41
2.5
 42
0.625
 43
3.75
 44
1.25
 73
     0
 74
     0
 77
     1
 78
     8
140
2.5
141
2.5
143
0.03937007874016
147
0.625
171
     3
172
     1
271
     2
272
     2
274
     3
278
    44
283
     0
284
     8
340
11
  0
DIMSTYLE
105
137
330
A
100
AcDbSymbolTableRecord
100
AcDbDimStyleTableRecord
  2
Annotative
 70
     0
 40
0.0
 41
2.5
 42
0.625
 43
3.75
 44
1.25
 73
     0
 74
     0
 77
     1
 78
     8
140
2.5
141
2.5
143
0.03937007874016
147
0.625
171
     3
172
     1
271
     2
272
     2
274
     3
278
    44
283
     0
284
     8
340
11
1001
AcadAnnotative
1000
AnnotativeData
1002
{
1070
     1
1070
     1
1002
}
1001
ACAD_DSTYLE_DIMJAG
1070
   388
1040
1.5
1001
ACAD_DSTYLE_DIMTALN
1070
   392
1070
     0
  0
ENDTAB
  0
TABLE
  2
BLOCK_RECORD
  5
1
330
0
100
AcDbSymbolTable
 70
     5
  0
BLOCK_RECORD
  5
1F
330
1
100
AcDbSymbolTableRecord
100
AcDbBlockTableRecord
  2
*Model_Space
340
22
  0
BLOCK_RECORD
  5
D2
330
1
100
AcDbSymbolTableRecord
100
AcDbBlockTableRecord
  2
*Paper_Space
340
D3
  0
BLOCK_RECORD
  5
D6
330
1
100
AcDbSymbolTableRecord
100
AcDbBlockTableRecord
  2
*Paper_Space0
340
D7
  0
BLOCK_RECORD
  5
9E9
330
1
100
AcDbSymbolTableRecord
100
AcDbBlockTableRecord
  2
1
340
0
310
2800000020000000200000000100080000000000000400000000000000000000000000000000000000000000000080000080000000808000800000008000800080800000C0C0C000C0DCC000F0CAA6000020400000206000002080000020A0000020C0000020E00000400000004020000040400000406000004080000040A0
310
000040C0000040E00000600000006020000060400000606000006080000060A0000060C0000060E00000800000008020000080400000806000008080000080A0000080C0000080E00000A0000000A0200000A0400000A0600000A0800000A0A00000A0C00000A0E00000C0000000C0200000C0400000C0600000C0800000C0
310
A00000C0C00000C0E00000E0000000E0200000E0400000E0600000E0800000E0A00000E0C00000E0E00040000000400020004000400040006000400080004000A0004000C0004000E00040200000402020004020400040206000402080004020A0004020C0004020E000404000004040200040404000404060004040800040
310
40A0004040C0004040E00040600000406020004060400040606000406080004060A0004060C0004060E00040800000408020004080400040806000408080004080A0004080C0004080E00040A0000040A0200040A0400040A0600040A0800040A0A00040A0C00040A0E00040C0000040C0200040C0400040C0600040C08000
310
40C0A00040C0C00040C0E00040E0000040E0200040E0400040E0600040E0800040E0A00040E0C00040E0E00080000000800020008000400080006000800080008000A0008000C0008000E00080200000802020008020400080206000802080008020A0008020C0008020E00080400000804020008040400080406000804080
310
008040A0008040C0008040E00080600000806020008060400080606000806080008060A0008060C0008060E00080800000808020008080400080806000808080008080A0008080C0008080E00080A0000080A0200080A0400080A0600080A0800080A0A00080A0C00080A0E00080C0000080C0200080C0400080C0600080C0
310
800080C0A00080C0C00080C0E00080E0000080E0200080E0400080E0600080E0800080E0A00080E0C00080E0E000C0000000C0002000C0004000C0006000C0008000C000A000C000C000C000E000C0200000C0202000C0204000C0206000C0208000C020A000C020C000C020E000C0400000C0402000C0404000C0406000C0
310
408000C040A000C040C000C040E000C0600000C0602000C0604000C0606000C0608000C060A000C060C000C060E000C0800000C0802000C0804000C0806000C0808000C080A000C080C000C080E000C0A00000C0A02000C0A04000C0A06000C0A08000C0A0A000C0A0C000C0A0E000C0C00000C0C02000C0C04000C0C06000
310
C0C08000C0C0A000F0FBFF00A4A0A000808080000000FF0000FF000000FFFF00FF000000FF00FF00FFFF0000FFFFFF000000000000000000000000000000000000000000000000000000000000000000000000000000000000000000FFFFFFFFFFFFFFFF000000000000000000000000000000000000000000000000FF0000
310
00000000FF000000000000000000000000000000000000000000000000FF000000000000FF00000000000000000000000000000000000000FFFFFFFFFFFF000000000000FFFFFFFFFFFF0000000000000000000000000000FF00000000000000000000000000000000FF0000000000000000000000000000FF000000000000
310
00000000000000000000FF0000000000000000000000000000FF00000000000000000000000000000000FF000000000000000000000000FFFFFFFFFFFFFFFFFFFFFFFFFFFFFFFFFFFFFFFFFF00000000000000000000FF0000FFFFFFFFFFFFFFFFFFFFFFFFFFFFFFFFFFFF00FFFF00000000000000FF000000000000000000
310
000000000000000000000000000000FF000000000000FFFFFFFF000000000000000000000000000000000000FFFFFFFF000000000000FF000000000000000000000000000000000000000000000000FF000000000000FF000000000000000000000000000000000000000000000000FF000000000000FFFFFFFF0000000000
310
00000000000000000000000000FFFFFFFF000000000000FF000000000000000000000000000000000000000000000000FF000000000000FF000000000000000000000000000000000000000000000000FF000000000000FF000000000000000000000000000000000000000000000000FF000000000000FFFFFFFF00000000
310
0000000000000000000000000000FFFFFFFF000000000000FF000000000000000000000000000000000000000000000000FF000000000000FF000000000000000000000000000000000000000000000000FF000000000000FF000000000000000000000000000000000000000000000000FF00000000000000FF0000000000
310
0000000000000000000000000000000000FF000000000000000000FF000000000000000000000000000000000000000000FF000000000000000000FF0000000000000000000000000000000000000000FF0000000000000000000000FF00000000000000FFFFFFFF0000000000000000FF0000000000000000000000FF0000
310
00000000000000000000000000000000FF00000000000000000000000000FF0000000000FFFFFFFFFFFF000000000000FF00000000000000000000000000FF0000000000FFFFFFFFFFFF0000000000FF000000000000000000000000000000FFFF0000FFFFFFFFFFFFFFFF0000FFFF00000000000000000000000000000000
310
0000FFFFFF000000000000FFFFFF000000000000000000000000000000000000000000000000000000000000000000000000000000000000
102
{BLKREFS
331
A35
102
}
1001
ACAD
1000
DesignCenter Data
1002
{
1070
     1
1070
     4
1002
}
  0
BLOCK_RECORD
  5
A36
330
1
100
AcDbSymbolTableRecord
100
AcDbBlockTableRecord
  2
2
340
0
310
2800000020000000200000000100080000000000000400000000000000000000000000000000000000000000000080000080000000808000800000008000800080800000C0C0C000C0DCC000F0CAA6000020400000206000002080000020A0000020C0000020E00000400000004020000040400000406000004080000040A0
310
000040C0000040E00000600000006020000060400000606000006080000060A0000060C0000060E00000800000008020000080400000806000008080000080A0000080C0000080E00000A0000000A0200000A0400000A0600000A0800000A0A00000A0C00000A0E00000C0000000C0200000C0400000C0600000C0800000C0
310
A00000C0C00000C0E00000E0000000E0200000E0400000E0600000E0800000E0A00000E0C00000E0E00040000000400020004000400040006000400080004000A0004000C0004000E00040200000402020004020400040206000402080004020A0004020C0004020E000404000004040200040404000404060004040800040
310
40A0004040C0004040E00040600000406020004060400040606000406080004060A0004060C0004060E00040800000408020004080400040806000408080004080A0004080C0004080E00040A0000040A0200040A0400040A0600040A0800040A0A00040A0C00040A0E00040C0000040C0200040C0400040C0600040C08000
310
40C0A00040C0C00040C0E00040E0000040E0200040E0400040E0600040E0800040E0A00040E0C00040E0E00080000000800020008000400080006000800080008000A0008000C0008000E00080200000802020008020400080206000802080008020A0008020C0008020E00080400000804020008040400080406000804080
310
008040A0008040C0008040E00080600000806020008060400080606000806080008060A0008060C0008060E00080800000808020008080400080806000808080008080A0008080C0008080E00080A0000080A0200080A0400080A0600080A0800080A0A00080A0C00080A0E00080C0000080C0200080C0400080C0600080C0
310
800080C0A00080C0C00080C0E00080E0000080E0200080E0400080E0600080E0800080E0A00080E0C00080E0E000C0000000C0002000C0004000C0006000C0008000C000A000C000C000C000E000C0200000C0202000C0204000C0206000C0208000C020A000C020C000C020E000C0400000C0402000C0404000C0406000C0
310
408000C040A000C040C000C040E000C0600000C0602000C0604000C0606000C0608000C060A000C060C000C060E000C0800000C0802000C0804000C0806000C0808000C080A000C080C000C080E000C0A00000C0A02000C0A04000C0A06000C0A08000C0A0A000C0A0C000C0A0E000C0C00000C0C02000C0C04000C0C06000
310
C0C08000C0C0A000F0FBFF00A4A0A000808080000000FF0000FF000000FFFF00FF000000FF00FF00FFFF0000FFFFFF00000000000000000000000000000000000000000000000000000000000000000000000000000000000000000000FFFFFFFFFFFF0000000000000000000000000000000000000000000000000000FF00
310
000000FF0000000000000000000000000000000000000000000000000000FF00000000FF0000000000000000000000000000000000000000000000000000FFFFFFFFFFFF0000000000000000000000000000000000000000000000000000FF00000000FF0000000000000000000000000000000000000000000000000000FF
310
00000000FF0000000000000000000000000000000000000000000000000000FFFFFFFFFFFF000000000000000000000000000000000000000000000000FFFFFF00000000FF000000000000000000000000000000000000000000000000FFFFFF00000000FF000000000000000000000000000000000000000000000000FFFF
310
FFFFFFFFFFFFFFFF00000000000000000000000000000000000000000000FF00FF00000000FF00FF00000000000000000000000000000000000000000000FFFFFF00000000FFFFFF000000000000000000000000000000000000000000000000FF00000000FF00000000000000000000000000000000000000000000000000
310
00FF00000000FF0000000000000000000000000000000000000000000000000000FF00000000FF0000000000000000000000000000000000000000000000000000FF00000000FF0000000000000000000000000000000000000000000000000000FF00000000FF000000000000000000000000000000000000000000000000
310
FFFFFF00000000FFFFFF00000000000000000000000000000000000000000000FFFFFF00000000FFFFFF000000000000000000000000000000000000000000000000FF00000000FF0000000000000000000000000000000000000000000000000000FFFFFFFFFFFF0000000000000000000000000000000000000000000000
310
000000FFFFFFFFFFFF0000000000000000000000000000000000000000000000000000FFFF0000FFFF000000000000000000000000000000000000000000000000FFFFFFFFFFFFFFFF000000000000000000000000000000000000000000000000FF00FF00000000FF00000000000000000000000000000000000000000000
310
0000FFFFFF00000000FF0000000000000000000000000000000000000000000000000000FFFF0000FFFF0000000000000000000000000000000000000000000000000000FFFFFFFFFFFF0000000000000000000000000000000000000000000000000000FFFFFFFFFFFF000000000000000000000000000000000000000000
310
0000000000FFFFFFFFFFFF000000000000000000000000000000000000000000000000000000000000000000000000000000000000000000
102
{BLKREFS
331
A8B
102
}
1001
ACAD
1000
DesignCenter Data
1002
{
1070
     1
1070
     4
1002
}
  0
BLOCK_RECORD
  5
A8C
330
1
100
AcDbSymbolTableRecord
100
AcDbBlockTableRecord
  2
3
340
0
310
2800000020000000200000000100080000000000000400000000000000000000000000000000000000000000000080000080000000808000800000008000800080800000C0C0C000C0DCC000F0CAA6000020400000206000002080000020A0000020C0000020E00000400000004020000040400000406000004080000040A0
310
000040C0000040E00000600000006020000060400000606000006080000060A0000060C0000060E00000800000008020000080400000806000008080000080A0000080C0000080E00000A0000000A0200000A0400000A0600000A0800000A0A00000A0C00000A0E00000C0000000C0200000C0400000C0600000C0800000C0
310
A00000C0C00000C0E00000E0000000E0200000E0400000E0600000E0800000E0A00000E0C00000E0E00040000000400020004000400040006000400080004000A0004000C0004000E00040200000402020004020400040206000402080004020A0004020C0004020E000404000004040200040404000404060004040800040
310
40A0004040C0004040E00040600000406020004060400040606000406080004060A0004060C0004060E00040800000408020004080400040806000408080004080A0004080C0004080E00040A0000040A0200040A0400040A0600040A0800040A0A00040A0C00040A0E00040C0000040C0200040C0400040C0600040C08000
310
40C0A00040C0C00040C0E00040E0000040E0200040E0400040E0600040E0800040E0A00040E0C00040E0E00080000000800020008000400080006000800080008000A0008000C0008000E00080200000802020008020400080206000802080008020A0008020C0008020E00080400000804020008040400080406000804080
310
008040A0008040C0008040E00080600000806020008060400080606000806080008060A0008060C0008060E00080800000808020008080400080806000808080008080A0008080C0008080E00080A0000080A0200080A0400080A0600080A0800080A0A00080A0C00080A0E00080C0000080C0200080C0400080C0600080C0
310
800080C0A00080C0C00080C0E00080E0000080E0200080E0400080E0600080E0800080E0A00080E0C00080E0E000C0000000C0002000C0004000C0006000C0008000C000A000C000C000C000E000C0200000C0202000C0204000C0206000C0208000C020A000C020C000C020E000C0400000C0402000C0404000C0406000C0
310
408000C040A000C040C000C040E000C0600000C0602000C0604000C0606000C0608000C060A000C060C000C060E000C0800000C0802000C0804000C0806000C0808000C080A000C080C000C080E000C0A00000C0A02000C0A04000C0A06000C0A08000C0A0A000C0A0C000C0A0E000C0C00000C0C02000C0C04000C0C06000
310
C0C08000C0C0A000F0FBFF00A4A0A000808080000000FF0000FF000000FFFF00FF000000FF00FF00FFFF0000FFFFFF0000000000000000000000000000000000000000000000000000000000000000000000000000000000000000000000000000000000000000000000000000000000000000000000000000000000000000
310
00000000000000000000000000000000000000000000000000000000000000000000000000000000000000000000000000000000000000000000000000000000000000000000000000000000000000000000000000000000000000000000000000000000000000000000000000000000000000000000000000000000000000
310
0000000000000000000000000000000000000000000000000000000000000000000000000000000000000000000000000000000000000000000000000000000000000000000000000000000000000000000000000000000000000000000000000000000000000000000000000000000000000000FFFFFF0000000000000000
310
00000000000000000000000000FFFFFFFF00000000FF00FF00FFFFFFFFFFFFFFFFFFFFFFFFFFFFFFFFFFFFFFFFFF0000FF000000FFFFFFFFFFFFFFFFFFFFFFFFFFFFFFFFFFFFFFFFFFFFFFFFFFFFFFFFFFFF0000FFFFFFFFFFFFFFFFFFFFFFFFFFFFFFFFFFFFFFFFFFFFFFFFFFFFFFFFFFFF0000FFFFFF0000FFFFFFFF00FF
310
FFFFFFFFFFFFFFFFFFFFFFFFFFFF0000FFFFFF0000FFFF000000FFFFFF00FFFFFFFFFFFFFFFFFFFFFFFF00FFFFFF000000FFFF0000FFFF000000FFFFFF00FFFFFFFFFFFFFFFFFFFFFFFFFFFFFFFF000000FFFF0000FFFFFF0000FFFFFFFF00FFFFFFFFFFFFFFFFFFFFFFFFFFFFFF0000FFFFFF0000FFFFFFFFFFFFFFFFFFFF
310
FFFFFFFFFFFFFFFFFFFFFFFFFFFFFFFFFFFFFFFF0000FFFFFFFFFFFFFFFFFFFFFFFFFFFFFFFFFFFFFFFFFFFFFFFFFFFFFFFFFFFF000000FF0000FF000000000000000000000000000000000000000000FF00FF00000000FFFFFFFF000000000000000000000000000000000000000000FFFFFF000000000000000000000000
310
00000000000000000000000000000000000000000000000000000000000000000000000000000000000000000000000000000000000000000000000000000000000000000000000000000000000000000000000000000000000000000000000000000000000000000000000000000000000000000000000000000000000000
310
00000000000000000000000000000000000000000000000000000000000000000000000000000000000000000000000000000000000000000000000000000000000000000000000000000000000000000000000000000000000000000000000000000000000000000000000000000000000000000000000000000000000000
310
0000000000000000000000000000000000000000000000000000000000000000000000000000000000000000000000000000000000000000
102
{BLKREFS
331
B31
102
}
1001
ACAD
1000
DesignCenter Data
1002
{
1070
     1
1070
     4
1002
}
  0
BLOCK_RECORD
  5
B32
330
1
100
AcDbSymbolTableRecord
100
AcDbBlockTableRecord
  2
4
340
0
310
2800000020000000200000000100080000000000000400000000000000000000000000000000000000000000000080000080000000808000800000008000800080800000C0C0C000C0DCC000F0CAA6000020400000206000002080000020A0000020C0000020E00000400000004020000040400000406000004080000040A0
310
000040C0000040E00000600000006020000060400000606000006080000060A0000060C0000060E00000800000008020000080400000806000008080000080A0000080C0000080E00000A0000000A0200000A0400000A0600000A0800000A0A00000A0C00000A0E00000C0000000C0200000C0400000C0600000C0800000C0
310
A00000C0C00000C0E00000E0000000E0200000E0400000E0600000E0800000E0A00000E0C00000E0E00040000000400020004000400040006000400080004000A0004000C0004000E00040200000402020004020400040206000402080004020A0004020C0004020E000404000004040200040404000404060004040800040
310
40A0004040C0004040E00040600000406020004060400040606000406080004060A0004060C0004060E00040800000408020004080400040806000408080004080A0004080C0004080E00040A0000040A0200040A0400040A0600040A0800040A0A00040A0C00040A0E00040C0000040C0200040C0400040C0600040C08000
310
40C0A00040C0C00040C0E00040E0000040E0200040E0400040E0600040E0800040E0A00040E0C00040E0E00080000000800020008000400080006000800080008000A0008000C0008000E00080200000802020008020400080206000802080008020A0008020C0008020E00080400000804020008040400080406000804080
310
008040A0008040C0008040E00080600000806020008060400080606000806080008060A0008060C0008060E00080800000808020008080400080806000808080008080A0008080C0008080E00080A0000080A0200080A0400080A0600080A0800080A0A00080A0C00080A0E00080C0000080C0200080C0400080C0600080C0
310
800080C0A00080C0C00080C0E00080E0000080E0200080E0400080E0600080E0800080E0A00080E0C00080E0E000C0000000C0002000C0004000C0006000C0008000C000A000C000C000C000E000C0200000C0202000C0204000C0206000C0208000C020A000C020C000C020E000C0400000C0402000C0404000C0406000C0
310
408000C040A000C040C000C040E000C0600000C0602000C0604000C0606000C0608000C060A000C060C000C060E000C0800000C0802000C0804000C0806000C0808000C080A000C080C000C080E000C0A00000C0A02000C0A04000C0A06000C0A08000C0A0A000C0A0C000C0A0E000C0C00000C0C02000C0C04000C0C06000
310
C0C08000C0C0A000F0FBFF00A4A0A000808080000000FF0000FF000000FFFF00FF000000FF00FF00FFFF0000FFFFFF000000000000000000000000000000000000000000000000000000000000000000000000000000000000000000000000FFFF0000000000000000000000000000000000000000000000000000FFFFFFFF
310
00FFFFFF000000000000000000000000000000000000000000FFFFFF00FFFFFF00FF0000FF0000000000000000000000000000000000000000FF000000FFFF00FFFF000000FF00000000000000000000000000000000000000FF00FFFFFFFFFFFF00000000FF00000000000000000000000000000000000000FFFFFFFFFF00
310
FFFFFFFF0000FF0000000000000000000000000000000000FFFFFF00FFFF00FFFF00FFFFFFFF00FFFF0000000000000000000000000000FFFF000000FFFF000000FFFF00FFFFFFFF00FF00000000000000000000000000FFFF000000FFFF0000000000FFFF00FFFFFFFF00000000000000000000000000FFFF000000FFFF00
310
000000000000FFFF00FFFFFF00000000000000000000000000FF0000FF00FF000000000000000000FFFF00FF000000000000000000000000FF000000FFFFFFFF00000000000000000000FF00FF0000000000000000000000FF000000FFFFFFFF000000000000000000000000FFFF00000000000000000000FF000000FFFF00
310
0000000000000000000000FFFFFFFF00000000000000000000FF00FFFFFF0000000000000000000000000000FFFFFF00000000000000000000FFFFFFFFFF0000000000000000000000000000FFFF0000000000000000000000FFFFFF00FFFF00000000000000000000000000FFFF000000000000000000000000FFFF0000FF
310
00000000000000000000000000FFFF000000000000000000000000FFFFFF00FF0000000000000000000000000000FF000000000000000000000000FFFFFFFFFFFF0000000000000000000000FFFFFF00000000000000000000000000FF0000FFFF00000000FFFFFF00000000FFFFFF00000000000000000000000000FFFF00
310
FFFFFF000000FFFFFF000000000000FF0000000000000000000000000000FFFFFFFFFFFF00FFFFFFFF000000000000FF0000000000000000000000000000FFFFFFFFFF00FFFFFFFF00000000000000FF000000000000000000000000000000FFFFFFFFFFFFFFFFFFFF0000000000FF00000000000000000000000000000000
310
00FFFFFFFFFFFFFFFFFFFF00000000FF00000000000000000000000000000000000000FFFFFFFFFFFFFFFF000000FF00000000000000000000000000000000000000000000FFFFFFFFFFFFFFFFFF000000000000000000000000000000000000000000000000FFFFFFFFFFFFFF000000000000000000000000000000000000
310
000000000000000000FFFFFF0000000000000000000000000000000000000000000000000000000000000000000000000000000000000000
102
{BLKREFS
331
C17
102
}
1001
ACAD
1000
DesignCenter Data
1002
{
1070
     1
1070
     4
1002
}
  0
ENDTAB
  0
ENDSEC
  0
SECTION
  2
BLOCKS
  0
BLOCK
  5
20
330
1F
100
AcDbEntity
  8
0
100
AcDbBlockBegin
  2
*Model_Space
 70
     0
 10
0.0
 20
0.0
 30
0.0
  3
*Model_Space
  1

  0
ENDBLK
  5
21
330
1F
100
AcDbEntity
  8
0
100
AcDbBlockEnd
  0
BLOCK
  5
D4
330
D2
100
AcDbEntity
 67
     1
  8
0
100
AcDbBlockBegin
  2
*Paper_Space
 70
     0
 10
0.0
 20
0.0
 30
0.0
  3
*Paper_Space
  1

  0
ENDBLK
  5
D5
330
D2
100
AcDbEntity
 67
     1
  8
0
100
AcDbBlockEnd
  0
BLOCK
  5
D8
330
D6
100
AcDbEntity
 67
     1
  8
0
100
AcDbBlockBegin
  2
*Paper_Space0
 70
     0
 10
0.0
 20
0.0
 30
0.0
  3
*Paper_Space0
  1

  0
ENDBLK
  5
D9
330
D6
100
AcDbEntity
 67
     1
  8
0
100
AcDbBlockEnd
  0
BLOCK
  5
9EA
330
9E9
100
AcDbEntity
  8
0
100
AcDbBlockBegin
  2
1
 70
     0
 10
0.0
 20
0.0
 30
0.0
  3
1
  1

  0
CIRCLE
  5
9EC
330
9E9
100
AcDbEntity
  8
0
  6
Continuous
 62
     7
370
    15
100
AcDbCircle
 10
1839.392857122673
 20
958.4571083208585
 30
0.0
 40
0.7500000000003979
  0
CIRCLE
  5
9ED
330
9E9
100
AcDbEntity
  8
0
  6
Continuous
 62
     7
370
    15
100
AcDbCircle
 10
1859.432208026554
 20
951.3902187085394
 30
0.0
 40
0.9999999999872386
  0
ARC
  5
9EE
330
9E9
100
AcDbEntity
  8
0
  6
Continuous
 62
     7
370
    15
100
AcDbCircle
 10
1857.053170769469
 20
948.2333639921304
 30
0.0
 40
0.1999999999999886
100
AcDbArc
 50
270.0
 51
0.0
  0
LINE
  5
9EF
330
9E9
100
AcDbEntity
  8
0
  6
Continuous
 62
     7
370
    15
100
AcDbLine
 10
1842.011245283663
 20
948.0333639921305
 30
0.0
 11
1857.053170769469
 21
948.033363992131
 31
0.0
  0
ARC
  5
9F0
330
9E9
100
AcDbEntity
  8
0
  6
Continuous
 62
     7
370
    15
100
AcDbCircle
 10
1842.011245283663
 20
948.2333639921304
 30
0.0
 40
0.200000000000017
100
AcDbArc
 50
180.0
 51
270.0
  0
LINE
  5
9F1
330
9E9
100
AcDbEntity
  8
0
  6
Continuous
 62
     7
370
    15
100
AcDbLine
 10
1841.811245283663
 20
949.0297481729212
 30
0.0
 11
1841.811245283663
 21
948.2333639921304
 31
0.0
  0
ARC
  5
9F2
330
9E9
100
AcDbEntity
  8
0
  6
Continuous
 62
     7
370
    15
100
AcDbCircle
 10
1842.011245283663
 20
949.0297481729212
 30
0.0
 40
0.200000000000017
100
AcDbArc
 50
90.0
 51
180.0
  0
SPLINE
  5
9F3
330
9E9
100
AcDbEntity
  8
0
  6
Continuous
 62
     7
370
    15
100
AcDbSpline
210
0.0
220
0.0
230
1.0
 70
     8
 71
     3
 72
    10
 73
     6
 74
     0
 42
0.0000000001
 43
0.0000000001
 40
0.0
 40
0.0
 40
0.0
 40
0.0
 40
0.5
 40
0.5
 40
1.0
 40
1.0
 40
1.0
 40
1.0
 10
1857.053170769469
 20
949.2297481729213
 30
0.0
 10
1857.105530647029
 20
949.2297481729213
 30
0.0
 10
1857.157568101221
 20
949.2081935536434
 30
0.0
 10
1857.231616150191
 20
949.1341455046741
 30
0.0
 10
1857.253170769469
 20
949.0821080504812
 30
0.0
 10
1857.253170769469
 20
949.0297481729212
 30
0.0
  0
LINE
  5
9F4
330
9E9
100
AcDbEntity
  8
0
  6
Continuous
 62
     7
370
    15
100
AcDbLine
 10
1857.253170769469
 20
948.2333639921304
 30
0.0
 11
1857.253170769469
 21
949.0297481729212
 31
0.0
  0
LINE
  5
9F5
330
9E9
100
AcDbEntity
  8
0
  6
Continuous
 62
     7
370
    15
100
AcDbLine
 10
1857.053170769469
 20
949.2297481729213
 30
0.0
 11
1842.011245283663
 21
949.229748172921
 31
0.0
  0
CIRCLE
  5
9F6
330
9E9
100
AcDbEntity
  8
0
  6
Continuous
 62
     7
370
    15
100
AcDbCircle
 10
1849.532208026566
 20
964.7784272793435
 30
0.0
 40
1.0
  0
CIRCLE
  5
9F7
330
9E9
100
AcDbEntity
  8
0
  6
Continuous
 62
     7
370
    15
100
AcDbCircle
 10
1839.392395700503
 20
954.6571083488728
 30
0.0
 40
0.9799999999999897
  0
CIRCLE
  5
9F8
330
9E9
100
AcDbEntity
  8
0
  6
Continuous
 62
     7
370
    15
100
AcDbCircle
 10
1839.632208026558
 20
951.3902187085353
 30
0.0
 40
0.9999999999931787
  0
ARC
  5
9F9
330
9E9
100
AcDbEntity
  8
0
  6
Continuous
 62
     7
370
    15
100
AcDbCircle
 10
1842.655116432553
 20
967.2339564331874
 30
0.0
 40
0.9999999999999163
100
AcDbArc
 50
107.500000000008
 51
150.0000000000027
  0
LINE
  5
9FA
330
9E9
100
AcDbEntity
  8
0
  6
Continuous
 62
     7
370
    15
100
AcDbLine
 10
1845.51233779076
 20
969.1833639921302
 30
0.0
 11
1842.354410633048
 21
968.1876733839354
 31
0.0
  0
LINE
  5
9FB
330
9E9
100
AcDbEntity
  8
0
  6
Continuous
 62
     7
370
    15
100
AcDbLine
 10
1846.53832580961
 20
969.1833639921304
 30
0.0
 11
1845.51233779076
 21
969.1833639921304
 31
0.0
  0
LINE
  5
9FC
330
9E9
100
AcDbEntity
  8
0
  6
Continuous
 62
     7
370
    15
100
AcDbLine
 10
1846.53832580961
 20
968.6846159600463
 30
0.0
 11
1846.53832580961
 21
969.1833639921304
 31
0.0
  0
ARC
  5
9FD
330
9E9
100
AcDbEntity
  8
0
  6
Continuous
 62
     7
370
    15
100
AcDbCircle
 10
1846.738325809591
 20
968.6846187414344
 30
0.0
 40
0.2000000000000022
100
AcDbArc
 50
180.0007968089882
 51
270.0
  0
LINE
  5
9FE
330
9E9
100
AcDbEntity
  8
0
  6
Continuous
 62
     7
370
    15
100
AcDbLine
 10
1847.115314881378
 20
968.4846187414361
 30
0.0
 11
1846.738325809591
 21
968.4846187414361
 31
0.0
  0
ARC
  5
9FF
330
9E9
100
AcDbEntity
  8
0
  6
Continuous
 62
     7
370
    15
100
AcDbCircle
 10
1847.115314881378
 20
968.2846187414344
 30
0.0
 40
0.2000000000015802
100
AcDbArc
 50
2.49955701467417
 51
90.0
  0
LINE
  5
A00
330
9E9
100
AcDbEntity
  8
0
  6
Continuous
 62
     7
370
    15
100
AcDbLine
 10
1847.341223271338
 20
967.6954769948725
 30
0.0
 11
1847.315124593137
 21
968.2933410740686
 31
0.0
  0
SPLINE
  5
A01
330
9E9
100
AcDbEntity
  8
0
  6
Continuous
 62
     7
370
    15
100
AcDbSpline
210
0.0
220
0.0
230
1.0
 70
     8
 71
     3
 72
     8
 73
     4
 74
     0
 42
0.0000000001
 43
0.0000000001
 40
0.0
 40
0.0
 40
0.0
 40
0.0
 40
1.0
 40
1.0
 40
1.0
 40
1.0
 10
1847.341223271338
 20
967.6954769948725
 30
0.0
 10
1847.341350110045
 20
967.6925713953625
 30
0.0
 10
1847.341413559579
 20
967.6896630288883
 30
0.0
 10
1847.341413559579
 20
967.6867546622384
 30
0.0
  0
SPLINE
  5
A02
330
9E9
100
AcDbEntity
  8
0
  6
Continuous
 62
     7
370
    15
100
AcDbSpline
210
0.0
220
0.0
230
1.0
 70
     8
 71
     3
 72
    10
 73
     6
 74
     0
 42
0.0000000001
 43
0.0000000001
 40
0.0
 40
0.0
 40
0.0
 40
0.0
 40
0.5
 40
0.5
 40
1.0
 40
1.0
 40
1.0
 40
1.0
 10
1847.341413559579
 20
967.6867546622384
 30
0.0
 10
1847.341413559579
 20
967.6357325395462
 30
0.0
 10
1847.320990980408
 20
967.5849941250332
 30
0.0
 10
1847.250297141141
 20
967.5114046617535
 30
0.0
 10
1847.200418973676
 20
967.4889628067154
 30
0.0
 10
1847.149437934331
 20
967.4869157035496
 30
0.0
  0
SPLINE
  5
A03
330
9E9
100
AcDbEntity
  8
0
  6
Continuous
 62
     7
370
    15
100
AcDbSpline
210
0.0
220
0.0
230
1.0
 70
     8
 71
     3
 72
    13
 73
     9
 74
     0
 42
0.0000000001
 43
0.0000000001
 40
0.0
 40
0.0
 40
0.0
 40
0.0
 40
0.128010452458352
 40
0.2510755984401571
 40
0.3738450504893872
 40
0.501000862552281
 40
0.7483290578957447
 40
1.0
 40
1.0
 40
1.0
 40
1.0
 10
1846.957462309084
 20
967.2870767448614
 30
0.0
 10
1846.958187108744
 20
967.300119788841
 30
0.0
 10
1846.959608707565
 20
967.3257019972451
 30
0.0
 10
1846.970606118068
 20
967.3624700549522
 30
0.0
 10
1846.988291472226
 20
967.3963346854179
 30
0.0
 10
1847.020018069938
 20
967.4358422250307
 30
0.0
 10
1847.07274832732
 20
967.4759856936434
 30
0.0
 10
1847.12372684477
 20
967.4832512896275
 30
0.0
 10
1847.149437934331
 20
967.4869157035494
 30
0.0
  0
LINE
  5
A04
330
9E9
100
AcDbEntity
  8
0
  6
Continuous
 62
     7
370
    15
100
AcDbLine
 10
1846.957462309084
 20
966.8881893175164
 30
0.0
 11
1846.957462309084
 21
967.2870767448614
 31
0.0
  0
SPLINE
  5
A05
330
9E9
100
AcDbEntity
  8
0
  6
Continuous
 62
     7
370
    15
100
AcDbSpline
210
0.0
220
0.0
230
1.0
 70
     8
 71
     3
 72
    13
 73
     9
 74
     0
 42
0.0000000001
 43
0.0000000001
 40
0.0
 40
0.0
 40
0.0
 40
0.0
 40
0.1281482339398928
 40
0.2510936230947474
 40
0.373747131552445
 40
0.5010535066074415
 40
0.7483541261371398
 40
1.0
 40
1.0
 40
1.0
 40
1.0
 10
1847.157462309084
 20
966.6881893175164
 30
0.0
 10
1847.144062596702
 20
966.6889485291916
 30
0.0
 10
1847.117807203031
 20
966.6904361283908
 30
0.0
 10
1847.080150348341
 20
966.7019923319175
 30
0.0
 10
1847.045634895834
 20
966.7205968027568
 30
0.0
 10
1847.005690875385
 20
966.7538852921438
 30
0.0
 10
1846.965679347753
 20
966.8090615967001
 30
0.0
 10
1846.960217178393
 20
966.8616607178126
 30
0.0
 10
1846.957462309084
 20
966.8881893175164
 30
0.0
  0
LINE
  5
A06
330
9E9
100
AcDbEntity
  8
0
  6
Continuous
 62
     7
370
    15
100
AcDbLine
 10
1848.753513980971
 20
966.6881893175164
 30
0.0
 11
1847.157462309084
 21
966.6881893175164
 31
0.0
  0
SPLINE
  5
A07
330
9E9
100
AcDbEntity
  8
0
  6
Continuous
 62
     7
370
    15
100
AcDbSpline
210
0.0
220
0.0
230
1.0
 70
     8
 71
     3
 72
    13
 73
     9
 74
     0
 42
0.0000000001
 43
0.0000000001
 40
0.0
 40
0.0
 40
0.0
 40
0.0
 40
0.1281482187045636
 40
0.2510936211045043
 40
0.37374714238892
 40
0.5010535008066667
 40
0.7483541233691549
 40
1.0
 40
1.0
 40
1.0
 40
1.0
 10
1848.953513980969
 20
966.8881884438153
 30
0.0
 10
1848.952754714528
 20
966.8747887736481
 30
0.0
 10
1848.951267007857
 20
966.8485334597788
 30
0.0
 10
1848.939710701302
 20
966.8108767520589
 30
0.0
 10
1848.921106180919
 20
966.7763614506711
 30
0.0
 10
1848.887817688563
 20
966.7364176207142
 30
0.0
 10
1848.832641477106
 20
966.6964063153129
 30
0.0
 10
1848.780042505336
 20
966.6909441731217
 30
0.0
 10
1848.753513980971
 20
966.6881893175164
 30
0.0
  0
LINE
  5
A08
330
9E9
100
AcDbEntity
  8
0
  6
Continuous
 62
     7
370
    15
100
AcDbLine
 10
1848.953515723502
 20
967.2870735688274
 30
0.0
 11
1848.953513980969
 21
966.8881884438153
 31
0.0
  0
SPLINE
  5
A09
330
9E9
100
AcDbEntity
  8
0
  6
Continuous
 62
     7
370
    15
100
AcDbSpline
210
0.0
220
0.0
230
1.0
 70
     8
 71
     3
 72
    13
 73
     9
 74
     0
 42
0.0000000001
 43
0.0000000001
 40
0.0
 40
0.0
 40
0.0
 40
0.0
 40
0.1280105496743086
 40
0.2510756112197645
 40
0.3738449815188412
 40
0.5010008998217353
 40
0.7483290756497335
 40
1.0
 40
1.0
 40
1.0
 40
1.0
 10
1848.761537299982
 20
967.4869155912064
 30
0.0
 10
1848.774541032694
 20
967.48566821118
 30
0.0
 10
1848.800046119167
 20
967.4832216417106
 30
0.0
 10
1848.836344131035
 20
967.4707579698484
 30
0.0
 10
1848.869472636804
 20
967.4517279382547
 30
0.0
 10
1848.907676184199
 20
967.4184411839293
 30
0.0
 10
1848.94567231737
 20
967.3641415483261
 30
0.0
 10
1848.950886129663
 20
967.3129115122705
 30
0.0
 10
1848.953515723501
 20
967.2870735688274
 30
0.0
  0
SPLINE
  5
A0A
330
9E9
100
AcDbEntity
  8
0
  6
Continuous
 62
     7
370
    15
100
AcDbSpline
210
0.0
220
0.0
230
1.0
 70
     8
 71
     3
 72
    10
 73
     6
 74
     0
 42
0.0000000001
 43
0.0000000001
 40
0.0
 40
0.0
 40
0.0
 40
0.0
 40
0.5
 40
0.5
 40
1.0
 40
1.0
 40
1.0
 40
1.0
 10
1848.761537299982
 20
967.4869155912061
 30
0.0
 10
1848.709102143149
 20
967.4890203478859
 30
0.0
 10
1848.657861301363
 20
967.5127502732294
 30
0.0
 10
1848.586819426599
 20
967.5900066951069
 30
0.0
 10
1848.567459739359
 20
967.643053238196
 30
0.0
 10
1848.569749324259
 20
967.6954806496693
 30
0.0
  0
LINE
  5
A0B
330
9E9
100
AcDbEntity
  8
0
  6
Continuous
 62
     7
370
    15
100
AcDbLine
 10
1848.595858959076
 20
968.2933447288654
 30
0.0
 11
1848.569749324259
 21
967.6954806496693
 31
0.0
  0
ARC
  5
A0C
330
9E9
100
AcDbEntity
  8
0
  6
Continuous
 62
     7
370
    15
100
AcDbCircle
 10
1848.795668511258
 20
968.2846187414344
 30
0.0
 40
0.2000000000010687
100
AcDbArc
 50
90.0
 51
177.4993949655893
  0
LINE
  5
A0D
330
9E9
100
AcDbEntity
  8
0
  6
Continuous
 62
     7
370
    15
100
AcDbLine
 10
1850.269136137395
 20
968.484618741435
 30
0.0
 11
1848.795668511258
 21
968.4846187414354
 31
0.0
  0
ARC
  5
A0E
330
9E9
100
AcDbEntity
  8
0
  6
Continuous
 62
     7
370
    15
100
AcDbCircle
 10
1850.269136137395
 20
968.2846187414344
 30
0.0
 40
0.2000000000006423
100
AcDbArc
 50
2.500335875177202
 51
90.0
  0
LINE
  5
A0F
330
9E9
100
AcDbEntity
  8
0
  6
Continuous
 62
     7
370
    15
100
AcDbLine
 10
1850.495052342252
 20
967.6954845014044
 30
0.0
 11
1850.468945730568
 21
968.2933437902169
 31
0.0
  0
SPLINE
  5
A10
330
9E9
100
AcDbEntity
  8
0
  6
Continuous
 62
     7
370
    15
100
AcDbSpline
210
0.0
220
0.0
230
1.0
 70
     8
 71
     3
 72
     8
 73
     4
 74
     0
 42
0.0000000001
 43
0.0000000001
 40
0.0
 40
0.0
 40
0.0
 40
0.0
 40
1.0
 40
1.0
 40
1.0
 40
1.0
 10
1850.495052342252
 20
967.6954845014044
 30
0.0
 10
1850.495179350603
 20
967.6925769377547
 30
0.0
 10
1850.495242885039
 20
967.68966660161
 30
0.0
 10
1850.495242885039
 20
967.6867562652894
 30
0.0
  0
SPLINE
  5
A11
330
9E9
100
AcDbEntity
  8
0
  6
Continuous
 62
     7
370
    15
100
AcDbSpline
210
0.0
220
0.0
230
1.0
 70
     8
 71
     3
 72
    10
 73
     6
 74
     0
 42
0.0000000001
 43
0.0000000001
 40
0.0
 40
0.0
 40
0.0
 40
0.0
 40
0.5
 40
0.5
 40
1.0
 40
1.0
 40
1.0
 40
1.0
 10
1850.495242885039
 20
967.6867562652894
 30
0.0
 10
1850.495242885039
 20
967.6357332246439
 30
0.0
 10
1850.474819917029
 20
967.5849938983651
 30
0.0
 10
1850.404124751355
 20
967.5114031635063
 30
0.0
 10
1850.354245655196
 20
967.4889609572883
 30
0.0
 10
1850.303263695603
 20
967.4869138928546
 30
0.0
  0
SPLINE
  5
A12
330
9E9
100
AcDbEntity
  8
0
  6
Continuous
 62
     7
370
    15
100
AcDbSpline
210
0.0
220
0.0
230
1.0
 70
     8
 71
     3
 72
    13
 73
     9
 74
     0
 42
0.0000000001
 43
0.0000000001
 40
0.0
 40
0.0
 40
0.0
 40
0.0
 40
0.1280105369048507
 40
0.2510756095354755
 40
0.3738449905701739
 40
0.5010008949269924
 40
0.7483290733122972
 40
1.0
 40
1.0
 40
1.0
 40
1.0
 10
1850.111289502288
 20
967.2870720209305
 30
0.0
 10
1850.112014010166
 20
967.3001151861512
 30
0.0
 10
1850.113435035823
 20
967.3256976166083
 30
0.0
 10
1850.124431827358
 20
967.3624661565728
 30
0.0
 10
1850.142116791807
 20
967.3963313086288
 30
0.0
 10
1850.173843139016
 20
967.4358395237893
 30
0.0
 10
1850.226573491464
 20
967.4759838134425
 30
0.0
 10
1850.277552405786
 20
967.4832494556218
 30
0.0
 10
1850.303263695603
 20
967.4869138928555
 30
0.0
  0
LINE
  5
A13
330
9E9
100
AcDbEntity
  8
0
  6
Continuous
 62
     7
370
    15
100
AcDbLine
 10
1850.111289502288
 20
966.8881911176894
 30
0.0
 11
1850.111289502288
 21
967.2870720209305
 31
0.0
  0
SPLINE
  5
A14
330
9E9
100
AcDbEntity
  8
0
  6
Continuous
 62
     7
370
    15
100
AcDbSpline
210
0.0
220
0.0
230
1.0
 70
     8
 71
     3
 72
    13
 73
     9
 74
     0
 42
0.0000000001
 43
0.0000000001
 40
0.0
 40
0.0
 40
0.0
 40
0.0
 40
0.1282760925773609
 40
0.2512700459200717
 40
0.3738837089849686
 40
0.5010629107473093
 40
0.7483049587566636
 40
1.0
 40
1.0
 40
1.0
 40
1.0
 10
1850.311290764163
 20
966.6881911176934
 30
0.0
 10
1850.297878726885
 20
966.6889576878286
 30
0.0
 10
1850.271606931767
 20
966.6904592623561
 30
0.0
 10
1850.233938741448
 20
966.7020183097729
 30
0.0
 10
1850.199433256371
 20
966.7206129021652
 30
0.0
 10
1850.15951414371
 20
966.7538944658058
 30
0.0
 10
1850.119542613706
 20
966.8090708165307
 30
0.0
 10
1850.114056859472
 20
966.8616612282077
 30
0.0
 10
1850.111289502288
 20
966.8881911176894
 30
0.0
  0
LINE
  5
A15
330
9E9
100
AcDbEntity
  8
0
  6
Continuous
 62
     7
370
    15
100
AcDbLine
 10
1851.907336509277
 20
966.6882011877472
 30
0.0
 11
1850.311290764163
 21
966.6881911176934
 31
0.0
  0
SPLINE
  5
A16
330
9E9
100
AcDbEntity
  8
0
  6
Continuous
 62
     7
370
    15
100
AcDbSpline
210
0.0
220
0.0
230
1.0
 70
     8
 71
     3
 72
    13
 73
     9
 74
     0
 42
0.0000000001
 43
0.0000000001
 40
0.0
 40
0.0
 40
0.0
 40
0.0
 40
0.128148211942113
 40
0.2510936202288805
 40
0.3737471472098375
 40
0.5010534982308192
 40
0.7483541221476831
 40
1.0
 40
1.0
 40
1.0
 40
1.0
 10
1852.107335247402
 20
966.8882011877425
 30
0.0
 10
1852.106576041174
 20
966.8748015315397
 30
0.0
 10
1852.105088452409
 20
966.8485462437381
 30
0.0
 10
1852.093532337669
 20
966.8108895284021
 30
0.0
 10
1852.074928013045
 20
966.7763741767727
 30
0.0
 10
1852.041639771389
 20
966.7364302214213
 30
0.0
 10
1851.986463853742
 20
966.6964186666293
 30
0.0
 10
1851.933864982787
 20
966.6909562046415
 30
0.0
 10
1851.907336509277
 20
966.6882011877465
 30
0.0
  0
LINE
  5
A17
330
9E9
100
AcDbEntity
  8
0
  6
Continuous
 62
     7
370
    15
100
AcDbLine
 10
1852.107335247402
 20
967.2870785212323
 30
0.0
 11
1852.107335247402
 21
966.8882011877425
 31
0.0
  0
SPLINE
  5
A18
330
9E9
100
AcDbEntity
  8
0
  6
Continuous
 62
     7
370
    15
100
AcDbSpline
210
0.0
220
0.0
230
1.0
 70
     8
 71
     3
 72
    13
 73
     9
 74
     0
 42
0.0000000001
 43
0.0000000001
 40
0.0
 40
0.0
 40
0.0
 40
0.0
 40
0.1280104574662328
 40
0.2510755990960842
 40
0.3738450469329663
 40
0.5010008644726851
 40
0.7483290588086558
 40
1.0
 40
1.0
 40
1.0
 40
1.0
 10
1851.915359325966
 20
967.4869174918145
 30
0.0
 10
1851.928362802216
 20
967.4856699818885
 30
0.0
 10
1851.953867402812
 20
967.4832231559944
 30
0.0
 10
1851.990164668461
 20
967.4707594293872
 30
0.0
 10
1852.023292512568
 20
967.4517296177723
 30
0.0
 10
1852.061495373872
 20
967.418443448833
 30
0.0
 10
1852.099490955479
 20
967.3641449857742
 30
0.0
 10
1852.104705356598
 20
967.3129159567011
 30
0.0
 10
1852.107335247402
 20
967.2870785212323
 30
0.0
  0
SPLINE
  5
A19
330
9E9
100
AcDbEntity
  8
0
  6
Continuous
 62
     7
370
    15
100
AcDbSpline
210
0.0
220
0.0
230
1.0
 70
     8
 71
     3
 72
    10
 73
     6
 74
     0
 42
0.0000000001
 43
0.0000000001
 40
0.0
 40
0.0
 40
0.0
 40
0.0
 40
0.5
 40
0.5
 40
1.0
 40
1.0
 40
1.0
 40
1.0
 10
1851.915359325965
 20
967.4869174918137
 30
0.0
 10
1851.862925166552
 20
967.4890228660226
 30
0.0
 10
1851.811685529567
 20
967.5127525589832
 30
0.0
 10
1851.740644811531
 20
967.590007403988
 30
0.0
 10
1851.721285036824
 20
967.6430526474094
 30
0.0
 10
1851.723573707221
 20
967.6954791260413
 30
0.0
  0
LINE
  5
A1A
330
9E9
100
AcDbEntity
  8
0
  6
Continuous
 62
     7
370
    15
100
AcDbLine
 10
1851.749673299166
 20
968.2933414050802
 30
0.0
 11
1851.723573707221
 21
967.6954791260413
 31
0.0
  0
ARC
  5
A1B
330
9E9
100
AcDbEntity
  8
0
  6
Continuous
 62
     7
370
    15
100
AcDbCircle
 10
1851.949482996476
 20
968.2846187414344
 30
0.0
 40
0.2000000000001307
100
AcDbArc
 50
89.99999999998697
 51
177.5003480671301
  0
LINE
  5
A1C
330
9E9
100
AcDbEntity
  8
0
  6
Continuous
 62
     7
370
    15
100
AcDbLine
 10
1852.326097179557
 20
968.4846187414345
 30
0.0
 11
1851.949482996476
 21
968.4846187414345
 31
0.0
  0
ARC
  5
A1D
330
9E9
100
AcDbEntity
  8
0
  6
Continuous
 62
     7
370
    15
100
AcDbCircle
 10
1852.326097179557
 20
968.6846187414344
 30
0.0
 40
0.2000000000000455
100
AcDbArc
 50
270.0
 51
0.0
  0
LINE
  5
A1E
330
9E9
100
AcDbEntity
  8
0
  6
Continuous
 62
     7
370
    15
100
AcDbLine
 10
1852.526097179557
 20
969.1833639921304
 30
0.0
 11
1852.526097179557
 21
968.6846187414344
 31
0.0
  0
LINE
  5
A1F
330
9E9
100
AcDbEntity
  8
0
  6
Continuous
 62
     7
370
    15
100
AcDbLine
 10
1853.552078262371
 20
969.1833639921298
 30
0.0
 11
1852.526097179557
 21
969.1833639921298
 31
0.0
  0
LINE
  5
A20
330
9E9
100
AcDbEntity
  8
0
  6
Continuous
 62
     7
370
    15
100
AcDbLine
 10
1856.710005420084
 20
968.1876733839358
 30
0.0
 11
1853.552078262371
 21
969.1833639921304
 31
0.0
  0
ARC
  5
A21
330
9E9
100
AcDbEntity
  8
0
  6
Continuous
 62
     7
370
    15
100
AcDbCircle
 10
1856.40929962058
 20
967.2339564331874
 30
0.0
 40
1.000000000000121
100
AcDbArc
 50
30.0000000000038
 51
72.50000000000636
  0
LINE
  5
A22
330
9E9
100
AcDbEntity
  8
0
  6
Continuous
 62
     7
370
    15
100
AcDbLine
 10
1860.831246132243
 20
961.5749204066354
 30
0.0
 11
1857.275325024365
 21
967.7339564331875
 31
0.0
  0
ARC
  5
A23
330
9E9
100
AcDbEntity
  8
0
  6
Continuous
 62
     7
370
    15
100
AcDbCircle
 10
1859.532208026566
 20
960.8249204066353
 30
0.0
 40
1.5
100
AcDbArc
 50
0.0
 51
30.0000000000038
  0
LINE
  5
A24
330
9E9
100
AcDbEntity
  8
0
  6
Continuous
 62
     7
370
    15
100
AcDbLine
 10
1861.032208026566
 20
950.7274770087363
 30
0.0
 11
1861.032208026566
 21
960.8249204066353
 31
0.0
  0
LINE
  5
A25
330
9E9
100
AcDbEntity
  8
0
  6
Continuous
 62
     7
370
    15
100
AcDbLine
 10
1857.532208026566
 20
947.2274770087357
 30
0.0
 11
1861.032208026566
 21
950.7274770087363
 31
0.0
  0
LINE
  5
A26
330
9E9
100
AcDbEntity
  8
0
  6
Continuous
 62
     7
370
    15
100
AcDbLine
 10
1857.532208026566
 20
947.2274770087357
 30
0.0
 11
1857.532208026566
 21
944.6833639921305
 31
0.0
  0
LINE
  5
A27
330
9E9
100
AcDbEntity
  8
0
  6
Continuous
 62
     7
370
    15
100
AcDbLine
 10
1857.532208026566
 20
944.6833639921305
 30
0.0
 11
1852.782208026566
 21
944.6833639921305
 31
0.0
  0
LINE
  5
A28
330
9E9
100
AcDbEntity
  8
0
  6
Continuous
 62
     7
370
    15
100
AcDbLine
 10
1852.782208026566
 20
944.6833639921305
 30
0.0
 11
1852.782208026566
 21
942.1833639921304
 31
0.0
  0
LINE
  5
A29
330
9E9
100
AcDbEntity
  8
0
  6
Continuous
 62
     7
370
    15
100
AcDbLine
 10
1852.782208026566
 20
942.1833639921304
 30
0.0
 11
1846.282208026566
 21
942.1833639921304
 31
0.0
  0
LINE
  5
A2A
330
9E9
100
AcDbEntity
  8
0
  6
Continuous
 62
     7
370
    15
100
AcDbLine
 10
1846.282208026566
 20
942.1833639921304
 30
0.0
 11
1846.282208026566
 21
944.6833639921305
 31
0.0
  0
LINE
  5
A2B
330
9E9
100
AcDbEntity
  8
0
  6
Continuous
 62
     7
370
    15
100
AcDbLine
 10
1846.282208026566
 20
944.6833639921305
 30
0.0
 11
1841.532208026566
 21
944.6833639921305
 31
0.0
  0
LINE
  5
A2C
330
9E9
100
AcDbEntity
  8
0
  6
Continuous
 62
     7
370
    15
100
AcDbLine
 10
1841.532208026566
 20
944.6833639921305
 30
0.0
 11
1841.532208026566
 21
947.2274770087354
 31
0.0
  0
LINE
  5
A2D
330
9E9
100
AcDbEntity
  8
0
  6
Continuous
 62
     7
370
    15
100
AcDbLine
 10
1838.032208026566
 20
950.7274770087351
 30
0.0
 11
1841.532208026566
 21
947.2274770087354
 31
0.0
  0
LINE
  5
A2E
330
9E9
100
AcDbEntity
  8
0
  6
Continuous
 62
     7
370
    15
100
AcDbLine
 10
1838.032208026566
 20
960.8249204066353
 30
0.0
 11
1838.032208026566
 21
950.7274770087354
 31
0.0
  0
ARC
  5
A2F
330
9E9
100
AcDbEntity
  8
0
  6
Continuous
 62
     7
370
    15
100
AcDbCircle
 10
1839.532208026566
 20
960.8249204066353
 30
0.0
 40
1.5
100
AcDbArc
 50
150.0000000000027
 51
180.0
  0
LINE
  5
A30
330
9E9
100
AcDbEntity
  8
0
  6
Continuous
 62
     7
370
    15
100
AcDbLine
 10
1841.789091028768
 20
967.7339564331873
 30
0.0
 11
1838.23316992089
 21
961.5749204066354
 31
0.0
  0
CIRCLE
  5
A31
330
9E9
100
AcDbEntity
  8
0
  6
Continuous
 62
     7
370
    15
100
AcDbCircle
 10
1859.671558930459
 20
958.4571083208654
 30
0.0
 40
0.7500000000000285
  0
CIRCLE
  5
A32
330
9E9
100
AcDbEntity
  8
0
  6
Continuous
 62
     7
370
    15
100
AcDbCircle
 10
1859.672405792334
 20
954.6571083208654
 30
0.0
 40
0.9799999999999897
  0
LINE
  5
A33
330
9E9
100
AcDbEntity
  8
0
  6
Continuous
 62
     7
370
    15
100
AcDbLine
 10
1848.795668511258
 20
968.4846187414354
 30
0.0
 11
1847.115314881378
 21
968.4846187414361
 31
0.0
  0
LINE
  5
A34
330
9E9
100
AcDbEntity
  8
0
  6
Continuous
 62
     7
370
    15
100
AcDbLine
 10
1851.949482996476
 20
968.4846187414345
 30
0.0
 11
1850.269136137395
 21
968.484618741435
 31
0.0
  0
ENDBLK
  5
9EB
330
9E9
100
AcDbEntity
  8
0
100
AcDbBlockEnd
  0
BLOCK
  5
A37
330
A36
100
AcDbEntity
  8
0
100
AcDbBlockBegin
  2
2
 70
     0
 10
0.0
 20
0.0
 30
0.0
  3
2
  1

  0
LINE
  5
A39
330
A36
100
AcDbEntity
  8
0
  6
Continuous
 62
     7
370
    15
100
AcDbLine
 10
1813.33403526909
 20
952.3902187085266
 30
0.0
 11
1811.36403526909
 21
952.3902187085266
 31
0.0
  0
LINE
  5
A3A
330
A36
100
AcDbEntity
  8
0
  6
Continuous
 62
     7
370
    15
100
AcDbLine
 10
1811.36403526909
 20
950.390218708552
 30
0.0
 11
1813.33403526909
 21
950.390218708552
 31
0.0
  0
LINE
  5
A3B
330
A36
100
AcDbEntity
  8
0
  6
Continuous
 62
     7
370
    15
100
AcDbLine
 10
1818.63403526909
 20
957.707108320865
 30
0.0
 11
1820.60403526909
 21
957.707108320865
 31
0.0
  0
LINE
  5
A3C
330
A36
100
AcDbEntity
  8
0
  6
Continuous
 62
     7
370
    15
100
AcDbLine
 10
1820.60403526909
 20
959.2071083208658
 30
0.0
 11
1818.63403526909
 21
959.2071083208658
 31
0.0
  0
LINE
  5
A3D
330
A36
100
AcDbEntity
  8
0
  6
Continuous
 62
     7
370
    15
100
AcDbLine
 10
1813.33403526909
 20
965.7784272793433
 30
0.0
 11
1812.064035269089
 21
965.7784272793433
 31
0.0
  0
LINE
  5
A3E
330
A36
100
AcDbEntity
  8
0
  6
Continuous
 62
     7
370
    15
100
AcDbLine
 10
1812.064035269089
 20
963.7784272793433
 30
0.0
 11
1813.33403526909
 21
963.7784272793433
 31
0.0
  0
LINE
  5
A3F
330
A36
100
AcDbEntity
  8
0
  6
Continuous
 62
     7
370
    15
100
AcDbLine
 10
1818.63403526909
 20
950.3902187085481
 30
0.0
 11
1820.60403526909
 21
950.3902187085481
 31
0.0
  0
LINE
  5
A40
330
A36
100
AcDbEntity
  8
0
  6
Continuous
 62
     7
370
    15
100
AcDbLine
 10
1820.60403526909
 20
952.3902187085225
 30
0.0
 11
1818.63403526909
 21
952.3902187085225
 31
0.0
  0
LINE
  5
A41
330
A36
100
AcDbEntity
  8
0
  6
Continuous
 62
     7
370
    15
100
AcDbLine
 10
1813.33403526909
 20
959.2071083208589
 30
0.0
 11
1811.36403526909
 21
959.2071083208589
 31
0.0
  0
LINE
  5
A42
330
A36
100
AcDbEntity
  8
0
  6
Continuous
 62
     7
370
    15
100
AcDbLine
 10
1811.36403526909
 20
957.7071083208579
 30
0.0
 11
1813.33403526909
 21
957.7071083208579
 31
0.0
  0
LINE
  5
A43
330
A36
100
AcDbEntity
  8
0
  6
Continuous
 62
     7
370
    15
100
AcDbLine
 10
1813.33403526909
 20
960.8249204066353
 30
0.0
 11
1818.63403526909
 21
960.8249204066353
 31
0.0
  0
LINE
  5
A44
330
A36
100
AcDbEntity
  8
0
  6
Continuous
 62
     7
370
    15
100
AcDbLine
 10
1818.63403526909
 20
960.8249204066353
 30
0.0
 11
1818.63403526909
 21
950.7274770087363
 31
0.0
  0
LINE
  5
A45
330
A36
100
AcDbEntity
  8
0
  6
Continuous
 62
     7
370
    15
100
AcDbLine
 10
1818.63403526909
 20
950.7274770087363
 30
0.0
 11
1813.33403526909
 21
950.7274770087363
 31
0.0
  0
LINE
  5
A46
330
A36
100
AcDbEntity
  8
0
  6
Continuous
 62
     7
370
    15
100
AcDbLine
 10
1813.33403526909
 20
950.7274770087363
 30
0.0
 11
1813.33403526909
 21
960.8249204066353
 31
0.0
  0
LINE
  5
A47
330
A36
100
AcDbEntity
  8
0
  6
Continuous
 62
     7
370
    15
100
AcDbLine
 10
1818.63403526909
 20
947.2274770087357
 30
0.0
 11
1813.33403526909
 21
947.2274770087357
 31
0.0
  0
LINE
  5
A48
330
A36
100
AcDbEntity
  8
0
  6
Continuous
 62
     7
370
    15
100
AcDbLine
 10
1818.63403526909
 20
950.7274770087363
 30
0.0
 11
1818.63403526909
 21
947.2274770087357
 31
0.0
  0
LINE
  5
A49
330
A36
100
AcDbEntity
  8
0
  6
Continuous
 62
     7
370
    15
100
AcDbLine
 10
1813.33403526909
 20
947.2274770087357
 30
0.0
 11
1813.33403526909
 21
950.7274770087363
 31
0.0
  0
LINE
  5
A4A
330
A36
100
AcDbEntity
  8
0
  6
Continuous
 62
     7
370
    15
100
AcDbLine
 10
1818.63403526909
 20
961.5749204066354
 30
0.0
 11
1813.33403526909
 21
961.5749204066354
 31
0.0
  0
LINE
  5
A4B
330
A36
100
AcDbEntity
  8
0
  6
Continuous
 62
     7
370
    15
100
AcDbLine
 10
1818.63403526909
 20
960.8249204066353
 30
0.0
 11
1818.63403526909
 21
961.5749204066354
 31
0.0
  0
LINE
  5
A4C
330
A36
100
AcDbEntity
  8
0
  6
Continuous
 62
     7
370
    15
100
AcDbLine
 10
1813.33403526909
 20
960.8249204066353
 30
0.0
 11
1813.33403526909
 21
961.5749204066354
 31
0.0
  0
ELLIPSE
  5
A4D
330
A36
100
AcDbEntity
  8
0
  6
Continuous
 62
     7
370
    15
100
AcDbEllipse
 10
1815.984035269089
 20
965.0167995560719
 30
0.0
 11
0.0
 21
2.936569695255427
 31
0.0
210
0.0
220
0.0
230
1.0
 40
0.851333446653502
 41
0.3890162787029639
 42
5.894169028476648
  0
LINE
  5
A4E
330
A36
100
AcDbEntity
  8
0
  6
Continuous
 62
     7
370
    15
100
AcDbLine
 10
1816.932231215525
 20
967.7339564331875
 30
0.0
 11
1818.63403526909
 21
967.7339564331873
 31
0.0
  0
LINE
  5
A4F
330
A36
100
AcDbEntity
  8
0
  6
Continuous
 62
     7
370
    15
100
AcDbLine
 10
1813.33403526909
 20
967.7339564331873
 30
0.0
 11
1815.035839322654
 21
967.7339564331875
 31
0.0
  0
LINE
  5
A50
330
A36
100
AcDbEntity
  8
0
  6
Continuous
 62
     7
370
    15
100
AcDbLine
 10
1818.63403526909
 20
967.7339564331873
 30
0.0
 11
1818.63403526909
 21
961.5749204066354
 31
0.0
  0
LINE
  5
A51
330
A36
100
AcDbEntity
  8
0
  6
Continuous
 62
     7
370
    15
100
AcDbLine
 10
1813.33403526909
 20
961.5749204066354
 30
0.0
 11
1813.33403526909
 21
967.7339564331873
 31
0.0
  0
SPLINE
  5
A52
330
A36
100
AcDbEntity
  8
0
  6
Continuous
 62
     7
370
    15
100
AcDbSpline
210
0.0
220
0.0
230
1.0
 70
     8
 71
     3
 72
    14
 73
    10
 74
     0
 42
0.0000000001
 43
0.0000000001
 40
0.0
 40
0.0
 40
0.0
 40
0.0
 40
0.25
 40
0.25
 40
0.5
 40
0.5
 40
0.75
 40
0.75
 40
1.0
 40
1.0
 40
1.0
 40
1.0
 10
1815.035839322654
 20
967.7339564331877
 30
0.0
 10
1815.180718823672
 20
967.8037139368258
 30
0.0
 10
1815.334498950677
 20
967.8478835217568
 30
0.0
 10
1815.656091029822
 20
967.9060844146825
 30
0.0
 10
1815.81968657673
 20
967.9190463603456
 30
0.0
 10
1816.150320337826
 20
967.9189394332871
 30
0.0
 10
1816.312525631835
 20
967.905892742676
 30
0.0
 10
1816.630427547895
 20
967.8485446020591
 30
0.0
 10
1816.78738753439
 20
967.8036966900409
 30
0.0
 10
1816.932231215525
 20
967.7339564331877
 30
0.0
  0
ELLIPSE
  5
A53
330
A36
100
AcDbEntity
  8
0
  6
Continuous
 62
     7
370
    15
100
AcDbEllipse
 10
1815.984035269089
 20
962.6668495676467
 30
0.0
 11
2.5
 21
0.0
 31
0.0
210
0.0
220
0.0
230
1.0
 40
0.6175194189888771
 41
1.588015373362706
 42
2.589465734642891
  0
ELLIPSE
  5
A54
330
A36
100
AcDbEntity
  8
0
  6
Continuous
 62
     7
370
    15
100
AcDbEllipse
 10
1815.984035269089
 20
962.6668495676467
 30
0.0
 11
2.5
 21
0.0
 31
0.0
210
0.0
220
0.0
230
1.0
 40
0.6175194189888771
 41
0.5521269189477144
 42
1.553577280227098
  0
LINE
  5
A55
330
A36
100
AcDbEntity
  8
0
  6
Continuous
 62
     7
370
    15
100
AcDbLine
 10
1811.36403526909
 20
952.3902187085266
 30
0.0
 11
1811.36403526909
 21
950.390218708552
 31
0.0
  0
LINE
  5
A56
330
A36
100
AcDbEntity
  8
0
  6
Continuous
 62
     7
370
    15
100
AcDbLine
 10
1820.60403526909
 20
958.4571083208654
 30
0.0
 11
1820.60403526909
 21
959.2071083208658
 31
0.0
  0
LINE
  5
A57
330
A36
100
AcDbEntity
  8
0
  6
Continuous
 62
     7
370
    15
100
AcDbLine
 10
1820.60403526909
 20
957.707108320865
 30
0.0
 11
1820.60403526909
 21
958.4571083208654
 31
0.0
  0
LINE
  5
A58
330
A36
100
AcDbEntity
  8
0
  6
Continuous
 62
     7
370
    15
100
AcDbLine
 10
1816.027080758303
 20
964.2104192560625
 30
0.0
 11
1815.940989779876
 21
964.2104192560625
 31
0.0
  0
LINE
  5
A59
330
A36
100
AcDbEntity
  8
0
  6
Continuous
 62
     7
370
    15
100
AcDbLine
 10
1818.63403526909
 20
944.6833639921303
 30
0.0
 11
1813.33403526909
 21
944.6833639921303
 31
0.0
  0
LINE
  5
A5A
330
A36
100
AcDbEntity
  8
0
  6
Continuous
 62
     7
370
    15
100
AcDbLine
 10
1818.63403526909
 20
947.2274770087357
 30
0.0
 11
1818.63403526909
 21
944.6833639921303
 31
0.0
  0
LINE
  5
A5B
330
A36
100
AcDbEntity
  8
0
  6
Continuous
 62
     7
370
    15
100
AcDbLine
 10
1813.33403526909
 20
947.2274770087357
 30
0.0
 11
1813.33403526909
 21
944.6833639921303
 31
0.0
  0
LINE
  5
A5C
330
A36
100
AcDbEntity
  8
0
  6
Continuous
 62
     7
370
    15
100
AcDbLine
 10
1818.63403526909
 20
968.1876733839356
 30
0.0
 11
1813.33403526909
 21
968.1876733839358
 31
0.0
  0
LINE
  5
A5D
330
A36
100
AcDbEntity
  8
0
  6
Continuous
 62
     7
370
    15
100
AcDbLine
 10
1818.63403526909
 20
967.7339564331873
 30
0.0
 11
1818.63403526909
 21
968.1876733839356
 31
0.0
  0
LINE
  5
A5E
330
A36
100
AcDbEntity
  8
0
  6
Continuous
 62
     7
370
    15
100
AcDbLine
 10
1813.33403526909
 20
967.7339564331873
 30
0.0
 11
1813.33403526909
 21
968.1876733839358
 31
0.0
  0
LINE
  5
A5F
330
A36
100
AcDbEntity
  8
0
  6
Continuous
 62
     7
370
    15
100
AcDbLine
 10
1812.064035269089
 20
949.0297481729212
 30
0.0
 11
1813.33403526909
 21
949.0297481729212
 31
0.0
  0
LINE
  5
A60
330
A36
100
AcDbEntity
  8
0
  6
Continuous
 62
     7
370
    15
100
AcDbLine
 10
1813.33403526909
 20
949.2297481729213
 30
0.0
 11
1812.064035269089
 21
949.2297481729213
 31
0.0
  0
SPLINE
  5
A61
330
A36
100
AcDbEntity
  8
0
  6
Continuous
 62
     7
370
    15
100
AcDbSpline
210
0.0
220
0.0
230
1.0
 70
    24
 71
     3
 72
    10
 73
     6
 74
     0
 42
0.0000000001
 43
0.0000000001
 40
0.0
 40
0.0
 40
0.0
 40
0.0
 40
0.5
 40
0.5
 40
1.0
 40
1.0
 40
1.0
 40
1.0
 10
1812.064035269089
 20
949.2297481729213
 30
0.0
 10
1812.064035269089
 20
949.2297481729213
 30
0.0
 10
1812.064035269089
 20
949.2081935536432
 30
0.0
 10
1812.064035269089
 20
949.134145504674
 30
0.0
 10
1812.064035269089
 20
949.0821080504812
 30
0.0
 10
1812.064035269089
 20
949.0297481729212
 30
0.0
  0
LINE
  5
A62
330
A36
100
AcDbEntity
  8
0
  6
Continuous
 62
     7
370
    15
100
AcDbLine
 10
1813.33403526909
 20
948.2333639921304
 30
0.0
 11
1812.064035269089
 21
948.2333639921304
 31
0.0
  0
LINE
  5
A63
330
A36
100
AcDbEntity
  8
0
  6
Continuous
 62
     7
370
    15
100
AcDbLine
 10
1812.064035269089
 20
948.2333639921304
 30
0.0
 11
1812.064035269089
 21
949.0297481729212
 31
0.0
  0
LINE
  5
A64
330
A36
100
AcDbEntity
  8
0
  6
Continuous
 62
     7
370
    15
100
AcDbLine
 10
1812.064035269089
 20
948.0333639921308
 30
0.0
 11
1813.33403526909
 21
948.0333639921306
 31
0.0
  0
LINE
  5
A65
330
A36
100
AcDbEntity
  8
0
  6
Continuous
 62
     7
370
    15
100
AcDbLine
 10
1812.064035269089
 20
948.2333639921304
 30
0.0
 11
1812.064035269089
 21
948.0333639921308
 31
0.0
  0
LINE
  5
A66
330
A36
100
AcDbEntity
  8
0
  6
Continuous
 62
     7
370
    15
100
AcDbLine
 10
1818.63403526909
 20
969.1833639921298
 30
0.0
 11
1817.88403526909
 21
969.1833639921298
 31
0.0
  0
LINE
  5
A67
330
A36
100
AcDbEntity
  8
0
  6
Continuous
 62
     7
370
    15
100
AcDbLine
 10
1814.08403526909
 20
969.1833639921298
 30
0.0
 11
1813.33403526909
 21
969.1833639921298
 31
0.0
  0
LINE
  5
A68
330
A36
100
AcDbEntity
  8
0
  6
Continuous
 62
     7
370
    15
100
AcDbLine
 10
1814.08403526909
 20
969.1833639921304
 30
0.0
 11
1814.08403526909
 21
968.2211070683335
 31
0.0
  0
LINE
  5
A69
330
A36
100
AcDbEntity
  8
0
  6
Continuous
 62
     7
370
    15
100
AcDbLine
 10
1814.08403526909
 20
968.2211070683335
 30
0.0
 11
1817.88403526909
 21
968.2211070683335
 31
0.0
  0
LINE
  5
A6A
330
A36
100
AcDbEntity
  8
0
  6
Continuous
 62
     7
370
    15
100
AcDbLine
 10
1817.88403526909
 20
968.2211070683335
 30
0.0
 11
1817.88403526909
 21
969.1833639921302
 31
0.0
  0
LINE
  5
A6B
330
A36
100
AcDbEntity
  8
0
  6
Continuous
 62
     7
370
    15
100
AcDbLine
 10
1818.63403526909
 20
969.1833639921304
 30
0.0
 11
1818.63403526909
 21
968.1876733839356
 31
0.0
  0
LINE
  5
A6C
330
A36
100
AcDbEntity
  8
0
  6
Continuous
 62
     7
370
    15
100
AcDbLine
 10
1813.33403526909
 20
968.1876733839358
 30
0.0
 11
1813.33403526909
 21
969.1833639921304
 31
0.0
  0
LINE
  5
A6D
330
A36
100
AcDbEntity
  8
0
  6
Continuous
 62
     7
370
    15
100
AcDbLine
 10
1816.74844052974
 20
968.3280192901683
 30
0.0
 11
1817.58403526909
 21
968.3280192901683
 31
0.0
  0
LINE
  5
A6E
330
A36
100
AcDbEntity
  8
0
  6
Continuous
 62
     7
370
    15
100
AcDbLine
 10
1817.58403526909
 20
968.3280192901683
 30
0.0
 11
1817.58403526909
 21
968.2211070683335
 31
0.0
  0
LINE
  5
A6F
330
A36
100
AcDbEntity
  8
0
  6
Continuous
 62
     7
370
    15
100
AcDbLine
 10
1814.08403526909
 20
968.3280192901651
 30
0.0
 11
1814.919630008439
 21
968.3280192901683
 31
0.0
  0
SPLINE
  5
A70
330
A36
100
AcDbEntity
  8
0
  6
Continuous
 62
     7
370
    15
100
AcDbSpline
210
0.0
220
0.0
230
1.0
 70
     8
 71
     3
 72
     9
 73
     5
 74
     0
 42
0.0000000001
 43
0.0000000001
 40
0.0
 40
0.0
 40
0.0
 40
0.0
 40
0.7757576000176473
 40
1.0
 40
1.0
 40
1.0
 40
1.0
 10
1814.919629934876
 20
968.3280193497211
 30
0.0
 10
1814.962481392172
 20
968.2964549983791
 30
0.0
 10
1815.017719597115
 20
968.255766578
 30
0.0
 10
1815.113525705183
 20
968.2274555918205
 30
0.0
 10
1815.135009496789
 20
968.2211070683337
 30
0.0
  0
SPLINE
  5
A71
330
A36
100
AcDbEntity
  8
0
  6
Continuous
 62
     7
370
    15
100
AcDbSpline
210
0.0
220
0.0
230
1.0
 70
     8
 71
     3
 72
     9
 73
     5
 74
     0
 42
0.0000000001
 43
0.0000000001
 40
0.0
 40
0.0
 40
0.0
 40
0.0
 40
0.2242438251048572
 40
1.0
 40
1.0
 40
1.0
 40
1.0
 10
1816.533060962927
 20
968.2211070683335
 30
0.0
 10
1816.554544942345
 20
968.227455651902
 30
0.0
 10
1816.65035127907
 20
968.2557667260891
 30
0.0
 10
1816.705589549384
 20
968.2964552668551
 30
0.0
 10
1816.74844097867
 20
968.3280196536017
 30
0.0
  0
LINE
  5
A72
330
A36
100
AcDbEntity
  8
0
  6
Continuous
 62
     7
370
    15
100
AcDbLine
 10
1815.365389162681
 20
968.2211070683335
 30
0.0
 11
1815.43403526909
 21
968.2346856747892
 31
0.0
  0
LINE
  5
A73
330
A36
100
AcDbEntity
  8
0
  6
Continuous
 62
     7
370
    15
100
AcDbLine
 10
1815.43403526909
 20
968.4502461543246
 30
0.0
 11
1816.23403526909
 21
968.4502461543246
 31
0.0
  0
LINE
  5
A74
330
A36
100
AcDbEntity
  8
0
  6
Continuous
 62
     7
370
    15
100
AcDbLine
 10
1816.234035269089
 20
968.2346870710317
 30
0.0
 11
1816.302688411651
 21
968.2211070683335
 31
0.0
  0
SPLINE
  5
A75
330
A36
100
AcDbEntity
  8
0
  6
Continuous
 62
     7
370
    15
100
AcDbSpline
210
0.0
220
0.0
230
1.0
 70
     8
 71
     3
 72
     8
 73
     4
 74
     0
 42
0.0000000001
 43
0.0000000001
 40
0.0
 40
0.0
 40
0.0
 40
0.0
 40
1.0
 40
1.0
 40
1.0
 40
1.0
 10
1815.43403526909
 20
968.8015537564492
 30
0.0
 10
1815.207192181125
 20
968.7660729798526
 30
0.0
 10
1815.019821171456
 20
968.699273663225
 30
0.0
 10
1814.91963045737
 20
968.6181641811161
 30
0.0
  0
LINE
  5
A76
330
A36
100
AcDbEntity
  8
0
  6
Continuous
 62
     7
370
    15
100
AcDbLine
 10
1814.919630008439
 20
968.6181688176825
 30
0.0
 11
1814.08403526909
 21
968.6181688176825
 31
0.0
  0
LINE
  5
A77
330
A36
100
AcDbEntity
  8
0
  6
Continuous
 62
     7
370
    15
100
AcDbLine
 10
1814.08403526909
 20
969.0171161826834
 30
0.0
 11
1815.43403526909
 21
969.0171161826834
 31
0.0
  0
LINE
  5
A78
330
A36
100
AcDbEntity
  8
0
  6
Continuous
 62
     7
370
    15
100
AcDbLine
 10
1815.43403526909
 20
969.0171161826834
 30
0.0
 11
1815.43403526909
 21
968.8015537564488
 31
0.0
  0
LINE
  5
A79
330
A36
100
AcDbEntity
  8
0
  6
Continuous
 62
     7
370
    15
100
AcDbLine
 10
1814.91963045737
 20
968.6181641811161
 30
0.0
 11
1814.91963045737
 21
968.3280192901683
 31
0.0
  0
LINE
  5
A7A
330
A36
100
AcDbEntity
  8
0
  6
Continuous
 62
     7
370
    15
100
AcDbLine
 10
1815.43403526909
 20
968.8015537564492
 30
0.0
 11
1815.43403526909
 21
968.2346856747892
 31
0.0
  0
LINE
  5
A7B
330
A36
100
AcDbEntity
  8
0
  6
Continuous
 62
     7
370
    15
100
AcDbLine
 10
1817.58403526909
 20
969.0171161826835
 30
0.0
 11
1816.23403526909
 21
969.0171161826835
 31
0.0
  0
LINE
  5
A7C
330
A36
100
AcDbEntity
  8
0
  6
Continuous
 62
     7
370
    15
100
AcDbLine
 10
1816.748440080807
 20
968.6181660267211
 30
0.0
 11
1817.58403526909
 21
968.6181660267211
 31
0.0
  0
SPLINE
  5
A7D
330
A36
100
AcDbEntity
  8
0
  6
Continuous
 62
     7
370
    15
100
AcDbSpline
210
0.0
220
0.0
230
1.0
 70
     8
 71
     3
 72
    13
 73
     9
 74
     0
 42
0.0000000001
 43
0.0000000001
 40
0.0
 40
0.0
 40
0.0
 40
0.0
 40
0.1261028159338831
 40
0.2508089153054859
 40
0.3751674550085137
 40
0.5002363388933116
 40
0.7479636559798971
 40
1.0
 40
1.0
 40
1.0
 40
1.0
 10
1816.748440529742
 20
968.6181638176808
 30
0.0
 10
1816.734974932023
 20
968.6282518468948
 30
0.0
 10
1816.708192881737
 20
968.6483161701689
 30
0.0
 10
1816.658740353794
 20
968.6765248306931
 30
0.0
 10
1816.60288323268
 20
968.7030136750966
 30
0.0
 10
1816.51975929639
 20
968.735503522515
 30
0.0
 10
1816.400666698664
 20
968.7715910642802
 30
0.0
 10
1816.289897434589
 20
968.7915089475373
 30
0.0
 10
1816.23403526909
 20
968.8015537564488
 30
0.0
  0
LINE
  5
A7E
330
A36
100
AcDbEntity
  8
0
  6
Continuous
 62
     7
370
    15
100
AcDbLine
 10
1816.23403526909
 20
969.0171183917241
 30
0.0
 11
1816.23403526909
 21
968.8015559654893
 31
0.0
  0
LINE
  5
A7F
330
A36
100
AcDbEntity
  8
0
  6
Continuous
 62
     7
370
    15
100
AcDbLine
 10
1817.58403526909
 20
969.0171161826834
 30
0.0
 11
1817.58403526909
 21
968.6181638176824
 31
0.0
  0
LINE
  5
A80
330
A36
100
AcDbEntity
  8
0
  6
Continuous
 62
     7
370
    15
100
AcDbLine
 10
1816.748440080807
 20
968.3280192901683
 30
0.0
 11
1816.748440080807
 21
968.6181660267211
 31
0.0
  0
LINE
  5
A81
330
A36
100
AcDbEntity
  8
0
  6
Continuous
 62
     7
370
    15
100
AcDbLine
 10
1817.58403526909
 20
968.6181638176824
 30
0.0
 11
1817.58403526909
 21
968.3280192901683
 31
0.0
  0
LINE
  5
A82
330
A36
100
AcDbEntity
  8
0
  6
Continuous
 62
     7
370
    15
100
AcDbLine
 10
1816.234035269089
 20
968.2346870710317
 30
0.0
 11
1816.234035269089
 21
968.8015559654893
 31
0.0
  0
LINE
  5
A83
330
A36
100
AcDbEntity
  8
0
  6
Continuous
 62
     7
370
    15
100
AcDbLine
 10
1814.08403526909
 20
969.18336399213
 30
0.0
 11
1817.88403526909
 21
969.18336399213
 31
0.0
  0
LINE
  5
A84
330
A36
100
AcDbEntity
  8
0
  6
Continuous
 62
     7
370
    15
100
AcDbLine
 10
1818.63403526909
 20
942.1833639921302
 30
0.0
 11
1813.33403526909
 21
942.1833639921302
 31
0.0
  0
LINE
  5
A85
330
A36
100
AcDbEntity
  8
0
  6
Continuous
 62
     7
370
    15
100
AcDbLine
 10
1818.63403526909
 20
944.6833639921303
 30
0.0
 11
1818.63403526909
 21
942.1833639921302
 31
0.0
  0
LINE
  5
A86
330
A36
100
AcDbEntity
  8
0
  6
Continuous
 62
     7
370
    15
100
AcDbLine
 10
1813.33403526909
 20
944.6833639921303
 30
0.0
 11
1813.33403526909
 21
942.1833639921302
 31
0.0
  0
LINE
  5
A87
330
A36
100
AcDbEntity
  8
0
  6
Continuous
 62
     7
370
    15
100
AcDbLine
 10
1812.064035269089
 20
965.7784272793433
 30
0.0
 11
1812.064035269089
 21
963.7784272793433
 31
0.0
  0
LINE
  5
A88
330
A36
100
AcDbEntity
  8
0
  6
Continuous
 62
     7
370
    15
100
AcDbLine
 10
1820.60403526909
 20
951.3902187085353
 30
0.0
 11
1820.60403526909
 21
952.3902187085225
 31
0.0
  0
LINE
  5
A89
330
A36
100
AcDbEntity
  8
0
  6
Continuous
 62
     7
370
    15
100
AcDbLine
 10
1820.60403526909
 20
950.3902187085481
 30
0.0
 11
1820.60403526909
 21
951.3902187085353
 31
0.0
  0
LINE
  5
A8A
330
A36
100
AcDbEntity
  8
0
  6
Continuous
 62
     7
370
    15
100
AcDbLine
 10
1811.36403526909
 20
959.2071083208589
 30
0.0
 11
1811.36403526909
 21
957.7071083208579
 31
0.0
  0
ENDBLK
  5
A38
330
A36
100
AcDbEntity
  8
0
100
AcDbBlockEnd
  0
BLOCK
  5
A8D
330
A8C
100
AcDbEntity
  8
0
100
AcDbBlockBegin
  2
3
 70
     0
 10
0.0
 20
0.0
 30
0.0
  3
3
  1

  0
LINE
  5
A8F
330
A8C
100
AcDbEntity
  8
0
  6
Continuous
 62
     7
370
    15
100
AcDbLine
 10
1848.569558876441
 20
925.8931760814128
 30
0.0
 11
1848.569558876441
 21
921.160679645107
 31
0.0
  0
LINE
  5
A90
330
A8C
100
AcDbEntity
  8
0
  6
Continuous
 62
     7
370
    15
100
AcDbLine
 10
1851.723383404531
 20
925.8931760814128
 30
0.0
 11
1851.723383404531
 21
921.1606797728499
 31
0.0
  0
LINE
  5
A91
330
A8C
100
AcDbEntity
  8
0
  6
Continuous
 62
     7
370
    15
100
AcDbLine
 10
1850.495242885039
 20
921.1756940016366
 30
0.0
 11
1850.495242885039
 21
925.8931760814128
 31
0.0
  0
LINE
  5
A92
330
A8C
100
AcDbEntity
  8
0
  6
Continuous
 62
     7
370
    15
100
AcDbLine
 10
1847.341413559579
 20
921.1756940016366
 30
0.0
 11
1847.341413559579
 21
925.8931760814128
 31
0.0
  0
LINE
  5
A93
330
A8C
100
AcDbEntity
  8
0
  6
Continuous
 62
     7
370
    15
100
AcDbLine
 10
1848.532208026566
 20
921.1631760814126
 30
0.0
 11
1848.532208026566
 21
919.8931760814128
 31
0.0
  0
LINE
  5
A94
330
A8C
100
AcDbEntity
  8
0
  6
Continuous
 62
     7
370
    15
100
AcDbLine
 10
1850.532208026566
 20
919.8931760814128
 30
0.0
 11
1850.532208026566
 21
921.1631760814126
 31
0.0
  0
LINE
  5
A95
330
A8C
100
AcDbEntity
  8
0
  6
Continuous
 62
     7
370
    15
100
AcDbLine
 10
1860.421558930459
 20
926.4631760814127
 30
0.0
 11
1860.421558930459
 21
928.4331760814128
 31
0.0
  0
LINE
  5
A96
330
A8C
100
AcDbEntity
  8
0
  6
Continuous
 62
     7
370
    15
100
AcDbLine
 10
1858.921558930459
 20
928.4331760814128
 30
0.0
 11
1858.921558930459
 21
926.4631760814127
 31
0.0
  0
LINE
  5
A97
330
A8C
100
AcDbEntity
  8
0
  6
Continuous
 62
     7
370
    15
100
AcDbLine
 10
1838.642857122673
 20
921.1631760814126
 30
0.0
 11
1838.642857122673
 21
919.1931760814126
 31
0.0
  0
LINE
  5
A98
330
A8C
100
AcDbEntity
  8
0
  6
Continuous
 62
     7
370
    15
100
AcDbLine
 10
1840.142857122674
 20
919.1931760814126
 30
0.0
 11
1840.142857122674
 21
921.1631760814126
 31
0.0
  0
LINE
  5
A99
330
A8C
100
AcDbEntity
  8
0
  6
Continuous
 62
     7
370
    15
100
AcDbLine
 10
1858.432208026567
 20
921.1631760814126
 30
0.0
 11
1858.432208026567
 21
919.1931760814126
 31
0.0
  0
LINE
  5
A9A
330
A8C
100
AcDbEntity
  8
0
  6
Continuous
 62
     7
370
    15
100
AcDbLine
 10
1860.432208026541
 20
919.1931760814126
 30
0.0
 11
1860.432208026541
 21
921.1631760814126
 31
0.0
  0
LINE
  5
A9B
330
A8C
100
AcDbEntity
  8
0
  6
Continuous
 62
     7
370
    15
100
AcDbLine
 10
1840.632208026546
 20
926.4631760814127
 30
0.0
 11
1840.632208026546
 21
928.4331760814128
 31
0.0
  0
LINE
  5
A9C
330
A8C
100
AcDbEntity
  8
0
  6
Continuous
 62
     7
370
    15
100
AcDbLine
 10
1838.632208026571
 20
928.4331760814128
 30
0.0
 11
1838.632208026571
 21
926.4631760814127
 31
0.0
  0
LINE
  5
A9D
330
A8C
100
AcDbEntity
  8
0
  6
Continuous
 62
     7
370
    15
100
AcDbLine
 10
1846.538318873549
 20
921.1631760814126
 30
0.0
 11
1846.538318873549
 21
926.4631760814127
 31
0.0
  0
LINE
  5
A9E
330
A8C
100
AcDbEntity
  8
0
  6
Continuous
 62
     7
370
    15
100
AcDbLine
 10
1846.538318873549
 20
926.4631760814127
 30
0.0
 11
1846.53832580961
 21
926.4631760814127
 31
0.0
  0
LINE
  5
A9F
330
A8C
100
AcDbEntity
  8
0
  6
Continuous
 62
     7
370
    15
100
AcDbLine
 10
1846.53832580961
 20
921.1631760814126
 30
0.0
 11
1846.53832580961
 21
926.4631760814127
 31
0.0
  0
LINE
  5
AA0
330
A8C
100
AcDbEntity
  8
0
  6
Continuous
 62
     7
370
    15
100
AcDbLine
 10
1845.51233779076
 20
921.1631760814126
 30
0.0
 11
1845.51233779076
 21
921.9131760814127
 31
0.0
  0
LINE
  5
AA1
330
A8C
100
AcDbEntity
  8
0
  6
Continuous
 62
     7
370
    15
100
AcDbLine
 10
1845.51233779076
 20
925.7131760814129
 30
0.0
 11
1845.51233779076
 21
921.9131760814127
 31
0.0
  0
LINE
  5
AA2
330
A8C
100
AcDbEntity
  8
0
  6
Continuous
 62
     7
370
    15
100
AcDbLine
 10
1845.51233779076
 20
925.7131760814129
 30
0.0
 11
1845.51233779076
 21
926.4631760814127
 31
0.0
  0
LINE
  5
AA3
330
A8C
100
AcDbEntity
  8
0
  6
Continuous
 62
     7
370
    15
100
AcDbLine
 10
1845.51233779076
 20
926.4631760814127
 30
0.0
 11
1846.538318873549
 21
926.4631760814127
 31
0.0
  0
LINE
  5
AA4
330
A8C
100
AcDbEntity
  8
0
  6
Continuous
 62
     7
370
    15
100
AcDbLine
 10
1846.53832580961
 20
921.1631760814126
 30
0.0
 11
1845.51233779076
 21
921.1631760814126
 31
0.0
  0
LINE
  5
AA5
330
A8C
100
AcDbEntity
  8
0
  6
Continuous
 62
     7
370
    15
100
AcDbLine
 10
1845.51233779076
 20
925.7131760814129
 30
0.0
 11
1842.460448732708
 21
925.7131760814129
 31
0.0
  0
LINE
  5
AA6
330
A8C
100
AcDbEntity
  8
0
  6
Continuous
 62
     7
370
    15
100
AcDbLine
 10
1842.460448732707
 20
925.7131760814129
 30
0.0
 11
1842.460448732707
 21
921.9131760814127
 31
0.0
  0
LINE
  5
AA7
330
A8C
100
AcDbEntity
  8
0
  6
Continuous
 62
     7
370
    15
100
AcDbLine
 10
1842.460448732708
 20
921.9131760814127
 30
0.0
 11
1845.51233779076
 21
921.9131760814127
 31
0.0
  0
LINE
  5
AA8
330
A8C
100
AcDbEntity
  8
0
  6
Continuous
 62
     7
370
    15
100
AcDbLine
 10
1842.354410633048
 20
921.1631760814126
 30
0.0
 11
1842.354410633048
 21
926.4631760814127
 31
0.0
  0
LINE
  5
AA9
330
A8C
100
AcDbEntity
  8
0
  6
Continuous
 62
     7
370
    15
100
AcDbLine
 10
1842.354410633048
 20
926.4631760814127
 30
0.0
 11
1845.51233779076
 21
926.4631760814127
 31
0.0
  0
LINE
  5
AAA
330
A8C
100
AcDbEntity
  8
0
  6
Continuous
 62
     7
370
    15
100
AcDbLine
 10
1845.51233779076
 20
921.1631760814126
 30
0.0
 11
1842.354410633048
 21
921.1631760814126
 31
0.0
  0
LINE
  5
AAB
330
A8C
100
AcDbEntity
  8
0
  6
Continuous
 62
     7
370
    15
100
AcDbLine
 10
1853.552078262371
 20
926.4631760814127
 30
0.0
 11
1853.552078262371
 21
925.7131760814129
 31
0.0
  0
LINE
  5
AAC
330
A8C
100
AcDbEntity
  8
0
  6
Continuous
 62
     7
370
    15
100
AcDbLine
 10
1853.552078262371
 20
926.4631760814127
 30
0.0
 11
1856.710005420084
 21
926.4631760814127
 31
0.0
  0
LINE
  5
AAD
330
A8C
100
AcDbEntity
  8
0
  6
Continuous
 62
     7
370
    15
100
AcDbLine
 10
1856.710005420084
 20
926.4631760814127
 30
0.0
 11
1856.710005420084
 21
921.1631760814126
 31
0.0
  0
LINE
  5
AAE
330
A8C
100
AcDbEntity
  8
0
  6
Continuous
 62
     7
370
    15
100
AcDbLine
 10
1853.552078262371
 20
921.9131760814127
 30
0.0
 11
1853.552078262371
 21
921.1631760814126
 31
0.0
  0
LINE
  5
AAF
330
A8C
100
AcDbEntity
  8
0
  6
Continuous
 62
     7
370
    15
100
AcDbLine
 10
1853.552078262371
 20
921.9131760814127
 30
0.0
 11
1856.603967320424
 21
921.9131760814127
 31
0.0
  0
LINE
  5
AB0
330
A8C
100
AcDbEntity
  8
0
  6
Continuous
 62
     7
370
    15
100
AcDbLine
 10
1856.603967320424
 20
921.9131760814127
 30
0.0
 11
1856.603967320424
 21
925.7131760814129
 31
0.0
  0
LINE
  5
AB1
330
A8C
100
AcDbEntity
  8
0
  6
Continuous
 62
     7
370
    15
100
AcDbLine
 10
1856.603967320424
 20
925.7131760814129
 30
0.0
 11
1853.552078262372
 21
925.7131760814129
 31
0.0
  0
LINE
  5
AB2
330
A8C
100
AcDbEntity
  8
0
  6
Continuous
 62
     7
370
    15
100
AcDbLine
 10
1856.710005420084
 20
921.1631760814126
 30
0.0
 11
1853.552078262371
 21
921.1631760814126
 31
0.0
  0
LINE
  5
AB3
330
A8C
100
AcDbEntity
  8
0
  6
Continuous
 62
     7
370
    15
100
AcDbLine
 10
1852.526097179557
 20
926.4631760814127
 30
0.0
 11
1853.552078262371
 21
926.4631760814127
 31
0.0
  0
LINE
  5
AB4
330
A8C
100
AcDbEntity
  8
0
  6
Continuous
 62
     7
370
    15
100
AcDbLine
 10
1853.552078262372
 20
921.9131760814127
 30
0.0
 11
1853.552078262372
 21
925.7131760814127
 31
0.0
  0
LINE
  5
AB5
330
A8C
100
AcDbEntity
  8
0
  6
Continuous
 62
     7
370
    15
100
AcDbLine
 10
1852.526097179557
 20
926.4631760814127
 30
0.0
 11
1852.526097179557
 21
921.1631760814126
 31
0.0
  0
LINE
  5
AB6
330
A8C
100
AcDbEntity
  8
0
  6
Continuous
 62
     7
370
    15
100
AcDbLine
 10
1853.552078262371
 20
921.1631760814126
 30
0.0
 11
1852.526097179557
 21
921.1631760814126
 31
0.0
  0
LINE
  5
AB7
330
A8C
100
AcDbEntity
  8
0
  6
Continuous
 62
     7
370
    15
100
AcDbLine
 10
1845.51233779076
 20
922.0631760814127
 30
0.0
 11
1844.474982736547
 21
922.0631760814127
 31
0.0
  0
LINE
  5
AB8
330
A8C
100
AcDbEntity
  8
0
  6
Continuous
 62
     7
370
    15
100
AcDbLine
 10
1844.474982736547
 20
922.0631760814127
 30
0.0
 11
1844.474982736544
 21
922.8987708207606
 31
0.0
  0
SPLINE
  5
AB9
330
A8C
100
AcDbEntity
  8
0
  6
Continuous
 62
     7
370
    15
100
AcDbSpline
210
0.0
220
0.0
230
1.0
 70
     8
 71
     3
 72
     8
 73
     4
 74
     0
 42
0.0000000001
 43
0.0000000001
 40
0.0
 40
0.0
 40
0.0
 40
0.0
 40
1.0
 40
1.0
 40
1.0
 40
1.0
 10
1844.474981888533
 20
922.8987708207599
 30
0.0
 10
1844.6862696535
 20
922.998961433495
 30
0.0
 10
1844.860279911204
 20
923.1863326546356
 30
0.0
 10
1844.952706223281
 20
923.4131760814129
 30
0.0
  0
LINE
  5
ABA
330
A8C
100
AcDbEntity
  8
0
  6
Continuous
 62
     7
370
    15
100
AcDbLine
 10
1845.51233779076
 20
923.4131760814127
 30
0.0
 11
1844.952706223281
 21
923.4131760814127
 31
0.0
  0
SPLINE
  5
ABB
330
A8C
100
AcDbEntity
  8
0
  6
Continuous
 62
     7
370
    15
100
AcDbSpline
210
0.0
220
0.0
230
1.0
 70
     8
 71
     3
 72
     8
 73
     4
 74
     0
 42
0.0000000001
 43
0.0000000001
 40
0.0
 40
0.0
 40
0.0
 40
0.0
 40
1.0
 40
1.0
 40
1.0
 40
1.0
 10
1844.952707071293
 20
924.2131760814126
 30
0.0
 10
1844.860280897263
 20
924.4400191693776
 30
0.0
 10
1844.686271028935
 20
924.6273901790461
 30
0.0
 10
1844.474983683279
 20
924.7275808931323
 30
0.0
  0
LINE
  5
ABC
330
A8C
100
AcDbEntity
  8
0
  6
Continuous
 62
     7
370
    15
100
AcDbLine
 10
1844.474982736547
 20
924.7275813420632
 30
0.0
 11
1844.474982736547
 21
925.5631760814127
 31
0.0
  0
LINE
  5
ABD
330
A8C
100
AcDbEntity
  8
0
  6
Continuous
 62
     7
370
    15
100
AcDbLine
 10
1845.51233779076
 20
925.5631760814127
 30
0.0
 11
1844.474982736547
 21
925.5631760814127
 31
0.0
  0
LINE
  5
ABE
330
A8C
100
AcDbEntity
  8
0
  6
Continuous
 62
     7
370
    15
100
AcDbLine
 10
1845.51233779076
 20
924.2131760814126
 30
0.0
 11
1844.952707071294
 21
924.2131760814126
 31
0.0
  0
SPLINE
  5
ABF
330
A8C
100
AcDbEntity
  8
0
  6
Continuous
 62
     7
370
    15
100
AcDbSpline
210
0.0
220
0.0
230
1.0
 70
     8
 71
     3
 72
     8
 73
     4
 74
     0
 42
0.0000000001
 43
0.0000000001
 40
0.0
 40
0.0
 40
0.0
 40
0.0
 40
1.0
 40
1.0
 40
1.0
 40
1.0
 10
1854.111612028501
 20
923.2631760814129
 30
0.0
 10
1854.204038202531
 20
923.036332993448
 30
0.0
 10
1854.378048070859
 20
922.8489619837795
 30
0.0
 10
1854.589335416514
 20
922.7487712696932
 30
0.0
  0
LINE
  5
AC0
330
A8C
100
AcDbEntity
  8
0
  6
Continuous
 62
     7
370
    15
100
AcDbLine
 10
1854.589338282668
 20
922.7487708207624
 30
0.0
 11
1854.589338282668
 21
921.9131760814127
 31
0.0
  0
LINE
  5
AC1
330
A8C
100
AcDbEntity
  8
0
  6
Continuous
 62
     7
370
    15
100
AcDbLine
 10
1853.552078262372
 20
923.2631760814127
 30
0.0
 11
1854.1116120285
 21
923.2631760814127
 31
0.0
  0
LINE
  5
AC2
330
A8C
100
AcDbEntity
  8
0
  6
Continuous
 62
     7
370
    15
100
AcDbLine
 10
1853.552078262372
 20
925.4131760814127
 30
0.0
 11
1854.589336363246
 21
925.4131760814127
 31
0.0
  0
LINE
  5
AC3
330
A8C
100
AcDbEntity
  8
0
  6
Continuous
 62
     7
370
    15
100
AcDbLine
 10
1854.589337211262
 20
924.5775808931307
 30
0.0
 11
1854.589337211262
 21
925.4131760814127
 31
0.0
  0
SPLINE
  5
AC4
330
A8C
100
AcDbEntity
  8
0
  6
Continuous
 62
     7
370
    15
100
AcDbSpline
210
0.0
220
0.0
230
1.0
 70
     8
 71
     3
 72
    13
 73
     9
 74
     0
 42
0.0000000001
 43
0.0000000001
 40
0.0
 40
0.0
 40
0.0
 40
0.0
 40
0.1261028159338831
 40
0.2508089153054859
 40
0.3751674550085137
 40
0.5002363388933116
 40
0.7479636559798971
 40
1.0
 40
1.0
 40
1.0
 40
1.0
 10
1854.589336363249
 20
924.5775813420648
 30
0.0
 10
1854.563057402269
 20
924.5641157443467
 30
0.0
 10
1854.510790546449
 20
924.5373336940597
 30
0.0
 10
1854.437307978792
 20
924.4878811661173
 30
0.0
 10
1854.368305471589
 20
924.4320240450036
 30
0.0
 10
1854.283670562779
 20
924.3489001087134
 30
0.0
 10
1854.189663786845
 20
924.2298075109866
 30
0.0
 10
1854.137778402115
 20
924.1190382469119
 30
0.0
 10
1854.1116120285
 20
924.0631760814126
 30
0.0
  0
LINE
  5
AC5
330
A8C
100
AcDbEntity
  8
0
  6
Continuous
 62
     7
370
    15
100
AcDbLine
 10
1853.552078262372
 20
924.0631760814126
 30
0.0
 11
1854.111612876512
 21
924.0631760814126
 31
0.0
  0
LINE
  5
AC6
330
A8C
100
AcDbEntity
  8
0
  6
Continuous
 62
     7
370
    15
100
AcDbLine
 10
1846.738325809591
 20
921.1631760814126
 30
0.0
 11
1846.738325809591
 21
926.4631760814127
 31
0.0
  0
LINE
  5
AC7
330
A8C
100
AcDbEntity
  8
0
  6
Continuous
 62
     7
370
    15
100
AcDbLine
 10
1846.53832580961
 20
926.4631760814127
 30
0.0
 11
1846.738325809591
 21
926.4631760814127
 31
0.0
  0
LINE
  5
AC8
330
A8C
100
AcDbEntity
  8
0
  6
Continuous
 62
     7
370
    15
100
AcDbLine
 10
1846.738325809591
 20
921.1631760814126
 30
0.0
 11
1846.53832580961
 21
921.1631760814126
 31
0.0
  0
LINE
  5
AC9
330
A8C
100
AcDbEntity
  8
0
  6
Continuous
 62
     7
370
    15
100
AcDbLine
 10
1852.326097179557
 20
926.4631760814127
 30
0.0
 11
1852.326097179557
 21
921.1631760814126
 31
0.0
  0
LINE
  5
ACA
330
A8C
100
AcDbEntity
  8
0
  6
Continuous
 62
     7
370
    15
100
AcDbLine
 10
1852.326097179557
 20
926.4631760814127
 30
0.0
 11
1852.526097179557
 21
926.4631760814127
 31
0.0
  0
LINE
  5
ACB
330
A8C
100
AcDbEntity
  8
0
  6
Continuous
 62
     7
370
    15
100
AcDbLine
 10
1852.526097179557
 20
921.1631760814126
 30
0.0
 11
1852.326097179557
 21
921.1631760814126
 31
0.0
  0
LINE
  5
ACC
330
A8C
100
AcDbEntity
  8
0
  6
Continuous
 62
     7
370
    15
100
AcDbLine
 10
1851.949482996476
 20
921.1631760814126
 30
0.0
 11
1851.949482996476
 21
925.8931760814128
 31
0.0
  0
LINE
  5
ACD
330
A8C
100
AcDbEntity
  8
0
  6
Continuous
 62
     7
370
    15
100
AcDbLine
 10
1851.949482996476
 20
925.8931760814128
 30
0.0
 11
1850.269136137395
 21
925.8931760814128
 31
0.0
  0
LINE
  5
ACE
330
A8C
100
AcDbEntity
  8
0
  6
Continuous
 62
     7
370
    15
100
AcDbLine
 10
1850.269136137395
 20
925.8931760814128
 30
0.0
 11
1850.269136137395
 21
921.1631760814126
 31
0.0
  0
LINE
  5
ACF
330
A8C
100
AcDbEntity
  8
0
  6
Continuous
 62
     7
370
    15
100
AcDbLine
 10
1848.795668511258
 20
921.1631760814126
 30
0.0
 11
1848.795668511258
 21
925.8931760814128
 31
0.0
  0
LINE
  5
AD0
330
A8C
100
AcDbEntity
  8
0
  6
Continuous
 62
     7
370
    15
100
AcDbLine
 10
1848.795668511258
 20
925.8931760814128
 30
0.0
 11
1847.115314881378
 21
925.8931760814128
 31
0.0
  0
LINE
  5
AD1
330
A8C
100
AcDbEntity
  8
0
  6
Continuous
 62
     7
370
    15
100
AcDbLine
 10
1847.115314881378
 20
925.8931760814128
 30
0.0
 11
1847.115314881378
 21
921.1631760814126
 31
0.0
  0
LINE
  5
AD2
330
A8C
100
AcDbEntity
  8
0
  6
Continuous
 62
     7
370
    15
100
AcDbLine
 10
1846.738325809591
 20
926.4631760814127
 30
0.0
 11
1852.326097179557
 21
926.4631760814127
 31
0.0
  0
LINE
  5
AD3
330
A8C
100
AcDbEntity
  8
0
  6
Continuous
 62
     7
370
    15
100
AcDbLine
 10
1847.115314881378
 20
921.1631760814126
 30
0.0
 11
1846.738325809591
 21
921.1631760814126
 31
0.0
  0
LINE
  5
AD4
330
A8C
100
AcDbEntity
  8
0
  6
Continuous
 62
     7
370
    15
100
AcDbLine
 10
1850.269136137395
 20
921.1631760814126
 30
0.0
 11
1848.795668511258
 21
921.1631760814126
 31
0.0
  0
LINE
  5
AD5
330
A8C
100
AcDbEntity
  8
0
  6
Continuous
 62
     7
370
    15
100
AcDbLine
 10
1852.326097179557
 20
921.1631760814126
 30
0.0
 11
1851.949482996476
 21
921.1631760814126
 31
0.0
  0
LINE
  5
AD6
330
A8C
100
AcDbEntity
  8
0
  6
Continuous
 62
     7
370
    15
100
AcDbLine
 10
1847.315124593137
 20
921.1631760814126
 30
0.0
 11
1847.315124593137
 21
925.8931760814128
 31
0.0
  0
LINE
  5
AD7
330
A8C
100
AcDbEntity
  8
0
  6
Continuous
 62
     7
370
    15
100
AcDbLine
 10
1847.315124593137
 20
921.1631760814126
 30
0.0
 11
1847.115314881378
 21
921.1631760814126
 31
0.0
  0
LINE
  5
AD8
330
A8C
100
AcDbEntity
  8
0
  6
Continuous
 62
     7
370
    15
100
AcDbLine
 10
1848.595858959076
 20
925.8931760814128
 30
0.0
 11
1848.595858959076
 21
921.1631760814126
 31
0.0
  0
LINE
  5
AD9
330
A8C
100
AcDbEntity
  8
0
  6
Continuous
 62
     7
370
    15
100
AcDbLine
 10
1848.795668511258
 20
921.1631760814126
 30
0.0
 11
1848.595858959076
 21
921.1631760814126
 31
0.0
  0
LINE
  5
ADA
330
A8C
100
AcDbEntity
  8
0
  6
Continuous
 62
     7
370
    15
100
AcDbLine
 10
1850.468945730568
 20
921.1631760814126
 30
0.0
 11
1850.468945730568
 21
925.8931760814128
 31
0.0
  0
LINE
  5
ADB
330
A8C
100
AcDbEntity
  8
0
  6
Continuous
 62
     7
370
    15
100
AcDbLine
 10
1850.468945730568
 20
921.1631760814126
 30
0.0
 11
1850.269136137395
 21
921.1631760814126
 31
0.0
  0
LINE
  5
ADC
330
A8C
100
AcDbEntity
  8
0
  6
Continuous
 62
     7
370
    15
100
AcDbLine
 10
1851.749673299166
 20
925.8931760814128
 30
0.0
 11
1851.749673299166
 21
921.1631760814126
 31
0.0
  0
LINE
  5
ADD
330
A8C
100
AcDbEntity
  8
0
  6
Continuous
 62
     7
370
    15
100
AcDbLine
 10
1851.949482996476
 20
921.1631760814126
 30
0.0
 11
1851.749673299166
 21
921.1631760814126
 31
0.0
  0
LINE
  5
ADE
330
A8C
100
AcDbEntity
  8
0
  6
Continuous
 62
     7
370
    15
100
AcDbLine
 10
1843.936770913913
 20
924.7275817909928
 30
0.0
 11
1843.936770913913
 21
925.5631760814127
 31
0.0
  0
LINE
  5
ADF
330
A8C
100
AcDbEntity
  8
0
  6
Continuous
 62
     7
370
    15
100
AcDbLine
 10
1843.936770913913
 20
922.0631760814127
 30
0.0
 11
1843.936770913913
 21
922.8987703718328
 31
0.0
  0
SPLINE
  5
AE0
330
A8C
100
AcDbEntity
  8
0
  6
Continuous
 62
     7
370
    15
100
AcDbSpline
210
0.0
220
0.0
230
1.0
 70
     8
 71
     3
 72
    10
 73
     6
 74
     0
 42
0.0000000001
 43
0.0000000001
 40
0.0
 40
0.0
 40
0.0
 40
0.0
 40
0.5
 40
0.5
 40
1.0
 40
1.0
 40
1.0
 40
1.0
 10
1843.936770290472
 20
922.8987703718322
 30
0.0
 10
1843.772576538784
 20
922.976629226099
 30
0.0
 10
1843.630214944064
 20
923.106449942999
 30
0.0
 10
1843.43430136642
 20
923.4288467311667
 30
0.0
 10
1843.381105654355
 20
923.6208365205531
 30
0.0
 10
1843.381105654355
 20
923.8131760814127
 30
0.0
  0
SPLINE
  5
AE1
330
A8C
100
AcDbEntity
  8
0
  6
Continuous
 62
     7
370
    15
100
AcDbSpline
210
0.0
220
0.0
230
1.0
 70
     8
 71
     3
 72
    10
 73
     6
 74
     0
 42
0.0000000001
 43
0.0000000001
 40
0.0
 40
0.0
 40
0.0
 40
0.0
 40
0.5
 40
0.5
 40
1.0
 40
1.0
 40
1.0
 40
1.0
 10
1843.381106277796
 20
923.8131760814127
 30
0.0
 10
1843.381106277796
 20
924.0055154574362
 30
0.0
 10
1843.434301885038
 20
924.1975050636558
 30
0.0
 10
1843.630215107514
 20
924.5199016583688
 30
0.0
 10
1843.772576453894
 20
924.649722367568
 30
0.0
 10
1843.936769967181
 20
924.727581342063
 30
0.0
  0
LINE
  5
AE2
330
A8C
100
AcDbEntity
  8
0
  6
Continuous
 62
     7
370
    15
100
AcDbLine
 10
1844.474982736547
 20
922.0631760814127
 30
0.0
 11
1843.936770913913
 21
922.0631760814127
 31
0.0
  0
LINE
  5
AE3
330
A8C
100
AcDbEntity
  8
0
  6
Continuous
 62
     7
370
    15
100
AcDbLine
 10
1844.474982736547
 20
925.5631760814127
 30
0.0
 11
1843.936770913913
 21
925.5631760814127
 31
0.0
  0
LINE
  5
AE4
330
A8C
100
AcDbEntity
  8
0
  6
Continuous
 62
     7
370
    15
100
AcDbLine
 10
1855.127548185881
 20
922.7487703718328
 30
0.0
 11
1855.127548185881
 21
921.9131760814127
 31
0.0
  0
LINE
  5
AE5
330
A8C
100
AcDbEntity
  8
0
  6
Continuous
 62
     7
370
    15
100
AcDbLine
 10
1855.127548185881
 20
925.4131760814127
 30
0.0
 11
1855.127548185881
 21
924.5775817909928
 31
0.0
  0
SPLINE
  5
AE6
330
A8C
100
AcDbEntity
  8
0
  6
Continuous
 62
     7
370
    15
100
AcDbSpline
210
0.0
220
0.0
230
1.0
 70
     8
 71
     3
 72
    10
 73
     6
 74
     0
 42
0.0000000001
 43
0.0000000001
 40
0.0
 40
0.0
 40
0.0
 40
0.0
 40
0.5
 40
0.5
 40
1.0
 40
1.0
 40
1.0
 40
1.0
 10
1855.127548809322
 20
924.5775817909931
 30
0.0
 10
1855.291742561009
 20
924.4997229367264
 30
0.0
 10
1855.43410415573
 20
924.3699022198265
 30
0.0
 10
1855.630017733374
 20
924.0475054316588
 30
0.0
 10
1855.683213445438
 20
923.8555156422725
 30
0.0
 10
1855.683213445438
 20
923.6631760814127
 30
0.0
  0
SPLINE
  5
AE7
330
A8C
100
AcDbEntity
  8
0
  6
Continuous
 62
     7
370
    15
100
AcDbSpline
210
0.0
220
0.0
230
1.0
 70
     8
 71
     3
 72
    10
 73
     6
 74
     0
 42
0.0000000001
 43
0.0000000001
 40
0.0
 40
0.0
 40
0.0
 40
0.0
 40
0.5
 40
0.5
 40
1.0
 40
1.0
 40
1.0
 40
1.0
 10
1855.683212821998
 20
923.6631760814127
 30
0.0
 10
1855.683212821998
 20
923.4708367053896
 30
0.0
 10
1855.630017214756
 20
923.2788470991696
 30
0.0
 10
1855.43410399228
 20
922.9564505044567
 30
0.0
 10
1855.2917426459
 20
922.8266297952576
 30
0.0
 10
1855.127549132612
 20
922.7487708207624
 30
0.0
  0
LINE
  5
AE8
330
A8C
100
AcDbEntity
  8
0
  6
Continuous
 62
     7
370
    15
100
AcDbLine
 10
1854.589336363246
 20
925.4131760814127
 30
0.0
 11
1855.127548185881
 21
925.4131760814127
 31
0.0
  0
LINE
  5
AE9
330
A8C
100
AcDbEntity
  8
0
  6
Continuous
 62
     7
370
    15
100
AcDbLine
 10
1843.719159853635
 20
922.8987708207624
 30
0.0
 11
1843.936770913913
 21
922.8987708207624
 31
0.0
  0
SPLINE
  5
AEA
330
A8C
100
AcDbEntity
  8
0
  6
Continuous
 62
     7
370
    15
100
AcDbSpline
210
0.0
220
0.0
230
1.0
 70
     8
 71
     3
 72
    17
 73
    13
 74
     0
 42
0.0000000001
 43
0.0000000001
 40
0.0
 40
0.0
 40
0.0
 40
0.0
 40
0.084741576026264
 40
0.1678907955675914
 40
0.2502196116307259
 40
0.3325230650181438
 40
0.4155969247198843
 40
0.5002152273092209
 40
0.6275859942571867
 40
0.7554099484574069
 40
0.8773678922395648
 40
1.0
 40
1.0
 40
1.0
 40
1.0
 10
1843.16349616425
 20
923.8131760814127
 30
0.0
 10
1843.164313145162
 20
923.7805792275967
 30
0.0
 10
1843.165931755313
 20
923.7159980388012
 30
0.0
 10
1843.179021459786
 20
923.6205884507578
 30
0.0
 10
1843.199992325642
 20
923.527869367011
 30
0.0
 10
1843.22955557935
 20
923.4378637352534
 30
0.0
 10
1843.267541586636
 20
923.3506055193483
 30
0.0
 10
1843.321219445439
 20
923.2526338661559
 30
0.0
 10
1843.395176054171
 20
923.148048817038
 30
0.0
 10
1843.492689855378
 20
923.0468387931754
 30
0.0
 10
1843.600674178123
 20
922.9612168062869
 30
0.0
 10
1843.679592121244
 20
922.9196243630447
 30
0.0
 10
1843.719159853635
 20
922.8987708207624
 30
0.0
  0
SPLINE
  5
AEB
330
A8C
100
AcDbEntity
  8
0
  6
Continuous
 62
     7
370
    15
100
AcDbSpline
210
0.0
220
0.0
230
1.0
 70
     8
 71
     3
 72
    17
 73
    13
 74
     0
 42
0.0000000001
 43
0.0000000001
 40
0.0
 40
0.0
 40
0.0
 40
0.0
 40
0.0847415760325895
 40
0.1678907955776823
 40
0.2502196116419691
 40
0.3325230650281137
 40
0.4155969247262553
 40
0.50021522730996
 40
0.6275859942757959
 40
0.7554099484577649
 40
0.877367892247161
 40
1.0
 40
1.0
 40
1.0
 40
1.0
 10
1843.719159853635
 20
924.7275813420632
 30
0.0
 10
1843.69166375396
 20
924.7135859309407
 30
0.0
 10
1843.637188226528
 20
924.6858580927558
 30
0.0
 10
1843.561039053129
 20
924.6344153653854
 30
0.0
 10
1843.490376964686
 20
924.5763424196011
 30
0.0
 10
1843.425509455311
 20
924.5109519220452
 30
0.0
 10
1843.366396850838
 20
924.4384237723966
 30
0.0
 10
1843.304490614339
 20
924.3461891788658
 30
0.0
 10
1843.245147586537
 20
924.2314151242352
 30
0.0
 10
1843.198221652682
 20
924.0949337960953
 30
0.0
 10
1843.16884115698
 20
923.9545069786148
 30
0.0
 10
1843.165281099358
 20
923.8603728678151
 30
0.0
 10
1843.16349616425
 20
923.8131760814127
 30
0.0
  0
LINE
  5
AEC
330
A8C
100
AcDbEntity
  8
0
  6
Continuous
 62
     7
370
    15
100
AcDbLine
 10
1843.936770913913
 20
924.7275817909928
 30
0.0
 11
1843.719159853635
 21
924.7275817909928
 31
0.0
  0
LINE
  5
AED
330
A8C
100
AcDbEntity
  8
0
  6
Continuous
 62
     7
370
    15
100
AcDbLine
 10
1843.719159853635
 20
922.0631760814127
 30
0.0
 11
1843.719159853635
 21
922.8987708207624
 31
0.0
  0
LINE
  5
AEE
330
A8C
100
AcDbEntity
  8
0
  6
Continuous
 62
     7
370
    15
100
AcDbLine
 10
1842.679904369864
 20
925.5631760814127
 30
0.0
 11
1842.679904369864
 21
922.0631760814127
 31
0.0
  0
LINE
  5
AEF
330
A8C
100
AcDbEntity
  8
0
  6
Continuous
 62
     7
370
    15
100
AcDbLine
 10
1843.719159853635
 20
925.5631760814127
 30
0.0
 11
1843.719159853635
 21
924.7275813420632
 31
0.0
  0
LINE
  5
AF0
330
A8C
100
AcDbEntity
  8
0
  6
Continuous
 62
     7
370
    15
100
AcDbLine
 10
1843.719159853635
 20
922.0631760814127
 30
0.0
 11
1842.679904369864
 21
922.0631760814127
 31
0.0
  0
LINE
  5
AF1
330
A8C
100
AcDbEntity
  8
0
  6
Continuous
 62
     7
370
    15
100
AcDbLine
 10
1842.679904369864
 20
925.5631760814127
 30
0.0
 11
1843.719159853635
 21
925.5631760814127
 31
0.0
  0
LINE
  5
AF2
330
A8C
100
AcDbEntity
  8
0
  6
Continuous
 62
     7
370
    15
100
AcDbLine
 10
1843.936770913913
 20
925.5631760814127
 30
0.0
 11
1843.719159853635
 21
925.5631760814127
 31
0.0
  0
LINE
  5
AF3
330
A8C
100
AcDbEntity
  8
0
  6
Continuous
 62
     7
370
    15
100
AcDbLine
 10
1843.936770913913
 20
922.0631760814127
 30
0.0
 11
1843.719159853635
 21
922.0631760814127
 31
0.0
  0
LINE
  5
AF4
330
A8C
100
AcDbEntity
  8
0
  6
Continuous
 62
     7
370
    15
100
AcDbLine
 10
1855.127548809322
 20
924.5775817909931
 30
0.0
 11
1855.345158299427
 21
924.5775817909931
 31
0.0
  0
SPLINE
  5
AF5
330
A8C
100
AcDbEntity
  8
0
  6
Continuous
 62
     7
370
    15
100
AcDbSpline
210
0.0
220
0.0
230
1.0
 70
     8
 71
     3
 72
    10
 73
     6
 74
     0
 42
0.0000000001
 43
0.0000000001
 40
0.0
 40
0.0
 40
0.0
 40
0.0
 40
0.5
 40
0.5
 40
1.0
 40
1.0
 40
1.0
 40
1.0
 10
1855.900822935543
 20
923.6631760814127
 30
0.0
 10
1855.900822935543
 20
923.8555156422725
 30
0.0
 10
1855.847627223479
 20
924.0475054316588
 30
0.0
 10
1855.651713645835
 20
924.3699022198265
 30
0.0
 10
1855.509352051115
 20
924.4997229367264
 30
0.0
 10
1855.345158299427
 20
924.5775817909931
 30
0.0
  0
SPLINE
  5
AF6
330
A8C
100
AcDbEntity
  8
0
  6
Continuous
 62
     7
370
    15
100
AcDbSpline
210
0.0
220
0.0
230
1.0
 70
     8
 71
     3
 72
    10
 73
     6
 74
     0
 42
0.0000000001
 43
0.0000000001
 40
0.0
 40
0.0
 40
0.0
 40
0.0
 40
0.5
 40
0.5
 40
1.0
 40
1.0
 40
1.0
 40
1.0
 10
1855.345159091024
 20
922.7487707471995
 30
0.0
 10
1855.509352643377
 20
922.8266297019938
 30
0.0
 10
1855.65171403045
 20
922.9564504124549
 30
0.0
 10
1855.847627311125
 20
923.2788470388678
 30
0.0
 10
1855.900822935543
 20
923.4708366751018
 30
0.0
 10
1855.900822935543
 20
923.6631760814127
 30
0.0
  0
LINE
  5
AF7
330
A8C
100
AcDbEntity
  8
0
  6
Continuous
 62
     7
370
    15
100
AcDbLine
 10
1855.127548185881
 20
922.7487703718328
 30
0.0
 11
1855.345159246158
 21
922.7487703718328
 31
0.0
  0
LINE
  5
AF8
330
A8C
100
AcDbEntity
  8
0
  6
Continuous
 62
     7
370
    15
100
AcDbLine
 10
1855.345159246158
 20
924.5775813420632
 30
0.0
 11
1855.345159246158
 21
925.4131760814127
 31
0.0
  0
LINE
  5
AF9
330
A8C
100
AcDbEntity
  8
0
  6
Continuous
 62
     7
370
    15
100
AcDbLine
 10
1856.384414729929
 20
921.9131760814127
 30
0.0
 11
1856.384414729929
 21
925.4131760814127
 31
0.0
  0
LINE
  5
AFA
330
A8C
100
AcDbEntity
  8
0
  6
Continuous
 62
     7
370
    15
100
AcDbLine
 10
1855.345159246167
 20
921.9131760814127
 30
0.0
 11
1855.345159246158
 21
922.7487708207624
 31
0.0
  0
LINE
  5
AFB
330
A8C
100
AcDbEntity
  8
0
  6
Continuous
 62
     7
370
    15
100
AcDbLine
 10
1855.345159246158
 20
925.4131760814127
 30
0.0
 11
1856.384414729929
 21
925.4131760814127
 31
0.0
  0
LINE
  5
AFC
330
A8C
100
AcDbEntity
  8
0
  6
Continuous
 62
     7
370
    15
100
AcDbLine
 10
1855.127548185881
 20
925.4131760814127
 30
0.0
 11
1855.345159246158
 21
925.4131760814127
 31
0.0
  0
LINE
  5
AFD
330
A8C
100
AcDbEntity
  8
0
  6
Continuous
 62
     7
370
    15
100
AcDbLine
 10
1848.569749324259
 20
921.1631760814126
 30
0.0
 11
1848.569749324259
 21
925.8931760814128
 31
0.0
  0
LINE
  5
AFE
330
A8C
100
AcDbEntity
  8
0
  6
Continuous
 62
     7
370
    15
100
AcDbLine
 10
1848.595858959076
 20
921.1631760814126
 30
0.0
 11
1848.569749324259
 21
921.1631760814126
 31
0.0
  0
LINE
  5
AFF
330
A8C
100
AcDbEntity
  8
0
  6
Continuous
 62
     7
370
    15
100
AcDbLine
 10
1850.495052342252
 20
925.8931760814128
 30
0.0
 11
1850.495052342252
 21
921.1631760814126
 31
0.0
  0
LINE
  5
B00
330
A8C
100
AcDbEntity
  8
0
  6
Continuous
 62
     7
370
    15
100
AcDbLine
 10
1850.495052342252
 20
921.1631760814126
 30
0.0
 11
1850.468945730568
 21
921.1631760814126
 31
0.0
  0
LINE
  5
B01
330
A8C
100
AcDbEntity
  8
0
  6
Continuous
 62
     7
370
    15
100
AcDbLine
 10
1851.723573707221
 20
921.1631760814126
 30
0.0
 11
1851.723573707221
 21
925.8931760814128
 31
0.0
  0
LINE
  5
B02
330
A8C
100
AcDbEntity
  8
0
  6
Continuous
 62
     7
370
    15
100
AcDbLine
 10
1851.749673299166
 20
921.1631760814126
 30
0.0
 11
1851.723573707221
 21
921.1631760814126
 31
0.0
  0
LINE
  5
B03
330
A8C
100
AcDbEntity
  8
0
  6
Continuous
 62
     7
370
    15
100
AcDbLine
 10
1847.341223271338
 20
925.8931760814128
 30
0.0
 11
1847.341223271338
 21
921.1631760814126
 31
0.0
  0
LINE
  5
B04
330
A8C
100
AcDbEntity
  8
0
  6
Continuous
 62
     7
370
    15
100
AcDbLine
 10
1847.341223271338
 20
921.1631760814126
 30
0.0
 11
1847.315124593137
 21
921.1631760814126
 31
0.0
  0
LINE
  5
B05
330
A8C
100
AcDbEntity
  8
0
  6
Continuous
 62
     7
370
    15
100
AcDbLine
 10
1855.95053527971
 20
925.4131760814127
 30
0.0
 11
1855.95053527971
 21
925.7131760814129
 31
0.0
  0
LINE
  5
B06
330
A8C
100
AcDbEntity
  8
0
  6
Continuous
 62
     7
370
    15
100
AcDbLine
 10
1843.113916885968
 20
925.7131760814129
 30
0.0
 11
1843.113916885968
 21
925.5631760814127
 31
0.0
  0
LINE
  5
B07
330
A8C
100
AcDbEntity
  8
0
  6
Continuous
 62
     7
370
    15
100
AcDbLine
 10
1843.113916885968
 20
922.0631760814127
 30
0.0
 11
1843.113916885968
 21
921.9131760814127
 31
0.0
  0
LINE
  5
B08
330
A8C
100
AcDbEntity
  8
0
  6
Continuous
 62
     7
370
    15
100
AcDbLine
 10
1857.275325024365
 20
924.7613720278486
 30
0.0
 11
1857.275325024365
 21
926.4631760814127
 31
0.0
  0
SPLINE
  5
B09
330
A8C
100
AcDbEntity
  8
0
  6
Continuous
 62
     7
370
    15
100
AcDbSpline
210
0.0
220
0.0
230
1.0
 70
     8
 71
     3
 72
    14
 73
    10
 74
     0
 42
0.0000000001
 43
0.0000000001
 40
0.0
 40
0.0
 40
0.0
 40
0.0
 40
0.25
 40
0.25
 40
0.5
 40
0.5
 40
0.75
 40
0.75
 40
1.0
 40
1.0
 40
1.0
 40
1.0
 10
1857.275325024365
 20
922.8649801349771
 30
0.0
 10
1857.235050510861
 20
923.0098596359951
 30
0.0
 10
1857.199576389925
 20
923.1636397630003
 30
0.0
 10
1857.15070896685
 20
923.4852318421447
 30
0.0
 10
1857.137758128041
 20
923.6488273890531
 30
0.0
 10
1857.137858674439
 20
923.9794611501492
 30
0.0
 10
1857.150854851255
 20
924.1416664441587
 30
0.0
 10
1857.19903625189
 20
924.4595683602186
 30
0.0
 10
1857.235060468297
 20
924.6165283467133
 30
0.0
 10
1857.275325024365
 20
924.7613720278485
 30
0.0
  0
LINE
  5
B0A
330
A8C
100
AcDbEntity
  8
0
  6
Continuous
 62
     7
370
    15
100
AcDbLine
 10
1857.275325024365
 20
921.1631760814126
 30
0.0
 11
1857.275325024365
 21
922.8649801349769
 31
0.0
  0
LINE
  5
B0B
330
A8C
100
AcDbEntity
  8
0
  6
Continuous
 62
     7
370
    15
100
AcDbLine
 10
1857.275325024365
 20
926.4631760814127
 30
0.0
 11
1856.710005420084
 21
926.4631760814127
 31
0.0
  0
LINE
  5
B0C
330
A8C
100
AcDbEntity
  8
0
  6
Continuous
 62
     7
370
    15
100
AcDbLine
 10
1857.275325024365
 20
921.1631760814126
 30
0.0
 11
1856.710005420084
 21
921.1631760814126
 31
0.0
  0
LINE
  5
B0D
330
A8C
100
AcDbEntity
  8
0
  6
Continuous
 62
     7
370
    15
100
AcDbLine
 10
1841.789091028768
 20
922.8649801349774
 30
0.0
 11
1841.789091028768
 21
921.1631760814126
 31
0.0
  0
SPLINE
  5
B0E
330
A8C
100
AcDbEntity
  8
0
  6
Continuous
 62
     7
370
    15
100
AcDbSpline
210
0.0
220
0.0
230
1.0
 70
     8
 71
     3
 72
    14
 73
    10
 74
     0
 42
0.0000000001
 43
0.0000000001
 40
0.0
 40
0.0
 40
0.0
 40
0.0
 40
0.25
 40
0.25
 40
0.5
 40
0.5
 40
0.75
 40
0.75
 40
1.0
 40
1.0
 40
1.0
 40
1.0
 10
1841.789091028768
 20
924.7613720278479
 30
0.0
 10
1841.829365542272
 20
924.6164925268301
 30
0.0
 10
1841.864839663208
 20
924.4627123998251
 30
0.0
 10
1841.913707086282
 20
924.1411203206807
 30
0.0
 10
1841.926657925091
 20
923.9775247737723
 30
0.0
 10
1841.926557378693
 20
923.6468910126763
 30
0.0
 10
1841.913561201878
 20
923.4846857186671
 30
0.0
 10
1841.865379801242
 20
923.1667838026073
 30
0.0
 10
1841.829355584836
 20
923.0098238161126
 30
0.0
 10
1841.789091028768
 20
922.8649801349776
 30
0.0
  0
LINE
  5
B0F
330
A8C
100
AcDbEntity
  8
0
  6
Continuous
 62
     7
370
    15
100
AcDbLine
 10
1841.789091028768
 20
926.4631760814127
 30
0.0
 11
1841.789091028768
 21
924.7613720278481
 31
0.0
  0
LINE
  5
B10
330
A8C
100
AcDbEntity
  8
0
  6
Continuous
 62
     7
370
    15
100
AcDbLine
 10
1842.354410633048
 20
926.4631760814127
 30
0.0
 11
1841.789091028768
 21
926.4631760814127
 31
0.0
  0
LINE
  5
B11
330
A8C
100
AcDbEntity
  8
0
  6
Continuous
 62
     7
370
    15
100
AcDbLine
 10
1842.354410633048
 20
921.1631760814126
 30
0.0
 11
1841.789091028768
 21
921.1631760814126
 31
0.0
  0
ELLIPSE
  5
B12
330
A8C
100
AcDbEntity
  8
0
  6
Continuous
 62
     7
370
    15
100
AcDbEllipse
 10
1858.844076278797
 20
923.8131760814127
 30
0.0
 11
0.0
 21
2.500000000000014
 31
0.0
210
0.0
220
0.0
230
1.0
 40
0.6781717216199429
 41
1.959812605497928
 42
7.464965355271445
  0
ELLIPSE
  5
B13
330
A8C
100
AcDbEntity
  8
0
  6
Continuous
 62
     7
370
    15
100
AcDbEllipse
 10
1858.103143507031
 20
923.8131760814127
 30
0.0
 11
0.0
 21
2.500000000000014
 31
0.0
210
0.0
220
0.0
230
1.0
 40
0.8538264873886824
 41
3.336275373146214
 42
6.08850258763092
  0
ELLIPSE
  5
B14
330
A8C
100
AcDbEntity
  8
0
  6
Continuous
 62
     7
370
    15
100
AcDbEllipse
 10
1840.220339774335
 20
923.8131760814127
 30
0.0
 11
0.0
 21
2.500000000000014
 31
0.0
210
0.0
220
0.0
230
1.0
 40
0.6781717216199429
 41
5.101405259087478
 42
10.60655800886152
  0
ELLIPSE
  5
B15
330
A8C
100
AcDbEntity
  8
0
  6
Continuous
 62
     7
370
    15
100
AcDbEllipse
 10
1840.961344704733
 20
923.8131760814127
 30
0.0
 11
0.0
 21
2.500000000000014
 31
0.0
210
0.0
220
0.0
230
1.0
 40
0.8538264873886824
 41
0.1947019227266036
 42
2.94689073086589
  0
LINE
  5
B16
330
A8C
100
AcDbEntity
  8
0
  6
Continuous
 62
     7
370
    15
100
AcDbLine
 10
1860.831246132243
 20
926.4631760814127
 30
0.0
 11
1860.831246132243
 21
921.1631760814126
 31
0.0
  0
LINE
  5
B17
330
A8C
100
AcDbEntity
  8
0
  6
Continuous
 62
     7
370
    15
100
AcDbLine
 10
1857.275325024365
 20
926.4631760814127
 30
0.0
 11
1860.831246132243
 21
926.4631760814127
 31
0.0
  0
LINE
  5
B18
330
A8C
100
AcDbEntity
  8
0
  6
Continuous
 62
     7
370
    15
100
AcDbLine
 10
1860.831246132243
 20
921.1631760814126
 30
0.0
 11
1857.275325024365
 21
921.1631760814126
 31
0.0
  0
LINE
  5
B19
330
A8C
100
AcDbEntity
  8
0
  6
Continuous
 62
     7
370
    15
100
AcDbLine
 10
1838.23316992089
 20
921.1631760814126
 30
0.0
 11
1838.23316992089
 21
926.4631760814127
 31
0.0
  0
LINE
  5
B1A
330
A8C
100
AcDbEntity
  8
0
  6
Continuous
 62
     7
370
    15
100
AcDbLine
 10
1838.23316992089
 20
926.4631760814127
 30
0.0
 11
1841.789091028768
 21
926.4631760814127
 31
0.0
  0
LINE
  5
B1B
330
A8C
100
AcDbEntity
  8
0
  6
Continuous
 62
     7
370
    15
100
AcDbLine
 10
1841.789091028768
 20
921.1631760814126
 30
0.0
 11
1838.23316992089
 21
921.1631760814126
 31
0.0
  0
LINE
  5
B1C
330
A8C
100
AcDbEntity
  8
0
  6
Continuous
 62
     7
370
    15
100
AcDbLine
 10
1851.723383404531
 20
921.1631760814126
 30
0.0
 11
1850.507760805263
 21
921.1631760814126
 31
0.0
  0
LINE
  5
B1D
330
A8C
100
AcDbEntity
  8
0
  6
Continuous
 62
     7
370
    15
100
AcDbLine
 10
1848.569558876441
 20
921.1631760814126
 30
0.0
 11
1847.353931479803
 21
921.1631760814126
 31
0.0
  0
LINE
  5
B1E
330
A8C
100
AcDbEntity
  8
0
  6
Continuous
 62
     7
370
    15
100
AcDbLine
 10
1848.532208026566
 20
919.8931760814128
 30
0.0
 11
1850.532208026566
 21
919.8931760814128
 31
0.0
  0
LINE
  5
B1F
330
A8C
100
AcDbEntity
  8
0
  6
Continuous
 62
     7
370
    15
100
AcDbLine
 10
1861.032208026566
 20
921.1631760814126
 30
0.0
 11
1861.032208026566
 21
926.4631760814127
 31
0.0
  0
LINE
  5
B20
330
A8C
100
AcDbEntity
  8
0
  6
Continuous
 62
     7
370
    15
100
AcDbLine
 10
1861.032208026566
 20
926.4631760814127
 30
0.0
 11
1860.831246132243
 21
926.4631760814127
 31
0.0
  0
LINE
  5
B21
330
A8C
100
AcDbEntity
  8
0
  6
Continuous
 62
     7
370
    15
100
AcDbLine
 10
1861.032208026566
 20
921.1631760814126
 30
0.0
 11
1860.831246132243
 21
921.1631760814126
 31
0.0
  0
LINE
  5
B22
330
A8C
100
AcDbEntity
  8
0
  6
Continuous
 62
     7
370
    15
100
AcDbLine
 10
1838.032208026566
 20
926.4631760814127
 30
0.0
 11
1838.032208026566
 21
921.1631760814126
 31
0.0
  0
LINE
  5
B23
330
A8C
100
AcDbEntity
  8
0
  6
Continuous
 62
     7
370
    15
100
AcDbLine
 10
1838.23316992089
 20
926.4631760814127
 30
0.0
 11
1838.032208026566
 21
926.4631760814127
 31
0.0
  0
LINE
  5
B24
330
A8C
100
AcDbEntity
  8
0
  6
Continuous
 62
     7
370
    15
100
AcDbLine
 10
1838.23316992089
 20
921.1631760814126
 30
0.0
 11
1838.032208026566
 21
921.1631760814126
 31
0.0
  0
LINE
  5
B25
330
A8C
100
AcDbEntity
  8
0
  6
Continuous
 62
     7
370
    15
100
AcDbLine
 10
1860.421558930459
 20
928.4331760814128
 30
0.0
 11
1858.921558930459
 21
928.4331760814128
 31
0.0
  0
LINE
  5
B26
330
A8C
100
AcDbEntity
  8
0
  6
Continuous
 62
     7
370
    15
100
AcDbLine
 10
1838.642857122673
 20
919.1931760814126
 30
0.0
 11
1840.142857122674
 21
919.1931760814126
 31
0.0
  0
LINE
  5
B27
330
A8C
100
AcDbEntity
  8
0
  6
Continuous
 62
     7
370
    15
100
AcDbLine
 10
1858.432208026567
 20
919.1931760814126
 30
0.0
 11
1860.432208026541
 21
919.1931760814126
 31
0.0
  0
LINE
  5
B28
330
A8C
100
AcDbEntity
  8
0
  6
Continuous
 62
     7
370
    15
100
AcDbLine
 10
1840.632208026546
 20
928.4331760814128
 30
0.0
 11
1838.632208026571
 21
928.4331760814128
 31
0.0
  0
LINE
  5
B29
330
A8C
100
AcDbEntity
  8
0
  6
Continuous
 62
     7
370
    15
100
AcDbLine
 10
1857.053170769469
 20
921.1631760814126
 30
0.0
 11
1857.053170769469
 21
919.8931760814128
 31
0.0
  0
LINE
  5
B2A
330
A8C
100
AcDbEntity
  8
0
  6
Continuous
 62
     7
370
    15
100
AcDbLine
 10
1857.053170769469
 20
919.8931760814128
 30
0.0
 11
1850.532208026566
 21
919.8931760814128
 31
0.0
  0
LINE
  5
B2B
330
A8C
100
AcDbEntity
  8
0
  6
Continuous
 62
     7
370
    15
100
AcDbLine
 10
1848.532208026566
 20
919.8931760814128
 30
0.0
 11
1842.011245283663
 21
919.8931760814128
 31
0.0
  0
LINE
  5
B2C
330
A8C
100
AcDbEntity
  8
0
  6
Continuous
 62
     7
370
    15
100
AcDbLine
 10
1842.011245283663
 20
919.8931760814128
 30
0.0
 11
1842.011245283663
 21
921.1631760814126
 31
0.0
  0
LINE
  5
B2D
330
A8C
100
AcDbEntity
  8
0
  6
Continuous
 62
     7
370
    15
100
AcDbLine
 10
1857.253170769469
 20
919.8931760814128
 30
0.0
 11
1857.253170769469
 21
921.1631760814126
 31
0.0
  0
SPLINE
  5
B2E
330
A8C
100
AcDbEntity
  8
0
  6
Continuous
 62
     7
370
    15
100
AcDbSpline
210
0.0
220
0.0
230
1.0
 70
    24
 71
     3
 72
    10
 73
     6
 74
     0
 42
0.0000000001
 43
0.0000000001
 40
0.0
 40
0.0
 40
0.0
 40
0.0
 40
0.5
 40
0.5
 40
1.0
 40
1.0
 40
1.0
 40
1.0
 10
1857.053170769469
 20
919.8931760814128
 30
0.0
 10
1857.105530647029
 20
919.8931760814128
 30
0.0
 10
1857.157568101221
 20
919.8931760814128
 30
0.0
 10
1857.231616150191
 20
919.8931760814128
 30
0.0
 10
1857.253170769469
 20
919.8931760814128
 30
0.0
 10
1857.253170769469
 20
919.8931760814128
 30
0.0
  0
LINE
  5
B2F
330
A8C
100
AcDbEntity
  8
0
  6
Continuous
 62
     7
370
    15
100
AcDbLine
 10
1841.811245283663
 20
921.1631760814126
 30
0.0
 11
1841.811245283663
 21
919.8931760814128
 31
0.0
  0
LINE
  5
B30
330
A8C
100
AcDbEntity
  8
0
  6
Continuous
 62
     7
370
    15
100
AcDbLine
 10
1841.811245283663
 20
919.8931760814128
 30
0.0
 11
1842.011245283663
 21
919.8931760814128
 31
0.0
  0
ENDBLK
  5
A8E
330
A8C
100
AcDbEntity
  8
0
100
AcDbBlockEnd
  0
BLOCK
  5
B33
330
B32
100
AcDbEntity
  8
0
100
AcDbBlockBegin
  2
4
 70
     0
 10
0.0
 20
0.0
 30
0.0
  3
4
  1

  0
LINE
  5
B35
330
B32
100
AcDbEntity
  8
0
  6
Continuous
 62
     7
370
    15
100
AcDbLine
 10
1885.470714014172
 20
952.5365161809219
 30
0.0
 11
1886.903328628067
 21
951.9252532914347
 31
0.0
  0
LINE
  5
B36
330
B32
100
AcDbEntity
  8
0
  6
Continuous
 62
     7
370
    15
100
AcDbLine
 10
1887.491998051596
 20
953.3049156812259
 30
0.0
 11
1886.0593834377
 21
953.9161785707133
 31
0.0
  0
LINE
  5
B37
330
B32
100
AcDbEntity
  8
0
  6
Continuous
 62
     7
370
    15
100
AcDbLine
 10
1890.661938357105
 20
964.9421998268339
 30
0.0
 11
1890.153874698479
 21
965.1589786150738
 31
0.0
  0
LINE
  5
B38
330
B32
100
AcDbEntity
  8
0
  6
Continuous
 62
     7
370
    15
100
AcDbLine
 10
1888.224554274224
 20
966.1696498947408
 30
0.0
 11
1891.668072875764
 21
964.7003816700808
 31
0.0
  0
LINE
  5
B39
330
B32
100
AcDbEntity
  8
0
  6
Continuous
 62
     7
370
    15
100
AcDbLine
 10
1892.013465935684
 20
961.7414001534584
 30
0.0
 11
1892.937029671545
 21
961.347337275464
 31
0.0
  0
LINE
  5
B3A
330
B32
100
AcDbEntity
  8
0
  6
Continuous
 62
     7
370
    15
100
AcDbLine
 10
1893.72192223625
 20
963.1868871285181
 30
0.0
 11
1892.798358500388
 21
963.5809500065125
 31
0.0
  0
LINE
  5
B3B
330
B32
100
AcDbEntity
  8
0
  6
Continuous
 62
     7
370
    15
100
AcDbLine
 10
1892.821500268337
 20
966.172250109366
 30
0.0
 11
1889.381770763907
 21
967.6399016155968
 31
0.0
  0
LINE
  5
B3C
330
B32
100
AcDbEntity
  8
0
  6
Continuous
 62
     7
370
    15
100
AcDbLine
 10
1890.38411849831
 20
967.3997029465422
 30
0.0
 11
1893.827636848629
 21
965.9304348290717
 31
0.0
  0
LINE
  5
B3D
330
B32
100
AcDbEntity
  8
0
  6
Continuous
 62
     7
370
    15
100
AcDbLine
 10
1887.96792708454
 20
945.2001052672057
 30
0.0
 11
1888.891490820401
 21
944.8060423892114
 31
0.0
  0
LINE
  5
B3E
330
B32
100
AcDbEntity
  8
0
  6
Continuous
 62
     7
370
    15
100
AcDbLine
 10
1880.587261182508
 20
948.5290382412239
 30
0.0
 11
1881.316489777981
 21
948.217893587217
 31
0.0
  0
LINE
  5
B3F
330
B32
100
AcDbEntity
  8
0
  6
Continuous
 62
     7
370
    15
100
AcDbLine
 10
1897.390096280989
 20
968.3919755118852
 30
0.0
 11
1893.535853918731
 21
970.0364898846176
 31
0.0
  0
LINE
  5
B40
330
B32
100
AcDbEntity
  8
0
  6
Continuous
 62
     7
370
    15
100
AcDbLine
 10
1899.432060214124
 20
953.9956376189845
 30
0.0
 11
1900.86467482802
 21
953.3843747294973
 31
0.0
  0
LINE
  5
B41
330
B32
100
AcDbEntity
  8
0
  6
Continuous
 62
     7
370
    15
100
AcDbLine
 10
1901.649567392714
 20
955.2239245825278
 30
0.0
 11
1900.216952778819
 21
955.8351874720152
 31
0.0
  0
LINE
  5
B42
330
B32
100
AcDbEntity
  8
0
  6
Continuous
 62
     7
370
    15
100
AcDbLine
 10
1899.312334621698
 20
951.7301484955547
 30
0.0
 11
1898.386734720564
 21
952.1250801572794
 31
0.0
  0
LWPOLYLINE
  5
B43
330
B32
100
AcDbEntity
  8
0
  6
Continuous
 62
     7
370
    15
100
AcDbPolyline
 90
       40
 70
   128
 43
0.0
 10
1885.275228561217
 20
949.5495264669484
 10
1885.276408083446
 20
949.6907637967133
 10
1885.294936890307
 20
949.8382424158775
 10
1885.330335095434
 20
949.9881427056717
 10
1885.381685903909
 20
950.1365823273294
 10
1885.447659356765
 20
950.2797167726212
 10
1885.526546776229
 20
950.4138389345992
 10
1885.616305019572
 20
950.5354751197192
 10
1885.71460939544
 20
950.6414750146793
 10
1885.818913872137
 20
950.7290932778794
 10
1885.926517018502
 20
950.7960606423257
 10
1886.034631969568
 20
950.8406426884562
 10
1886.140458604891
 20
950.8616847646933
 10
1886.241256070206
 20
950.8586418923156
 10
1886.334413764106
 20
950.8315928801199
 10
1886.417518951253
 20
950.7812382833128
 10
1886.488419250954
 20
950.7088822595024
 10
1886.545278382688
 20
950.6163987916982
 10
1886.58662372481
 20
950.5061831531371
 10
1886.611384454676
 20
950.3810898709639
 10
1886.618919282391
 20
950.2443587954788
 10
1886.609033059872
 20
950.0995311897153
 10
1886.581981835092
 20
949.9503580125878
 10
1886.538466220561
 20
949.8007027710276
 10
1886.47961324784
 20
949.65444145718
 10
1886.406947178006
 20
949.5153621622469
 10
1886.322350024101
 20
949.3870669669114
 10
1886.228012807971
 20
949.2728786493428
 10
1886.126378813963
 20
949.1757546269855
 10
1886.020080309135
 20
949.0982103610017
 10
1885.911870368927
 20
949.0422542071483
 10
1885.804551573949
 20
949.0093354004176
 10
1885.700903424619
 20
949.0003065206128
 10
1885.603610353561
 20
949.0154014109778
 10
1885.515192200211
 20
949.0542291217813
 10
1885.437938948296
 20
949.1157840357086
 10
1885.37385141646
 20
949.1984719128225
 10
1885.324589438116
 20
949.3001511805395
 10
1885.291428872626
 20
949.4181883992355
 10
1885.275228561217
 20
949.5495264669484
  0
LWPOLYLINE
  5
B44
330
B32
100
AcDbEntity
  8
0
  6
Continuous
 62
     7
370
    15
100
AcDbPolyline
 90
       40
 70
   128
 43
0.0
 10
1885.581819892757
 20
946.803016883301
 10
1885.583023486869
 20
946.9471366075497
 10
1885.601930432645
 20
947.0976249944511
 10
1885.638051050121
 20
947.2505844738318
 10
1885.690449834279
 20
947.4020534755222
 10
1885.757769684132
 20
947.5481090319414
 10
1885.83826705093
 20
947.6849683808977
 10
1885.929857095158
 20
947.8090869371417
 10
1886.030167682778
 20
947.9172500952637
 10
1886.136600822263
 20
948.0066564862832
 10
1886.246399951207
 20
948.0749905316365
 10
1886.356721329845
 20
948.1204824154426
 10
1886.464707692419
 20
948.141953921807
 10
1886.567562248862
 20
948.1388489499932
 10
1886.662621120187
 20
948.1112479171402
 10
1886.747422331562
 20
948.059865675501
 10
1886.819769576154
 20
947.9860329981438
 10
1886.877789098331
 20
947.89166211263
 10
1886.919978222945
 20
947.7791971753234
 10
1886.945244273829
 20
947.6515509690253
 10
1886.952932873537
 20
947.5120294634292
 10
1886.942844891376
 20
947.3642461922427
 10
1886.915241600783
 20
947.212028664563
 10
1886.870837912487
 20
947.0593192344002
 10
1886.81078385869
 20
946.9100729957816
 10
1886.736634807841
 20
946.7681553478913
 10
1886.650311181407
 20
946.6372418832643
 10
1886.554048715969
 20
946.5207231918684
 10
1886.450340558819
 20
946.4216170466066
 10
1886.34187269675
 20
946.3424902445829
 10
1886.231454390416
 20
946.2853921284064
 10
1886.121945415949
 20
946.2518015092937
 10
1886.016181998266
 20
946.2425883666357
 10
1885.916903354331
 20
946.2579913159878
 10
1885.826680748872
 20
946.2976114290521
 10
1885.747850899979
 20
946.3604225657123
 10
1885.682455459331
 20
946.4447979505218
 10
1885.63218813449
 20
946.5485523053343
 10
1885.598350822766
 20
946.6689984468601
 10
1885.581819892757
 20
946.803016883301
  0
LWPOLYLINE
  5
B45
330
B32
100
AcDbEntity
  8
0
  6
Continuous
 62
     7
370
    15
100
AcDbPolyline
 90
       15
 70
   128
 43
0.0
 10
1899.139761948224
 20
954.5253935232837
 10
1899.140965542336
 20
954.6695132475315
 10
1899.159872488112
 20
954.8200016344319
 10
1899.195993105588
 20
954.9729611138118
 10
1899.248391889745
 20
955.1244301155014
 10
1899.315711739598
 20
955.2704856719195
 10
1899.396209106396
 20
955.407345020875
 10
1899.487799150622
 20
955.5314635771184
 10
1899.588109738242
 20
955.6396267352397
 10
1899.694542877726
 20
955.7290331262588
 10
1899.80434200667
 20
955.7973671716116
 10
1899.914663385307
 20
955.8428590554173
 10
1900.02264974788
 20
955.8643305617819
 10
1900.125504304322
 20
955.861225589968
 10
1900.216952778819
 20
955.8351874720152
  0
ARC
  5
B46
330
B32
100
AcDbEntity
  8
0
  6
Continuous
 62
     7
370
    15
100
AcDbCircle
 10
1899.709059285223
 20
954.4939919425313
 30
0.0
 40
0.5701627111512488
100
AcDbArc
 50
176.8428506296926
 51
240.9334879068729
  0
LWPOLYLINE
  5
B47
330
B32
100
AcDbEntity
  8
0
  6
Continuous
 62
     7
370
    15
100
AcDbPolyline
 90
       15
 70
   128
 43
0.0
 10
1891.72116766978
 20
962.2711560577643
 10
1891.722371263891
 20
962.4152757820141
 10
1891.741278209667
 20
962.5657641689162
 10
1891.777398827144
 20
962.7187236482981
 10
1891.829797611302
 20
962.8701926499896
 10
1891.897117461156
 20
963.0162482064097
 10
1891.977614827955
 20
963.1531075553668
 10
1892.069204872182
 20
963.2772261116119
 10
1892.169515459803
 20
963.3853892697345
 10
1892.27594859929
 20
963.4747956607547
 10
1892.385747728234
 20
963.5431297061083
 10
1892.496069106872
 20
963.588621589915
 10
1892.604055469448
 20
963.6100930962795
 10
1892.706910025891
 20
963.6069881244656
 10
1892.798358500388
 20
963.5809500065125
  0
ARC
  5
B48
330
B32
100
AcDbEntity
  8
0
  6
Continuous
 62
     7
370
    15
100
AcDbCircle
 10
1892.290465006785
 20
962.2397544770114
 30
0.0
 40
0.5701627111584026
100
AcDbArc
 50
176.8428506296861
 51
240.9334879068843
  0
ARC
  5
B49
330
B32
100
AcDbEntity
  8
0
  6
Continuous
 62
     7
370
    15
100
AcDbCircle
 10
1888.160417063064
 20
946.0080109569215
 30
0.0
 40
0.28922675966328
100
AcDbArc
 50
123.9688327703189
 51
182.2840345182641
  0
LINE
  5
B4A
330
B32
100
AcDbEntity
  8
0
  6
Continuous
 62
     7
370
    15
100
AcDbLine
 10
1887.909467431359
 20
945.306056448067
 30
0.0
 11
1887.871420082766
 21
945.9964842972324
 31
0.0
  0
ARC
  5
B4B
330
B32
100
AcDbEntity
  8
0
  6
Continuous
 62
     7
370
    15
100
AcDbCircle
 10
1888.024352588105
 20
945.3003420665563
 30
0.0
 40
0.1150271854676494
100
AcDbArc
 50
177.1524577969482
 51
240.6238807396956
  0
ARC
  5
B4C
330
B32
100
AcDbEntity
  8
0
  6
Continuous
 62
     7
370
    15
100
AcDbCircle
 10
1898.353033870183
 20
952.0337792859129
 30
0.0
 40
0.0973221271276831
100
AcDbArc
 50
69.73995818940661
 51
123.9443349001897
  0
LINE
  5
B4D
330
B32
100
AcDbEntity
  8
0
  6
Continuous
 62
     7
370
    15
100
AcDbLine
 10
1887.998813968721
 20
946.2478787505162
 30
0.0
 11
1898.298690440397
 21
952.1145158208137
 31
0.0
  0
ARC
  5
B4E
330
B32
100
AcDbEntity
  8
0
  6
Continuous
 62
     7
370
    15
100
AcDbCircle
 10
1888.419512951521
 20
961.7519237253816
 30
0.0
 40
1.525245638332638
100
AcDbArc
 50
135.6907648106751
 51
162.7777175762704
  0
LINE
  5
B4F
330
B32
100
AcDbEntity
  8
0
  6
Continuous
 62
     7
370
    15
100
AcDbLine
 10
1889.44288161602
 20
964.9122233948018
 30
0.0
 11
1887.328077447764
 21
962.8173545295126
 31
0.0
  0
LINE
  5
B50
330
B32
100
AcDbEntity
  8
0
  6
Continuous
 62
     7
370
    15
100
AcDbLine
 10
1890.145421318503
 20
965.3123782387247
 30
0.0
 11
1889.44288161602
 21
964.912223394802
 31
0.0
  0
LINE
  5
B51
330
B32
100
AcDbEntity
  8
0
  6
Continuous
 62
     7
370
    15
100
AcDbLine
 10
1890.169249064828
 20
964.8799870142715
 30
0.0
 11
1890.145421318503
 21
965.3123782387247
 31
0.0
  0
LWPOLYLINE
  5
B52
330
B32
100
AcDbEntity
  8
0
  6
Continuous
 62
     7
370
    15
100
AcDbPolyline
 90
        9
 70
   128
 43
0.0
 10
1890.31575286528
 20
964.7846025812034
 10
1890.28885209803
 20
964.7727165207648
 10
1890.262617906211
 20
964.7679504146905
 10
1890.238058437309
 20
964.7704874185322
 10
1890.216117481284
 20
964.7802300383753
 10
1890.197638201888
 20
964.7968038774111
 10
1890.183330734932
 20
964.8195720235417
 10
1890.173744898642
 20
964.8476595251231
 10
1890.169249064828
 20
964.8799870142715
  0
LINE
  5
B53
330
B32
100
AcDbEntity
  8
0
  6
Continuous
 62
     7
370
    15
100
AcDbLine
 10
1890.573894076939
 20
964.9316354903696
 30
0.0
 11
1890.31575286528
 21
964.7846025812034
 31
0.0
  0
LWPOLYLINE
  5
B54
330
B32
100
AcDbEntity
  8
0
  6
Continuous
 62
     7
370
    15
100
AcDbPolyline
 90
        9
 70
   128
 43
0.0
 10
1890.719851000975
 20
964.8437362845134
 10
1890.714428734169
 20
964.8744055000248
 10
1890.704247861054
 20
964.9008544957402
 10
1890.689678261785
 20
964.9221223561765
 10
1890.671249262831
 20
964.9374364010926
 10
1890.649630406077
 20
964.9462402576476
 10
1890.625607123771
 20
964.9482140739214
 10
1890.600052203077
 20
964.9432861394172
 10
1890.573894076939
 20
964.9316354903696
  0
LINE
  5
B55
330
B32
100
AcDbEntity
  8
0
  6
Continuous
 62
     7
370
    15
100
AcDbLine
 10
1890.76628495581
 20
964.3355950624176
 30
0.0
 11
1890.719851000975
 21
964.8437362845134
 31
0.0
  0
SPLINE
  5
B56
330
B32
100
AcDbEntity
  8
0
  6
Continuous
 62
     7
370
    15
100
AcDbSpline
210
0.0
220
0.0
230
1.0
 70
     8
 71
     3
 72
     8
 73
     4
 74
     0
 42
0.0000000001
 43
0.0000000001
 40
0.0
 40
0.0
 40
0.0
 40
0.0
 40
1.0
 40
1.0
 40
1.0
 40
1.0
 10
1890.766284955809
 20
964.3355950624174
 30
0.0
 10
1890.766510623283
 20
964.3331255130044
 30
0.0
 10
1890.766693017559
 20
964.3306288417793
 30
0.0
 10
1890.76683196512
 20
964.3281074238769
 30
0.0
  0
SPLINE
  5
B57
330
B32
100
AcDbEntity
  8
0
  6
Continuous
 62
     7
370
    15
100
AcDbSpline
210
0.0
220
0.0
230
1.0
 70
     8
 71
     3
 72
    10
 73
     6
 74
     0
 42
0.0000000001
 43
0.0000000001
 40
0.0
 40
0.0
 40
0.0
 40
0.0
 40
0.5
 40
0.5
 40
1.0
 40
1.0
 40
1.0
 40
1.0
 10
1890.76683196512
 20
964.3281074238769
 30
0.0
 10
1890.769269553076
 20
964.2838736290832
 30
0.0
 10
1890.757709337093
 20
964.2319206016562
 30
0.0
 10
1890.712817861387
 20
964.140550035659
 30
0.0
 10
1890.679736220421
 20
964.1016405625229
 30
0.0
 10
1890.644925032262
 20
964.079982244675
 30
0.0
  0
SPLINE
  5
B58
330
B32
100
AcDbEntity
  8
0
  6
Continuous
 62
     7
370
    15
100
AcDbSpline
210
0.0
220
0.0
230
1.0
 70
     8
 71
     3
 72
    13
 73
     9
 74
     0
 42
0.0000000001
 43
0.0000000001
 40
0.0
 40
0.0
 40
0.0
 40
0.0
 40
0.128010452458352
 40
0.2510755984401571
 40
0.3738450504893872
 40
0.501000862552281
 40
0.7483290578957447
 40
1.0
 40
1.0
 40
1.0
 40
1.0
 10
1890.523018099404
 20
963.8318570654735
 30
0.0
 10
1890.522891269048
 20
963.8434474604208
 30
0.0
 10
1890.522642508053
 20
963.8661804895725
 30
0.0
 10
1890.528416326626
 20
963.9023458757758
 30
0.0
 10
1890.538908389738
 20
963.9386025515582
 30
0.0
 10
1890.55874552717
 20
963.9852277178141
 30
0.0
 10
1890.592934424471
 20
964.0405960315867
 30
0.0
 10
1890.627494571664
 20
964.0667775551264
 30
0.0
 10
1890.644925032262
 20
964.079982244675
 30
0.0
  0
LINE
  5
B59
330
B32
100
AcDbEntity
  8
0
  6
Continuous
 62
     7
370
    15
100
AcDbLine
 10
1890.542074993506
 20
963.4860403162667
 30
0.0
 11
1890.523018099404
 21
963.8318570654735
 31
0.0
  0
SPLINE
  5
B5A
330
B32
100
AcDbEntity
  8
0
  6
Continuous
 62
     7
370
    15
100
AcDbSpline
210
0.0
220
0.0
230
1.0
 70
     8
 71
     3
 72
    13
 73
     9
 74
     0
 42
0.0000000001
 43
0.0000000001
 40
0.0
 40
0.0
 40
0.0
 40
0.0
 40
0.1281482339398928
 40
0.2510936230947474
 40
0.373747131552445
 40
0.5010535066074415
 40
0.7483541261371398
 40
1.0
 40
1.0
 40
1.0
 40
1.0
 10
1890.688578926853
 20
963.3906534718713
 30
0.0
 10
1890.679367275424
 20
963.3860855301747
 30
0.0
 10
1890.661317967517
 20
963.3771351061589
 30
0.0
 10
1890.63498054257
 20
963.3724669046509
 30
0.0
 10
1890.610457443838
 20
963.3751344279636
 30
0.0
 10
1890.581515632075
 20
963.388415064033
 30
0.0
 10
1890.551481902174
 20
963.4206450833863
 30
0.0
 10
1890.54522878224
 20
963.4641157121238
 30
0.0
 10
1890.542074993506
 20
963.4860403162667
 30
0.0
  0
LINE
  5
B5B
330
B32
100
AcDbEntity
  8
0
  6
Continuous
 62
     7
370
    15
100
AcDbLine
 10
1891.781466607912
 20
964.013143984355
 30
0.0
 11
1890.688578926853
 21
963.3906534718713
 31
0.0
  0
SPLINE
  5
B5C
330
B32
100
AcDbEntity
  8
0
  6
Continuous
 62
     7
370
    15
100
AcDbSpline
210
0.0
220
0.0
230
1.0
 70
     8
 71
     3
 72
    13
 73
     9
 74
     0
 42
0.0000000001
 43
0.0000000001
 40
0.0
 40
0.0
 40
0.0
 40
0.0
 40
0.1281482187045636
 40
0.2510936211045043
 40
0.37374714238892
 40
0.5010535008066667
 40
0.7483541233691549
 40
1.0
 40
1.0
 40
1.0
 40
1.0
 10
1891.908860535607
 20
964.2645376801803
 30
0.0
 10
1891.908980802881
 20
964.2526246643029
 30
0.0
 10
1891.909216454579
 20
964.2292823008652
 30
0.0
 10
1891.90310239034
 20
964.1921285165583
 30
0.0
 10
1891.892012019049
 20
964.1549492471972
 30
0.0
 10
1891.871126226597
 20
964.1073366689903
 30
0.0
 10
1891.835256161465
 20
964.0511289659256
 30
0.0
 10
1891.799500256792
 20
964.0258789444931
 30
0.0
 10
1891.781466607912
 20
964.013143984355
 30
0.0
  0
LINE
  5
B5D
330
B32
100
AcDbEntity
  8
0
  6
Continuous
 62
     7
370
    15
100
AcDbLine
 10
1891.889804944689
 20
964.6103531129931
 30
0.0
 11
1891.908860535607
 21
964.2645376801803
 31
0.0
  0
SPLINE
  5
B5E
330
B32
100
AcDbEntity
  8
0
  6
Continuous
 62
     7
370
    15
100
AcDbSpline
210
0.0
220
0.0
230
1.0
 70
     8
 71
     3
 72
    13
 73
     9
 74
     0
 42
0.0000000001
 43
0.0000000001
 40
0.0
 40
0.0
 40
0.0
 40
0.0
 40
0.1280105496743086
 40
0.2510756112197645
 40
0.3738449815188412
 40
0.5010008998217353
 40
0.7483290756497335
 40
1.0
 40
1.0
 40
1.0
 40
1.0
 10
1891.748801289505
 20
964.7087315655934
 30
0.0
 10
1891.757765118315
 20
964.7127218485502
 30
0.0
 10
1891.775346472377
 20
964.7205482560993
 30
0.0
 10
1891.800796791516
 20
964.7238997504409
 30
0.0
 10
1891.824390517247
 20
964.7203223502414
 30
0.0
 10
1891.852140466681
 20
964.7063644007905
 30
0.0
 10
1891.880752283249
 20
964.6741083702529
 30
0.0
 10
1891.886769933835
 20
964.6317278102667
 30
0.0
 10
1891.889804944689
 20
964.6103531129929
 30
0.0
  0
SPLINE
  5
B5F
330
B32
100
AcDbEntity
  8
0
  6
Continuous
 62
     7
370
    15
100
AcDbSpline
210
0.0
220
0.0
230
1.0
 70
     8
 71
     3
 72
    10
 73
     6
 74
     0
 42
0.0000000001
 43
0.0000000001
 40
0.0
 40
0.0
 40
0.0
 40
0.0
 40
0.5
 40
0.5
 40
1.0
 40
1.0
 40
1.0
 40
1.0
 10
1891.748801289505
 20
964.708731565593
 30
0.0
 10
1891.712796046727
 20
964.6901055826267
 30
0.0
 10
1891.676575459671
 20
964.6906934153767
 30
0.0
 10
1891.62423898852
 20
964.7299634384262
 30
0.0
 10
1891.608448243345
 20
964.768401664763
 30
0.0
 10
1891.607511298328
 20
964.8147467608888
 30
0.0
  0
LINE
  5
B60
330
B32
100
AcDbEntity
  8
0
  6
Continuous
 62
     7
370
    15
100
AcDbLine
 10
1891.596826701208
 20
965.3432502181797
 30
0.0
 11
1891.607511298329
 21
964.8147467608888
 31
0.0
  0
ARC
  5
B61
330
B32
100
AcDbEntity
  8
0
  6
Continuous
 62
     7
370
    15
100
AcDbCircle
 10
1891.886435157125
 20
965.3468690619728
 30
0.0
 40
0.2896310649240934
100
AcDbArc
 50
123.9924735694982
 51
180.7159103305595
  0
LINE
  5
B62
330
B32
100
AcDbEntity
  8
0
  6
Continuous
 62
     7
370
    15
100
AcDbLine
 10
1892.73345598817
 20
966.161685772901
 30
0.0
 11
1891.724507064141
 21
965.5870053700809
 31
0.0
  0
LWPOLYLINE
  5
B63
330
B32
100
AcDbEntity
  8
0
  6
Continuous
 62
     7
370
    15
100
AcDbPolyline
 90
        9
 70
   128
 43
0.0
 10
1892.879412701241
 20
966.0737888755679
 10
1892.873990156322
 20
966.1044575728782
 10
1892.86380910732
 20
966.1309060602514
 10
1892.849239434214
 20
966.1521734577268
 10
1892.830810456762
 20
966.1674871155968
 10
1892.809191704184
 20
966.1762906849567
 10
1892.785168591004
 20
966.1782643299968
 10
1892.75961388275
 20
966.1733363477141
 10
1892.73345598817
 20
966.161685772901
  0
LINE
  5
B64
330
B32
100
AcDbEntity
  8
0
  6
Continuous
 62
     7
370
    15
100
AcDbLine
 10
1892.925851859622
 20
965.5656549007201
 30
0.0
 11
1892.879412701241
 21
966.0737888755679
 31
0.0
  0
SPLINE
  5
B65
330
B32
100
AcDbEntity
  8
0
  6
Continuous
 62
     7
370
    15
100
AcDbSpline
210
0.0
220
0.0
230
1.0
 70
     8
 71
     3
 72
     8
 73
     4
 74
     0
 42
0.0000000001
 43
0.0000000001
 40
0.0
 40
0.0
 40
0.0
 40
0.0
 40
1.0
 40
1.0
 40
1.0
 40
1.0
 10
1892.925851859623
 20
965.5656549007202
 30
0.0
 10
1892.926077737097
 20
965.563183714654
 30
0.0
 10
1892.92626028361
 20
965.5606853689304
 30
0.0
 10
1892.926399325272
 20
965.5581622434155
 30
0.0
  0
SPLINE
  5
B66
330
B32
100
AcDbEntity
  8
0
  6
Continuous
 62
     7
370
    15
100
AcDbSpline
210
0.0
220
0.0
230
1.0
 70
     8
 71
     3
 72
    10
 73
     6
 74
     0
 42
0.0000000001
 43
0.0000000001
 40
0.0
 40
0.0
 40
0.0
 40
0.0
 40
0.5
 40
0.5
 40
1.0
 40
1.0
 40
1.0
 40
1.0
 10
1892.926399325272
 20
965.5581622434155
 30
0.0
 10
1892.928836957084
 20
965.5139276527989
 30
0.0
 10
1892.917276518405
 20
965.4619736832591
 30
0.0
 10
1892.872384195198
 20
965.370601497538
 30
0.0
 10
1892.839301935092
 20
965.3316913577372
 30
0.0
 10
1892.804490114947
 20
965.3100327145541
 30
0.0
  0
SPLINE
  5
B67
330
B32
100
AcDbEntity
  8
0
  6
Continuous
 62
     7
370
    15
100
AcDbSpline
210
0.0
220
0.0
230
1.0
 70
     8
 71
     3
 72
    13
 73
     9
 74
     0
 42
0.0000000001
 43
0.0000000001
 40
0.0
 40
0.0
 40
0.0
 40
0.0
 40
0.1280105369048507
 40
0.2510756095354755
 40
0.3738449905701739
 40
0.5010008949269924
 40
0.7483290733122972
 40
1.0
 40
1.0
 40
1.0
 40
1.0
 10
1892.682584301778
 20
965.0619055681941
 30
0.0
 10
1892.682457265834
 20
965.0734959544516
 30
0.0
 10
1892.682208101759
 20
965.0962289525677
 30
0.0
 10
1892.687981473458
 20
965.1323945154565
 30
0.0
 10
1892.698473244799
 20
965.1686514914395
 30
0.0
 10
1892.718310178426
 20
965.2152771456623
 30
0.0
 10
1892.752499101597
 20
965.2706462083161
 30
0.0
 10
1892.787059518339
 20
965.2968279266925
 30
0.0
 10
1892.804490114947
 20
965.3100327145548
 30
0.0
  0
LINE
  5
B68
330
B32
100
AcDbEntity
  8
0
  6
Continuous
 62
     7
370
    15
100
AcDbLine
 10
1892.70164088419
 20
964.7160944750803
 30
0.0
 11
1892.682584301778
 21
965.0619055681941
 31
0.0
  0
SPLINE
  5
B69
330
B32
100
AcDbEntity
  8
0
  6
Continuous
 62
     7
370
    15
100
AcDbSpline
210
0.0
220
0.0
230
1.0
 70
     8
 71
     3
 72
    13
 73
     9
 74
     0
 42
0.0000000001
 43
0.0000000001
 40
0.0
 40
0.0
 40
0.0
 40
0.0
 40
0.1282760925773609
 40
0.2512700459200717
 40
0.3738837089849686
 40
0.5010629107473093
 40
0.7483049587566636
 40
1.0
 40
1.0
 40
1.0
 40
1.0
 10
1892.848145681599
 20
964.6207081228437
 30
0.0
 10
1892.838925239213
 20
964.6161417536442
 30
0.0
 10
1892.820864032832
 20
964.607197048708
 30
0.0
 10
1892.794518710009
 20
964.6025268916091
 30
0.0
 10
1892.770002908363
 20
964.6051897382571
 30
0.0
 10
1892.74107848295
 20
964.6184740845395
 30
0.0
 10
1892.711072139002
 20
964.6507197437545
 30
0.0
 10
1892.704803285548
 20
964.6941736232692
 30
0.0
 10
1892.70164088419
 20
964.7160944750803
 30
0.0
  0
LINE
  5
B6A
330
B32
100
AcDbEntity
  8
0
  6
Continuous
 62
     7
370
    15
100
AcDbLine
 10
1893.941028823234
 20
965.243205054039
 30
0.0
 11
1892.848145681599
 21
964.6207081228437
 31
0.0
  0
SPLINE
  5
B6B
330
B32
100
AcDbEntity
  8
0
  6
Continuous
 62
     7
370
    15
100
AcDbSpline
210
0.0
220
0.0
230
1.0
 70
     8
 71
     3
 72
    13
 73
     9
 74
     0
 42
0.0000000001
 43
0.0000000001
 40
0.0
 40
0.0
 40
0.0
 40
0.0
 40
0.128148211942113
 40
0.2510936202288805
 40
0.3737471472098375
 40
0.5010534982308192
 40
0.7483541221476831
 40
1.0
 40
1.0
 40
1.0
 40
1.0
 10
1894.068421845128
 20
965.4945990151636
 30
0.0
 10
1894.068542152965
 20
965.4826860348766
 30
0.0
 10
1894.068777884153
 20
965.4593437400242
 30
0.0
 10
1894.062663951623
 20
965.4221900239265
 30
0.0
 10
1894.051573716776
 20
965.3850107873575
 30
0.0
 10
1894.030688101981
 20
965.3373981982174
 30
0.0
 10
1893.994818249948
 20
965.2811903935342
 30
0.0
 10
1893.959062429586
 20
965.2559401341729
 30
0.0
 10
1893.941028823234
 20
965.2432050540383
 30
0.0
  0
LINE
  5
B6C
330
B32
100
AcDbEntity
  8
0
  6
Continuous
 62
     7
370
    15
100
AcDbLine
 10
1894.049365433261
 20
965.8404070134702
 30
0.0
 11
1894.068421845128
 21
965.4945990151636
 31
0.0
  0
SPLINE
  5
B6D
330
B32
100
AcDbEntity
  8
0
  6
Continuous
 62
     7
370
    15
100
AcDbSpline
210
0.0
220
0.0
230
1.0
 70
     8
 71
     3
 72
    13
 73
     9
 74
     0
 42
0.0000000001
 43
0.0000000001
 40
0.0
 40
0.0
 40
0.0
 40
0.0
 40
0.1280104574662328
 40
0.2510755990960842
 40
0.3738450469329663
 40
0.5010008644726851
 40
0.7483290588086558
 40
1.0
 40
1.0
 40
1.0
 40
1.0
 10
1893.908363637165
 20
965.938783796165
 30
0.0
 10
1893.91732729657
 20
965.9427738664803
 30
0.0
 10
1893.93490833018
 20
965.9505998622199
 30
0.0
 10
1893.960358140966
 20
965.9539510180609
 30
0.0
 10
1893.983951403118
 20
965.9503735505118
 30
0.0
 10
1894.011700854789
 20
965.9364158409745
 30
0.0
 10
1894.040312237657
 20
965.9041606118575
 30
0.0
 10
1894.04633024333
 20
965.8617811545317
 30
0.0
 10
1894.049365433261
 20
965.8404070134702
 30
0.0
  0
SPLINE
  5
B6E
330
B32
100
AcDbEntity
  8
0
  6
Continuous
 62
     7
370
    15
100
AcDbSpline
210
0.0
220
0.0
230
1.0
 70
     8
 71
     3
 72
    10
 73
     6
 74
     0
 42
0.0000000001
 43
0.0000000001
 40
0.0
 40
0.0
 40
0.0
 40
0.0
 40
0.5
 40
0.5
 40
1.0
 40
1.0
 40
1.0
 40
1.0
 10
1893.908363637165
 20
965.9387837961643
 30
0.0
 10
1893.872359047862
 20
965.9201587375799
 30
0.0
 10
1893.836139296889
 20
965.9207468387601
 30
0.0
 10
1893.783803693137
 20
965.9600159458808
 30
0.0
 10
1893.768012950161
 20
965.9984530113522
 30
0.0
 10
1893.76707542351
 20
966.0447969420747
 30
0.0
  0
LINE
  5
B6F
330
B32
100
AcDbEntity
  8
0
  6
Continuous
 62
     7
370
    15
100
AcDbLine
 10
1893.75638403559
 20
966.5732949218025
 30
0.0
 11
1893.76707542351
 21
966.0447969420747
 31
0.0
  0
ARC
  5
B70
330
B32
100
AcDbEntity
  8
0
  6
Continuous
 62
     7
370
    15
100
AcDbCircle
 10
1894.045992356906
 20
966.5769167701016
 30
0.0
 40
0.2896309678893488
100
AcDbArc
 50
123.992468575335
 51
180.7165049784144
  0
LINE
  5
B71
330
B32
100
AcDbEntity
  8
0
  6
Continuous
 62
     7
370
    15
100
AcDbLine
 10
1894.141948847765
 20
966.9639397073112
 30
0.0
 11
1893.884064339104
 21
966.8170530118716
 31
0.0
  0
ARC
  5
B72
330
B32
100
AcDbEntity
  8
0
  6
Continuous
 62
     7
370
    15
100
AcDbCircle
 10
1893.980345753421
 20
967.2038075009064
 30
0.0
 40
0.2892267596641176
100
AcDbArc
 50
303.9688327704021
 51
2.284034518205526
  0
LINE
  5
B73
330
B32
100
AcDbEntity
  8
0
  6
Continuous
 62
     7
370
    15
100
AcDbLine
 10
1894.245515120277
 20
967.647722973715
 30
0.0
 11
1894.26934273372
 21
967.2153341605953
 31
0.0
  0
LINE
  5
B74
330
B32
100
AcDbEntity
  8
0
  6
Continuous
 62
     7
370
    15
100
AcDbLine
 10
1894.948050073347
 20
968.0478751124512
 30
0.0
 11
1894.245515120277
 21
967.6477229737145
 31
0.0
  0
LINE
  5
B75
330
B32
100
AcDbEntity
  8
0
  6
Continuous
 62
     7
370
    15
100
AcDbLine
 10
1897.157992715157
 20
968.4163095717558
 30
0.0
 11
1894.948050073347
 21
968.0478751124518
 31
0.0
  0
ARC
  5
B76
330
B32
100
AcDbEntity
  8
0
  6
Continuous
 62
     7
370
    15
100
AcDbCircle
 10
1897.233180152316
 20
968.0243563480157
 30
0.0
 40
0.3990995869540828
100
AcDbArc
 50
33.29526984419662
 51
100.8589971546606
  0
LINE
  5
B77
330
B32
100
AcDbEntity
  8
0
  6
Continuous
 62
     7
370
    15
100
AcDbLine
 10
1900.29591488183
 20
964.2907241978932
 30
0.0
 11
1897.566768613289
 21
968.2434435886603
 31
0.0
  0
ARC
  5
B78
330
B32
100
AcDbEntity
  8
0
  6
Continuous
 62
     7
370
    15
100
AcDbCircle
 10
1899.355290466055
 20
963.6932109307497
 30
0.0
 40
1.114359186242729
100
AcDbArc
 50
1.32033809149083
 51
32.42495580380732
  0
LINE
  5
B79
330
B32
100
AcDbEntity
  8
0
  6
Continuous
 62
     7
370
    15
100
AcDbLine
 10
1900.920338797256
 20
955.5350692365284
 30
0.0
 11
1900.469353782235
 21
963.7188882262718
 31
0.0
  0
LINE
  5
B7A
330
B32
100
AcDbEntity
  8
0
  6
Continuous
 62
     7
370
    15
100
AcDbLine
 10
1899.311286365886
 20
951.7276253462485
 30
0.0
 11
1900.277746770356
 21
953.6348030979979
 31
0.0
  0
LINE
  5
B7B
330
B32
100
AcDbEntity
  8
0
  6
Continuous
 62
     7
370
    15
100
AcDbLine
 10
1898.733027297736
 20
950.3720324675406
 30
0.0
 11
1898.843912633501
 21
948.3598469485228
 31
0.0
  0
LINE
  5
B7C
330
B32
100
AcDbEntity
  8
0
  6
Continuous
 62
     7
370
    15
100
AcDbLine
 10
1898.843912633501
 20
948.3598469485228
 30
0.0
 11
1895.591376029285
 21
946.5072565929725
 31
0.0
  0
LINE
  5
B7D
330
B32
100
AcDbEntity
  8
0
  6
Continuous
 62
     7
370
    15
100
AcDbLine
 10
1895.591376029285
 20
946.5072565929725
 30
0.0
 11
1895.710813825487
 21
944.3398734824752
 31
0.0
  0
LINE
  5
B7E
330
B32
100
AcDbEntity
  8
0
  6
Continuous
 62
     7
370
    15
100
AcDbLine
 10
1895.710813825487
 20
944.3398734824752
 30
0.0
 11
1891.259974261824
 21
941.8047498380378
 31
0.0
  0
LINE
  5
B7F
330
B32
100
AcDbEntity
  8
0
  6
Continuous
 62
     7
370
    15
100
AcDbLine
 10
1891.259974261824
 20
941.8047498380378
 30
0.0
 11
1891.140536465622
 21
943.9721329485349
 31
0.0
  0
LINE
  5
B80
330
B32
100
AcDbEntity
  8
0
  6
Continuous
 62
     7
370
    15
100
AcDbLine
 10
1891.140536465622
 20
943.9721329485349
 30
0.0
 11
1887.887999861407
 21
942.1195425929845
 31
0.0
  0
LINE
  5
B81
330
B32
100
AcDbEntity
  8
0
  6
Continuous
 62
     7
370
    15
100
AcDbLine
 10
1887.887999861407
 20
942.1195425929845
 30
0.0
 11
1887.766454560611
 21
944.325169626339
 31
0.0
  0
LINE
  5
B82
330
B32
100
AcDbEntity
  8
0
  6
Continuous
 62
     7
370
    15
100
AcDbLine
 10
1885.202635727034
 20
945.9944394032611
 30
0.0
 11
1887.766454560611
 21
944.325169626339
 31
0.0
  0
LINE
  5
B83
330
B32
100
AcDbEntity
  8
0
  6
Continuous
 62
     7
370
    15
100
AcDbLine
 10
1884.72022917235
 20
954.7484507151855
 30
0.0
 11
1885.202635727034
 21
945.9944394032614
 31
0.0
  0
ARC
  5
B84
330
B32
100
AcDbEntity
  8
0
  6
Continuous
 62
     7
370
    15
100
AcDbCircle
 10
1886.778189386937
 20
954.8323826761897
 30
0.0
 40
2.059671046283271
100
AcDbArc
 50
161.7603246232791
 51
182.3354598657034
  0
LINE
  5
B85
330
B32
100
AcDbEntity
  8
0
  6
Continuous
 62
     7
370
    15
100
AcDbLine
 10
1886.962654311789
 20
962.20351774781
 30
0.0
 11
1884.822005395035
 21
955.4770446098624
 31
0.0
  0
LWPOLYLINE
  5
B86
330
B32
100
AcDbEntity
  8
0
  6
Continuous
 62
     7
370
    15
100
AcDbPolyline
 90
       14
 70
   128
 43
0.0
 10
1885.251490314744
 20
952.9338331091516
 10
1885.25365063138
 20
953.0582904008545
 10
1885.273225996771
 20
953.1884706712776
 10
1885.309549795328
 20
953.3199407874459
 10
1885.361385063655
 20
953.448223692234
 10
1885.426966613861
 20
953.5689508651778
 10
1885.504061144908
 20
953.678011087199
 10
1885.590043295007
 20
953.7716904432402
 10
1885.681985045161
 20
953.8467987951872
 10
1885.77675542934
 20
953.9007784181968
 10
1885.871127155775
 20
953.9317911009494
 10
1885.961886508508
 20
953.9387807437288
 10
1886.045942786638
 20
953.9215093226339
 10
1886.0593834377
 20
953.9161785707133
  0
ARC
  5
B87
330
B32
100
AcDbEntity
  8
0
  6
Continuous
 62
     7
370
    15
100
AcDbCircle
 10
1885.686586585177
 20
952.914764020033
 30
0.0
 40
0.4355139431804965
100
AcDbArc
 50
177.4904873882427
 51
240.2858511483142
  0
LWPOLYLINE
  5
B88
330
B32
100
AcDbEntity
  8
0
  6
Continuous
 62
     7
370
    15
100
AcDbPolyline
 90
       35
 70
   128
 43
0.0
 10
1899.137220823332
 20
960.8429125601444
 10
1899.139381139967
 20
960.9673698518472
 10
1899.158956505358
 20
961.0975501222704
 10
1899.195280303915
 20
961.2290202384384
 10
1899.247115572243
 20
961.3573031432265
 10
1899.312697122448
 20
961.4780303161703
 10
1899.389791653496
 20
961.5870905381914
 10
1899.475773803595
 20
961.6807698942325
 10
1899.567715553749
 20
961.7558782461795
 10
1899.662485937927
 20
961.8098578691892
 10
1899.756857664362
 20
961.8408705519415
 10
1899.847617017096
 20
961.8478601947211
 10
1899.931673295225
 20
961.830588773626
 10
1900.006164063012
 20
961.7896444461871
 10
1900.068552626702
 20
961.7264215223679
 10
1900.116714418585
 20
961.6430729830113
 10
1900.149009346603
 20
961.5424371626598
 10
1900.164337645716
 20
961.4279410934761
 10
1900.16217732908
 20
961.3034838017732
 10
1900.142601963689
 20
961.1733035313502
 10
1900.106278165132
 20
961.041833415182
 10
1900.054442896804
 20
960.9135505103941
 10
1899.988861346599
 20
960.7928233374503
 10
1899.911766815551
 20
960.683763115429
 10
1899.825784665452
 20
960.5900837593878
 10
1899.733842915298
 20
960.514975407441
 10
1899.63907253112
 20
960.4609957844314
 10
1899.544700804685
 20
960.4299831016788
 10
1899.453941451951
 20
960.4229934588992
 10
1899.369885173823
 20
960.4402648799943
 10
1899.295394406035
 20
960.4812092074334
 10
1899.233005842345
 20
960.5444321312527
 10
1899.184844050462
 20
960.627780670609
 10
1899.152549122444
 20
960.7284164909605
 10
1899.137220823332
 20
960.8429125601444
  0
LWPOLYLINE
  5
B89
330
B32
100
AcDbEntity
  8
0
  6
Continuous
 62
     7
370
    15
100
AcDbPolyline
 90
       40
 70
   128
 43
0.0
 10
1899.161854911511
 20
957.4591161493183
 10
1899.16303443374
 20
957.600353479083
 10
1899.181563240601
 20
957.7478320982471
 10
1899.216961445728
 20
957.8977323880414
 10
1899.268312254203
 20
958.0461720096989
 10
1899.334285707059
 20
958.1893064549909
 10
1899.413173126522
 20
958.3234286169687
 10
1899.502931369865
 20
958.4450648020888
 10
1899.601235745734
 20
958.551064697049
 10
1899.70554022243
 20
958.6386829602489
 10
1899.813143368796
 20
958.7056503246955
 10
1899.921258319862
 20
958.7502323708259
 10
1900.027084955185
 20
958.771274447063
 10
1900.127882420499
 20
958.7682315746855
 10
1900.221040114399
 20
958.7411825624895
 10
1900.304145301547
 20
958.6908279656826
 10
1900.375045601247
 20
958.6184719418721
 10
1900.431904732981
 20
958.5259884740677
 10
1900.473250075103
 20
958.4157728355066
 10
1900.49801080497
 20
958.2906795533336
 10
1900.505545632684
 20
958.1539484778485
 10
1900.495659410166
 20
958.0091208720848
 10
1900.468608185385
 20
957.8599476949577
 10
1900.425092570855
 20
957.7102924533972
 10
1900.366239598133
 20
957.5640311395499
 10
1900.2935735283
 20
957.4249518446166
 10
1900.208976374394
 20
957.296656649281
 10
1900.114639158265
 20
957.1824683317124
 10
1900.013005164257
 20
957.0853443093552
 10
1899.906706659429
 20
957.0078000433714
 10
1899.79849671922
 20
956.951843889518
 10
1899.691177924242
 20
956.9189250827875
 10
1899.587529774913
 20
956.9098962029825
 10
1899.490236703855
 20
956.9249910933475
 10
1899.401818550505
 20
956.963818804151
 10
1899.324565298589
 20
957.0253737180783
 10
1899.260477766754
 20
957.1080615951922
 10
1899.211215788409
 20
957.2097408629092
 10
1899.178055222919
 20
957.3277780816054
 10
1899.161854911511
 20
957.4591161493183
  0
ELLIPSE
  5
B8A
330
B32
100
AcDbEntity
  8
0
  6
Continuous
 62
     7
370
    15
100
AcDbEllipse
 10
1884.091151753352
 20
960.0582841342015
 30
0.0
 11
0.863759784358905
 21
3.26109171394836
 31
0.0
210
0.0
220
0.0
230
1.0
 40
0.5818915584352827
 41
0.3046227018904808
 42
5.809775451664536
  0
LINE
  5
B8B
330
B32
100
AcDbEntity
  8
0
  6
Continuous
 62
     7
370
    15
100
AcDbLine
 10
1885.72507595792
 20
962.7315632620858
 30
0.0
 11
1886.962654311789
 21
962.20351774781
 31
0.0
  0
LINE
  5
B8C
330
B32
100
AcDbEntity
  8
0
  6
Continuous
 62
     7
370
    15
100
AcDbLine
 10
1884.822005395035
 20
955.4770446098624
 30
0.0
 11
1880.967763032778
 21
957.1215589825948
 31
0.0
  0
LINE
  5
B8D
330
B32
100
AcDbEntity
  8
0
  6
Continuous
 62
     7
370
    15
100
AcDbLine
 10
1880.967763032778
 20
957.1215589825948
 30
0.0
 11
1883.108411949532
 21
963.8480321205424
 31
0.0
  0
LINE
  5
B8E
330
B32
100
AcDbEntity
  8
0
  6
Continuous
 62
     7
370
    15
100
AcDbLine
 10
1883.108411949532
 20
963.8480321205424
 30
0.0
 11
1884.345990303402
 21
963.3199866062666
 31
0.0
  0
SPLINE
  5
B8F
330
B32
100
AcDbEntity
  8
0
  6
Continuous
 62
     7
370
    15
100
AcDbSpline
210
0.0
220
0.0
230
1.0
 70
     8
 71
     3
 72
    14
 73
    10
 74
     0
 42
0.0000000001
 43
0.0000000001
 40
0.0
 40
0.0
 40
0.0
 40
0.0
 40
0.25
 40
0.25
 40
0.5
 40
0.5
 40
0.75
 40
0.75
 40
1.0
 40
1.0
 40
1.0
 40
1.0
 10
1884.345990303402
 20
963.3199866062668
 30
0.0
 10
1884.475594008531
 20
963.3512168848927
 30
0.0
 10
1884.609605810402
 20
963.3556296527295
 30
0.0
 10
1884.874153714894
 20
963.3253608969667
 30
0.0
 10
1885.001371696668
 20
963.2908880074873
 30
0.0
 10
1885.241749965657
 20
963.1881651535623
 30
0.0
 10
1885.351432422106
 20
963.1214555384609
 30
0.0
 10
1885.552363498476
 20
962.9543052908219
 30
0.0
 10
1885.643982468342
 20
962.8526716742424
 30
0.0
 10
1885.72507595792
 20
962.7315632620859
 30
0.0
  0
ELLIPSE
  5
B90
330
B32
100
AcDbEntity
  8
0
  6
Continuous
 62
     7
370
    15
100
AcDbEllipse
 10
1884.710830912561
 20
958.3097949763443
 30
0.0
 11
1.830018162280367
 21
1.878116578663167
 31
0.0
210
0.0
220
0.0
230
1.0
 40
0.7305420811178962
 41
0.2459616943843594
 42
2.583936511753794
  0
LINE
  5
B91
330
B32
100
AcDbEntity
  8
0
  6
Continuous
 62
     7
370
    15
100
AcDbLine
 10
1886.134050908799
 20
966.3240234695061
 30
0.0
 11
1884.090258452959
 21
964.2994969213182
 31
0.0
  0
LINE
  5
B92
330
B32
100
AcDbEntity
  8
0
  6
Continuous
 62
     7
370
    15
100
AcDbLine
 10
1884.090258452959
 20
964.2994969213184
 30
0.0
 11
1886.853677505143
 21
963.1204111446423
 31
0.0
  0
LINE
  5
B93
330
B32
100
AcDbEntity
  8
0
  6
Continuous
 62
     7
370
    15
100
AcDbLine
 10
1886.853677505143
 20
963.1204111446422
 30
0.0
 11
1888.897469960983
 21
965.1449376928299
 31
0.0
  0
LINE
  5
B94
330
B32
100
AcDbEntity
  8
0
  6
Continuous
 62
     7
370
    15
100
AcDbLine
 10
1889.44288161602
 20
964.912223394802
 30
0.0
 11
1888.897469960983
 21
965.1449376928301
 31
0.0
  0
LINE
  5
B95
330
B32
100
AcDbEntity
  8
0
  6
Continuous
 62
     7
370
    15
100
AcDbLine
 10
1887.328077447764
 20
962.8173545295126
 30
0.0
 11
1883.473835085506
 21
964.4618689022451
 31
0.0
  0
LINE
  5
B96
330
B32
100
AcDbEntity
  8
0
  6
Continuous
 62
     7
370
    15
100
AcDbLine
 10
1883.473835085506
 20
964.4618689022451
 30
0.0
 11
1885.588639253762
 21
966.5567377675344
 31
0.0
  0
LINE
  5
B97
330
B32
100
AcDbEntity
  8
0
  6
Continuous
 62
     7
370
    15
100
AcDbLine
 10
1886.134050908799
 20
966.3240234695061
 30
0.0
 11
1885.588639253762
 21
966.5567377675344
 31
0.0
  0
ARC
  5
B98
330
B32
100
AcDbEntity
  8
0
  6
Continuous
 62
     7
370
    15
100
AcDbCircle
 10
1884.565270589263
 20
963.3964380981144
 30
0.0
 40
1.525245638332093
100
AcDbArc
 50
135.6907648106705
 51
162.7777175762767
  0
LINE
  5
B99
330
B32
100
AcDbEntity
  8
0
  6
Continuous
 62
     7
370
    15
100
AcDbLine
 10
1888.797620328492
 20
965.0483121754085
 30
0.0
 11
1888.77335856859
 21
965.0219962424326
 31
0.0
  0
LINE
  5
B9A
330
B32
100
AcDbEntity
  8
0
  6
Continuous
 62
     7
370
    15
100
AcDbLine
 10
1888.798312215647
 20
965.0467146627383
 30
0.0
 11
1888.797620328492
 21
965.0483121754085
 31
0.0
  0
LINE
  5
B9B
330
B32
100
AcDbEntity
  8
0
  6
Continuous
 62
     7
370
    15
100
AcDbLine
 10
1880.865986810093
 20
956.3929650879179
 30
0.0
 11
1884.72022917235
 21
954.7484507151855
 31
0.0
  0
ARC
  5
B9C
330
B32
100
AcDbEntity
  8
0
  6
Continuous
 62
     7
370
    15
100
AcDbCircle
 10
1882.923947024678
 20
956.4768970489224
 30
0.0
 40
2.059671046281639
100
AcDbArc
 50
161.7603246232729
 51
182.3354598657165
  0
LINE
  5
B9D
330
B32
100
AcDbEntity
  8
0
  6
Continuous
 62
     7
370
    15
100
AcDbLine
 10
1887.523562310803
 20
963.7839812490383
 30
0.0
 11
1886.993713462238
 21
964.0100552643554
 31
0.0
  0
LINE
  5
B9E
330
B32
100
AcDbEntity
  8
0
  6
Continuous
 62
     7
370
    15
100
AcDbLine
 10
1884.427937625344
 20
964.1554171774501
 30
0.0
 11
1885.056116551706
 21
964.8367821975485
 31
0.0
  0
LINE
  5
B9F
330
B32
100
AcDbEntity
  8
0
  6
Continuous
 62
     7
370
    15
100
AcDbLine
 10
1885.056116551706
 20
964.8367821975485
 30
0.0
 11
1885.663774031343
 21
964.5775090732769
 31
0.0
  0
SPLINE
  5
BA0
330
B32
100
AcDbEntity
  8
0
  6
Continuous
 62
     7
370
    15
100
AcDbSpline
210
0.0
220
0.0
230
1.0
 70
     8
 71
     3
 72
    17
 73
    13
 74
     0
 42
0.0000000001
 43
0.0000000001
 40
0.0
 40
0.0
 40
0.0
 40
0.0
 40
0.0847415760325895
 40
0.1678907955776823
 40
0.2502196116419691
 40
0.3325230650281137
 40
0.4155969247262553
 40
0.50021522730996
 40
0.6275859942757959
 40
0.7554099484577649
 40
0.877367892247161
 40
1.0
 40
1.0
 40
1.0
 40
1.0
 10
1885.663774031343
 20
964.5775090732769
 30
0.0
 10
1885.655628186594
 20
964.5532915717948
 30
0.0
 10
1885.639489563506
 20
964.50531163348
 30
0.0
 10
1885.626153360647
 20
964.4343070054743
 30
0.0
 10
1885.621295373888
 20
964.3652113288345
 30
0.0
 10
1885.625620358197
 20
964.2980335988962
 30
0.0
 10
1885.638971048686
 20
964.2328009583998
 30
0.0
 10
1885.664790882387
 20
964.1594343767176
 30
0.0
 10
1885.708709896334
 20
964.0809268785059
 30
0.0
 10
1885.776689584486
 20
964.004659334685
 30
0.0
 10
1885.859230853155
 20
963.939849879442
 30
0.0
 10
1885.925314202873
 20
963.9080681020745
 30
0.0
 10
1885.958446950555
 20
963.892133413308
 30
0.0
  0
SPLINE
  5
BA1
330
B32
100
AcDbEntity
  8
0
  6
Continuous
 62
     7
370
    15
100
AcDbSpline
210
0.0
220
0.0
230
1.0
 70
     8
 71
     3
 72
    17
 73
    13
 74
     0
 42
0.0000000001
 43
0.0000000001
 40
0.0
 40
0.0
 40
0.0
 40
0.0
 40
0.084741576026264
 40
0.1678907955675914
 40
0.2502196116307259
 40
0.3325230650181438
 40
0.4155969247198843
 40
0.5002152273092209
 40
0.6275859942571867
 40
0.7554099484574069
 40
0.8773678922395648
 40
1.0
 40
1.0
 40
1.0
 40
1.0
 10
1885.958446950555
 20
963.892133413308
 30
0.0
 10
1885.982696328982
 20
963.8826096106202
 30
0.0
 10
1886.030739422195
 20
963.8637409644953
 30
0.0
 10
1886.108845795564
 20
963.8435983234607
 30
0.0
 10
1886.190247633995
 20
963.8299872242948
 30
0.0
 10
1886.275402214106
 20
963.8234288810817
 30
0.0
 10
1886.3641717918
 20
963.8238112160793
 30
0.0
 10
1886.471189468412
 20
963.8322118193869
 30
0.0
 10
1886.596530360001
 20
963.8532184096643
 30
0.0
 10
1886.735115500405
 20
963.8922999984922
 30
0.0
 10
1886.869342381001
 20
963.9437867091483
 30
0.0
 10
1886.952180326369
 20
963.9879251929603
 30
0.0
 10
1886.993713462238
 20
964.0100552643556
 30
0.0
  0
LWPOLYLINE
  5
BA2
330
B32
100
AcDbEntity
  8
0
  6
Continuous
 62
     7
370
    15
100
AcDbPolyline
 90
       35
 70
   128
 43
0.0
 10
1886.684104928639
 20
952.3225702196642
 10
1886.686265245275
 20
952.4470275113671
 10
1886.705840610667
 20
952.5772077817903
 10
1886.742164409223
 20
952.7086778979585
 10
1886.793999677551
 20
952.8369608027466
 10
1886.859581227756
 20
952.9576879756904
 10
1886.936675758804
 20
953.0667481977117
 10
1887.022657908903
 20
953.160427553753
 10
1887.114599659057
 20
953.2355359056998
 10
1887.209370043235
 20
953.2895155287095
 10
1887.30374176967
 20
953.320528211462
 10
1887.394501122404
 20
953.3275178542414
 10
1887.478557400533
 20
953.3102464331465
 10
1887.55304816832
 20
953.2693021057074
 10
1887.61543673201
 20
953.206079181888
 10
1887.663598523894
 20
953.1227306425316
 10
1887.695893451912
 20
953.0220948221801
 10
1887.711221751024
 20
952.9075987529962
 10
1887.709061434388
 20
952.7831414612933
 10
1887.689486068997
 20
952.6529611908701
 10
1887.65316227044
 20
952.521491074702
 10
1887.601327002113
 20
952.393208169914
 10
1887.535745451907
 20
952.27248099697
 10
1887.45865092086
 20
952.1634207749487
 10
1887.37266877076
 20
952.0697414189077
 10
1887.280727020607
 20
951.9946330669608
 10
1887.185956636428
 20
951.9406534439509
 10
1887.091584909994
 20
951.9096407611986
 10
1887.000825557259
 20
951.902651118419
 10
1886.916769279131
 20
951.9199225395139
 10
1886.842278511343
 20
951.960866866953
 10
1886.779889947653
 20
952.0240897907724
 10
1886.73172815577
 20
952.1074383301289
 10
1886.699433227752
 20
952.2080741504804
 10
1886.684104928639
 20
952.3225702196642
  0
LINE
  5
BA3
330
B32
100
AcDbEntity
  8
0
  6
Continuous
 62
     7
370
    15
100
AcDbLine
 10
1885.202635727034
 20
945.9944394032614
 30
0.0
 11
1881.348393364777
 21
947.6389537759937
 31
0.0
  0
LINE
  5
BA4
330
B32
100
AcDbEntity
  8
0
  6
Continuous
 62
     7
370
    15
100
AcDbLine
 10
1881.348393364777
 20
947.6389537759937
 30
0.0
 11
1880.865986810093
 21
956.3929650879179
 31
0.0
  0
LINE
  5
BA5
330
B32
100
AcDbEntity
  8
0
  6
Continuous
 62
     7
370
    15
100
AcDbLine
 10
1885.735890553909
 20
964.976535094812
 30
0.0
 11
1885.451509309334
 21
964.6680774271477
 31
0.0
  0
LINE
  5
BA6
330
B32
100
AcDbEntity
  8
0
  6
Continuous
 62
     7
370
    15
100
AcDbLine
 10
1885.735890553909
 20
964.976535094812
 30
0.0
 11
1886.343548360017
 21
964.717261831243
 31
0.0
  0
SPLINE
  5
BA7
330
B32
100
AcDbEntity
  8
0
  6
Continuous
 62
     7
370
    15
100
AcDbSpline
210
0.0
220
0.0
230
1.0
 70
     8
 71
     3
 72
     8
 73
     4
 74
     0
 42
0.0000000001
 43
0.0000000001
 40
0.0
 40
0.0
 40
0.0
 40
0.0
 40
1.0
 40
1.0
 40
1.0
 40
1.0
 10
1886.34354879374
 20
964.7172608298145
 30
0.0
 10
1886.557211880928
 20
964.8388972934942
 30
0.0
 10
1886.809431954327
 20
964.9065377858091
 30
0.0
 10
1887.035988993526
 20
964.9029597529048
 30
0.0
  0
LINE
  5
BA8
330
B32
100
AcDbEntity
  8
0
  6
Continuous
 62
     7
370
    15
100
AcDbLine
 10
1887.410196792522
 20
965.3088489143819
 30
0.0
 11
1887.035988993526
 21
964.9029597529048
 31
0.0
  0
LINE
  5
BA9
330
B32
100
AcDbEntity
  8
0
  6
Continuous
 62
     7
370
    15
100
AcDbLine
 10
1887.596573478362
 20
965.2293263753714
 30
0.0
 11
1887.410196792522
 21
965.3088489143813
 31
0.0
  0
LINE
  5
BAA
330
B32
100
AcDbEntity
  8
0
  6
Continuous
 62
     7
370
    15
100
AcDbLine
 10
1887.67348713797
 20
964.1498083009162
 30
0.0
 11
1887.826823187594
 21
964.0843834226229
 31
0.0
  0
LINE
  5
BAB
330
B32
100
AcDbEntity
  8
0
  6
Continuous
 62
     7
370
    15
100
AcDbLine
 10
1885.805534839551
 20
963.9901731483231
 30
0.0
 11
1885.839863493298
 21
964.1709342450365
 31
0.0
  0
LINE
  5
BAC
330
B32
100
AcDbEntity
  8
0
  6
Continuous
 62
     7
370
    15
100
AcDbLine
 10
1888.797620328492
 20
965.0483121754081
 30
0.0
 11
1887.815879349426
 21
965.4671979118589
 31
0.0
  0
LINE
  5
BAD
330
B32
100
AcDbEntity
  8
0
  6
Continuous
 62
     7
370
    15
100
AcDbLine
 10
1888.060685018036
 20
964.3160407432992
 30
0.0
 11
1887.49739737158
 21
964.5563823055322
 31
0.0
  0
SPLINE
  5
BAE
330
B32
100
AcDbEntity
  8
0
  6
Continuous
 62
     7
370
    15
100
AcDbSpline
210
0.0
220
0.0
230
1.0
 70
     8
 71
     3
 72
     8
 73
     4
 74
     0
 42
0.0000000001
 43
0.0000000001
 40
0.0
 40
0.0
 40
0.0
 40
0.0
 40
1.0
 40
1.0
 40
1.0
 40
1.0
 10
1887.497396685372
 20
964.5563838899269
 30
0.0
 10
1887.56533963719
 20
964.7401961231086
 30
0.0
 10
1887.545041596315
 20
964.9241140637876
 30
0.0
 10
1887.441670843678
 20
965.0613085824051
 30
0.0
  0
LINE
  5
BAF
330
B32
100
AcDbEntity
  8
0
  6
Continuous
 62
     7
370
    15
100
AcDbLine
 10
1887.815878663218
 20
965.4671994962543
 30
0.0
 11
1887.441670843678
 21
965.0613085824051
 31
0.0
  0
LINE
  5
BB0
330
B32
100
AcDbEntity
  8
0
  6
Continuous
 62
     7
370
    15
100
AcDbLine
 10
1890.145416569073
 20
965.312375533529
 30
0.0
 11
1886.291174206816
 21
966.9568899062614
 31
0.0
  0
LINE
  5
BB1
330
B32
100
AcDbEntity
  8
0
  6
Continuous
 62
     7
370
    15
100
AcDbLine
 10
1886.134050908799
 20
966.3240234695061
 30
0.0
 11
1888.897469960983
 21
965.1449376928301
 31
0.0
  0
LINE
  5
BB2
330
B32
100
AcDbEntity
  8
0
  6
Continuous
 62
     7
370
    15
100
AcDbLine
 10
1885.588639253762
 20
966.5567377675344
 30
0.0
 11
1886.291174206816
 21
966.9568899062612
 31
0.0
  0
LINE
  5
BB3
330
B32
100
AcDbEntity
  8
0
  6
Continuous
 62
     7
370
    15
100
AcDbLine
 10
1885.839863797735
 20
964.1709350686562
 30
0.0
 11
1885.663773704875
 21
964.5775092125731
 31
0.0
  0
LINE
  5
BB4
330
B32
100
AcDbEntity
  8
0
  6
Continuous
 62
     7
370
    15
100
AcDbLine
 10
1887.67348713797
 20
964.1498083009162
 30
0.0
 11
1887.497396358898
 21
964.5563840292247
 31
0.0
  0
LINE
  5
BB5
330
B32
100
AcDbEntity
  8
0
  6
Continuous
 62
     7
370
    15
100
AcDbLine
 10
1886.215469928666
 20
966.0942923447406
 30
0.0
 11
1886.134050908799
 21
966.3240234695061
 31
0.0
  0
LINE
  5
BB6
330
B32
100
AcDbEntity
  8
0
  6
Continuous
 62
     7
370
    15
100
AcDbLine
 10
1887.441670843678
 20
965.0613085824051
 30
0.0
 11
1887.522858811911
 21
964.8738528205836
 31
0.0
  0
LINE
  5
BB7
330
B32
100
AcDbEntity
  8
0
  6
Continuous
 62
     7
370
    15
100
AcDbLine
 10
1893.884064339104
 20
966.8170530118716
 30
0.0
 11
1890.444334834675
 21
968.2847045181025
 31
0.0
  0
LINE
  5
BB8
330
B32
100
AcDbEntity
  8
0
  6
Continuous
 62
     7
370
    15
100
AcDbLine
 10
1890.444334834675
 20
968.2847045181025
 30
0.0
 11
1889.293726483741
 21
967.6293372791318
 31
0.0
  0
LINE
  5
BB9
330
B32
100
AcDbEntity
  8
0
  6
Continuous
 62
     7
370
    15
100
AcDbLine
 10
1889.293726483741
 20
967.6293372791318
 30
0.0
 11
1892.73345598817
 21
966.161685772901
 31
0.0
  0
LINE
  5
BBA
330
B32
100
AcDbEntity
  8
0
  6
Continuous
 62
     7
370
    15
100
AcDbLine
 10
1891.724507064141
 20
965.5870053700809
 30
0.0
 11
1888.284777559712
 21
967.054656876312
 31
0.0
  0
LINE
  5
BBB
330
B32
100
AcDbEntity
  8
0
  6
Continuous
 62
     7
370
    15
100
AcDbLine
 10
1888.284777559712
 20
967.054656876312
 30
0.0
 11
1887.332826421831
 21
966.5124414575194
 31
0.0
  0
LINE
  5
BBC
330
B32
100
AcDbEntity
  8
0
  6
Continuous
 62
     7
370
    15
100
AcDbLine
 10
1890.287706485508
 20
968.6084540800436
 30
0.0
 11
1894.141948847765
 21
966.9639397073112
 31
0.0
  0
LINE
  5
BBD
330
B32
100
AcDbEntity
  8
0
  6
Continuous
 62
     7
370
    15
100
AcDbLine
 10
1886.918313564004
 20
966.6893043240206
 30
0.0
 11
1890.287706485508
 21
968.6084540800436
 31
0.0
  0
SPLINE
  5
BBE
330
B32
100
AcDbEntity
  8
0
  6
Continuous
 62
     7
370
    15
100
AcDbSpline
210
0.0
220
0.0
230
1.0
 70
     8
 71
     3
 72
     8
 73
     4
 74
     0
 42
0.0000000001
 43
0.0000000001
 40
0.0
 40
0.0
 40
0.0
 40
0.0
 40
1.0
 40
1.0
 40
1.0
 40
1.0
 10
1886.859899097848
 20
965.3095355825747
 30
0.0
 10
1886.633342058649
 20
965.313113615479
 30
0.0
 10
1886.38112198525
 20
965.2454731231641
 30
0.0
 10
1886.167458898062
 20
965.1238366594844
 30
0.0
  0
LINE
  5
BBF
330
B32
100
AcDbEntity
  8
0
  6
Continuous
 62
     7
370
    15
100
AcDbLine
 10
1886.167457940686
 20
965.1238361144562
 30
0.0
 11
1885.559800461048
 21
965.3831092387278
 31
0.0
  0
LINE
  5
BC0
330
B32
100
AcDbEntity
  8
0
  6
Continuous
 62
     7
370
    15
100
AcDbLine
 10
1887.234106917387
 20
965.7154264964221
 30
0.0
 11
1886.859899097848
 21
965.3095355825739
 31
0.0
  0
LINE
  5
BC1
330
B32
100
AcDbEntity
  8
0
  6
Continuous
 62
     7
370
    15
100
AcDbLine
 10
1886.252365938322
 20
966.1343122328736
 30
0.0
 11
1885.559800461048
 21
965.383109238729
 31
0.0
  0
LINE
  5
BC2
330
B32
100
AcDbEntity
  8
0
  6
Continuous
 62
     7
370
    15
100
AcDbLine
 10
1887.23410623118
 20
965.7154280808194
 30
0.0
 11
1886.252365252115
 21
966.1343138172702
 31
0.0
  0
LINE
  5
BC3
330
B32
100
AcDbEntity
  8
0
  6
Continuous
 62
     7
370
    15
100
AcDbLine
 10
1886.167457940686
 20
965.1238361144574
 30
0.0
 11
1886.343548033547
 21
964.7172619705402
 31
0.0
  0
LINE
  5
BC4
330
B32
100
AcDbEntity
  8
0
  6
Continuous
 62
     7
370
    15
100
AcDbLine
 10
1887.035988993526
 20
964.9029597529048
 30
0.0
 11
1886.859898411639
 21
965.3095371669687
 31
0.0
  0
LINE
  5
BC5
330
B32
100
AcDbEntity
  8
0
  6
Continuous
 62
     7
370
    15
100
AcDbLine
 10
1887.410196792522
 20
965.3088489143813
 30
0.0
 11
1887.234106917387
 21
965.7154264964221
 31
0.0
  0
LINE
  5
BC6
330
B32
100
AcDbEntity
  8
0
  6
Continuous
 62
     7
370
    15
100
AcDbLine
 10
1885.559800461048
 20
965.3831092387278
 30
0.0
 11
1885.735890553909
 21
964.976535094812
 31
0.0
  0
LINE
  5
BC7
330
B32
100
AcDbEntity
  8
0
  6
Continuous
 62
     7
370
    15
100
AcDbLine
 10
1888.157097196778
 20
966.8109017244107
 30
0.0
 11
1891.596826701208
 21
965.3432502181797
 31
0.0
  0
ARC
  5
BC8
330
B32
100
AcDbEntity
  8
0
  6
Continuous
 62
     7
370
    15
100
AcDbCircle
 10
1888.446705652695
 20
966.8145205682039
 30
0.0
 40
0.2896310649241211
100
AcDbArc
 50
123.9924735695163
 51
180.7159103305725
  0
LINE
  5
BC9
330
B32
100
AcDbEntity
  8
0
  6
Continuous
 62
     7
370
    15
100
AcDbLine
 10
1891.607511298329
 20
964.8147467608888
 30
0.0
 11
1888.167781793899
 21
966.2823982671197
 31
0.0
  0
LINE
  5
BCA
330
B32
100
AcDbEntity
  8
0
  6
Continuous
 62
     7
370
    15
100
AcDbLine
 10
1888.167781793899
 20
966.2823982671197
 30
0.0
 11
1888.157097196778
 21
966.8109017244107
 31
0.0
  0
ARC
  5
BCB
330
B32
100
AcDbEntity
  8
0
  6
Continuous
 62
     7
370
    15
100
AcDbCircle
 10
1884.491357942498
 20
950.5525252984993
 30
0.0
 40
1.396889978145203
100
AcDbArc
 50
305.0382063340605
 51
8.748193429321496
  0
SPLINE
  5
BCC
330
B32
100
AcDbEntity
  8
0
  6
Continuous
 62
     7
370
    15
100
AcDbSpline
210
0.0
220
0.0
230
1.0
 70
     8
 71
     3
 72
    10
 73
     6
 74
     0
 42
0.0000000001
 43
0.0000000001
 40
0.0
 40
0.0
 40
0.0
 40
0.0
 40
0.4205511914356041
 40
0.8411023828713615
 40
1.0
 40
1.0
 40
1.0
 40
1.0
 10
1888.167781793899
 20
966.2823982671197
 30
0.0
 10
1888.170458595575
 20
966.2606415497943
 30
0.0
 10
1888.175812198926
 20
966.2171281151435
 30
0.0
 10
1888.200399755179
 20
966.1792493100806
 30
0.0
 10
1888.221945543638
 20
966.1737061527016
 30
0.0
 10
1888.227853873062
 20
966.172186096942
 30
0.0
  0
LWPOLYLINE
  5
BCD
330
B32
100
AcDbEntity
  8
0
  6
Continuous
 62
     7
370
    15
100
AcDbPolyline
 90
       40
 70
   128
 43
0.0
 10
1892.644731405641
 20
961.8770931797699
 10
1892.645934999753
 20
962.0212129040195
 10
1892.664841945529
 20
962.1717012909218
 10
1892.700962563006
 20
962.3246607703036
 10
1892.753361347164
 20
962.4761297719953
 10
1892.820681197017
 20
962.6221853284153
 10
1892.901178563816
 20
962.7590446773725
 10
1892.992768608044
 20
962.8831632336176
 10
1893.093079195665
 20
962.9913263917401
 10
1893.199512335151
 20
963.0807327827605
 10
1893.309311464095
 20
963.1490668281141
 10
1893.419632842734
 20
963.1945587119204
 10
1893.527619205309
 20
963.2160302182851
 10
1893.630473761752
 20
963.2129252464713
 10
1893.725532633079
 20
963.185324213618
 10
1893.810333844454
 20
963.1339419719784
 10
1893.882681089046
 20
963.0601092946207
 10
1893.940700611224
 20
962.9657384091062
 10
1893.982889735838
 20
962.8532734717989
 10
1894.008155786722
 20
962.7256272654999
 10
1894.01584438643
 20
962.5861057599028
 10
1894.005756404269
 20
962.4383224887154
 10
1893.978153113677
 20
962.2861049610346
 10
1893.93374942538
 20
962.133395530871
 10
1893.873695371583
 20
961.984149292251
 10
1893.799546320733
 20
961.84223164436
 10
1893.713222694298
 20
961.711318179732
 10
1893.61696022886
 20
961.5947994883354
 10
1893.513252071709
 20
961.4956933430729
 10
1893.404784209639
 20
961.4165665410485
 10
1893.294365903304
 20
961.3594684248718
 10
1893.184856928837
 20
961.3258778057588
 10
1893.079093511153
 20
961.3166646631007
 10
1892.979814867217
 20
961.3320676124528
 10
1892.889592261758
 20
961.3716877255177
 10
1892.810762412864
 20
961.4344988621782
 10
1892.745366972216
 20
961.5188742469882
 10
1892.695099647375
 20
961.6226286018015
 10
1892.66126233565
 20
961.7430747433282
 10
1892.644731405641
 20
961.8770931797699
  0
LINE
  5
BCE
330
B32
100
AcDbEntity
  8
0
  6
Continuous
 62
     7
370
    15
100
AcDbLine
 10
1888.452460570485
 20
966.0347199557026
 30
0.0
 11
1888.45033385009
 21
966.0733150712703
 31
0.0
  0
ARC
  5
BCF
330
B32
100
AcDbEntity
  8
0
  6
Continuous
 62
     7
370
    15
100
AcDbCircle
 10
1889.348116791668
 20
967.548210056911
 30
0.0
 40
0.0976725743580976
100
AcDbArc
 50
69.84511737525075
 51
123.8391757135558
  0
LWPOLYLINE
  5
BD0
330
B32
100
AcDbEntity
  8
0
  6
Continuous
 62
     7
370
    15
100
AcDbPolyline
 90
       19
 70
   128
 43
0.0
 10
1885.781953391825
 20
946.3292336004657
 10
1885.819833802453
 20
946.3263655139259
 10
1885.925597220136
 20
946.3355786565839
 10
1886.035106194603
 20
946.3691692756965
 10
1886.145524500937
 20
946.426267391873
 10
1886.253992363006
 20
946.5053941938968
 10
1886.357700520156
 20
946.6045003391586
 10
1886.453962985594
 20
946.7210190305545
 10
1886.540286612028
 20
946.8519324951815
 10
1886.614435662878
 20
946.9938501430716
 10
1886.674489716674
 20
947.1430963816903
 10
1886.71889340497
 20
947.295805811853
 10
1886.746496695562
 20
947.4480233395329
 10
1886.756584677724
 20
947.5958066107192
 10
1886.748896078016
 20
947.7353281163154
 10
1886.723630027131
 20
947.8629743226134
 10
1886.681440902518
 20
947.97543925992
 10
1886.62342138034
 20
948.069810145434
 10
1886.554827294079
 20
948.140615357992
  0
LINE
  5
BD1
330
B32
100
AcDbEntity
  8
0
  6
Continuous
 62
     7
370
    15
100
AcDbLine
 10
1890.31665453116
 20
968.0409464280335
 30
0.0
 11
1893.75638403559
 21
966.5732949218025
 31
0.0
  0
ARC
  5
BD2
330
B32
100
AcDbEntity
  8
0
  6
Continuous
 62
     7
370
    15
100
AcDbCircle
 10
1890.606262852476
 20
968.0445682763325
 30
0.0
 40
0.2896309678893495
100
AcDbArc
 50
123.992468575335
 51
180.7165049784274
  0
LINE
  5
BD3
330
B32
100
AcDbEntity
  8
0
  6
Continuous
 62
     7
370
    15
100
AcDbLine
 10
1893.76707542351
 20
966.0447969420747
 30
0.0
 11
1890.32734591908
 21
967.5124484483056
 31
0.0
  0
LINE
  5
BD4
330
B32
100
AcDbEntity
  8
0
  6
Continuous
 62
     7
370
    15
100
AcDbLine
 10
1890.32734591908
 20
967.5124484483056
 30
0.0
 11
1890.31665453116
 21
968.0409464280335
 31
0.0
  0
LINE
  5
BD5
330
B32
100
AcDbEntity
  8
0
  6
Continuous
 62
     7
370
    15
100
AcDbLine
 10
1891.09380771109
 20
969.6923894851837
 30
0.0
 11
1891.639219366126
 21
969.4596751871554
 31
0.0
  0
LINE
  5
BD6
330
B32
100
AcDbEntity
  8
0
  6
Continuous
 62
     7
370
    15
100
AcDbLine
 10
1894.402638418311
 20
968.2805894104799
 30
0.0
 11
1891.639219366127
 21
969.4596751871559
 31
0.0
  0
LINE
  5
BD7
330
B32
100
AcDbEntity
  8
0
  6
Continuous
 62
     7
370
    15
100
AcDbLine
 10
1894.402638418311
 20
968.2805894104795
 30
0.0
 11
1894.948050073347
 21
968.0478751124512
 31
0.0
  0
LINE
  5
BD8
330
B32
100
AcDbEntity
  8
0
  6
Continuous
 62
     7
370
    15
100
AcDbLine
 10
1890.391272758019
 20
969.2922373464472
 30
0.0
 11
1894.245515120277
 21
967.647722973715
 31
0.0
  0
LINE
  5
BD9
330
B32
100
AcDbEntity
  8
0
  6
Continuous
 62
     7
370
    15
100
AcDbLine
 10
1890.391272758019
 20
969.2922373464469
 30
0.0
 11
1891.09380771109
 21
969.6923894851837
 31
0.0
  0
LINE
  5
BDA
330
B32
100
AcDbEntity
  8
0
  6
Continuous
 62
     7
370
    15
100
AcDbLine
 10
1890.415100371463
 20
968.8598485333278
 30
0.0
 11
1894.26934273372
 21
967.2153341605953
 31
0.0
  0
LINE
  5
BDB
330
B32
100
AcDbEntity
  8
0
  6
Continuous
 62
     7
370
    15
100
AcDbLine
 10
1890.415100371463
 20
968.8598485333278
 30
0.0
 11
1890.391272758019
 21
969.2922373464472
 31
0.0
  0
ARC
  5
BDC
330
B32
100
AcDbEntity
  8
0
  6
Continuous
 62
     7
370
    15
100
AcDbCircle
 10
1890.126103391163
 20
968.848321873639
 30
0.0
 40
0.2892267596646156
100
AcDbArc
 50
303.9688327704599
 51
2.284034518153457
  0
LINE
  5
BDD
330
B32
100
AcDbEntity
  8
0
  6
Continuous
 62
     7
370
    15
100
AcDbLine
 10
1887.766454560611
 20
944.325169626339
 30
0.0
 11
1883.912212198354
 21
945.9696839990712
 31
0.0
  0
LINE
  5
BDE
330
B32
100
AcDbEntity
  8
0
  6
Continuous
 62
     7
370
    15
100
AcDbLine
 10
1883.912212198354
 20
945.9696839990712
 30
0.0
 11
1881.348393364777
 21
947.6389537759937
 31
0.0
  0
SPLINE
  5
BDF
330
B32
100
AcDbEntity
  8
0
  6
Continuous
 62
     7
370
    15
100
AcDbSpline
210
0.0
220
0.0
230
1.0
 70
     8
 71
     3
 72
    10
 73
     6
 74
     0
 42
0.0000000001
 43
0.0000000001
 40
0.0
 40
0.0
 40
0.0
 40
0.0
 40
0.4205508692891447
 40
0.8411017385783628
 40
1.0
 40
1.0
 40
1.0
 40
1.0
 10
1890.32734591908
 20
967.5124484483056
 30
0.0
 10
1890.330022927693
 20
967.490692303664
 30
0.0
 10
1890.335376944918
 20
967.4471800143805
 30
0.0
 10
1890.359964262892
 20
967.4093022936796
 30
0.0
 10
1890.38150965443
 20
967.4037591531625
 30
0.0
 10
1890.387417895681
 20
967.4022390967083
 30
0.0
  0
LINE
  5
BE0
330
B32
100
AcDbEntity
  8
0
  6
Continuous
 62
     7
370
    15
100
AcDbLine
 10
1893.3037503529
 20
970.060823944488
 30
0.0
 11
1897.157992715157
 21
968.4163095717558
 31
0.0
  0
LINE
  5
BE1
330
B32
100
AcDbEntity
  8
0
  6
Continuous
 62
     7
370
    15
100
AcDbLine
 10
1894.402638418311
 20
968.2805894104799
 30
0.0
 11
1896.538374751237
 21
968.6366524349907
 31
0.0
  0
LINE
  5
BE2
330
B32
100
AcDbEntity
  8
0
  6
Continuous
 62
     7
370
    15
100
AcDbLine
 10
1896.538374751237
 20
968.6366524349907
 30
0.0
 11
1893.774955699053
 21
969.8157382116667
 31
0.0
  0
LINE
  5
BE3
330
B32
100
AcDbEntity
  8
0
  6
Continuous
 62
     7
370
    15
100
AcDbLine
 10
1893.774955699053
 20
969.8157382116667
 30
0.0
 11
1891.639219366127
 21
969.4596751871559
 31
0.0
  0
LINE
  5
BE4
330
B32
100
AcDbEntity
  8
0
  6
Continuous
 62
     7
370
    15
100
AcDbLine
 10
1891.09380771109
 20
969.692389485184
 30
0.0
 11
1893.3037503529
 21
970.060823944488
 31
0.0
  0
LINE
  5
BE5
330
B32
100
AcDbEntity
  8
0
  6
Continuous
 62
     7
370
    15
100
AcDbLine
 10
1890.62047449967
 20
967.1113759273925
 30
0.0
 11
1890.609894313699
 21
967.3033697275783
 31
0.0
  0
SPLINE
  5
BE6
330
B32
100
AcDbEntity
  8
0
  6
Continuous
 62
     7
370
    15
100
AcDbSpline
210
0.0
220
0.0
230
1.0
 70
     8
 71
     3
 72
     8
 73
     4
 74
     0
 42
0.0000000001
 43
0.0000000001
 40
0.0
 40
0.0
 40
0.0
 40
0.0
 40
1.0
 40
1.0
 40
1.0
 40
1.0
 10
1893.822276164414
 20
968.5866923368038
 30
0.0
 10
1894.052223400224
 20
968.5215939551452
 30
0.0
 10
1894.310826164156
 20
968.4734106789388
 30
0.0
 10
1894.532239281579
 20
968.4544108853197
 30
0.0
  0
LINE
  5
BE7
330
B32
100
AcDbEntity
  8
0
  6
Continuous
 62
     7
370
    15
100
AcDbLine
 10
1894.532241349119
 20
968.4544158835635
 30
0.0
 11
1894.788765181801
 21
968.3449632103414
 31
0.0
  0
LINE
  5
BE8
330
B32
100
AcDbEntity
  8
0
  6
Continuous
 62
     7
370
    15
100
AcDbLine
 10
1893.707176703282
 20
968.5773265324757
 30
0.0
 11
1893.822276164414
 21
968.5866923368035
 31
0.0
  0
LINE
  5
BE9
330
B32
100
AcDbEntity
  8
0
  6
Continuous
 62
     7
370
    15
100
AcDbLine
 10
1893.125399926745
 20
968.8255569707342
 30
0.0
 11
1893.240504207509
 21
968.8349231672424
 31
0.0
  0
LINE
  5
BEA
330
B32
100
AcDbEntity
  8
0
  6
Continuous
 62
     7
370
    15
100
AcDbLine
 10
1893.229156874813
 20
968.7812863265111
 30
0.0
 11
1893.240504207509
 21
968.8349231672424
 31
0.0
  0
LINE
  5
BEB
330
B32
100
AcDbEntity
  8
0
  6
Continuous
 62
     7
370
    15
100
AcDbLine
 10
1895.243736679159
 20
968.4208145806241
 30
0.0
 11
1895.06364756138
 21
968.4976543625372
 31
0.0
  0
LINE
  5
BEC
330
B32
100
AcDbEntity
  8
0
  6
Continuous
 62
     7
370
    15
100
AcDbLine
 10
1895.04021333745
 20
968.3868838301425
 30
0.0
 11
1895.063647887849
 21
968.4976542232407
 31
0.0
  0
LINE
  5
BED
330
B32
100
AcDbEntity
  8
0
  6
Continuous
 62
     7
370
    15
100
AcDbLine
 10
1892.143663292178
 20
969.2444408534898
 30
0.0
 11
1892.594643363149
 21
969.2811377333795
 31
0.0
  0
LINE
  5
BEE
330
B32
100
AcDbEntity
  8
0
  6
Continuous
 62
     7
370
    15
100
AcDbLine
 10
1893.202301644394
 20
969.0218667156857
 30
0.0
 11
1892.594643838286
 21
969.2811399792546
 31
0.0
  0
SPLINE
  5
BEF
330
B32
100
AcDbEntity
  8
0
  6
Continuous
 62
     7
370
    15
100
AcDbSpline
210
0.0
220
0.0
230
1.0
 70
     8
 71
     3
 72
    13
 73
     9
 74
     0
 42
0.0000000001
 43
0.0000000001
 40
0.0
 40
0.0
 40
0.0
 40
0.0
 40
0.1261028159338831
 40
0.2508089153054859
 40
0.3751674550085137
 40
0.5002363388933116
 40
0.7479636559798971
 40
1.0
 40
1.0
 40
1.0
 40
1.0
 10
1893.202300842787
 20
969.021864609108
 30
0.0
 10
1893.193616902648
 20
969.0161829812687
 30
0.0
 10
1893.176345205812
 20
969.0048826553793
 30
0.0
 10
1893.160643392934
 20
968.9853342321796
 30
0.0
 10
1893.152748961126
 20
968.9640548637404
 30
0.0
 10
1893.153692480638
 20
968.933420646673
 30
0.0
 10
1893.174203754506
 20
968.8910896935421
 30
0.0
 10
1893.218277071139
 20
968.8537511579864
 30
0.0
 10
1893.240503732375
 20
968.8349209213669
 30
0.0
  0
ARC
  5
BF0
330
B32
100
AcDbEntity
  8
0
  6
Continuous
 62
     7
370
    15
100
AcDbCircle
 10
1899.117808477901
 20
950.9231115895692
 30
0.0
 40
0.2892267596630033
100
AcDbArc
 50
303.9688327702901
 51
2.284034518270612
  0
LINE
  5
BF1
330
B32
100
AcDbEntity
  8
0
  6
Continuous
 62
     7
370
    15
100
AcDbLine
 10
1888.979535100568
 20
944.8166067256771
 30
0.0
 11
1899.279411572244
 21
950.6832437959747
 31
0.0
  0
LWPOLYLINE
  5
BF2
330
B32
100
AcDbEntity
  8
0
  6
Continuous
 62
     7
370
    15
100
AcDbPolyline
 90
        9
 70
   128
 43
0.0
 10
1888.979535100568
 20
944.8166067256771
 10
1888.952634096583
 20
944.8047205910476
 10
1888.926399688893
 20
944.7999545393027
 10
1888.901840051073
 20
944.8024917271377
 10
1888.879898996231
 20
944.812234651847
 10
1888.8614197068
 20
944.828808898298
 10
1888.84711233151
 20
944.8515775274948
 10
1888.837526694769
 20
944.8796655537858
 10
1888.83303116722
 20
944.9119935700725
  0
LINE
  5
BF3
330
B32
100
AcDbEntity
  8
0
  6
Continuous
 62
     7
370
    15
100
AcDbLine
 10
1888.794983818627
 20
945.602421419238
 30
0.0
 11
1888.83303116722
 21
944.9119935700725
 31
0.0
  0
ARC
  5
BF4
330
B32
100
AcDbEntity
  8
0
  6
Continuous
 62
     7
370
    15
100
AcDbCircle
 10
1889.083980798925
 20
945.6139480789275
 30
0.0
 40
0.289226759662549
100
AcDbArc
 50
123.9688327702431
 51
182.2840345183096
  0
LINE
  5
BF5
330
B32
100
AcDbEntity
  8
0
  6
Continuous
 62
     7
370
    15
100
AcDbLine
 10
1899.222254176259
 20
951.7204529428193
 30
0.0
 11
1888.922377704582
 21
945.8538158725216
 31
0.0
  0
SPLINE
  5
BF6
330
B32
100
AcDbEntity
  8
0
  6
Continuous
 62
     7
370
    15
100
AcDbSpline
210
0.0
220
0.0
230
1.0
 70
     8
 71
     3
 72
    10
 73
     6
 74
     0
 42
0.0000000001
 43
0.0000000001
 40
0.0
 40
0.0
 40
0.0
 40
0.0
 40
0.5
 40
0.5
 40
1.0
 40
1.0
 40
1.0
 40
1.0
 10
1899.222254176259
 20
951.7204529428193
 30
0.0
 10
1899.258107316965
 20
951.7408742910687
 30
0.0
 10
1899.294769454519
 20
951.7424830409614
 30
0.0
 10
1899.349011106673
 20
951.7071669923375
 30
0.0
 10
1899.366256610252
 20
951.6704596641401
 30
0.0
 10
1899.368758109606
 20
951.6250660984237
 30
0.0
  0
LINE
  5
BF7
330
B32
100
AcDbEntity
  8
0
  6
Continuous
 62
     7
370
    15
100
AcDbLine
 10
1899.4068054582
 20
950.9346382492584
 30
0.0
 11
1899.368758109606
 21
951.6250660984237
 31
0.0
  0
LINE
  5
BF8
330
B32
100
AcDbEntity
  8
0
  6
Continuous
 62
     7
370
    15
100
AcDbLine
 10
1888.922377704582
 20
945.8538158725216
 30
0.0
 11
1887.998813968721
 21
946.2478787505162
 31
0.0
  0
LINE
  5
BF9
330
B32
100
AcDbEntity
  8
0
  6
Continuous
 62
     7
370
    15
100
AcDbLine
 10
1887.871420082766
 20
945.9964842972324
 30
0.0
 11
1888.794983818627
 21
945.602421419238
 31
0.0
  0
LINE
  5
BFA
330
B32
100
AcDbEntity
  8
0
  6
Continuous
 62
     7
370
    15
100
AcDbLine
 10
1893.733708130486
 20
969.0651081714586
 30
0.0
 11
1893.126050650849
 21
969.3243812957303
 31
0.0
  0
LINE
  5
BFB
330
B32
100
AcDbEntity
  8
0
  6
Continuous
 62
     7
370
    15
100
AcDbLine
 10
1893.126050650849
 20
969.3243812957303
 30
0.0
 11
1893.856735148747
 21
969.383838116513
 31
0.0
  0
LINE
  5
BFC
330
B32
100
AcDbEntity
  8
0
  6
Continuous
 62
     7
370
    15
100
AcDbLine
 10
1895.869329768376
 20
968.5251114285195
 30
0.0
 11
1893.856735148747
 21
969.383838116513
 31
0.0
  0
SPLINE
  5
BFD
330
B32
100
AcDbEntity
  8
0
  6
Continuous
 62
     7
370
    15
100
AcDbSpline
210
0.0
220
0.0
230
1.0
 70
     8
 71
     3
 72
    10
 73
     6
 74
     0
 42
0.0000000001
 43
0.0000000001
 40
0.0
 40
0.0
 40
0.0
 40
0.0
 40
0.5
 40
0.5
 40
1.0
 40
1.0
 40
1.0
 40
1.0
 10
1895.063647505804
 20
968.497654330836
 30
0.0
 10
1895.122469217568
 20
968.5312065269375
 30
0.0
 10
1895.128153674522
 20
968.5796326748759
 30
0.0
 10
1895.031445442996
 20
968.6908761377237
 30
0.0
 10
1894.92922861887
 20
968.7534911558945
 30
0.0
 10
1894.789356413638
 20
968.8131713291248
 30
0.0
  0
SPLINE
  5
BFE
330
B32
100
AcDbEntity
  8
0
  6
Continuous
 62
     7
370
    15
100
AcDbSpline
210
0.0
220
0.0
230
1.0
 70
     8
 71
     3
 72
    10
 73
     6
 74
     0
 42
0.0000000001
 43
0.0000000001
 40
0.0
 40
0.0
 40
0.0
 40
0.0
 40
0.5
 40
0.5
 40
1.0
 40
1.0
 40
1.0
 40
1.0
 10
1894.789356413638
 20
968.8131713291252
 30
0.0
 10
1894.649484096015
 20
968.8728515503099
 30
0.0
 10
1894.472465053148
 20
968.9293798637789
 30
0.0
 10
1894.100269284675
 20
969.0182065797376
 30
0.0
 10
1893.90576940091
 20
969.0503434499293
 30
0.0
 10
1893.733707138385
 20
969.0651082565919
 30
0.0
  0
LINE
  5
BFF
330
B32
100
AcDbEntity
  8
0
  6
Continuous
 62
     7
370
    15
100
AcDbLine
 10
1888.83303116722
 20
944.9119935700725
 30
0.0
 11
1887.909467431359
 21
945.306056448067
 31
0.0
  0
LINE
  5
C00
330
B32
100
AcDbEntity
  8
0
  6
Continuous
 62
     7
370
    15
100
AcDbLine
 10
1898.298690440397
 20
952.1145158208137
 30
0.0
 11
1899.222254176259
 21
951.7204529428193
 31
0.0
  0
LINE
  5
C01
330
B32
100
AcDbEntity
  8
0
  6
Continuous
 62
     7
370
    15
100
AcDbLine
 10
1893.17639256481
 20
968.8993997222334
 30
0.0
 11
1893.202301644394
 21
969.0218667156857
 31
0.0
  0
LINE
  5
C02
330
B32
100
AcDbEntity
  8
0
  6
Continuous
 62
     7
370
    15
100
AcDbLine
 10
1893.636860019696
 20
968.6073290040205
 30
0.0
 11
1893.733707138385
 21
969.0651082565919
 31
0.0
  0
LINE
  5
C03
330
B32
100
AcDbEntity
  8
0
  6
Continuous
 62
     7
370
    15
100
AcDbLine
 10
1893.774955699053
 20
969.8157382116665
 30
0.0
 11
1893.699430050911
 21
969.3710379804254
 31
0.0
  0
LWPOLYLINE
  5
C04
330
B32
100
AcDbEntity
  8
0
  6
Continuous
 62
     7
370
    15
100
AcDbPolyline
 90
       20
 70
   128
 43
0.0
 10
1881.196297503642
 20
950.3989678677273
 10
1881.124326489914
 20
950.3900475639593
 10
1881.014817515449
 20
950.3564569448469
 10
1880.904399209114
 20
950.2993588286708
 10
1880.795931347046
 20
950.2202320266475
 10
1880.692223189897
 20
950.1211258813862
 10
1880.59596072446
 20
950.0046071899911
 10
1880.509637098026
 20
949.8736937253648
 10
1880.435488047177
 20
949.7317760774755
 10
1880.37543399338
 20
949.5825298388577
 10
1880.331030305085
 20
949.4298204086959
 10
1880.303427014493
 20
949.2776028810169
 10
1880.293339032331
 20
949.1298196098314
 10
1880.301027632039
 20
948.9902981042362
 10
1880.326293682924
 20
948.8626518979387
 10
1880.368482807537
 20
948.750186960633
 10
1880.426502329714
 20
948.6558160751195
 10
1880.498849574306
 20
948.5819833977629
 10
1880.583650785679
 20
948.5306011561238
 10
1880.587261182508
 20
948.5290382412239
  0
ARC
  5
C05
330
B32
100
AcDbEntity
  8
0
  6
Continuous
 62
     7
370
    15
100
AcDbCircle
 10
1893.378723497829
 20
969.6568399137376
 30
0.0
 40
0.4108820628379614
100
AcDbArc
 50
67.51619999758074
 51
100.5135918597904
  0
LINE
  5
C06
330
B32
100
AcDbEntity
  8
0
  6
Continuous
 62
     7
370
    15
100
AcDbLine
 10
1893.07366268114
 20
969.0767539293275
 30
0.0
 11
1893.126050650849
 21
969.3243812957303
 31
0.0
  0
LINE
  5
C07
330
B32
100
AcDbEntity
  8
0
  6
Continuous
 62
     7
370
    15
100
AcDbLine
 10
1884.03375749915
 20
943.7640569657171
 30
0.0
 11
1887.887999861407
 21
942.1195425929845
 31
0.0
  0
LINE
  5
C08
330
B32
100
AcDbEntity
  8
0
  6
Continuous
 62
     7
370
    15
100
AcDbLine
 10
1884.03375749915
 20
943.7640569657171
 30
0.0
 11
1883.912212198354
 21
945.9696839990712
 31
0.0
  0
LINE
  5
C09
330
B32
100
AcDbEntity
  8
0
  6
Continuous
 62
     7
370
    15
100
AcDbLine
 10
1889.016168824277
 20
942.7621287324722
 30
0.0
 11
1891.259974261824
 21
941.8047498380378
 31
0.0
  0
LWPOLYLINE
  5
C0A
330
B32
100
AcDbEntity
  8
0
  6
Continuous
 62
     7
370
    15
100
AcDbPolyline
 90
       16
 70
   128
 43
0.0
 10
1899.266331918776
 20
960.5063778997998
 10
1899.348352608872
 20
960.5137602489689
 10
1899.442724335307
 20
960.5447729317214
 10
1899.537494719485
 20
960.5987525547311
 10
1899.629436469639
 20
960.6738609066781
 10
1899.715418619738
 20
960.7675402627192
 10
1899.792513150785
 20
960.8766004847403
 10
1899.858094700991
 20
960.9973276576841
 10
1899.909929969319
 20
961.1256105624722
 10
1899.946253767875
 20
961.2570806786402
 10
1899.965829133267
 20
961.3872609490634
 10
1899.967989449902
 20
961.5117182407663
 10
1899.95266115079
 20
961.6262143099501
 10
1899.920366222772
 20
961.7268501303014
 10
1899.872204430889
 20
961.8101986696579
 10
1899.838878354304
 20
961.8482529011767
  0
ARC
  5
C0B
330
B32
100
AcDbEntity
  8
0
  6
Continuous
 62
     7
370
    15
100
AcDbCircle
 10
1898.377984292784
 20
958.4621149808723
 30
0.0
 40
1.396889978153218
100
AcDbArc
 50
305.0382063349495
 51
8.748193428426112
  0
LWPOLYLINE
  5
C0C
330
B32
100
AcDbEntity
  8
0
  6
Continuous
 62
     7
370
    15
100
AcDbPolyline
 90
       40
 70
   128
 43
0.0
 10
1900.57237656212
 20
953.9141306337963
 10
1900.573580156231
 20
954.0582503580441
 10
1900.592487102007
 20
954.2087387449445
 10
1900.628607719484
 20
954.3616982243245
 10
1900.681006503641
 20
954.513167226014
 10
1900.748326353493
 20
954.6592227824323
 10
1900.828823720291
 20
954.7960821313877
 10
1900.920413764518
 20
954.9202006876312
 10
1901.020724352138
 20
955.0283638457525
 10
1901.127157491622
 20
955.1177702367715
 10
1901.236956620565
 20
955.1861042821244
 10
1901.347277999203
 20
955.2315961659301
 10
1901.455264361776
 20
955.2530676722943
 10
1901.558118918218
 20
955.2499627004806
 10
1901.653177789544
 20
955.2223616676279
 10
1901.737979000917
 20
955.1709794259888
 10
1901.810326245509
 20
955.0971467486322
 10
1901.868345767686
 20
955.0027758631188
 10
1901.910534892299
 20
954.8903109258128
 10
1901.935800943183
 20
954.7626647195155
 10
1901.943489542891
 20
954.6231432139203
 10
1901.93340156073
 20
954.4753599427346
 10
1901.905798270138
 20
954.3231424150558
 10
1901.861394581842
 20
954.170432984894
 10
1901.801340528045
 20
954.0211867462762
 10
1901.727191477196
 20
953.879269098387
 10
1901.640867850763
 20
953.7483556337605
 10
1901.544605385326
 20
953.6318369423653
 10
1901.440897228176
 20
953.5327307971042
 10
1901.332429366108
 20
953.4536039950809
 10
1901.222011059774
 20
953.3965058789048
 10
1901.112502085308
 20
953.3629152597923
 10
1901.006738667626
 20
953.3537021171344
 10
1900.907460023691
 20
953.3691050664861
 10
1900.817237418233
 20
953.4087251795504
 10
1900.738407569341
 20
953.4715363162103
 10
1900.673012128693
 20
953.5559117010192
 10
1900.622744803852
 20
953.6596660558313
 10
1900.588907492128
 20
953.7801121973563
 10
1900.57237656212
 20
953.9141306337963
  0
LINE
  5
C0D
330
B32
100
AcDbEntity
  8
0
  6
Continuous
 62
     8
370
    15
100
AcDbLine
 10
1890.31575286528
 20
964.7846025812034
 30
0.0
 11
1890.174411076695
 21
964.8449097910127
 31
0.0
  0
LINE
  5
C0E
330
B32
100
AcDbEntity
  8
0
  6
Continuous
 62
     8
370
    15
100
AcDbLine
 10
1890.156590901522
 20
965.1096889196193
 30
0.0
 11
1890.573894076939
 21
964.9316354903696
 31
0.0
  0
LINE
  5
C0F
330
B32
100
AcDbEntity
  8
0
  6
Continuous
 62
     8
370
    15
100
AcDbLine
 10
1890.550583814038
 20
963.4495327340093
 30
0.0
 11
1890.688578926853
 21
963.3906534718713
 31
0.0
  0
LINE
  5
C10
330
B32
100
AcDbEntity
  8
0
  6
Continuous
 62
     8
370
    15
100
AcDbLine
 10
1891.781466607912
 20
964.013143984355
 30
0.0
 11
1890.755758489228
 21
964.4507894629898
 31
0.0
  0
LINE
  5
C11
330
B32
100
AcDbEntity
  8
0
  6
Continuous
 62
     8
370
    15
100
AcDbLine
 10
1891.889804803703
 20
964.6103556716806
 30
0.0
 11
1891.674720143424
 21
964.7021272267462
 31
0.0
  0
LINE
  5
C12
330
B32
100
AcDbEntity
  8
0
  6
Continuous
 62
     8
370
    15
100
AcDbLine
 10
1891.908860535607
 20
964.2645376801803
 30
0.0
 11
1890.72668553136
 21
964.7689438910111
 31
0.0
  0
LINE
  5
C13
330
B32
100
AcDbEntity
  8
0
  6
Continuous
 62
     8
370
    15
100
AcDbLine
 10
1892.71014951459
 20
964.6795878347816
 30
0.0
 11
1892.848145681599
 21
964.6207081228437
 31
0.0
  0
LINE
  5
C14
330
B32
100
AcDbEntity
  8
0
  6
Continuous
 62
     8
370
    15
100
AcDbLine
 10
1893.941028823234
 20
965.2432050540383
 30
0.0
 11
1892.91532408244
 21
965.680849091407
 31
0.0
  0
LINE
  5
C15
330
B32
100
AcDbEntity
  8
0
  6
Continuous
 62
     8
370
    15
100
AcDbLine
 10
1894.049365433261
 20
965.8404070134702
 30
0.0
 11
1893.834249638721
 21
965.9321918527911
 31
0.0
  0
LINE
  5
C16
330
B32
100
AcDbEntity
  8
0
  6
Continuous
 62
     8
370
    15
100
AcDbLine
 10
1894.068421845128
 20
965.4945990151636
 30
0.0
 11
1892.886247314356
 21
965.9990050239738
 31
0.0
  0
ENDBLK
  5
B34
330
B32
100
AcDbEntity
  8
0
100
AcDbBlockEnd
  0
ENDSEC
  0
SECTION
  2
ENTITIES
  0
INSERT
  5
A35
330
1F
100
AcDbEntity
  8
0
100
AcDbBlockReference
  2
1
 10
0.0
 20
0.0
 30
0.0
  0
INSERT
  5
A8B
330
1F
100
AcDbEntity
  8
0
100
AcDbBlockReference
  2
2
 10
0.0
 20
0.0
 30
0.0
  0
INSERT
  5
B31
330
1F
100
AcDbEntity
  8
0
100
AcDbBlockReference
  2
3
 10
0.0
 20
0.0
 30
0.0
  0
INSERT
  5
C17
330
1F
100
AcDbEntity
  8
0
100
AcDbBlockReference
  2
4
 10
0.0
 20
0.0
 30
0.0
  0
ENDSEC
  0
SECTION
  2
OBJECTS
  0
DICTIONARY
  5
C
330
0
100
AcDbDictionary
281
     1
  3
ACAD_COLOR
350
6B
  3
ACAD_GROUP
350
D
  3
ACAD_LAYOUT
350
1A
  3
ACAD_MATERIAL
350
6A
  3
ACAD_MLEADERSTYLE
350
12D
  3
ACAD_MLINESTYLE
350
17
  3
ACAD_PLOTSETTINGS
350
19
  3
ACAD_PLOTSTYLENAME
350
E
  3
ACAD_SCALELIST
350
10C
  3
ACAD_TABLESTYLE
350
7E
  3
ACAD_VISUALSTYLE
350
EF
  3
ACDB_RECOMPOSE_DATA
350
15D
  3
AcDbVariableDictionary
350
5E
  3
DWGPROPS
350
C25
  0
DICTIONARY
  5
13C
330
10
100
AcDbDictionary
280
     1
281
     1
  3
ADSK_XREC_LAYER_RECONCILED
360
C18
  0
DICTIONARY
  5
6B
102
{ACAD_REACTORS
330
C
102
}
330
C
100
AcDbDictionary
281
     1
  0
DICTIONARY
  5
D
102
{ACAD_REACTORS
330
C
102
}
330
C
100
AcDbDictionary
281
     1
  0
DICTIONARY
  5
1A
102
{ACAD_REACTORS
330
C
102
}
330
C
100
AcDbDictionary
281
     1
  3
Layout1
350
D3
  3
Layout2
350
D7
  3
Model
350
22
  0
DICTIONARY
  5
6A
102
{ACAD_REACTORS
330
C
102
}
330
C
100
AcDbDictionary
281
     1
  3
ByBlock
350
ED
  3
ByLayer
350
EC
  3
Global
350
EE
  0
DICTIONARY
  5
12D
102
{ACAD_REACTORS
330
C
102
}
330
C
100
AcDbDictionary
281
     1
  3
Annotative
350
13B
  3
Standard
350
12E
  0
DICTIONARY
  5
17
102
{ACAD_REACTORS
330
C
102
}
330
C
100
AcDbDictionary
281
     1
  3
Standard
350
18
  0
DICTIONARY
  5
19
102
{ACAD_REACTORS
330
C
102
}
330
C
100
AcDbDictionary
281
     1
  0
ACDBDICTIONARYWDFLT
  5
E
102
{ACAD_REACTORS
330
C
102
}
330
C
100
AcDbDictionary
281
     1
  3
Normal
350
F
100
AcDbDictionaryWithDefault
340
F
  0
DICTIONARY
  5
10C
102
{ACAD_REACTORS
330
C
102
}
330
C
100
AcDbDictionary
281
     1
  3
A0
350
10D
  3
A1
350
188
  3
A2
350
189
  3
A3
350
18A
  3
A4
350
18B
  3
A5
350
18C
  3
A6
350
18D
  3
A7
350
18E
  3
A8
350
18F
  3
A9
350
190
  3
B0
350
191
  3
B1
350
192
  3
B2
350
193
  3
B3
350
194
  3
B4
350
195
  3
B5
350
196
  3
B6
350
197
  3
B7
350
198
  3
B8
350
199
  3
B9
350
19A
  3
C0
350
19B
  3
C1
350
19C
  3
C2
350
19D
  3
C3
350
19E
  3
C4
350
19F
  3
C5
350
1A0
  3
C6
350
1A1
  3
C7
350
1A2
  3
C8
350
1A3
  3
C9
350
1A4
  3
D0
350
1A5
  3
D1
350
1A6
  3
D2
350
1A7
  0
DICTIONARY
  5
7E
102
{ACAD_REACTORS
330
C
102
}
330
C
100
AcDbDictionary
281
     1
  3
Standard
350
7F
  0
DICTIONARY
  5
EF
102
{ACAD_REACTORS
330
C
102
}
330
C
100
AcDbDictionary
281
     1
  3
2dWireframe
350
F5
  3
3D Hidden
350
F7
  3
3dWireframe
350
F6
  3
Basic
350
F4
  3
Brighten
350
FB
  3
ColorChange
350
FF
  3
Conceptual
350
F8
  3
Dim
350
FA
  3
Facepattern
350
FE
  3
Flat
350
F0
  3
FlatWithEdges
350
F1
  3
Gouraud
350
F2
  3
GouraudWithEdges
350
F3
  3
Linepattern
350
FD
  3
Realistic
350
F9
  3
Thicken
350
FC
  0
XRECORD
  5
15D
102
{ACAD_REACTORS
330
C
102
}
330
C
100
AcDbXrecord
280
     1
 90
        1
330
7F
  0
DICTIONARY
  5
5E
102
{ACAD_REACTORS
330
C
102
}
330
C
100
AcDbDictionary
281
     1
  3
CANNOSCALE
350
146
  3
CMLEADERSTYLE
350
145
  3
CTABLESTYLE
350
84
  3
DIMASSOC
350
5F
  3
HIDETEXT
350
63
  3
INDEXCTL
350
C21
  3
LIGHTINGUNITS
350
C1F
  3
MSLTSCALE
350
C1E
  3
PSOLHEIGHT
350
C23
  3
PSOLWIDTH
350
C22
  3
SORTENTS
350
C20
  0
XRECORD
  5
C25
102
{ACAD_REACTORS
330
C
102
}
330
C
100
AcDbXrecord
280
     1
  1
DWGPROPS COOKIE
  2

  3

  4

  6

  7

  8
orhan kara
  9

300
=
301
=
302
=
303
=
304
=
305
=
306
=
307
=
308
=
309
=
 40
0.0015430324074074
 41
2458450.462708622
 42
2458956.386845787
  1

 90
        0
  0
XRECORD
  5
C18
102
{ACAD_REACTORS
330
13C
102
}
330
13C
100
AcDbXrecord
280
     1
290
     1
  0
LAYOUT
  5
D3
102
{ACAD_XDICTIONARY
360
C29
102
}
102
{ACAD_REACTORS
330
1A
102
}
330
1A
100
AcDbPlotSettings
  1

  2
C:\Documents and Settings\basas\Application Data\Autodesk\AutoCAD 2005\R16.1\enu\plotters\Default Windows System Printer.pc3
  4

  6

 40
0.0
 41
0.0
 42
0.0
 43
0.0
 44
0.0
 45
0.0
 46
0.0
 47
0.0
 48
0.0
 49
0.0
140
0.0
141
0.0
142
1.0
143
1.0
 70
   688
 72
     0
 73
     0
 74
     5
  7

 75
    16
147
1.0
148
0.0
149
0.0
100
AcDbLayout
  1
Layout1
 70
     1
 71
     1
 10
0.0
 20
0.0
 11
12.0
 21
9.0
 12
0.0
 22
0.0
 32
0.0
 14
0.0
 24
0.0
 34
0.0
 15
0.0
 25
0.0
 35
0.0
146
0.0
 13
0.0
 23
0.0
 33
0.0
 16
1.0
 26
0.0
 36
0.0
 17
0.0
 27
1.0
 37
0.0
 76
     0
330
D2
  0
LAYOUT
  5
D7
102
{ACAD_XDICTIONARY
360
C2B
102
}
102
{ACAD_REACTORS
330
1A
102
}
330
1A
100
AcDbPlotSettings
  1

  2
C:\Documents and Settings\basas\Application Data\Autodesk\AutoCAD 2005\R16.1\enu\plotters\Default Windows System Printer.pc3
  4

  6

 40
0.0
 41
0.0
 42
0.0
 43
0.0
 44
0.0
 45
0.0
 46
0.0
 47
0.0
 48
0.0
 49
0.0
140
0.0
141
0.0
142
1.0
143
1.0
 70
   688
 72
     0
 73
     0
 74
     5
  7

 75
    16
147
1.0
148
0.0
149
0.0
100
AcDbLayout
  1
Layout2
 70
     1
 71
     2
 10
0.0
 20
0.0
 11
12.0
 21
9.0
 12
0.0
 22
0.0
 32
0.0
 14
0.0
 24
0.0
 34
0.0
 15
0.0
 25
0.0
 35
0.0
146
0.0
 13
0.0
 23
0.0
 33
0.0
 16
1.0
 26
0.0
 36
0.0
 17
0.0
 27
1.0
 37
0.0
 76
     0
330
D6
  0
LAYOUT
  5
22
102
{ACAD_XDICTIONARY
360
C26
102
}
102
{ACAD_REACTORS
330
1A
102
}
330
1A
100
AcDbPlotSettings
  1

  2
none_device
  4
ISO_A4_(210.00_x_297.00_MM)
  6

 40
7.5
 41
20.0
 42
7.5
 43
20.0
 44
210.0
 45
297.0
 46
11.54999923706054
 47
-13.65000009536743
 48
0.0
 49
0.0
140
0.0
141
0.0
142
1.0
143
8.704084754739808
 70
 11952
 72
     1
 73
     0
 74
     0
  7

 75
     0
147
0.1148885871608098
148
0.0
149
0.0
100
AcDbLayout
  1
Model
 70
     1
 71
     0
 10
0.0
 20
0.0
 11
12.0
 21
9.0
 12
0.0
 22
0.0
 32
0.0
 14
0.0
 24
0.0
 34
0.0
 15
0.0
 25
0.0
 35
0.0
146
0.0
 13
0.0
 23
0.0
 33
0.0
 16
1.0
 26
0.0
 36
0.0
 17
0.0
 27
1.0
 37
0.0
 76
     0
330
1F
331
EA
1001
ACAD_PSEXT
1000
None
1000
None
1000
Not applicable
1000
The layout will not be plotted unless a new plotter configuration name is selected.
1070
     0
  0
MATERIAL
  5
ED
102
{ACAD_XDICTIONARY
360
C2F
102
}
102
{ACAD_REACTORS
330
6A
102
}
330
6A
100
AcDbMaterial
  1
ByBlock
  0
MATERIAL
  5
EC
102
{ACAD_XDICTIONARY
360
C2D
102
}
102
{ACAD_REACTORS
330
6A
102
}
330
6A
100
AcDbMaterial
  1
ByLayer
  0
MATERIAL
  5
EE
102
{ACAD_XDICTIONARY
360
173
102
}
102
{ACAD_REACTORS
330
6A
102
}
330
6A
100
AcDbMaterial
  1
Global
 43
0.0007999999797903
 43
0.0
 43
0.0
 43
0.0
 43
0.0
 43
0.0007999999797903
 43
0.0
 43
0.0
 43
0.0
 43
0.0
 43
1.0
 43
0.0
 43
0.0
 43
0.0
 43
0.0
 43
1.0
 49
0.0007999999797903
 49
0.0
 49
0.0
 49
0.0
 49
0.0
 49
0.0007999999797903
 49
0.0
 49
0.0
 49
0.0
 49
0.0
 49
1.0
 49
0.0
 49
0.0
 49
0.0
 49
0.0
 49
1.0
142
0.0007999999797903
142
0.0
142
0.0
142
0.0
142
0.0
142
0.0007999999797903
142
0.0
142
0.0
142
0.0
142
0.0
142
1.0
142
0.0
142
0.0
142
0.0
142
0.0
142
1.0
144
0.0007999999797903
144
0.0
144
0.0
144
0.0
144
0.0
144
0.0007999999797903
144
0.0
144
0.0
144
0.0
144
0.0
144
1.0
144
0.0
144
0.0
144
0.0
144
0.0
144
1.0
1001
ACAD
1070
    -1
1070
     3
1070
     0
1000

1071
        0
1070
     0
  0
MLEADERSTYLE
  5
13B
102
{ACAD_REACTORS
330
12D
102
}
330
12D
100
AcDbMLeaderStyle
170
     2
171
     1
172
     0
 90
        2
 40
0.0
 41
0.0
173
     1
 91
-1056964608
340
14
 92
       -2
290
     1
 42
2.0
291
     1
 43
8.0
  3
Standard
 44
4.0
300

342
11
174
     1
178
     1
175
     1
176
     0
 93
-1056964608
 45
4.0
292
     0
297
     0
 46
4.0
 94
-1056964608
 47
1.0
 49
1.0
140
1.0
293
     1
141
0.0
294
     1
177
     0
142
1.0
295
     0
296
     1
143
3.75
1001
ACAD_MLEADERVER
1070
     2
  0
MLEADERSTYLE
  5
12E
102
{ACAD_REACTORS
330
12D
102
}
330
12D
100
AcDbMLeaderStyle
170
     2
171
     1
172
     0
 90
        2
 40
0.0
 41
0.0
173
     1
 91
-1056964608
340
14
 92
       -2
290
     1
 42
2.0
291
     1
 43
8.0
  3
Standard
 44
4.0
300

342
11
174
     1
178
     1
175
     1
176
     0
 93
-1056964608
 45
4.0
292
     0
297
     0
 46
4.0
 94
-1056964608
 47
1.0
 49
1.0
140
1.0
293
     1
141
0.0
294
     1
177
     0
142
1.0
295
     0
296
     0
143
3.75
1001
ACAD_MLEADERVER
1070
     2
  0
MLINESTYLE
  5
18
102
{ACAD_REACTORS
330
17
102
}
330
17
100
AcDbMlineStyle
  2
STANDARD
 70
     0
  3

 62
   256
 51
90.0
 52
90.0
 71
     2
 49
0.5
 62
   256
  6
BYLAYER
 49
-0.5
 62
   256
  6
BYLAYER
  0
ACDBPLACEHOLDER
  5
F
102
{ACAD_REACTORS
330
E
102
}
330
E
  0
SCALE
  5
10D
102
{ACAD_REACTORS
330
10C
102
}
330
10C
100
AcDbScale
 70
     0
300
1:1
140
1.0
141
1.0
290
     1
  0
SCALE
  5
188
102
{ACAD_REACTORS
330
10C
102
}
330
10C
100
AcDbScale
 70
     0
300
1:2
140
1.0
141
2.0
290
     0
  0
SCALE
  5
189
102
{ACAD_REACTORS
330
10C
102
}
330
10C
100
AcDbScale
 70
     0
300
1:4
140
1.0
141
4.0
290
     0
  0
SCALE
  5
18A
102
{ACAD_REACTORS
330
10C
102
}
330
10C
100
AcDbScale
 70
     0
300
1:5
140
1.0
141
5.0
290
     0
  0
SCALE
  5
18B
102
{ACAD_REACTORS
330
10C
102
}
330
10C
100
AcDbScale
 70
     0
300
1:8
140
1.0
141
8.0
290
     0
  0
SCALE
  5
18C
102
{ACAD_REACTORS
330
10C
102
}
330
10C
100
AcDbScale
 70
     0
300
1:10
140
1.0
141
10.0
290
     0
  0
SCALE
  5
18D
102
{ACAD_REACTORS
330
10C
102
}
330
10C
100
AcDbScale
 70
     0
300
1:16
140
1.0
141
16.0
290
     0
  0
SCALE
  5
18E
102
{ACAD_REACTORS
330
10C
102
}
330
10C
100
AcDbScale
 70
     0
300
1:20
140
1.0
141
20.0
290
     0
  0
SCALE
  5
18F
102
{ACAD_REACTORS
330
10C
102
}
330
10C
100
AcDbScale
 70
     0
300
1:30
140
1.0
141
30.0
290
     0
  0
SCALE
  5
190
102
{ACAD_REACTORS
330
10C
102
}
330
10C
100
AcDbScale
 70
     0
300
1:40
140
1.0
141
40.0
290
     0
  0
SCALE
  5
191
102
{ACAD_REACTORS
330
10C
102
}
330
10C
100
AcDbScale
 70
     0
300
1:50
140
1.0
141
50.0
290
     0
  0
SCALE
  5
192
102
{ACAD_REACTORS
330
10C
102
}
330
10C
100
AcDbScale
 70
     0
300
1:100
140
1.0
141
100.0
290
     0
  0
SCALE
  5
193
102
{ACAD_REACTORS
330
10C
102
}
330
10C
100
AcDbScale
 70
     0
300
2:1
140
2.0
141
1.0
290
     0
  0
SCALE
  5
194
102
{ACAD_REACTORS
330
10C
102
}
330
10C
100
AcDbScale
 70
     0
300
4:1
140
4.0
141
1.0
290
     0
  0
SCALE
  5
195
102
{ACAD_REACTORS
330
10C
102
}
330
10C
100
AcDbScale
 70
     0
300
8:1
140
8.0
141
1.0
290
     0
  0
SCALE
  5
196
102
{ACAD_REACTORS
330
10C
102
}
330
10C
100
AcDbScale
 70
     0
300
10:1
140
10.0
141
1.0
290
     0
  0
SCALE
  5
197
102
{ACAD_REACTORS
330
10C
102
}
330
10C
100
AcDbScale
 70
     0
300
100:1
140
100.0
141
1.0
290
     0
  0
SCALE
  5
198
102
{ACAD_REACTORS
330
10C
102
}
330
10C
100
AcDbScale
 70
     0
300
1/128" = 1'-0"
140
0.0078125
141
12.0
290
     0
  0
SCALE
  5
199
102
{ACAD_REACTORS
330
10C
102
}
330
10C
100
AcDbScale
 70
     0
300
1/64" = 1'-0"
140
0.015625
141
12.0
290
     0
  0
SCALE
  5
19A
102
{ACAD_REACTORS
330
10C
102
}
330
10C
100
AcDbScale
 70
     0
300
1/32" = 1'-0"
140
0.03125
141
12.0
290
     0
  0
SCALE
  5
19B
102
{ACAD_REACTORS
330
10C
102
}
330
10C
100
AcDbScale
 70
     0
300
1/16" = 1'-0"
140
0.0625
141
12.0
290
     0
  0
SCALE
  5
19C
102
{ACAD_REACTORS
330
10C
102
}
330
10C
100
AcDbScale
 70
     0
300
3/32" = 1'-0"
140
0.09375
141
12.0
290
     0
  0
SCALE
  5
19D
102
{ACAD_REACTORS
330
10C
102
}
330
10C
100
AcDbScale
 70
     0
300
1/8" = 1'-0"
140
0.125
141
12.0
290
     0
  0
SCALE
  5
19E
102
{ACAD_REACTORS
330
10C
102
}
330
10C
100
AcDbScale
 70
     0
300
3/16" = 1'-0"
140
0.1875
141
12.0
290
     0
  0
SCALE
  5
19F
102
{ACAD_REACTORS
330
10C
102
}
330
10C
100
AcDbScale
 70
     0
300
1/4" = 1'-0"
140
0.25
141
12.0
290
     0
  0
SCALE
  5
1A0
102
{ACAD_REACTORS
330
10C
102
}
330
10C
100
AcDbScale
 70
     0
300
3/8" = 1'-0"
140
0.375
141
12.0
290
     0
  0
SCALE
  5
1A1
102
{ACAD_REACTORS
330
10C
102
}
330
10C
100
AcDbScale
 70
     0
300
1/2" = 1'-0"
140
0.5
141
12.0
290
     0
  0
SCALE
  5
1A2
102
{ACAD_REACTORS
330
10C
102
}
330
10C
100
AcDbScale
 70
     0
300
3/4" = 1'-0"
140
0.75
141
12.0
290
     0
  0
SCALE
  5
1A3
102
{ACAD_REACTORS
330
10C
102
}
330
10C
100
AcDbScale
 70
     0
300
1" = 1'-0"
140
1.0
141
12.0
290
     0
  0
SCALE
  5
1A4
102
{ACAD_REACTORS
330
10C
102
}
330
10C
100
AcDbScale
 70
     0
300
1-1/2" = 1'-0"
140
1.5
141
12.0
290
     0
  0
SCALE
  5
1A5
102
{ACAD_REACTORS
330
10C
102
}
330
10C
100
AcDbScale
 70
     0
300
3" = 1'-0"
140
3.0
141
12.0
290
     0
  0
SCALE
  5
1A6
102
{ACAD_REACTORS
330
10C
102
}
330
10C
100
AcDbScale
 70
     0
300
6" = 1'-0"
140
6.0
141
12.0
290
     0
  0
SCALE
  5
1A7
102
{ACAD_REACTORS
330
10C
102
}
330
10C
100
AcDbScale
 70
     0
300
1'-0" = 1'-0"
140
12.0
141
12.0
290
     0
  0
TABLESTYLE
  5
7F
102
{ACAD_XDICTIONARY
360
162
102
}
102
{ACAD_REACTORS
330
7E
102
}
330
7E
100
AcDbTableStyle
  3
Standard
 70
     0
 71
     0
 40
1.5
 41
1.5
280
     0
281
     0
  7
Standard
140
4.5
170
     2
 62
     0
 63
     7
283
     0
274
    -2
284
     1
 64
     0
275
    -2
285
     1
 65
     0
276
    -2
286
     1
 66
     0
277
    -2
287
     1
 67
     0
278
    -2
288
     1
 68
     0
279
    -2
289
     1
 69
     0
  7
Standard
140
6.0
170
     5
 62
     0
 63
     7
283
     0
274
    -2
284
     1
 64
     0
275
    -2
285
     1
 65
     0
276
    -2
286
     1
 66
     0
277
    -2
287
     1
 67
     0
278
    -2
288
     1
 68
     0
279
    -2
289
     1
 69
     0
  7
Standard
140
4.5
170
     5
 62
     0
 63
     7
283
     0
274
    -2
284
     1
 64
     0
275
    -2
285
     1
 65
     0
276
    -2
286
     1
 66
     0
277
    -2
287
     1
 67
     0
278
    -2
288
     1
 68
     0
279
    -2
289
     1
 69
     0
  0
VISUALSTYLE
  5
F5
102
{ACAD_REACTORS
330
EF
102
}
330
EF
100
AcDbVisualStyle
  2
2dWireframe
 70
     4
 71
     0
 72
     2
 73
     1
 90
        0
 40
-0.6
 41
-30.0
 62
     5
 63
     7
 74
     1
 91
        4
 64
     7
 65
   257
 75
     1
175
     1
 42
1.0
 92
        0
 66
   257
 43
1.0
 76
     1
 77
     6
 78
     2
 67
     7
 79
     5
170
     0
171
     0
290
     0
174
     0
 93
        1
 44
0.0
173
     0
291
     0
 45
0.0
1001
ACAD
1000
AcDbSavedByObjectVersion
1070
     0
  0
VISUALSTYLE
  5
F7
102
{ACAD_REACTORS
330
EF
102
}
330
EF
100
AcDbVisualStyle
  2
3D Hidden
 70
     6
 71
     1
 72
     2
 73
     2
 90
        0
 40
-0.6
 41
-30.0
 62
     5
 63
     7
 74
     2
 91
        2
 64
     7
 65
   257
 75
     2
175
     1
 42
40.0
 92
        0
 66
   257
 43
1.0
 76
     1
 77
     6
 78
     2
 67
     7
 79
     3
170
     0
171
     0
290
     0
174
     0
 93
        1
 44
0.0
173
     0
291
     0
 45
0.0
1001
ACAD
1000
AcDbSavedByObjectVersion
1070
     0
  0
VISUALSTYLE
  5
F6
102
{ACAD_REACTORS
330
EF
102
}
330
EF
100
AcDbVisualStyle
  2
3dWireframe
 70
     5
 71
     0
 72
     2
 73
     1
 90
        0
 40
-0.6
 41
-30.0
 62
     5
 63
     7
 74
     1
 91
        4
 64
     7
 65
   257
 75
     1
175
     1
 42
1.0
 92
        0
 66
   257
 43
1.0
 76
     1
 77
     6
 78
     2
 67
     7
 79
     5
170
     0
171
     0
290
     0
174
     0
 93
        1
 44
0.0
173
     0
291
     0
 45
0.0
1001
ACAD
1000
AcDbSavedByObjectVersion
1070
     0
  0
VISUALSTYLE
  5
F4
102
{ACAD_REACTORS
330
EF
102
}
330
EF
100
AcDbVisualStyle
  2
Basic
 70
     7
 71
     1
 72
     0
 73
     1
 90
        0
 40
-0.6
 41
-30.0
 62
     5
 63
     7
 74
     0
 91
        4
 64
     7
 65
   257
 75
     1
175
     1
 42
1.0
 92
        8
 66
     7
 43
1.0
 76
     1
 77
     6
 78
     2
 67
     7
 79
     5
170
     0
171
     0
290
     0
174
     0
 93
        1
 44
0.0
173
     0
291
     1
 45
0.0
1001
ACAD
1000
AcDbSavedByObjectVersion
1070
     0
  0
VISUALSTYLE
  5
FB
102
{ACAD_REACTORS
330
EF
102
}
330
EF
100
AcDbVisualStyle
  2
Brighten
 70
    12
 71
     2
 72
     2
 73
     1
 90
        0
 40
-0.6
 41
-30.0
 62
     5
 63
     7
 74
     1
 91
        4
 64
     7
 65
   257
 75
     1
175
     1
 42
1.0
 92
        8
 66
     7
 43
1.0
 76
     1
 77
     6
 78
     2
 67
     7
 79
     5
170
     0
171
     0
290
     0
174
     0
 93
        1
 44
50.0
173
     0
291
     1
 45
0.0
1001
ACAD
1000
AcDbSavedByObjectVersion
1070
     0
  0
VISUALSTYLE
  5
FF
102
{ACAD_REACTORS
330
EF
102
}
330
EF
100
AcDbVisualStyle
  2
ColorChange
 70
    16
 71
     2
 72
     2
 73
     3
 90
        0
 40
-0.6
 41
-30.0
 62
     5
 63
     8
 74
     1
 91
        4
 64
     7
 65
   257
 75
     1
175
     1
 42
1.0
 92
        8
 66
     8
 43
1.0
 76
     1
 77
     6
 78
     2
 67
     7
 79
     5
170
     0
171
     0
290
     0
174
     0
 93
        1
 44
0.0
173
     0
291
     1
 45
0.0
1001
ACAD
1000
AcDbSavedByObjectVersion
1070
     0
  0
VISUALSTYLE
  5
F8
102
{ACAD_REACTORS
330
EF
102
}
330
EF
100
AcDbVisualStyle
  2
Conceptual
 70
     9
 71
     3
 72
     2
 73
     1
 90
        0
 40
-0.6
 41
-30.0
 62
     5
 63
     7
 74
     2
 91
        2
 64
     7
 65
   257
 75
     1
175
     1
 42
40.0
 92
        8
 66
     7
 43
1.0
 76
     1
 77
     6
 78
     2
 67
     7
 79
     3
170
     0
171
     0
290
     0
174
     0
 93
        1
 44
0.0
173
     0
291
     0
 45
0.0
1001
ACAD
1000
AcDbSavedByObjectVersion
1070
     0
  0
VISUALSTYLE
  5
FA
102
{ACAD_REACTORS
330
EF
102
}
330
EF
100
AcDbVisualStyle
  2
Dim
 70
    11
 71
     2
 72
     2
 73
     1
 90
        0
 40
-0.6
 41
-30.0
 62
     5
 63
     7
 74
     1
 91
        4
 64
     7
 65
   257
 75
     1
175
     1
 42
1.0
 92
        8
 66
     7
 43
1.0
 76
     1
 77
     6
 78
     2
 67
     7
 79
     5
170
     0
171
     0
290
     0
174
     0
 93
        1
 44
-50.0
173
     0
291
     1
 45
0.0
1001
ACAD
1000
AcDbSavedByObjectVersion
1070
     0
  0
VISUALSTYLE
  5
FE
102
{ACAD_REACTORS
330
EF
102
}
330
EF
100
AcDbVisualStyle
  2
Facepattern
 70
    15
 71
     2
 72
     2
 73
     1
 90
        0
 40
-0.6
 41
-30.0
 62
     5
 63
     7
 74
     1
 91
        4
 64
     7
 65
   257
 75
     1
175
     1
 42
1.0
 92
        8
 66
     7
 43
1.0
 76
     1
 77
     6
 78
     2
 67
     7
 79
     5
170
     0
171
     0
290
     0
174
     0
 93
        1
 44
0.0
173
     0
291
     1
 45
0.0
1001
ACAD
1000
AcDbSavedByObjectVersion
1070
     0
  0
VISUALSTYLE
  5
F0
102
{ACAD_REACTORS
330
EF
102
}
330
EF
100
AcDbVisualStyle
  2
Flat
 70
     0
 71
     2
 72
     1
 73
     1
 90
        2
 40
-0.6
 41
30.0
 62
     5
 63
     7
 74
     0
 91
        4
 64
     7
 65
   257
 75
     1
175
     1
 42
1.0
 92
        8
 66
     7
 43
1.0
 76
     1
 77
     6
 78
     2
 67
     7
 79
     5
170
     0
171
     0
290
     0
174
     0
 93
        1
 44
0.0
173
     0
291
     1
 45
0.0
1001
ACAD
1000
AcDbSavedByObjectVersion
1070
     0
  0
VISUALSTYLE
  5
F1
102
{ACAD_REACTORS
330
EF
102
}
330
EF
100
AcDbVisualStyle
  2
FlatWithEdges
 70
     1
 71
     2
 72
     1
 73
     1
 90
        2
 40
-0.6
 41
30.0
 62
     5
 63
     7
 74
     1
 91
        4
 64
     7
 65
   257
 75
     1
175
     1
 42
1.0
 92
        0
 66
   257
 43
1.0
 76
     1
 77
     6
 78
     2
 67
     7
 79
     5
170
     0
171
     0
290
     0
174
     0
 93
        1
 44
0.0
173
     0
291
     1
 45
0.0
1001
ACAD
1000
AcDbSavedByObjectVersion
1070
     0
  0
VISUALSTYLE
  5
F2
102
{ACAD_REACTORS
330
EF
102
}
330
EF
100
AcDbVisualStyle
  2
Gouraud
 70
     2
 71
     2
 72
     2
 73
     1
 90
        2
 40
-0.6
 41
30.0
 62
     5
 63
     7
 74
     0
 91
        4
 64
     7
 65
   257
 75
     1
175
     1
 42
1.0
 92
        0
 66
     7
 43
1.0
 76
     1
 77
     6
 78
     2
 67
     7
 79
     5
170
     0
171
     0
290
     0
174
     0
 93
        1
 44
0.0
173
     0
291
     1
 45
0.0
1001
ACAD
1000
AcDbSavedByObjectVersion
1070
     0
  0
VISUALSTYLE
  5
F3
102
{ACAD_REACTORS
330
EF
102
}
330
EF
100
AcDbVisualStyle
  2
GouraudWithEdges
 70
     3
 71
     2
 72
     2
 73
     1
 90
        2
 40
-0.6
 41
30.0
 62
     5
 63
     7
 74
     1
 91
        4
 64
     7
 65
   257
 75
     1
175
     1
 42
1.0
 92
        0
 66
   257
 43
1.0
 76
     1
 77
     6
 78
     2
 67
     7
 79
     5
170
     0
171
     0
290
     0
174
     0
 93
        1
 44
0.0
173
     0
291
     1
 45
0.0
1001
ACAD
1000
AcDbSavedByObjectVersion
1070
     0
  0
VISUALSTYLE
  5
FD
102
{ACAD_REACTORS
330
EF
102
}
330
EF
100
AcDbVisualStyle
  2
Linepattern
 70
    14
 71
     2
 72
     2
 73
     1
 90
        0
 40
-0.6
 41
-30.0
 62
     5
 63
     7
 74
     1
 91
        4
 64
     7
 65
   257
 75
     7
175
     7
 42
1.0
 92
        8
 66
     7
 43
1.0
 76
     1
 77
     6
 78
     2
 67
     7
 79
     5
170
     0
171
     0
290
     0
174
     0
 93
        1
 44
0.0
173
     0
291
     1
 45
0.0
1001
ACAD
1000
AcDbSavedByObjectVersion
1070
     0
  0
VISUALSTYLE
  5
F9
102
{ACAD_REACTORS
330
EF
102
}
330
EF
100
AcDbVisualStyle
  2
Realistic
 70
     8
 71
     2
 72
     2
 73
     1
 90
        0
 40
-0.6
 41
-30.0
 62
     5
 63
     7
 74
     1
 91
        0
 64
     7
 65
   257
 75
     1
175
     1
 42
1.0
 92
        8
 66
     8
 43
1.0
 76
     1
 77
     6
 78
     2
 67
     7
 79
     5
170
     0
171
     0
290
     0
174
     0
 93
       13
 44
0.0
173
     0
291
     0
 45
0.0
1001
ACAD
1000
AcDbSavedByObjectVersion
1070
     0
  0
VISUALSTYLE
  5
FC
102
{ACAD_REACTORS
330
EF
102
}
330
EF
100
AcDbVisualStyle
  2
Thicken
 70
    13
 71
     2
 72
     2
 73
     1
 90
        0
 40
-0.6
 41
-30.0
 62
     5
 63
     7
 74
     1
 91
        4
 64
     7
 65
   257
 75
     1
175
     1
 42
1.0
 92
       12
 66
     7
 43
1.0
 76
     1
 77
     6
 78
     2
 67
     7
 79
     5
170
     0
171
     0
290
     0
174
     0
 93
        1
 44
0.0
173
     0
291
     1
 45
0.0
1001
ACAD
1000
AcDbSavedByObjectVersion
1070
     0
  0
DICTIONARYVAR
  5
146
102
{ACAD_REACTORS
330
5E
102
}
330
5E
100
DictionaryVariables
280
     0
  1
1:1
  0
DICTIONARYVAR
  5
145
102
{ACAD_REACTORS
330
5E
102
}
330
5E
100
DictionaryVariables
280
     0
  1
STANDARD
  0
DICTIONARYVAR
  5
84
102
{ACAD_REACTORS
330
5E
102
}
330
5E
100
DictionaryVariables
280
     0
  1
STANDARD
  0
DICTIONARYVAR
  5
5F
102
{ACAD_REACTORS
330
5E
102
}
330
5E
100
DictionaryVariables
280
     0
  1
2
  0
DICTIONARYVAR
  5
63
102
{ACAD_REACTORS
330
5E
102
}
330
5E
100
DictionaryVariables
280
     0
  1
1
  0
DICTIONARYVAR
  5
C21
102
{ACAD_REACTORS
330
5E
102
}
330
5E
100
DictionaryVariables
280
     0
  1
0
  0
DICTIONARYVAR
  5
C1F
102
{ACAD_REACTORS
330
5E
102
}
330
5E
100
DictionaryVariables
280
     0
  1
2
  0
DICTIONARYVAR
  5
C1E
102
{ACAD_REACTORS
330
5E
102
}
330
5E
100
DictionaryVariables
280
     0
  1
1
  0
DICTIONARYVAR
  5
C23
102
{ACAD_REACTORS
330
5E
102
}
330
5E
100
DictionaryVariables
280
     0
  1
80.000000
  0
DICTIONARYVAR
  5
C22
102
{ACAD_REACTORS
330
5E
102
}
330
5E
100
DictionaryVariables
280
     0
  1
5.000000
  0
DICTIONARYVAR
  5
C20
102
{ACAD_REACTORS
330
5E
102
}
330
5E
100
DictionaryVariables
280
     0
  1
127
  0
DICTIONARY
  5
C29
330
D3
100
AcDbDictionary
280
     1
281
     1
  3
ACAD_XREC_ROUNDTRIP
360
C2A
  0
DICTIONARY
  5
C2B
330
D7
100
AcDbDictionary
280
     1
281
     1
  3
ACAD_XREC_ROUNDTRIP
360
C2C
  0
DICTIONARY
  5
C26
330
22
100
AcDbDictionary
280
     1
281
     1
  3
ACAD_XREC_ROUNDTRIP
360
C27
  0
DICTIONARY
  5
C2F
330
ED
100
AcDbDictionary
280
     1
281
     1
  3
ACAD_XREC_ROUNDTRIP
360
C30
  0
DICTIONARY
  5
C2D
330
EC
100
AcDbDictionary
280
     1
281
     1
  3
ACAD_XREC_ROUNDTRIP
360
C2E
  0
DICTIONARY
  5
173
330
EE
100
AcDbDictionary
280
     1
281
     1
  3
ACAD_XREC_ROUNDTRIP
360
C31
  3
BUMPTILE
360
175
  3
DIFFUSETILE
360
174
  3
OPACITYTILE
360
176
  3
REFLECTIONTILE
360
177
  0
DICTIONARY
  5
162
330
7F
100
AcDbDictionary
280
     1
281
     1
  3
ACAD_ROUNDTRIP_2008_TABLESTYLE_CELLSTYLEMAP
360
C24
  3
ACAD_XREC_ROUNDTRIP
360
C28
  0
XRECORD
  5
C2A
102
{ACAD_REACTORS
330
C29
102
}
330
C29
100
AcDbXrecord
280
     1
102
SHADEPLOT
 70
     0
102
SHADEPLOTRESLEVEL
 70
     2
102
SHADEPLOTCUSTOMDPI
 70
   300
  0
XRECORD
  5
C2C
102
{ACAD_REACTORS
330
C2B
102
}
330
C2B
100
AcDbXrecord
280
     1
102
SHADEPLOT
 70
     0
102
SHADEPLOTRESLEVEL
 70
     2
102
SHADEPLOTCUSTOMDPI
 70
   300
  0
XRECORD
  5
C27
102
{ACAD_REACTORS
330
C26
102
}
330
C26
100
AcDbXrecord
280
     1
102
SHADEPLOT
 70
     0
102
SHADEPLOTRESLEVEL
 70
     2
102
SHADEPLOTCUSTOMDPI
 70
   300
  0
XRECORD
  5
C30
102
{ACAD_REACTORS
330
C2F
102
}
330
C2F
100
AcDbXrecord
280
     1
102
MATERIAL
148
0.0
149
0.0
149
0.0
 93
        0
 94
       63
282
     0
 72
     1
 77
     1
171
     1
175
     1
179
     1
273
     0
  0
XRECORD
  5
C2E
102
{ACAD_REACTORS
330
C2D
102
}
330
C2D
100
AcDbXrecord
280
     1
102
MATERIAL
148
0.0
149
0.0
149
0.0
 93
        0
 94
       63
282
     0
 72
     1
 77
     1
171
     1
175
     1
179
     1
273
     0
  0
XRECORD
  5
C31
102
{ACAD_REACTORS
330
173
102
}
330
173
100
AcDbXrecord
280
     1
102
MATERIAL
148
0.0
149
0.0
149
0.0
 93
        0
 94
       63
282
     0
 72
     1
 77
     1
171
     1
175
     1
179
     1
273
     0
  0
XRECORD
  5
175
102
{ACAD_REACTORS
330
173
102
}
330
173
100
AcDbXrecord
280
     1
270
     1
271
     1
  0
XRECORD
  5
174
102
{ACAD_REACTORS
330
173
102
}
330
173
100
AcDbXrecord
280
     1
270
     1
271
     1
  0
XRECORD
  5
176
102
{ACAD_REACTORS
330
173
102
}
330
173
100
AcDbXrecord
280
     1
270
     1
271
     1
  0
XRECORD
  5
177
102
{ACAD_REACTORS
330
173
102
}
330
173
100
AcDbXrecord
280
     1
270
     1
271
     1
  0
CELLSTYLEMAP
  5
C24
102
{ACAD_REACTORS
330
162
102
}
330
162
100
AcDbCellStyleMap
 90
        3
300
CELLSTYLE
  1
TABLEFORMAT_BEGIN
 90
        5
170
     1
 91
        0
 92
    32768
 62
   257
 93
        1
300
CONTENTFORMAT
  1
CONTENTFORMAT_BEGIN
 90
        0
 91
        0
 92
      512
 93
        0
300

 40
0.0
140
1.0
 94
        5
 62
     0
340
11
144
6.0
309
CONTENTFORMAT_END
171
     1
301
MARGIN
  1
CELLMARGIN_BEGIN
 40
1.5
 40
1.5
 40
1.5
 40
1.5
 40
4.5
 40
4.5
309
CELLMARGIN_END
 94
        6
 95
        1
302
GRIDFORMAT
  1
GRIDFORMAT_BEGIN
 90
        0
 91
        1
 62
     0
 92
       -2
340
14
 93
        0
 40
1.125
309
GRIDFORMAT_END
 95
        2
302
GRIDFORMAT
  1
GRIDFORMAT_BEGIN
 90
        0
 91
        1
 62
     0
 92
       -2
340
14
 93
        0
 40
1.125
309
GRIDFORMAT_END
 95
        4
302
GRIDFORMAT
  1
GRIDFORMAT_BEGIN
 90
        0
 91
        1
 62
     0
 92
       -2
340
14
 93
        0
 40
1.125
309
GRIDFORMAT_END
 95
        8
302
GRIDFORMAT
  1
GRIDFORMAT_BEGIN
 90
        0
 91
        1
 62
     0
 92
       -2
340
14
 93
        0
 40
1.125
309
GRIDFORMAT_END
 95
       16
302
GRIDFORMAT
  1
GRIDFORMAT_BEGIN
 90
        0
 91
        1
 62
     0
 92
       -2
340
14
 93
        0
 40
1.125
309
GRIDFORMAT_END
 95
       32
302
GRIDFORMAT
  1
GRIDFORMAT_BEGIN
 90
        0
 91
        1
 62
     0
 92
       -2
340
14
 93
        0
 40
1.125
309
GRIDFORMAT_END
309
TABLEFORMAT_END
  1
CELLSTYLE_BEGIN
 90
        1
 91
        1
300
_TITLE
309
CELLSTYLE_END
300
CELLSTYLE
  1
TABLEFORMAT_BEGIN
 90
        5
170
     1
 91
        0
 92
        0
 62
   257
 93
        1
300
CONTENTFORMAT
  1
CONTENTFORMAT_BEGIN
 90
        0
 91
        0
 92
      512
 93
        0
300

 40
0.0
140
1.0
 94
        5
 62
     0
340
11
144
4.5
309
CONTENTFORMAT_END
171
     1
301
MARGIN
  1
CELLMARGIN_BEGIN
 40
1.5
 40
1.5
 40
1.5
 40
1.5
 40
4.5
 40
4.5
309
CELLMARGIN_END
 94
        6
 95
        1
302
GRIDFORMAT
  1
GRIDFORMAT_BEGIN
 90
        0
 91
        1
 62
     0
 92
       -2
340
14
 93
        0
 40
1.125
309
GRIDFORMAT_END
 95
        2
302
GRIDFORMAT
  1
GRIDFORMAT_BEGIN
 90
        0
 91
        1
 62
     0
 92
       -2
340
14
 93
        0
 40
1.125
309
GRIDFORMAT_END
 95
        4
302
GRIDFORMAT
  1
GRIDFORMAT_BEGIN
 90
        0
 91
        1
 62
     0
 92
       -2
340
14
 93
        0
 40
1.125
309
GRIDFORMAT_END
 95
        8
302
GRIDFORMAT
  1
GRIDFORMAT_BEGIN
 90
        0
 91
        1
 62
     0
 92
       -2
340
14
 93
        0
 40
1.125
309
GRIDFORMAT_END
 95
       16
302
GRIDFORMAT
  1
GRIDFORMAT_BEGIN
 90
        0
 91
        1
 62
     0
 92
       -2
340
14
 93
        0
 40
1.125
309
GRIDFORMAT_END
 95
       32
302
GRIDFORMAT
  1
GRIDFORMAT_BEGIN
 90
        0
 91
        1
 62
     0
 92
       -2
340
14
 93
        0
 40
1.125
309
GRIDFORMAT_END
309
TABLEFORMAT_END
  1
CELLSTYLE_BEGIN
 90
        2
 91
        1
300
_HEADER
309
CELLSTYLE_END
300
CELLSTYLE
  1
TABLEFORMAT_BEGIN
 90
        5
170
     1
 91
        0
 92
        0
 62
   257
 93
        1
300
CONTENTFORMAT
  1
CONTENTFORMAT_BEGIN
 90
        0
 91
        0
 92
      512
 93
        0
300

 40
0.0
140
1.0
 94
        2
 62
     0
340
11
144
4.5
309
CONTENTFORMAT_END
171
     1
301
MARGIN
  1
CELLMARGIN_BEGIN
 40
1.5
 40
1.5
 40
1.5
 40
1.5
 40
4.5
 40
4.5
309
CELLMARGIN_END
 94
        6
 95
        1
302
GRIDFORMAT
  1
GRIDFORMAT_BEGIN
 90
        0
 91
        1
 62
     0
 92
       -2
340
14
 93
        0
 40
1.125
309
GRIDFORMAT_END
 95
        2
302
GRIDFORMAT
  1
GRIDFORMAT_BEGIN
 90
        0
 91
        1
 62
     0
 92
       -2
340
14
 93
        0
 40
1.125
309
GRIDFORMAT_END
 95
        4
302
GRIDFORMAT
  1
GRIDFORMAT_BEGIN
 90
        0
 91
        1
 62
     0
 92
       -2
340
14
 93
        0
 40
1.125
309
GRIDFORMAT_END
 95
        8
302
GRIDFORMAT
  1
GRIDFORMAT_BEGIN
 90
        0
 91
        1
 62
     0
 92
       -2
340
14
 93
        0
 40
1.125
309
GRIDFORMAT_END
 95
       16
302
GRIDFORMAT
  1
GRIDFORMAT_BEGIN
 90
        0
 91
        1
 62
     0
 92
       -2
340
14
 93
        0
 40
1.125
309
GRIDFORMAT_END
 95
       32
302
GRIDFORMAT
  1
GRIDFORMAT_BEGIN
 90
        0
 91
        1
 62
     0
 92
       -2
340
14
 93
        0
 40
1.125
309
GRIDFORMAT_END
309
TABLEFORMAT_END
  1
CELLSTYLE_BEGIN
 90
        3
 91
        2
300
_DATA
309
CELLSTYLE_END
  0
XRECORD
  5
C28
102
{ACAD_REACTORS
330
162
102
}
330
162
100
AcDbXrecord
280
     1
102
ACAD_ROUNDTRIP_PRE2007_TABLESTYLE
 90
      512
 91
        0
  1

 92
      512
 93
        0
  2

 94
      512
 95
        0
  3

  0
ENDSEC
  0
EOF
