  0
SECTION
  2
HEADER
  9
$ACADVER
  1
AC1015
  9
$ACADMAINTVER
 70
    20
  9
$DWGCODEPAGE
  3
ANSI_1254
  9
$INSBASE
 10
0.0
 20
0.0
 30
0.0
  9
$EXTMIN
 10
1697.628250726742
 20
898.4482144703106
 30
0.0
  9
$EXTMAX
 10
1775.443277224373
 20
946.7876770740673
 30
0.0
  9
$LIMMIN
 10
0.0
 20
0.0
  9
$LIMMAX
 10
420.0
 20
297.0
  9
$ORTHOMODE
 70
     1
  9
$REGENMODE
 70
     1
  9
$FILLMODE
 70
     1
  9
$QTEXTMODE
 70
     0
  9
$MIRRTEXT
 70
     0
  9
$LTSCALE
 40
1.0
  9
$ATTMODE
 70
     1
  9
$TEXTSIZE
 40
2.5
  9
$TRACEWID
 40
1.0
  9
$TEXTSTYLE
  7
Standard
  9
$CLAYER
  8
0
  9
$CELTYPE
  6
ByLayer
  9
$CECOLOR
 62
   256
  9
$CELTSCALE
 40
1.0
  9
$DISPSILH
 70
     0
  9
$DIMSCALE
 40
1.0
  9
$DIMASZ
 40
2.5
  9
$DIMEXO
 40
0.625
  9
$DIMDLI
 40
3.75
  9
$DIMRND
 40
0.0
  9
$DIMDLE
 40
0.0
  9
$DIMEXE
 40
1.25
  9
$DIMTP
 40
0.0
  9
$DIMTM
 40
0.0
  9
$DIMTXT
 40
2.5
  9
$DIMCEN
 40
2.5
  9
$DIMTSZ
 40
0.0
  9
$DIMTOL
 70
     0
  9
$DIMLIM
 70
     0
  9
$DIMTIH
 70
     0
  9
$DIMTOH
 70
     0
  9
$DIMSE1
 70
     0
  9
$DIMSE2
 70
     0
  9
$DIMTAD
 70
     1
  9
$DIMZIN
 70
     8
  9
$DIMBLK
  1

  9
$DIMASO
 70
     1
  9
$DIMSHO
 70
     1
  9
$DIMPOST
  1

  9
$DIMAPOST
  1

  9
$DIMALT
 70
     0
  9
$DIMALTD
 70
     3
  9
$DIMALTF
 40
0.03937007874016
  9
$DIMLFAC
 40
1.0
  9
$DIMTOFL
 70
     1
  9
$DIMTVP
 40
0.0
  9
$DIMTIX
 70
     0
  9
$DIMSOXD
 70
     0
  9
$DIMSAH
 70
     0
  9
$DIMBLK1
  1

  9
$DIMBLK2
  1

  9
$DIMSTYLE
  2
ISO-25
  9
$DIMCLRD
 70
     0
  9
$DIMCLRE
 70
     0
  9
$DIMCLRT
 70
     0
  9
$DIMTFAC
 40
1.0
  9
$DIMGAP
 40
0.625
  9
$DIMJUST
 70
     0
  9
$DIMSD1
 70
     0
  9
$DIMSD2
 70
     0
  9
$DIMTOLJ
 70
     0
  9
$DIMTZIN
 70
     8
  9
$DIMALTZ
 70
     0
  9
$DIMALTTZ
 70
     0
  9
$DIMUPT
 70
     0
  9
$DIMDEC
 70
     2
  9
$DIMTDEC
 70
     2
  9
$DIMALTU
 70
     2
  9
$DIMALTTD
 70
     3
  9
$DIMTXSTY
  7
Standard
  9
$DIMAUNIT
 70
     0
  9
$DIMADEC
 70
     0
  9
$DIMALTRND
 40
0.0
  9
$DIMAZIN
 70
     0
  9
$DIMDSEP
 70
    44
  9
$DIMATFIT
 70
     3
  9
$DIMFRAC
 70
     0
  9
$DIMLDRBLK
  1

  9
$DIMLUNIT
 70
     2
  9
$DIMLWD
 70
    -2
  9
$DIMLWE
 70
    -2
  9
$DIMTMOVE
 70
     0
  9
$LUNITS
 70
     2
  9
$LUPREC
 70
     4
  9
$SKETCHINC
 40
1.0
  9
$FILLETRAD
 40
0.0
  9
$AUNITS
 70
     0
  9
$AUPREC
 70
     0
  9
$MENU
  1
.
  9
$ELEVATION
 40
0.0
  9
$PELEVATION
 40
0.0
  9
$THICKNESS
 40
0.0
  9
$LIMCHECK
 70
     0
  9
$CHAMFERA
 40
0.0
  9
$CHAMFERB
 40
0.0
  9
$CHAMFERC
 40
0.0
  9
$CHAMFERD
 40
0.0
  9
$SKPOLY
 70
     0
  9
$TDCREATE
 40
2458451.542943449
  9
$TDUCREATE
 40
2458451.417943449
  9
$TDUPDATE
 40
2458956.386440116
  9
$TDUUPDATE
 40
2458956.261440116
  9
$TDINDWG
 40
0.0009284259
  9
$TDUSRTIMER
 40
0.0009284259
  9
$USRTIMER
 70
     1
  9
$ANGBASE
 50
0.0
  9
$ANGDIR
 70
     0
  9
$PDMODE
 70
     0
  9
$PDSIZE
 40
0.0
  9
$PLINEWID
 40
0.0
  9
$SPLFRAME
 70
     0
  9
$SPLINETYPE
 70
     6
  9
$SPLINESEGS
 70
     8
  9
$HANDSEED
  5
9A5
  9
$SURFTAB1
 70
     6
  9
$SURFTAB2
 70
     6
  9
$SURFTYPE
 70
     6
  9
$SURFU
 70
     6
  9
$SURFV
 70
     6
  9
$UCSBASE
  2

  9
$UCSNAME
  2

  9
$UCSORG
 10
0.0
 20
0.0
 30
0.0
  9
$UCSXDIR
 10
1.0
 20
0.0
 30
0.0
  9
$UCSYDIR
 10
0.0
 20
1.0
 30
0.0
  9
$UCSORTHOREF
  2

  9
$UCSORTHOVIEW
 70
     0
  9
$UCSORGTOP
 10
0.0
 20
0.0
 30
0.0
  9
$UCSORGBOTTOM
 10
0.0
 20
0.0
 30
0.0
  9
$UCSORGLEFT
 10
0.0
 20
0.0
 30
0.0
  9
$UCSORGRIGHT
 10
0.0
 20
0.0
 30
0.0
  9
$UCSORGFRONT
 10
0.0
 20
0.0
 30
0.0
  9
$UCSORGBACK
 10
0.0
 20
0.0
 30
0.0
  9
$PUCSBASE
  2

  9
$PUCSNAME
  2

  9
$PUCSORG
 10
0.0
 20
0.0
 30
0.0
  9
$PUCSXDIR
 10
1.0
 20
0.0
 30
0.0
  9
$PUCSYDIR
 10
0.0
 20
1.0
 30
0.0
  9
$PUCSORTHOREF
  2

  9
$PUCSORTHOVIEW
 70
     0
  9
$PUCSORGTOP
 10
0.0
 20
0.0
 30
0.0
  9
$PUCSORGBOTTOM
 10
0.0
 20
0.0
 30
0.0
  9
$PUCSORGLEFT
 10
0.0
 20
0.0
 30
0.0
  9
$PUCSORGRIGHT
 10
0.0
 20
0.0
 30
0.0
  9
$PUCSORGFRONT
 10
0.0
 20
0.0
 30
0.0
  9
$PUCSORGBACK
 10
0.0
 20
0.0
 30
0.0
  9
$USERI1
 70
     0
  9
$USERI2
 70
     0
  9
$USERI3
 70
     0
  9
$USERI4
 70
     0
  9
$USERI5
 70
     0
  9
$USERR1
 40
0.0
  9
$USERR2
 40
0.0
  9
$USERR3
 40
0.0
  9
$USERR4
 40
0.0
  9
$USERR5
 40
0.0
  9
$WORLDVIEW
 70
     1
  9
$SHADEDGE
 70
     3
  9
$SHADEDIF
 70
    70
  9
$TILEMODE
 70
     1
  9
$MAXACTVP
 70
    64
  9
$PINSBASE
 10
0.0
 20
0.0
 30
0.0
  9
$PLIMCHECK
 70
     0
  9
$PEXTMIN
 10
0.0
 20
0.0
 30
0.0
  9
$PEXTMAX
 10
0.0
 20
0.0
 30
0.0
  9
$PLIMMIN
 10
0.0
 20
0.0
  9
$PLIMMAX
 10
12.0
 20
9.0
  9
$UNITMODE
 70
     0
  9
$VISRETAIN
 70
     1
  9
$PLINEGEN
 70
     0
  9
$PSLTSCALE
 70
     1
  9
$TREEDEPTH
 70
  3020
  9
$CMLSTYLE
  2
Standard
  9
$CMLJUST
 70
     0
  9
$CMLSCALE
 40
20.0
  9
$PROXYGRAPHICS
 70
     1
  9
$MEASUREMENT
 70
     1
  9
$CELWEIGHT
370
    -1
  9
$ENDCAPS
280
     0
  9
$JOINSTYLE
280
     0
  9
$LWDISPLAY
290
     0
  9
$INSUNITS
 70
     4
  9
$HYPERLINKBASE
  1

  9
$STYLESHEET
  1

  9
$XEDIT
290
     1
  9
$CEPSNTYPE
380
     0
  9
$PSTYLEMODE
290
     1
  9
$FINGERPRINTGUID
  2
{F457B395-075C-4E2D-BF9C-CA5B4F853695}
  9
$VERSIONGUID
  2
{D975B7E6-1CF8-4F94-82C5-F4CAE16EA8CB}
  9
$EXTNAMES
290
     1
  9
$PSVPSCALE
 40
0.0
  9
$OLESTARTUP
290
     0
  0
ENDSEC
  0
SECTION
  2
CLASSES
  0
CLASS
  1
ACDBDICTIONARYWDFLT
  2
AcDbDictionaryWithDefault
  3
ObjectDBX Classes
 90
        0
280
     0
281
     0
  0
CLASS
  1
ACDBPLACEHOLDER
  2
AcDbPlaceHolder
  3
ObjectDBX Classes
 90
        0
280
     0
281
     0
  0
CLASS
  1
LAYOUT
  2
AcDbLayout
  3
ObjectDBX Classes
 90
        0
280
     0
281
     0
  0
CLASS
  1
DICTIONARYVAR
  2
AcDbDictionaryVar
  3
ObjectDBX Classes
 90
        0
280
     0
281
     0
  0
CLASS
  1
TABLESTYLE
  2
AcDbTableStyle
  3
ObjectDBX Classes
 90
     4095
280
     0
281
     0
  0
CLASS
  1
MATERIAL
  2
AcDbMaterial
  3
ObjectDBX Classes
 90
     1153
280
     0
281
     0
  0
CLASS
  1
VISUALSTYLE
  2
AcDbVisualStyle
  3
ObjectDBX Classes
 90
     4095
280
     0
281
     0
  0
CLASS
  1
SCALE
  2
AcDbScale
  3
ObjectDBX Classes
 90
     1153
280
     0
281
     0
  0
CLASS
  1
MLEADERSTYLE
  2
AcDbMLeaderStyle
  3
ACDB_MLEADERSTYLE_CLASS
 90
     4095
280
     0
281
     0
  0
CLASS
  1
CELLSTYLEMAP
  2
AcDbCellStyleMap
  3
ObjectDBX Classes
 90
     1152
280
     0
281
     0
  0
CLASS
  1
ACAD_EVALUATION_GRAPH
  2
AcDbEvalGraph
  3
ObjectDBX Classes
 90
    33921
280
     0
281
     0
  0
CLASS
  1
ACAECUSTOBJ
  2
AcAeEditorObj
  3
AcAeEditorObj
 90
    33792
280
     0
281
     0
  0
CLASS
  1
ACDB_DYNAMICBLOCKPURGEPREVENTER_VERSION
  2
AcDbDynamicBlockPurgePreventer
  3
ObjectDBX Classes
 90
    33921
280
     0
281
     0
  0
ENDSEC
  0
SECTION
  2
TABLES
  0
TABLE
  2
VPORT
  5
8
330
0
100
AcDbSymbolTable
 70
     1
  0
VPORT
  5
EA
330
8
100
AcDbSymbolTableRecord
100
AcDbViewportTableRecord
  2
*Active
 70
     0
 10
0.0
 20
0.0
 11
1.0
 21
1.0
 12
1736.551338691096
 22
925.3964341369991
 13
0.0
 23
0.0
 14
10.0
 24
10.0
 15
10.0
 25
10.0
 16
0.0
 26
0.0
 36
1.0
 17
0.0
 27
0.0
 37
0.0
 40
54.30909940170944
 41
1.90311004784689
 42
50.0
 43
0.0
 44
0.0
 50
0.0
 51
0.0
 71
     0
 72
  1000
 73
     1
 74
     3
 75
     0
 76
     0
 77
     0
 78
     0
281
     0
 65
     1
110
0.0
120
0.0
130
0.0
111
1.0
121
0.0
131
0.0
112
0.0
122
1.0
132
0.0
 79
     0
146
0.0
  0
ENDTAB
  0
TABLE
  2
LTYPE
  5
5
330
0
100
AcDbSymbolTable
 70
     1
  0
LTYPE
  5
14
330
5
100
AcDbSymbolTableRecord
100
AcDbLinetypeTableRecord
  2
ByBlock
 70
     0
  3

 72
    65
 73
     0
 40
0.0
  0
LTYPE
  5
15
330
5
100
AcDbSymbolTableRecord
100
AcDbLinetypeTableRecord
  2
ByLayer
 70
     0
  3

 72
    65
 73
     0
 40
0.0
  0
LTYPE
  5
16
330
5
100
AcDbSymbolTableRecord
100
AcDbLinetypeTableRecord
  2
Continuous
 70
     0
  3
Solid line
 72
    65
 73
     0
 40
0.0
  0
ENDTAB
  0
TABLE
  2
LAYER
  5
2
330
0
100
AcDbSymbolTable
 70
     1
  0
LAYER
  5
10
102
{ACAD_XDICTIONARY
360
13C
102
}
330
2
100
AcDbSymbolTableRecord
100
AcDbLayerTableRecord
  2
0
 70
     0
 62
     7
  6
Continuous
370
    -3
390
F
  0
ENDTAB
  0
TABLE
  2
STYLE
  5
3
330
0
100
AcDbSymbolTable
 70
     2
  0
STYLE
  5
11
330
3
100
AcDbSymbolTableRecord
100
AcDbTextStyleTableRecord
  2
Standard
 70
     0
 40
0.0
 41
1.0
 50
0.0
 71
     0
 42
2.5
  3
txt
  4

  0
STYLE
  5
132
330
3
100
AcDbSymbolTableRecord
100
AcDbTextStyleTableRecord
  2
Annotative
 70
     0
 40
0.0
 41
1.0
 50
0.0
 71
     0
 42
2.5
  3
txt.shx
  4

1001
AcadAnnotative
1000
AnnotativeData
1002
{
1070
     1
1070
     1
1002
}
  0
ENDTAB
  0
TABLE
  2
VIEW
  5
6
330
0
100
AcDbSymbolTable
 70
     0
  0
ENDTAB
  0
TABLE
  2
UCS
  5
7
330
0
100
AcDbSymbolTable
 70
     0
  0
ENDTAB
  0
TABLE
  2
APPID
  5
9
330
0
100
AcDbSymbolTable
 70
    11
  0
APPID
  5
12
330
9
100
AcDbSymbolTableRecord
100
AcDbRegAppTableRecord
  2
ACAD
 70
     0
  0
APPID
  5
9E
330
9
100
AcDbSymbolTableRecord
100
AcDbRegAppTableRecord
  2
ACAD_PSEXT
 70
     0
  0
APPID
  5
133
330
9
100
AcDbSymbolTableRecord
100
AcDbRegAppTableRecord
  2
AcadAnnoPO
 70
     0
  0
APPID
  5
134
330
9
100
AcDbSymbolTableRecord
100
AcDbRegAppTableRecord
  2
AcadAnnotative
 70
     0
  0
APPID
  5
135
330
9
100
AcDbSymbolTableRecord
100
AcDbRegAppTableRecord
  2
ACAD_DSTYLE_DIMJAG
 70
     0
  0
APPID
  5
136
330
9
100
AcDbSymbolTableRecord
100
AcDbRegAppTableRecord
  2
ACAD_DSTYLE_DIMTALN
 70
     0
  0
APPID
  5
165
330
9
100
AcDbSymbolTableRecord
100
AcDbRegAppTableRecord
  2
ACAD_MLEADERVER
 70
     0
  0
APPID
  5
984
330
9
100
AcDbSymbolTableRecord
100
AcDbRegAppTableRecord
  2
ACAUTHENVIRON
 70
     0
  0
APPID
  5
988
330
9
100
AcDbSymbolTableRecord
100
AcDbRegAppTableRecord
  2
AcDbDynamicBlockTrueName
 70
     0
  0
APPID
  5
989
330
9
100
AcDbSymbolTableRecord
100
AcDbRegAppTableRecord
  2
AcDbDynamicBlockGUID
 70
     0
  0
APPID
  5
98B
330
9
100
AcDbSymbolTableRecord
100
AcDbRegAppTableRecord
  2
AcDbBlockRepETag
 70
     0
  0
ENDTAB
  0
TABLE
  2
DIMSTYLE
  5
A
330
0
100
AcDbSymbolTable
 70
     2
100
AcDbDimStyleTable
 71
     2
340
27
340
137
  0
DIMSTYLE
105
27
330
A
100
AcDbSymbolTableRecord
100
AcDbDimStyleTableRecord
  2
ISO-25
 70
     0
 41
2.5
 42
0.625
 43
3.75
 44
1.25
 73
     0
 74
     0
 77
     1
 78
     8
140
2.5
141
2.5
143
0.03937007874016
147
0.625
171
     3
172
     1
271
     2
272
     2
274
     3
278
    44
283
     0
284
     8
340
11
  0
DIMSTYLE
105
137
330
A
100
AcDbSymbolTableRecord
100
AcDbDimStyleTableRecord
  2
Annotative
 70
     0
 40
0.0
 41
2.5
 42
0.625
 43
3.75
 44
1.25
 73
     0
 74
     0
 77
     1
 78
     8
140
2.5
141
2.5
143
0.03937007874016
147
0.625
171
     3
172
     1
271
     2
272
     2
274
     3
278
    44
283
     0
284
     8
340
11
1001
AcadAnnotative
1000
AnnotativeData
1002
{
1070
     1
1070
     1
1002
}
1001
ACAD_DSTYLE_DIMJAG
1070
   388
1040
1.5
1001
ACAD_DSTYLE_DIMTALN
1070
   392
1070
     0
  0
ENDTAB
  0
TABLE
  2
BLOCK_RECORD
  5
1
330
0
100
AcDbSymbolTable
 70
     5
  0
BLOCK_RECORD
  5
1F
330
1
100
AcDbSymbolTableRecord
100
AcDbBlockTableRecord
  2
*Model_Space
340
22
  0
BLOCK_RECORD
  5
D2
330
1
100
AcDbSymbolTableRecord
100
AcDbBlockTableRecord
  2
*Paper_Space
340
D3
  0
BLOCK_RECORD
  5
D6
330
1
100
AcDbSymbolTableRecord
100
AcDbBlockTableRecord
  2
*Paper_Space0
340
D7
  0
BLOCK_RECORD
  5
691
102
{ACAD_XDICTIONARY
360
985
102
}
330
1
100
AcDbSymbolTableRecord
100
AcDbBlockTableRecord
  2
1
340
0
310
2800000020000000200000000100080000000000000400000000000000000000000000000000000000000000000080000080000000808000800000008000800080800000C0C0C000C0DCC000F0CAA6000020400000206000002080000020A0000020C0000020E00000400000004020000040400000406000004080000040A0
310
000040C0000040E00000600000006020000060400000606000006080000060A0000060C0000060E00000800000008020000080400000806000008080000080A0000080C0000080E00000A0000000A0200000A0400000A0600000A0800000A0A00000A0C00000A0E00000C0000000C0200000C0400000C0600000C0800000C0
310
A00000C0C00000C0E00000E0000000E0200000E0400000E0600000E0800000E0A00000E0C00000E0E00040000000400020004000400040006000400080004000A0004000C0004000E00040200000402020004020400040206000402080004020A0004020C0004020E000404000004040200040404000404060004040800040
310
40A0004040C0004040E00040600000406020004060400040606000406080004060A0004060C0004060E00040800000408020004080400040806000408080004080A0004080C0004080E00040A0000040A0200040A0400040A0600040A0800040A0A00040A0C00040A0E00040C0000040C0200040C0400040C0600040C08000
310
40C0A00040C0C00040C0E00040E0000040E0200040E0400040E0600040E0800040E0A00040E0C00040E0E00080000000800020008000400080006000800080008000A0008000C0008000E00080200000802020008020400080206000802080008020A0008020C0008020E00080400000804020008040400080406000804080
310
008040A0008040C0008040E00080600000806020008060400080606000806080008060A0008060C0008060E00080800000808020008080400080806000808080008080A0008080C0008080E00080A0000080A0200080A0400080A0600080A0800080A0A00080A0C00080A0E00080C0000080C0200080C0400080C0600080C0
310
800080C0A00080C0C00080C0E00080E0000080E0200080E0400080E0600080E0800080E0A00080E0C00080E0E000C0000000C0002000C0004000C0006000C0008000C000A000C000C000C000E000C0200000C0202000C0204000C0206000C0208000C020A000C020C000C020E000C0400000C0402000C0404000C0406000C0
310
408000C040A000C040C000C040E000C0600000C0602000C0604000C0606000C0608000C060A000C060C000C060E000C0800000C0802000C0804000C0806000C0808000C080A000C080C000C080E000C0A00000C0A02000C0A04000C0A06000C0A08000C0A0A000C0A0C000C0A0E000C0C00000C0C02000C0C04000C0C06000
310
C0C08000C0C0A000F0FBFF00A4A0A000808080000000FF0000FF000000FFFF00FF000000FF00FF00FFFF0000FFFFFF00000000000000000000000000000000000000000000000000000000000000000000000000FFFFFFFF00000000000000000000000000000000FFFFFFFF00000000000000FF00000000FF000000000000
310
0000000000000000FF00000000FF000000000000FF00000000FF0000000000000000000000000000FF00000000FF000000000000FF0000FFFFFF0000000000000000000000000000FFFFFF0000FF000000000000FFFFFFFFFFFFFFFFFFFFFFFFFFFFFFFFFFFFFFFFFFFFFFFFFFFF0000000000000000FFFFFFFF0000000000
310
000000000000000000FFFF00FF000000000000000000FFFF00FFFFFF000000000000000000000000FFFFFF00FFFF0000000000000000FFFFFFFFFFFF000000000000000000000000FFFFFFFFFFFF00000000000000FF000000000000000000000000000000000000000000000000FF000000000000FF000000000000000000
310
000000000000000000000000000000FF000000000000FF000000000000000000000000000000000000000000000000FF000000000000FF000000000000000000000000000000000000000000000000FF000000000000FFFF00000000000000000000000000000000000000000000FFFF00000000000000FF00000000000000
310
000000000000000000000000000000FF0000000000000000FF00000000000000000000000000000000000000000000FF0000000000000000FF00000000000000000000000000000000000000000000FF0000000000000000FF00000000000000000000000000000000000000000000FF0000000000000000FF000000000000
310
00000000000000000000000000000000FF00000000000000FFFF00000000000000000000000000000000000000000000FFFF000000000000FF000000000000000000000000000000000000000000000000FF000000000000FF000000000000000000000000000000000000000000000000FF00000000000000FF0000000000
310
0000000000000000000000000000000000FF0000000000000000FF00000000000000000000000000000000000000000000FF000000000000000000FF0000000000000000000000000000000000000000FF00000000000000000000FF0000000000000000000000000000000000000000FF0000000000000000000000FF0000
310
00000000000000000000000000000000FF000000000000000000000000FF000000000000FFFFFFFFFFFF000000000000FF00000000000000000000000000FF0000000000FF00000000FF0000000000FF000000000000000000000000000000FFFF0000FFFF00000000FFFF0000FFFF00000000000000000000000000000000
310
0000FFFFFF000000000000FFFFFF000000000000000000000000000000000000000000000000000000000000000000000000000000000000
102
{BLKREFS
331
6FE
102
}
1001
AcDbDynamicBlockGUID
1000
{B61B2B11-AB6B-4B64-B697-30AF511EA886}
1001
AcDbBlockRepETag
1070
     1
1071
      106
1001
ACAD
1000
DesignCenter Data
1002
{
1070
     1
1070
     4
1002
}
  0
BLOCK_RECORD
  5
6FF
330
1
100
AcDbSymbolTableRecord
100
AcDbBlockTableRecord
  2
2
340
0
310
2800000020000000200000000100080000000000000400000000000000000000000000000000000000000000000080000080000000808000800000008000800080800000C0C0C000C0DCC000F0CAA6000020400000206000002080000020A0000020C0000020E00000400000004020000040400000406000004080000040A0
310
000040C0000040E00000600000006020000060400000606000006080000060A0000060C0000060E00000800000008020000080400000806000008080000080A0000080C0000080E00000A0000000A0200000A0400000A0600000A0800000A0A00000A0C00000A0E00000C0000000C0200000C0400000C0600000C0800000C0
310
A00000C0C00000C0E00000E0000000E0200000E0400000E0600000E0800000E0A00000E0C00000E0E00040000000400020004000400040006000400080004000A0004000C0004000E00040200000402020004020400040206000402080004020A0004020C0004020E000404000004040200040404000404060004040800040
310
40A0004040C0004040E00040600000406020004060400040606000406080004060A0004060C0004060E00040800000408020004080400040806000408080004080A0004080C0004080E00040A0000040A0200040A0400040A0600040A0800040A0A00040A0C00040A0E00040C0000040C0200040C0400040C0600040C08000
310
40C0A00040C0C00040C0E00040E0000040E0200040E0400040E0600040E0800040E0A00040E0C00040E0E00080000000800020008000400080006000800080008000A0008000C0008000E00080200000802020008020400080206000802080008020A0008020C0008020E00080400000804020008040400080406000804080
310
008040A0008040C0008040E00080600000806020008060400080606000806080008060A0008060C0008060E00080800000808020008080400080806000808080008080A0008080C0008080E00080A0000080A0200080A0400080A0600080A0800080A0A00080A0C00080A0E00080C0000080C0200080C0400080C0600080C0
310
800080C0A00080C0C00080C0E00080E0000080E0200080E0400080E0600080E0800080E0A00080E0C00080E0E000C0000000C0002000C0004000C0006000C0008000C000A000C000C000C000E000C0200000C0202000C0204000C0206000C0208000C020A000C020C000C020E000C0400000C0402000C0404000C0406000C0
310
408000C040A000C040C000C040E000C0600000C0602000C0604000C0606000C0608000C060A000C060C000C060E000C0800000C0802000C0804000C0806000C0808000C080A000C080C000C080E000C0A00000C0A02000C0A04000C0A06000C0A08000C0A0A000C0A0C000C0A0E000C0C00000C0C02000C0C04000C0C06000
310
C0C08000C0C0A000F0FBFF00A4A0A000808080000000FF0000FF000000FFFF00FF000000FF00FF00FFFF0000FFFFFF000000000000000000000000000000000000000000000000000000000000000000000000000000000000000000FFFFFFFFFFFFFFFF000000000000000000000000000000000000000000000000FFFFFF
310
FFFFFFFFFF000000000000000000000000000000000000000000000000FF000000000000FF000000000000000000000000000000000000000000000000FF000000000000FF000000000000000000000000000000000000000000000000FFFFFFFFFFFFFFFF000000000000000000000000000000000000000000000000FF00
310
0000000000FF000000000000000000000000000000000000000000000000FF000000000000FF000000000000000000000000000000000000000000000000FF000000000000FF000000000000000000000000000000000000000000000000FF000000000000FF000000000000000000000000000000000000000000000000FF
310
FFFFFFFFFFFFFF000000000000000000000000000000000000000000000000FFFFFFFFFFFFFFFF000000000000000000000000000000000000000000000000FF000000000000FF000000000000000000000000000000000000000000000000FFFFFFFFFFFFFFFF000000000000000000000000000000000000000000000000
310
FFFFFFFFFFFFFFFF000000000000000000000000000000000000000000000000FF000000000000FF000000000000000000000000000000000000000000000000FF000000000000FF000000000000000000000000000000000000000000000000FF000000000000FF0000000000000000000000000000000000000000000000
310
00FF000000000000FF000000000000000000000000000000000000000000000000FFFFFFFFFFFFFFFF000000000000000000000000000000000000000000000000FF000000000000FF000000000000000000000000000000000000000000000000FFFFFFFFFFFFFFFF00000000000000000000000000000000000000000000
310
0000FF00FFFFFFFF00FF000000000000000000000000000000000000000000000000FFFFFF0000FFFFFF000000000000000000000000000000000000000000000000FFFF00000000FFFF000000000000000000000000000000000000000000000000FFFF00000000FFFF000000000000000000000000000000000000000000
310
000000FFFF00000000FFFF000000000000000000000000000000000000000000000000FFFFFF0000FFFFFF000000000000000000000000000000000000000000000000FFFFFFFFFFFFFFFF000000000000000000000000000000000000000000000000FFFFFFFFFFFFFFFF0000000000000000000000000000000000000000
310
00000000FFFFFFFFFFFFFFFF0000000000000000000000000000000000000000000000000000000000000000000000000000000000000000
102
{BLKREFS
331
749
102
}
1001
ACAD
1000
DesignCenter Data
1002
{
1070
     1
1070
     4
1002
}
  0
BLOCK_RECORD
  5
74A
330
1
100
AcDbSymbolTableRecord
100
AcDbBlockTableRecord
  2
3
340
0
310
2800000020000000200000000100080000000000000400000000000000000000000000000000000000000000000080000080000000808000800000008000800080800000C0C0C000C0DCC000F0CAA6000020400000206000002080000020A0000020C0000020E00000400000004020000040400000406000004080000040A0
310
000040C0000040E00000600000006020000060400000606000006080000060A0000060C0000060E00000800000008020000080400000806000008080000080A0000080C0000080E00000A0000000A0200000A0400000A0600000A0800000A0A00000A0C00000A0E00000C0000000C0200000C0400000C0600000C0800000C0
310
A00000C0C00000C0E00000E0000000E0200000E0400000E0600000E0800000E0A00000E0C00000E0E00040000000400020004000400040006000400080004000A0004000C0004000E00040200000402020004020400040206000402080004020A0004020C0004020E000404000004040200040404000404060004040800040
310
40A0004040C0004040E00040600000406020004060400040606000406080004060A0004060C0004060E00040800000408020004080400040806000408080004080A0004080C0004080E00040A0000040A0200040A0400040A0600040A0800040A0A00040A0C00040A0E00040C0000040C0200040C0400040C0600040C08000
310
40C0A00040C0C00040C0E00040E0000040E0200040E0400040E0600040E0800040E0A00040E0C00040E0E00080000000800020008000400080006000800080008000A0008000C0008000E00080200000802020008020400080206000802080008020A0008020C0008020E00080400000804020008040400080406000804080
310
008040A0008040C0008040E00080600000806020008060400080606000806080008060A0008060C0008060E00080800000808020008080400080806000808080008080A0008080C0008080E00080A0000080A0200080A0400080A0600080A0800080A0A00080A0C00080A0E00080C0000080C0200080C0400080C0600080C0
310
800080C0A00080C0C00080C0E00080E0000080E0200080E0400080E0600080E0800080E0A00080E0C00080E0E000C0000000C0002000C0004000C0006000C0008000C000A000C000C000C000E000C0200000C0202000C0204000C0206000C0208000C020A000C020C000C020E000C0400000C0402000C0404000C0406000C0
310
408000C040A000C040C000C040E000C0600000C0602000C0604000C0606000C0608000C060A000C060C000C060E000C0800000C0802000C0804000C0806000C0808000C080A000C080C000C080E000C0A00000C0A02000C0A04000C0A06000C0A08000C0A0A000C0A0C000C0A0E000C0C00000C0C02000C0C04000C0C06000
310
C0C08000C0C0A000F0FBFF00A4A0A000808080000000FF0000FF000000FFFF00FF000000FF00FF00FFFF0000FFFFFF0000000000000000000000000000000000000000000000000000000000000000000000000000000000000000000000000000000000000000000000000000000000000000000000000000000000000000
310
00000000000000000000000000000000000000000000000000000000000000000000000000000000000000000000000000000000000000000000000000000000000000000000000000000000000000000000000000000000000000000000000000000000000000000000000000000000000000000000000000000000000000
310
00000000000000000000000000000000000000000000000000000000000000000000000000000000000000000000000000000000000000000000000000000000000000000000000000000000000000000000000000000000000000000000000000000000000000000000000000000000000000000000000000000000000000
310
00000000000000000000000000000000000000000000000000000000000000000000000000000000000000000000000000000000FFFFFFFFFFFFFFFFFFFFFFFFFFFFFFFFFFFFFFFFFFFFFFFFFFFFFFFFFFFF0000FFFFFFFFFFFFFFFFFFFFFFFFFFFF0000FFFFFFFFFFFFFFFFFFFFFFFFFFFF0000FFFFFF0000FFFFFFFF00FF
310
FFFFFF0000FFFFFFFF00FFFFFFFFFF0000FFFF0000FFFF000000FFFFFFFFFFFFFFFFFF0000FFFFFFFFFFFFFFFFFFFF0000FFFF0000FFFF000000FFFFFFFFFFFFFFFFFF0000FFFFFFFFFFFFFFFFFFFF0000FFFF0000FFFFFF0000FFFFFFFF00FFFFFFFF0000FFFFFFFF00FFFFFFFFFF0000FFFF0000FFFFFFFFFFFFFFFFFFFF
310
FFFFFFFF0000FFFFFFFFFFFFFFFFFFFFFFFFFFFF0000FFFFFFFFFFFFFFFFFFFFFFFFFFFFFFFFFFFFFFFFFFFFFFFFFFFFFFFFFFFF000000000000000000000000000000000000000000000000000000000000000000000000000000000000000000000000000000000000000000000000000000000000000000000000000000
310
00000000000000000000000000000000000000000000000000000000000000000000000000000000000000000000000000000000000000000000000000000000000000000000000000000000000000000000000000000000000000000000000000000000000000000000000000000000000000000000000000000000000000
310
00000000000000000000000000000000000000000000000000000000000000000000000000000000000000000000000000000000000000000000000000000000000000000000000000000000000000000000000000000000000000000000000000000000000000000000000000000000000000000000000000000000000000
310
0000000000000000000000000000000000000000000000000000000000000000000000000000000000000000000000000000000000000000
102
{BLKREFS
331
7DF
102
}
1001
ACAD
1000
DesignCenter Data
1002
{
1070
     1
1070
     4
1002
}
  0
BLOCK_RECORD
  5
7E0
330
1
100
AcDbSymbolTableRecord
100
AcDbBlockTableRecord
  2
4
340
0
310
2800000020000000200000000100080000000000000400000000000000000000000000000000000000000000000080000080000000808000800000008000800080800000C0C0C000C0DCC000F0CAA6000020400000206000002080000020A0000020C0000020E00000400000004020000040400000406000004080000040A0
310
000040C0000040E00000600000006020000060400000606000006080000060A0000060C0000060E00000800000008020000080400000806000008080000080A0000080C0000080E00000A0000000A0200000A0400000A0600000A0800000A0A00000A0C00000A0E00000C0000000C0200000C0400000C0600000C0800000C0
310
A00000C0C00000C0E00000E0000000E0200000E0400000E0600000E0800000E0A00000E0C00000E0E00040000000400020004000400040006000400080004000A0004000C0004000E00040200000402020004020400040206000402080004020A0004020C0004020E000404000004040200040404000404060004040800040
310
40A0004040C0004040E00040600000406020004060400040606000406080004060A0004060C0004060E00040800000408020004080400040806000408080004080A0004080C0004080E00040A0000040A0200040A0400040A0600040A0800040A0A00040A0C00040A0E00040C0000040C0200040C0400040C0600040C08000
310
40C0A00040C0C00040C0E00040E0000040E0200040E0400040E0600040E0800040E0A00040E0C00040E0E00080000000800020008000400080006000800080008000A0008000C0008000E00080200000802020008020400080206000802080008020A0008020C0008020E00080400000804020008040400080406000804080
310
008040A0008040C0008040E00080600000806020008060400080606000806080008060A0008060C0008060E00080800000808020008080400080806000808080008080A0008080C0008080E00080A0000080A0200080A0400080A0600080A0800080A0A00080A0C00080A0E00080C0000080C0200080C0400080C0600080C0
310
800080C0A00080C0C00080C0E00080E0000080E0200080E0400080E0600080E0800080E0A00080E0C00080E0E000C0000000C0002000C0004000C0006000C0008000C000A000C000C000C000E000C0200000C0202000C0204000C0206000C0208000C020A000C020C000C020E000C0400000C0402000C0404000C0406000C0
310
408000C040A000C040C000C040E000C0600000C0602000C0604000C0606000C0608000C060A000C060C000C060E000C0800000C0802000C0804000C0806000C0808000C080A000C080C000C080E000C0A00000C0A02000C0A04000C0A06000C0A08000C0A0A000C0A0C000C0A0E000C0C00000C0C02000C0C04000C0C06000
310
C0C08000C0C0A000F0FBFF00A4A0A000808080000000FF0000FF000000FFFF00FF000000FF00FF00FFFF0000FFFFFF00000000000000000000000000000000000000000000000000000000000000000000000000000000000000000000000000000000000000FF000000000000000000000000000000000000000000000000
310
0000000000FFFFFFFF000000000000000000000000000000000000000000000000000000FF00FFFFFFFFFF00000000000000000000000000000000000000000000000000FFFFFFFF0000FFFF0000000000000000000000000000000000000000000000FFFFFFFF00FFFF00FF00000000000000000000000000000000000000
310
0000FFFF00FFFFFFFF00FFFFFF00000000000000000000000000FFFF000000FFFFFF0000FFFFFFFFFF00FFFF000000000000000000000000FFFF00FFA4FFFF0000000000FFFF0000FF0000FF0000000000000000000000FFFFFFFFFFFF0000000000000000000000FFFFFF00FF00000000000000000000FFFFFFFFFF000000
310
000000000000000000FF00FFFFFF00000000000000000000FFFF00FFFF000000000000000000000000FFFFFF00FF0000000000000000000000FFFFFFFF000000000000000000000000FF00FFFFFF0000000000000000000000FFFF00000000000000000000000000FF000000FFFF00000000000000000000FF000000000000
310
000000000000000000FFFF0000FF0000000000000000000000FF000000000000000000000000000000FFFFFFFFFF0000000000000000000000FF00000000000000000000000000000000FF00FFFFFF00000000000000000000FFFF000000000000000000000000000000FFFFFF00FF0000000000000000000000FF00000000
310
00000000000000000000FFFFFFFFFFFF0000000000000000000000FF0000000000000000000000000000FF00FFFFFF000000000000000000000000FF00000000000000000000000000FFFFFFFFFFFF0000000000000000000000FFFF00000000000000000000000000FFFFFF00FF000000000000000000000000FF00000000
310
000000000000000000FFFF0000FFFF000000000000000000000000FF000000000000000000FF000000FFFFFFFFFFFF00000000000000000000000000FF00000000000000FFFFFFFFFFFFFFFFFFFF000000000000000000000000000000FF00000000FFFF00FFFFFFFFFFFFFFFFFF000000000000000000000000000000FF00
310
0000FFFFFFFFFF00FFFFFFFFFF000000000000000000000000000000000000FFFFFFFFFFFFFFFFFF0000FFFF0000000000000000000000000000000000000000FFFFFFFFFFFFFF0000000000000000000000000000000000000000000000000000FFFFFFFFFFFF000000000000000000000000000000000000000000000000
310
000000FFFFFF0000000000000000000000000000000000000000000000000000000000000000000000000000000000000000000000000000
102
{BLKREFS
331
910
102
}
1001
ACAD
1000
DesignCenter Data
1002
{
1070
     1
1070
     4
1002
}
  0
ENDTAB
  0
ENDSEC
  0
SECTION
  2
BLOCKS
  0
BLOCK
  5
20
330
1F
100
AcDbEntity
  8
0
100
AcDbBlockBegin
  2
*Model_Space
 70
     0
 10
0.0
 20
0.0
 30
0.0
  3
*Model_Space
  1

  0
ENDBLK
  5
21
330
1F
100
AcDbEntity
  8
0
100
AcDbBlockEnd
  0
BLOCK
  5
D4
330
D2
100
AcDbEntity
 67
     1
  8
0
100
AcDbBlockBegin
  2
*Paper_Space
 70
     0
 10
0.0
 20
0.0
 30
0.0
  3
*Paper_Space
  1

  0
ENDBLK
  5
D5
330
D2
100
AcDbEntity
 67
     1
  8
0
100
AcDbBlockEnd
  0
BLOCK
  5
D8
330
D6
100
AcDbEntity
 67
     1
  8
0
100
AcDbBlockBegin
  2
*Paper_Space0
 70
     0
 10
0.0
 20
0.0
 30
0.0
  3
*Paper_Space0
  1

  0
ENDBLK
  5
D9
330
D6
100
AcDbEntity
 67
     1
  8
0
100
AcDbBlockEnd
  0
BLOCK
  5
692
330
691
100
AcDbEntity
  8
0
100
AcDbBlockBegin
  2
1
 70
     0
 10
0.0
 20
0.0
 30
0.0
  3
1
  1

  0
ARC
  5
91A
330
691
100
AcDbEntity
  8
0
  6
Continuous
 62
     7
370
    15
100
AcDbCircle
 10
1738.38580318085
 20
933.7901592795306
 30
0.0
 40
0.1249999999998563
100
AcDbArc
 50
89.99983737125841
 51
194.2097085126979
1001
AcDbBlockRepETag
1070
     1
1071
        0
1005
91A
  0
LINE
  5
91B
330
691
100
AcDbEntity
  8
0
  6
Continuous
 62
     7
370
    15
100
AcDbLine
 10
1738.527387436609
 20
928.5459656234804
 30
0.0
 11
1738.385801797582
 21
928.5459648797013
 31
0.0
1001
AcDbBlockRepETag
1070
     1
1071
        1
1005
91B
  0
LINE
  5
91C
330
691
100
AcDbEntity
  8
0
  6
Continuous
 62
     7
370
    15
100
AcDbLine
 10
1738.679553719177
 20
928.7436238302976
 30
0.0
 11
1738.67963678551
 21
928.6984963105307
 31
0.0
1001
AcDbBlockRepETag
1070
     1
1071
        2
1005
91C
  0
LINE
  5
91D
330
691
100
AcDbEntity
  8
0
  6
Continuous
 62
     7
370
    15
100
AcDbLine
 10
1734.084676772653
 20
923.5398166030046
 30
0.0
 11
1734.885349699193
 21
923.5398166030046
 31
0.0
1001
AcDbBlockRepETag
1070
     1
1071
        3
1005
91D
  0
ARC
  5
91E
330
691
100
AcDbEntity
  8
0
  6
Continuous
 62
     7
370
    15
100
AcDbCircle
 10
1733.935349699193
 20
920.6434195476161
 30
0.0
 40
0.3000000000000114
100
AcDbArc
 50
270.0
 51
7.499999999998992
1001
AcDbBlockRepETag
1070
     1
1071
        4
1005
91E
  0
LINE
  5
91F
330
691
100
AcDbEntity
  8
0
  6
Continuous
 62
     7
370
    15
100
AcDbLine
 10
1721.284719812098
 20
923.3137113645605
 30
0.0
 11
1720.938324454872
 21
920.6825774052822
 31
0.0
1001
AcDbBlockRepETag
1070
     1
1071
        5
1005
91F
  0
ARC
  5
920
330
691
100
AcDbEntity
  8
0
  6
Continuous
 62
     7
370
    15
100
AcDbCircle
 10
1720.285757913284
 20
923.3398166030045
 30
0.0
 40
0.2000000000000455
100
AcDbArc
 50
90.0
 51
180.0
1001
AcDbBlockRepETag
1070
     1
1071
        6
1005
920
  0
LINE
  5
921
330
691
100
AcDbEntity
  8
0
  6
Continuous
 62
     7
370
    15
100
AcDbLine
 10
1720.085757913285
 20
919.3434324222195
 30
0.0
 11
1720.085757913285
 21
923.3398166030045
 31
0.0
1001
AcDbBlockRepETag
1070
     1
1071
        7
1005
921
  0
LINE
  5
922
330
691
100
AcDbEntity
  8
0
  6
Continuous
 62
     7
370
    15
100
AcDbLine
 10
1720.962266630156
 20
918.9628374809675
 30
0.0
 11
1720.436457841887
 21
918.1374830096993
 31
0.0
1001
AcDbBlockRepETag
1070
     1
1071
        8
1005
922
  0
LINE
  5
923
330
691
100
AcDbEntity
  8
0
  6
Continuous
 62
     7
370
    15
100
AcDbLine
 10
1717.085962020355
 20
917.4434324222195
 30
0.0
 11
1719.171370673168
 21
917.4434324222197
 31
0.0
1001
AcDbBlockRepETag
1070
     1
1071
        9
1005
923
  0
LINE
  5
924
330
691
100
AcDbEntity
  8
0
  6
Continuous
 62
     7
370
    15
100
AcDbLine
 10
1716.085553577705
 20
928.7436238302978
 30
0.0
 11
1716.085553708296
 21
926.3617169822222
 31
0.0
1001
AcDbBlockRepETag
1070
     1
1071
       10
1005
924
  0
LINE
  5
925
330
691
100
AcDbEntity
  8
0
  6
Continuous
 62
     7
370
    15
100
AcDbLine
 10
1716.491470439261
 20
928.6982156238321
 30
0.0
 11
1716.491553893297
 21
928.7436238302976
 31
0.0
1001
AcDbBlockRepETag
1070
     1
1071
       11
1005
925
  0
ARC
  5
926
330
691
100
AcDbEntity
  8
0
  6
Continuous
 62
     7
370
    15
100
AcDbCircle
 10
1716.288553595424
 20
933.717687471741
 30
0.0
 40
0.2029996838580573
100
AcDbArc
 50
180.0530638442116
 51
0.0530638707097226
1001
AcDbBlockRepETag
1070
     1
1071
       12
1005
926
  0
LINE
  5
927
330
691
100
AcDbEntity
  8
0
  6
Continuous
 62
     7
370
    15
100
AcDbLine
 10
1725.307873452123
 20
942.9534152397586
 30
0.0
 11
1725.335178225074
 21
942.3283339699075
 31
0.0
1001
AcDbBlockRepETag
1070
     1
1071
       13
1005
927
  0
ARC
  5
928
330
691
100
AcDbEntity
  8
0
  6
Continuous
 62
     7
370
    15
100
AcDbCircle
 10
1730.063043621655
 20
942.9446871715256
 30
0.0
 40
0.1999999999998952
100
AcDbArc
 50
90.0
 51
177.4987982914254
1001
AcDbBlockRepETag
1070
     1
1071
       14
1005
928
  0
LINE
  5
929
330
691
100
AcDbEntity
  8
0
  6
Continuous
 62
     7
370
    15
100
AcDbLine
 10
1738.884591911913
 20
936.2349888367246
 30
0.0
 11
1735.328670804033
 21
942.394024863276
 31
0.0
1001
AcDbBlockRepETag
1070
     1
1071
       15
1005
929
  0
LINE
  5
92A
330
691
100
AcDbEntity
  8
0
  6
Continuous
 62
     7
370
    15
100
AcDbLine
 10
1735.735349699193
 20
919.559166668702
 30
0.0
 11
1735.735349699193
 21
923.4898273203436
 31
0.0
1001
AcDbBlockRepETag
1070
     1
1071
       16
1005
92A
  0
LINE
  5
92B
330
691
100
AcDbEntity
  8
0
  6
Continuous
 62
     7
370
    15
100
AcDbLine
 10
1737.463111479836
 20
923.414650870467
 30
0.0
 11
1736.22377893688
 21
919.483990218826
 31
0.0
1001
AcDbBlockRepETag
1070
     1
1071
       17
1005
92B
  0
LINE
  5
92C
330
691
100
AcDbEntity
  8
0
  6
Continuous
 62
     7
370
    15
100
AcDbLine
 10
1735.985349699193
 20
923.7398273203435
 30
0.0
 11
1737.224682242149
 21
923.7398273203433
 31
0.0
1001
AcDbBlockRepETag
1070
     1
1071
       18
1005
92C
  0
LINE
  5
92D
330
691
100
AcDbEntity
  8
0
  6
Continuous
 62
     7
370
    15
100
AcDbLine
 10
1718.947328675598
 20
919.483990218826
 30
0.0
 11
1717.707996132642
 21
923.414650870467
 31
0.0
1001
AcDbBlockRepETag
1070
     1
1071
       19
1005
92D
  0
LINE
  5
92E
330
691
100
AcDbEntity
  8
0
  6
Continuous
 62
     7
370
    15
100
AcDbLine
 10
1719.435757913285
 20
923.4898273203436
 30
0.0
 11
1719.435757913285
 21
919.559166668702
 31
0.0
1001
AcDbBlockRepETag
1070
     1
1071
       20
1005
92E
  0
LINE
  5
92F
330
691
100
AcDbEntity
  8
0
  6
Continuous
 62
     7
370
    15
100
AcDbLine
 10
1720.235757913284
 20
919.1934324222195
 30
0.0
 11
1720.835757913285
 21
919.1934324222195
 31
0.0
1001
AcDbBlockRepETag
1070
     1
1071
       21
1005
92F
  0
ARC
  5
930
330
691
100
AcDbEntity
  8
0
  6
Continuous
 62
     7
370
    15
100
AcDbCircle
 10
1728.277588021894
 20
931.2305650873875
 30
0.0
 40
10.3022496914677
100
AcDbArc
 50
345.7902531738533
 51
14.20970851265683
1001
AcDbBlockRepETag
1070
     1
1071
       22
1005
930
  0
LINE
  5
931
330
691
100
AcDbEntity
  8
0
  6
Continuous
 62
     7
370
    15
100
AcDbLine
 10
1734.73464977059
 20
918.1374830096993
 30
0.0
 11
1734.208840982321
 21
918.9628374809675
 31
0.0
1001
AcDbBlockRepETag
1070
     1
1071
       23
1005
931
  0
ARC
  5
932
330
691
100
AcDbEntity
  8
0
  6
Continuous
 62
     7
370
    15
100
AcDbCircle
 10
1719.171370673168
 20
918.9434324222196
 30
0.0
 40
1.499999999999943
100
AcDbArc
 50
270.0
 51
327.4999999999955
1001
AcDbBlockRepETag
1070
     1
1071
       24
1005
932
  0
LINE
  5
933
330
691
100
AcDbEntity
  8
0
  6
Continuous
 62
     7
370
    15
100
AcDbLine
 10
1716.643719580121
 20
933.9151576720281
 30
0.0
 11
1716.785304076823
 21
933.9151584757759
 31
0.0
1001
AcDbBlockRepETag
1070
     1
1071
       25
1005
933
  0
LINE
  5
934
330
691
100
AcDbEntity
  8
0
  6
Continuous
 62
     7
370
    15
100
AcDbLine
 10
1716.491553123433
 20
933.7178754776271
 30
0.0
 11
1716.491469841884
 21
933.7629076717897
 31
0.0
1001
AcDbBlockRepETag
1070
     1
1071
       26
1005
934
  0
ARC
  5
935
330
691
100
AcDbEntity
  8
0
  6
Continuous
 62
     7
370
    15
100
AcDbCircle
 10
1738.88255401705
 20
933.717687471741
 30
0.0
 40
0.2029996220607321
100
AcDbArc
 50
180.0
 51
359.9469361311141
1001
AcDbBlockRepETag
1070
     1
1071
       27
1005
935
  0
LINE
  5
936
330
691
100
AcDbEntity
  8
0
  6
Continuous
 62
     7
370
    15
100
AcDbLine
 10
1717.946425370329
 20
923.7398273203432
 30
0.0
 11
1719.185757913284
 21
923.7398273203432
 31
0.0
1001
AcDbBlockRepETag
1070
     1
1071
       28
1005
936
  0
LINE
  5
937
330
691
100
AcDbEntity
  8
0
  6
Continuous
 62
     7
370
    15
100
AcDbLine
 10
1721.235757913285
 20
920.3434195476161
 30
0.0
 11
1733.935349699193
 21
920.3434195476161
 31
0.0
1001
AcDbBlockRepETag
1070
     1
1071
       29
1005
937
  0
LINE
  5
938
330
691
100
AcDbEntity
  8
0
  6
Continuous
 62
     7
370
    15
100
AcDbLine
 10
1738.679637379639
 20
933.7626261056362
 30
0.0
 11
1738.679554401982
 21
933.717687471741
 31
0.0
1001
AcDbBlockRepETag
1070
     1
1071
       30
1005
938
  0
LINE
  5
939
330
691
100
AcDbEntity
  8
0
  6
Continuous
 62
     7
370
    15
100
AcDbLine
 10
1738.385803535651
 20
933.9151592795253
 30
0.0
 11
1738.527388032353
 21
933.9151584757773
 31
0.0
1001
AcDbBlockRepETag
1070
     1
1071
       31
1005
939
  0
ARC
  5
93A
330
691
100
AcDbEntity
  8
0
  6
Continuous
 62
     7
370
    15
100
AcDbCircle
 10
1738.527387044256
 20
928.698215623476
 30
0.0
 40
0.1522499999962232
100
AcDbArc
 50
270.0001476528411
 51
0.1056301655491476
1001
AcDbBlockRepETag
1070
     1
1071
       32
1005
93A
  0
LINE
  5
93B
330
691
100
AcDbEntity
  8
0
  6
Continuous
 62
     7
370
    15
100
AcDbLine
 10
1716.085962020354
 20
920.6427404937839
 30
0.0
 11
1716.085962020354
 21
918.4434324222195
 31
0.0
1001
AcDbBlockRepETag
1070
     1
1071
       33
1005
93B
  0
LINE
  5
93C
330
691
100
AcDbEntity
  8
0
  6
Continuous
 62
     7
370
    15
100
AcDbLine
 10
1724.591671589275
 20
943.3446850854966
 30
0.0
 11
1724.591667434589
 21
943.6434338129139
 31
0.0
1001
AcDbBlockRepETag
1070
     1
1071
       34
1005
93C
  0
ARC
  5
93D
330
691
100
AcDbEntity
  8
0
  6
Continuous
 62
     7
370
    15
100
AcDbCircle
 10
1726.89351959058
 20
931.2305650873875
 30
0.0
 40
10.30224969146761
100
AcDbArc
 50
165.7902914873431
 51
194.2097466670736
1001
AcDbBlockRepETag
1070
     1
1071
       35
1005
93D
  0
ARC
  5
93E
330
691
100
AcDbEntity
  8
0
  6
Continuous
 62
     7
370
    15
100
AcDbCircle
 10
1720.835757913285
 20
919.0434324222197
 30
0.0
 40
0.1500000000000482
100
AcDbArc
 50
327.4999999999955
 51
90.00000000002605
1001
AcDbBlockRepETag
1070
     1
1071
       36
1005
93E
  0
ARC
  5
93F
330
691
100
AcDbEntity
  8
0
  6
Continuous
 62
     7
370
    15
100
AcDbCircle
 10
1734.885349699193
 20
923.3398166030045
 30
0.0
 40
0.2000000000000455
100
AcDbArc
 50
0.0
 51
90.0
1001
AcDbBlockRepETag
1070
     1
1071
       37
1005
93F
  0
ARC
  5
940
330
691
100
AcDbEntity
  8
0
  6
Continuous
 62
     7
370
    15
100
AcDbCircle
 10
1716.643720568218
 20
928.698215623476
 30
0.0
 40
0.1522507297439628
100
AcDbArc
 50
179.9999998659986
 51
269.9998523464554
1001
AcDbBlockRepETag
1070
     1
1071
       38
1005
940
  0
ARC
  5
941
330
691
100
AcDbEntity
  8
0
  6
Continuous
 62
     7
370
    15
100
AcDbCircle
 10
1727.585550338227
 20
931.8713637134612
 30
0.0
 40
10.14999999999936
100
AcDbArc
 50
74.89527587450149
 51
105.1046842595684
1001
AcDbBlockRepETag
1070
     1
1071
       39
1005
941
  0
ARC
  5
942
330
691
100
AcDbEntity
  8
0
  6
Continuous
 62
     7
370
    15
100
AcDbCircle
 10
1716.643719972473
 20
933.7629076720316
 30
0.0
 40
0.1522501305894366
100
AcDbArc
 50
90.00014765254141
 51
180.000000091043
1001
AcDbBlockRepETag
1070
     1
1071
       40
1005
942
  0
ARC
  5
943
330
691
100
AcDbEntity
  8
0
  6
Continuous
 62
     7
370
    15
100
AcDbCircle
 10
1725.090631614832
 20
941.9696881668945
 30
0.0
 40
0.1500000000004241
100
AcDbArc
 50
89.89387241422459
 51
179.9994093828646
1001
AcDbBlockRepETag
1070
     1
1071
       41
1005
943
  0
ARC
  5
944
330
691
100
AcDbEntity
  8
0
  6
Continuous
 62
     7
370
    15
100
AcDbCircle
 10
1730.080475997645
 20
941.9696881668945
 30
0.0
 40
0.1500000000004242
100
AcDbArc
 50
0.000590617141958
 51
90.10612758578842
1001
AcDbBlockRepETag
1070
     1
1071
       42
1005
944
  0
LINE
  5
945
330
691
100
AcDbEntity
  8
0
  6
Continuous
 62
     7
370
    15
100
AcDbLine
 10
1739.085553552051
 20
933.7174994658552
 30
0.0
 11
1739.085553675647
 21
935.4849887842787
 31
0.0
1001
AcDbBlockRepETag
1070
     1
1071
       43
1005
945
  0
ARC
  5
946
330
691
100
AcDbEntity
  8
0
  6
Continuous
 62
     7
370
    15
100
AcDbCircle
 10
1719.185757913284
 20
919.559166668702
 30
0.0
 40
0.2500000000001137
100
AcDbArc
 50
197.5000000000123
 51
0.0
1001
AcDbBlockRepETag
1070
     1
1071
       44
1005
946
  0
ARC
  5
947
330
691
100
AcDbEntity
  8
0
  6
Continuous
 62
     7
370
    15
100
AcDbCircle
 10
1717.085962020355
 20
918.4434324222195
 30
0.0
 40
1.000000000000056
100
AcDbArc
 50
180.0
 51
270.0
1001
AcDbBlockRepETag
1070
     1
1071
       45
1005
947
  0
LINE
  5
948
330
691
100
AcDbEntity
  8
0
  6
Continuous
 62
     7
370
    15
100
AcDbLine
 10
1730.23047907976
 20
941.6706928717349
 30
0.0
 11
1730.230475997637
 21
941.9696897131267
 31
0.0
1001
AcDbBlockRepETag
1070
     1
1071
       46
1005
948
  0
LINE
  5
949
330
691
100
AcDbEntity
  8
0
  6
Continuous
 62
     7
370
    15
100
AcDbLine
 10
1739.085145592123
 20
918.4434324222195
 30
0.0
 11
1739.085145592123
 21
920.6427404937839
 31
0.0
1001
AcDbBlockRepETag
1070
     1
1071
       47
1005
949
  0
LINE
  5
94A
330
691
100
AcDbEntity
  8
0
  6
Continuous
 62
     7
370
    15
100
AcDbLine
 10
1735.99973693931
 20
917.4434324222197
 30
0.0
 11
1738.085145592123
 21
917.4434324222195
 31
0.0
1001
AcDbBlockRepETag
1070
     1
1071
       48
1005
94A
  0
ARC
  5
94B
330
691
100
AcDbEntity
  8
0
  6
Continuous
 62
     7
370
    15
100
AcDbCircle
 10
1735.985349699193
 20
919.559166668702
 30
0.0
 40
0.2500000000002432
100
AcDbArc
 50
180.0
 51
342.5000000000002
1001
AcDbBlockRepETag
1070
     1
1071
       49
1005
94B
  0
ARC
  5
94C
330
691
100
AcDbEntity
  8
0
  6
Continuous
 62
     7
370
    15
100
AcDbCircle
 10
1737.224682242149
 20
923.489827320343
 30
0.0
 40
0.2500000000002274
100
AcDbArc
 50
342.5000000000188
 51
90.0
1001
AcDbBlockRepETag
1070
     1
1071
       50
1005
94C
  0
LINE
  5
94D
330
691
100
AcDbEntity
  8
0
  6
Continuous
 62
     7
370
    15
100
AcDbLine
 10
1725.134998308827
 20
942.1196062447675
 30
0.0
 11
1725.090909456043
 21
942.1196879095756
 31
0.0
1001
AcDbBlockRepETag
1070
     1
1071
       51
1005
94D
  0
ARC
  5
94E
330
691
100
AcDbEntity
  8
0
  6
Continuous
 62
     7
370
    15
100
AcDbCircle
 10
1738.385801469256
 20
928.6709641359166
 30
0.0
 40
0.124999999999977
100
AcDbArc
 50
165.790253173847
 51
270.0001504943195
1001
AcDbBlockRepETag
1070
     1
1071
       52
1005
94E
  0
ARC
  5
94F
330
691
100
AcDbEntity
  8
0
  6
Continuous
 62
     7
370
    15
100
AcDbCircle
 10
1738.882553893297
 20
928.7436238302976
 30
0.0
 40
0.2030001741202909
100
AcDbArc
 50
359.9999984293463
 51
180.0
1001
AcDbBlockRepETag
1070
     1
1071
       53
1005
94F
  0
ARC
  5
950
330
691
100
AcDbEntity
  8
0
  6
Continuous
 62
     7
370
    15
100
AcDbCircle
 10
1736.085553806238
 20
926.361717064462
 30
0.0
 40
3.000000000000622
100
AcDbArc
 50
342.5000000000002
 51
359.9999999999935
1001
AcDbBlockRepETag
1070
     1
1071
       54
1005
950
  0
ARC
  5
951
330
691
100
AcDbEntity
  8
0
  6
Continuous
 62
     7
370
    15
100
AcDbCircle
 10
1730.035738848703
 20
942.3196059016746
 30
0.0
 40
0.199999999999952
100
AcDbArc
 50
177.4987982914254
 51
270.1061275857754
1001
AcDbBlockRepETag
1070
     1
1071
       55
1005
951
  0
ARC
  5
952
330
691
100
AcDbEntity
  8
0
  6
Continuous
 62
     7
370
    15
100
AcDbCircle
 10
1738.527387640001
 20
933.7629076720316
 30
0.0
 40
0.1522508037461929
100
AcDbArc
 50
359.8940389142256
 51
89.99985234821417
1001
AcDbBlockRepETag
1070
     1
1071
       56
1005
952
  0
ARC
  5
953
330
691
100
AcDbEntity
  8
0
  6
Continuous
 62
     7
370
    15
100
AcDbCircle
 10
1738.785145592123
 20
920.6427404937839
 30
0.0
 40
0.3000000000000682
100
AcDbArc
 50
0.0
 51
90.0
1001
AcDbBlockRepETag
1070
     1
1071
       57
1005
953
  0
ARC
  5
954
330
691
100
AcDbEntity
  8
0
  6
Continuous
 62
     7
370
    15
100
AcDbCircle
 10
1738.085145592123
 20
918.4434324222195
 30
0.0
 40
1.0
100
AcDbArc
 50
270.0
 51
0.0
1001
AcDbBlockRepETag
1070
     1
1071
       58
1005
954
  0
ARC
  5
955
330
691
100
AcDbEntity
  8
0
  6
Continuous
 62
     7
370
    15
100
AcDbCircle
 10
1735.99973693931
 20
918.9434324222196
 30
0.0
 40
1.500000000000041
100
AcDbArc
 50
212.5000000000045
 51
270.0
1001
AcDbBlockRepETag
1070
     1
1071
       59
1005
955
  0
ARC
  5
956
330
691
100
AcDbEntity
  8
0
  6
Continuous
 62
     7
370
    15
100
AcDbCircle
 10
1724.391667434593
 20
943.6434324222195
 30
0.0
 40
0.2000000000003331
100
AcDbArc
 50
0.0003984045885388
 51
90.0
1001
AcDbBlockRepETag
1070
     1
1071
       60
1005
956
  0
ARC
  5
957
330
691
100
AcDbEntity
  8
0
  6
Continuous
 62
     7
370
    15
100
AcDbCircle
 10
1734.935349699193
 20
919.3434324222195
 30
0.0
 40
0.1500000000000909
100
AcDbArc
 50
270.0
 51
0.0
1001
AcDbBlockRepETag
1070
     1
1071
       61
1005
957
  0
LINE
  5
958
330
691
100
AcDbEntity
  8
0
  6
Continuous
 62
     7
370
    15
100
AcDbLine
 10
1716.78530581398
 20
928.5459641639848
 30
0.0
 11
1716.643720175862
 21
928.5459648937326
 31
0.0
1001
AcDbBlockRepETag
1070
     1
1071
       62
1005
958
  0
ARC
  5
959
330
691
100
AcDbEntity
  8
0
  6
Continuous
 62
     7
370
    15
100
AcDbCircle
 10
1734.084676772653
 20
923.3398166030045
 30
0.0
 40
0.2000000000001892
100
AcDbArc
 50
90.0
 51
187.499999999999
1001
AcDbBlockRepETag
1070
     1
1071
       63
1005
959
  0
ARC
  5
95A
330
691
100
AcDbEntity
  8
0
  6
Continuous
 62
     7
370
    15
100
AcDbCircle
 10
1721.235757913285
 20
920.6434195476161
 30
0.0
 40
0.2999999999999775
100
AcDbArc
 50
172.4999999999945
 51
270.0
1001
AcDbBlockRepETag
1070
     1
1071
       64
1005
95A
  0
ARC
  5
95B
330
691
100
AcDbEntity
  8
0
  6
Continuous
 62
     7
370
    15
100
AcDbCircle
 10
1721.086430839824
 20
923.3398166030045
 30
0.0
 40
0.2000000000000455
100
AcDbArc
 50
352.4999999999881
 51
90.0
1001
AcDbBlockRepETag
1070
     1
1071
       65
1005
95B
  0
ARC
  5
95C
330
691
100
AcDbEntity
  8
0
  6
Continuous
 62
     7
370
    15
100
AcDbCircle
 10
1720.235757913284
 20
919.3434324222195
 30
0.0
 40
0.1500000000001478
100
AcDbArc
 50
180.0
 51
270.0
1001
AcDbBlockRepETag
1070
     1
1071
       66
1005
95C
  0
LINE
  5
95D
330
691
100
AcDbEntity
  8
0
  6
Continuous
 62
     7
370
    15
100
AcDbLine
 10
1739.085553806238
 20
926.3617170644616
 30
0.0
 11
1739.085553936828
 21
928.7436238247329
 31
0.0
1001
AcDbBlockRepETag
1070
     1
1071
       67
1005
95D
  0
ARC
  5
95E
330
691
100
AcDbEntity
  8
0
  6
Continuous
 62
     7
370
    15
100
AcDbCircle
 10
1717.946425370329
 20
923.489827320343
 30
0.0
 40
0.2500000000003174
100
AcDbArc
 50
90.00000000002605
 51
197.499999999971
1001
AcDbBlockRepETag
1070
     1
1071
       68
1005
95E
  0
ARC
  5
95F
330
691
100
AcDbEntity
  8
0
  6
Continuous
 62
     7
370
    15
100
AcDbCircle
 10
1730.779440177884
 20
943.6434324222195
 30
0.0
 40
0.1999999999999536
100
AcDbArc
 50
90.0
 51
179.9994023951527
1001
AcDbBlockRepETag
1070
     1
1071
       69
1005
95F
  0
ARC
  5
960
330
691
100
AcDbEntity
  8
0
  6
Continuous
 62
     7
370
    15
100
AcDbCircle
 10
1716.385962020354
 20
920.6427404937839
 30
0.0
 40
0.3000000000000114
100
AcDbArc
 50
90.0
 51
180.0
1001
AcDbBlockRepETag
1070
     1
1071
       70
1005
960
  0
LINE
  5
961
330
691
100
AcDbEntity
  8
0
  6
Continuous
 62
     7
370
    15
100
AcDbLine
 10
1735.085349699193
 20
923.3398166030045
 30
0.0
 11
1735.085349699193
 21
919.3434324222195
 31
0.0
1001
AcDbBlockRepETag
1070
     1
1071
       71
1005
961
  0
LINE
  5
962
330
691
100
AcDbEntity
  8
0
  6
Continuous
 62
     7
370
    15
100
AcDbLine
 10
1734.232783157605
 20
920.682577405282
 30
0.0
 11
1733.886387800379
 21
923.3137113645605
 31
0.0
1001
AcDbBlockRepETag
1070
     1
1071
       72
1005
962
  0
ARC
  5
963
330
691
100
AcDbEntity
  8
0
  6
Continuous
 62
     7
370
    15
100
AcDbCircle
 10
1719.08555380624
 20
926.361717064462
 30
0.0
 40
3.000000097943485
100
AcDbArc
 50
180.0000015706668
 51
197.4999999999998
1001
AcDbBlockRepETag
1070
     1
1071
       73
1005
963
  0
ARC
  5
964
330
691
100
AcDbEntity
  8
0
  6
Continuous
 62
     7
370
    15
100
AcDbCircle
 10
1716.288553719177
 20
928.7436238302976
 30
0.0
 40
0.2030001741202341
100
AcDbArc
 50
0.0
 51
179.9999999999674
1001
AcDbBlockRepETag
1070
     1
1071
       74
1005
964
  0
ARC
  5
965
330
691
100
AcDbEntity
  8
0
  6
Continuous
 62
     7
370
    15
100
AcDbCircle
 10
1716.785306136111
 20
928.6709641639806
 30
0.0
 40
0.1250000000000287
100
AcDbArc
 50
269.9998523457519
 51
14.20974666703256
1001
AcDbBlockRepETag
1070
     1
1071
       75
1005
965
  0
ARC
  5
966
330
691
100
AcDbEntity
  8
0
  6
Continuous
 62
     7
370
    15
100
AcDbCircle
 10
1716.785304431624
 20
933.7901592795306
 30
0.0
 40
0.1249999999998563
100
AcDbArc
 50
345.7902914873021
 51
90.0001626297838
1001
AcDbBlockRepETag
1070
     1
1071
       76
1005
966
  0
ARC
  5
967
330
691
100
AcDbEntity
  8
0
  6
Continuous
 62
     7
370
    15
100
AcDbCircle
 10
1717.585553806241
 20
935.4849888367246
 30
0.0
 40
1.5
100
AcDbArc
 50
149.9999999999962
 51
180.0
1001
AcDbBlockRepETag
1070
     1
1071
       77
1005
967
  0
LINE
  5
968
330
691
100
AcDbEntity
  8
0
  6
Continuous
 62
     7
370
    15
100
AcDbLine
 10
1724.94063161484
 20
941.9696897131267
 30
0.0
 11
1724.940628532731
 21
941.6706942758095
 31
0.0
1001
AcDbBlockRepETag
1070
     1
1071
       78
1005
968
  0
ARC
  5
969
330
691
100
AcDbEntity
  8
0
  6
Continuous
 62
     7
370
    15
100
AcDbCircle
 10
1734.335349699193
 20
919.0434324222197
 30
0.0
 40
0.1500000000000961
100
AcDbArc
 50
89.99999999997395
 51
212.499999999992
1001
AcDbBlockRepETag
1070
     1
1071
       79
1005
969
  0
ARC
  5
96A
330
691
100
AcDbEntity
  8
0
  6
Continuous
 62
     7
370
    15
100
AcDbCircle
 10
1720.708462212227
 20
941.8940248632766
 30
0.0
 40
0.9999999999997859
100
AcDbArc
 50
107.500000000006
 51
150.0000000000083
1001
AcDbBlockRepETag
1070
     1
1071
       80
1005
96A
  0
LINE
  5
96B
330
691
100
AcDbEntity
  8
0
  6
Continuous
 62
     7
370
    15
100
AcDbLine
 10
1716.085553806241
 20
935.4849888367246
 30
0.0
 11
1716.085553998626
 21
933.7174994658854
 31
0.0
1001
AcDbBlockRepETag
1070
     1
1071
       81
1005
96B
  0
LINE
  5
96C
330
691
100
AcDbEntity
  8
0
  6
Continuous
 62
     7
370
    15
100
AcDbLine
 10
1719.842436808444
 20
942.3940248632762
 30
0.0
 11
1716.286515700565
 21
936.2349888367246
 31
0.0
1001
AcDbBlockRepETag
1070
     1
1071
       82
1005
96C
  0
LINE
  5
96D
330
691
100
AcDbEntity
  8
0
  6
Continuous
 62
     7
370
    15
100
AcDbLine
 10
1729.835929387403
 20
942.3283339699075
 30
0.0
 11
1729.863234160355
 21
942.9534152397586
 31
0.0
1001
AcDbBlockRepETag
1070
     1
1071
       83
1005
96D
  0
ARC
  5
96E
330
691
100
AcDbEntity
  8
0
  6
Continuous
 62
     7
370
    15
100
AcDbCircle
 10
1724.791671589265
 20
943.3446871715235
 30
0.0
 40
0.2000000000010903
100
AcDbArc
 50
180.0005976026977
 51
270.0
1001
AcDbBlockRepETag
1070
     1
1071
       84
1005
96E
  0
LINE
  5
96F
330
691
100
AcDbEntity
  8
0
  6
Continuous
 62
     7
370
    15
100
AcDbLine
 10
1730.080198156434
 20
942.1196879095756
 30
0.0
 11
1730.036109303651
 21
942.1196062447675
 31
0.0
1001
AcDbBlockRepETag
1070
     1
1071
       85
1005
96F
  0
ARC
  5
970
330
691
100
AcDbEntity
  8
0
  6
Continuous
 62
     7
370
    15
100
AcDbCircle
 10
1730.379436023212
 20
943.3446871715235
 30
0.0
 40
0.200000000001204
100
AcDbArc
 50
270.0
 51
359.9994023973023
1001
AcDbBlockRepETag
1070
     1
1071
       86
1005
970
  0
LINE
  5
971
330
691
100
AcDbEntity
  8
0
  6
Continuous
 62
     7
370
    15
100
AcDbLine
 10
1730.579440177895
 20
943.643434508254
 30
0.0
 11
1730.579436023202
 21
943.3446850854966
 31
0.0
1001
AcDbBlockRepETag
1070
     1
1071
       87
1005
971
  0
ARC
  5
972
330
691
100
AcDbEntity
  8
0
  6
Continuous
 62
     7
370
    15
100
AcDbCircle
 10
1734.46264540025
 20
941.8940248632766
 30
0.0
 40
0.9999999999997116
100
AcDbArc
 50
29.99999999999165
 51
72.49999999999198
1001
AcDbBlockRepETag
1070
     1
1071
       88
1005
972
  0
ARC
  5
973
330
691
100
AcDbEntity
  8
0
  6
Continuous
 62
     7
370
    15
100
AcDbCircle
 10
1725.135368763775
 20
942.3196059016746
 30
0.0
 40
0.2000000000000088
100
AcDbArc
 50
269.8938724141985
 51
2.501201708574556
1001
AcDbBlockRepETag
1070
     1
1071
       89
1005
973
  0
LINE
  5
974
330
691
100
AcDbEntity
  8
0
  6
Continuous
 62
     7
370
    15
100
AcDbLine
 10
1730.379436023212
 20
943.1446871715237
 30
0.0
 11
1730.063043621655
 21
943.1446871715245
 31
0.0
1001
AcDbBlockRepETag
1070
     1
1071
       90
1005
974
  0
ARC
  5
975
330
691
100
AcDbEntity
  8
0
  6
Continuous
 62
     7
370
    15
100
AcDbCircle
 10
1719.185757913284
 20
923.4898273203436
 30
0.0
 40
0.25
100
AcDbArc
 50
0.0
 51
90.00000000003907
1001
AcDbBlockRepETag
1070
     1
1071
       91
1005
975
  0
ARC
  5
976
330
691
100
AcDbEntity
  8
0
  6
Continuous
 62
     7
370
    15
100
AcDbCircle
 10
1735.985349699193
 20
923.4898273203436
 30
0.0
 40
0.2500000000000568
100
AcDbArc
 50
90.0
 51
180.0
1001
AcDbBlockRepETag
1070
     1
1071
       92
1005
976
  0
ARC
  5
977
330
691
100
AcDbEntity
  8
0
  6
Continuous
 62
     7
370
    15
100
AcDbCircle
 10
1737.585553806237
 20
935.4849888367246
 30
0.0
 40
1.499999999999876
100
AcDbArc
 50
359.9999979967142
 51
30.0000000000038
1001
AcDbBlockRepETag
1070
     1
1071
       93
1005
977
  0
LINE
  5
978
330
691
100
AcDbEntity
  8
0
  6
Continuous
 62
     7
370
    15
100
AcDbLine
 10
1720.285757913284
 20
923.5398166030048
 30
0.0
 11
1721.086430839824
 21
923.5398166030046
 31
0.0
1001
AcDbBlockRepETag
1070
     1
1071
       94
1005
978
  0
ARC
  5
979
330
691
100
AcDbEntity
  8
0
  6
Continuous
 62
     7
370
    15
100
AcDbCircle
 10
1725.108063990823
 20
942.9446871715256
 30
0.0
 40
0.199999999999952
100
AcDbArc
 50
2.501201708574556
 51
90.0
1001
AcDbBlockRepETag
1070
     1
1071
       95
1005
979
  0
LINE
  5
97A
330
691
100
AcDbEntity
  8
0
  6
Continuous
 62
     7
370
    15
100
AcDbLine
 10
1725.108063990823
 20
943.1446871715253
 30
0.0
 11
1724.791671589265
 21
943.1446871715245
 31
0.0
1001
AcDbBlockRepETag
1070
     1
1071
       96
1005
97A
  0
LINE
  5
97B
330
691
100
AcDbEntity
  8
0
  6
Continuous
 62
     7
370
    15
100
AcDbLine
 10
1734.335349699193
 20
919.1934324222195
 30
0.0
 11
1734.935349699193
 21
919.1934324222195
 31
0.0
1001
AcDbBlockRepETag
1070
     1
1071
       97
1005
97B
  0
LINE
  5
97C
330
691
100
AcDbEntity
  8
0
  6
Continuous
 62
     7
370
    15
100
AcDbLine
 10
1734.763351199754
 20
942.8477418140246
 30
0.0
 11
1731.605424042043
 21
943.8434324222194
 31
0.0
1001
AcDbBlockRepETag
1070
     1
1071
       98
1005
97C
  0
LINE
  5
97D
330
691
100
AcDbEntity
  8
0
  6
Continuous
 62
     7
370
    15
100
AcDbLine
 10
1730.779440177884
 20
943.8434324222194
 30
0.0
 11
1731.605424042043
 21
943.8434324222194
 31
0.0
1001
AcDbBlockRepETag
1070
     1
1071
       99
1005
97D
  0
LINE
  5
97E
330
691
100
AcDbEntity
  8
0
  6
Continuous
 62
     7
370
    15
100
AcDbLine
 10
1737.522544431963
 20
920.9427404937841
 30
0.0
 11
1738.785145592123
 21
920.9427404937841
 31
0.0
1001
AcDbBlockRepETag
1070
     1
1071
      100
1005
97E
  0
LINE
  5
97F
330
691
100
AcDbEntity
  8
0
  6
Continuous
 62
     7
370
    15
100
AcDbLine
 10
1716.385962020354
 20
920.9427404937841
 30
0.0
 11
1717.648563180514
 21
920.9427404937841
 31
0.0
1001
AcDbBlockRepETag
1070
     1
1071
      101
1005
97F
  0
LINE
  5
980
330
691
100
AcDbEntity
  8
0
  6
Continuous
 62
     7
370
    15
100
AcDbLine
 10
1723.565683570434
 20
943.8434324222194
 30
0.0
 11
1724.391667434593
 21
943.8434324222194
 31
0.0
1001
AcDbBlockRepETag
1070
     1
1071
      102
1005
980
  0
LINE
  5
981
330
691
100
AcDbEntity
  8
0
  6
Continuous
 62
     7
370
    15
100
AcDbLine
 10
1737.522544431963
 20
920.9427404937841
 30
0.0
 11
1738.946704658483
 21
925.4595996659492
 31
0.0
1001
AcDbBlockRepETag
1070
     1
1071
      103
1005
981
  0
LINE
  5
982
330
691
100
AcDbEntity
  8
0
  6
Continuous
 62
     7
370
    15
100
AcDbLine
 10
1716.224402953995
 20
925.4595996659492
 30
0.0
 11
1717.648563180514
 21
920.9427404937841
 31
0.0
1001
AcDbBlockRepETag
1070
     1
1071
      104
1005
982
  0
LINE
  5
983
330
691
100
AcDbEntity
  8
0
  6
Continuous
 62
     7
370
    15
100
AcDbLine
 10
1723.565683570434
 20
943.8434324222194
 30
0.0
 11
1720.407756412723
 21
942.8477418140246
 31
0.0
1001
AcDbBlockRepETag
1070
     1
1071
      105
1005
983
  0
ENDBLK
  5
693
330
691
100
AcDbEntity
  8
0
100
AcDbBlockEnd
  0
BLOCK
  5
700
330
6FF
100
AcDbEntity
  8
0
100
AcDbBlockBegin
  2
2
 70
     0
 10
0.0
 20
0.0
 30
0.0
  3
2
  1

  0
LINE
  5
702
330
6FF
100
AcDbEntity
  8
0
  6
Continuous
 62
     7
370
    15
100
AcDbLine
 10
1679.661155971326
 20
928.9466240044177
 30
0.0
 11
1673.761155971326
 21
928.9466240044177
 31
0.0
  0
LINE
  5
703
330
6FF
100
AcDbEntity
  8
0
  6
Continuous
 62
     7
370
    15
100
AcDbLine
 10
1673.761155971326
 20
933.514687856673
 30
0.0
 11
1679.661155971326
 21
933.514687856673
 31
0.0
  0
LINE
  5
704
330
6FF
100
AcDbEntity
  8
0
  6
Continuous
 62
     7
370
    15
100
AcDbLine
 10
1673.761155971326
 20
926.3617170644614
 30
0.0
 11
1679.661155971326
 21
926.3617168999839
 31
0.0
  0
LINE
  5
705
330
6FF
100
AcDbEntity
  8
0
  6
Continuous
 62
     7
370
    15
100
AcDbLine
 10
1673.761155971326
 20
926.3617170644614
 30
0.0
 11
1673.761155971326
 21
928.7436238247325
 31
0.0
  0
LINE
  5
706
330
6FF
100
AcDbEntity
  8
0
  6
Continuous
 62
     7
370
    15
100
AcDbLine
 10
1679.661155971326
 20
928.7436238136029
 30
0.0
 11
1673.761155971326
 21
928.7436238247325
 31
0.0
  0
LINE
  5
707
330
6FF
100
AcDbEntity
  8
0
  6
Continuous
 62
     7
370
    15
100
AcDbLine
 10
1679.661155971326
 20
926.3617168999839
 30
0.0
 11
1679.661155971326
 21
928.7436238136029
 31
0.0
  0
LINE
  5
708
330
6FF
100
AcDbEntity
  8
0
  6
Continuous
 62
     7
370
    15
100
AcDbLine
 10
1673.761155971326
 20
928.9466240044177
 30
0.0
 11
1673.761155971326
 21
928.7436238247325
 31
0.0
  0
LINE
  5
709
330
6FF
100
AcDbEntity
  8
0
  6
Continuous
 62
     7
370
    15
100
AcDbLine
 10
1679.661155971326
 20
928.9466240044177
 30
0.0
 11
1679.661155971326
 21
928.7436238136029
 31
0.0
  0
LINE
  5
70A
330
6FF
100
AcDbEntity
  8
0
  6
Continuous
 62
     7
370
    15
100
AcDbLine
 10
1679.661155971326
 20
925.4595996659489
 30
0.0
 11
1673.761155971326
 21
925.4595996659489
 31
0.0
  0
LINE
  5
70B
330
6FF
100
AcDbEntity
  8
0
  6
Continuous
 62
     7
370
    15
100
AcDbLine
 10
1673.761155971326
 20
926.3617170644614
 30
0.0
 11
1673.761155971326
 21
925.4595996659489
 31
0.0
  0
LINE
  5
70C
330
6FF
100
AcDbEntity
  8
0
  6
Continuous
 62
     7
370
    15
100
AcDbLine
 10
1679.661155971326
 20
926.3617168999839
 30
0.0
 11
1679.661155971326
 21
925.4595996659489
 31
0.0
  0
LINE
  5
70D
330
6FF
100
AcDbEntity
  8
0
  6
Continuous
 62
     7
370
    15
100
AcDbLine
 10
1679.661155971326
 20
935.4849886793868
 30
0.0
 11
1673.761155971326
 21
935.4849887842785
 31
0.0
  0
LINE
  5
70E
330
6FF
100
AcDbEntity
  8
0
  6
Continuous
 62
     7
370
    15
100
AcDbLine
 10
1673.761155971326
 20
936.2349888367244
 30
0.0
 11
1679.661155971326
 21
936.2349888367244
 31
0.0
  0
LINE
  5
70F
330
6FF
100
AcDbEntity
  8
0
  6
Continuous
 62
     7
370
    15
100
AcDbLine
 10
1673.761155971326
 20
936.2349888367244
 30
0.0
 11
1673.761155971326
 21
935.4849887842785
 31
0.0
  0
LINE
  5
710
330
6FF
100
AcDbEntity
  8
0
  6
Continuous
 62
     7
370
    15
100
AcDbLine
 10
1679.661155971326
 20
936.2349888367244
 30
0.0
 11
1679.661155971326
 21
935.4849886793868
 31
0.0
  0
LINE
  5
711
330
6FF
100
AcDbEntity
  8
0
  6
Continuous
 62
     7
370
    15
100
AcDbLine
 10
1673.761155971326
 20
933.717499465855
 30
0.0
 11
1679.661155971326
 21
933.7174994658614
 31
0.0
  0
LINE
  5
712
330
6FF
100
AcDbEntity
  8
0
  6
Continuous
 62
     7
370
    15
100
AcDbLine
 10
1673.761155971326
 20
933.717499465855
 30
0.0
 11
1673.761155971326
 21
935.4849887842785
 31
0.0
  0
LINE
  5
713
330
6FF
100
AcDbEntity
  8
0
  6
Continuous
 62
     7
370
    15
100
AcDbLine
 10
1679.661155971326
 20
933.7174994658614
 30
0.0
 11
1679.661155971326
 21
935.4849886793868
 31
0.0
  0
LINE
  5
714
330
6FF
100
AcDbEntity
  8
0
  6
Continuous
 62
     7
370
    15
100
AcDbLine
 10
1673.761155971326
 20
933.717499465855
 30
0.0
 11
1673.761155971326
 21
933.514687856673
 31
0.0
  0
LINE
  5
715
330
6FF
100
AcDbEntity
  8
0
  6
Continuous
 62
     7
370
    15
100
AcDbLine
 10
1679.661155971326
 20
933.7174994658614
 30
0.0
 11
1679.661155971326
 21
933.514687856673
 31
0.0
  0
LINE
  5
716
330
6FF
100
AcDbEntity
  8
0
  6
Continuous
 62
     7
370
    15
100
AcDbLine
 10
1673.761155971326
 20
917.4434324222193
 30
0.0
 11
1679.661155971326
 21
917.4434324222193
 31
0.0
  0
LINE
  5
717
330
6FF
100
AcDbEntity
  8
0
  6
Continuous
 62
     7
370
    15
100
AcDbLine
 10
1679.661155971326
 20
918.4434324222193
 30
0.0
 11
1673.761155971326
 21
918.4434324222193
 31
0.0
  0
LINE
  5
718
330
6FF
100
AcDbEntity
  8
0
  6
Continuous
 62
     7
370
    15
100
AcDbLine
 10
1673.761155971326
 20
918.4434324222193
 30
0.0
 11
1673.761155971326
 21
917.4434324222193
 31
0.0
  0
LINE
  5
719
330
6FF
100
AcDbEntity
  8
0
  6
Continuous
 62
     7
370
    15
100
AcDbLine
 10
1679.661155971326
 20
918.4434324222193
 30
0.0
 11
1679.661155971326
 21
917.4434324222193
 31
0.0
  0
LINE
  5
71A
330
6FF
100
AcDbEntity
  8
0
  6
Continuous
 62
     7
370
    15
100
AcDbLine
 10
1673.761155971326
 20
920.6427404937837
 30
0.0
 11
1679.661155971326
 21
920.6427404937837
 31
0.0
  0
LINE
  5
71B
330
6FF
100
AcDbEntity
  8
0
  6
Continuous
 62
     7
370
    15
100
AcDbLine
 10
1679.661155971326
 20
920.9427404937839
 30
0.0
 11
1673.761155971326
 21
920.9427404937839
 31
0.0
  0
LINE
  5
71C
330
6FF
100
AcDbEntity
  8
0
  6
Continuous
 62
     7
370
    15
100
AcDbLine
 10
1673.761155971326
 20
920.9427404937839
 30
0.0
 11
1673.761155971326
 21
920.6427404937837
 31
0.0
  0
LINE
  5
71D
330
6FF
100
AcDbEntity
  8
0
  6
Continuous
 62
     7
370
    15
100
AcDbLine
 10
1679.661155971326
 20
920.9427404937839
 30
0.0
 11
1679.661155971326
 21
920.6427404937837
 31
0.0
  0
LINE
  5
71E
330
6FF
100
AcDbEntity
  8
0
  6
Continuous
 62
     7
370
    15
100
AcDbLine
 10
1673.761155971326
 20
918.4434324222193
 30
0.0
 11
1673.761155971326
 21
920.6427404937837
 31
0.0
  0
LINE
  5
71F
330
6FF
100
AcDbEntity
  8
0
  6
Continuous
 62
     7
370
    15
100
AcDbLine
 10
1679.661155971326
 20
920.6427404937837
 30
0.0
 11
1679.661155971326
 21
918.4434324222193
 31
0.0
  0
LINE
  5
720
330
6FF
100
AcDbEntity
  8
0
  6
Continuous
 62
     7
370
    15
100
AcDbLine
 10
1673.761155971326
 20
920.9427404937839
 30
0.0
 11
1673.761155971326
 21
925.4595996659489
 31
0.0
  0
LINE
  5
721
330
6FF
100
AcDbEntity
  8
0
  6
Continuous
 62
     7
370
    15
100
AcDbLine
 10
1679.661155971326
 20
920.9427404937839
 30
0.0
 11
1679.661155971326
 21
925.4595996659489
 31
0.0
  0
LINE
  5
722
330
6FF
100
AcDbEntity
  8
0
  6
Continuous
 62
     7
370
    15
100
AcDbLine
 10
1679.661155971326
 20
942.3940248632757
 30
0.0
 11
1677.659351917759
 21
942.3940248632762
 31
0.0
  0
LINE
  5
723
330
6FF
100
AcDbEntity
  8
0
  6
Continuous
 62
     7
370
    15
100
AcDbLine
 10
1675.762960024892
 20
942.394024863276
 30
0.0
 11
1673.761155971326
 21
942.3940248632758
 31
0.0
  0
ELLIPSE
  5
724
330
6FF
100
AcDbEntity
  8
0
  6
Continuous
 62
     7
370
    15
100
AcDbEllipse
 10
1676.711155971326
 20
939.6768679861597
 30
0.0
 11
0.0
 21
2.93656969525449
 31
0.0
210
0.0
220
0.0
230
1.0
 40
0.8513334466537642
 41
0.3890162787019293
 42
5.894169028477771
  0
LINE
  5
725
330
6FF
100
AcDbEntity
  8
0
  6
Continuous
 62
     7
370
    15
100
AcDbLine
 10
1673.761155971326
 20
936.2349888367244
 30
0.0
 11
1673.761155971326
 21
942.3940248632758
 31
0.0
  0
LINE
  5
726
330
6FF
100
AcDbEntity
  8
0
  6
Continuous
 62
     7
370
    15
100
AcDbLine
 10
1679.661155971326
 20
936.2349888367244
 30
0.0
 11
1679.661155971326
 21
942.3940248632757
 31
0.0
  0
SPLINE
  5
727
330
6FF
100
AcDbEntity
  8
0
  6
Continuous
 62
     7
370
    15
100
AcDbSpline
210
0.0
220
0.0
230
1.0
 70
     8
 71
     3
 72
    14
 73
    10
 74
     0
 42
0.0000000001
 43
0.0000000001
 40
0.0
 40
0.0
 40
0.0
 40
0.0
 40
0.25
 40
0.25
 40
0.5
 40
0.5
 40
0.75
 40
0.75
 40
1.0
 40
1.0
 40
1.0
 40
1.0
 10
1675.762960024892
 20
942.3940248632767
 30
0.0
 10
1675.907839525909
 20
942.4637823669145
 30
0.0
 10
1676.061619652915
 20
942.5079519518455
 30
0.0
 10
1676.383211732058
 20
942.566152844771
 30
0.0
 10
1676.546807278966
 20
942.5791147904341
 30
0.0
 10
1676.877441040062
 20
942.579007863376
 30
0.0
 10
1677.039646334071
 20
942.5659611727651
 30
0.0
 10
1677.35754825013
 20
942.508613032148
 30
0.0
 10
1677.514508236625
 20
942.4637651201297
 30
0.0
 10
1677.65935191776
 20
942.3940248632769
 30
0.0
  0
ARC
  5
728
330
6FF
100
AcDbEntity
  8
0
  6
Continuous
 62
     7
370
    15
100
AcDbCircle
 10
1676.706002515876
 20
928.8341727048894
 30
0.0
 40
8.046730288655261
100
AcDbArc
 50
89.9633054350286
 51
94.83717475785331
  0
ARC
  5
729
330
6FF
100
AcDbEntity
  8
0
  6
Continuous
 62
     7
370
    15
100
AcDbCircle
 10
1676.716309426776
 20
928.8341727048956
 30
0.0
 40
8.046730288648781
100
AcDbArc
 50
85.16282524210721
 51
90.0366945649714
  0
LINE
  5
72A
330
6FF
100
AcDbEntity
  8
0
  6
Continuous
 62
     7
370
    15
100
AcDbLine
 10
1673.761155971326
 20
928.9466240044177
 30
0.0
 11
1673.761155971326
 21
933.514687856673
 31
0.0
  0
LINE
  5
72B
330
6FF
100
AcDbEntity
  8
0
  6
Continuous
 62
     7
370
    15
100
AcDbLine
 10
1679.661155971326
 20
928.9466240044177
 30
0.0
 11
1679.661155971326
 21
933.514687856673
 31
0.0
  0
LINE
  5
72C
330
6FF
100
AcDbEntity
  8
0
  6
Continuous
 62
     7
370
    15
100
AcDbLine
 10
1679.661155971326
 20
942.8477418140245
 30
0.0
 11
1673.761155971326
 21
942.8477418140245
 31
0.0
  0
LINE
  5
72D
330
6FF
100
AcDbEntity
  8
0
  6
Continuous
 62
     7
370
    15
100
AcDbLine
 10
1673.761155971326
 20
942.8477418140245
 30
0.0
 11
1673.761155971326
 21
942.3940248632758
 31
0.0
  0
LINE
  5
72E
330
6FF
100
AcDbEntity
  8
0
  6
Continuous
 62
     7
370
    15
100
AcDbLine
 10
1679.661155971326
 20
942.8477418140245
 30
0.0
 11
1679.661155971326
 21
942.3940248632757
 31
0.0
  0
LINE
  5
72F
330
6FF
100
AcDbEntity
  8
0
  6
Continuous
 62
     7
370
    15
100
AcDbLine
 10
1673.761155971326
 20
943.8434324222193
 30
0.0
 11
1674.811155971326
 21
943.8434324222193
 31
0.0
  0
LINE
  5
730
330
6FF
100
AcDbEntity
  8
0
  6
Continuous
 62
     7
370
    15
100
AcDbLine
 10
1674.811155971326
 20
943.8434324222191
 30
0.0
 11
1674.811155971326
 21
942.881175498422
 31
0.0
  0
LINE
  5
731
330
6FF
100
AcDbEntity
  8
0
  6
Continuous
 62
     7
370
    15
100
AcDbLine
 10
1674.811155971326
 20
942.8811754984222
 30
0.0
 11
1678.611155971326
 21
942.8811754984222
 31
0.0
  0
LINE
  5
732
330
6FF
100
AcDbEntity
  8
0
  6
Continuous
 62
     7
370
    15
100
AcDbLine
 10
1678.611155971326
 20
942.881175498422
 30
0.0
 11
1678.611155971326
 21
943.8434324222191
 31
0.0
  0
LINE
  5
733
330
6FF
100
AcDbEntity
  8
0
  6
Continuous
 62
     7
370
    15
100
AcDbLine
 10
1678.611155971326
 20
943.8434324222193
 30
0.0
 11
1679.661155971326
 21
943.8434324222193
 31
0.0
  0
LINE
  5
734
330
6FF
100
AcDbEntity
  8
0
  6
Continuous
 62
     7
370
    15
100
AcDbLine
 10
1673.761155971326
 20
942.8477418140245
 30
0.0
 11
1673.761155971326
 21
943.8434324222193
 31
0.0
  0
LINE
  5
735
330
6FF
100
AcDbEntity
  8
0
  6
Continuous
 62
     7
370
    15
100
AcDbLine
 10
1679.661155971326
 20
943.8434324222193
 30
0.0
 11
1679.661155971326
 21
942.8477418140245
 31
0.0
  0
ELLIPSE
  5
736
330
6FF
100
AcDbEntity
  8
0
  6
Continuous
 62
     7
370
    15
100
AcDbEllipse
 10
1676.711155971326
 20
943.1335954573473
 30
0.0
 11
0.4999999999999432
 21
0.0
 31
0.0
210
0.0
220
0.0
230
1.0
 40
0.3583582925451036
 41
4.084840545991186
 42
5.339937414778319
  0
LINE
  5
737
330
6FF
100
AcDbEntity
  8
0
  6
Continuous
 62
     7
370
    15
100
AcDbLine
 10
1678.461155971326
 20
942.9885554203005
 30
0.0
 11
1677.00473699985
 21
942.9885554203005
 31
0.0
  0
LINE
  5
738
330
6FF
100
AcDbEntity
  8
0
  6
Continuous
 62
     7
370
    15
100
AcDbLine
 10
1674.961155971326
 20
942.8811754984222
 30
0.0
 11
1674.961155971326
 21
942.9885554203002
 31
0.0
  0
LINE
  5
739
330
6FF
100
AcDbEntity
  8
0
  6
Continuous
 62
     7
370
    15
100
AcDbLine
 10
1676.417574942802
 20
942.9885554203005
 30
0.0
 11
1674.961155971326
 21
942.9885554203005
 31
0.0
  0
LINE
  5
73A
330
6FF
100
AcDbEntity
  8
0
  6
Continuous
 62
     7
370
    15
100
AcDbLine
 10
1678.461155971326
 20
942.9885554203002
 30
0.0
 11
1678.461155971326
 21
942.8811754984222
 31
0.0
  0
LINE
  5
73B
330
6FF
100
AcDbEntity
  8
0
  6
Continuous
 62
     7
370
    15
100
AcDbLine
 10
1677.111155971326
 20
943.1107336659332
 30
0.0
 11
1676.311155971326
 21
943.1107336659332
 31
0.0
  0
LINE
  5
73C
330
6FF
100
AcDbEntity
  8
0
  6
Continuous
 62
     7
370
    15
100
AcDbLine
 10
1676.311155971326
 20
943.2786511769654
 30
0.0
 11
1674.961155971326
 21
943.2786511769654
 31
0.0
  0
LINE
  5
73D
330
6FF
100
AcDbEntity
  8
0
  6
Continuous
 62
     7
370
    15
100
AcDbLine
 10
1676.311155971326
 20
943.6776416027406
 30
0.0
 11
1674.961155971326
 21
943.6776416027406
 31
0.0
  0
LINE
  5
73E
330
6FF
100
AcDbEntity
  8
0
  6
Continuous
 62
     7
370
    15
100
AcDbLine
 10
1676.311155971326
 20
943.6776416027406
 30
0.0
 11
1676.311155971326
 21
943.2786511769654
 31
0.0
  0
LINE
  5
73F
330
6FF
100
AcDbEntity
  8
0
  6
Continuous
 62
     7
370
    15
100
AcDbLine
 10
1674.961155971326
 20
943.6776416027406
 30
0.0
 11
1674.961155971326
 21
943.2786511769654
 31
0.0
  0
LINE
  5
740
330
6FF
100
AcDbEntity
  8
0
  6
Continuous
 62
     7
370
    15
100
AcDbLine
 10
1678.461155971326
 20
943.6776416027406
 30
0.0
 11
1677.111155971326
 21
943.6776416027406
 31
0.0
  0
LINE
  5
741
330
6FF
100
AcDbEntity
  8
0
  6
Continuous
 62
     7
370
    15
100
AcDbLine
 10
1678.461155971326
 20
943.2786511769654
 30
0.0
 11
1677.111155971326
 21
943.2786511769654
 31
0.0
  0
LINE
  5
742
330
6FF
100
AcDbEntity
  8
0
  6
Continuous
 62
     7
370
    15
100
AcDbLine
 10
1677.111155971326
 20
943.6776416027406
 30
0.0
 11
1677.111155971326
 21
943.2786511769654
 31
0.0
  0
LINE
  5
743
330
6FF
100
AcDbEntity
  8
0
  6
Continuous
 62
     7
370
    15
100
AcDbLine
 10
1678.461155971326
 20
943.6776416027406
 30
0.0
 11
1678.461155971326
 21
943.2786511769654
 31
0.0
  0
LINE
  5
744
330
6FF
100
AcDbEntity
  8
0
  6
Continuous
 62
     7
370
    15
100
AcDbLine
 10
1677.111155971326
 20
943.2786511769654
 30
0.0
 11
1677.111155971326
 21
942.9885554203002
 31
0.0
  0
LINE
  5
745
330
6FF
100
AcDbEntity
  8
0
  6
Continuous
 62
     7
370
    15
100
AcDbLine
 10
1678.461155971326
 20
943.2786511769654
 30
0.0
 11
1678.461155971326
 21
942.9885554203002
 31
0.0
  0
LINE
  5
746
330
6FF
100
AcDbEntity
  8
0
  6
Continuous
 62
     7
370
    15
100
AcDbLine
 10
1676.311155971326
 20
942.9885554203005
 30
0.0
 11
1676.311155971326
 21
943.2786511769654
 31
0.0
  0
LINE
  5
747
330
6FF
100
AcDbEntity
  8
0
  6
Continuous
 62
     7
370
    15
100
AcDbLine
 10
1674.961155971326
 20
942.9885554203005
 30
0.0
 11
1674.961155971326
 21
943.2786511769654
 31
0.0
  0
LINE
  5
748
330
6FF
100
AcDbEntity
  8
0
  6
Continuous
 62
     7
370
    15
100
AcDbLine
 10
1674.811155971326
 20
943.8434324222193
 30
0.0
 11
1678.611155971326
 21
943.8434324222193
 31
0.0
  0
ENDBLK
  5
701
330
6FF
100
AcDbEntity
  8
0
100
AcDbBlockEnd
  0
BLOCK
  5
74B
330
74A
100
AcDbEntity
  8
0
100
AcDbBlockBegin
  2
3
 70
     0
 10
0.0
 20
0.0
 30
0.0
  3
3
  1

  0
LINE
  5
74D
330
74A
100
AcDbEntity
  8
0
  6
Continuous
 62
     7
370
    15
100
AcDbLine
 10
1725.335368763774
 20
870.2546476958202
 30
0.0
 11
1725.335368763774
 21
876.1546476958201
 31
0.0
  0
LINE
  5
74E
330
74A
100
AcDbEntity
  8
0
  6
Continuous
 62
     7
370
    15
100
AcDbLine
 10
1729.835738848703
 20
876.1546476958201
 30
0.0
 11
1729.835738848703
 21
870.2546476958202
 31
0.0
  0
LINE
  5
74F
330
74A
100
AcDbEntity
  8
0
  6
Continuous
 62
     7
370
    15
100
AcDbLine
 10
1723.565683570435
 20
871.3046476958203
 30
0.0
 11
1720.513794512382
 21
871.3046476958203
 31
0.0
  0
LINE
  5
750
330
74A
100
AcDbEntity
  8
0
  6
Continuous
 62
     7
370
    15
100
AcDbLine
 10
1723.565683570434
 20
871.3046476958203
 30
0.0
 11
1723.565683570434
 21
870.2546476958202
 31
0.0
  0
LINE
  5
751
330
74A
100
AcDbEntity
  8
0
  6
Continuous
 62
     7
370
    15
100
AcDbLine
 10
1723.565683570434
 20
870.2546476958202
 30
0.0
 11
1720.407756412723
 21
870.2546476958202
 31
0.0
  0
LINE
  5
752
330
74A
100
AcDbEntity
  8
0
  6
Continuous
 62
     7
370
    15
100
AcDbLine
 10
1720.407756412723
 20
876.1546476958201
 30
0.0
 11
1720.407756412723
 21
870.2546476958202
 31
0.0
  0
LINE
  5
753
330
74A
100
AcDbEntity
  8
0
  6
Continuous
 62
     7
370
    15
100
AcDbLine
 10
1723.565683570437
 20
876.1546476958201
 30
0.0
 11
1720.407756412723
 21
876.1546476958201
 31
0.0
  0
LINE
  5
754
330
74A
100
AcDbEntity
  8
0
  6
Continuous
 62
     7
370
    15
100
AcDbLine
 10
1723.565683570437
 20
876.1546476958201
 30
0.0
 11
1723.565683570436
 21
875.1046476958201
 31
0.0
  0
LINE
  5
755
330
74A
100
AcDbEntity
  8
0
  6
Continuous
 62
     7
370
    15
100
AcDbLine
 10
1720.513794512382
 20
875.1046476958201
 30
0.0
 11
1723.565683570436
 21
875.1046476958201
 31
0.0
  0
LINE
  5
756
330
74A
100
AcDbEntity
  8
0
  6
Continuous
 62
     7
370
    15
100
AcDbLine
 10
1720.513794512382
 20
871.3046476958203
 30
0.0
 11
1720.513794512382
 21
875.1046476958201
 31
0.0
  0
LINE
  5
757
330
74A
100
AcDbEntity
  8
0
  6
Continuous
 62
     7
370
    15
100
AcDbLine
 10
1724.391667434593
 20
876.1546476958201
 30
0.0
 11
1723.565683570437
 21
876.1546476958201
 31
0.0
  0
LINE
  5
758
330
74A
100
AcDbEntity
  8
0
  6
Continuous
 62
     7
370
    15
100
AcDbLine
 10
1724.391667434593
 20
870.2546476958202
 30
0.0
 11
1724.391667434593
 21
876.1546476958201
 31
0.0
  0
LINE
  5
759
330
74A
100
AcDbEntity
  8
0
  6
Continuous
 62
     7
370
    15
100
AcDbLine
 10
1723.565683570434
 20
870.2546476958202
 30
0.0
 11
1724.391667434593
 21
870.2546476958202
 31
0.0
  0
LINE
  5
75A
330
74A
100
AcDbEntity
  8
0
  6
Continuous
 62
     7
370
    15
100
AcDbLine
 10
1723.565683570434
 20
875.1046476958201
 30
0.0
 11
1723.565683570434
 21
871.3046476958203
 31
0.0
  0
LINE
  5
75B
330
74A
100
AcDbEntity
  8
0
  6
Continuous
 62
     7
370
    15
100
AcDbLine
 10
1731.605424042043
 20
870.2546476958202
 30
0.0
 11
1731.605424042043
 21
871.3046476958203
 31
0.0
  0
LINE
  5
75C
330
74A
100
AcDbEntity
  8
0
  6
Continuous
 62
     7
370
    15
100
AcDbLine
 10
1731.605424042043
 20
871.3046476958203
 30
0.0
 11
1734.657313100095
 21
871.3046476958203
 31
0.0
  0
LINE
  5
75D
330
74A
100
AcDbEntity
  8
0
  6
Continuous
 62
     7
370
    15
100
AcDbLine
 10
1734.657313100095
 20
871.3046476958203
 30
0.0
 11
1734.657313100095
 21
875.1046476958201
 31
0.0
  0
LINE
  5
75E
330
74A
100
AcDbEntity
  8
0
  6
Continuous
 62
     7
370
    15
100
AcDbLine
 10
1734.657313100095
 20
875.1046476958201
 30
0.0
 11
1731.605424042043
 21
875.1046476958201
 31
0.0
  0
LINE
  5
75F
330
74A
100
AcDbEntity
  8
0
  6
Continuous
 62
     7
370
    15
100
AcDbLine
 10
1731.605424042043
 20
875.1046476958201
 30
0.0
 11
1731.605424042043
 21
876.1546476958201
 31
0.0
  0
LINE
  5
760
330
74A
100
AcDbEntity
  8
0
  6
Continuous
 62
     7
370
    15
100
AcDbLine
 10
1731.605424042043
 20
876.1546476958201
 30
0.0
 11
1734.763351199754
 21
876.1546476958201
 31
0.0
  0
LINE
  5
761
330
74A
100
AcDbEntity
  8
0
  6
Continuous
 62
     7
370
    15
100
AcDbLine
 10
1734.763351199754
 20
876.1546476958201
 30
0.0
 11
1734.763351199754
 21
870.2546476958202
 31
0.0
  0
LINE
  5
762
330
74A
100
AcDbEntity
  8
0
  6
Continuous
 62
     7
370
    15
100
AcDbLine
 10
1734.763351199754
 20
870.2546476958202
 30
0.0
 11
1731.605424042043
 21
870.2546476958202
 31
0.0
  0
LINE
  5
763
330
74A
100
AcDbEntity
  8
0
  6
Continuous
 62
     7
370
    15
100
AcDbLine
 10
1730.779440177884
 20
876.1546476958201
 30
0.0
 11
1730.779440177884
 21
870.2546476958202
 31
0.0
  0
LINE
  5
764
330
74A
100
AcDbEntity
  8
0
  6
Continuous
 62
     7
370
    15
100
AcDbLine
 10
1731.605424042043
 20
876.1546476958201
 30
0.0
 11
1730.779440177884
 21
876.1546476958201
 31
0.0
  0
LINE
  5
765
330
74A
100
AcDbEntity
  8
0
  6
Continuous
 62
     7
370
    15
100
AcDbLine
 10
1730.779440177884
 20
870.2546476958202
 30
0.0
 11
1731.605424042043
 21
870.2546476958202
 31
0.0
  0
LINE
  5
766
330
74A
100
AcDbEntity
  8
0
  6
Continuous
 62
     7
370
    15
100
AcDbLine
 10
1731.605424042043
 20
871.3046476958203
 30
0.0
 11
1731.605424042043
 21
875.1046476958201
 31
0.0
  0
LINE
  5
767
330
74A
100
AcDbEntity
  8
0
  6
Continuous
 62
     7
370
    15
100
AcDbLine
 10
1724.591667434589
 20
870.2546476958202
 30
0.0
 11
1724.591667434589
 21
876.1546476958201
 31
0.0
  0
LINE
  5
768
330
74A
100
AcDbEntity
  8
0
  6
Continuous
 62
     7
370
    15
100
AcDbLine
 10
1724.391667434593
 20
870.2546476958202
 30
0.0
 11
1724.591667434589
 21
870.2546476958202
 31
0.0
  0
LINE
  5
769
330
74A
100
AcDbEntity
  8
0
  6
Continuous
 62
     7
370
    15
100
AcDbLine
 10
1724.591667434589
 20
876.1546476958201
 30
0.0
 11
1724.391667434593
 21
876.1546476958201
 31
0.0
  0
LINE
  5
76A
330
74A
100
AcDbEntity
  8
0
  6
Continuous
 62
     7
370
    15
100
AcDbLine
 10
1730.579440177895
 20
870.2546476958202
 30
0.0
 11
1730.779440177884
 21
870.2546476958202
 31
0.0
  0
LINE
  5
76B
330
74A
100
AcDbEntity
  8
0
  6
Continuous
 62
     7
370
    15
100
AcDbLine
 10
1730.579440177895
 20
876.1546476958201
 30
0.0
 11
1730.579440177895
 21
870.2546476958202
 31
0.0
  0
LINE
  5
76C
330
74A
100
AcDbEntity
  8
0
  6
Continuous
 62
     7
370
    15
100
AcDbLine
 10
1730.779440177884
 20
876.1546476958201
 30
0.0
 11
1730.579440177895
 21
876.1546476958201
 31
0.0
  0
LINE
  5
76D
330
74A
100
AcDbEntity
  8
0
  6
Continuous
 62
     7
370
    15
100
AcDbLine
 10
1722.528195478301
 20
871.4546476958203
 30
0.0
 11
1722.528195478301
 21
872.8046476958201
 31
0.0
  0
LINE
  5
76E
330
74A
100
AcDbEntity
  8
0
  6
Continuous
 62
     7
370
    15
100
AcDbLine
 10
1723.565683570434
 20
872.8046476958201
 30
0.0
 11
1722.528195478301
 21
872.8046476958201
 31
0.0
  0
LINE
  5
76F
330
74A
100
AcDbEntity
  8
0
  6
Continuous
 62
     7
370
    15
100
AcDbLine
 10
1723.565683570434
 20
871.4546476958203
 30
0.0
 11
1722.528195478301
 21
871.4546476958203
 31
0.0
  0
LINE
  5
770
330
74A
100
AcDbEntity
  8
0
  6
Continuous
 62
     7
370
    15
100
AcDbLine
 10
1722.528195478301
 20
873.6046476958202
 30
0.0
 11
1722.528195478301
 21
874.9546476958201
 31
0.0
  0
LINE
  5
771
330
74A
100
AcDbEntity
  8
0
  6
Continuous
 62
     7
370
    15
100
AcDbLine
 10
1723.565683570434
 20
873.6046476958202
 30
0.0
 11
1722.528195478301
 21
873.6046476958202
 31
0.0
  0
LINE
  5
772
330
74A
100
AcDbEntity
  8
0
  6
Continuous
 62
     7
370
    15
100
AcDbLine
 10
1723.565683570434
 20
874.9546476958201
 30
0.0
 11
1722.528195478301
 21
874.9546476958201
 31
0.0
  0
LINE
  5
773
330
74A
100
AcDbEntity
  8
0
  6
Continuous
 62
     7
370
    15
100
AcDbLine
 10
1732.642912134173
 20
874.9546476958201
 30
0.0
 11
1732.642912134173
 21
873.6046476958202
 31
0.0
  0
LINE
  5
774
330
74A
100
AcDbEntity
  8
0
  6
Continuous
 62
     7
370
    15
100
AcDbLine
 10
1731.605424042043
 20
874.9546476958201
 30
0.0
 11
1732.642912134173
 21
874.9546476958201
 31
0.0
  0
LINE
  5
775
330
74A
100
AcDbEntity
  8
0
  6
Continuous
 62
     7
370
    15
100
AcDbLine
 10
1731.605424042043
 20
873.6046476958202
 30
0.0
 11
1732.642912134173
 21
873.6046476958202
 31
0.0
  0
LINE
  5
776
330
74A
100
AcDbEntity
  8
0
  6
Continuous
 62
     7
370
    15
100
AcDbLine
 10
1732.642912134173
 20
872.8046476958201
 30
0.0
 11
1732.642912134173
 21
871.4546476958203
 31
0.0
  0
LINE
  5
777
330
74A
100
AcDbEntity
  8
0
  6
Continuous
 62
     7
370
    15
100
AcDbLine
 10
1731.605424042043
 20
871.4546476958203
 30
0.0
 11
1732.642912134173
 21
871.4546476958203
 31
0.0
  0
LINE
  5
778
330
74A
100
AcDbEntity
  8
0
  6
Continuous
 62
     7
370
    15
100
AcDbLine
 10
1731.605424042043
 20
872.8046476958201
 30
0.0
 11
1732.642912134173
 21
872.8046476958201
 31
0.0
  0
LINE
  5
779
330
74A
100
AcDbEntity
  8
0
  6
Continuous
 62
     7
370
    15
100
AcDbLine
 10
1730.579436023202
 20
870.2546476958202
 30
0.0
 11
1730.579436023202
 21
876.1546476958201
 31
0.0
  0
LINE
  5
77A
330
74A
100
AcDbEntity
  8
0
  6
Continuous
 62
     7
370
    15
100
AcDbLine
 10
1724.591671589275
 20
876.1546476958201
 30
0.0
 11
1724.591671589275
 21
870.2546476958202
 31
0.0
  0
LINE
  5
77B
330
74A
100
AcDbEntity
  8
0
  6
Continuous
 62
     7
370
    15
100
AcDbLine
 10
1724.791671589265
 20
876.1546476958201
 30
0.0
 11
1724.791671589265
 21
870.2546476958202
 31
0.0
  0
LINE
  5
77C
330
74A
100
AcDbEntity
  8
0
  6
Continuous
 62
     7
370
    15
100
AcDbLine
 10
1724.591671589275
 20
876.1546476958201
 30
0.0
 11
1724.791671589265
 21
876.1546476958201
 31
0.0
  0
LINE
  5
77D
330
74A
100
AcDbEntity
  8
0
  6
Continuous
 62
     7
370
    15
100
AcDbLine
 10
1724.791671589265
 20
870.2546476958202
 30
0.0
 11
1724.591671589275
 21
870.2546476958202
 31
0.0
  0
LINE
  5
77E
330
74A
100
AcDbEntity
  8
0
  6
Continuous
 62
     7
370
    15
100
AcDbLine
 10
1730.379436023212
 20
870.2546476958202
 30
0.0
 11
1730.379436023212
 21
876.1546476958201
 31
0.0
  0
LINE
  5
77F
330
74A
100
AcDbEntity
  8
0
  6
Continuous
 62
     7
370
    15
100
AcDbLine
 10
1730.379436023212
 20
876.1546476958201
 30
0.0
 11
1730.579436023202
 21
876.1546476958201
 31
0.0
  0
LINE
  5
780
330
74A
100
AcDbEntity
  8
0
  6
Continuous
 62
     7
370
    15
100
AcDbLine
 10
1730.579436023202
 20
870.2546476958202
 30
0.0
 11
1730.379436023212
 21
870.2546476958202
 31
0.0
  0
LINE
  5
781
330
74A
100
AcDbEntity
  8
0
  6
Continuous
 62
     7
370
    15
100
AcDbLine
 10
1729.863234160355
 20
876.1546476958201
 30
0.0
 11
1729.863234160355
 21
870.2546476958202
 31
0.0
  0
LINE
  5
782
330
74A
100
AcDbEntity
  8
0
  6
Continuous
 62
     7
370
    15
100
AcDbLine
 10
1730.063043621655
 20
870.2546476958202
 30
0.0
 11
1730.063043621655
 21
876.1546476958201
 31
0.0
  0
LINE
  5
783
330
74A
100
AcDbEntity
  8
0
  6
Continuous
 62
     7
370
    15
100
AcDbLine
 10
1730.063043621655
 20
876.1546476958201
 30
0.0
 11
1729.863234160355
 21
876.1546476958201
 31
0.0
  0
LINE
  5
784
330
74A
100
AcDbEntity
  8
0
  6
Continuous
 62
     7
370
    15
100
AcDbLine
 10
1729.863234160355
 20
870.2546476958202
 30
0.0
 11
1730.063043621655
 21
870.2546476958202
 31
0.0
  0
LINE
  5
785
330
74A
100
AcDbEntity
  8
0
  6
Continuous
 62
     7
370
    15
100
AcDbLine
 10
1725.108063990823
 20
876.1546476958201
 30
0.0
 11
1725.108063990823
 21
870.2546476958202
 31
0.0
  0
LINE
  5
786
330
74A
100
AcDbEntity
  8
0
  6
Continuous
 62
     7
370
    15
100
AcDbLine
 10
1725.307873452123
 20
870.2546476958202
 30
0.0
 11
1725.307873452123
 21
876.1546476958201
 31
0.0
  0
LINE
  5
787
330
74A
100
AcDbEntity
  8
0
  6
Continuous
 62
     7
370
    15
100
AcDbLine
 10
1725.307873452123
 20
876.1546476958201
 30
0.0
 11
1725.108063990823
 21
876.1546476958201
 31
0.0
  0
LINE
  5
788
330
74A
100
AcDbEntity
  8
0
  6
Continuous
 62
     7
370
    15
100
AcDbLine
 10
1725.108063990823
 20
870.2546476958202
 30
0.0
 11
1725.307873452123
 21
870.2546476958202
 31
0.0
  0
LINE
  5
789
330
74A
100
AcDbEntity
  8
0
  6
Continuous
 62
     7
370
    15
100
AcDbLine
 10
1730.063043621655
 20
876.1546476958201
 30
0.0
 11
1730.379436023212
 21
876.1546476958201
 31
0.0
  0
LINE
  5
78A
330
74A
100
AcDbEntity
  8
0
  6
Continuous
 62
     7
370
    15
100
AcDbLine
 10
1730.379436023212
 20
870.2546476958202
 30
0.0
 11
1730.063043621655
 21
870.2546476958202
 31
0.0
  0
LINE
  5
78B
330
74A
100
AcDbEntity
  8
0
  6
Continuous
 62
     7
370
    15
100
AcDbLine
 10
1724.791671589265
 20
876.1546476958201
 30
0.0
 11
1725.108063990823
 21
876.1546476958201
 31
0.0
  0
LINE
  5
78C
330
74A
100
AcDbEntity
  8
0
  6
Continuous
 62
     7
370
    15
100
AcDbLine
 10
1725.108063990823
 20
870.2546476958202
 30
0.0
 11
1724.791671589265
 21
870.2546476958202
 31
0.0
  0
LINE
  5
78D
330
74A
100
AcDbEntity
  8
0
  6
Continuous
 62
     7
370
    15
100
AcDbLine
 10
1733.181053466074
 20
874.9546476958201
 30
0.0
 11
1733.181053466074
 21
873.498200722935
 31
0.0
  0
ELLIPSE
  5
78E
330
74A
100
AcDbEntity
  8
0
  6
Continuous
 62
     7
370
    15
100
AcDbEllipse
 10
1732.803180823898
 20
873.2046476958203
 30
0.0
 11
0.0
 21
0.4999999999999432
 31
0.0
210
0.0
220
0.0
230
1.0
 40
0.9335836008422045
 41
4.084909728856327
 42
5.339868231912893
  0
LINE
  5
78F
330
74A
100
AcDbEntity
  8
0
  6
Continuous
 62
     7
370
    15
100
AcDbLine
 10
1733.181053466074
 20
872.9110946687054
 30
0.0
 11
1733.181053466074
 21
871.4546476958203
 31
0.0
  0
LINE
  5
790
330
74A
100
AcDbEntity
  8
0
  6
Continuous
 62
     7
370
    15
100
AcDbLine
 10
1732.642912134173
 20
874.9546476958201
 30
0.0
 11
1733.181053466074
 21
874.9546476958201
 31
0.0
  0
LINE
  5
791
330
74A
100
AcDbEntity
  8
0
  6
Continuous
 62
     7
370
    15
100
AcDbLine
 10
1732.642912134173
 20
871.4546476958203
 30
0.0
 11
1733.181053466074
 21
871.4546476958203
 31
0.0
  0
LINE
  5
792
330
74A
100
AcDbEntity
  8
0
  6
Continuous
 62
     7
370
    15
100
AcDbLine
 10
1721.9900541464
 20
871.4546476958203
 30
0.0
 11
1721.990054159116
 21
872.9110946694573
 31
0.0
  0
ARC
  5
793
330
74A
100
AcDbEntity
  8
0
  6
Continuous
 62
     7
370
    15
100
AcDbCircle
 10
1722.429035438887
 20
873.2046477053277
 30
0.0
 40
0.5280889592278739
100
AcDbArc
 50
146.228791746673
 51
213.7712107352027
  0
LINE
  5
794
330
74A
100
AcDbEntity
  8
0
  6
Continuous
 62
     7
370
    15
100
AcDbLine
 10
1721.9900541464
 20
873.4982007221828
 30
0.0
 11
1721.9900541464
 21
874.9546476958201
 31
0.0
  0
LINE
  5
795
330
74A
100
AcDbEntity
  8
0
  6
Continuous
 62
     7
370
    15
100
AcDbLine
 10
1722.528195478301
 20
871.4546476958203
 30
0.0
 11
1721.9900541464
 21
871.4546476958203
 31
0.0
  0
LINE
  5
796
330
74A
100
AcDbEntity
  8
0
  6
Continuous
 62
     7
370
    15
100
AcDbLine
 10
1722.528195478301
 20
874.9546476958201
 30
0.0
 11
1721.9900541464
 21
874.9546476958201
 31
0.0
  0
LINE
  5
797
330
74A
100
AcDbEntity
  8
0
  6
Continuous
 62
     7
370
    15
100
AcDbLine
 10
1721.990054171832
 20
872.9110946694573
 30
0.0
 11
1721.772450193949
 21
872.9111114089448
 31
0.0
  0
LINE
  5
798
330
74A
100
AcDbEntity
  8
0
  6
Continuous
 62
     7
370
    15
100
AcDbLine
 10
1721.772450193949
 20
871.4546476958203
 30
0.0
 11
1721.772450193949
 21
872.9111114089448
 31
0.0
  0
LINE
  5
799
330
74A
100
AcDbEntity
  8
0
  6
Continuous
 62
     7
370
    15
100
AcDbLine
 10
1721.9900541464
 20
871.4546476958203
 30
0.0
 11
1721.772450193949
 21
871.4546476958203
 31
0.0
  0
ELLIPSE
  5
79A
330
74A
100
AcDbEntity
  8
0
  6
Continuous
 62
     7
370
    15
100
AcDbEllipse
 10
1733.020803521083
 20
873.2046476958203
 30
0.0
 11
0.0
 21
0.4999999999999432
 31
0.0
210
0.0
220
0.0
230
1.0
 40
0.9335841349446734
 41
4.084840545991409
 42
5.339937414777834
  0
LINE
  5
79B
330
74A
100
AcDbEntity
  8
0
  6
Continuous
 62
     7
370
    15
100
AcDbLine
 10
1733.398657418525
 20
874.9546476958201
 30
0.0
 11
1733.398657418525
 21
873.498228724344
 31
0.0
  0
LINE
  5
79C
330
74A
100
AcDbEntity
  8
0
  6
Continuous
 62
     7
370
    15
100
AcDbLine
 10
1734.437947058976
 20
871.4546476958203
 30
0.0
 11
1734.437947058976
 21
874.9546476958201
 31
0.0
  0
LINE
  5
79D
330
74A
100
AcDbEntity
  8
0
  6
Continuous
 62
     7
370
    15
100
AcDbLine
 10
1733.398657418525
 20
872.9110666672964
 30
0.0
 11
1733.398657418525
 21
871.4546476958203
 31
0.0
  0
LINE
  5
79E
330
74A
100
AcDbEntity
  8
0
  6
Continuous
 62
     7
370
    15
100
AcDbLine
 10
1733.398657418525
 20
874.9546476958201
 30
0.0
 11
1734.437947058976
 21
874.9546476958201
 31
0.0
  0
LINE
  5
79F
330
74A
100
AcDbEntity
  8
0
  6
Continuous
 62
     7
370
    15
100
AcDbLine
 10
1734.437947058976
 20
871.4546476958203
 30
0.0
 11
1733.398657418525
 21
871.4546476958203
 31
0.0
  0
LINE
  5
7A0
330
74A
100
AcDbEntity
  8
0
  6
Continuous
 62
     7
370
    15
100
AcDbLine
 10
1733.181053466074
 20
872.9110946687054
 30
0.0
 11
1733.398657418525
 21
872.9110666672964
 31
0.0
  0
LINE
  5
7A1
330
74A
100
AcDbEntity
  8
0
  6
Continuous
 62
     7
370
    15
100
AcDbLine
 10
1733.398657418525
 20
871.4546476958203
 30
0.0
 11
1733.181053466074
 21
871.4546476958203
 31
0.0
  0
LINE
  5
7A2
330
74A
100
AcDbEntity
  8
0
  6
Continuous
 62
     7
370
    15
100
AcDbLine
 10
1720.733160553498
 20
874.9546476958201
 30
0.0
 11
1720.733160553498
 21
871.4546476958203
 31
0.0
  0
LINE
  5
7A3
330
74A
100
AcDbEntity
  8
0
  6
Continuous
 62
     7
370
    15
100
AcDbLine
 10
1721.772450193949
 20
873.4981839826955
 30
0.0
 11
1721.772450193949
 21
874.9546476958201
 31
0.0
  0
ARC
  5
7A4
330
74A
100
AcDbEntity
  8
0
  6
Continuous
 62
     7
370
    15
100
AcDbCircle
 10
1722.211443769763
 20
873.2046476958201
 30
0.0
 40
0.5280898704939086
100
AcDbArc
 50
146.2310414231643
 51
213.7689585768176
  0
LINE
  5
7A5
330
74A
100
AcDbEntity
  8
0
  6
Continuous
 62
     7
370
    15
100
AcDbLine
 10
1721.772450193949
 20
871.4546476958203
 30
0.0
 11
1720.733160553498
 21
871.4546476958203
 31
0.0
  0
LINE
  5
7A6
330
74A
100
AcDbEntity
  8
0
  6
Continuous
 62
     7
370
    15
100
AcDbLine
 10
1720.733160553498
 20
874.9546476958201
 30
0.0
 11
1721.772450193949
 21
874.9546476958201
 31
0.0
  0
LINE
  5
7A7
330
74A
100
AcDbEntity
  8
0
  6
Continuous
 62
     7
370
    15
100
AcDbLine
 10
1733.181053466074
 20
873.498200722935
 30
0.0
 11
1733.398657418525
 21
873.498228724344
 31
0.0
  0
LINE
  5
7A8
330
74A
100
AcDbEntity
  8
0
  6
Continuous
 62
     7
370
    15
100
AcDbLine
 10
1733.181053466074
 20
874.9546476958201
 30
0.0
 11
1733.398657418525
 21
874.9546476958201
 31
0.0
  0
LINE
  5
7A9
330
74A
100
AcDbEntity
  8
0
  6
Continuous
 62
     7
370
    15
100
AcDbLine
 10
1721.9900541464
 20
873.4982007221828
 30
0.0
 11
1721.772450193949
 21
873.4981839826955
 31
0.0
  0
LINE
  5
7AA
330
74A
100
AcDbEntity
  8
0
  6
Continuous
 62
     7
370
    15
100
AcDbLine
 10
1721.772450193949
 20
874.9546476958201
 30
0.0
 11
1721.9900541464
 21
874.9546476958201
 31
0.0
  0
LINE
  5
7AB
330
74A
100
AcDbEntity
  8
0
  6
Continuous
 62
     7
370
    15
100
AcDbLine
 10
1729.835929387403
 20
870.2546476958202
 30
0.0
 11
1729.835929387403
 21
876.1546476958201
 31
0.0
  0
LINE
  5
7AC
330
74A
100
AcDbEntity
  8
0
  6
Continuous
 62
     7
370
    15
100
AcDbLine
 10
1729.863234160355
 20
876.1546476958201
 30
0.0
 11
1729.835929387403
 21
876.1546476958201
 31
0.0
  0
LINE
  5
7AD
330
74A
100
AcDbEntity
  8
0
  6
Continuous
 62
     7
370
    15
100
AcDbLine
 10
1729.835929387403
 20
870.2546476958202
 30
0.0
 11
1729.863234160355
 21
870.2546476958202
 31
0.0
  0
LINE
  5
7AE
330
74A
100
AcDbEntity
  8
0
  6
Continuous
 62
     7
370
    15
100
AcDbLine
 10
1725.335178225074
 20
876.1546476958201
 30
0.0
 11
1725.335178225074
 21
870.2546476958202
 31
0.0
  0
LINE
  5
7AF
330
74A
100
AcDbEntity
  8
0
  6
Continuous
 62
     7
370
    15
100
AcDbLine
 10
1725.335178225074
 20
876.1546476958201
 30
0.0
 11
1725.307873452123
 21
876.1546476958201
 31
0.0
  0
LINE
  5
7B0
330
74A
100
AcDbEntity
  8
0
  6
Continuous
 62
     7
370
    15
100
AcDbLine
 10
1725.307873452123
 20
870.2546476958202
 30
0.0
 11
1725.335178225074
 21
870.2546476958202
 31
0.0
  0
LINE
  5
7B1
330
74A
100
AcDbEntity
  8
0
  6
Continuous
 62
     7
370
    15
100
AcDbLine
 10
1734.065915151217
 20
871.3046476958203
 30
0.0
 11
1734.065915151217
 21
871.4546476958203
 31
0.0
  0
LINE
  5
7B2
330
74A
100
AcDbEntity
  8
0
  6
Continuous
 62
     7
370
    15
100
AcDbLine
 10
1734.065915151217
 20
874.9546476958201
 30
0.0
 11
1734.065915151217
 21
875.1046476958201
 31
0.0
  0
LINE
  5
7B3
330
74A
100
AcDbEntity
  8
0
  6
Continuous
 62
     7
370
    15
100
AcDbLine
 10
1721.229502153844
 20
875.1046476958201
 30
0.0
 11
1721.229502153844
 21
874.9546476958201
 31
0.0
  0
LINE
  5
7B4
330
74A
100
AcDbEntity
  8
0
  6
Continuous
 62
     7
370
    15
100
AcDbLine
 10
1721.229502153844
 20
871.4546476958203
 30
0.0
 11
1721.229502153844
 21
871.3046476958203
 31
0.0
  0
LINE
  5
7B5
330
74A
100
AcDbEntity
  8
0
  6
Continuous
 62
     7
370
    15
100
AcDbLine
 10
1719.842436808443
 20
874.1528436422544
 30
0.0
 11
1719.842436808444
 21
876.1546476958201
 31
0.0
  0
LINE
  5
7B6
330
74A
100
AcDbEntity
  8
0
  6
Continuous
 62
     7
370
    15
100
AcDbLine
 10
1719.842436808444
 20
870.2546476958202
 30
0.0
 11
1719.842436808444
 21
872.2564517493861
 31
0.0
  0
SPLINE
  5
7B7
330
74A
100
AcDbEntity
  8
0
  6
Continuous
 62
     7
370
    15
100
AcDbSpline
210
0.0
220
0.0
230
1.0
 70
     8
 71
     3
 72
    14
 73
    10
 74
     0
 42
0.0000000001
 43
0.0000000001
 40
0.0
 40
0.0
 40
0.0
 40
0.0
 40
0.25
 40
0.25
 40
0.5
 40
0.5
 40
0.75
 40
0.75
 40
1.0
 40
1.0
 40
1.0
 40
1.0
 10
1719.842436808443
 20
874.152843642255
 30
0.0
 10
1719.882711321947
 20
874.0079641412371
 30
0.0
 10
1719.918185442883
 20
873.8541840142319
 30
0.0
 10
1719.967052865958
 20
873.5325919350881
 30
0.0
 10
1719.980003704766
 20
873.3689963881799
 30
0.0
 10
1719.979903158368
 20
873.0383626270841
 30
0.0
 10
1719.966906981553
 20
872.876157333075
 30
0.0
 10
1719.918725580917
 20
872.5582554170156
 30
0.0
 10
1719.882701364511
 20
872.4012954305205
 30
0.0
 10
1719.842436808443
 20
872.2564517493855
 30
0.0
  0
LINE
  5
7B8
330
74A
100
AcDbEntity
  8
0
  6
Continuous
 62
     7
370
    15
100
AcDbLine
 10
1719.842436808444
 20
876.1546476958201
 30
0.0
 11
1720.407756412723
 21
876.1546476958201
 31
0.0
  0
LINE
  5
7B9
330
74A
100
AcDbEntity
  8
0
  6
Continuous
 62
     7
370
    15
100
AcDbLine
 10
1719.842436808444
 20
870.2546476958202
 30
0.0
 11
1720.407756412723
 21
870.2546476958202
 31
0.0
  0
LINE
  5
7BA
330
74A
100
AcDbEntity
  8
0
  6
Continuous
 62
     7
370
    15
100
AcDbLine
 10
1735.328670804033
 20
876.1546476958201
 30
0.0
 11
1735.328670804033
 21
874.1528436422536
 31
0.0
  0
SPLINE
  5
7BB
330
74A
100
AcDbEntity
  8
0
  6
Continuous
 62
     7
370
    15
100
AcDbSpline
210
0.0
220
0.0
230
1.0
 70
     8
 71
     3
 72
    14
 73
    10
 74
     0
 42
0.0000000001
 43
0.0000000001
 40
0.0
 40
0.0
 40
0.0
 40
0.0
 40
0.25
 40
0.25
 40
0.5
 40
0.5
 40
0.75
 40
0.75
 40
1.0
 40
1.0
 40
1.0
 40
1.0
 10
1735.328670804034
 20
872.2564517493859
 30
0.0
 10
1735.288396290531
 20
872.4013312504034
 30
0.0
 10
1735.252922169595
 20
872.5551113774088
 30
0.0
 10
1735.20405474652
 20
872.8767034565526
 30
0.0
 10
1735.191103907711
 20
873.0402990034606
 30
0.0
 10
1735.191204454109
 20
873.3709327645561
 30
0.0
 10
1735.204200630924
 20
873.5331380585652
 30
0.0
 10
1735.25238203156
 20
873.8510399746244
 30
0.0
 10
1735.288406247966
 20
874.0079999611195
 30
0.0
 10
1735.328670804034
 20
874.1528436422544
 30
0.0
  0
LINE
  5
7BC
330
74A
100
AcDbEntity
  8
0
  6
Continuous
 62
     7
370
    15
100
AcDbLine
 10
1735.328670804033
 20
872.2564517493864
 30
0.0
 11
1735.328670804033
 21
870.2546476958202
 31
0.0
  0
LINE
  5
7BD
330
74A
100
AcDbEntity
  8
0
  6
Continuous
 62
     7
370
    15
100
AcDbLine
 10
1734.763351199754
 20
876.1546476958201
 30
0.0
 11
1735.328670804033
 21
876.1546476958201
 31
0.0
  0
LINE
  5
7BE
330
74A
100
AcDbEntity
  8
0
  6
Continuous
 62
     7
370
    15
100
AcDbLine
 10
1734.763351199754
 20
870.2546476958202
 30
0.0
 11
1735.328670804033
 21
870.2546476958202
 31
0.0
  0
ELLIPSE
  5
7BF
330
74A
100
AcDbEntity
  8
0
  6
Continuous
 62
     7
370
    15
100
AcDbEllipse
 10
1736.897422058467
 20
873.2046476958203
 30
0.0
 11
0.0
 21
2.5
 31
0.0
210
0.0
220
0.0
230
1.0
 40
0.6781717216200605
 41
1.959812605497008
 42
7.464965355272466
  0
ARC
  5
7C0
330
74A
100
AcDbEntity
  8
0
  6
Continuous
 62
     7
370
    15
100
AcDbCircle
 10
1735.646433650285
 20
873.2046476958208
 30
0.0
 40
2.529456834948919
100
AcDbArc
 50
288.1068786653431
 51
71.89312133353226
  0
ELLIPSE
  5
7C1
330
74A
100
AcDbEntity
  8
0
  6
Continuous
 62
     7
370
    15
100
AcDbEllipse
 10
1719.147387693412
 20
873.2046476958203
 30
0.0
 11
0.0
 21
2.5
 31
0.0
210
0.0
220
0.0
230
1.0
 40
0.9333058163316536
 41
0.2186068375049696
 42
2.922985816172298
  0
ELLIPSE
  5
7C2
330
74A
100
AcDbEntity
  8
0
  6
Continuous
 62
     7
370
    15
100
AcDbEllipse
 10
1718.27368555401
 20
873.2046476958203
 30
0.0
 11
0.0
 21
2.5
 31
0.0
210
0.0
220
0.0
230
1.0
 40
0.678171721620015
 41
5.101405259087038
 42
10.60655800886198
  0
LINE
  5
7C3
330
74A
100
AcDbEntity
  8
0
  6
Continuous
 62
     7
370
    15
100
AcDbLine
 10
1738.884591911913
 20
870.2546476958202
 30
0.0
 11
1738.884591911913
 21
876.1546476958201
 31
0.0
  0
LINE
  5
7C4
330
74A
100
AcDbEntity
  8
0
  6
Continuous
 62
     7
370
    15
100
AcDbLine
 10
1738.884591911913
 20
876.1546476958201
 30
0.0
 11
1735.328670804033
 21
876.1546476958201
 31
0.0
  0
LINE
  5
7C5
330
74A
100
AcDbEntity
  8
0
  6
Continuous
 62
     7
370
    15
100
AcDbLine
 10
1738.884591911913
 20
870.2546476958202
 30
0.0
 11
1735.328670804033
 21
870.2546476958202
 31
0.0
  0
LINE
  5
7C6
330
74A
100
AcDbEntity
  8
0
  6
Continuous
 62
     7
370
    15
100
AcDbLine
 10
1716.286515700565
 20
876.1546476958201
 30
0.0
 11
1716.286515700565
 21
870.2546476958202
 31
0.0
  0
LINE
  5
7C7
330
74A
100
AcDbEntity
  8
0
  6
Continuous
 62
     7
370
    15
100
AcDbLine
 10
1719.842436808444
 20
876.1546476958201
 30
0.0
 11
1716.286515700565
 21
876.1546476958201
 31
0.0
  0
LINE
  5
7C8
330
74A
100
AcDbEntity
  8
0
  6
Continuous
 62
     7
370
    15
100
AcDbLine
 10
1719.842436808444
 20
870.2546476958202
 30
0.0
 11
1716.286515700565
 21
870.2546476958202
 31
0.0
  0
LINE
  5
7C9
330
74A
100
AcDbEntity
  8
0
  6
Continuous
 62
     7
370
    15
100
AcDbLine
 10
1725.335368763774
 20
876.1546476958201
 30
0.0
 11
1725.335178225074
 21
876.1546476958201
 31
0.0
  0
LINE
  5
7CA
330
74A
100
AcDbEntity
  8
0
  6
Continuous
 62
     7
370
    15
100
AcDbLine
 10
1725.335178225074
 20
870.2546476958202
 30
0.0
 11
1725.335368763774
 21
870.2546476958202
 31
0.0
  0
LINE
  5
7CB
330
74A
100
AcDbEntity
  8
0
  6
Continuous
 62
     7
370
    15
100
AcDbLine
 10
1729.835929387403
 20
876.1546476958201
 30
0.0
 11
1729.835738848703
 21
876.1546476958201
 31
0.0
  0
LINE
  5
7CC
330
74A
100
AcDbEntity
  8
0
  6
Continuous
 62
     7
370
    15
100
AcDbLine
 10
1729.835738848703
 20
870.2546476958202
 30
0.0
 11
1729.835929387403
 21
870.2546476958202
 31
0.0
  0
LINE
  5
7CD
330
74A
100
AcDbEntity
  8
0
  6
Continuous
 62
     7
370
    15
100
AcDbLine
 10
1726.671878228312
 20
870.7046476958202
 30
0.0
 11
1725.335368763774
 21
870.7046476958202
 31
0.0
  0
LINE
  5
7CE
330
74A
100
AcDbEntity
  8
0
  6
Continuous
 62
     7
370
    15
100
AcDbLine
 10
1726.671878228312
 20
876.1546476958201
 30
0.0
 11
1726.671878228312
 21
870.7046476958202
 31
0.0
  0
LINE
  5
7CF
330
74A
100
AcDbEntity
  8
0
  6
Continuous
 62
     7
370
    15
100
AcDbLine
 10
1728.499229919983
 20
870.7046476958202
 30
0.0
 11
1728.499229919983
 21
876.1546476958201
 31
0.0
  0
LINE
  5
7D0
330
74A
100
AcDbEntity
  8
0
  6
Continuous
 62
     7
370
    15
100
AcDbLine
 10
1729.835738848703
 20
870.7046476958202
 30
0.0
 11
1728.499229919983
 21
870.7046476958202
 31
0.0
  0
LINE
  5
7D1
330
74A
100
AcDbEntity
  8
0
  6
Continuous
 62
     7
370
    15
100
AcDbLine
 10
1728.499229919983
 20
876.1546476958201
 30
0.0
 11
1726.671878228312
 21
876.1546476958201
 31
0.0
  0
LINE
  5
7D2
330
74A
100
AcDbEntity
  8
0
  6
Continuous
 62
     7
370
    15
100
AcDbLine
 10
1729.835738848703
 20
870.2546476958202
 30
0.0
 11
1725.335368763774
 21
870.2546476958202
 31
0.0
  0
LINE
  5
7D3
330
74A
100
AcDbEntity
  8
0
  6
Continuous
 62
     7
370
    15
100
AcDbLine
 10
1726.05198829046
 20
876.1546476958201
 30
0.0
 11
1726.05198829046
 21
870.7046476958202
 31
0.0
  0
LINE
  5
7D4
330
74A
100
AcDbEntity
  8
0
  6
Continuous
 62
     7
370
    15
100
AcDbLine
 10
1726.05198829046
 20
876.1546476958201
 30
0.0
 11
1726.671878228312
 21
876.1546476958201
 31
0.0
  0
LINE
  5
7D5
330
74A
100
AcDbEntity
  8
0
  6
Continuous
 62
     7
370
    15
100
AcDbLine
 10
1729.119119322017
 20
870.7046476958202
 30
0.0
 11
1729.119119322017
 21
876.1546476958201
 31
0.0
  0
LINE
  5
7D6
330
74A
100
AcDbEntity
  8
0
  6
Continuous
 62
     7
370
    15
100
AcDbLine
 10
1728.499229919983
 20
876.1546476958201
 30
0.0
 11
1729.119119322017
 21
876.1546476958201
 31
0.0
  0
LINE
  5
7D7
330
74A
100
AcDbEntity
  8
0
  6
Continuous
 62
     7
370
    15
100
AcDbLine
 10
1729.119119322017
 20
876.1546476958201
 30
0.0
 11
1729.835738848703
 21
876.1546476958201
 31
0.0
  0
LINE
  5
7D8
330
74A
100
AcDbEntity
  8
0
  6
Continuous
 62
     7
370
    15
100
AcDbLine
 10
1725.335368763774
 20
876.1546476958201
 30
0.0
 11
1726.05198829046
 21
876.1546476958201
 31
0.0
  0
LINE
  5
7D9
330
74A
100
AcDbEntity
  8
0
  6
Continuous
 62
     7
370
    15
100
AcDbLine
 10
1739.085553806237
 20
876.1546476958201
 30
0.0
 11
1739.085553675647
 21
870.2546476958202
 31
0.0
  0
LINE
  5
7DA
330
74A
100
AcDbEntity
  8
0
  6
Continuous
 62
     7
370
    15
100
AcDbLine
 10
1738.884591911913
 20
876.1546476958201
 30
0.0
 11
1739.085553806237
 21
876.1546476958201
 31
0.0
  0
LINE
  5
7DB
330
74A
100
AcDbEntity
  8
0
  6
Continuous
 62
     7
370
    15
100
AcDbLine
 10
1738.884591911913
 20
870.2546476958202
 30
0.0
 11
1739.085553675647
 21
870.2546476958202
 31
0.0
  0
LINE
  5
7DC
330
74A
100
AcDbEntity
  8
0
  6
Continuous
 62
     7
370
    15
100
AcDbLine
 10
1716.085553806241
 20
870.2546476958202
 30
0.0
 11
1716.085553806241
 21
876.1546476958201
 31
0.0
  0
LINE
  5
7DD
330
74A
100
AcDbEntity
  8
0
  6
Continuous
 62
     7
370
    15
100
AcDbLine
 10
1716.085553806241
 20
876.1546476958201
 30
0.0
 11
1716.286515700565
 21
876.1546476958201
 31
0.0
  0
LINE
  5
7DE
330
74A
100
AcDbEntity
  8
0
  6
Continuous
 62
     7
370
    15
100
AcDbLine
 10
1716.085553806241
 20
870.2546476958202
 30
0.0
 11
1716.286515700565
 21
870.2546476958202
 31
0.0
  0
ENDBLK
  5
74C
330
74A
100
AcDbEntity
  8
0
100
AcDbBlockEnd
  0
BLOCK
  5
7E1
330
7E0
100
AcDbEntity
  8
0
100
AcDbBlockBegin
  2
4
 70
     0
 10
0.0
 20
0.0
 30
0.0
  3
4
  1

  0
LINE
  5
7E3
330
7E0
100
AcDbEntity
  8
0
  6
Continuous
 62
     7
370
    15
100
AcDbLine
 10
1791.979458281456
 20
937.2163528231771
 30
0.0
 11
1788.260860481575
 21
934.7100602924806
 31
0.0
  0
LINE
  5
7E4
330
7E0
100
AcDbEntity
  8
0
  6
Continuous
 62
     7
370
    15
100
AcDbLine
 10
1791.434991747307
 20
936.8606360637667
 30
0.0
 11
1787.716393947425
 21
934.3543435330703
 31
0.0
  0
LINE
  5
7E5
330
7E0
100
AcDbEntity
  8
0
  6
Continuous
 62
     7
370
    15
100
AcDbLine
 10
1794.940479675282
 20
923.3476791719956
 30
0.0
 11
1798.659077475164
 21
925.853971702692
 31
0.0
  0
LINE
  5
7E6
330
7E0
100
AcDbEntity
  8
0
  6
Continuous
 62
     7
370
    15
100
AcDbLine
 10
1788.174451585711
 20
936.7568830008648
 30
0.0
 11
1784.739475651922
 21
934.4417483750522
 31
0.0
  0
LINE
  5
7E7
330
7E0
100
AcDbEntity
  8
0
  6
Continuous
 62
     7
370
    15
100
AcDbLine
 10
1798.514733418725
 20
921.9914616351402
 30
0.0
 11
1794.796135618843
 21
919.4851691044437
 31
0.0
  0
LINE
  5
7E8
330
7E0
100
AcDbEntity
  8
0
  6
Continuous
 62
     7
370
    15
100
AcDbLine
 10
1784.125477935528
 20
935.1056963833155
 30
0.0
 11
1787.84407573541
 21
937.6119889140118
 31
0.0
  0
LINE
  5
7E9
330
7E0
100
AcDbEntity
  8
0
  6
Continuous
 62
     7
370
    15
100
AcDbLine
 10
1783.744308902441
 20
939.6948523325296
 30
0.0
 11
1780.025711102559
 21
937.1885598018332
 31
0.0
  0
LINE
  5
7EA
330
7E0
100
AcDbEntity
  8
0
  6
Continuous
 62
     7
370
    15
100
AcDbLine
 10
1797.975655428843
 20
915.1385429836762
 30
0.0
 11
1794.603706576407
 21
912.865887892282
 31
0.0
  0
LINE
  5
7EB
330
7E0
100
AcDbEntity
  8
0
  6
Continuous
 62
     7
370
    15
100
AcDbLine
 10
1795.020521626273
 20
910.0526734800073
 30
0.0
 11
1798.739119426154
 21
912.5589660107037
 31
0.0
  0
LINE
  5
7EC
330
7E0
100
AcDbEntity
  8
0
  6
Continuous
 62
     7
370
    15
100
AcDbLine
 10
1791.371712153049
 20
913.8468813372194
 30
0.0
 11
1791.970766264299
 21
914.2506369798857
 31
0.0
  0
LINE
  5
7ED
330
7E0
100
AcDbEntity
  8
0
  6
Continuous
 62
     7
370
    15
100
AcDbLine
 10
1791.993392867533
 20
913.0999093568741
 30
0.0
 11
1791.45724715121
 21
912.7385532553274
 31
0.0
  0
LINE
  5
7EE
330
7E0
100
AcDbEntity
  8
0
  6
Continuous
 62
     7
370
    15
100
AcDbLine
 10
1777.403064404566
 20
930.7331720106825
 30
0.0
 11
1777.664117051658
 21
930.9091185192144
 31
0.0
  0
LINE
  5
7EF
330
7E0
100
AcDbEntity
  8
0
  6
Continuous
 62
     7
370
    15
100
AcDbLine
 10
1777.7112734408
 20
927.1756773587812
 30
0.0
 11
1777.25872054024
 21
926.8706618622267
 31
0.0
  0
LINE
  5
7F0
330
7E0
100
AcDbEntity
  8
0
  6
Continuous
 62
     7
370
    15
100
AcDbLine
 10
1780.610838024237
 20
916.2426686710862
 30
0.0
 11
1782.494573431066
 21
917.5122848635368
 31
0.0
  0
LINE
  5
7F1
330
7E0
100
AcDbEntity
  8
0
  6
Continuous
 62
     7
370
    15
100
AcDbLine
 10
1778.283180187684
 20
920.665789190879
 30
0.0
 11
1777.414587951257
 21
920.0803679241733
 31
0.0
  0
LINE
  5
7F2
330
7E0
100
AcDbEntity
  8
0
  6
Continuous
 62
     7
370
    15
100
AcDbLine
 10
1794.438169248562
 20
923.8450998011849
 30
0.0
 11
1794.548066848353
 21
923.7988181955463
 31
0.0
  0
LWPOLYLINE
  5
7F3
330
7E0
100
AcDbEntity
  8
0
  6
Continuous
 62
     7
370
    15
100
AcDbPolyline
 90
        9
 70
   128
 43
0.0
 10
1794.34669713467
 20
923.7532788047507
 10
1794.343282752815
 20
923.7782445492538
 10
1794.344858581965
 20
923.8012200217296
 10
1794.351343520385
 20
923.821022764895
 10
1794.362403813779
 20
923.8366336093768
 10
1794.377470232307
 20
923.8472491263538
 10
1794.395767366614
 20
923.8523229768821
 10
1794.416353535098
 20
923.8515940298134
 10
1794.438169248562
 20
923.8450998011849
  0
ARC
  5
7F4
330
7E0
100
AcDbEntity
  8
0
  6
Continuous
 62
     7
370
    15
100
AcDbCircle
 10
1785.137943176
 20
921.4364386136864
 30
0.0
 40
9.495730511248478
100
AcDbArc
 50
348.1308633649557
 51
14.12201003032443
  0
ARC
  5
7F5
330
7E0
100
AcDbEntity
  8
0
  6
Continuous
 62
     7
370
    15
100
AcDbCircle
 10
1794.595419504772
 20
919.4636581594998
 30
0.0
 40
0.1659419803790924
100
AcDbArc
 50
173.1727772227934
 51
245.7616873800735
  0
LINE
  5
7F6
330
7E0
100
AcDbEntity
  8
0
  6
Continuous
 62
     7
370
    15
100
AcDbLine
 10
1794.637193329294
 20
919.2660639767781
 30
0.0
 11
1794.527294868994
 21
919.3123446609206
 31
0.0
  0
ARC
  5
7F7
330
7E0
100
AcDbEntity
  8
0
  6
Continuous
 62
     7
370
    15
100
AcDbCircle
 10
1794.675418906107
 20
919.3342227386525
 30
0.0
 40
0.0781460910280014
100
AcDbArc
 50
240.7149211349675
 51
7.800149440112226
  0
LINE
  5
7F8
330
7E0
100
AcDbEntity
  8
0
  6
Continuous
 62
     7
370
    15
100
AcDbLine
 10
1794.752023410319
 20
919.3831901612556
 30
0.0
 11
1794.752841949373
 21
919.3448285820663
 31
0.0
  0
LWPOLYLINE
  5
7F9
330
7E0
100
AcDbEntity
  8
0
  6
Continuous
 62
     7
370
    15
100
AcDbPolyline
 90
       10
 70
   128
 43
0.0
 10
1795.067160020856
 20
919.2504773693299
 10
1795.056504972891
 20
919.3130931391824
 10
1795.028130017264
 20
919.3761600843316
 10
1794.985457592511
 20
919.432071400161
 10
1794.933634623012
 20
919.4740833565857
 10
1794.878911723931
 20
919.4971286914547
 10
1794.827889284749
 20
919.4984277971743
 10
1794.786721364854
 20
919.4778239824163
 10
1794.760373423133
 20
919.4378023714065
 10
1794.752023410319
 20
919.3831901612556
  0
LINE
  5
7FA
330
7E0
100
AcDbEntity
  8
0
  6
Continuous
 62
     7
370
    15
100
AcDbLine
 10
1795.067160020856
 20
919.2504773693299
 30
0.0
 11
1795.106698738822
 21
917.2396352722257
 31
0.0
  0
ARC
  5
7FB
330
7E0
100
AcDbEntity
  8
0
  6
Continuous
 62
     7
370
    15
100
AcDbCircle
 10
1792.821964348984
 20
917.1715662294987
 30
0.0
 40
2.285748154694135
100
AcDbArc
 50
343.5277711040756
 51
1.706507140100498
  0
LINE
  5
7FC
330
7E0
100
AcDbEntity
  8
0
  6
Continuous
 62
     7
370
    15
100
AcDbLine
 10
1795.01389919058
 20
916.5234410279497
 30
0.0
 11
1793.472616146596
 21
911.5162065998696
 31
0.0
  0
ARC
  5
7FD
330
7E0
100
AcDbEntity
  8
0
  6
Continuous
 62
     7
370
    15
100
AcDbCircle
 10
1793.730833483258
 20
911.4735929098499
 30
0.0
 40
0.2617099912688567
100
AcDbArc
 50
170.6289236764195
 51
246.1443269609912
  0
LINE
  5
7FE
330
7E0
100
AcDbEntity
  8
0
  6
Continuous
 62
     7
370
    15
100
AcDbLine
 10
1793.624989024938
 20
911.2342415568708
 30
0.0
 11
1793.997025227351
 21
911.0775667751976
 31
0.0
  0
LWPOLYLINE
  5
7FF
330
7E0
100
AcDbEntity
  8
0
  6
Continuous
 62
     7
370
    15
100
AcDbPolyline
 90
       11
 70
   128
 43
0.0
 10
1794.266016460565
 20
911.6693910167844
 10
1794.321140101142
 20
911.5681586815945
 10
1794.358382265241
 20
911.4632423934496
 10
1794.375739597287
 20
911.3602858799865
 10
1794.372278399983
 20
911.2648274473215
 10
1794.348184860387
 20
911.1820020597596
 10
1794.304755034407
 20
911.1162651163338
 10
1794.244325128495
 20
911.0711527829815
 10
1794.170145828851
 20
911.0490917727224
 10
1794.086207438323
 20
911.0512688062797
 10
1793.997025227351
 20
911.0775667751976
  0
ARC
  5
800
330
7E0
100
AcDbEntity
  8
0
  6
Continuous
 62
     7
370
    15
100
AcDbCircle
 10
1794.403016504382
 20
911.7689765376765
 30
0.0
 40
0.1693702688707141
100
AcDbArc
 50
167.1525860794022
 51
216.013454854598
  0
LINE
  5
801
330
7E0
100
AcDbEntity
  8
0
  6
Continuous
 62
     7
370
    15
100
AcDbLine
 10
1794.237886304577
 20
911.8066369291989
 30
0.0
 11
1794.567062579926
 21
912.815148314924
 31
0.0
  0
ARC
  5
802
330
7E0
100
AcDbEntity
  8
0
  6
Continuous
 62
     7
370
    15
100
AcDbCircle
 10
1794.66154045968
 20
912.7828076224506
 30
0.0
 40
0.099859852555134
100
AcDbArc
 50
59.53809415430641
 51
161.1034283669189
  0
LINE
  5
803
330
7E0
100
AcDbEntity
  8
0
  6
Continuous
 62
     7
370
    15
100
AcDbLine
 10
1794.712165947858
 20
912.8688834616802
 30
0.0
 11
1794.963475852934
 21
912.7630498781345
 31
0.0
  0
ARC
  5
804
330
7E0
100
AcDbEntity
  8
0
  6
Continuous
 62
     7
370
    15
100
AcDbCircle
 10
1794.785345689752
 20
912.3862914452324
 30
0.0
 40
0.4167460519284112
100
AcDbArc
 50
3.498426429762014
 51
64.69536773463933
  0
LINE
  5
805
330
7E0
100
AcDbEntity
  8
0
  6
Continuous
 62
     7
370
    15
100
AcDbLine
 10
1795.237822959708
 20
910.5550323751662
 30
0.0
 11
1795.201315124861
 21
912.4117217588922
 31
0.0
  0
ARC
  5
806
330
7E0
100
AcDbEntity
  8
0
  6
Continuous
 62
     7
370
    15
100
AcDbCircle
 10
1794.725733428039
 20
910.4906041728067
 30
0.0
 40
0.5161266140250537
100
AcDbArc
 50
241.3439661982637
 51
7.170951710701855
  0
LINE
  5
807
330
7E0
100
AcDbEntity
  8
0
  6
Continuous
 62
     7
370
    15
100
AcDbLine
 10
1792.859534989827
 20
910.7193708735083
 30
0.0
 11
1794.478224769019
 21
910.0376956330162
 31
0.0
  0
ARC
  5
808
330
7E0
100
AcDbEntity
  8
0
  6
Continuous
 62
     7
370
    15
100
AcDbCircle
 10
1793.739414344419
 20
912.5874835852808
 30
0.0
 40
2.064953457713123
100
AcDbArc
 50
204.8766154077814
 51
244.77960790383
  0
LINE
  5
809
330
7E0
100
AcDbEntity
  8
0
  6
Continuous
 62
     7
370
    15
100
AcDbLine
 10
1791.866055983629
 20
911.7188287432515
 30
0.0
 11
1791.444223686539
 21
912.5874811484067
 31
0.0
  0
LWPOLYLINE
  5
80A
330
7E0
100
AcDbEntity
  8
0
  6
Continuous
 62
     7
370
    15
100
AcDbPolyline
 90
        9
 70
   128
 43
0.0
 10
1791.444223686539
 20
912.5874811484067
 10
1791.430587149046
 20
912.6235900079427
 10
1791.424795758105
 20
912.6590298765913
 10
1791.427260704473
 20
912.6912845114398
 10
1791.437806976107
 20
912.7180638222753
 10
1791.455685784077
 20
912.7374664687808
 10
1791.479627726845
 20
912.7481148563544
 10
1791.507932918206
 20
912.7492529458006
 10
1791.538591679799
 20
912.7407999323759
  0
LINE
  5
80B
330
7E0
100
AcDbEntity
  8
0
  6
Continuous
 62
     7
370
    15
100
AcDbLine
 10
1791.538591679799
 20
912.7407999323759
 30
0.0
 11
1791.887880726649
 21
912.5937046099279
 31
0.0
  0
ARC
  5
80C
330
7E0
100
AcDbEntity
  8
0
  6
Continuous
 62
     7
370
    15
100
AcDbCircle
 10
1791.925541517653
 20
912.6608561036626
 30
0.0
 40
0.0769912871034468
100
AcDbArc
 50
240.7148420546745
 51
7.800075854277074
  0
LINE
  5
80D
330
7E0
100
AcDbEntity
  8
0
  6
Continuous
 62
     7
370
    15
100
AcDbLine
 10
1791.935481711926
 20
916.0451135374929
 30
0.0
 11
1792.001820455253
 21
912.6713051212504
 31
0.0
  0
ARC
  5
80E
330
7E0
100
AcDbEntity
  8
0
  6
Continuous
 62
     7
370
    15
100
AcDbCircle
 10
1791.658168755187
 20
916.0281599950531
 30
0.0
 40
0.27783070128557
100
AcDbArc
 50
3.498426429762014
 51
64.69536773468303
  0
LINE
  5
80F
330
7E0
100
AcDbEntity
  8
0
  6
Continuous
 62
     7
370
    15
100
AcDbLine
 10
1791.271871249923
 20
916.4920232701824
 30
0.0
 11
1791.776922197308
 21
916.2793322836547
 31
0.0
  0
LWPOLYLINE
  5
810
330
7E0
100
AcDbEntity
  8
0
  6
Continuous
 62
     7
370
    15
100
AcDbPolyline
 90
        9
 70
   128
 43
0.0
 10
1791.121713046779
 20
916.3659581835393
 10
1791.1201995421
 20
916.4021352908696
 10
1791.125672448625
 20
916.4347534155986
 10
1791.137885069347
 20
916.4623422615019
 10
1791.156286907561
 20
916.4836582323786
 10
1791.180048481087
 20
916.4977404884576
 10
1791.208098712045
 20
916.5039542572577
 10
1791.239173206818
 20
916.5020194466256
 10
1791.271871249923
 20
916.4920232701824
  0
LINE
  5
811
330
7E0
100
AcDbEntity
  8
0
  6
Continuous
 62
     7
370
    15
100
AcDbLine
 10
1791.121713046779
 20
916.3659581835393
 30
0.0
 11
1791.434260400591
 21
914.0314856130865
 31
0.0
  0
LWPOLYLINE
  5
812
330
7E0
100
AcDbEntity
  8
0
  6
Continuous
 62
     7
370
    15
100
AcDbPolyline
 90
        9
 70
   128
 43
0.0
 10
1791.209023095874
 20
913.842387983122
 10
1791.258070160532
 20
913.8273937184568
 10
1791.304681902692
 20
913.8244915025087
 10
1791.346757249128
 20
913.833812155709
 10
1791.382399609417
 20
913.8549355398273
 10
1791.410002366738
 20
913.8869094961426
 10
1791.428321297821
 20
913.9282927649974
 10
1791.43653065761
 20
913.9772199520912
 10
1791.434260400591
 20
914.0314856130865
  0
LINE
  5
813
330
7E0
100
AcDbEntity
  8
0
  6
Continuous
 62
     7
370
    15
100
AcDbLine
 10
1791.209023095874
 20
913.842387983122
 30
0.0
 11
1781.351626850768
 21
917.9936114246912
 31
0.0
  0
ARC
  5
814
330
7E0
100
AcDbEntity
  8
0
  6
Continuous
 62
     7
370
    15
100
AcDbCircle
 10
1781.523234527946
 20
918.3641118335131
 30
0.0
 40
0.4083132961388518
100
AcDbArc
 50
178.1689740534453
 51
245.1474607218235
  0
LINE
  5
815
330
7E0
100
AcDbEntity
  8
0
  6
Continuous
 62
     7
370
    15
100
AcDbLine
 10
1781.115129714639
 20
918.3771582567532
 30
0.0
 11
1781.340325045979
 21
920.4851724415808
 31
0.0
  0
ARC
  5
816
330
7E0
100
AcDbEntity
  8
0
  6
Continuous
 62
     7
370
    15
100
AcDbCircle
 10
1781.06825517044
 20
920.4938700570737
 30
0.0
 40
0.2722088640931244
100
AcDbArc
 50
358.1689740535559
 51
65.14746072187903
  0
LINE
  5
817
330
7E0
100
AcDbEntity
  8
0
  6
Continuous
 62
     7
370
    15
100
AcDbLine
 10
1780.677609341175
 20
920.9535613161499
 30
0.0
 11
1781.182660288559
 21
920.7408703296223
 31
0.0
  0
ARC
  5
818
330
7E0
100
AcDbEntity
  8
0
  6
Continuous
 62
     7
370
    15
100
AcDbCircle
 10
1780.62739495317
 20
920.8640259911703
 30
0.0
 40
0.1026550494712616
100
AcDbArc
 50
60.71484205472135
 51
187.8000758542107
  0
LINE
  5
819
330
7E0
100
AcDbEntity
  8
0
  6
Continuous
 62
     7
370
    15
100
AcDbLine
 10
1780.592028446364
 20
917.4762855514774
 30
0.0
 11
1780.525689703037
 21
920.85009396772
 31
0.0
  0
ARC
  5
81A
330
7E0
100
AcDbEntity
  8
0
  6
Continuous
 62
     7
370
    15
100
AcDbCircle
 10
1780.800013163919
 20
917.4890007083069
 30
0.0
 40
0.2083730259637257
100
AcDbArc
 50
183.4984264296507
 51
244.6953677347676
  0
LINE
  5
81B
330
7E0
100
AcDbEntity
  8
0
  6
Continuous
 62
     7
370
    15
100
AcDbLine
 10
1780.710948082328
 20
917.3006214918562
 30
0.0
 11
1781.06023712918
 21
917.1535261694081
 31
0.0
  0
ARC
  5
81C
330
7E0
100
AcDbEntity
  8
0
  6
Continuous
 62
     7
370
    15
100
AcDbCircle
 10
1780.994447183408
 20
916.9850252989489
 30
0.0
 40
0.1808890828940687
100
AcDbArc
 50
338.0814094587312
 51
68.67220026848547
  0
LINE
  5
81D
330
7E0
100
AcDbEntity
  8
0
  6
Continuous
 62
     7
370
    15
100
AcDbLine
 10
1781.162260732074
 20
916.9175014276577
 30
0.0
 11
1780.767829693695
 21
916.3926001925313
 31
0.0
  0
ARC
  5
81E
330
7E0
100
AcDbEntity
  8
0
  6
Continuous
 62
     7
370
    15
100
AcDbCircle
 10
1780.176711580051
 20
916.9025143789909
 30
0.0
 40
0.7806619638686354
100
AcDbArc
 50
240.9289488218421
 51
319.2180722713301
  0
LINE
  5
81F
330
7E0
100
AcDbEntity
  8
0
  6
Continuous
 62
     7
370
    15
100
AcDbLine
 10
1778.178702959167
 20
916.9018771410916
 30
0.0
 11
1779.797392738358
 21
916.2202019005995
 31
0.0
  0
ARC
  5
820
330
7E0
100
AcDbEntity
  8
0
  6
Continuous
 62
     7
370
    15
100
AcDbCircle
 10
1778.764403980557
 20
918.1522780004888
 30
0.0
 40
1.380778039960896
100
AcDbArc
 50
183.2926840727564
 51
244.9011100917172
  0
LINE
  5
821
330
7E0
100
AcDbEntity
  8
0
  6
Continuous
 62
     7
370
    15
100
AcDbLine
 10
1777.349397551226
 20
919.9296602556255
 30
0.0
 11
1777.385905386073
 21
918.0729708718995
 31
0.0
  0
ARC
  5
822
330
7E0
100
AcDbEntity
  8
0
  6
Continuous
 62
     7
370
    15
100
AcDbCircle
 10
1777.501955426425
 20
919.9505582908013
 30
0.0
 40
0.1539825742068429
100
AcDbArc
 50
60.71484205471815
 51
187.8000758542624
  0
LINE
  5
823
330
7E0
100
AcDbEntity
  8
0
  6
Continuous
 62
     7
370
    15
100
AcDbLine
 10
1777.577277008433
 20
920.0848612782706
 30
0.0
 11
1777.828586913509
 21
919.9790276947251
 31
0.0
  0
ARC
  5
824
330
7E0
100
AcDbEntity
  8
0
  6
Continuous
 62
     7
370
    15
100
AcDbCircle
 10
1777.706817657874
 20
919.7246766911609
 30
0.0
 40
0.2819967812437851
100
AcDbArc
 50
15.73703930977554
 51
64.4174669574463
  0
LINE
  5
825
330
7E0
100
AcDbEntity
  8
0
  6
Continuous
 62
     7
370
    15
100
AcDbLine
 10
1777.97824424477
 20
919.8011606277622
 30
0.0
 11
1778.352909181856
 21
918.4962421516097
 31
0.0
  0
ARC
  5
826
330
7E0
100
AcDbEntity
  8
0
  6
Continuous
 62
     7
370
    15
100
AcDbCircle
 10
1778.2553243347
 20
918.4556406506764
 30
0.0
 40
0.1056942963098564
100
AcDbArc
 50
314.7629428320209
 51
22.59041594638829
  0
LWPOLYLINE
  5
827
330
7E0
100
AcDbEntity
  8
0
  6
Continuous
 62
     7
370
    15
100
AcDbPolyline
 90
       11
 70
   128
 43
0.0
 10
1778.62670311843
 20
917.5504364718683
 10
1778.537074436573
 20
917.5994407380903
 10
1778.451820650254
 20
917.6685152311222
 10
1778.375527788567
 20
917.7539442493102
 10
1778.312299848515
 20
917.851132337369
 10
1778.265538030035
 20
917.9548514882061
 10
1778.237757776361
 20
918.0595223714011
 10
1778.230453461612
 20
918.1595144603059
 10
1778.244018004404
 20
918.2494489131261
 10
1778.277721731717
 20
918.3244879152018
 10
1778.32975162995
 20
918.3805949179918
  0
LINE
  5
828
330
7E0
100
AcDbEntity
  8
0
  6
Continuous
 62
     7
370
    15
100
AcDbLine
 10
1778.62670311843
 20
917.5504364718683
 30
0.0
 11
1778.998739320843
 21
917.393761690195
 31
0.0
  0
LWPOLYLINE
  5
829
330
7E0
100
AcDbEntity
  8
0
  6
Continuous
 62
     7
370
    15
100
AcDbPolyline
 90
        9
 70
   128
 43
0.0
 10
1779.142475673339
 20
917.5510269088432
 10
1779.150033698758
 20
917.5093549230364
 10
1779.149126278423
 20
917.4705984720057
 10
1779.13980309543
 20
917.4368795496388
 10
1779.122574612855
 20
917.4100443349651
 10
1779.098384124881
 20
917.3915621101297
 10
1779.068556109529
 20
917.3824448142314
 10
1779.034723710821
 20
917.3831916376155
 10
1778.998739320843
 20
917.393761690195
  0
LINE
  5
82A
330
7E0
100
AcDbEntity
  8
0
  6
Continuous
 62
     7
370
    15
100
AcDbLine
 10
1779.142475673339
 20
917.5510269088432
 30
0.0
 11
1777.376896735862
 21
923.9508727967994
 31
0.0
  0
ARC
  5
82B
330
7E0
100
AcDbEntity
  8
0
  6
Continuous
 62
     7
370
    15
100
AcDbCircle
 10
1780.545175075101
 20
924.8456248416614
 30
0.0
 40
3.292198180042907
100
AcDbArc
 50
181.5279324329612
 51
195.7701862047909
  0
LINE
  5
82C
330
7E0
100
AcDbEntity
  8
0
  6
Continuous
 62
     7
370
    15
100
AcDbLine
 10
1777.254147453959
 20
924.757840711219
 30
0.0
 11
1777.214608331993
 21
926.768682904945
 31
0.0
  0
LWPOLYLINE
  5
82D
330
7E0
100
AcDbEntity
  8
0
  6
Continuous
 62
     7
370
    15
100
AcDbPolyline
 90
       10
 70
   128
 43
0.0
 10
1777.529744942067
 20
926.6359701365088
 10
1777.519089890986
 20
926.6985859075983
 10
1777.490714932334
 20
926.7616528527101
 10
1777.448042505072
 20
926.8175641671005
 10
1777.396219533972
 20
926.8595761207414
 10
1777.341496634498
 20
926.8826214517305
 10
1777.290474196294
 20
926.8839205528939
 10
1777.249306278736
 20
926.8633167334503
 10
1777.222958340513
 20
926.8232951182335
 10
1777.214608331993
 20
926.768682904945
  0
LINE
  5
82E
330
7E0
100
AcDbEntity
  8
0
  6
Continuous
 62
     7
370
    15
100
AcDbLine
 10
1777.530429569048
 20
926.5978999493347
 30
0.0
 11
1777.529744942067
 21
926.6359701365088
 31
0.0
  0
ARC
  5
82F
330
7E0
100
AcDbEntity
  8
0
  6
Continuous
 62
     7
370
    15
100
AcDbCircle
 10
1777.741500278649
 20
926.6105307286716
 30
0.0
 40
0.2114482940058194
100
AcDbArc
 50
183.4245791637067
 51
244.7002932210001
  0
LINE
  5
830
330
7E0
100
AcDbEntity
  8
0
  6
Continuous
 62
     7
370
    15
100
AcDbLine
 10
1777.761035651301
 20
926.3730816250408
 30
0.0
 11
1777.651137165836
 21
926.4193635534541
 31
0.0
  0
LWPOLYLINE
  5
831
330
7E0
100
AcDbEntity
  8
0
  6
Continuous
 62
     7
370
    15
100
AcDbPolyline
 90
        9
 70
   128
 43
0.0
 10
1777.852507727372
 20
926.4649027052431
 10
1777.855922124004
 20
926.439936950668
 10
1777.854346307263
 20
926.4169614657676
 10
1777.847861378285
 20
926.3971587090573
 10
1777.83680109105
 20
926.3815478511167
 10
1777.821734675362
 20
926.3709323218616
 10
1777.803437540821
 20
926.3658584611409
 10
1777.782851369509
 20
926.3665874007584
 10
1777.761035651301
 20
926.3730816250408
  0
ARC
  5
832
330
7E0
100
AcDbEntity
  8
0
  6
Continuous
 62
     7
370
    15
100
AcDbCircle
 10
1787.061267884118
 20
928.7817492360099
 30
0.0
 40
9.49573806881836
100
AcDbArc
 50
168.1309050908078
 51
194.1220380023242
  0
ARC
  5
833
330
7E0
100
AcDbEntity
  8
0
  6
Continuous
 62
     7
370
    15
100
AcDbCircle
 10
1777.603782595167
 20
930.7545242814269
 30
0.0
 40
0.1659420979784463
100
AcDbArc
 50
353.1728501486183
 51
65.76166657483705
  0
LINE
  5
834
330
7E0
100
AcDbEntity
  8
0
  6
Continuous
 62
     7
370
    15
100
AcDbLine
 10
1777.562009761062
 20
930.9521181110667
 30
0.0
 11
1777.671907334169
 21
930.9058378625008
 31
0.0
  0
ARC
  5
835
330
7E0
100
AcDbEntity
  8
0
  6
Continuous
 62
     7
370
    15
100
AcDbCircle
 10
1777.523791062593
 20
930.8839218712245
 30
0.0
 40
0.0781754183952729
100
AcDbArc
 50
60.73275424014371
 51
187.945442124108
  0
LINE
  5
836
330
7E0
100
AcDbEntity
  8
0
  6
Continuous
 62
     7
370
    15
100
AcDbLine
 10
1777.447176491608
 20
930.8351506730259
 30
0.0
 11
1777.44636611708
 21
930.8731156760783
 31
0.0
  0
LWPOLYLINE
  5
837
330
7E0
100
AcDbEntity
  8
0
  6
Continuous
 62
     7
370
    15
100
AcDbPolyline
 90
       10
 70
   128
 43
0.0
 10
1777.132043932114
 20
930.9677043464709
 10
1777.14274278711
 20
930.9050962346507
 10
1777.171145492575
 20
930.8420554464944
 10
1777.213828262054
 20
930.7861811945775
 10
1777.265645927665
 20
930.7442088058239
 10
1777.320352161154
 20
930.721197815715
 10
1777.371352433653
 20
930.7199220697324
 10
1777.412498949052
 20
930.7405353518815
 10
1777.438831726259
 20
930.7805528468948
 10
1777.447176491608
 20
930.8351506730259
  0
LINE
  5
838
330
7E0
100
AcDbEntity
  8
0
  6
Continuous
 62
     7
370
    15
100
AcDbLine
 10
1777.132043932114
 20
930.9677043464709
 30
0.0
 11
1777.102703959667
 21
932.4598457539293
 31
0.0
  0
ARC
  5
839
330
7E0
100
AcDbEntity
  8
0
  6
Continuous
 62
     7
370
    15
100
AcDbCircle
 10
1778.09368234101
 20
932.5110761293469
 30
0.0
 40
0.9923017200704057
100
AcDbArc
 50
148.6512416255226
 51
182.9593719008438
  0
LINE
  5
83A
330
7E0
100
AcDbEntity
  8
0
  6
Continuous
 62
     7
370
    15
100
AcDbLine
 10
1777.246240385369
 20
933.0273171926817
 30
0.0
 11
1779.904100721333
 21
937.0645151106232
 31
0.0
  0
ARC
  5
83B
330
7E0
100
AcDbEntity
  8
0
  6
Continuous
 62
     7
370
    15
100
AcDbCircle
 10
1780.281187976951
 20
936.8124051358236
 30
0.0
 40
0.4536014084449726
100
AcDbArc
 50
83.1398452377253
 51
146.2344219962443
  0
LINE
  5
83C
330
7E0
100
AcDbEntity
  8
0
  6
Continuous
 62
     7
370
    15
100
AcDbLine
 10
1782.770017253843
 20
937.0710777601773
 30
0.0
 11
1780.33536903949
 21
937.2627590524329
 31
0.0
  0
LINE
  5
83D
330
7E0
100
AcDbEntity
  8
0
  6
Continuous
 62
     7
370
    15
100
AcDbLine
 10
1782.770017253843
 20
937.0710777601773
 30
0.0
 11
1783.41114417968
 21
936.8010813983209
 31
0.0
  0
ARC
  5
83E
330
7E0
100
AcDbEntity
  8
0
  6
Continuous
 62
     7
370
    15
100
AcDbCircle
 10
1783.292390463756
 20
936.5499088378911
 30
0.0
 40
0.2778310640632352
100
AcDbArc
 50
3.498841872884758
 51
64.69534064850877
  0
LINE
  5
83F
330
7E0
100
AcDbEntity
  8
0
  6
Continuous
 62
     7
370
    15
100
AcDbLine
 10
1783.574666032691
 20
936.3146542405642
 30
0.0
 11
1783.569703659663
 21
936.5668644132249
 31
0.0
  0
ARC
  5
840
330
7E0
100
AcDbEntity
  8
0
  6
Continuous
 62
     7
370
    15
100
AcDbCircle
 10
1783.851979228601
 20
936.3316098158955
 30
0.0
 40
0.2778310640673681
100
AcDbArc
 50
183.4988418722582
 51
244.6953406481621
  0
LINE
  5
841
330
7E0
100
AcDbEntity
  8
0
  6
Continuous
 62
     7
370
    15
100
AcDbLine
 10
1783.97880862461
 20
935.9770153836247
 30
0.0
 11
1783.733225512675
 21
936.0804372554625
 31
0.0
  0
ARC
  5
842
330
7E0
100
AcDbEntity
  8
0
  6
Continuous
 62
     7
370
    15
100
AcDbCircle
 10
1783.859011032131
 20
935.7247950290975
 30
0.0
 40
0.2792249458800666
100
AcDbArc
 50
5.225834763726735
 51
64.59359340405566
  0
LINE
  5
843
330
7E0
100
AcDbEntity
  8
0
  6
Continuous
 62
     7
370
    15
100
AcDbLine
 10
1784.137075360256
 20
935.7502272886543
 30
0.0
 11
1784.168645423242
 21
935.2135988135378
 31
0.0
  0
ARC
  5
844
330
7E0
100
AcDbEntity
  8
0
  6
Continuous
 62
     7
370
    15
100
AcDbCircle
 10
1784.066957609115
 20
935.1934963841381
 30
0.0
 40
0.1036557726793262
100
AcDbArc
 50
241.0168845661538
 51
11.18248618366712
  0
LINE
  5
845
330
7E0
100
AcDbEntity
  8
0
  6
Continuous
 62
     7
370
    15
100
AcDbLine
 10
1784.016731012036
 20
935.1028221973171
 30
0.0
 11
1783.98250798228
 21
935.1173028378068
 31
0.0
  0
ARC
  5
846
330
7E0
100
AcDbEntity
  8
0
  6
Continuous
 62
     7
370
    15
100
AcDbCircle
 10
1783.944662220183
 20
935.0502235976174
 30
0.0
 40
0.077018998780406
100
AcDbArc
 50
60.56853241352836
 51
187.7821678905263
  0
LINE
  5
847
330
7E0
100
AcDbEntity
  8
0
  6
Continuous
 62
     7
370
    15
100
AcDbLine
 10
1783.868352563985
 20
935.0397946693838
 30
0.0
 11
1783.876150266017
 21
934.6430350508862
 31
0.0
  0
ARC
  5
848
330
7E0
100
AcDbEntity
  8
0
  6
Continuous
 62
     7
370
    15
100
AcDbCircle
 10
1784.15272180122
 20
934.659663000483
 30
0.0
 40
0.277070934585707
100
AcDbArc
 50
183.4405779334735
 51
245.5069462116739
  0
ARC
  5
849
330
7E0
100
AcDbEntity
  8
0
  6
Continuous
 62
     7
370
    15
100
AcDbCircle
 10
1784.357481987245
 20
935.0693738878248
 30
0.0
 40
0.734987315432019
100
AcDbArc
 50
244.2225338703097
 51
300.9658375475546
  0
ARC
  5
84A
330
7E0
100
AcDbEntity
  8
0
  6
Continuous
 62
     7
370
    15
100
AcDbCircle
 10
1785.017541969815
 20
933.9829891864001
 30
0.0
 40
0.5362240215516094
100
AcDbArc
 50
68.74101078705695
 51
121.7149103186822
  0
ARC
  5
84B
330
7E0
100
AcDbEntity
  8
0
  6
Continuous
 62
     7
370
    15
100
AcDbCircle
 10
1782.314419646555
 20
925.6195750115036
 30
0.0
 40
9.324762364359889
100
AcDbArc
 50
62.42904891691759
 51
71.89634867398613
  0
ARC
  5
84C
330
7E0
100
AcDbEntity
  8
0
  6
Continuous
 62
     7
370
    15
100
AcDbCircle
 10
1785.978832229188
 20
932.6924046693045
 30
0.0
 40
1.359310286033023
100
AcDbArc
 50
33.19239569441551
 51
61.36005560742173
  0
ARC
  5
84D
330
7E0
100
AcDbEntity
  8
0
  6
Continuous
 62
     7
370
    15
100
AcDbCircle
 10
1788.579499530067
 20
934.3843279373796
 30
0.0
 40
1.743289129863018
100
AcDbArc
 50
212.9335060804085
 51
244.429537097188
  0
ARC
  5
84E
330
7E0
100
AcDbEntity
  8
0
  6
Continuous
 62
     7
370
    15
100
AcDbCircle
 10
1787.879957112028
 20
932.9002500892444
 30
0.0
 40
0.1030737987186992
100
AcDbArc
 50
239.1228350743073
 51
7.606947538804334
  0
LINE
  5
84F
330
7E0
100
AcDbEntity
  8
0
  6
Continuous
 62
     7
370
    15
100
AcDbLine
 10
1787.982123809358
 20
932.9138946463642
 30
0.0
 11
1787.974318569447
 21
933.3106583023006
 31
0.0
  0
ARC
  5
850
330
7E0
100
AcDbEntity
  8
0
  6
Continuous
 62
     7
370
    15
100
AcDbCircle
 10
1787.766382924804
 20
933.2979630045437
 30
0.0
 40
0.2083228333571522
100
AcDbArc
 50
3.493798279608554
 51
64.76934744932122
  0
LINE
  5
851
330
7E0
100
AcDbEntity
  8
0
  6
Continuous
 62
     7
370
    15
100
AcDbLine
 10
1787.855183303668
 20
933.4864116596509
 30
0.0
 11
1787.820962985133
 21
933.5007544147902
 31
0.0
  0
ARC
  5
852
330
7E0
100
AcDbEntity
  8
0
  6
Continuous
 62
     7
370
    15
100
AcDbCircle
 10
1787.938122341374
 20
933.7507986053642
 30
0.0
 40
0.2761311499896505
100
AcDbArc
 50
181.7429253623632
 51
244.894344475474
  0
LINE
  5
853
330
7E0
100
AcDbEntity
  8
0
  6
Continuous
 62
     7
370
    15
100
AcDbLine
 10
1787.662118942361
 20
933.7424000502469
 30
0.0
 11
1787.672936693236
 21
934.2611778392225
 31
0.0
  0
ARC
  5
854
330
7E0
100
AcDbEntity
  8
0
  6
Continuous
 62
     7
370
    15
100
AcDbCircle
 10
1787.774458807982
 20
934.268872494246
 30
0.0
 40
0.1018132972575312
100
AcDbArc
 50
60.33223878969092
 51
184.3343260963104
  0
LINE
  5
855
330
7E0
100
AcDbEntity
  8
0
  6
Continuous
 62
     7
370
    15
100
AcDbLine
 10
1788.070436430811
 20
934.2539172306286
 30
0.0
 11
1787.824853318876
 21
934.3573391024676
 31
0.0
  0
ARC
  5
856
330
7E0
100
AcDbEntity
  8
0
  6
Continuous
 62
     7
370
    15
100
AcDbCircle
 10
1788.120650868481
 20
934.3434522795991
 30
0.0
 40
0.1026548330308586
100
AcDbArc
 50
240.7147425222543
 51
7.799255800508811
  0
LINE
  5
857
330
7E0
100
AcDbEntity
  8
0
  6
Continuous
 62
     7
370
    15
100
AcDbLine
 10
1788.217400191806
 20
934.6095896874928
 30
0.0
 11
1788.222356103569
 21
934.3573828180062
 31
0.0
  0
ARC
  5
858
330
7E0
100
AcDbEntity
  8
0
  6
Continuous
 62
     7
370
    15
100
AcDbCircle
 10
1788.31910543191
 20
934.6235207209076
 30
0.0
 40
0.1026549051759222
100
AcDbArc
 50
60.71477569910862
 51
187.7995291482359
  0
LINE
  5
859
330
7E0
100
AcDbEntity
  8
0
  6
Continuous
 62
     7
370
    15
100
AcDbLine
 10
1788.369319853025
 20
934.713055861879
 30
0.0
 11
1789.010446778859
 21
934.4430595000236
 31
0.0
  0
LINE
  5
85A
330
7E0
100
AcDbEntity
  8
0
  6
Continuous
 62
     7
370
    15
100
AcDbLine
 10
1789.010446778859
 20
934.4430595000236
 30
0.0
 11
1791.478151306472
 21
932.570223843253
 31
0.0
  0
ARC
  5
85B
330
7E0
100
AcDbEntity
  8
0
  6
Continuous
 62
     7
370
    15
100
AcDbCircle
 10
1790.566801904298
 20
931.3945411425804
 30
0.0
 40
1.487544132287963
100
AcDbArc
 50
24.11888518471153
 51
52.21836961643152
  0
LINE
  5
85C
330
7E0
100
AcDbEntity
  8
0
  6
Continuous
 62
     7
370
    15
100
AcDbLine
 10
1791.924482747182
 20
932.0023982593205
 30
0.0
 11
1794.786819275435
 21
925.6404920659868
 31
0.0
  0
ARC
  5
85D
330
7E0
100
AcDbEntity
  8
0
  6
Continuous
 62
     7
370
    15
100
AcDbCircle
 10
1793.142364821345
 20
924.8744247202228
 30
0.0
 40
1.814136056039427
100
AcDbArc
 50
2.123356778886624
 51
24.97840729963394
  0
LINE
  5
85E
330
7E0
100
AcDbEntity
  8
0
  6
Continuous
 62
     7
370
    15
100
AcDbLine
 10
1794.955255242292
 20
924.9416404286433
 30
0.0
 11
1794.984594821015
 21
923.4494991431031
 31
0.0
  0
LWPOLYLINE
  5
85F
330
7E0
100
AcDbEntity
  8
0
  6
Continuous
 62
     7
370
    15
100
AcDbPolyline
 90
       10
 70
   128
 43
0.0
 10
1794.669452966578
 20
923.5825289403599
 10
1794.680058260515
 20
923.5199248172831
 10
1794.708389778482
 20
923.4568489970941
 10
1794.751030321283
 20
923.4009093546085
 10
1794.802836810149
 20
923.3588530362922
 10
1794.857560617939
 20
923.3357526548196
 10
1794.908601245795
 20
923.3343944571222
 10
1794.949802440719
 20
923.3549422618871
 10
1794.976194730537
 20
923.3949177006062
 10
1794.984594821015
 20
923.4494991431031
  0
LINE
  5
860
330
7E0
100
AcDbEntity
  8
0
  6
Continuous
 62
     7
370
    15
100
AcDbLine
 10
1794.668770089023
 20
923.6205185818567
 30
0.0
 11
1794.669452966578
 21
923.5825289403599
 31
0.0
  0
ARC
  5
861
330
7E0
100
AcDbEntity
  8
0
  6
Continuous
 62
     7
370
    15
100
AcDbCircle
 10
1794.457666551943
 20
923.6076140739903
 30
0.0
 40
0.2114975879083855
100
AcDbArc
 50
3.498069998388718
 51
64.69546352861342
  0
LINE
  5
862
330
7E0
100
AcDbEntity
  8
0
  6
Continuous
 62
     7
370
    15
100
AcDbLine
 10
1792.743849433527
 20
916.0395862607801
 30
0.0
 11
1793.705816728327
 21
915.6344751051658
 31
0.0
  0
ARC
  5
863
330
7E0
100
AcDbEntity
  8
0
  6
Continuous
 62
     7
370
    15
100
AcDbCircle
 10
1792.68108144852
 20
915.9276671045557
 30
0.0
 40
0.1283188118390831
100
AcDbArc
 50
60.7148420546745
 51
187.8000758542172
  0
LINE
  5
864
330
7E0
100
AcDbEntity
  8
0
  6
Continuous
 62
     7
370
    15
100
AcDbLine
 10
1792.553949885854
 20
915.9102520752426
 30
0.0
 11
1792.619197638892
 21
912.5919284636983
 31
0.0
  0
LWPOLYLINE
  5
865
330
7E0
100
AcDbEntity
  8
0
  6
Continuous
 62
     7
370
    15
100
AcDbPolyline
 90
       10
 70
   128
 43
0.0
 10
1792.999563284493
 20
912.3688063454871
 10
1792.973529605007
 20
912.3209995545511
 10
1792.931710163475
 20
912.291827442012
 10
1792.878223636426
 20
912.2841630853386
 10
1792.818337758091
 20
912.298761324978
 10
1792.757950516402
 20
912.3341844222906
 10
1792.703009277129
 20
912.3869436582941
 10
1792.658925044926
 20
912.4518429275621
 10
1792.63003954904
 20
912.5224904877056
 10
1792.619197638892
 20
912.5919284636983
  0
LINE
  5
866
330
7E0
100
AcDbEntity
  8
0
  6
Continuous
 62
     7
370
    15
100
AcDbLine
 10
1793.896282826256
 20
915.2820188014167
 30
0.0
 11
1792.999563284493
 21
912.3688063454871
 31
0.0
  0
ARC
  5
867
330
7E0
100
AcDbEntity
  8
0
  6
Continuous
 62
     7
370
    15
100
AcDbCircle
 10
1793.573511155427
 20
915.3352859139413
 30
0.0
 40
0.3271374890867362
100
AcDbArc
 50
350.6289236764516
 51
66.1443269609648
  0
LINE
  5
868
330
7E0
100
AcDbEntity
  8
0
  6
Continuous
 62
     7
370
    15
100
AcDbLine
 10
1779.967489018978
 20
917.9199144848514
 30
0.0
 11
1779.90224126594
 21
921.2382380963958
 31
0.0
  0
ARC
  5
869
330
7E0
100
AcDbEntity
  8
0
  6
Continuous
 62
     7
370
    15
100
AcDbCircle
 10
1779.555600070016
 20
921.2170461683458
 30
0.0
 40
0.347288376606791
100
AcDbArc
 50
3.49842642978802
 51
64.69536773471215
  0
LINE
  5
86A
330
7E0
100
AcDbEntity
  8
0
  6
Continuous
 62
     7
370
    15
100
AcDbLine
 10
1778.742074577865
 20
921.9361226847116
 30
0.0
 11
1779.704041872667
 21
921.5310115290977
 31
0.0
  0
LWPOLYLINE
  5
86B
330
7E0
100
AcDbEntity
  8
0
  6
Continuous
 62
     7
370
    15
100
AcDbPolyline
 90
        9
 70
   128
 43
0.0
 10
1778.562404137246
 20
921.7395411614011
 10
1778.552956605472
 20
921.7916311436598
 10
1778.55409088089
 20
921.8400767074479
 10
1778.565744859632
 20
921.8822253604066
 10
1778.58728046285
 20
921.9157693787488
 10
1778.617518572818
 20
921.938872159793
 10
1778.654803592007
 20
921.9502687796657
 10
1778.697094090393
 20
921.9493352504356
 10
1778.742074577865
 20
921.9361226847116
  0
LINE
  5
86C
330
7E0
100
AcDbEntity
  8
0
  6
Continuous
 62
     7
370
    15
100
AcDbLine
 10
1779.589619185085
 20
918.016106394243
 30
0.0
 11
1778.562404137246
 21
921.7395411614011
 31
0.0
  0
LWPOLYLINE
  5
86D
330
7E0
100
AcDbEntity
  8
0
  6
Continuous
 62
     7
370
    15
100
AcDbPolyline
 90
       10
 70
   128
 43
0.0
 10
1779.967489018978
 20
917.9199144848514
 10
1779.959219554837
 20
917.8585248395716
 10
1779.932653152149
 20
917.8112296146203
 10
1779.890406259514
 20
917.7826867806883
 10
1779.836639651891
 20
917.7757074394055
 10
1779.77664864784
 20
917.7909789660223
 10
1779.716341588824
 20
917.8269973118013
 10
1779.661657943652
 20
917.8802151334503
 10
1779.617983347274
 20
917.9453911607618
 10
1779.589619185085
 20
918.016106394243
  0
LINE
  5
86E
330
7E0
100
AcDbEntity
  8
0
  6
Continuous
 62
     7
370
    15
100
AcDbLine
 10
1795.643080547064
 20
934.5086907900169
 30
0.0
 11
1798.505417075316
 21
928.1467845966831
 31
0.0
  0
LINE
  5
86F
330
7E0
100
AcDbEntity
  8
0
  6
Continuous
 62
     7
370
    15
100
AcDbLine
 10
1794.786819275435
 20
925.6404920659868
 30
0.0
 11
1798.505417075316
 21
928.1467845966831
 31
0.0
  0
LINE
  5
870
330
7E0
100
AcDbEntity
  8
0
  6
Continuous
 62
     7
370
    15
100
AcDbLine
 10
1793.186161416569
 20
932.8527553012477
 30
0.0
 11
1791.924482747182
 21
932.0023982593205
 31
0.0
  0
ELLIPSE
  5
871
330
7E0
100
AcDbEntity
  8
0
  6
Continuous
 62
     7
370
    15
100
AcDbEllipse
 10
1795.046547013137
 20
930.4488882410778
 30
0.0
 11
-1.131637469217366
 21
3.151764924100518
 31
0.0
210
0.0
220
0.0
230
1.0
 40
0.5554398480582755
 41
0.5289419434118456
 42
6.034094693186982
  0
LINE
  5
872
330
7E0
100
AcDbEntity
  8
0
  6
Continuous
 62
     7
370
    15
100
AcDbLine
 10
1795.643080547064
 20
934.5086907900169
 30
0.0
 11
1794.381401877677
 21
933.6583337480901
 31
0.0
  0
ELLIPSE
  5
873
330
7E0
100
AcDbEntity
  8
0
  6
Continuous
 62
     7
370
    15
100
AcDbEllipse
 10
1794.414379715899
 20
928.395126230875
 30
0.0
 11
2.322401819975311
 21
-0.9380938077363225
 31
0.0
210
0.0
220
0.0
230
0.9999999999999998
 40
0.6944199847962186
 41
0.2481656531038264
 42
2.382564029817936
  0
SPLINE
  5
874
330
7E0
100
AcDbEntity
  8
0
  6
Continuous
 62
     7
370
    15
100
AcDbSpline
210
0.0
220
0.0
230
1.0
 70
     8
 71
     3
 72
    14
 73
    10
 74
     0
 42
0.0000000001
 43
0.0000000001
 40
0.0
 40
0.0
 40
0.0
 40
0.0
 40
0.25
 40
0.25
 40
0.5
 40
0.5
 40
0.75
 40
0.75
 40
1.0
 40
1.0
 40
1.0
 40
1.0
 10
1793.186161416569
 20
932.8527553012477
 30
0.0
 10
1793.245055792446
 20
932.9863546585119
 30
0.0
 10
1793.313710779196
 20
933.1005641043187
 30
0.0
 10
1793.477503973412
 20
933.3022827125271
 30
0.0
 10
1793.570345893906
 20
933.3869533618965
 30
0.0
 10
1793.778814522353
 20
933.5272819083336
 30
0.0
 10
1793.89135196092
 20
933.5809235763221
 30
0.0
 10
1794.130066522726
 20
933.6518031923846
 30
0.0
 10
1794.257700203069
 20
933.6688422316029
 30
0.0
 10
1794.381401877677
 20
933.6583337480902
 30
0.0
  0
LINE
  5
875
330
7E0
100
AcDbEntity
  8
0
  6
Continuous
 62
     7
370
    15
100
AcDbLine
 10
1792.067260224527
 20
936.5033169193234
 30
0.0
 11
1794.452103214947
 21
934.6933680626921
 31
0.0
  0
LINE
  5
876
330
7E0
100
AcDbEntity
  8
0
  6
Continuous
 62
     7
370
    15
100
AcDbLine
 10
1792.067260224527
 20
936.5033169193241
 30
0.0
 11
1792.729044578743
 21
936.9493520307191
 31
0.0
  0
LINE
  5
877
330
7E0
100
AcDbEntity
  8
0
  6
Continuous
 62
     7
370
    15
100
AcDbLine
 10
1792.729044578743
 20
936.9493520307191
 30
0.0
 11
1795.196749106355
 21
935.076516373949
 31
0.0
  0
LINE
  5
878
330
7E0
100
AcDbEntity
  8
0
  6
Continuous
 62
     7
370
    15
100
AcDbLine
 10
1791.478151306472
 20
932.570223843253
 30
0.0
 11
1795.196749106355
 21
935.076516373949
 31
0.0
  0
LINE
  5
879
330
7E0
100
AcDbEntity
  8
0
  6
Continuous
 62
     7
370
    15
100
AcDbLine
 10
1789.010446778859
 20
934.4430595000236
 30
0.0
 11
1789.672231133076
 21
934.8890946114185
 31
0.0
  0
LINE
  5
87A
330
7E0
100
AcDbEntity
  8
0
  6
Continuous
 62
     7
370
    15
100
AcDbLine
 10
1792.057074123497
 20
933.0791457547858
 30
0.0
 11
1789.672231133077
 21
934.8890946114178
 31
0.0
  0
LINE
  5
87B
330
7E0
100
AcDbEntity
  8
0
  6
Continuous
 62
     7
370
    15
100
AcDbLine
 10
1794.452103214947
 20
934.6933680626921
 30
0.0
 11
1792.057074123497
 21
933.0791457547858
 31
0.0
  0
ARC
  5
87C
330
7E0
100
AcDbEntity
  8
0
  6
Continuous
 62
     7
370
    15
100
AcDbCircle
 10
1794.285399704184
 20
933.9008336732788
 30
0.0
 40
1.487544132284181
100
AcDbArc
 50
24.11888518469964
 51
52.21836961647838
  0
LINE
  5
87D
330
7E0
100
AcDbEntity
  8
0
  6
Continuous
 62
     7
370
    15
100
AcDbLine
 10
1793.378814245309
 20
935.1317280012748
 30
0.0
 11
1794.150339200837
 21
934.4899825568381
 31
0.0
  0
LINE
  5
87E
330
7E0
100
AcDbEntity
  8
0
  6
Continuous
 62
     7
370
    15
100
AcDbLine
 10
1792.090832967282
 20
934.2636433009353
 30
0.0
 11
1791.246324872685
 21
933.6944544712993
 31
0.0
  0
ARC
  5
87F
330
7E0
100
AcDbEntity
  8
0
  6
Continuous
 62
     7
370
    15
100
AcDbCircle
 10
1792.140453253726
 20
934.5892105666877
 30
0.0
 40
0.329326915626742
100
AcDbArc
 50
261.3341383717416
 51
346.6249036645569
  0
LINE
  5
880
330
7E0
100
AcDbEntity
  8
0
  6
Continuous
 62
     7
370
    15
100
AcDbLine
 10
1793.378814245309
 20
935.1317280012748
 30
0.0
 11
1792.460847675947
 21
934.513028996964
 31
0.0
  0
LINE
  5
881
330
7E0
100
AcDbEntity
  8
0
  6
Continuous
 62
     7
370
    15
100
AcDbLine
 10
1792.087917652907
 20
937.2193483925753
 30
0.0
 11
1788.369319853025
 21
934.713055861879
 31
0.0
  0
LINE
  5
882
330
7E0
100
AcDbEntity
  8
0
  6
Continuous
 62
     7
370
    15
100
AcDbLine
 10
1789.672231133077
 20
934.8890946114179
 30
0.0
 11
1792.067260224527
 21
936.5033169193241
 31
0.0
  0
LINE
  5
883
330
7E0
100
AcDbEntity
  8
0
  6
Continuous
 62
     7
370
    15
100
AcDbLine
 10
1792.729044578743
 20
936.9493520307191
 30
0.0
 11
1792.087917652907
 21
937.2193483925753
 31
0.0
  0
LINE
  5
884
330
7E0
100
AcDbEntity
  8
0
  6
Continuous
 62
     7
370
    15
100
AcDbLine
 10
1798.673853040433
 20
927.4479330478898
 30
0.0
 11
1794.955255242292
 21
924.9416404286433
 31
0.0
  0
ARC
  5
885
330
7E0
100
AcDbEntity
  8
0
  6
Continuous
 62
     7
370
    15
100
AcDbCircle
 10
1796.860962564
 20
927.3807172331265
 30
0.0
 40
1.814136115426709
100
AcDbArc
 50
2.123360070277333
 51
24.97840704580434
  0
LINE
  5
886
330
7E0
100
AcDbEntity
  8
0
  6
Continuous
 62
     7
370
    15
100
AcDbLine
 10
1790.834142678584
 20
934.0072753546589
 30
0.0
 11
1791.272814603277
 21
934.3029352317016
 31
0.0
  0
LINE
  5
887
330
7E0
100
AcDbEntity
  8
0
  6
Continuous
 62
     7
370
    15
100
AcDbLine
 10
1790.963697384102
 20
935.3192945937346
 30
0.0
 11
1790.818183701542
 21
935.221220030327
 31
0.0
  0
LINE
  5
888
330
7E0
100
AcDbEntity
  8
0
  6
Continuous
 62
     7
370
    15
100
AcDbLine
 10
1790.963697384102
 20
935.3192945937346
 30
0.0
 11
1791.777031254109
 21
934.6427715070502
 31
0.0
  0
LINE
  5
889
330
7E0
100
AcDbEntity
  8
0
  6
Continuous
 62
     7
370
    15
100
AcDbLine
 10
1791.777031254109
 20
934.6427715070502
 30
0.0
 11
1792.627896852387
 21
935.2162452217008
 31
0.0
  0
LINE
  5
88A
330
7E0
100
AcDbEntity
  8
0
  6
Continuous
 62
     7
370
    15
100
AcDbLine
 10
1792.627896852387
 20
935.2162452217008
 30
0.0
 11
1793.020137073996
 21
934.8899836761905
 31
0.0
  0
LINE
  5
88B
330
7E0
100
AcDbEntity
  8
0
  6
Continuous
 62
     7
370
    15
100
AcDbLine
 10
1790.619004983959
 20
935.3869075204315
 30
0.0
 11
1791.432308607256
 21
934.710358149735
 31
0.0
  0
LINE
  5
88C
330
7E0
100
AcDbEntity
  8
0
  6
Continuous
 62
     7
370
    15
100
AcDbLine
 10
1791.432308607256
 20
934.710358149735
 30
0.0
 11
1790.624832795465
 21
934.166128656598
 31
0.0
  0
LINE
  5
88D
330
7E0
100
AcDbEntity
  8
0
  6
Continuous
 62
     7
370
    15
100
AcDbLine
 10
1790.619004983959
 20
935.3869075204315
 30
0.0
 11
1789.770143920871
 21
934.8147848396504
 31
0.0
  0
LINE
  5
88E
330
7E0
100
AcDbEntity
  8
0
  6
Continuous
 62
     7
370
    15
100
AcDbLine
 10
1794.984594821015
 20
923.4494991431031
 30
0.0
 11
1798.703192668863
 21
925.9557916535992
 31
0.0
  0
LINE
  5
88F
330
7E0
100
AcDbEntity
  8
0
  6
Continuous
 62
     7
370
    15
100
AcDbLine
 10
1798.673853040433
 20
927.4479330478898
 30
0.0
 11
1798.703192668863
 21
925.9557916535992
 31
0.0
  0
ARC
  5
890
330
7E0
100
AcDbEntity
  8
0
  6
Continuous
 62
     7
370
    15
100
AcDbCircle
 10
1792.036438000222
 20
937.1182812721652
 30
0.0
 40
0.1134227378815542
100
AcDbArc
 50
63.00747933713608
 51
120.1566522517001
  0
LINE
  5
891
330
7E0
100
AcDbEntity
  8
0
  6
Continuous
 62
     7
370
    15
100
AcDbLine
 10
1791.272814603277
 20
934.3029352317016
 30
0.0
 11
1791.432308607256
 21
934.710358149735
 31
0.0
  0
LINE
  5
892
330
7E0
100
AcDbEntity
  8
0
  6
Continuous
 62
     7
370
    15
100
AcDbLine
 10
1792.067260224527
 20
936.5033169193241
 30
0.0
 11
1791.998494396032
 21
936.2799143293432
 31
0.0
  0
LINE
  5
893
330
7E0
100
AcDbEntity
  8
0
  6
Continuous
 62
     7
370
    15
100
AcDbLine
 10
1792.424361626254
 20
934.4198218770173
 30
0.0
 11
1792.460847675947
 21
934.5130289969638
 31
0.0
  0
ARC
  5
894
330
7E0
100
AcDbEntity
  8
0
  6
Continuous
 62
     7
370
    15
100
AcDbCircle
 10
1791.484285203521
 20
936.7868140585816
 30
0.0
 40
0.0887667351827757
100
AcDbArc
 50
97.47760899386612
 51
123.7323803051346
  0
ARC
  5
895
330
7E0
100
AcDbEntity
  8
0
  6
Continuous
 62
     7
370
    15
100
AcDbCircle
 10
1798.593012562618
 20
925.9430622266199
 30
0.0
 40
0.110913002499529
100
AcDbArc
 50
306.5587145736166
 51
6.590328857158914
  0
LINE
  5
896
330
7E0
100
AcDbEntity
  8
0
  6
Continuous
 62
     7
370
    15
100
AcDbLine
 10
1794.430654195894
 20
919.4833846351713
 30
0.0
 11
1798.149251995776
 21
921.9896771658678
 31
0.0
  0
ARC
  5
897
330
7E0
100
AcDbEntity
  8
0
  6
Continuous
 62
     7
370
    15
100
AcDbCircle
 10
1789.261501830809
 20
923.9127339840971
 30
0.0
 40
9.093417977912158
100
AcDbArc
 50
347.7910257422528
 51
10.36587442138112
  0
LINE
  5
898
330
7E0
100
AcDbEntity
  8
0
  6
Continuous
 62
     7
370
    15
100
AcDbLine
 10
1791.123221634791
 20
935.7267437957803
 30
0.0
 11
1791.936525258088
 21
935.0501944250837
 31
0.0
  0
LINE
  5
899
330
7E0
100
AcDbEntity
  8
0
  6
Continuous
 62
     7
370
    15
100
AcDbLine
 10
1791.936525258088
 20
935.0501944250837
 30
0.0
 11
1791.777031254109
 21
934.6427715070502
 31
0.0
  0
LINE
  5
89A
330
7E0
100
AcDbEntity
  8
0
  6
Continuous
 62
     7
370
    15
100
AcDbLine
 10
1791.123221634791
 20
935.7267437957803
 30
0.0
 11
1790.963697384102
 21
935.3192945937346
 31
0.0
  0
LINE
  5
89B
330
7E0
100
AcDbEntity
  8
0
  6
Continuous
 62
     7
370
    15
100
AcDbLine
 10
1792.787390856366
 20
935.6236681397344
 30
0.0
 11
1791.936525258088
 21
935.0501944250837
 31
0.0
  0
LINE
  5
89C
330
7E0
100
AcDbEntity
  8
0
  6
Continuous
 62
     7
370
    15
100
AcDbLine
 10
1791.974087233069
 20
936.3002175104311
 30
0.0
 11
1792.787390856366
 21
935.6236681397344
 31
0.0
  0
LINE
  5
89D
330
7E0
100
AcDbEntity
  8
0
  6
Continuous
 62
     7
370
    15
100
AcDbLine
 10
1791.974087233069
 20
936.3002175104311
 30
0.0
 11
1791.123221634791
 21
935.7267437957803
 31
0.0
  0
LWPOLYLINE
  5
89E
330
7E0
100
AcDbEntity
  8
0
  6
Continuous
 62
     7
370
    15
100
AcDbPolyline
 90
        3
 70
   128
 43
0.0
 10
1790.065330799015
 20
936.2005366582517
 10
1790.235676097775
 20
936.1102221991158
 10
1790.283174124328
 20
936.0843241148682
  0
LINE
  5
89F
330
7E0
100
AcDbEntity
  8
0
  6
Continuous
 62
     7
370
    15
100
AcDbLine
 10
1786.630354865225
 20
933.8854020324388
 30
0.0
 11
1790.065330799015
 21
936.2005366582517
 31
0.0
  0
LINE
  5
8A0
330
7E0
100
AcDbEntity
  8
0
  6
Continuous
 62
     7
370
    15
100
AcDbLine
 10
1788.646944292477
 20
936.7978583223266
 30
0.0
 11
1785.211968358688
 21
934.4827236965141
 31
0.0
  0
ARC
  5
8A1
330
7E0
100
AcDbEntity
  8
0
  6
Continuous
 62
     7
370
    15
100
AcDbCircle
 10
1786.335913895785
 20
929.736521362645
 30
0.0
 40
7.429895097012012
100
AcDbArc
 50
71.87779241801568
 51
82.47993564358912
  0
LINE
  5
8A2
330
7E0
100
AcDbEntity
  8
0
  6
Continuous
 62
     7
370
    15
100
AcDbLine
 10
1787.308289360674
 20
937.1025126135144
 30
0.0
 11
1787.591911226767
 21
937.2936705183979
 31
0.0
  0
ARC
  5
8A3
330
7E0
100
AcDbEntity
  8
0
  6
Continuous
 62
     7
370
    15
100
AcDbCircle
 10
1786.35062679273
 20
928.8119387471633
 30
0.0
 40
8.572080312581929
100
AcDbArc
 50
60.53781588569719
 51
81.67398331590813
  0
LINE
  5
8A4
330
7E0
100
AcDbEntity
  8
0
  6
Continuous
 62
     7
370
    15
100
AcDbLine
 10
1792.787390856366
 20
935.6236681397344
 30
0.0
 11
1792.627896852387
 21
935.2162452217008
 31
0.0
  0
ARC
  5
8A5
330
7E0
100
AcDbEntity
  8
0
  6
Continuous
 62
     7
370
    15
100
AcDbCircle
 10
1789.52367792867
 20
935.167087556889
 30
0.0
 40
1.16679255956679
100
AcDbArc
 50
50.72243333536615
 51
62.34000102366589
  0
ARC
  5
8A6
330
7E0
100
AcDbEntity
  8
0
  6
Continuous
 62
     7
370
    15
100
AcDbCircle
 10
1788.452517903604
 20
936.2981238122134
 30
0.0
 40
0.536224021550951
100
AcDbArc
 50
68.74101078702794
 51
121.7149103187256
  0
LINE
  5
8A7
330
7E0
100
AcDbEntity
  8
0
  6
Continuous
 62
     7
370
    15
100
AcDbLine
 10
1784.137075360256
 20
935.7502272886543
 30
0.0
 11
1787.855673160138
 21
938.2565198193507
 31
0.0
  0
LINE
  5
8A8
330
7E0
100
AcDbEntity
  8
0
  6
Continuous
 62
     7
370
    15
100
AcDbLine
 10
1787.697406424492
 20
938.4833079143206
 30
0.0
 11
1783.97880862461
 21
935.9770153836247
 31
0.0
  0
ARC
  5
8A9
330
7E0
100
AcDbEntity
  8
0
  6
Continuous
 62
     7
370
    15
100
AcDbCircle
 10
1787.577608832016
 20
938.2310875597955
 30
0.0
 40
0.2792249458764143
100
AcDbArc
 50
5.225834763445433
 51
64.59359340453062
  0
LINE
  5
8AA
330
7E0
100
AcDbEntity
  8
0
  6
Continuous
 62
     7
370
    15
100
AcDbLine
 10
1783.41114417968
 20
936.8010813983209
 30
0.0
 11
1787.129741979562
 21
939.3073739290173
 31
0.0
  0
LINE
  5
8AB
330
7E0
100
AcDbEntity
  8
0
  6
Continuous
 62
     7
370
    15
100
AcDbLine
 10
1783.569703659663
 20
936.5668644132249
 30
0.0
 11
1787.288301459545
 21
939.0731569439214
 31
0.0
  0
ARC
  5
8AC
330
7E0
100
AcDbEntity
  8
0
  6
Continuous
 62
     7
370
    15
100
AcDbCircle
 10
1787.010988263639
 20
939.0562013685876
 30
0.0
 40
0.2778310640629933
100
AcDbArc
 50
3.498841872865254
 51
64.69534064853512
  0
LINE
  5
8AD
330
7E0
100
AcDbEntity
  8
0
  6
Continuous
 62
     7
370
    15
100
AcDbLine
 10
1787.887243223124
 20
937.7198913442343
 30
0.0
 11
1784.168645423242
 21
935.2135988135378
 31
0.0
  0
LINE
  5
8AE
330
7E0
100
AcDbEntity
  8
0
  6
Continuous
 62
     7
370
    15
100
AcDbLine
 10
1787.887243223124
 20
937.7198913442343
 30
0.0
 11
1787.855673160138
 21
938.2565198193507
 31
0.0
  0
LINE
  5
8AF
330
7E0
100
AcDbEntity
  8
0
  6
Continuous
 62
     7
370
    15
100
AcDbLine
 10
1787.451823312556
 20
938.5867297861581
 30
0.0
 11
1783.733225512675
 21
936.0804372554625
 31
0.0
  0
LINE
  5
8B0
330
7E0
100
AcDbEntity
  8
0
  6
Continuous
 62
     7
370
    15
100
AcDbLine
 10
1787.451823312556
 20
938.5867297861581
 30
0.0
 11
1787.697406424492
 21
938.4833079143206
 31
0.0
  0
LINE
  5
8B1
330
7E0
100
AcDbEntity
  8
0
  6
Continuous
 62
     7
370
    15
100
AcDbLine
 10
1787.293263832573
 20
938.8209467712606
 30
0.0
 11
1783.574666032691
 21
936.3146542405642
 31
0.0
  0
LINE
  5
8B2
330
7E0
100
AcDbEntity
  8
0
  6
Continuous
 62
     7
370
    15
100
AcDbLine
 10
1787.288301459545
 20
939.0731569439214
 30
0.0
 11
1787.293263832573
 21
938.8209467712606
 31
0.0
  0
LINE
  5
8B3
330
7E0
100
AcDbEntity
  8
0
  6
Continuous
 62
     7
370
    15
100
AcDbLine
 10
1783.43180160806
 20
937.5171128715724
 30
0.0
 11
1782.770017253843
 21
937.0710777601773
 31
0.0
  0
LINE
  5
8B4
330
7E0
100
AcDbEntity
  8
0
  6
Continuous
 62
     7
370
    15
100
AcDbLine
 10
1785.826830699509
 20
939.1313351794785
 30
0.0
 11
1783.43180160806
 21
937.5171128715724
 31
0.0
  0
LINE
  5
8B5
330
7E0
100
AcDbEntity
  8
0
  6
Continuous
 62
     7
370
    15
100
AcDbLine
 10
1786.488615053725
 20
939.5773702908737
 30
0.0
 11
1785.826830699509
 21
939.1313351794785
 31
0.0
  0
LINE
  5
8B6
330
7E0
100
AcDbEntity
  8
0
  6
Continuous
 62
     7
370
    15
100
AcDbLine
 10
1787.129741979562
 20
939.3073739290173
 30
0.0
 11
1786.488615053725
 21
939.5773702908737
 31
0.0
  0
ARC
  5
8B7
330
7E0
100
AcDbEntity
  8
0
  6
Continuous
 62
     7
370
    15
100
AcDbCircle
 10
1787.570577028476
 20
938.8379023465857
 30
0.0
 40
0.2778310640592285
100
AcDbArc
 50
183.4988418711164
 51
244.6953406491439
  0
LINE
  5
8B8
330
7E0
100
AcDbEntity
  8
0
  6
Continuous
 62
     7
370
    15
100
AcDbLine
 10
1798.785757795211
 20
921.7567699200943
 30
0.0
 11
1795.067160020856
 21
919.2504773693299
 31
0.0
  0
LWPOLYLINE
  5
8B9
330
7E0
100
AcDbEntity
  8
0
  6
Continuous
 62
     7
370
    15
100
AcDbPolyline
 90
        8
 70
   128
 43
0.0
 10
1798.785757795211
 20
921.7567699200943
 10
1798.775102746364
 20
921.8193856794346
 10
1798.746727793653
 20
921.8824526129038
 10
1798.704055375142
 20
921.9383639175562
 10
1798.652232414283
 20
921.9803758648884
 10
1798.59750952498
 20
922.0034211940214
 10
1798.546487095308
 20
922.004720298149
 10
1798.514733418725
 20
921.9914616351402
  0
LINE
  5
8BA
330
7E0
100
AcDbEntity
  8
0
  6
Continuous
 62
     7
370
    15
100
AcDbLine
 10
1795.106698738822
 20
917.2396352722257
 30
0.0
 11
1798.825296611997
 21
919.7459279097627
 31
0.0
  0
LINE
  5
8BB
330
7E0
100
AcDbEntity
  8
0
  6
Continuous
 62
     7
370
    15
100
AcDbLine
 10
1798.785757795211
 20
921.7567699200943
 30
0.0
 11
1798.825296611997
 21
919.7459279097627
 31
0.0
  0
LINE
  5
8BC
330
7E0
100
AcDbEntity
  8
0
  6
Continuous
 62
     7
370
    15
100
AcDbLine
 10
1784.037852923801
 20
934.4075252528277
 30
0.0
 11
1787.47282885759
 21
936.7226598786407
 31
0.0
  0
ARC
  5
8BD
330
7E0
100
AcDbEntity
  8
0
  6
Continuous
 62
     7
370
    15
100
AcDbCircle
 10
1787.793238631145
 20
937.3884468566521
 30
0.0
 40
0.7388739561515054
100
AcDbArc
 50
244.3008287249563
 51
299.6597537347092
  0
ARC
  5
8BE
330
7E0
100
AcDbEntity
  8
0
  6
Continuous
 62
     7
370
    15
100
AcDbCircle
 10
1787.772987279075
 20
937.7030146051565
 30
0.0
 40
0.1154956495826179
100
AcDbArc
 50
307.9888166066452
 51
8.402399420451217
  0
LINE
  5
8BF
330
7E0
100
AcDbEntity
  8
0
  6
Continuous
 62
     7
370
    15
100
AcDbLine
 10
1785.826830699509
 20
939.1313351794781
 30
0.0
 11
1783.473934044674
 21
939.3165801231562
 31
0.0
  0
LINE
  5
8C0
330
7E0
100
AcDbEntity
  8
0
  6
Continuous
 62
     7
370
    15
100
AcDbLine
 10
1783.473934044674
 20
939.3165801231564
 30
0.0
 11
1781.078904953225
 21
937.7023578152503
 31
0.0
  0
LINE
  5
8C1
330
7E0
100
AcDbEntity
  8
0
  6
Continuous
 62
     7
370
    15
100
AcDbLine
 10
1781.078904953225
 20
937.7023578152501
 30
0.0
 11
1783.43180160806
 21
937.5171128715722
 31
0.0
  0
LINE
  5
8C2
330
7E0
100
AcDbEntity
  8
0
  6
Continuous
 62
     7
370
    15
100
AcDbLine
 10
1780.33536903949
 20
937.2627590524329
 30
0.0
 11
1784.053966839372
 21
939.7690515831293
 31
0.0
  0
LINE
  5
8C3
330
7E0
100
AcDbEntity
  8
0
  6
Continuous
 62
     7
370
    15
100
AcDbLine
 10
1784.053966839372
 20
939.7690515831293
 30
0.0
 11
1786.488615053725
 21
939.5773702908737
 31
0.0
  0
LINE
  5
8C4
330
7E0
100
AcDbEntity
  8
0
  6
Continuous
 62
     7
370
    15
100
AcDbLine
 10
1798.24589268099
 20
921.8186365755522
 30
0.0
 11
1794.527294868994
 21
919.3123446609206
 31
0.0
  0
ARC
  5
8C5
330
7E0
100
AcDbEntity
  8
0
  6
Continuous
 62
     7
370
    15
100
AcDbCircle
 10
1798.314016240845
 20
921.96994954894
 30
0.0
 40
0.1659410597858083
100
AcDbArc
 50
173.1723423022427
 51
245.7619516789765
  0
LINE
  5
8C6
330
7E0
100
AcDbEntity
  8
0
  6
Continuous
 62
     7
370
    15
100
AcDbLine
 10
1798.24589268099
 20
921.8186365755522
 30
0.0
 11
1798.253536229991
 21
921.8154177071888
 31
0.0
  0
LINE
  5
8C7
330
7E0
100
AcDbEntity
  8
0
  6
Continuous
 62
     7
370
    15
100
AcDbLine
 10
1787.311126199806
 20
936.958169676699
 30
0.0
 11
1787.308289360674
 21
937.1025126135144
 31
0.0
  0
LINE
  5
8C8
330
7E0
100
AcDbEntity
  8
0
  6
Continuous
 62
     7
370
    15
100
AcDbLine
 10
1783.876150266017
 20
934.6430350508862
 30
0.0
 11
1787.311126199806
 21
936.958169676699
 31
0.0
  0
LINE
  5
8C9
330
7E0
100
AcDbEntity
  8
0
  6
Continuous
 62
     7
370
    15
100
AcDbLine
 10
1787.591911226767
 20
937.2936705183979
 30
0.0
 11
1787.589033510269
 21
937.4400933613644
 31
0.0
  0
ARC
  5
8CA
330
7E0
100
AcDbEntity
  8
0
  6
Continuous
 62
     7
370
    15
100
AcDbCircle
 10
1787.587697735012
 20
936.9747976262981
 30
0.0
 40
0.2770709345888699
100
AcDbArc
 50
183.4405779338977
 51
245.5069462112863
  0
LINE
  5
8CB
330
7E0
100
AcDbEntity
  8
0
  6
Continuous
 62
     7
370
    15
100
AcDbLine
 10
1784.169809331156
 20
938.0145216647607
 30
0.0
 11
1783.581286963038
 21
938.0166415007698
 31
0.0
  0
LINE
  5
8CC
330
7E0
100
AcDbEntity
  8
0
  6
Continuous
 62
     7
370
    15
100
AcDbLine
 10
1782.902019442361
 20
937.5588229344618
 30
0.0
 11
1783.581286963038
 21
938.0166415007698
 31
0.0
  0
LINE
  5
8CD
330
7E0
100
AcDbEntity
  8
0
  6
Continuous
 62
     7
370
    15
100
AcDbLine
 10
1798.732496990462
 20
919.0297335586461
 30
0.0
 11
1795.01389919058
 21
916.5234410279497
 31
0.0
  0
ARC
  5
8CE
330
7E0
100
AcDbEntity
  8
0
  6
Continuous
 62
     7
370
    15
100
AcDbCircle
 10
1796.540558525348
 20
919.6778594736722
 30
0.0
 40
2.285751831799144
100
AcDbArc
 50
343.5277797083016
 51
1.706489181021962
  0
LINE
  5
8CF
330
7E0
100
AcDbEntity
  8
0
  6
Continuous
 62
     7
370
    15
100
AcDbLine
 10
1783.988035829297
 20
938.0151764062549
 30
0.0
 11
1784.158868964888
 21
938.1303159924025
 31
0.0
  0
LINE
  5
8D0
330
7E0
100
AcDbEntity
  8
0
  6
Continuous
 62
     7
370
    15
100
AcDbLine
 10
1797.702045306626
 20
915.6820595750019
 30
0.0
 11
1797.355396359179
 21
915.4484221356996
 31
0.0
  0
LINE
  5
8D1
330
7E0
100
AcDbEntity
  8
0
  6
Continuous
 62
     7
370
    15
100
AcDbLine
 10
1797.072679552581
 20
914.5299475356432
 30
0.0
 11
1797.355396359179
 21
915.4484221356998
 31
0.0
  0
LINE
  5
8D2
330
7E0
100
AcDbEntity
  8
0
  6
Continuous
 62
     7
370
    15
100
AcDbLine
 10
1798.732496990462
 20
919.0297335586461
 30
0.0
 11
1797.702045306626
 21
915.6820595750019
 31
0.0
  0
LINE
  5
8D3
330
7E0
100
AcDbEntity
  8
0
  6
Continuous
 62
     7
370
    15
100
AcDbLine
 10
1783.17152583193
 20
937.7404671690639
 30
0.0
 11
1783.066567345783
 21
938.0639814072164
 31
0.0
  0
LINE
  5
8D4
330
7E0
100
AcDbEntity
  8
0
  6
Continuous
 62
     7
370
    15
100
AcDbLine
 10
1782.378245018261
 20
937.6000600043065
 30
0.0
 11
1783.066567345783
 21
938.0639814072164
 31
0.0
  0
LINE
  5
8D5
330
7E0
100
AcDbEntity
  8
0
  6
Continuous
 62
     7
370
    15
100
AcDbLine
 10
1784.191655477344
 20
938.0292457182781
 30
0.0
 11
1784.085503613869
 21
938.3564777761183
 31
0.0
  0
LINE
  5
8D6
330
7E0
100
AcDbEntity
  8
0
  6
Continuous
 62
     7
370
    15
100
AcDbLine
 10
1784.674025981988
 20
938.3543579401093
 30
0.0
 11
1784.085503613869
 21
938.3564777761183
 31
0.0
  0
ELLIPSE
  5
8D7
330
7E0
100
AcDbEntity
  8
0
  6
Continuous
 62
     7
370
    15
100
AcDbEllipse
 10
1783.542484674502
 20
938.1876259573768
 30
0.0
 11
0.4756040052249659
 21
0.1542751779997502
 31
0.0
210
0.0
220
0.0
230
1.0
 40
0.30696135813823
 41
1.694859477519918
 42
2.949956346305656
  0
LINE
  5
8D8
330
7E0
100
AcDbEntity
  8
0
  6
Continuous
 62
     7
370
    15
100
AcDbLine
 10
1783.554504579809
 20
938.9350207400193
 30
0.0
 11
1781.657956224806
 21
937.656768766547
 31
0.0
  0
LINE
  5
8D9
330
7E0
100
AcDbEntity
  8
0
  6
Continuous
 62
     7
370
    15
100
AcDbLine
 10
1783.554504579809
 20
938.9350207400193
 30
0.0
 11
1784.354576823164
 21
938.9320851135998
 31
0.0
  0
LINE
  5
8DA
330
7E0
100
AcDbEntity
  8
0
  6
Continuous
 62
     7
370
    15
100
AcDbLine
 10
1783.436638453158
 20
938.3134051153328
 30
0.0
 11
1784.354576823164
 21
938.9320851135998
 31
0.0
  0
ARC
  5
8DB
330
7E0
100
AcDbEntity
  8
0
  6
Continuous
 62
     7
370
    15
100
AcDbCircle
 10
1784.003653094848
 20
939.295775468687
 30
0.0
 40
0.4759430148554121
100
AcDbArc
 50
83.93170683964294
 51
123.0182385058304
  0
LINE
  5
8DC
330
7E0
100
AcDbEntity
  8
0
  6
Continuous
 62
     7
370
    15
100
AcDbLine
 10
1784.085503613869
 20
938.3564777761183
 30
0.0
 11
1784.936369212147
 21
938.9299514907692
 31
0.0
  0
LINE
  5
8DD
330
7E0
100
AcDbEntity
  8
0
  6
Continuous
 62
     7
370
    15
100
AcDbLine
 10
1785.524891580266
 20
938.9278316547601
 30
0.0
 11
1784.936369212147
 21
938.9299514907692
 31
0.0
  0
LINE
  5
8DE
330
7E0
100
AcDbEntity
  8
0
  6
Continuous
 62
     7
370
    15
100
AcDbLine
 10
1783.473934044674
 20
939.3165801231564
 30
0.0
 11
1783.579223039878
 21
938.9349300430042
 31
0.0
  0
LINE
  5
8DF
330
7E0
100
AcDbEntity
  8
0
  6
Continuous
 62
     7
370
    15
100
AcDbLine
 10
1783.54157616495
 20
937.9898768755019
 30
0.0
 11
1783.436638453158
 21
938.3134051153328
 31
0.0
  0
LINE
  5
8E0
330
7E0
100
AcDbEntity
  8
0
  6
Continuous
 62
     7
370
    15
100
AcDbLine
 10
1784.354576823164
 20
938.9320851135998
 30
0.0
 11
1784.459524922134
 21
938.6085638746081
 31
0.0
  0
LINE
  5
8E1
330
7E0
100
AcDbEntity
  8
0
  6
Continuous
 62
     7
370
    15
100
AcDbLine
 10
1798.682073652815
 20
915.269342408831
 30
0.0
 11
1794.963475852934
 21
912.7630498781345
 31
0.0
  0
LINE
  5
8E2
330
7E0
100
AcDbEntity
  8
0
  6
Continuous
 62
     7
370
    15
100
AcDbLine
 10
1795.201315124861
 20
912.4117217588922
 30
0.0
 11
1798.919912924743
 21
914.9180142895886
 31
0.0
  0
ARC
  5
8E3
330
7E0
100
AcDbEntity
  8
0
  6
Continuous
 62
     7
370
    15
100
AcDbCircle
 10
1798.503943489634
 20
914.8925839759288
 30
0.0
 40
0.4167460519286485
100
AcDbArc
 50
3.498426429781519
 51
64.69536773462198
  0
LINE
  5
8E4
330
7E0
100
AcDbEntity
  8
0
  6
Continuous
 62
     7
370
    15
100
AcDbLine
 10
1798.95642075959
 20
913.0613249058626
 30
0.0
 11
1795.237822959708
 21
910.5550323751662
 31
0.0
  0
LINE
  5
8E5
330
7E0
100
AcDbEntity
  8
0
  6
Continuous
 62
     7
370
    15
100
AcDbLine
 10
1798.919912924743
 20
914.9180142895886
 30
0.0
 11
1798.95642075959
 21
913.0613249058626
 31
0.0
  0
LINE
  5
8E6
330
7E0
100
AcDbEntity
  8
0
  6
Continuous
 62
     7
370
    15
100
AcDbLine
 10
1798.084114800293
 20
915.1415385530745
 30
0.0
 11
1794.712165947858
 21
912.8688834616802
 31
0.0
  0
LINE
  5
8E7
330
7E0
100
AcDbEntity
  8
0
  6
Continuous
 62
     7
370
    15
100
AcDbLine
 10
1798.084114800293
 20
915.1415385530745
 30
0.0
 11
1797.355396359179
 21
915.4484221356996
 31
0.0
  0
LINE
  5
8E8
330
7E0
100
AcDbEntity
  8
0
  6
Continuous
 62
     7
370
    15
100
AcDbLine
 10
1798.682073652815
 20
915.269342408831
 30
0.0
 11
1797.702045306626
 21
915.6820595750019
 31
0.0
  0
ARC
  5
8E9
330
7E0
100
AcDbEntity
  8
0
  6
Continuous
 62
     7
370
    15
100
AcDbCircle
 10
1798.032571999567
 20
915.0427578082835
 30
0.0
 40
0.1114194590191158
100
AcDbArc
 50
62.44489935988504
 51
120.7192322287224
  0
ARC
  5
8EA
330
7E0
100
AcDbEntity
  8
0
  6
Continuous
 62
     7
370
    15
100
AcDbCircle
 10
1798.400037183656
 20
913.0038176697903
 30
0.0
 40
0.5593476251581587
100
AcDbArc
 50
307.3159781990652
 51
5.901078675982298
  0
LINE
  5
8EB
330
7E0
100
AcDbEntity
  8
0
  6
Continuous
 62
     8
370
    15
100
AcDbLine
 10
1788.070436430811
 20
934.2539172306286
 30
0.0
 11
1788.222373914952
 21
934.3563213630806
 31
0.0
  0
LINE
  5
8EC
330
7E0
100
AcDbEntity
  8
0
  6
Continuous
 62
     8
370
    15
100
AcDbLine
 10
1787.824853318876
 20
934.3573391024676
 30
0.0
 11
1788.217586891586
 21
934.6220370539029
 31
0.0
  0
LINE
  5
8ED
330
7E0
100
AcDbEntity
  8
0
  6
Continuous
 62
     8
370
    15
100
AcDbLine
 10
1794.465718526441
 20
923.8334978661397
 30
0.0
 11
1794.34669713467
 21
923.7532788047507
 31
0.0
  0
LINE
  5
8EE
330
7E0
100
AcDbEntity
  8
0
  6
Continuous
 62
     8
370
    15
100
AcDbLine
 10
1787.982077179273
 20
932.9162649928644
 30
0.0
 11
1787.827059717698
 21
932.811784990729
 31
0.0
  0
LINE
  5
8EF
330
7E0
100
AcDbEntity
  8
0
  6
Continuous
 62
     8
370
    15
100
AcDbLine
 10
1787.116353342167
 20
933.4365620258106
 30
0.0
 11
1787.663430256281
 21
933.8052856300697
 31
0.0
  0
LINE
  5
8F0
330
7E0
100
AcDbEntity
  8
0
  6
Continuous
 62
     8
370
    15
100
AcDbLine
 10
1794.637193329294
 20
919.2660639767781
 30
0.0
 11
1794.752855443734
 21
919.3440185900206
 31
0.0
  0
LINE
  5
8F1
330
7E0
100
AcDbEntity
  8
0
  6
Continuous
 62
     8
370
    15
100
AcDbLine
 10
1783.983026358293
 20
935.1170834996382
 30
0.0
 11
1783.868352563985
 21
935.0397946693838
 31
0.0
  0
LINE
  5
8F2
330
7E0
100
AcDbEntity
  8
0
  6
Continuous
 62
     8
370
    15
100
AcDbLine
 10
1793.472616146596
 20
911.5162065998696
 30
0.0
 11
1794.332185982311
 21
912.0955468713376
 31
0.0
  0
LINE
  5
8F3
330
7E0
100
AcDbEntity
  8
0
  6
Continuous
 62
     8
370
    15
100
AcDbLine
 10
1792.745076750543
 20
916.0390694034841
 30
0.0
 11
1792.553949885854
 21
915.9102520752426
 31
0.0
  0
LINE
  5
8F4
330
7E0
100
AcDbEntity
  8
0
  6
Continuous
 62
     8
370
    15
100
AcDbLine
 10
1792.619197638892
 20
912.5919284636983
 30
0.0
 11
1793.185788423127
 21
912.9738041939893
 31
0.0
  0
LINE
  5
8F5
330
7E0
100
AcDbEntity
  8
0
  6
Continuous
 62
     8
370
    15
100
AcDbLine
 10
1791.294572188033
 20
916.4824632744103
 30
0.0
 11
1791.121713046779
 21
916.3659581835393
 31
0.0
  0
LINE
  5
8F6
330
7E0
100
AcDbEntity
  8
0
  6
Continuous
 62
     8
370
    15
100
AcDbLine
 10
1791.434260400591
 20
914.0314856130865
 30
0.0
 11
1791.968001972669
 21
914.3912213488162
 31
0.0
  0
LINE
  5
8F7
330
7E0
100
AcDbEntity
  8
0
  6
Continuous
 62
     8
370
    15
100
AcDbLine
 10
1793.997025227351
 20
911.0775667751976
 30
0.0
 11
1794.376868937703
 21
911.3335771063272
 31
0.0
  0
LINE
  5
8F8
330
7E0
100
AcDbEntity
  8
0
  6
Continuous
 62
     8
370
    15
100
AcDbLine
 10
1794.267412058176
 20
911.6672273586161
 30
0.0
 11
1793.624989024938
 21
911.2342415568708
 31
0.0
  0
LINE
  5
8F9
330
7E0
100
AcDbEntity
  8
0
  6
Continuous
 62
     8
370
    15
100
AcDbLine
 10
1791.887880726649
 20
912.5937046099279
 30
0.0
 11
1792.001833839755
 21
912.6705077092669
 31
0.0
  0
LINE
  5
8FA
330
7E0
100
AcDbEntity
  8
0
  6
Continuous
 62
     8
370
    15
100
AcDbLine
 10
1791.99441319177
 20
913.0480184357649
 30
0.0
 11
1791.538591679799
 21
912.7407999323759
 31
0.0
  0
LINE
  5
8FB
330
7E0
100
AcDbEntity
  8
0
  6
Continuous
 62
     8
370
    15
100
AcDbLine
 10
1777.44636611708
 20
930.8731156760783
 30
0.0
 11
1777.562977642694
 21
930.951710515146
 31
0.0
  0
LINE
  5
8FC
330
7E0
100
AcDbEntity
  8
0
  6
Continuous
 62
     8
370
    15
100
AcDbLine
 10
1777.598144134648
 20
930.9369011436304
 30
0.0
 11
1777.447176491608
 21
930.8351506730259
 31
0.0
  0
LINE
  5
8FD
330
7E0
100
AcDbEntity
  8
0
  6
Continuous
 62
     8
370
    15
100
AcDbLine
 10
1777.761035651301
 20
926.3730816250408
 30
0.0
 11
1777.855996826047
 21
926.4370846534886
 31
0.0
  0
LINE
  5
8FE
330
7E0
100
AcDbEntity
  8
0
  6
Continuous
 62
     8
370
    15
100
AcDbLine
 10
1777.529744942067
 20
926.6359701365088
 30
0.0
 11
1777.779498328276
 21
926.8043010719997
 31
0.0
  0
LINE
  5
8FF
330
7E0
100
AcDbEntity
  8
0
  6
Continuous
 62
     8
370
    15
100
AcDbLine
 10
1777.786340332846
 20
926.7703812633303
 30
0.0
 11
1777.530429569048
 21
926.5978999493347
 31
0.0
  0
LINE
  5
900
330
7E0
100
AcDbEntity
  8
0
  6
Continuous
 62
     8
370
    15
100
AcDbLine
 10
1777.651137165836
 20
926.4193635534541
 30
0.0
 11
1777.834784285846
 21
926.5431405887792
 31
0.0
  0
LINE
  5
901
330
7E0
100
AcDbEntity
  8
0
  6
Continuous
 62
     8
370
    15
100
AcDbLine
 10
1780.525689703037
 20
920.85009396772
 30
0.0
 11
1780.678591194789
 21
920.9531478303132
 31
0.0
  0
LINE
  5
902
330
7E0
100
AcDbEntity
  8
0
  6
Continuous
 62
     8
370
    15
100
AcDbLine
 10
1781.35652606239
 20
917.9915482305551
 30
0.0
 11
1780.592028446364
 21
917.4762855514774
 31
0.0
  0
LINE
  5
903
330
7E0
100
AcDbEntity
  8
0
  6
Continuous
 62
     8
370
    15
100
AcDbLine
 10
1778.562404137246
 20
921.7395411614011
 30
0.0
 11
1778.811003958588
 21
921.9070946073214
 31
0.0
  0
LINE
  5
904
330
7E0
100
AcDbEntity
  8
0
  6
Continuous
 62
     8
370
    15
100
AcDbLine
 10
1779.960680107774
 20
918.2661972265989
 30
0.0
 11
1779.589619185085
 21
918.016106394243
 31
0.0
  0
LINE
  5
905
330
7E0
100
AcDbEntity
  8
0
  6
Continuous
 62
     8
370
    15
100
AcDbLine
 10
1781.06023712918
 20
917.1535261694081
 30
0.0
 11
1781.939410864018
 21
917.7460792454308
 31
0.0
  0
LINE
  5
906
330
7E0
100
AcDbEntity
  8
0
  6
Continuous
 62
     8
370
    15
100
AcDbLine
 10
1782.217726019451
 20
917.6288730006325
 30
0.0
 11
1781.162260732074
 21
916.9175014276577
 31
0.0
  0
LINE
  5
907
330
7E0
100
AcDbEntity
  8
0
  6
Continuous
 62
     8
370
    15
100
AcDbLine
 10
1781.590121817167
 20
917.8931745678788
 30
0.0
 11
1780.710948082328
 21
917.3006214918562
 31
0.0
  0
LINE
  5
908
330
7E0
100
AcDbEntity
  8
0
  6
Continuous
 62
     8
370
    15
100
AcDbLine
 10
1782.454284630474
 20
917.5292515968697
 30
0.0
 11
1780.767829693695
 21
916.3926001925313
 31
0.0
  0
LINE
  5
909
330
7E0
100
AcDbEntity
  8
0
  6
Continuous
 62
     8
370
    15
100
AcDbLine
 10
1777.828586913509
 20
919.9790276947251
 30
0.0
 11
1778.371663730697
 21
920.3450552792508
 31
0.0
  0
LINE
  5
90A
330
7E0
100
AcDbEntity
  8
0
  6
Continuous
 62
     8
370
    15
100
AcDbLine
 10
1777.577277008433
 20
920.0848612782706
 30
0.0
 11
1778.307642325097
 21
920.5771191766356
 31
0.0
  0
LINE
  5
90B
330
7E0
100
AcDbEntity
  8
0
  6
Continuous
 62
     8
370
    15
100
AcDbLine
 10
1778.352909181856
 20
918.4962421516097
 30
0.0
 11
1778.798802375527
 21
918.7967690816318
 31
0.0
  0
LINE
  5
90C
330
7E0
100
AcDbEntity
  8
0
  6
Continuous
 62
     8
370
    15
100
AcDbLine
 10
1777.97824424477
 20
919.8011606277622
 30
0.0
 11
1778.4365041621
 21
920.1100225885687
 31
0.0
  0
LINE
  5
90D
330
7E0
100
AcDbEntity
  8
0
  6
Continuous
 62
     8
370
    15
100
AcDbLine
 10
1778.998739320843
 20
917.393761690195
 30
0.0
 11
1779.150676804984
 21
917.496165822647
 31
0.0
  0
LINE
  5
90E
330
7E0
100
AcDbEntity
  8
0
  6
Continuous
 62
     8
370
    15
100
AcDbLine
 10
1778.32975162995
 20
918.3805949179918
 30
0.0
 11
1778.822073962409
 21
918.7124145583345
 31
0.0
  0
LINE
  5
90F
330
7E0
100
AcDbEntity
  8
0
  6
Continuous
 62
     8
370
    15
100
AcDbLine
 10
1779.06174699719
 20
917.8436510873062
 30
0.0
 11
1778.62670311843
 21
917.5504364718683
 31
0.0
  0
ENDBLK
  5
7E2
330
7E0
100
AcDbEntity
  8
0
100
AcDbBlockEnd
  0
ENDSEC
  0
SECTION
  2
ENTITIES
  0
INSERT
  5
6FE
330
1F
100
AcDbEntity
  8
0
100
AcDbBlockReference
  2
1
 10
0.0
 20
0.0
 30
0.0
  0
INSERT
  5
749
330
1F
100
AcDbEntity
  8
0
100
AcDbBlockReference
  2
2
 10
23.86709475541625
 20
0.0
 30
0.0
  0
INSERT
  5
7DF
330
1F
100
AcDbEntity
  8
0
100
AcDbBlockReference
  2
3
 10
0.0
 20
28.19356677449025
 30
0.0
  0
INSERT
  5
910
330
1F
100
AcDbEntity
  8
0
100
AcDbBlockReference
  2
4
 10
-23.51610758444076
 20
7.015958590524974
 30
0.0
  0
ENDSEC
  0
SECTION
  2
OBJECTS
  0
DICTIONARY
  5
C
330
0
100
AcDbDictionary
281
     1
  3
ACAD_COLOR
350
6B
  3
ACAD_GROUP
350
D
  3
ACAD_LAYOUT
350
1A
  3
ACAD_MATERIAL
350
6A
  3
ACAD_MLEADERSTYLE
350
12D
  3
ACAD_MLINESTYLE
350
17
  3
ACAD_PLOTSETTINGS
350
19
  3
ACAD_PLOTSTYLENAME
350
E
  3
ACAD_SCALELIST
350
10C
  3
ACAD_TABLESTYLE
350
7E
  3
ACAD_VISUALSTYLE
350
EF
  3
ACDB_RECOMPOSE_DATA
350
15D
  3
AcDbVariableDictionary
350
5E
  3
DWGPROPS
350
998
  0
DICTIONARY
  5
13C
330
10
100
AcDbDictionary
280
     1
281
     1
  3
ADSK_XREC_LAYER_RECONCILED
360
911
  0
DICTIONARY
  5
985
330
691
100
AcDbDictionary
280
     1
281
     1
  0
DICTIONARY
  5
6B
102
{ACAD_REACTORS
330
C
102
}
330
C
100
AcDbDictionary
281
     1
  0
DICTIONARY
  5
D
102
{ACAD_REACTORS
330
C
102
}
330
C
100
AcDbDictionary
281
     1
  0
DICTIONARY
  5
1A
102
{ACAD_REACTORS
330
C
102
}
330
C
100
AcDbDictionary
281
     1
  3
Layout1
350
D3
  3
Layout2
350
D7
  3
Model
350
22
  0
DICTIONARY
  5
6A
102
{ACAD_REACTORS
330
C
102
}
330
C
100
AcDbDictionary
281
     1
  3
ByBlock
350
ED
  3
ByLayer
350
EC
  3
Global
350
EE
  0
DICTIONARY
  5
12D
102
{ACAD_REACTORS
330
C
102
}
330
C
100
AcDbDictionary
281
     1
  3
Annotative
350
13B
  3
Standard
350
12E
  0
DICTIONARY
  5
17
102
{ACAD_REACTORS
330
C
102
}
330
C
100
AcDbDictionary
281
     1
  3
Standard
350
18
  0
DICTIONARY
  5
19
102
{ACAD_REACTORS
330
C
102
}
330
C
100
AcDbDictionary
281
     1
  0
ACDBDICTIONARYWDFLT
  5
E
102
{ACAD_REACTORS
330
C
102
}
330
C
100
AcDbDictionary
281
     1
  3
Normal
350
F
100
AcDbDictionaryWithDefault
340
F
  0
DICTIONARY
  5
10C
102
{ACAD_REACTORS
330
C
102
}
330
C
100
AcDbDictionary
281
     1
  3
A0
350
10D
  3
A1
350
188
  3
A2
350
189
  3
A3
350
18A
  3
A4
350
18B
  3
A5
350
18C
  3
A6
350
18D
  3
A7
350
18E
  3
A8
350
18F
  3
A9
350
190
  3
B0
350
191
  3
B1
350
192
  3
B2
350
193
  3
B3
350
194
  3
B4
350
195
  3
B5
350
196
  3
B6
350
197
  3
B7
350
198
  3
B8
350
199
  3
B9
350
19A
  3
C0
350
19B
  3
C1
350
19C
  3
C2
350
19D
  3
C3
350
19E
  3
C4
350
19F
  3
C5
350
1A0
  3
C6
350
1A1
  3
C7
350
1A2
  3
C8
350
1A3
  3
C9
350
1A4
  3
D0
350
1A5
  3
D1
350
1A6
  3
D2
350
1A7
  0
DICTIONARY
  5
7E
102
{ACAD_REACTORS
330
C
102
}
330
C
100
AcDbDictionary
281
     1
  3
Standard
350
7F
  0
DICTIONARY
  5
EF
102
{ACAD_REACTORS
330
C
102
}
330
C
100
AcDbDictionary
281
     1
  3
2dWireframe
350
F5
  3
3D Hidden
350
F7
  3
3dWireframe
350
F6
  3
Basic
350
F4
  3
Brighten
350
FB
  3
ColorChange
350
FF
  3
Conceptual
350
F8
  3
Dim
350
FA
  3
Facepattern
350
FE
  3
Flat
350
F0
  3
FlatWithEdges
350
F1
  3
Gouraud
350
F2
  3
GouraudWithEdges
350
F3
  3
Linepattern
350
FD
  3
Realistic
350
F9
  3
Thicken
350
FC
  0
XRECORD
  5
15D
102
{ACAD_REACTORS
330
C
102
}
330
C
100
AcDbXrecord
280
     1
 90
        1
330
7F
  0
DICTIONARY
  5
5E
102
{ACAD_REACTORS
330
C
102
}
330
C
100
AcDbDictionary
281
     1
  3
CANNOSCALE
350
146
  3
CMLEADERSTYLE
350
145
  3
CTABLESTYLE
350
84
  3
DIMASSOC
350
5F
  3
HIDETEXT
350
63
  3
INDEXCTL
350
994
  3
LIGHTINGUNITS
350
992
  3
MSLTSCALE
350
991
  3
PSOLHEIGHT
350
996
  3
PSOLWIDTH
350
995
  3
SORTENTS
350
993
  0
XRECORD
  5
998
102
{ACAD_REACTORS
330
C
102
}
330
C
100
AcDbXrecord
280
     1
  1
DWGPROPS COOKIE
  2

  3

  4

  6

  7

  8
orhan kara
  9

300
=
301
=
302
=
303
=
304
=
305
=
306
=
307
=
308
=
309
=
 40
0.0009284259259259
 41
2458451.542943449
 42
2458956.386440116
  1

 90
        0
  0
XRECORD
  5
911
102
{ACAD_REACTORS
330
13C
102
}
330
13C
100
AcDbXrecord
280
     1
290
     1
  0
LAYOUT
  5
D3
102
{ACAD_XDICTIONARY
360
99C
102
}
102
{ACAD_REACTORS
330
1A
102
}
330
1A
100
AcDbPlotSettings
  1

  2
C:\Documents and Settings\basas\Application Data\Autodesk\AutoCAD 2005\R16.1\enu\plotters\Default Windows System Printer.pc3
  4

  6

 40
0.0
 41
0.0
 42
0.0
 43
0.0
 44
0.0
 45
0.0
 46
0.0
 47
0.0
 48
0.0
 49
0.0
140
0.0
141
0.0
142
1.0
143
1.0
 70
   688
 72
     0
 73
     0
 74
     5
  7

 75
    16
147
1.0
148
0.0
149
0.0
100
AcDbLayout
  1
Layout1
 70
     1
 71
     1
 10
0.0
 20
0.0
 11
12.0
 21
9.0
 12
0.0
 22
0.0
 32
0.0
 14
0.0
 24
0.0
 34
0.0
 15
0.0
 25
0.0
 35
0.0
146
0.0
 13
0.0
 23
0.0
 33
0.0
 16
1.0
 26
0.0
 36
0.0
 17
0.0
 27
1.0
 37
0.0
 76
     0
330
D2
  0
LAYOUT
  5
D7
102
{ACAD_XDICTIONARY
360
99E
102
}
102
{ACAD_REACTORS
330
1A
102
}
330
1A
100
AcDbPlotSettings
  1

  2
C:\Documents and Settings\basas\Application Data\Autodesk\AutoCAD 2005\R16.1\enu\plotters\Default Windows System Printer.pc3
  4

  6

 40
0.0
 41
0.0
 42
0.0
 43
0.0
 44
0.0
 45
0.0
 46
0.0
 47
0.0
 48
0.0
 49
0.0
140
0.0
141
0.0
142
1.0
143
1.0
 70
   688
 72
     0
 73
     0
 74
     5
  7

 75
    16
147
1.0
148
0.0
149
0.0
100
AcDbLayout
  1
Layout2
 70
     1
 71
     2
 10
0.0
 20
0.0
 11
12.0
 21
9.0
 12
0.0
 22
0.0
 32
0.0
 14
0.0
 24
0.0
 34
0.0
 15
0.0
 25
0.0
 35
0.0
146
0.0
 13
0.0
 23
0.0
 33
0.0
 16
1.0
 26
0.0
 36
0.0
 17
0.0
 27
1.0
 37
0.0
 76
     0
330
D6
  0
LAYOUT
  5
22
102
{ACAD_XDICTIONARY
360
999
102
}
102
{ACAD_REACTORS
330
1A
102
}
330
1A
100
AcDbPlotSettings
  1

  2
none_device
  4
ISO_A4_(210.00_x_297.00_MM)
  6

 40
7.5
 41
20.0
 42
7.5
 43
20.0
 44
210.0
 45
297.0
 46
11.54999923706054
 47
-13.65000009536743
 48
0.0
 49
0.0
140
0.0
141
0.0
142
1.0
143
8.704084754739808
 70
 11952
 72
     1
 73
     0
 74
     0
  7

 75
     0
147
0.1148885871608098
148
0.0
149
0.0
100
AcDbLayout
  1
Model
 70
     1
 71
     0
 10
0.0
 20
0.0
 11
12.0
 21
9.0
 12
0.0
 22
0.0
 32
0.0
 14
0.0
 24
0.0
 34
0.0
 15
0.0
 25
0.0
 35
0.0
146
0.0
 13
0.0
 23
0.0
 33
0.0
 16
1.0
 26
0.0
 36
0.0
 17
0.0
 27
1.0
 37
0.0
 76
     0
330
1F
331
EA
1001
ACAD_PSEXT
1000
None
1000
None
1000
Not applicable
1000
The layout will not be plotted unless a new plotter configuration name is selected.
1070
     0
  0
MATERIAL
  5
ED
102
{ACAD_XDICTIONARY
360
9A2
102
}
102
{ACAD_REACTORS
330
6A
102
}
330
6A
100
AcDbMaterial
  1
ByBlock
  0
MATERIAL
  5
EC
102
{ACAD_XDICTIONARY
360
9A0
102
}
102
{ACAD_REACTORS
330
6A
102
}
330
6A
100
AcDbMaterial
  1
ByLayer
  0
MATERIAL
  5
EE
102
{ACAD_XDICTIONARY
360
173
102
}
102
{ACAD_REACTORS
330
6A
102
}
330
6A
100
AcDbMaterial
  1
Global
 43
0.0007999999797903
 43
0.0
 43
0.0
 43
0.0
 43
0.0
 43
0.0007999999797903
 43
0.0
 43
0.0
 43
0.0
 43
0.0
 43
1.0
 43
0.0
 43
0.0
 43
0.0
 43
0.0
 43
1.0
 49
0.0007999999797903
 49
0.0
 49
0.0
 49
0.0
 49
0.0
 49
0.0007999999797903
 49
0.0
 49
0.0
 49
0.0
 49
0.0
 49
1.0
 49
0.0
 49
0.0
 49
0.0
 49
0.0
 49
1.0
142
0.0007999999797903
142
0.0
142
0.0
142
0.0
142
0.0
142
0.0007999999797903
142
0.0
142
0.0
142
0.0
142
0.0
142
1.0
142
0.0
142
0.0
142
0.0
142
0.0
142
1.0
144
0.0007999999797903
144
0.0
144
0.0
144
0.0
144
0.0
144
0.0007999999797903
144
0.0
144
0.0
144
0.0
144
0.0
144
1.0
144
0.0
144
0.0
144
0.0
144
0.0
144
1.0
1001
ACAD
1070
    -1
1070
     3
1070
     0
1000

1071
        0
1070
     0
  0
MLEADERSTYLE
  5
13B
102
{ACAD_REACTORS
330
12D
102
}
330
12D
100
AcDbMLeaderStyle
170
     2
171
     1
172
     0
 90
        2
 40
0.0
 41
0.0
173
     1
 91
-1056964608
340
14
 92
       -2
290
     1
 42
2.0
291
     1
 43
8.0
  3
Standard
 44
4.0
300

342
11
174
     1
178
     1
175
     1
176
     0
 93
-1056964608
 45
4.0
292
     0
297
     0
 46
4.0
 94
-1056964608
 47
1.0
 49
1.0
140
1.0
293
     1
141
0.0
294
     1
177
     0
142
1.0
295
     0
296
     1
143
3.75
1001
ACAD_MLEADERVER
1070
     2
  0
MLEADERSTYLE
  5
12E
102
{ACAD_REACTORS
330
12D
102
}
330
12D
100
AcDbMLeaderStyle
170
     2
171
     1
172
     0
 90
        2
 40
0.0
 41
0.0
173
     1
 91
-1056964608
340
14
 92
       -2
290
     1
 42
2.0
291
     1
 43
8.0
  3
Standard
 44
4.0
300

342
11
174
     1
178
     1
175
     1
176
     0
 93
-1056964608
 45
4.0
292
     0
297
     0
 46
4.0
 94
-1056964608
 47
1.0
 49
1.0
140
1.0
293
     1
141
0.0
294
     1
177
     0
142
1.0
295
     0
296
     0
143
3.75
1001
ACAD_MLEADERVER
1070
     2
  0
MLINESTYLE
  5
18
102
{ACAD_REACTORS
330
17
102
}
330
17
100
AcDbMlineStyle
  2
STANDARD
 70
     0
  3

 62
   256
 51
90.0
 52
90.0
 71
     2
 49
0.5
 62
   256
  6
BYLAYER
 49
-0.5
 62
   256
  6
BYLAYER
  0
ACDBPLACEHOLDER
  5
F
102
{ACAD_REACTORS
330
E
102
}
330
E
  0
SCALE
  5
10D
102
{ACAD_REACTORS
330
10C
102
}
330
10C
100
AcDbScale
 70
     0
300
1:1
140
1.0
141
1.0
290
     1
  0
SCALE
  5
188
102
{ACAD_REACTORS
330
10C
102
}
330
10C
100
AcDbScale
 70
     0
300
1:2
140
1.0
141
2.0
290
     0
  0
SCALE
  5
189
102
{ACAD_REACTORS
330
10C
102
}
330
10C
100
AcDbScale
 70
     0
300
1:4
140
1.0
141
4.0
290
     0
  0
SCALE
  5
18A
102
{ACAD_REACTORS
330
10C
102
}
330
10C
100
AcDbScale
 70
     0
300
1:5
140
1.0
141
5.0
290
     0
  0
SCALE
  5
18B
102
{ACAD_REACTORS
330
10C
102
}
330
10C
100
AcDbScale
 70
     0
300
1:8
140
1.0
141
8.0
290
     0
  0
SCALE
  5
18C
102
{ACAD_REACTORS
330
10C
102
}
330
10C
100
AcDbScale
 70
     0
300
1:10
140
1.0
141
10.0
290
     0
  0
SCALE
  5
18D
102
{ACAD_REACTORS
330
10C
102
}
330
10C
100
AcDbScale
 70
     0
300
1:16
140
1.0
141
16.0
290
     0
  0
SCALE
  5
18E
102
{ACAD_REACTORS
330
10C
102
}
330
10C
100
AcDbScale
 70
     0
300
1:20
140
1.0
141
20.0
290
     0
  0
SCALE
  5
18F
102
{ACAD_REACTORS
330
10C
102
}
330
10C
100
AcDbScale
 70
     0
300
1:30
140
1.0
141
30.0
290
     0
  0
SCALE
  5
190
102
{ACAD_REACTORS
330
10C
102
}
330
10C
100
AcDbScale
 70
     0
300
1:40
140
1.0
141
40.0
290
     0
  0
SCALE
  5
191
102
{ACAD_REACTORS
330
10C
102
}
330
10C
100
AcDbScale
 70
     0
300
1:50
140
1.0
141
50.0
290
     0
  0
SCALE
  5
192
102
{ACAD_REACTORS
330
10C
102
}
330
10C
100
AcDbScale
 70
     0
300
1:100
140
1.0
141
100.0
290
     0
  0
SCALE
  5
193
102
{ACAD_REACTORS
330
10C
102
}
330
10C
100
AcDbScale
 70
     0
300
2:1
140
2.0
141
1.0
290
     0
  0
SCALE
  5
194
102
{ACAD_REACTORS
330
10C
102
}
330
10C
100
AcDbScale
 70
     0
300
4:1
140
4.0
141
1.0
290
     0
  0
SCALE
  5
195
102
{ACAD_REACTORS
330
10C
102
}
330
10C
100
AcDbScale
 70
     0
300
8:1
140
8.0
141
1.0
290
     0
  0
SCALE
  5
196
102
{ACAD_REACTORS
330
10C
102
}
330
10C
100
AcDbScale
 70
     0
300
10:1
140
10.0
141
1.0
290
     0
  0
SCALE
  5
197
102
{ACAD_REACTORS
330
10C
102
}
330
10C
100
AcDbScale
 70
     0
300
100:1
140
100.0
141
1.0
290
     0
  0
SCALE
  5
198
102
{ACAD_REACTORS
330
10C
102
}
330
10C
100
AcDbScale
 70
     0
300
1/128" = 1'-0"
140
0.0078125
141
12.0
290
     0
  0
SCALE
  5
199
102
{ACAD_REACTORS
330
10C
102
}
330
10C
100
AcDbScale
 70
     0
300
1/64" = 1'-0"
140
0.015625
141
12.0
290
     0
  0
SCALE
  5
19A
102
{ACAD_REACTORS
330
10C
102
}
330
10C
100
AcDbScale
 70
     0
300
1/32" = 1'-0"
140
0.03125
141
12.0
290
     0
  0
SCALE
  5
19B
102
{ACAD_REACTORS
330
10C
102
}
330
10C
100
AcDbScale
 70
     0
300
1/16" = 1'-0"
140
0.0625
141
12.0
290
     0
  0
SCALE
  5
19C
102
{ACAD_REACTORS
330
10C
102
}
330
10C
100
AcDbScale
 70
     0
300
3/32" = 1'-0"
140
0.09375
141
12.0
290
     0
  0
SCALE
  5
19D
102
{ACAD_REACTORS
330
10C
102
}
330
10C
100
AcDbScale
 70
     0
300
1/8" = 1'-0"
140
0.125
141
12.0
290
     0
  0
SCALE
  5
19E
102
{ACAD_REACTORS
330
10C
102
}
330
10C
100
AcDbScale
 70
     0
300
3/16" = 1'-0"
140
0.1875
141
12.0
290
     0
  0
SCALE
  5
19F
102
{ACAD_REACTORS
330
10C
102
}
330
10C
100
AcDbScale
 70
     0
300
1/4" = 1'-0"
140
0.25
141
12.0
290
     0
  0
SCALE
  5
1A0
102
{ACAD_REACTORS
330
10C
102
}
330
10C
100
AcDbScale
 70
     0
300
3/8" = 1'-0"
140
0.375
141
12.0
290
     0
  0
SCALE
  5
1A1
102
{ACAD_REACTORS
330
10C
102
}
330
10C
100
AcDbScale
 70
     0
300
1/2" = 1'-0"
140
0.5
141
12.0
290
     0
  0
SCALE
  5
1A2
102
{ACAD_REACTORS
330
10C
102
}
330
10C
100
AcDbScale
 70
     0
300
3/4" = 1'-0"
140
0.75
141
12.0
290
     0
  0
SCALE
  5
1A3
102
{ACAD_REACTORS
330
10C
102
}
330
10C
100
AcDbScale
 70
     0
300
1" = 1'-0"
140
1.0
141
12.0
290
     0
  0
SCALE
  5
1A4
102
{ACAD_REACTORS
330
10C
102
}
330
10C
100
AcDbScale
 70
     0
300
1-1/2" = 1'-0"
140
1.5
141
12.0
290
     0
  0
SCALE
  5
1A5
102
{ACAD_REACTORS
330
10C
102
}
330
10C
100
AcDbScale
 70
     0
300
3" = 1'-0"
140
3.0
141
12.0
290
     0
  0
SCALE
  5
1A6
102
{ACAD_REACTORS
330
10C
102
}
330
10C
100
AcDbScale
 70
     0
300
6" = 1'-0"
140
6.0
141
12.0
290
     0
  0
SCALE
  5
1A7
102
{ACAD_REACTORS
330
10C
102
}
330
10C
100
AcDbScale
 70
     0
300
1'-0" = 1'-0"
140
12.0
141
12.0
290
     0
  0
TABLESTYLE
  5
7F
102
{ACAD_XDICTIONARY
360
162
102
}
102
{ACAD_REACTORS
330
7E
102
}
330
7E
100
AcDbTableStyle
  3
Standard
 70
     0
 71
     0
 40
1.5
 41
1.5
280
     0
281
     0
  7
Standard
140
4.5
170
     2
 62
     0
 63
     7
283
     0
274
    -2
284
     1
 64
     0
275
    -2
285
     1
 65
     0
276
    -2
286
     1
 66
     0
277
    -2
287
     1
 67
     0
278
    -2
288
     1
 68
     0
279
    -2
289
     1
 69
     0
  7
Standard
140
6.0
170
     5
 62
     0
 63
     7
283
     0
274
    -2
284
     1
 64
     0
275
    -2
285
     1
 65
     0
276
    -2
286
     1
 66
     0
277
    -2
287
     1
 67
     0
278
    -2
288
     1
 68
     0
279
    -2
289
     1
 69
     0
  7
Standard
140
4.5
170
     5
 62
     0
 63
     7
283
     0
274
    -2
284
     1
 64
     0
275
    -2
285
     1
 65
     0
276
    -2
286
     1
 66
     0
277
    -2
287
     1
 67
     0
278
    -2
288
     1
 68
     0
279
    -2
289
     1
 69
     0
  0
VISUALSTYLE
  5
F5
102
{ACAD_REACTORS
330
EF
102
}
330
EF
100
AcDbVisualStyle
  2
2dWireframe
 70
     4
 71
     0
 72
     2
 73
     1
 90
        0
 40
-0.6
 41
-30.0
 62
     5
 63
     7
 74
     1
 91
        4
 64
     7
 65
   257
 75
     1
175
     1
 42
1.0
 92
        0
 66
   257
 43
1.0
 76
     1
 77
     6
 78
     2
 67
     7
 79
     5
170
     0
171
     0
290
     0
174
     0
 93
        1
 44
0.0
173
     0
291
     0
 45
0.0
1001
ACAD
1000
AcDbSavedByObjectVersion
1070
     0
  0
VISUALSTYLE
  5
F7
102
{ACAD_REACTORS
330
EF
102
}
330
EF
100
AcDbVisualStyle
  2
3D Hidden
 70
     6
 71
     1
 72
     2
 73
     2
 90
        0
 40
-0.6
 41
-30.0
 62
     5
 63
     7
 74
     2
 91
        2
 64
     7
 65
   257
 75
     2
175
     1
 42
40.0
 92
        0
 66
   257
 43
1.0
 76
     1
 77
     6
 78
     2
 67
     7
 79
     3
170
     0
171
     0
290
     0
174
     0
 93
        1
 44
0.0
173
     0
291
     0
 45
0.0
1001
ACAD
1000
AcDbSavedByObjectVersion
1070
     0
  0
VISUALSTYLE
  5
F6
102
{ACAD_REACTORS
330
EF
102
}
330
EF
100
AcDbVisualStyle
  2
3dWireframe
 70
     5
 71
     0
 72
     2
 73
     1
 90
        0
 40
-0.6
 41
-30.0
 62
     5
 63
     7
 74
     1
 91
        4
 64
     7
 65
   257
 75
     1
175
     1
 42
1.0
 92
        0
 66
   257
 43
1.0
 76
     1
 77
     6
 78
     2
 67
     7
 79
     5
170
     0
171
     0
290
     0
174
     0
 93
        1
 44
0.0
173
     0
291
     0
 45
0.0
1001
ACAD
1000
AcDbSavedByObjectVersion
1070
     0
  0
VISUALSTYLE
  5
F4
102
{ACAD_REACTORS
330
EF
102
}
330
EF
100
AcDbVisualStyle
  2
Basic
 70
     7
 71
     1
 72
     0
 73
     1
 90
        0
 40
-0.6
 41
-30.0
 62
     5
 63
     7
 74
     0
 91
        4
 64
     7
 65
   257
 75
     1
175
     1
 42
1.0
 92
        8
 66
     7
 43
1.0
 76
     1
 77
     6
 78
     2
 67
     7
 79
     5
170
     0
171
     0
290
     0
174
     0
 93
        1
 44
0.0
173
     0
291
     1
 45
0.0
1001
ACAD
1000
AcDbSavedByObjectVersion
1070
     0
  0
VISUALSTYLE
  5
FB
102
{ACAD_REACTORS
330
EF
102
}
330
EF
100
AcDbVisualStyle
  2
Brighten
 70
    12
 71
     2
 72
     2
 73
     1
 90
        0
 40
-0.6
 41
-30.0
 62
     5
 63
     7
 74
     1
 91
        4
 64
     7
 65
   257
 75
     1
175
     1
 42
1.0
 92
        8
 66
     7
 43
1.0
 76
     1
 77
     6
 78
     2
 67
     7
 79
     5
170
     0
171
     0
290
     0
174
     0
 93
        1
 44
50.0
173
     0
291
     1
 45
0.0
1001
ACAD
1000
AcDbSavedByObjectVersion
1070
     0
  0
VISUALSTYLE
  5
FF
102
{ACAD_REACTORS
330
EF
102
}
330
EF
100
AcDbVisualStyle
  2
ColorChange
 70
    16
 71
     2
 72
     2
 73
     3
 90
        0
 40
-0.6
 41
-30.0
 62
     5
 63
     8
 74
     1
 91
        4
 64
     7
 65
   257
 75
     1
175
     1
 42
1.0
 92
        8
 66
     8
 43
1.0
 76
     1
 77
     6
 78
     2
 67
     7
 79
     5
170
     0
171
     0
290
     0
174
     0
 93
        1
 44
0.0
173
     0
291
     1
 45
0.0
1001
ACAD
1000
AcDbSavedByObjectVersion
1070
     0
  0
VISUALSTYLE
  5
F8
102
{ACAD_REACTORS
330
EF
102
}
330
EF
100
AcDbVisualStyle
  2
Conceptual
 70
     9
 71
     3
 72
     2
 73
     1
 90
        0
 40
-0.6
 41
-30.0
 62
     5
 63
     7
 74
     2
 91
        2
 64
     7
 65
   257
 75
     1
175
     1
 42
40.0
 92
        8
 66
     7
 43
1.0
 76
     1
 77
     6
 78
     2
 67
     7
 79
     3
170
     0
171
     0
290
     0
174
     0
 93
        1
 44
0.0
173
     0
291
     0
 45
0.0
1001
ACAD
1000
AcDbSavedByObjectVersion
1070
     0
  0
VISUALSTYLE
  5
FA
102
{ACAD_REACTORS
330
EF
102
}
330
EF
100
AcDbVisualStyle
  2
Dim
 70
    11
 71
     2
 72
     2
 73
     1
 90
        0
 40
-0.6
 41
-30.0
 62
     5
 63
     7
 74
     1
 91
        4
 64
     7
 65
   257
 75
     1
175
     1
 42
1.0
 92
        8
 66
     7
 43
1.0
 76
     1
 77
     6
 78
     2
 67
     7
 79
     5
170
     0
171
     0
290
     0
174
     0
 93
        1
 44
-50.0
173
     0
291
     1
 45
0.0
1001
ACAD
1000
AcDbSavedByObjectVersion
1070
     0
  0
VISUALSTYLE
  5
FE
102
{ACAD_REACTORS
330
EF
102
}
330
EF
100
AcDbVisualStyle
  2
Facepattern
 70
    15
 71
     2
 72
     2
 73
     1
 90
        0
 40
-0.6
 41
-30.0
 62
     5
 63
     7
 74
     1
 91
        4
 64
     7
 65
   257
 75
     1
175
     1
 42
1.0
 92
        8
 66
     7
 43
1.0
 76
     1
 77
     6
 78
     2
 67
     7
 79
     5
170
     0
171
     0
290
     0
174
     0
 93
        1
 44
0.0
173
     0
291
     1
 45
0.0
1001
ACAD
1000
AcDbSavedByObjectVersion
1070
     0
  0
VISUALSTYLE
  5
F0
102
{ACAD_REACTORS
330
EF
102
}
330
EF
100
AcDbVisualStyle
  2
Flat
 70
     0
 71
     2
 72
     1
 73
     1
 90
        2
 40
-0.6
 41
30.0
 62
     5
 63
     7
 74
     0
 91
        4
 64
     7
 65
   257
 75
     1
175
     1
 42
1.0
 92
        8
 66
     7
 43
1.0
 76
     1
 77
     6
 78
     2
 67
     7
 79
     5
170
     0
171
     0
290
     0
174
     0
 93
        1
 44
0.0
173
     0
291
     1
 45
0.0
1001
ACAD
1000
AcDbSavedByObjectVersion
1070
     0
  0
VISUALSTYLE
  5
F1
102
{ACAD_REACTORS
330
EF
102
}
330
EF
100
AcDbVisualStyle
  2
FlatWithEdges
 70
     1
 71
     2
 72
     1
 73
     1
 90
        2
 40
-0.6
 41
30.0
 62
     5
 63
     7
 74
     1
 91
        4
 64
     7
 65
   257
 75
     1
175
     1
 42
1.0
 92
        0
 66
   257
 43
1.0
 76
     1
 77
     6
 78
     2
 67
     7
 79
     5
170
     0
171
     0
290
     0
174
     0
 93
        1
 44
0.0
173
     0
291
     1
 45
0.0
1001
ACAD
1000
AcDbSavedByObjectVersion
1070
     0
  0
VISUALSTYLE
  5
F2
102
{ACAD_REACTORS
330
EF
102
}
330
EF
100
AcDbVisualStyle
  2
Gouraud
 70
     2
 71
     2
 72
     2
 73
     1
 90
        2
 40
-0.6
 41
30.0
 62
     5
 63
     7
 74
     0
 91
        4
 64
     7
 65
   257
 75
     1
175
     1
 42
1.0
 92
        0
 66
     7
 43
1.0
 76
     1
 77
     6
 78
     2
 67
     7
 79
     5
170
     0
171
     0
290
     0
174
     0
 93
        1
 44
0.0
173
     0
291
     1
 45
0.0
1001
ACAD
1000
AcDbSavedByObjectVersion
1070
     0
  0
VISUALSTYLE
  5
F3
102
{ACAD_REACTORS
330
EF
102
}
330
EF
100
AcDbVisualStyle
  2
GouraudWithEdges
 70
     3
 71
     2
 72
     2
 73
     1
 90
        2
 40
-0.6
 41
30.0
 62
     5
 63
     7
 74
     1
 91
        4
 64
     7
 65
   257
 75
     1
175
     1
 42
1.0
 92
        0
 66
   257
 43
1.0
 76
     1
 77
     6
 78
     2
 67
     7
 79
     5
170
     0
171
     0
290
     0
174
     0
 93
        1
 44
0.0
173
     0
291
     1
 45
0.0
1001
ACAD
1000
AcDbSavedByObjectVersion
1070
     0
  0
VISUALSTYLE
  5
FD
102
{ACAD_REACTORS
330
EF
102
}
330
EF
100
AcDbVisualStyle
  2
Linepattern
 70
    14
 71
     2
 72
     2
 73
     1
 90
        0
 40
-0.6
 41
-30.0
 62
     5
 63
     7
 74
     1
 91
        4
 64
     7
 65
   257
 75
     7
175
     7
 42
1.0
 92
        8
 66
     7
 43
1.0
 76
     1
 77
     6
 78
     2
 67
     7
 79
     5
170
     0
171
     0
290
     0
174
     0
 93
        1
 44
0.0
173
     0
291
     1
 45
0.0
1001
ACAD
1000
AcDbSavedByObjectVersion
1070
     0
  0
VISUALSTYLE
  5
F9
102
{ACAD_REACTORS
330
EF
102
}
330
EF
100
AcDbVisualStyle
  2
Realistic
 70
     8
 71
     2
 72
     2
 73
     1
 90
        0
 40
-0.6
 41
-30.0
 62
     5
 63
     7
 74
     1
 91
        0
 64
     7
 65
   257
 75
     1
175
     1
 42
1.0
 92
        8
 66
     8
 43
1.0
 76
     1
 77
     6
 78
     2
 67
     7
 79
     5
170
     0
171
     0
290
     0
174
     0
 93
       13
 44
0.0
173
     0
291
     0
 45
0.0
1001
ACAD
1000
AcDbSavedByObjectVersion
1070
     0
  0
VISUALSTYLE
  5
FC
102
{ACAD_REACTORS
330
EF
102
}
330
EF
100
AcDbVisualStyle
  2
Thicken
 70
    13
 71
     2
 72
     2
 73
     1
 90
        0
 40
-0.6
 41
-30.0
 62
     5
 63
     7
 74
     1
 91
        4
 64
     7
 65
   257
 75
     1
175
     1
 42
1.0
 92
       12
 66
     7
 43
1.0
 76
     1
 77
     6
 78
     2
 67
     7
 79
     5
170
     0
171
     0
290
     0
174
     0
 93
        1
 44
0.0
173
     0
291
     1
 45
0.0
1001
ACAD
1000
AcDbSavedByObjectVersion
1070
     0
  0
DICTIONARYVAR
  5
146
102
{ACAD_REACTORS
330
5E
102
}
330
5E
100
DictionaryVariables
280
     0
  1
1:1
  0
DICTIONARYVAR
  5
145
102
{ACAD_REACTORS
330
5E
102
}
330
5E
100
DictionaryVariables
280
     0
  1
STANDARD
  0
DICTIONARYVAR
  5
84
102
{ACAD_REACTORS
330
5E
102
}
330
5E
100
DictionaryVariables
280
     0
  1
STANDARD
  0
DICTIONARYVAR
  5
5F
102
{ACAD_REACTORS
330
5E
102
}
330
5E
100
DictionaryVariables
280
     0
  1
2
  0
DICTIONARYVAR
  5
63
102
{ACAD_REACTORS
330
5E
102
}
330
5E
100
DictionaryVariables
280
     0
  1
1
  0
DICTIONARYVAR
  5
994
102
{ACAD_REACTORS
330
5E
102
}
330
5E
100
DictionaryVariables
280
     0
  1
0
  0
DICTIONARYVAR
  5
992
102
{ACAD_REACTORS
330
5E
102
}
330
5E
100
DictionaryVariables
280
     0
  1
2
  0
DICTIONARYVAR
  5
991
102
{ACAD_REACTORS
330
5E
102
}
330
5E
100
DictionaryVariables
280
     0
  1
1
  0
DICTIONARYVAR
  5
996
102
{ACAD_REACTORS
330
5E
102
}
330
5E
100
DictionaryVariables
280
     0
  1
80.000000
  0
DICTIONARYVAR
  5
995
102
{ACAD_REACTORS
330
5E
102
}
330
5E
100
DictionaryVariables
280
     0
  1
5.000000
  0
DICTIONARYVAR
  5
993
102
{ACAD_REACTORS
330
5E
102
}
330
5E
100
DictionaryVariables
280
     0
  1
127
  0
DICTIONARY
  5
99C
330
D3
100
AcDbDictionary
280
     1
281
     1
  3
ACAD_XREC_ROUNDTRIP
360
99D
  0
DICTIONARY
  5
99E
330
D7
100
AcDbDictionary
280
     1
281
     1
  3
ACAD_XREC_ROUNDTRIP
360
99F
  0
DICTIONARY
  5
999
330
22
100
AcDbDictionary
280
     1
281
     1
  3
ACAD_XREC_ROUNDTRIP
360
99A
  0
DICTIONARY
  5
9A2
330
ED
100
AcDbDictionary
280
     1
281
     1
  3
ACAD_XREC_ROUNDTRIP
360
9A3
  0
DICTIONARY
  5
9A0
330
EC
100
AcDbDictionary
280
     1
281
     1
  3
ACAD_XREC_ROUNDTRIP
360
9A1
  0
DICTIONARY
  5
173
330
EE
100
AcDbDictionary
280
     1
281
     1
  3
ACAD_XREC_ROUNDTRIP
360
9A4
  3
BUMPTILE
360
175
  3
DIFFUSETILE
360
174
  3
OPACITYTILE
360
176
  3
REFLECTIONTILE
360
177
  0
DICTIONARY
  5
162
330
7F
100
AcDbDictionary
280
     1
281
     1
  3
ACAD_ROUNDTRIP_2008_TABLESTYLE_CELLSTYLEMAP
360
997
  3
ACAD_XREC_ROUNDTRIP
360
99B
  0
XRECORD
  5
99D
102
{ACAD_REACTORS
330
99C
102
}
330
99C
100
AcDbXrecord
280
     1
102
SHADEPLOT
 70
     0
102
SHADEPLOTRESLEVEL
 70
     2
102
SHADEPLOTCUSTOMDPI
 70
   300
  0
XRECORD
  5
99F
102
{ACAD_REACTORS
330
99E
102
}
330
99E
100
AcDbXrecord
280
     1
102
SHADEPLOT
 70
     0
102
SHADEPLOTRESLEVEL
 70
     2
102
SHADEPLOTCUSTOMDPI
 70
   300
  0
XRECORD
  5
99A
102
{ACAD_REACTORS
330
999
102
}
330
999
100
AcDbXrecord
280
     1
102
SHADEPLOT
 70
     0
102
SHADEPLOTRESLEVEL
 70
     2
102
SHADEPLOTCUSTOMDPI
 70
   300
  0
XRECORD
  5
9A3
102
{ACAD_REACTORS
330
9A2
102
}
330
9A2
100
AcDbXrecord
280
     1
102
MATERIAL
148
0.0
149
0.0
149
0.0
 93
        0
 94
       63
282
     0
 72
     1
 77
     1
171
     1
175
     1
179
     1
273
     0
  0
XRECORD
  5
9A1
102
{ACAD_REACTORS
330
9A0
102
}
330
9A0
100
AcDbXrecord
280
     1
102
MATERIAL
148
0.0
149
0.0
149
0.0
 93
        0
 94
       63
282
     0
 72
     1
 77
     1
171
     1
175
     1
179
     1
273
     0
  0
XRECORD
  5
9A4
102
{ACAD_REACTORS
330
173
102
}
330
173
100
AcDbXrecord
280
     1
102
MATERIAL
148
0.0
149
0.0
149
0.0
 93
        0
 94
       63
282
     0
 72
     1
 77
     1
171
     1
175
     1
179
     1
273
     0
  0
XRECORD
  5
175
102
{ACAD_REACTORS
330
173
102
}
330
173
100
AcDbXrecord
280
     1
270
     1
271
     1
  0
XRECORD
  5
174
102
{ACAD_REACTORS
330
173
102
}
330
173
100
AcDbXrecord
280
     1
270
     1
271
     1
  0
XRECORD
  5
176
102
{ACAD_REACTORS
330
173
102
}
330
173
100
AcDbXrecord
280
     1
270
     1
271
     1
  0
XRECORD
  5
177
102
{ACAD_REACTORS
330
173
102
}
330
173
100
AcDbXrecord
280
     1
270
     1
271
     1
  0
CELLSTYLEMAP
  5
997
102
{ACAD_REACTORS
330
162
102
}
330
162
100
AcDbCellStyleMap
 90
        3
300
CELLSTYLE
  1
TABLEFORMAT_BEGIN
 90
        5
170
     1
 91
        0
 92
    32768
 62
   257
 93
        1
300
CONTENTFORMAT
  1
CONTENTFORMAT_BEGIN
 90
        0
 91
        0
 92
      512
 93
        0
300

 40
0.0
140
1.0
 94
        5
 62
     0
340
11
144
6.0
309
CONTENTFORMAT_END
171
     1
301
MARGIN
  1
CELLMARGIN_BEGIN
 40
1.5
 40
1.5
 40
1.5
 40
1.5
 40
4.5
 40
4.5
309
CELLMARGIN_END
 94
        6
 95
        1
302
GRIDFORMAT
  1
GRIDFORMAT_BEGIN
 90
        0
 91
        1
 62
     0
 92
       -2
340
14
 93
        0
 40
1.125
309
GRIDFORMAT_END
 95
        2
302
GRIDFORMAT
  1
GRIDFORMAT_BEGIN
 90
        0
 91
        1
 62
     0
 92
       -2
340
14
 93
        0
 40
1.125
309
GRIDFORMAT_END
 95
        4
302
GRIDFORMAT
  1
GRIDFORMAT_BEGIN
 90
        0
 91
        1
 62
     0
 92
       -2
340
14
 93
        0
 40
1.125
309
GRIDFORMAT_END
 95
        8
302
GRIDFORMAT
  1
GRIDFORMAT_BEGIN
 90
        0
 91
        1
 62
     0
 92
       -2
340
14
 93
        0
 40
1.125
309
GRIDFORMAT_END
 95
       16
302
GRIDFORMAT
  1
GRIDFORMAT_BEGIN
 90
        0
 91
        1
 62
     0
 92
       -2
340
14
 93
        0
 40
1.125
309
GRIDFORMAT_END
 95
       32
302
GRIDFORMAT
  1
GRIDFORMAT_BEGIN
 90
        0
 91
        1
 62
     0
 92
       -2
340
14
 93
        0
 40
1.125
309
GRIDFORMAT_END
309
TABLEFORMAT_END
  1
CELLSTYLE_BEGIN
 90
        1
 91
        1
300
_TITLE
309
CELLSTYLE_END
300
CELLSTYLE
  1
TABLEFORMAT_BEGIN
 90
        5
170
     1
 91
        0
 92
        0
 62
   257
 93
        1
300
CONTENTFORMAT
  1
CONTENTFORMAT_BEGIN
 90
        0
 91
        0
 92
      512
 93
        0
300

 40
0.0
140
1.0
 94
        5
 62
     0
340
11
144
4.5
309
CONTENTFORMAT_END
171
     1
301
MARGIN
  1
CELLMARGIN_BEGIN
 40
1.5
 40
1.5
 40
1.5
 40
1.5
 40
4.5
 40
4.5
309
CELLMARGIN_END
 94
        6
 95
        1
302
GRIDFORMAT
  1
GRIDFORMAT_BEGIN
 90
        0
 91
        1
 62
     0
 92
       -2
340
14
 93
        0
 40
1.125
309
GRIDFORMAT_END
 95
        2
302
GRIDFORMAT
  1
GRIDFORMAT_BEGIN
 90
        0
 91
        1
 62
     0
 92
       -2
340
14
 93
        0
 40
1.125
309
GRIDFORMAT_END
 95
        4
302
GRIDFORMAT
  1
GRIDFORMAT_BEGIN
 90
        0
 91
        1
 62
     0
 92
       -2
340
14
 93
        0
 40
1.125
309
GRIDFORMAT_END
 95
        8
302
GRIDFORMAT
  1
GRIDFORMAT_BEGIN
 90
        0
 91
        1
 62
     0
 92
       -2
340
14
 93
        0
 40
1.125
309
GRIDFORMAT_END
 95
       16
302
GRIDFORMAT
  1
GRIDFORMAT_BEGIN
 90
        0
 91
        1
 62
     0
 92
       -2
340
14
 93
        0
 40
1.125
309
GRIDFORMAT_END
 95
       32
302
GRIDFORMAT
  1
GRIDFORMAT_BEGIN
 90
        0
 91
        1
 62
     0
 92
       -2
340
14
 93
        0
 40
1.125
309
GRIDFORMAT_END
309
TABLEFORMAT_END
  1
CELLSTYLE_BEGIN
 90
        2
 91
        1
300
_HEADER
309
CELLSTYLE_END
300
CELLSTYLE
  1
TABLEFORMAT_BEGIN
 90
        5
170
     1
 91
        0
 92
        0
 62
   257
 93
        1
300
CONTENTFORMAT
  1
CONTENTFORMAT_BEGIN
 90
        0
 91
        0
 92
      512
 93
        0
300

 40
0.0
140
1.0
 94
        2
 62
     0
340
11
144
4.5
309
CONTENTFORMAT_END
171
     1
301
MARGIN
  1
CELLMARGIN_BEGIN
 40
1.5
 40
1.5
 40
1.5
 40
1.5
 40
4.5
 40
4.5
309
CELLMARGIN_END
 94
        6
 95
        1
302
GRIDFORMAT
  1
GRIDFORMAT_BEGIN
 90
        0
 91
        1
 62
     0
 92
       -2
340
14
 93
        0
 40
1.125
309
GRIDFORMAT_END
 95
        2
302
GRIDFORMAT
  1
GRIDFORMAT_BEGIN
 90
        0
 91
        1
 62
     0
 92
       -2
340
14
 93
        0
 40
1.125
309
GRIDFORMAT_END
 95
        4
302
GRIDFORMAT
  1
GRIDFORMAT_BEGIN
 90
        0
 91
        1
 62
     0
 92
       -2
340
14
 93
        0
 40
1.125
309
GRIDFORMAT_END
 95
        8
302
GRIDFORMAT
  1
GRIDFORMAT_BEGIN
 90
        0
 91
        1
 62
     0
 92
       -2
340
14
 93
        0
 40
1.125
309
GRIDFORMAT_END
 95
       16
302
GRIDFORMAT
  1
GRIDFORMAT_BEGIN
 90
        0
 91
        1
 62
     0
 92
       -2
340
14
 93
        0
 40
1.125
309
GRIDFORMAT_END
 95
       32
302
GRIDFORMAT
  1
GRIDFORMAT_BEGIN
 90
        0
 91
        1
 62
     0
 92
       -2
340
14
 93
        0
 40
1.125
309
GRIDFORMAT_END
309
TABLEFORMAT_END
  1
CELLSTYLE_BEGIN
 90
        3
 91
        2
300
_DATA
309
CELLSTYLE_END
  0
XRECORD
  5
99B
102
{ACAD_REACTORS
330
162
102
}
330
162
100
AcDbXrecord
280
     1
102
ACAD_ROUNDTRIP_PRE2007_TABLESTYLE
 90
      512
 91
        0
  1

 92
      512
 93
        0
  2

 94
      512
 95
        0
  3

  0
ENDSEC
  0
EOF
