  0
SECTION
  2
HEADER
  9
$ACADVER
  1
AC1015
  9
$ACADMAINTVER
 70
    20
  9
$DWGCODEPAGE
  3
ANSI_1254
  9
$INSBASE
 10
0.0
 20
0.0
 30
0.0
  9
$EXTMIN
 10
2068.051295811999
 20
977.4209682961197
 30
0.0
  9
$EXTMAX
 10
2193.023430317369
 20
1026.099211876777
 30
0.0
  9
$LIMMIN
 10
0.0
 20
0.0
  9
$LIMMAX
 10
420.0
 20
297.0
  9
$ORTHOMODE
 70
     0
  9
$REGENMODE
 70
     1
  9
$FILLMODE
 70
     1
  9
$QTEXTMODE
 70
     0
  9
$MIRRTEXT
 70
     0
  9
$LTSCALE
 40
1.0
  9
$ATTMODE
 70
     1
  9
$TEXTSIZE
 40
2.5
  9
$TRACEWID
 40
1.0
  9
$TEXTSTYLE
  7
Standard
  9
$CLAYER
  8
0
  9
$CELTYPE
  6
ByLayer
  9
$CECOLOR
 62
   256
  9
$CELTSCALE
 40
1.0
  9
$DISPSILH
 70
     0
  9
$DIMSCALE
 40
1.0
  9
$DIMASZ
 40
2.5
  9
$DIMEXO
 40
0.625
  9
$DIMDLI
 40
3.75
  9
$DIMRND
 40
0.0
  9
$DIMDLE
 40
0.0
  9
$DIMEXE
 40
1.25
  9
$DIMTP
 40
0.0
  9
$DIMTM
 40
0.0
  9
$DIMTXT
 40
2.5
  9
$DIMCEN
 40
2.5
  9
$DIMTSZ
 40
0.0
  9
$DIMTOL
 70
     0
  9
$DIMLIM
 70
     0
  9
$DIMTIH
 70
     0
  9
$DIMTOH
 70
     0
  9
$DIMSE1
 70
     0
  9
$DIMSE2
 70
     0
  9
$DIMTAD
 70
     1
  9
$DIMZIN
 70
     8
  9
$DIMBLK
  1

  9
$DIMASO
 70
     1
  9
$DIMSHO
 70
     1
  9
$DIMPOST
  1

  9
$DIMAPOST
  1

  9
$DIMALT
 70
     0
  9
$DIMALTD
 70
     3
  9
$DIMALTF
 40
0.03937007874016
  9
$DIMLFAC
 40
1.0
  9
$DIMTOFL
 70
     1
  9
$DIMTVP
 40
0.0
  9
$DIMTIX
 70
     0
  9
$DIMSOXD
 70
     0
  9
$DIMSAH
 70
     0
  9
$DIMBLK1
  1

  9
$DIMBLK2
  1

  9
$DIMSTYLE
  2
ISO-25
  9
$DIMCLRD
 70
     0
  9
$DIMCLRE
 70
     0
  9
$DIMCLRT
 70
     0
  9
$DIMTFAC
 40
1.0
  9
$DIMGAP
 40
0.625
  9
$DIMJUST
 70
     0
  9
$DIMSD1
 70
     0
  9
$DIMSD2
 70
     0
  9
$DIMTOLJ
 70
     0
  9
$DIMTZIN
 70
     8
  9
$DIMALTZ
 70
     0
  9
$DIMALTTZ
 70
     0
  9
$DIMUPT
 70
     0
  9
$DIMDEC
 70
     2
  9
$DIMTDEC
 70
     2
  9
$DIMALTU
 70
     2
  9
$DIMALTTD
 70
     3
  9
$DIMTXSTY
  7
Standard
  9
$DIMAUNIT
 70
     0
  9
$DIMADEC
 70
     0
  9
$DIMALTRND
 40
0.0
  9
$DIMAZIN
 70
     0
  9
$DIMDSEP
 70
    44
  9
$DIMATFIT
 70
     3
  9
$DIMFRAC
 70
     0
  9
$DIMLDRBLK
  1

  9
$DIMLUNIT
 70
     2
  9
$DIMLWD
 70
    -2
  9
$DIMLWE
 70
    -2
  9
$DIMTMOVE
 70
     0
  9
$LUNITS
 70
     2
  9
$LUPREC
 70
     4
  9
$SKETCHINC
 40
1.0
  9
$FILLETRAD
 40
0.0
  9
$AUNITS
 70
     0
  9
$AUPREC
 70
     0
  9
$MENU
  1
.
  9
$ELEVATION
 40
0.0
  9
$PELEVATION
 40
0.0
  9
$THICKNESS
 40
0.0
  9
$LIMCHECK
 70
     0
  9
$CHAMFERA
 40
0.0
  9
$CHAMFERB
 40
0.0
  9
$CHAMFERC
 40
0.0
  9
$CHAMFERD
 40
0.0
  9
$SKPOLY
 70
     0
  9
$TDCREATE
 40
2458445.575988068
  9
$TDUCREATE
 40
2458445.450988067
  9
$TDUPDATE
 40
2458956.433683831
  9
$TDUUPDATE
 40
2458956.308683831
  9
$TDINDWG
 40
0.0006186806
  9
$TDUSRTIMER
 40
0.0006186806
  9
$USRTIMER
 70
     1
  9
$ANGBASE
 50
0.0
  9
$ANGDIR
 70
     0
  9
$PDMODE
 70
     0
  9
$PDSIZE
 40
0.0
  9
$PLINEWID
 40
0.0
  9
$SPLFRAME
 70
     0
  9
$SPLINETYPE
 70
     6
  9
$SPLINESEGS
 70
     8
  9
$HANDSEED
  5
6B1
  9
$SURFTAB1
 70
     6
  9
$SURFTAB2
 70
     6
  9
$SURFTYPE
 70
     6
  9
$SURFU
 70
     6
  9
$SURFV
 70
     6
  9
$UCSBASE
  2

  9
$UCSNAME
  2

  9
$UCSORG
 10
0.0
 20
0.0
 30
0.0
  9
$UCSXDIR
 10
1.0
 20
0.0
 30
0.0
  9
$UCSYDIR
 10
0.0
 20
1.0
 30
0.0
  9
$UCSORTHOREF
  2

  9
$UCSORTHOVIEW
 70
     0
  9
$UCSORGTOP
 10
0.0
 20
0.0
 30
0.0
  9
$UCSORGBOTTOM
 10
0.0
 20
0.0
 30
0.0
  9
$UCSORGLEFT
 10
0.0
 20
0.0
 30
0.0
  9
$UCSORGRIGHT
 10
0.0
 20
0.0
 30
0.0
  9
$UCSORGFRONT
 10
0.0
 20
0.0
 30
0.0
  9
$UCSORGBACK
 10
0.0
 20
0.0
 30
0.0
  9
$PUCSBASE
  2

  9
$PUCSNAME
  2

  9
$PUCSORG
 10
0.0
 20
0.0
 30
0.0
  9
$PUCSXDIR
 10
1.0
 20
0.0
 30
0.0
  9
$PUCSYDIR
 10
0.0
 20
1.0
 30
0.0
  9
$PUCSORTHOREF
  2

  9
$PUCSORTHOVIEW
 70
     0
  9
$PUCSORGTOP
 10
0.0
 20
0.0
 30
0.0
  9
$PUCSORGBOTTOM
 10
0.0
 20
0.0
 30
0.0
  9
$PUCSORGLEFT
 10
0.0
 20
0.0
 30
0.0
  9
$PUCSORGRIGHT
 10
0.0
 20
0.0
 30
0.0
  9
$PUCSORGFRONT
 10
0.0
 20
0.0
 30
0.0
  9
$PUCSORGBACK
 10
0.0
 20
0.0
 30
0.0
  9
$USERI1
 70
     0
  9
$USERI2
 70
     0
  9
$USERI3
 70
     0
  9
$USERI4
 70
     0
  9
$USERI5
 70
     0
  9
$USERR1
 40
0.0
  9
$USERR2
 40
0.0
  9
$USERR3
 40
0.0
  9
$USERR4
 40
0.0
  9
$USERR5
 40
0.0
  9
$WORLDVIEW
 70
     1
  9
$SHADEDGE
 70
     3
  9
$SHADEDIF
 70
    70
  9
$TILEMODE
 70
     1
  9
$MAXACTVP
 70
    64
  9
$PINSBASE
 10
0.0
 20
0.0
 30
0.0
  9
$PLIMCHECK
 70
     0
  9
$PEXTMIN
 10
0.0
 20
0.0
 30
0.0
  9
$PEXTMAX
 10
0.0
 20
0.0
 30
0.0
  9
$PLIMMIN
 10
0.0
 20
0.0
  9
$PLIMMAX
 10
12.0
 20
9.0
  9
$UNITMODE
 70
     0
  9
$VISRETAIN
 70
     1
  9
$PLINEGEN
 70
     0
  9
$PSLTSCALE
 70
     1
  9
$TREEDEPTH
 70
  3020
  9
$CMLSTYLE
  2
Standard
  9
$CMLJUST
 70
     0
  9
$CMLSCALE
 40
20.0
  9
$PROXYGRAPHICS
 70
     1
  9
$MEASUREMENT
 70
     1
  9
$CELWEIGHT
370
    -1
  9
$ENDCAPS
280
     0
  9
$JOINSTYLE
280
     0
  9
$LWDISPLAY
290
     0
  9
$INSUNITS
 70
     4
  9
$HYPERLINKBASE
  1

  9
$STYLESHEET
  1

  9
$XEDIT
290
     1
  9
$CEPSNTYPE
380
     0
  9
$PSTYLEMODE
290
     1
  9
$FINGERPRINTGUID
  2
{5B49AFAD-FDE2-45DB-AC1C-4DBA85375FE3}
  9
$VERSIONGUID
  2
{9DB791DB-EF8F-4B1F-9F9B-ECFA7809D7F7}
  9
$EXTNAMES
290
     1
  9
$PSVPSCALE
 40
0.0
  9
$OLESTARTUP
290
     0
  0
ENDSEC
  0
SECTION
  2
CLASSES
  0
CLASS
  1
ACDBDICTIONARYWDFLT
  2
AcDbDictionaryWithDefault
  3
ObjectDBX Classes
 90
        0
280
     0
281
     0
  0
CLASS
  1
ACDBPLACEHOLDER
  2
AcDbPlaceHolder
  3
ObjectDBX Classes
 90
        0
280
     0
281
     0
  0
CLASS
  1
LAYOUT
  2
AcDbLayout
  3
ObjectDBX Classes
 90
        0
280
     0
281
     0
  0
CLASS
  1
DICTIONARYVAR
  2
AcDbDictionaryVar
  3
ObjectDBX Classes
 90
        0
280
     0
281
     0
  0
CLASS
  1
TABLESTYLE
  2
AcDbTableStyle
  3
ObjectDBX Classes
 90
     4095
280
     0
281
     0
  0
CLASS
  1
MATERIAL
  2
AcDbMaterial
  3
ObjectDBX Classes
 90
     1153
280
     0
281
     0
  0
CLASS
  1
VISUALSTYLE
  2
AcDbVisualStyle
  3
ObjectDBX Classes
 90
     4095
280
     0
281
     0
  0
CLASS
  1
SCALE
  2
AcDbScale
  3
ObjectDBX Classes
 90
     1153
280
     0
281
     0
  0
CLASS
  1
MLEADERSTYLE
  2
AcDbMLeaderStyle
  3
ACDB_MLEADERSTYLE_CLASS
 90
     4095
280
     0
281
     0
  0
CLASS
  1
CELLSTYLEMAP
  2
AcDbCellStyleMap
  3
ObjectDBX Classes
 90
     1152
280
     0
281
     0
  0
ENDSEC
  0
SECTION
  2
TABLES
  0
TABLE
  2
VPORT
  5
8
330
0
100
AcDbSymbolTable
 70
     1
  0
VPORT
  5
EA
330
8
100
AcDbSymbolTableRecord
100
AcDbViewportTableRecord
  2
*Active
 70
     0
 10
0.0
 20
0.0
 11
1.0
 21
1.0
 12
2141.466347179339
 22
1015.09383704153
 13
0.0
 23
0.0
 14
10.0
 24
10.0
 15
10.0
 25
10.0
 16
0.0
 26
0.0
 36
1.0
 17
0.0
 27
0.0
 37
0.0
 40
166.3009830539106
 41
1.903110047846889
 42
50.0
 43
0.0
 44
0.0
 50
0.0
 51
0.0
 71
     0
 72
  1000
 73
     1
 74
     3
 75
     0
 76
     0
 77
     0
 78
     0
281
     0
 65
     1
110
0.0
120
0.0
130
0.0
111
1.0
121
0.0
131
0.0
112
0.0
122
1.0
132
0.0
 79
     0
146
0.0
  0
ENDTAB
  0
TABLE
  2
LTYPE
  5
5
330
0
100
AcDbSymbolTable
 70
     1
  0
LTYPE
  5
14
330
5
100
AcDbSymbolTableRecord
100
AcDbLinetypeTableRecord
  2
ByBlock
 70
     0
  3

 72
    65
 73
     0
 40
0.0
  0
LTYPE
  5
15
330
5
100
AcDbSymbolTableRecord
100
AcDbLinetypeTableRecord
  2
ByLayer
 70
     0
  3

 72
    65
 73
     0
 40
0.0
  0
LTYPE
  5
16
330
5
100
AcDbSymbolTableRecord
100
AcDbLinetypeTableRecord
  2
Continuous
 70
     0
  3
Solid line
 72
    65
 73
     0
 40
0.0
  0
ENDTAB
  0
TABLE
  2
LAYER
  5
2
330
0
100
AcDbSymbolTable
 70
     1
  0
LAYER
  5
10
102
{ACAD_XDICTIONARY
360
13C
102
}
330
2
100
AcDbSymbolTableRecord
100
AcDbLayerTableRecord
  2
0
 70
     0
 62
     7
  6
Continuous
370
    -3
390
F
  0
ENDTAB
  0
TABLE
  2
STYLE
  5
3
330
0
100
AcDbSymbolTable
 70
     2
  0
STYLE
  5
11
330
3
100
AcDbSymbolTableRecord
100
AcDbTextStyleTableRecord
  2
Standard
 70
     0
 40
0.0
 41
1.0
 50
0.0
 71
     0
 42
2.5
  3
txt
  4

  0
STYLE
  5
132
330
3
100
AcDbSymbolTableRecord
100
AcDbTextStyleTableRecord
  2
Annotative
 70
     0
 40
0.0
 41
1.0
 50
0.0
 71
     0
 42
2.5
  3
txt.shx
  4

1001
AcadAnnotative
1000
AnnotativeData
1002
{
1070
     1
1070
     1
1002
}
  0
ENDTAB
  0
TABLE
  2
VIEW
  5
6
330
0
100
AcDbSymbolTable
 70
     0
  0
ENDTAB
  0
TABLE
  2
UCS
  5
7
330
0
100
AcDbSymbolTable
 70
     0
  0
ENDTAB
  0
TABLE
  2
APPID
  5
9
330
0
100
AcDbSymbolTable
 70
     7
  0
APPID
  5
12
330
9
100
AcDbSymbolTableRecord
100
AcDbRegAppTableRecord
  2
ACAD
 70
     0
  0
APPID
  5
9E
330
9
100
AcDbSymbolTableRecord
100
AcDbRegAppTableRecord
  2
ACAD_PSEXT
 70
     0
  0
APPID
  5
133
330
9
100
AcDbSymbolTableRecord
100
AcDbRegAppTableRecord
  2
AcadAnnoPO
 70
     0
  0
APPID
  5
134
330
9
100
AcDbSymbolTableRecord
100
AcDbRegAppTableRecord
  2
AcadAnnotative
 70
     0
  0
APPID
  5
135
330
9
100
AcDbSymbolTableRecord
100
AcDbRegAppTableRecord
  2
ACAD_DSTYLE_DIMJAG
 70
     0
  0
APPID
  5
136
330
9
100
AcDbSymbolTableRecord
100
AcDbRegAppTableRecord
  2
ACAD_DSTYLE_DIMTALN
 70
     0
  0
APPID
  5
165
330
9
100
AcDbSymbolTableRecord
100
AcDbRegAppTableRecord
  2
ACAD_MLEADERVER
 70
     0
  0
ENDTAB
  0
TABLE
  2
DIMSTYLE
  5
A
330
0
100
AcDbSymbolTable
 70
     2
100
AcDbDimStyleTable
 71
     2
340
27
340
137
  0
DIMSTYLE
105
27
330
A
100
AcDbSymbolTableRecord
100
AcDbDimStyleTableRecord
  2
ISO-25
 70
     0
 41
2.5
 42
0.625
 43
3.75
 44
1.25
 73
     0
 74
     0
 77
     1
 78
     8
140
2.5
141
2.5
143
0.03937007874016
147
0.625
171
     3
172
     1
271
     2
272
     2
274
     3
278
    44
283
     0
284
     8
340
11
  0
DIMSTYLE
105
137
330
A
100
AcDbSymbolTableRecord
100
AcDbDimStyleTableRecord
  2
Annotative
 70
     0
 40
0.0
 41
2.5
 42
0.625
 43
3.75
 44
1.25
 73
     0
 74
     0
 77
     1
 78
     8
140
2.5
141
2.5
143
0.03937007874016
147
0.625
171
     3
172
     1
271
     2
272
     2
274
     3
278
    44
283
     0
284
     8
340
11
1001
AcadAnnotative
1000
AnnotativeData
1002
{
1070
     1
1070
     1
1002
}
1001
ACAD_DSTYLE_DIMJAG
1070
   388
1040
1.5
1001
ACAD_DSTYLE_DIMTALN
1070
   392
1070
     0
  0
ENDTAB
  0
TABLE
  2
BLOCK_RECORD
  5
1
330
0
100
AcDbSymbolTable
 70
     5
  0
BLOCK_RECORD
  5
1F
330
1
100
AcDbSymbolTableRecord
100
AcDbBlockTableRecord
  2
*Model_Space
340
22
  0
BLOCK_RECORD
  5
D2
330
1
100
AcDbSymbolTableRecord
100
AcDbBlockTableRecord
  2
*Paper_Space
340
D3
  0
BLOCK_RECORD
  5
D6
330
1
100
AcDbSymbolTableRecord
100
AcDbBlockTableRecord
  2
*Paper_Space0
340
D7
  0
BLOCK_RECORD
  5
4E9
330
1
100
AcDbSymbolTableRecord
100
AcDbBlockTableRecord
  2
1
340
0
310
2800000020000000200000000100080000000000000400000000000000000000000000000000000000000000000080000080000000808000800000008000800080800000C0C0C000C0DCC000F0CAA6000020400000206000002080000020A0000020C0000020E00000400000004020000040400000406000004080000040A0
310
000040C0000040E00000600000006020000060400000606000006080000060A0000060C0000060E00000800000008020000080400000806000008080000080A0000080C0000080E00000A0000000A0200000A0400000A0600000A0800000A0A00000A0C00000A0E00000C0000000C0200000C0400000C0600000C0800000C0
310
A00000C0C00000C0E00000E0000000E0200000E0400000E0600000E0800000E0A00000E0C00000E0E00040000000400020004000400040006000400080004000A0004000C0004000E00040200000402020004020400040206000402080004020A0004020C0004020E000404000004040200040404000404060004040800040
310
40A0004040C0004040E00040600000406020004060400040606000406080004060A0004060C0004060E00040800000408020004080400040806000408080004080A0004080C0004080E00040A0000040A0200040A0400040A0600040A0800040A0A00040A0C00040A0E00040C0000040C0200040C0400040C0600040C08000
310
40C0A00040C0C00040C0E00040E0000040E0200040E0400040E0600040E0800040E0A00040E0C00040E0E00080000000800020008000400080006000800080008000A0008000C0008000E00080200000802020008020400080206000802080008020A0008020C0008020E00080400000804020008040400080406000804080
310
008040A0008040C0008040E00080600000806020008060400080606000806080008060A0008060C0008060E00080800000808020008080400080806000808080008080A0008080C0008080E00080A0000080A0200080A0400080A0600080A0800080A0A00080A0C00080A0E00080C0000080C0200080C0400080C0600080C0
310
800080C0A00080C0C00080C0E00080E0000080E0200080E0400080E0600080E0800080E0A00080E0C00080E0E000C0000000C0002000C0004000C0006000C0008000C000A000C000C000C000E000C0200000C0202000C0204000C0206000C0208000C020A000C020C000C020E000C0400000C0402000C0404000C0406000C0
310
408000C040A000C040C000C040E000C0600000C0602000C0604000C0606000C0608000C060A000C060C000C060E000C0800000C0802000C0804000C0806000C0808000C080A000C080C000C080E000C0A00000C0A02000C0A04000C0A06000C0A08000C0A0A000C0A0C000C0A0E000C0C00000C0C02000C0C04000C0C06000
310
C0C08000C0C0A000F0FBFF00A4A0A000808080000000FF0000FF000000FFFF00FF000000FF00FF00FFFF0000FFFFFF0000000000000000000000000000000000000000000000000000000000000000000000000000000000000000000000000000000000000000000000000000000000000000000000000000000000000000
310
00000000000000000000000000000000000000000000000000000000000000000000000000000000000000000000000000000000000000000000000000000000000000000000000000000000000000000000000000000000000000000000000000000000000000000000000000000000000000000000000000000000000000
310
00000000000000000000000000000000000000FFFFFFFFFFFFFFFFFFFFFFFFFFFFFFFFFFFFFFFFFFFFFFFFFFFFFFFFFFFF0000FFFFFFFFFFFFFFFFFFFFFFFFFFFFFFFFFFFFFFFFFFFFFFFFFFFFFFFFFFFF0000FFFF0000000000000000000000000000000000000000000000000000FFFF0000FFFF0000000000FF00000000
310
0000FFFF000000000000FF0000000000FFFF0000FFFF0000000000FF000000000000FFFF000000000000FF0000000000FFFF0000FFFFFFFFFFFF00FF00FFFFFFFF00FFFF00FFFFFFFF00FF00FFFFFFFFFFFF0000FFFFFF0000FF00FF00FF0000FF00FFFF00FF0000FF00FF00FF0000FFFFFF0000FFFFFF0000FFFFFFFFFF00
310
00FFFFFFFFFFFF0000FFFFFFFFFF0000FFFFFF0000FF00FF0000FF00FF00FF0000FF00FFFF00FF0000FF00FF00FF0000FF00FF0000FF00FF0000FF00FF00FF0000FF00FFFF00FF0000FF00FF00FF0000FF00FF0000FF00FF0000FF00FF00FF0000FF00FFFF00FF0000FF00FF00FF0000FF00FF0000FF00FF0000FF00FF00FF
310
0000FF00FFFF00FF0000FF00FF00FF0000FF00FF0000FF00FFFFFFFF00FF00FFFFFFFF00FFFF00FFFFFFFF00FF00FFFFFFFF00FF0000FF000000000000FF000000000000FFFF000000000000FF000000000000FF0000FFFFFFFFFFFFFFFFFFFFFFFFFFFFFFFFFFFFFFFFFFFFFFFFFFFFFFFFFFFF0000FF000000000000FF00
310
0000000000FFFF000000000000FF000000000000FF0000FFFFFFFFFFFFFFFFFFFFFFFFFFFFFFFFFFFFFFFFFFFFFFFFFFFFFFFFFFFF0000FFFFFF000000000000000000000000000000000000000000000000FFFFFF000000000000000000000000000000000000000000000000000000000000000000000000000000000000
310
00000000000000000000000000000000000000000000000000000000000000000000000000000000000000000000000000000000000000000000000000000000000000000000000000000000000000000000000000000000000000000000000000000000000000000000000000000000000000000000000000000000000000
310
0000000000000000000000000000000000000000000000000000000000000000000000000000000000000000000000000000000000000000
102
{BLKREFS
331
567
102
}
1001
ACAD
1000
DesignCenter Data
1002
{
1070
     1
1070
     4
1002
}
  0
BLOCK_RECORD
  5
568
330
1
100
AcDbSymbolTableRecord
100
AcDbBlockTableRecord
  2
2
340
0
310
2800000020000000200000000100080000000000000400000000000000000000000000000000000000000000000080000080000000808000800000008000800080800000C0C0C000C0DCC000F0CAA6000020400000206000002080000020A0000020C0000020E00000400000004020000040400000406000004080000040A0
310
000040C0000040E00000600000006020000060400000606000006080000060A0000060C0000060E00000800000008020000080400000806000008080000080A0000080C0000080E00000A0000000A0200000A0400000A0600000A0800000A0A00000A0C00000A0E00000C0000000C0200000C0400000C0600000C0800000C0
310
A00000C0C00000C0E00000E0000000E0200000E0400000E0600000E0800000E0A00000E0C00000E0E00040000000400020004000400040006000400080004000A0004000C0004000E00040200000402020004020400040206000402080004020A0004020C0004020E000404000004040200040404000404060004040800040
310
40A0004040C0004040E00040600000406020004060400040606000406080004060A0004060C0004060E00040800000408020004080400040806000408080004080A0004080C0004080E00040A0000040A0200040A0400040A0600040A0800040A0A00040A0C00040A0E00040C0000040C0200040C0400040C0600040C08000
310
40C0A00040C0C00040C0E00040E0000040E0200040E0400040E0600040E0800040E0A00040E0C00040E0E00080000000800020008000400080006000800080008000A0008000C0008000E00080200000802020008020400080206000802080008020A0008020C0008020E00080400000804020008040400080406000804080
310
008040A0008040C0008040E00080600000806020008060400080606000806080008060A0008060C0008060E00080800000808020008080400080806000808080008080A0008080C0008080E00080A0000080A0200080A0400080A0600080A0800080A0A00080A0C00080A0E00080C0000080C0200080C0400080C0600080C0
310
800080C0A00080C0C00080C0E00080E0000080E0200080E0400080E0600080E0800080E0A00080E0C00080E0E000C0000000C0002000C0004000C0006000C0008000C000A000C000C000C000E000C0200000C0202000C0204000C0206000C0208000C020A000C020C000C020E000C0400000C0402000C0404000C0406000C0
310
408000C040A000C040C000C040E000C0600000C0602000C0604000C0606000C0608000C060A000C060C000C060E000C0800000C0802000C0804000C0806000C0808000C080A000C080C000C080E000C0A00000C0A02000C0A04000C0A06000C0A08000C0A0A000C0A0C000C0A0E000C0C00000C0C02000C0C04000C0C06000
310
C0C08000C0C0A000F0FBFF00A4A0A000808080000000FF0000FF000000FFFF00FF000000FF00FF00FFFF0000FFFFFF00000000000000000000000000000000000000000000000000000000000000000000000000000000000000000000000000FFFFFF00000000000000000000000000000000000000000000000000000000
310
FF0000FF00000000000000000000000000000000000000000000000000000000FF0000FF00000000000000000000000000000000000000000000000000000000FF0000FF00000000000000000000000000000000000000000000000000000000FF0000FF000000000000000000000000000000000000000000000000000000
310
00FF0000FF0000000000000000000000000000000000000000000000000000FFFFFF0000FF0000000000000000000000000000000000000000000000000000FF00FF0000FF00000000000000000000000000000000000000000000000000FF0000FF0000FF00000000000000000000000000000000000000000000000000FF
310
0000FF0000FF000000000000000000000000000000000000000000000000FF000000FF0000FF000000000000000000000000000000000000000000000000FF000000FF0000FF000000000000000000000000000000000000000000000000FF000000FF0000FF000000000000000000000000000000000000000000000000FF
310
000000FF0000FF000000000000000000000000000000000000000000000000FF000000FF0000FF000000000000000000000000000000000000000000000000FF000000FF0000FF000000000000000000000000000000000000000000000000FF000000FF0000FF000000000000000000000000000000000000000000000000
310
FF000000FF0000FF000000000000000000000000000000000000000000000000FF000000FF0000FF000000000000000000000000000000000000000000000000FF000000FF0000FF000000000000000000000000000000000000000000000000FF000000FF0000FF0000000000000000000000000000000000000000000000
310
00FF000000FF0000FF000000000000000000000000000000000000000000000000FF000000FF0000FF000000000000000000000000000000000000000000000000FFFFFFFFFF0000FF000000000000000000000000000000000000000000000000FFFF0000000000FF00000000000000000000000000000000000000000000
310
0000FFFFFFFFFF0000FF000000000000000000000000000000000000000000000000FFFFFFFFFF0000FFFFFF0000000000000000000000000000000000000000000000000000FFFFFFFFFFFF0000000000000000000000000000000000000000000000000000FF00000000FF00000000000000000000000000000000000000
310
00000000000000FFFFFFFFFFFF00000000000000000000000000000000000000000000000000000000000000000000000000000000000000
102
{BLKREFS
331
58B
102
}
1001
ACAD
1000
DesignCenter Data
1002
{
1070
     1
1070
     4
1002
}
  0
BLOCK_RECORD
  5
58C
330
1
100
AcDbSymbolTableRecord
100
AcDbBlockTableRecord
  2
3
340
0
310
2800000020000000200000000100080000000000000400000000000000000000000000000000000000000000000080000080000000808000800000008000800080800000C0C0C000C0DCC000F0CAA6000020400000206000002080000020A0000020C0000020E00000400000004020000040400000406000004080000040A0
310
000040C0000040E00000600000006020000060400000606000006080000060A0000060C0000060E00000800000008020000080400000806000008080000080A0000080C0000080E00000A0000000A0200000A0400000A0600000A0800000A0A00000A0C00000A0E00000C0000000C0200000C0400000C0600000C0800000C0
310
A00000C0C00000C0E00000E0000000E0200000E0400000E0600000E0800000E0A00000E0C00000E0E00040000000400020004000400040006000400080004000A0004000C0004000E00040200000402020004020400040206000402080004020A0004020C0004020E000404000004040200040404000404060004040800040
310
40A0004040C0004040E00040600000406020004060400040606000406080004060A0004060C0004060E00040800000408020004080400040806000408080004080A0004080C0004080E00040A0000040A0200040A0400040A0600040A0800040A0A00040A0C00040A0E00040C0000040C0200040C0400040C0600040C08000
310
40C0A00040C0C00040C0E00040E0000040E0200040E0400040E0600040E0800040E0A00040E0C00040E0E00080000000800020008000400080006000800080008000A0008000C0008000E00080200000802020008020400080206000802080008020A0008020C0008020E00080400000804020008040400080406000804080
310
008040A0008040C0008040E00080600000806020008060400080606000806080008060A0008060C0008060E00080800000808020008080400080806000808080008080A0008080C0008080E00080A0000080A0200080A0400080A0600080A0800080A0A00080A0C00080A0E00080C0000080C0200080C0400080C0600080C0
310
800080C0A00080C0C00080C0E00080E0000080E0200080E0400080E0600080E0800080E0A00080E0C00080E0E000C0000000C0002000C0004000C0006000C0008000C000A000C000C000C000E000C0200000C0202000C0204000C0206000C0208000C020A000C020C000C020E000C0400000C0402000C0404000C0406000C0
310
408000C040A000C040C000C040E000C0600000C0602000C0604000C0606000C0608000C060A000C060C000C060E000C0800000C0802000C0804000C0806000C0808000C080A000C080C000C080E000C0A00000C0A02000C0A04000C0A06000C0A08000C0A0A000C0A0C000C0A0E000C0C00000C0C02000C0C04000C0C06000
310
C0C08000C0C0A000F0FBFF00A4A0A000808080000000FF0000FF000000FFFF00FF000000FF00FF00FFFF0000FFFFFF0000000000000000000000000000000000000000000000000000000000000000000000000000000000000000000000000000000000000000000000000000000000000000000000000000000000000000
310
00000000000000000000000000000000000000000000000000000000000000000000000000000000000000000000000000000000000000000000000000000000000000000000000000000000000000000000000000000000000000000000000000000000000000000000000000000000000000000000000000000000000000
310
00000000000000000000000000000000000000000000000000000000000000000000000000000000000000000000000000000000000000000000000000000000000000000000000000000000000000000000000000000000000000000000000000000000000000000000000000000000000000000000000000000000000000
310
0000000000000000000000000000000000000000000000000000000000000000000000000000000000000000000000000000000000000000000000FF000000000000FFFF000000000000FF000000000000000000FFFFFFFFFFFFFFFFFFFFFFFFFFFFFFFFFFFFFFFFFFFFFFFFFFFFFFFFFFFF0000FFFF000000000000000000
310
0000000000000000000000000000000000FFFF0000FFFFFFFF00000000000000000000000000000000000000000000FFFFFFFF0000FF00FFFF00000000000000000000000000000000000000000000FFFF00FF0000FF00FFFFFFFFFFFFFFFFFFFFFFFFFFFFFFFFFFFFFFFFFFFFFFFFFFFF00FF0000FF00FF00000000000000
310
0000000000000000000000000000000000FF00FF0000FFFFFF000000000000000000000000000000000000000000000000FFFFFF000000000000000000000000000000000000000000000000000000000000000000000000000000000000000000000000000000000000000000000000000000000000000000000000000000
310
00000000000000000000000000000000000000000000000000000000000000000000000000000000000000000000000000000000000000000000000000000000000000000000000000000000000000000000000000000000000000000000000000000000000000000000000000000000000000000000000000000000000000
310
00000000000000000000000000000000000000000000000000000000000000000000000000000000000000000000000000000000000000000000000000000000000000000000000000000000000000000000000000000000000000000000000000000000000000000000000000000000000000000000000000000000000000
310
0000000000000000000000000000000000000000000000000000000000000000000000000000000000000000000000000000000000000000
102
{BLKREFS
331
5BA
102
}
1001
ACAD
1000
DesignCenter Data
1002
{
1070
     1
1070
     4
1002
}
  0
BLOCK_RECORD
  5
5BB
330
1
100
AcDbSymbolTableRecord
100
AcDbBlockTableRecord
  2
4
340
0
310
2800000020000000200000000100080000000000000400000000000000000000000000000000000000000000000080000080000000808000800000008000800080800000C0C0C000C0DCC000F0CAA6000020400000206000002080000020A0000020C0000020E00000400000004020000040400000406000004080000040A0
310
000040C0000040E00000600000006020000060400000606000006080000060A0000060C0000060E00000800000008020000080400000806000008080000080A0000080C0000080E00000A0000000A0200000A0400000A0600000A0800000A0A00000A0C00000A0E00000C0000000C0200000C0400000C0600000C0800000C0
310
A00000C0C00000C0E00000E0000000E0200000E0400000E0600000E0800000E0A00000E0C00000E0E00040000000400020004000400040006000400080004000A0004000C0004000E00040200000402020004020400040206000402080004020A0004020C0004020E000404000004040200040404000404060004040800040
310
40A0004040C0004040E00040600000406020004060400040606000406080004060A0004060C0004060E00040800000408020004080400040806000408080004080A0004080C0004080E00040A0000040A0200040A0400040A0600040A0800040A0A00040A0C00040A0E00040C0000040C0200040C0400040C0600040C08000
310
40C0A00040C0C00040C0E00040E0000040E0200040E0400040E0600040E0800040E0A00040E0C00040E0E00080000000800020008000400080006000800080008000A0008000C0008000E00080200000802020008020400080206000802080008020A0008020C0008020E00080400000804020008040400080406000804080
310
008040A0008040C0008040E00080600000806020008060400080606000806080008060A0008060C0008060E00080800000808020008080400080806000808080008080A0008080C0008080E00080A0000080A0200080A0400080A0600080A0800080A0A00080A0C00080A0E00080C0000080C0200080C0400080C0600080C0
310
800080C0A00080C0C00080C0E00080E0000080E0200080E0400080E0600080E0800080E0A00080E0C00080E0E000C0000000C0002000C0004000C0006000C0008000C000A000C000C000C000E000C0200000C0202000C0204000C0206000C0208000C020A000C020C000C020E000C0400000C0402000C0404000C0406000C0
310
408000C040A000C040C000C040E000C0600000C0602000C0604000C0606000C0608000C060A000C060C000C060E000C0800000C0802000C0804000C0806000C0808000C080A000C080C000C080E000C0A00000C0A02000C0A04000C0A06000C0A08000C0A0A000C0A0C000C0A0E000C0C00000C0C02000C0C04000C0C06000
310
C0C08000C0C0A000F0FBFF00A4A0A000808080000000FF0000FF000000FFFF00FF000000FF00FF00FFFF0000FFFFFF0000000000000000000000000000000000000000000000000000000000000000000000000000000000000000000000000000000000000000000000000000000000000000000000000000000000000000
310
00000000000000000000000000000000000000000000000000000000000000000000000000000000000000000000000000000000000000000000000000000000000000000000000000000000000000000000000000000000000000000000000000000000000000000000000000000000000000000000000000000000000000
310
00000000000000000000000000000000000000000000000000000000000000000000000000000000000000000000000000000000000000000000000000000000000000000000FFFFFF00000000000000000000000000000000000000000000000000FFFFFFFF00FFFFFF0000000000000000000000000000000000000000FF
310
FFFFFF00FFFFFFFFFFFFFFFF000000000000000000000000000000FFFFFFFF00FFFFFFFFFFFFFFFF0000FFFFFF00000000000000000000FFFFFFFF00FFFFFFFFFFFFFFFF00000000FFFFFFFFFFFF000000000000FFFFFF00FFFFFFFFFFFFFFFF0000FFFFFFFFFFFFFFFFFFFFFF00FF0000000000FFFFFFFFFFFFFFFF00FFFF
310
FFFFFFFFFF0000FFFFFF00FFFFFFFF00FFFFFF000000FFFFFF000000FF00FFFFFFFFFFFFFFFF00FFFFFF00FFFFFFFFFF00FFFF00000000FFFFFFFFFFFFFFFFFFFFFFFFFFFFFFFFFFFF00FF00FFFFFFFFFFFFFF0000000000FFFFFFFFFFFFFF00FFFFFFFF00FFFFFFFFFF00FFFFFFFFFFFFFF000000000000FFFFFF00FFFF00
310
FF00FFFFFFFF00FFFFFFFFFFFFFFFFFFFFFFFF00000000000000FFFF00FFFFFF00FFFFFFFFFFFFFFFFFFFFFFFFFFFFFF0000000000000000000000FFFFFFFFFFFFFFFF0000FFFF00FFFFFF00FFFF0000000000000000000000000000FFFFFF00FFFFFFFFFFFFFFFFFF00000000000000000000000000000000000000FFFFFF
310
FFFFFFFFFFFF000000000000000000000000000000000000000000000000FFFFFF00000000000000000000000000000000000000000000000000000000000000000000000000000000000000000000000000000000000000000000000000000000000000000000000000000000000000000000000000000000000000000000
310
00000000000000000000000000000000000000000000000000000000000000000000000000000000000000000000000000000000000000000000000000000000000000000000000000000000000000000000000000000000000000000000000000000000000000000000000000000000000000000000000000000000000000
310
0000000000000000000000000000000000000000000000000000000000000000000000000000000000000000000000000000000000000000
102
{BLKREFS
331
694
102
}
1001
ACAD
1000
DesignCenter Data
1002
{
1070
     1
1070
     4
1002
}
  0
ENDTAB
  0
ENDSEC
  0
SECTION
  2
BLOCKS
  0
BLOCK
  5
20
330
1F
100
AcDbEntity
  8
0
100
AcDbBlockBegin
  2
*Model_Space
 70
     0
 10
0.0
 20
0.0
 30
0.0
  3
*Model_Space
  1

  0
ENDBLK
  5
21
330
1F
100
AcDbEntity
  8
0
100
AcDbBlockEnd
  0
BLOCK
  5
D4
330
D2
100
AcDbEntity
 67
     1
  8
0
100
AcDbBlockBegin
  2
*Paper_Space
 70
     0
 10
0.0
 20
0.0
 30
0.0
  3
*Paper_Space
  1

  0
ENDBLK
  5
D5
330
D2
100
AcDbEntity
 67
     1
  8
0
100
AcDbBlockEnd
  0
BLOCK
  5
D8
330
D6
100
AcDbEntity
 67
     1
  8
0
100
AcDbBlockBegin
  2
*Paper_Space0
 70
     0
 10
0.0
 20
0.0
 30
0.0
  3
*Paper_Space0
  1

  0
ENDBLK
  5
D9
330
D6
100
AcDbEntity
 67
     1
  8
0
100
AcDbBlockEnd
  0
BLOCK
  5
4EA
330
4E9
100
AcDbEntity
  8
0
100
AcDbBlockBegin
  2
1
 70
     0
 10
0.0
 20
0.0
 30
0.0
  3
1
  1

  0
LINE
  5
4EC
330
4E9
100
AcDbEntity
  8
0
  6
Continuous
 62
     7
370
    15
100
AcDbLine
 10
2103.380667996754
 20
1023.599211876777
 30
0.0
 11
2103.980667996754
 21
1023.599211876777
 31
0.0
  0
LINE
  5
4ED
330
4E9
100
AcDbEntity
  8
0
  6
Continuous
 62
     7
370
    15
100
AcDbLine
 10
2103.980667996754
 20
1012.32312111305
 30
0.0
 11
2103.380667996754
 21
1012.32312111305
 31
0.0
  0
LINE
  5
4EE
330
4E9
100
AcDbEntity
  8
0
  6
Continuous
 62
     7
370
    15
100
AcDbLine
 10
2103.380667996754
 20
1023.599211876777
 30
0.0
 11
2103.380667996754
 21
1012.32312111305
 31
0.0
  0
LINE
  5
4EF
330
4E9
100
AcDbEntity
  8
0
  6
Continuous
 62
     7
370
    15
100
AcDbLine
 10
2103.980667996754
 20
1012.32312111305
 30
0.0
 11
2103.980667996754
 21
1023.599211876777
 31
0.0
  0
LINE
  5
4F0
330
4E9
100
AcDbEntity
  8
0
  6
Continuous
 62
     7
370
    15
100
AcDbLine
 10
2121.980667996754
 20
1012.32312111305
 30
0.0
 11
2121.380667996755
 21
1012.32312111305
 31
0.0
  0
LINE
  5
4F1
330
4E9
100
AcDbEntity
  8
0
  6
Continuous
 62
     7
370
    15
100
AcDbLine
 10
2121.980667996754
 20
1008.599211876777
 30
0.0
 11
2121.380667996755
 21
1008.599211876777
 31
0.0
  0
LINE
  5
4F2
330
4E9
100
AcDbEntity
  8
0
  6
Continuous
 62
     7
370
    15
100
AcDbLine
 10
2121.380667996755
 20
1012.32312111305
 30
0.0
 11
2121.380667996755
 21
1008.599211876777
 31
0.0
  0
LINE
  5
4F3
330
4E9
100
AcDbEntity
  8
0
  6
Continuous
 62
     7
370
    15
100
AcDbLine
 10
2121.980667996754
 20
1008.599211876777
 30
0.0
 11
2121.980667996754
 21
1012.32312111305
 31
0.0
  0
LINE
  5
4F4
330
4E9
100
AcDbEntity
  8
0
  6
Continuous
 62
     7
370
    15
100
AcDbLine
 10
2121.980667996754
 20
1024.099211876777
 30
0.0
 11
2121.380667996755
 21
1024.099211876777
 31
0.0
  0
LINE
  5
4F5
330
4E9
100
AcDbEntity
  8
0
  6
Continuous
 62
     7
370
    15
100
AcDbLine
 10
2121.380667996755
 20
1023.599211876777
 30
0.0
 11
2121.980667996754
 21
1023.599211876777
 31
0.0
  0
LINE
  5
4F6
330
4E9
100
AcDbEntity
  8
0
  6
Continuous
 62
     7
370
    15
100
AcDbLine
 10
2121.380667996755
 20
1024.099211876777
 30
0.0
 11
2121.380667996755
 21
1023.599211876777
 31
0.0
  0
LINE
  5
4F7
330
4E9
100
AcDbEntity
  8
0
  6
Continuous
 62
     7
370
    15
100
AcDbLine
 10
2121.980667996754
 20
1023.599211876777
 30
0.0
 11
2121.980667996754
 21
1024.099211876777
 31
0.0
  0
LINE
  5
4F8
330
4E9
100
AcDbEntity
  8
0
  6
Continuous
 62
     7
370
    15
100
AcDbLine
 10
2112.980667996754
 20
1012.32312111305
 30
0.0
 11
2112.380667996754
 21
1012.32312111305
 31
0.0
  0
LINE
  5
4F9
330
4E9
100
AcDbEntity
  8
0
  6
Continuous
 62
     7
370
    15
100
AcDbLine
 10
2112.980667996754
 20
1008.599211876777
 30
0.0
 11
2112.380667996754
 21
1008.599211876777
 31
0.0
  0
LINE
  5
4FA
330
4E9
100
AcDbEntity
  8
0
  6
Continuous
 62
     7
370
    15
100
AcDbLine
 10
2112.380667996754
 20
1012.32312111305
 30
0.0
 11
2112.380667996754
 21
1008.599211876777
 31
0.0
  0
LINE
  5
4FB
330
4E9
100
AcDbEntity
  8
0
  6
Continuous
 62
     7
370
    15
100
AcDbLine
 10
2112.980667996754
 20
1008.599211876777
 30
0.0
 11
2112.980667996754
 21
1012.32312111305
 31
0.0
  0
LINE
  5
4FC
330
4E9
100
AcDbEntity
  8
0
  6
Continuous
 62
     7
370
    15
100
AcDbLine
 10
2103.380667996754
 20
1008.599211876777
 30
0.0
 11
2103.980667996754
 21
1008.599211876777
 31
0.0
  0
LINE
  5
4FD
330
4E9
100
AcDbEntity
  8
0
  6
Continuous
 62
     7
370
    15
100
AcDbLine
 10
2103.380667996754
 20
1012.32312111305
 30
0.0
 11
2103.380667996754
 21
1008.599211876777
 31
0.0
  0
LINE
  5
4FE
330
4E9
100
AcDbEntity
  8
0
  6
Continuous
 62
     7
370
    15
100
AcDbLine
 10
2103.980667996754
 20
1008.599211876777
 30
0.0
 11
2103.980667996754
 21
1012.32312111305
 31
0.0
  0
LINE
  5
4FF
330
4E9
100
AcDbEntity
  8
0
  6
Continuous
 62
     7
370
    15
100
AcDbLine
 10
2103.980667996754
 20
1024.099211876777
 30
0.0
 11
2103.380667996754
 21
1024.099211876777
 31
0.0
  0
LINE
  5
500
330
4E9
100
AcDbEntity
  8
0
  6
Continuous
 62
     7
370
    15
100
AcDbLine
 10
2103.380667996754
 20
1024.099211876777
 30
0.0
 11
2103.380667996754
 21
1023.599211876777
 31
0.0
  0
LINE
  5
501
330
4E9
100
AcDbEntity
  8
0
  6
Continuous
 62
     7
370
    15
100
AcDbLine
 10
2103.980667996754
 20
1023.599211876777
 30
0.0
 11
2103.980667996754
 21
1024.099211876777
 31
0.0
  0
LINE
  5
502
330
4E9
100
AcDbEntity
  8
0
  6
Continuous
 62
     7
370
    15
100
AcDbLine
 10
2112.380667996754
 20
1023.599211876777
 30
0.0
 11
2112.980667996754
 21
1023.599211876777
 31
0.0
  0
LINE
  5
503
330
4E9
100
AcDbEntity
  8
0
  6
Continuous
 62
     7
370
    15
100
AcDbLine
 10
2112.380667996754
 20
1023.599211876777
 30
0.0
 11
2112.380667996754
 21
1012.32312111305
 31
0.0
  0
LINE
  5
504
330
4E9
100
AcDbEntity
  8
0
  6
Continuous
 62
     7
370
    15
100
AcDbLine
 10
2112.980667996754
 20
1012.32312111305
 30
0.0
 11
2112.980667996754
 21
1023.599211876777
 31
0.0
  0
LINE
  5
505
330
4E9
100
AcDbEntity
  8
0
  6
Continuous
 62
     7
370
    15
100
AcDbLine
 10
2121.380667996755
 20
1023.599211876777
 30
0.0
 11
2121.380667996755
 21
1012.32312111305
 31
0.0
  0
LINE
  5
506
330
4E9
100
AcDbEntity
  8
0
  6
Continuous
 62
     7
370
    15
100
AcDbLine
 10
2121.980667996754
 20
1012.32312111305
 30
0.0
 11
2121.980667996754
 21
1023.599211876777
 31
0.0
  0
LINE
  5
507
330
4E9
100
AcDbEntity
  8
0
  6
Continuous
 62
     7
370
    15
100
AcDbLine
 10
2112.980667996754
 20
1024.099211876777
 30
0.0
 11
2112.380667996754
 21
1024.099211876777
 31
0.0
  0
LINE
  5
508
330
4E9
100
AcDbEntity
  8
0
  6
Continuous
 62
     7
370
    15
100
AcDbLine
 10
2112.380667996754
 20
1024.099211876777
 30
0.0
 11
2112.380667996754
 21
1023.599211876777
 31
0.0
  0
LINE
  5
509
330
4E9
100
AcDbEntity
  8
0
  6
Continuous
 62
     7
370
    15
100
AcDbLine
 10
2112.980667996754
 20
1023.599211876777
 30
0.0
 11
2112.980667996754
 21
1024.099211876777
 31
0.0
  0
LINE
  5
50A
330
4E9
100
AcDbEntity
  8
0
  6
Continuous
 62
     7
370
    15
100
AcDbLine
 10
2119.975752968629
 20
1021.599211876777
 30
0.0
 11
2121.380667996755
 21
1021.599211876777
 31
0.0
  0
LINE
  5
50B
330
4E9
100
AcDbEntity
  8
0
  6
Continuous
 62
     7
370
    15
100
AcDbLine
 10
2112.980667996754
 20
1021.599211876777
 30
0.0
 11
2114.38558302488
 21
1021.599211876777
 31
0.0
  0
ARC
  5
50C
330
4E9
100
AcDbEntity
  8
0
  6
Continuous
 62
     7
370
    15
100
AcDbCircle
 10
2117.180667996754
 20
1019.099211876777
 30
0.0
 40
3.750000000000057
100
AcDbArc
 50
41.81031489578372
 51
138.1896851042162
  0
LINE
  5
50D
330
4E9
100
AcDbEntity
  8
0
  6
Continuous
 62
     7
370
    15
100
AcDbLine
 10
2121.380667996755
 20
1024.099211876777
 30
0.0
 11
2112.980667996754
 21
1024.099211876777
 31
0.0
  0
ARC
  5
50E
330
4E9
100
AcDbEntity
  8
0
  6
Continuous
 62
     7
370
    15
100
AcDbCircle
 10
2108.180667996754
 20
1019.099211876777
 30
0.0
 40
3.750000000000099
100
AcDbArc
 50
41.81031489578372
 51
138.1896851042162
  0
LINE
  5
50F
330
4E9
100
AcDbEntity
  8
0
  6
Continuous
 62
     7
370
    15
100
AcDbLine
 10
2103.980667996754
 20
1021.599211876777
 30
0.0
 11
2105.385583024879
 21
1021.599211876777
 31
0.0
  0
LINE
  5
510
330
4E9
100
AcDbEntity
  8
0
  6
Continuous
 62
     7
370
    15
100
AcDbLine
 10
2110.975752968629
 20
1021.599211876777
 30
0.0
 11
2112.380667996754
 21
1021.599211876777
 31
0.0
  0
LINE
  5
511
330
4E9
100
AcDbEntity
  8
0
  6
Continuous
 62
     7
370
    15
100
AcDbLine
 10
2112.380667996754
 20
1024.099211876777
 30
0.0
 11
2103.980667996754
 21
1024.099211876777
 31
0.0
  0
LINE
  5
512
330
4E9
100
AcDbEntity
  8
0
  6
Continuous
 62
     7
370
    15
100
AcDbLine
 10
2101.975752968629
 20
1021.599211876777
 30
0.0
 11
2103.380667996754
 21
1021.599211876777
 31
0.0
  0
ARC
  5
513
330
4E9
100
AcDbEntity
  8
0
  6
Continuous
 62
     7
370
    15
100
AcDbCircle
 10
2099.180667996754
 20
1019.099211876777
 30
0.0
 40
3.750000000000057
100
AcDbArc
 50
41.81031489578372
 51
138.1896851042162
  0
LINE
  5
514
330
4E9
100
AcDbEntity
  8
0
  6
Continuous
 62
     7
370
    15
100
AcDbLine
 10
2095.380667996754
 20
1023.099211876777
 30
0.0
 11
2095.380667996754
 21
1021.599211876777
 31
0.0
  0
ARC
  5
515
330
4E9
100
AcDbEntity
  8
0
  6
Continuous
 62
     7
370
    15
100
AcDbCircle
 10
2096.380667996754
 20
1023.099211876777
 30
0.0
 40
1.0
100
AcDbArc
 50
90.0
 51
180.0
  0
LINE
  5
516
330
4E9
100
AcDbEntity
  8
0
  6
Continuous
 62
     7
370
    15
100
AcDbLine
 10
2095.380667996754
 20
1021.599211876777
 30
0.0
 11
2096.38558302488
 21
1021.599211876777
 31
0.0
  0
LINE
  5
517
330
4E9
100
AcDbEntity
  8
0
  6
Continuous
 62
     7
370
    15
100
AcDbLine
 10
2103.380667996754
 20
1024.099211876777
 30
0.0
 11
2096.380667996754
 21
1024.099211876777
 31
0.0
  0
ARC
  5
518
330
4E9
100
AcDbEntity
  8
0
  6
Continuous
 62
     7
370
    15
100
AcDbCircle
 10
2126.180667996754
 20
1019.099211876777
 30
0.0
 40
3.750000000000015
100
AcDbArc
 50
41.81031489578372
 51
138.1896851042162
  0
LINE
  5
519
330
4E9
100
AcDbEntity
  8
0
  6
Continuous
 62
     7
370
    15
100
AcDbLine
 10
2128.975752968629
 20
1021.599211876777
 30
0.0
 11
2129.980667996754
 21
1021.599211876777
 31
0.0
  0
LINE
  5
51A
330
4E9
100
AcDbEntity
  8
0
  6
Continuous
 62
     7
370
    15
100
AcDbLine
 10
2129.980667996754
 20
1021.599211876777
 30
0.0
 11
2129.980667996754
 21
1023.099211876777
 31
0.0
  0
LINE
  5
51B
330
4E9
100
AcDbEntity
  8
0
  6
Continuous
 62
     7
370
    15
100
AcDbLine
 10
2121.980667996754
 20
1021.599211876777
 30
0.0
 11
2123.38558302488
 21
1021.599211876777
 31
0.0
  0
ARC
  5
51C
330
4E9
100
AcDbEntity
  8
0
  6
Continuous
 62
     7
370
    15
100
AcDbCircle
 10
2128.980667996754
 20
1023.099211876777
 30
0.0
 40
1.0
100
AcDbArc
 50
0.0
 51
90.0
  0
LINE
  5
51D
330
4E9
100
AcDbEntity
  8
0
  6
Continuous
 62
     7
370
    15
100
AcDbLine
 10
2128.980667996754
 20
1024.099211876777
 30
0.0
 11
2121.980667996754
 21
1024.099211876777
 31
0.0
  0
LINE
  5
51E
330
4E9
100
AcDbEntity
  8
0
  6
Continuous
 62
     7
370
    15
100
AcDbLine
 10
2095.380667996754
 20
1004.099211876777
 30
0.0
 11
2095.980667996754
 21
1004.099211876777
 31
0.0
  0
LINE
  5
51F
330
4E9
100
AcDbEntity
  8
0
  6
Continuous
 62
     7
370
    15
100
AcDbLine
 10
2095.980667996754
 20
1004.599211876777
 30
0.0
 11
2095.380667996754
 21
1004.599211876777
 31
0.0
  0
LINE
  5
520
330
4E9
100
AcDbEntity
  8
0
  6
Continuous
 62
     7
370
    15
100
AcDbLine
 10
2095.980667996754
 20
1004.099211876777
 30
0.0
 11
2095.980667996754
 21
1004.599211876777
 31
0.0
  0
LINE
  5
521
330
4E9
100
AcDbEntity
  8
0
  6
Continuous
 62
     7
370
    15
100
AcDbLine
 10
2095.380667996754
 20
1004.599211876777
 30
0.0
 11
2095.380667996754
 21
1004.099211876777
 31
0.0
  0
LINE
  5
522
330
4E9
100
AcDbEntity
  8
0
  6
Continuous
 62
     7
370
    15
100
AcDbLine
 10
2129.380667996754
 20
1004.099211876777
 30
0.0
 11
2129.980667996754
 21
1004.099211876777
 31
0.0
  0
LINE
  5
523
330
4E9
100
AcDbEntity
  8
0
  6
Continuous
 62
     7
370
    15
100
AcDbLine
 10
2129.380667996754
 20
1004.599211876777
 30
0.0
 11
2129.380667996754
 21
1004.099211876777
 31
0.0
  0
LINE
  5
524
330
4E9
100
AcDbEntity
  8
0
  6
Continuous
 62
     7
370
    15
100
AcDbLine
 10
2129.980667996754
 20
1004.599211876777
 30
0.0
 11
2129.380667996754
 21
1004.599211876777
 31
0.0
  0
LINE
  5
525
330
4E9
100
AcDbEntity
  8
0
  6
Continuous
 62
     7
370
    15
100
AcDbLine
 10
2129.980667996754
 20
1004.099211876777
 30
0.0
 11
2129.980667996754
 21
1004.599211876777
 31
0.0
  0
ARC
  5
526
330
4E9
100
AcDbEntity
  8
0
  6
Continuous
 62
     7
370
    15
100
AcDbCircle
 10
2127.230667996754
 20
1024.849211876777
 30
0.0
 40
0.7500000000000285
100
AcDbArc
 50
270.0
 51
0.0
  0
LINE
  5
527
330
4E9
100
AcDbEntity
  8
0
  6
Continuous
 62
     7
370
    15
100
AcDbLine
 10
2127.980667996754
 20
1024.849211876777
 30
0.0
 11
2127.980667996754
 21
1025.099211876777
 31
0.0
  0
ARC
  5
528
330
4E9
100
AcDbEntity
  8
0
  6
Continuous
 62
     7
370
    15
100
AcDbCircle
 10
2128.980667996754
 20
1025.099211876777
 30
0.0
 40
1.0
100
AcDbArc
 50
0.0
 51
180.0
  0
LINE
  5
529
330
4E9
100
AcDbEntity
  8
0
  6
Continuous
 62
     7
370
    15
100
AcDbLine
 10
2129.980667996754
 20
1025.099211876777
 30
0.0
 11
2129.980667996754
 21
1023.099211876777
 31
0.0
  0
LINE
  5
52A
330
4E9
100
AcDbEntity
  8
0
  6
Continuous
 62
     7
370
    15
100
AcDbLine
 10
2129.380667996754
 20
1004.599211876777
 30
0.0
 11
2129.380667996754
 21
1012.799211876777
 31
0.0
  0
ARC
  5
52B
330
4E9
100
AcDbEntity
  8
0
  6
Continuous
 62
     7
370
    15
100
AcDbCircle
 10
2126.180667996754
 20
1019.099211876777
 30
0.0
 40
2.0
100
AcDbArc
 50
0.0
 51
180.0
  0
LINE
  5
52C
330
4E9
100
AcDbEntity
  8
0
  6
Continuous
 62
     7
370
    15
100
AcDbLine
 10
2124.180667996754
 20
1012.799211876777
 30
0.0
 11
2124.180667996754
 21
1019.099211876777
 31
0.0
  0
LINE
  5
52D
330
4E9
100
AcDbEntity
  8
0
  6
Continuous
 62
     7
370
    15
100
AcDbLine
 10
2129.380667996754
 20
1012.799211876777
 30
0.0
 11
2128.180667996754
 21
1012.799211876777
 31
0.0
  0
LINE
  5
52E
330
4E9
100
AcDbEntity
  8
0
  6
Continuous
 62
     7
370
    15
100
AcDbLine
 10
2124.180667996754
 20
1012.799211876777
 30
0.0
 11
2121.980667996754
 21
1012.799211876777
 31
0.0
  0
LINE
  5
52F
330
4E9
100
AcDbEntity
  8
0
  6
Continuous
 62
     7
370
    15
100
AcDbLine
 10
2128.180667996754
 20
1019.099211876777
 30
0.0
 11
2128.180667996754
 21
1012.799211876777
 31
0.0
  0
LINE
  5
530
330
4E9
100
AcDbEntity
  8
0
  6
Continuous
 62
     7
370
    15
100
AcDbLine
 10
2129.980667996754
 20
1021.599211876777
 30
0.0
 11
2129.980667996754
 21
1004.599211876777
 31
0.0
  0
LINE
  5
531
330
4E9
100
AcDbEntity
  8
0
  6
Continuous
 62
     7
370
    15
100
AcDbLine
 10
2115.180667996754
 20
1012.799211876777
 30
0.0
 11
2112.980667996754
 21
1012.799211876777
 31
0.0
  0
LINE
  5
532
330
4E9
100
AcDbEntity
  8
0
  6
Continuous
 62
     7
370
    15
100
AcDbLine
 10
2121.380667996755
 20
1012.799211876777
 30
0.0
 11
2119.180667996754
 21
1012.799211876777
 31
0.0
  0
ARC
  5
533
330
4E9
100
AcDbEntity
  8
0
  6
Continuous
 62
     7
370
    15
100
AcDbCircle
 10
2117.180667996754
 20
1019.099211876777
 30
0.0
 40
2.0
100
AcDbArc
 50
0.0
 51
180.0
  0
LINE
  5
534
330
4E9
100
AcDbEntity
  8
0
  6
Continuous
 62
     7
370
    15
100
AcDbLine
 10
2119.180667996754
 20
1019.099211876777
 30
0.0
 11
2119.180667996754
 21
1012.799211876777
 31
0.0
  0
LINE
  5
535
330
4E9
100
AcDbEntity
  8
0
  6
Continuous
 62
     7
370
    15
100
AcDbLine
 10
2115.180667996754
 20
1012.799211876777
 30
0.0
 11
2115.180667996754
 21
1019.099211876777
 31
0.0
  0
ARC
  5
536
330
4E9
100
AcDbEntity
  8
0
  6
Continuous
 62
     7
370
    15
100
AcDbCircle
 10
2108.180667996754
 20
1019.099211876777
 30
0.0
 40
2.0
100
AcDbArc
 50
0.0
 51
180.0
  0
LINE
  5
537
330
4E9
100
AcDbEntity
  8
0
  6
Continuous
 62
     7
370
    15
100
AcDbLine
 10
2106.180667996754
 20
1012.799211876777
 30
0.0
 11
2103.980667996754
 21
1012.799211876777
 31
0.0
  0
LINE
  5
538
330
4E9
100
AcDbEntity
  8
0
  6
Continuous
 62
     7
370
    15
100
AcDbLine
 10
2112.380667996754
 20
1012.799211876777
 30
0.0
 11
2110.180667996754
 21
1012.799211876777
 31
0.0
  0
LINE
  5
539
330
4E9
100
AcDbEntity
  8
0
  6
Continuous
 62
     7
370
    15
100
AcDbLine
 10
2110.180667996754
 20
1019.099211876777
 30
0.0
 11
2110.180667996754
 21
1012.799211876777
 31
0.0
  0
LINE
  5
53A
330
4E9
100
AcDbEntity
  8
0
  6
Continuous
 62
     7
370
    15
100
AcDbLine
 10
2106.180667996754
 20
1012.799211876777
 30
0.0
 11
2106.180667996754
 21
1019.099211876777
 31
0.0
  0
LINE
  5
53B
330
4E9
100
AcDbEntity
  8
0
  6
Continuous
 62
     7
370
    15
100
AcDbLine
 10
2101.180667996754
 20
1019.099211876777
 30
0.0
 11
2101.180667996754
 21
1012.799211876777
 31
0.0
  0
ARC
  5
53C
330
4E9
100
AcDbEntity
  8
0
  6
Continuous
 62
     7
370
    15
100
AcDbCircle
 10
2099.180667996754
 20
1019.099211876777
 30
0.0
 40
1.999999999999971
100
AcDbArc
 50
0.0
 51
180.0
  0
LINE
  5
53D
330
4E9
100
AcDbEntity
  8
0
  6
Continuous
 62
     7
370
    15
100
AcDbLine
 10
2097.180667996755
 20
1012.799211876777
 30
0.0
 11
2097.180667996755
 21
1019.099211876777
 31
0.0
  0
LINE
  5
53E
330
4E9
100
AcDbEntity
  8
0
  6
Continuous
 62
     7
370
    15
100
AcDbLine
 10
2095.980667996754
 20
1012.799211876777
 30
0.0
 11
2095.980667996754
 21
1004.599211876777
 31
0.0
  0
LINE
  5
53F
330
4E9
100
AcDbEntity
  8
0
  6
Continuous
 62
     7
370
    15
100
AcDbLine
 10
2097.180667996755
 20
1012.799211876777
 30
0.0
 11
2095.980667996754
 21
1012.799211876777
 31
0.0
  0
LINE
  5
540
330
4E9
100
AcDbEntity
  8
0
  6
Continuous
 62
     7
370
    15
100
AcDbLine
 10
2103.380667996754
 20
1012.799211876777
 30
0.0
 11
2101.180667996754
 21
1012.799211876777
 31
0.0
  0
LINE
  5
541
330
4E9
100
AcDbEntity
  8
0
  6
Continuous
 62
     7
370
    15
100
AcDbLine
 10
2095.380667996754
 20
1004.599211876777
 30
0.0
 11
2095.380667996754
 21
1021.599211876777
 31
0.0
  0
LINE
  5
542
330
4E9
100
AcDbEntity
  8
0
  6
Continuous
 62
     7
370
    15
100
AcDbLine
 10
2097.380667996754
 20
1025.099211876777
 30
0.0
 11
2097.380667996754
 21
1024.849211876777
 31
0.0
  0
ARC
  5
543
330
4E9
100
AcDbEntity
  8
0
  6
Continuous
 62
     7
370
    15
100
AcDbCircle
 10
2096.380667996754
 20
1025.099211876777
 30
0.0
 40
1.0
100
AcDbArc
 50
0.0
 51
180.0
  0
ARC
  5
544
330
4E9
100
AcDbEntity
  8
0
  6
Continuous
 62
     7
370
    15
100
AcDbCircle
 10
2098.130667996754
 20
1024.849211876777
 30
0.0
 40
0.7500000000000285
100
AcDbArc
 50
180.0
 51
270.0
  0
LINE
  5
545
330
4E9
100
AcDbEntity
  8
0
  6
Continuous
 62
     7
370
    15
100
AcDbLine
 10
2095.380667996754
 20
1023.099211876777
 30
0.0
 11
2095.380667996754
 21
1025.099211876777
 31
0.0
  0
LINE
  5
546
330
4E9
100
AcDbEntity
  8
0
  6
Continuous
 62
     7
370
    15
100
AcDbLine
 10
2129.380667996754
 20
1004.099211876777
 30
0.0
 11
2095.980667996754
 21
1004.099211876777
 31
0.0
  0
LINE
  5
547
330
4E9
100
AcDbEntity
  8
0
  6
Continuous
 62
     7
370
    15
100
AcDbLine
 10
2095.980667996754
 20
1006.099211876777
 30
0.0
 11
2129.380667996754
 21
1006.099211876777
 31
0.0
  0
LINE
  5
548
330
4E9
100
AcDbEntity
  8
0
  6
Continuous
 62
     7
370
    15
100
AcDbLine
 10
2104.680667996754
 20
1012.799211876777
 30
0.0
 11
2104.680667996754
 21
1012.699211876777
 31
0.0
  0
LINE
  5
549
330
4E9
100
AcDbEntity
  8
0
  6
Continuous
 62
     7
370
    15
100
AcDbLine
 10
2111.680667996754
 20
1012.699211876777
 30
0.0
 11
2111.680667996754
 21
1012.799211876777
 31
0.0
  0
LINE
  5
54A
330
4E9
100
AcDbEntity
  8
0
  6
Continuous
 62
     7
370
    15
100
AcDbLine
 10
2113.680667996754
 20
1012.799211876777
 30
0.0
 11
2113.680667996754
 21
1012.699211876777
 31
0.0
  0
LINE
  5
54B
330
4E9
100
AcDbEntity
  8
0
  6
Continuous
 62
     7
370
    15
100
AcDbLine
 10
2120.680667996754
 20
1012.699211876777
 30
0.0
 11
2120.680667996754
 21
1012.799211876777
 31
0.0
  0
LINE
  5
54C
330
4E9
100
AcDbEntity
  8
0
  6
Continuous
 62
     7
370
    15
100
AcDbLine
 10
2122.680667996754
 20
1012.799211876777
 30
0.0
 11
2122.680667996754
 21
1012.699211876777
 31
0.0
  0
LINE
  5
54D
330
4E9
100
AcDbEntity
  8
0
  6
Continuous
 62
     7
370
    15
100
AcDbLine
 10
2129.330667996754
 20
1008.573597246538
 30
0.0
 11
2129.380667996754
 21
1008.681467188901
 31
0.0
  0
LINE
  5
54E
330
4E9
100
AcDbEntity
  8
0
  6
Continuous
 62
     7
370
    15
100
AcDbLine
 10
2095.980667996754
 20
1008.681467188901
 30
0.0
 11
2096.030667996755
 21
1008.573597246537
 31
0.0
  0
LINE
  5
54F
330
4E9
100
AcDbEntity
  8
0
  6
Continuous
 62
     7
370
    15
100
AcDbLine
 10
2102.680667996754
 20
1012.699211876777
 30
0.0
 11
2102.680667996754
 21
1012.799211876777
 31
0.0
  0
LINE
  5
550
330
4E9
100
AcDbEntity
  8
0
  6
Continuous
 62
     7
370
    15
100
AcDbLine
 10
2097.180667996755
 20
1012.699211876777
 30
0.0
 11
2097.180667996755
 21
1010.199211876777
 31
0.0
  0
ARC
  5
551
330
4E9
100
AcDbEntity
  8
0
  6
Continuous
 62
     7
370
    15
100
AcDbCircle
 10
2099.180667996754
 20
1010.199211876777
 30
0.0
 40
1.999999999999971
100
AcDbArc
 50
180.0
 51
0.0
  0
LINE
  5
552
330
4E9
100
AcDbEntity
  8
0
  6
Continuous
 62
     7
370
    15
100
AcDbLine
 10
2101.180667996754
 20
1012.699211876777
 30
0.0
 11
2103.380667996754
 21
1012.699211876777
 31
0.0
  0
LINE
  5
553
330
4E9
100
AcDbEntity
  8
0
  6
Continuous
 62
     7
370
    15
100
AcDbLine
 10
2103.980667996754
 20
1012.699211876777
 30
0.0
 11
2106.180667996754
 21
1012.699211876777
 31
0.0
  0
LINE
  5
554
330
4E9
100
AcDbEntity
  8
0
  6
Continuous
 62
     7
370
    15
100
AcDbLine
 10
2106.180667996754
 20
1012.699211876777
 30
0.0
 11
2106.180667996754
 21
1010.199211876777
 31
0.0
  0
LINE
  5
555
330
4E9
100
AcDbEntity
  8
0
  6
Continuous
 62
     7
370
    15
100
AcDbLine
 10
2119.180667996754
 20
1010.199211876777
 30
0.0
 11
2119.180667996754
 21
1012.699211876777
 31
0.0
  0
ARC
  5
556
330
4E9
100
AcDbEntity
  8
0
  6
Continuous
 62
     7
370
    15
100
AcDbCircle
 10
2126.180667996754
 20
1010.199211876777
 30
0.0
 40
2.0
100
AcDbArc
 50
180.0
 51
0.0
  0
LINE
  5
557
330
4E9
100
AcDbEntity
  8
0
  6
Continuous
 62
     7
370
    15
100
AcDbLine
 10
2128.180667996754
 20
1010.199211876777
 30
0.0
 11
2128.180667996754
 21
1012.699211876777
 31
0.0
  0
LINE
  5
558
330
4E9
100
AcDbEntity
  8
0
  6
Continuous
 62
     7
370
    15
100
AcDbLine
 10
2129.330667996754
 20
1006.199211876777
 30
0.0
 11
2129.330667996754
 21
1012.699211876777
 31
0.0
  0
LINE
  5
559
330
4E9
100
AcDbEntity
  8
0
  6
Continuous
 62
     7
370
    15
100
AcDbLine
 10
2124.180667996754
 20
1012.699211876777
 30
0.0
 11
2124.180667996754
 21
1010.199211876777
 31
0.0
  0
LINE
  5
55A
330
4E9
100
AcDbEntity
  8
0
  6
Continuous
 62
     7
370
    15
100
AcDbLine
 10
2119.180667996754
 20
1012.699211876777
 30
0.0
 11
2121.380667996755
 21
1012.699211876777
 31
0.0
  0
LINE
  5
55B
330
4E9
100
AcDbEntity
  8
0
  6
Continuous
 62
     7
370
    15
100
AcDbLine
 10
2121.980667996754
 20
1012.699211876777
 30
0.0
 11
2124.180667996754
 21
1012.699211876777
 31
0.0
  0
LINE
  5
55C
330
4E9
100
AcDbEntity
  8
0
  6
Continuous
 62
     7
370
    15
100
AcDbLine
 10
2128.180667996754
 20
1012.699211876777
 30
0.0
 11
2129.330667996754
 21
1012.699211876777
 31
0.0
  0
LINE
  5
55D
330
4E9
100
AcDbEntity
  8
0
  6
Continuous
 62
     7
370
    15
100
AcDbLine
 10
2096.030667996755
 20
1012.699211876777
 30
0.0
 11
2097.180667996755
 21
1012.699211876777
 31
0.0
  0
ARC
  5
55E
330
4E9
100
AcDbEntity
  8
0
  6
Continuous
 62
     7
370
    15
100
AcDbCircle
 10
2108.180667996754
 20
1010.199211876777
 30
0.0
 40
2.0
100
AcDbArc
 50
180.0
 51
0.0
  0
LINE
  5
55F
330
4E9
100
AcDbEntity
  8
0
  6
Continuous
 62
     7
370
    15
100
AcDbLine
 10
2096.030667996755
 20
1012.699211876777
 30
0.0
 11
2096.030667996755
 21
1006.199211876777
 31
0.0
  0
ARC
  5
560
330
4E9
100
AcDbEntity
  8
0
  6
Continuous
 62
     7
370
    15
100
AcDbCircle
 10
2117.180667996754
 20
1010.199211876777
 30
0.0
 40
2.0
100
AcDbArc
 50
180.0
 51
0.0
  0
LINE
  5
561
330
4E9
100
AcDbEntity
  8
0
  6
Continuous
 62
     7
370
    15
100
AcDbLine
 10
2115.180667996754
 20
1012.699211876777
 30
0.0
 11
2115.180667996754
 21
1010.199211876777
 31
0.0
  0
LINE
  5
562
330
4E9
100
AcDbEntity
  8
0
  6
Continuous
 62
     7
370
    15
100
AcDbLine
 10
2110.180667996754
 20
1012.699211876777
 30
0.0
 11
2112.380667996754
 21
1012.699211876777
 31
0.0
  0
LINE
  5
563
330
4E9
100
AcDbEntity
  8
0
  6
Continuous
 62
     7
370
    15
100
AcDbLine
 10
2112.980667996754
 20
1012.699211876777
 30
0.0
 11
2115.180667996754
 21
1012.699211876777
 31
0.0
  0
LINE
  5
564
330
4E9
100
AcDbEntity
  8
0
  6
Continuous
 62
     7
370
    15
100
AcDbLine
 10
2110.180667996754
 20
1010.199211876777
 30
0.0
 11
2110.180667996754
 21
1012.699211876777
 31
0.0
  0
LINE
  5
565
330
4E9
100
AcDbEntity
  8
0
  6
Continuous
 62
     7
370
    15
100
AcDbLine
 10
2129.330667996754
 20
1006.199211876777
 30
0.0
 11
2096.030667996755
 21
1006.199211876777
 31
0.0
  0
LINE
  5
566
330
4E9
100
AcDbEntity
  8
0
  6
Continuous
 62
     7
370
    15
100
AcDbLine
 10
2101.180667996754
 20
1010.199211876777
 30
0.0
 11
2101.180667996754
 21
1012.699211876777
 31
0.0
  0
ENDBLK
  5
4EB
330
4E9
100
AcDbEntity
  8
0
100
AcDbBlockEnd
  0
BLOCK
  5
569
330
568
100
AcDbEntity
  8
0
100
AcDbBlockBegin
  2
2
 70
     0
 10
0.0
 20
0.0
 30
0.0
  3
2
  1

  0
LINE
  5
56B
330
568
100
AcDbEntity
  8
0
  6
Continuous
 62
     7
370
    15
100
AcDbLine
 10
2075.551295811999
 20
1026.099211876777
 30
0.0
 11
2071.551295812
 21
1026.099211876777
 31
0.0
  0
ARC
  5
56C
330
568
100
AcDbEntity
  8
0
  6
Continuous
 62
     7
370
    15
100
AcDbCircle
 10
2072.051295811999
 20
1004.599211876777
 30
0.0
 40
0.5
100
AcDbArc
 50
180.0
 51
270.0
  0
LINE
  5
56D
330
568
100
AcDbEntity
  8
0
  6
Continuous
 62
     7
370
    15
100
AcDbLine
 10
2071.551295812
 20
1021.599211876777
 30
0.0
 11
2071.551295812
 21
1004.599211876777
 31
0.0
  0
LINE
  5
56E
330
568
100
AcDbEntity
  8
0
  6
Continuous
 62
     7
370
    15
100
AcDbLine
 10
2071.551295812
 20
1021.599211876777
 30
0.0
 11
2069.301295812
 21
1021.599211876777
 31
0.0
  0
LINE
  5
56F
330
568
100
AcDbEntity
  8
0
  6
Continuous
 62
     7
370
    15
100
AcDbLine
 10
2069.301295812
 20
1021.599211876777
 30
0.0
 11
2069.301295812
 21
1023.099211876777
 31
0.0
  0
LINE
  5
570
330
568
100
AcDbEntity
  8
0
  6
Continuous
 62
     7
370
    15
100
AcDbLine
 10
2069.301295812
 20
1023.099211876777
 30
0.0
 11
2071.551295812
 21
1023.099211876777
 31
0.0
  0
LINE
  5
571
330
568
100
AcDbEntity
  8
0
  6
Continuous
 62
     7
370
    15
100
AcDbLine
 10
2071.551295812
 20
1025.099211876777
 30
0.0
 11
2071.551295812
 21
1023.099211876777
 31
0.0
  0
LINE
  5
572
330
568
100
AcDbEntity
  8
0
  6
Continuous
 62
     7
370
    15
100
AcDbLine
 10
2071.551295812
 20
1025.099211876777
 30
0.0
 11
2075.551295811999
 21
1025.099211876777
 31
0.0
  0
LINE
  5
573
330
568
100
AcDbEntity
  8
0
  6
Continuous
 62
     7
370
    15
100
AcDbLine
 10
2075.551295811999
 20
1024.099211876777
 30
0.0
 11
2075.551295811999
 21
1025.099211876777
 31
0.0
  0
LINE
  5
574
330
568
100
AcDbEntity
  8
0
  6
Continuous
 62
     7
370
    15
100
AcDbLine
 10
2075.551295811999
 20
1024.099211876777
 30
0.0
 11
2074.001295811999
 21
1024.099211876777
 31
0.0
  0
LINE
  5
575
330
568
100
AcDbEntity
  8
0
  6
Continuous
 62
     7
370
    15
100
AcDbLine
 10
2074.001295811999
 20
1024.099211876777
 30
0.0
 11
2074.001295811999
 21
1020.516956564653
 31
0.0
  0
LINE
  5
576
330
568
100
AcDbEntity
  8
0
  6
Continuous
 62
     7
370
    15
100
AcDbLine
 10
2073.551295811999
 20
1020.516956564653
 30
0.0
 11
2074.001295811999
 21
1020.516956564653
 31
0.0
  0
LINE
  5
577
330
568
100
AcDbEntity
  8
0
  6
Continuous
 62
     7
370
    15
100
AcDbLine
 10
2073.551295811999
 20
1020.516956564653
 30
0.0
 11
2073.551295811999
 21
1008.681467188901
 31
0.0
  0
LINE
  5
578
330
568
100
AcDbEntity
  8
0
  6
Continuous
 62
     7
370
    15
100
AcDbLine
 10
2073.551295811999
 20
1008.681467188901
 30
0.0
 11
2074.001295811999
 21
1008.681467188901
 31
0.0
  0
LINE
  5
579
330
568
100
AcDbEntity
  8
0
  6
Continuous
 62
     7
370
    15
100
AcDbLine
 10
2074.001295811999
 20
1008.681467188901
 30
0.0
 11
2074.001295811999
 21
1004.099211876777
 31
0.0
  0
LINE
  5
57A
330
568
100
AcDbEntity
  8
0
  6
Continuous
 62
     7
370
    15
100
AcDbLine
 10
2074.001295811999
 20
1004.099211876777
 30
0.0
 11
2072.051295811999
 21
1004.099211876777
 31
0.0
  0
LINE
  5
57B
330
568
100
AcDbEntity
  8
0
  6
Continuous
 62
     7
370
    15
100
AcDbLine
 10
2071.551295812
 20
1026.099211876777
 30
0.0
 11
2071.551295812
 21
1025.099211876777
 31
0.0
  0
LINE
  5
57C
330
568
100
AcDbEntity
  8
0
  6
Continuous
 62
     7
370
    15
100
AcDbLine
 10
2075.551295811999
 20
1025.099211876777
 30
0.0
 11
2075.551295811999
 21
1026.099211876777
 31
0.0
  0
LINE
  5
57D
330
568
100
AcDbEntity
  8
0
  6
Continuous
 62
     7
370
    15
100
AcDbLine
 10
2071.551295812
 20
1024.099211876777
 30
0.0
 11
2069.301295812
 21
1024.099211876777
 31
0.0
  0
LINE
  5
57E
330
568
100
AcDbEntity
  8
0
  6
Continuous
 62
     7
370
    15
100
AcDbLine
 10
2069.301295812
 20
1024.099211876777
 30
0.0
 11
2069.301295812
 21
1023.099211876777
 31
0.0
  0
LINE
  5
57F
330
568
100
AcDbEntity
  8
0
  6
Continuous
 62
     7
370
    15
100
AcDbLine
 10
2074.001295811999
 20
1010.099211876777
 30
0.0
 11
2073.551295811999
 21
1010.099211876777
 31
0.0
  0
LINE
  5
580
330
568
100
AcDbEntity
  8
0
  6
Continuous
 62
     7
370
    15
100
AcDbLine
 10
2074.001295811999
 20
1010.099211876777
 30
0.0
 11
2074.001295811999
 21
1008.681467188901
 31
0.0
  0
LINE
  5
581
330
568
100
AcDbEntity
  8
0
  6
Continuous
 62
     7
370
    15
100
AcDbLine
 10
2074.001295811999
 20
1019.099211876777
 30
0.0
 11
2073.551295811999
 21
1019.099211876777
 31
0.0
  0
LINE
  5
582
330
568
100
AcDbEntity
  8
0
  6
Continuous
 62
     7
370
    15
100
AcDbLine
 10
2074.001295811999
 20
1020.516956564653
 30
0.0
 11
2074.001295811999
 21
1019.099211876777
 31
0.0
  0
LINE
  5
583
330
568
100
AcDbEntity
  8
0
  6
Continuous
 62
     7
370
    15
100
AcDbLine
 10
2074.001295811999
 20
1019.099211876777
 30
0.0
 11
2074.001295811999
 21
1010.099211876777
 31
0.0
  0
LINE
  5
584
330
568
100
AcDbEntity
  8
0
  6
Continuous
 62
     7
370
    15
100
AcDbLine
 10
2068.051295811999
 20
1012.32312111305
 30
0.0
 11
2068.051295811999
 21
1023.599211876777
 31
0.0
  0
ARC
  5
585
330
568
100
AcDbEntity
  8
0
  6
Continuous
 62
     7
370
    15
100
AcDbCircle
 10
2068.551295812
 20
1023.599211876777
 30
0.0
 40
0.5000000000000569
100
AcDbArc
 50
90.0
 51
180.0
  0
ARC
  5
586
330
568
100
AcDbEntity
  8
0
  6
Continuous
 62
     7
370
    15
100
AcDbCircle
 10
2073.761659531188
 20
1011.631182669568
 30
0.0
 40
2.500000000000031
100
AcDbArc
 50
152.1465474699016
 51
207.8534525300983
  0
LINE
  5
587
330
568
100
AcDbEntity
  8
0
  6
Continuous
 62
     7
370
    15
100
AcDbLine
 10
2071.551295812
 20
1009.205429659426
 30
0.0
 11
2071.201295811999
 21
1008.599211876777
 31
0.0
  0
LINE
  5
588
330
568
100
AcDbEntity
  8
0
  6
Continuous
 62
     7
370
    15
100
AcDbLine
 10
2071.201295811999
 20
1008.599211876777
 30
0.0
 11
2070.201295811999
 21
1008.599211876777
 31
0.0
  0
LINE
  5
589
330
568
100
AcDbEntity
  8
0
  6
Continuous
 62
     7
370
    15
100
AcDbLine
 10
2070.201295811999
 20
1008.599211876777
 30
0.0
 11
2068.051295811999
 21
1012.32312111305
 31
0.0
  0
LINE
  5
58A
330
568
100
AcDbEntity
  8
0
  6
Continuous
 62
     7
370
    15
100
AcDbLine
 10
2068.551295812
 20
1024.099211876777
 30
0.0
 11
2069.301295812
 21
1024.099211876777
 31
0.0
  0
ENDBLK
  5
56A
330
568
100
AcDbEntity
  8
0
100
AcDbBlockEnd
  0
BLOCK
  5
58D
330
58C
100
AcDbEntity
  8
0
100
AcDbBlockBegin
  2
3
 70
     0
 10
0.0
 20
0.0
 30
0.0
  3
3
  1

  0
LINE
  5
58F
330
58C
100
AcDbEntity
  8
0
  6
Continuous
 62
     7
370
    15
100
AcDbLine
 10
2127.980667996754
 20
980.9209682961196
 30
0.0
 11
2127.980667996754
 21
984.9209682961197
 31
0.0
  0
LINE
  5
590
330
58C
100
AcDbEntity
  8
0
  6
Continuous
 62
     7
370
    15
100
AcDbLine
 10
2129.980667996754
 20
980.9209682961196
 30
0.0
 11
2129.980667996754
 21
984.9209682961197
 31
0.0
  0
LINE
  5
591
330
58C
100
AcDbEntity
  8
0
  6
Continuous
 62
     7
370
    15
100
AcDbLine
 10
2129.980667996754
 20
984.9209682961197
 30
0.0
 11
2127.980667996754
 21
984.9209682961197
 31
0.0
  0
LINE
  5
592
330
58C
100
AcDbEntity
  8
0
  6
Continuous
 62
     7
370
    15
100
AcDbLine
 10
2127.980667996754
 20
980.9209682961196
 30
0.0
 11
2129.980667996754
 21
980.9209682961196
 31
0.0
  0
LINE
  5
593
330
58C
100
AcDbEntity
  8
0
  6
Continuous
 62
     7
370
    15
100
AcDbLine
 10
2095.380667996754
 20
980.9209682961196
 30
0.0
 11
2097.380667996754
 21
980.9209682961196
 31
0.0
  0
LINE
  5
594
330
58C
100
AcDbEntity
  8
0
  6
Continuous
 62
     7
370
    15
100
AcDbLine
 10
2095.380667996754
 20
984.9209682961197
 30
0.0
 11
2095.380667996754
 21
980.9209682961196
 31
0.0
  0
LINE
  5
595
330
58C
100
AcDbEntity
  8
0
  6
Continuous
 62
     7
370
    15
100
AcDbLine
 10
2097.380667996754
 20
984.9209682961197
 30
0.0
 11
2095.380667996754
 21
984.9209682961197
 31
0.0
  0
LINE
  5
596
330
58C
100
AcDbEntity
  8
0
  6
Continuous
 62
     7
370
    15
100
AcDbLine
 10
2097.380667996754
 20
984.9209682961197
 30
0.0
 11
2097.380667996754
 21
980.9209682961196
 31
0.0
  0
LINE
  5
597
330
58C
100
AcDbEntity
  8
0
  6
Continuous
 62
     7
370
    15
100
AcDbLine
 10
2127.230667996754
 20
983.3709682961195
 30
0.0
 11
2127.230667996754
 21
980.9209682961196
 31
0.0
  0
LINE
  5
598
330
58C
100
AcDbEntity
  8
0
  6
Continuous
 62
     7
370
    15
100
AcDbLine
 10
2127.230667996754
 20
983.3709682961195
 30
0.0
 11
2127.980667996754
 21
983.3709682961195
 31
0.0
  0
LINE
  5
599
330
58C
100
AcDbEntity
  8
0
  6
Continuous
 62
     7
370
    15
100
AcDbLine
 10
2127.230667996754
 20
980.9209682961196
 30
0.0
 11
2127.980667996754
 21
980.9209682961196
 31
0.0
  0
LINE
  5
59A
330
58C
100
AcDbEntity
  8
0
  6
Continuous
 62
     7
370
    15
100
AcDbLine
 10
2098.130667996754
 20
980.9209682961196
 30
0.0
 11
2098.130667996754
 21
983.3709682961195
 31
0.0
  0
LINE
  5
59B
330
58C
100
AcDbEntity
  8
0
  6
Continuous
 62
     7
370
    15
100
AcDbLine
 10
2097.380667996754
 20
983.3709682961195
 30
0.0
 11
2098.130667996754
 21
983.3709682961195
 31
0.0
  0
LINE
  5
59C
330
58C
100
AcDbEntity
  8
0
  6
Continuous
 62
     7
370
    15
100
AcDbLine
 10
2097.380667996754
 20
980.9209682961196
 30
0.0
 11
2098.130667996754
 21
980.9209682961196
 31
0.0
  0
LINE
  5
59D
330
58C
100
AcDbEntity
  8
0
  6
Continuous
 62
     7
370
    15
100
AcDbLine
 10
2128.980667996754
 20
980.9209682961196
 30
0.0
 11
2128.980667996754
 21
978.6709682961197
 31
0.0
  0
LINE
  5
59E
330
58C
100
AcDbEntity
  8
0
  6
Continuous
 62
     7
370
    15
100
AcDbLine
 10
2128.980667996754
 20
978.6709682961197
 30
0.0
 11
2121.980667996754
 21
978.6709682961197
 31
0.0
  0
LINE
  5
59F
330
58C
100
AcDbEntity
  8
0
  6
Continuous
 62
     7
370
    15
100
AcDbLine
 10
2121.980667996754
 20
977.9209682961196
 30
0.0
 11
2121.380667996755
 21
977.9209682961196
 31
0.0
  0
LINE
  5
5A0
330
58C
100
AcDbEntity
  8
0
  6
Continuous
 62
     7
370
    15
100
AcDbLine
 10
2121.380667996755
 20
978.6709682961197
 30
0.0
 11
2112.980667996754
 21
978.6709682961197
 31
0.0
  0
LINE
  5
5A1
330
58C
100
AcDbEntity
  8
0
  6
Continuous
 62
     7
370
    15
100
AcDbLine
 10
2112.980667996754
 20
977.9209682961196
 30
0.0
 11
2112.980667996754
 21
978.6709682961197
 31
0.0
  0
LINE
  5
5A2
330
58C
100
AcDbEntity
  8
0
  6
Continuous
 62
     7
370
    15
100
AcDbLine
 10
2112.980667996754
 20
977.9209682961196
 30
0.0
 11
2112.380667996754
 21
977.9209682961196
 31
0.0
  0
LINE
  5
5A3
330
58C
100
AcDbEntity
  8
0
  6
Continuous
 62
     7
370
    15
100
AcDbLine
 10
2112.380667996754
 20
978.6709682961197
 30
0.0
 11
2112.380667996754
 21
977.9209682961196
 31
0.0
  0
LINE
  5
5A4
330
58C
100
AcDbEntity
  8
0
  6
Continuous
 62
     7
370
    15
100
AcDbLine
 10
2112.380667996754
 20
978.6709682961197
 30
0.0
 11
2103.980667996755
 21
978.6709682961197
 31
0.0
  0
LINE
  5
5A5
330
58C
100
AcDbEntity
  8
0
  6
Continuous
 62
     7
370
    15
100
AcDbLine
 10
2103.980667996755
 20
977.9209682961196
 30
0.0
 11
2103.980667996755
 21
978.6709682961197
 31
0.0
  0
LINE
  5
5A6
330
58C
100
AcDbEntity
  8
0
  6
Continuous
 62
     7
370
    15
100
AcDbLine
 10
2103.980667996755
 20
977.9209682961196
 30
0.0
 11
2103.380667996754
 21
977.9209682961196
 31
0.0
  0
LINE
  5
5A7
330
58C
100
AcDbEntity
  8
0
  6
Continuous
 62
     7
370
    15
100
AcDbLine
 10
2103.380667996754
 20
978.6709682961197
 30
0.0
 11
2103.380667996754
 21
977.9209682961196
 31
0.0
  0
LINE
  5
5A8
330
58C
100
AcDbEntity
  8
0
  6
Continuous
 62
     7
370
    15
100
AcDbLine
 10
2103.380667996754
 20
978.6709682961197
 30
0.0
 11
2096.380667996754
 21
978.6709682961197
 31
0.0
  0
LINE
  5
5A9
330
58C
100
AcDbEntity
  8
0
  6
Continuous
 62
     7
370
    15
100
AcDbLine
 10
2096.380667996754
 20
978.6709682961197
 30
0.0
 11
2096.380667996754
 21
980.9209682961196
 31
0.0
  0
LINE
  5
5AA
330
58C
100
AcDbEntity
  8
0
  6
Continuous
 62
     7
370
    15
100
AcDbLine
 10
2121.380667996755
 20
978.6709682961197
 30
0.0
 11
2121.380667996755
 21
977.9209682961196
 31
0.0
  0
LINE
  5
5AB
330
58C
100
AcDbEntity
  8
0
  6
Continuous
 62
     7
370
    15
100
AcDbLine
 10
2121.980667996754
 20
977.9209682961196
 30
0.0
 11
2121.980667996754
 21
978.6709682961197
 31
0.0
  0
LINE
  5
5AC
330
58C
100
AcDbEntity
  8
0
  6
Continuous
 62
     7
370
    15
100
AcDbLine
 10
2098.130667996754
 20
983.3709682961195
 30
0.0
 11
2127.230667996754
 21
983.3709682961195
 31
0.0
  0
LINE
  5
5AD
330
58C
100
AcDbEntity
  8
0
  6
Continuous
 62
     7
370
    15
100
AcDbLine
 10
2128.980667996754
 20
978.6709682961197
 30
0.0
 11
2129.980667996754
 21
978.6709682961197
 31
0.0
  0
LINE
  5
5AE
330
58C
100
AcDbEntity
  8
0
  6
Continuous
 62
     7
370
    15
100
AcDbLine
 10
2129.980667996754
 20
978.6709682961197
 30
0.0
 11
2129.980667996754
 21
980.9209682961196
 31
0.0
  0
LINE
  5
5AF
330
58C
100
AcDbEntity
  8
0
  6
Continuous
 62
     7
370
    15
100
AcDbLine
 10
2121.380667996755
 20
977.4209682961197
 30
0.0
 11
2121.980667996754
 21
977.4209682961197
 31
0.0
  0
LINE
  5
5B0
330
58C
100
AcDbEntity
  8
0
  6
Continuous
 62
     7
370
    15
100
AcDbLine
 10
2121.380667996755
 20
977.9209682961196
 30
0.0
 11
2121.380667996755
 21
977.4209682961197
 31
0.0
  0
LINE
  5
5B1
330
58C
100
AcDbEntity
  8
0
  6
Continuous
 62
     7
370
    15
100
AcDbLine
 10
2121.980667996754
 20
977.4209682961197
 30
0.0
 11
2121.980667996754
 21
977.9209682961196
 31
0.0
  0
LINE
  5
5B2
330
58C
100
AcDbEntity
  8
0
  6
Continuous
 62
     7
370
    15
100
AcDbLine
 10
2103.380667996754
 20
977.9209682961196
 30
0.0
 11
2103.380667996754
 21
977.4209682961197
 31
0.0
  0
LINE
  5
5B3
330
58C
100
AcDbEntity
  8
0
  6
Continuous
 62
     7
370
    15
100
AcDbLine
 10
2103.980667996755
 20
977.4209682961197
 30
0.0
 11
2103.980667996755
 21
977.9209682961196
 31
0.0
  0
LINE
  5
5B4
330
58C
100
AcDbEntity
  8
0
  6
Continuous
 62
     7
370
    15
100
AcDbLine
 10
2103.380667996754
 20
977.4209682961197
 30
0.0
 11
2103.980667996755
 21
977.4209682961197
 31
0.0
  0
LINE
  5
5B5
330
58C
100
AcDbEntity
  8
0
  6
Continuous
 62
     7
370
    15
100
AcDbLine
 10
2112.980667996754
 20
977.4209682961197
 30
0.0
 11
2112.980667996754
 21
977.9209682961196
 31
0.0
  0
LINE
  5
5B6
330
58C
100
AcDbEntity
  8
0
  6
Continuous
 62
     7
370
    15
100
AcDbLine
 10
2112.380667996754
 20
977.4209682961197
 30
0.0
 11
2112.980667996754
 21
977.4209682961197
 31
0.0
  0
LINE
  5
5B7
330
58C
100
AcDbEntity
  8
0
  6
Continuous
 62
     7
370
    15
100
AcDbLine
 10
2112.380667996754
 20
977.9209682961196
 30
0.0
 11
2112.380667996754
 21
977.4209682961197
 31
0.0
  0
LINE
  5
5B8
330
58C
100
AcDbEntity
  8
0
  6
Continuous
 62
     7
370
    15
100
AcDbLine
 10
2095.380667996754
 20
978.6709682961197
 30
0.0
 11
2096.380667996754
 21
978.6709682961197
 31
0.0
  0
LINE
  5
5B9
330
58C
100
AcDbEntity
  8
0
  6
Continuous
 62
     7
370
    15
100
AcDbLine
 10
2095.380667996754
 20
980.9209682961196
 30
0.0
 11
2095.380667996754
 21
978.6709682961197
 31
0.0
  0
ENDBLK
  5
58E
330
58C
100
AcDbEntity
  8
0
100
AcDbBlockEnd
  0
BLOCK
  5
5BC
330
5BB
100
AcDbEntity
  8
0
100
AcDbBlockBegin
  2
4
 70
     0
 10
0.0
 20
0.0
 30
0.0
  3
4
  1

  0
LINE
  5
5BE
330
5BB
100
AcDbEntity
  8
0
  6
Continuous
 62
     7
370
    15
100
AcDbLine
 10
2191.842075618298
 20
1013.560333129515
 30
0.0
 11
2191.715436325313
 21
1015.463887484807
 31
0.0
  0
LINE
  5
5BF
330
5BB
100
AcDbEntity
  8
0
  6
Continuous
 62
     7
370
    15
100
AcDbLine
 10
2193.023278503776
 20
1011.154279071675
 30
0.0
 11
2192.798141982915
 21
1014.538375703306
 31
0.0
  0
LINE
  5
5C0
330
5BB
100
AcDbEntity
  8
0
  6
Continuous
 62
     7
370
    15
100
AcDbLine
 10
2184.896425013124
 20
1018.249070596995
 30
0.0
 11
2184.370503066075
 21
1018.376493004256
 31
0.0
  0
LINE
  5
5C1
330
5BB
100
AcDbEntity
  8
0
  6
Continuous
 62
     7
370
    15
100
AcDbLine
 10
2177.007595807397
 20
1020.1604067059
 30
0.0
 11
2176.481673860348
 21
1020.287829113161
 31
0.0
  0
LINE
  5
5C2
330
5BB
100
AcDbEntity
  8
0
  6
Continuous
 62
     7
370
    15
100
AcDbLine
 10
2169.11876660167
 20
1022.071742814805
 30
0.0
 11
2168.592844654621
 21
1022.199165222066
 31
0.0
  0
ARC
  5
5C3
330
5BB
100
AcDbEntity
  8
0
  6
Continuous
 62
     7
370
    15
100
AcDbCircle
 10
2183.631432512555
 20
1003.629352511779
 30
0.0
 40
0.9671045545893882
100
AcDbArc
 50
141.2498767042368
 51
183.6868303663854
  0
LINE
  5
5C4
330
5BB
100
AcDbEntity
  8
0
  6
Continuous
 62
     7
370
    15
100
AcDbLine
 10
2191.003768078775
 20
1012.548049452811
 30
0.0
 11
2182.877203979532
 21
1004.234687575592
 31
0.0
  0
LINE
  5
5C5
330
5BB
100
AcDbEntity
  8
0
  6
Continuous
 62
     7
370
    15
100
AcDbLine
 10
2191.003768078775
 20
1012.548049452811
 30
0.0
 11
2190.877128785791
 21
1014.451603808103
 31
0.0
  0
LINE
  5
5C6
330
5BB
100
AcDbEntity
  8
0
  6
Continuous
 62
     7
370
    15
100
AcDbLine
 10
2190.877128785791
 20
1014.451603808103
 30
0.0
 11
2191.594178559253
 21
1015.185135738446
 31
0.0
  0
LINE
  5
5C7
330
5BB
100
AcDbEntity
  8
0
  6
Continuous
 62
     7
370
    15
100
AcDbLine
 10
2191.594178559253
 20
1015.185135738446
 30
0.0
 11
2191.720817852238
 21
1013.281581383154
 31
0.0
  0
LINE
  5
5C8
330
5BB
100
AcDbEntity
  8
0
  6
Continuous
 62
     7
370
    15
100
AcDbLine
 10
2192.676884216855
 20
1014.259623956944
 30
0.0
 11
2191.720817852238
 21
1013.281581383154
 31
0.0
  0
LINE
  5
5C9
330
5BB
100
AcDbEntity
  8
0
  6
Continuous
 62
     7
370
    15
100
AcDbLine
 10
2192.676884216855
 20
1014.259623956944
 30
0.0
 11
2192.902020737716
 21
1010.875527325314
 31
0.0
  0
LINE
  5
5CA
330
5BB
100
AcDbEntity
  8
0
  6
Continuous
 62
     7
370
    15
100
AcDbLine
 10
2192.423987555407
 20
1010.386506038418
 30
0.0
 11
2192.902020737716
 21
1010.875527325314
 31
0.0
  0
LINE
  5
5CB
330
5BB
100
AcDbEntity
  8
0
  6
Continuous
 62
     7
370
    15
100
AcDbLine
 10
2192.423987555407
 20
1010.386506038418
 30
0.0
 11
2192.336747153574
 21
1011.697843483175
 31
0.0
  0
LINE
  5
5CC
330
5BB
100
AcDbEntity
  8
0
  6
Continuous
 62
     7
370
    15
100
AcDbLine
 10
2192.336747153574
 20
1011.697843483175
 30
0.0
 11
2190.624310246878
 21
1009.946044380453
 31
0.0
  0
LINE
  5
5CD
330
5BB
100
AcDbEntity
  8
0
  6
Continuous
 62
     7
370
    15
100
AcDbLine
 10
2190.598982388281
 20
1010.326755251512
 30
0.0
 11
2190.624310246878
 21
1009.946044380453
 31
0.0
  0
LINE
  5
5CE
330
5BB
100
AcDbEntity
  8
0
  6
Continuous
 62
     7
370
    15
100
AcDbLine
 10
2190.598982388281
 20
1010.326755251512
 30
0.0
 11
2184.941225737813
 21
1004.538949005946
 31
0.0
  0
LINE
  5
5CF
330
5BB
100
AcDbEntity
  8
0
  6
Continuous
 62
     7
370
    15
100
AcDbLine
 10
2184.941225737813
 20
1004.538949005946
 30
0.0
 11
2184.96655359641
 21
1004.158238134888
 31
0.0
  0
LINE
  5
5D0
330
5BB
100
AcDbEntity
  8
0
  6
Continuous
 62
     7
370
    15
100
AcDbLine
 10
2184.96655359641
 20
1004.158238134888
 30
0.0
 11
2182.776083507405
 21
1001.91741774527
 31
0.0
  0
LINE
  5
5D1
330
5BB
100
AcDbEntity
  8
0
  6
Continuous
 62
     7
370
    15
100
AcDbLine
 10
2182.776083507405
 20
1001.91741774527
 30
0.0
 11
2182.666329453485
 21
1003.56716485319
 31
0.0
  0
LINE
  5
5D2
330
5BB
100
AcDbEntity
  8
0
  6
Continuous
 62
     7
370
    15
100
AcDbLine
 10
2182.140407506437
 20
1003.69458726045
 30
0.0
 11
2182.666329453485
 21
1003.56716485319
 31
0.0
  0
ARC
  5
5D3
330
5BB
100
AcDbEntity
  8
0
  6
Continuous
 62
     7
370
    15
100
AcDbCircle
 10
2183.105510565507
 20
1003.75677491904
 30
0.0
 40
0.9671045545892711
100
AcDbArc
 50
141.2498767042317
 51
183.6868303663854
  0
LINE
  5
5D4
330
5BB
100
AcDbEntity
  8
0
  6
Continuous
 62
     7
370
    15
100
AcDbLine
 10
2182.877203979532
 20
1004.234687575592
 30
0.0
 11
2182.351282032483
 21
1004.362109982852
 31
0.0
  0
LINE
  5
5D5
330
5BB
100
AcDbEntity
  8
0
  6
Continuous
 62
     7
370
    15
100
AcDbLine
 10
2152.338163840356
 20
1010.915190338536
 30
0.0
 11
2152.864085787404
 21
1010.787767931276
 31
0.0
  0
LINE
  5
5D6
330
5BB
100
AcDbEntity
  8
0
  6
Continuous
 62
     7
370
    15
100
AcDbLine
 10
2182.140407506437
 20
1003.69458726045
 30
0.0
 11
2152.864085787404
 21
1010.787767931276
 31
0.0
  0
LINE
  5
5D7
330
5BB
100
AcDbEntity
  8
0
  6
Continuous
 62
     7
370
    15
100
AcDbLine
 10
2182.776083507405
 20
1001.91741774527
 30
0.0
 11
2152.447917894276
 21
1009.265443230616
 31
0.0
  0
LINE
  5
5D8
330
5BB
100
AcDbEntity
  8
0
  6
Continuous
 62
     7
370
    15
100
AcDbLine
 10
2152.338163840356
 20
1010.915190338536
 30
0.0
 11
2152.447917894276
 21
1009.265443230616
 31
0.0
  0
LINE
  5
5D9
330
5BB
100
AcDbEntity
  8
0
  6
Continuous
 62
     7
370
    15
100
AcDbLine
 10
2186.271154127413
 20
1008.372084535393
 30
0.0
 11
2185.219310233315
 21
1008.626929349913
 31
0.0
  0
LINE
  5
5DA
330
5BB
100
AcDbEntity
  8
0
  6
Continuous
 62
     7
370
    15
100
AcDbLine
 10
2188.230919281858
 20
1011.707763457354
 30
0.0
 11
2185.219310233315
 21
1008.626929349913
 31
0.0
  0
LWPOLYLINE
  5
5DB
330
5BB
100
AcDbEntity
  8
0
  6
Continuous
 62
     7
370
    15
100
AcDbPolyline
 90
       27
 70
   128
 43
0.0
 10
2184.724772968202
 20
1012.557246172423
 10
2184.852795910998
 20
1012.672039334702
 10
2185.00451574521
 20
1012.778964868757
 10
2185.17772005401
 20
1012.876463559525
 10
2185.369883128555
 20
1012.963113656547
 10
2185.578202798504
 20
1013.037651606289
 10
2185.799641293973
 20
1013.0989904776
 10
2186.030969543065
 20
1013.146235811612
 10
2186.268814258999
 20
1013.178698664969
 10
2186.509707130238
 20
1013.195905656168
 10
2186.750135396278
 20
1013.197605868531
 10
2186.9865930716
 20
1013.183774509133
 10
2187.215632070843
 20
1013.15461327034
 10
2187.433912489647
 20
1013.110547388679
 10
2187.638251307981
 20
1013.052219443931
 10
2187.825668805742
 20
1012.980479988875
 10
2187.993432013787
 20
1012.896375146309
 10
2188.139094566771
 20
1012.801131354225
 10
2188.260532376668
 20
1012.696137481581
 10
2188.355974606758
 20
1012.582924575466
 10
2188.424029494406
 20
1012.463143534985
 10
2188.463704646105
 20
1012.338541037432
 10
2188.474421508804
 20
1012.210934067801
 10
2188.45602380651
 20
1012.082183423055
 10
2188.408779819153
 20
1011.954166577516
 10
2188.333378470451
 20
1011.82875030506
 10
2188.230919281858
 20
1011.707763457354
  0
LINE
  5
5DC
330
5BB
100
AcDbEntity
  8
0
  6
Continuous
 62
     7
370
    15
100
AcDbLine
 10
2181.713163919658
 20
1009.476412064983
 30
0.0
 11
2184.724772968202
 21
1012.557246172423
 31
0.0
  0
LINE
  5
5DD
330
5BB
100
AcDbEntity
  8
0
  6
Continuous
 62
     7
370
    15
100
AcDbLine
 10
2181.713163919658
 20
1009.476412064983
 30
0.0
 11
2179.784783447148
 21
1009.94362755827
 31
0.0
  0
LINE
  5
5DE
330
5BB
100
AcDbEntity
  8
0
  6
Continuous
 62
     7
370
    15
100
AcDbLine
 10
2183.991475451462
 20
1014.247014882948
 30
0.0
 11
2179.784783447148
 21
1009.94362755827
 31
0.0
  0
LINE
  5
5DF
330
5BB
100
AcDbEntity
  8
0
  6
Continuous
 62
     7
370
    15
100
AcDbLine
 10
2185.222934863178
 20
1013.948652124815
 30
0.0
 11
2183.991475451462
 21
1014.247014882948
 31
0.0
  0
LWPOLYLINE
  5
5E0
330
5BB
100
AcDbEntity
  8
0
  6
Continuous
 62
     7
370
    15
100
AcDbPolyline
 90
       20
 70
   128
 43
0.0
 10
2190.122923298425
 20
1012.761463939437
 10
2190.033032379752
 20
1012.92679862579
 10
2189.915293438168
 20
1013.085911553096
 10
2189.77062873105
 20
1013.237556378652
 10
2189.600171427178
 20
1013.380545257921
 10
2189.405256730552
 20
1013.513758148997
 10
2189.187411421641
 20
1013.636151585974
 10
2188.948341898004
 20
1013.746766852491
 10
2188.689920807965
 20
1013.844737491417
 10
2188.414172382017
 20
1013.929296091876
 10
2188.123256576895
 20
1013.99978030043
 10
2187.819452156471
 20
1014.055638009336
 10
2187.505138842048
 20
1014.09643168125
 10
2187.182778671829
 20
1014.121841776482
 10
2186.854896715603
 20
1014.131669255976
 10
2186.524061295695
 20
1014.125837140398
 10
2186.192863869119
 20
1014.104391113117
 10
2185.863898728511
 20
1014.067499162367
 10
2185.539742680857
 20
1014.015450265381
 10
2185.222934863178
 20
1013.948652124815
  0
LINE
  5
5E1
330
5BB
100
AcDbEntity
  8
0
  6
Continuous
 62
     7
370
    15
100
AcDbLine
 10
2191.003768078775
 20
1012.548049452811
 30
0.0
 11
2190.122923298425
 21
1012.761463939437
 31
0.0
  0
LINE
  5
5E2
330
5BB
100
AcDbEntity
  8
0
  6
Continuous
 62
     7
370
    15
100
AcDbLine
 10
2182.351282032483
 20
1004.362109982852
 30
0.0
 11
2186.271154127413
 21
1008.372084535393
 31
0.0
  0
LINE
  5
5E3
330
5BB
100
AcDbEntity
  8
0
  6
Continuous
 62
     7
370
    15
100
AcDbLine
 10
2153.820152152022
 20
1011.765810505066
 30
0.0
 11
2152.864085787404
 21
1010.787767931276
 31
0.0
  0
LINE
  5
5E4
330
5BB
100
AcDbEntity
  8
0
  6
Continuous
 62
     7
370
    15
100
AcDbLine
 10
2153.820152152022
 20
1011.765810505066
 30
0.0
 11
2182.739395114014
 21
1004.759144259164
 31
0.0
  0
LINE
  5
5E5
330
5BB
100
AcDbEntity
  8
0
  6
Continuous
 62
     7
370
    15
100
AcDbLine
 10
2179.360201808542
 20
1012.67189359299
 30
0.0
 11
2178.834279861494
 21
1012.799316000251
 31
0.0
  0
LINE
  5
5E6
330
5BB
100
AcDbEntity
  8
0
  6
Continuous
 62
     7
370
    15
100
AcDbLine
 10
2177.701060505662
 20
1009.031870766486
 30
0.0
 11
2179.360201808542
 21
1012.67189359299
 31
0.0
  0
LINE
  5
5E7
330
5BB
100
AcDbEntity
  8
0
  6
Continuous
 62
     7
370
    15
100
AcDbLine
 10
2177.701060505662
 20
1009.031870766486
 30
0.0
 11
2177.175138558613
 21
1009.159293173746
 31
0.0
  0
LINE
  5
5E8
330
5BB
100
AcDbEntity
  8
0
  6
Continuous
 62
     7
370
    15
100
AcDbLine
 10
2178.834279861494
 20
1012.799316000251
 30
0.0
 11
2177.175138558613
 21
1009.159293173746
 31
0.0
  0
LINE
  5
5E9
330
5BB
100
AcDbEntity
  8
0
  6
Continuous
 62
     7
370
    15
100
AcDbLine
 10
2179.360201808542
 20
1012.67189359299
 30
0.0
 11
2184.750547360325
 21
1018.186142009416
 31
0.0
  0
LWPOLYLINE
  5
5EA
330
5BB
100
AcDbEntity
  8
0
  6
Continuous
 62
     7
370
    15
100
AcDbPolyline
 90
        9
 70
   128
 43
0.0
 10
2184.750547360325
 20
1018.186142009416
 10
2184.797717925951
 20
1018.225715611099
 10
2184.844157236973
 20
1018.247512304497
 10
2184.888080656712
 20
1018.250694454905
 10
2184.92780023278
 20
1018.235139774068
 10
2184.961789564144
 20
1018.201446019648
 10
2184.988742459862
 20
1018.15090802373
 10
2185.007623135265
 20
1018.085467933157
 10
2185.017706016587
 20
1018.00764057391
  0
LINE
  5
5EB
330
5BB
100
AcDbEntity
  8
0
  6
Continuous
 62
     7
370
    15
100
AcDbLine
 10
2185.017706016587
 20
1018.00764057391
 30
0.0
 11
2185.059919114249
 21
1017.373122455479
 31
0.0
  0
LINE
  5
5EC
330
5BB
100
AcDbEntity
  8
0
  6
Continuous
 62
     7
370
    15
100
AcDbLine
 10
2185.059919114249
 20
1017.373122455479
 30
0.0
 11
2183.864836158477
 21
1016.150569238241
 31
0.0
  0
LINE
  5
5ED
330
5BB
100
AcDbEntity
  8
0
  6
Continuous
 62
     7
370
    15
100
AcDbLine
 10
2183.864836158477
 20
1016.150569238241
 30
0.0
 11
2183.991475451462
 21
1014.247014882948
 31
0.0
  0
ARC
  5
5EE
330
5BB
100
AcDbEntity
  8
0
  6
Continuous
 62
     7
370
    15
100
AcDbCircle
 10
2180.388076694848
 20
1008.236888236377
 30
0.0
 40
1.810227017701916
100
AcDbArc
 50
109.4673345484778
 51
161.8346498715365
  0
LINE
  5
5EF
330
5BB
100
AcDbEntity
  8
0
  6
Continuous
 62
     7
370
    15
100
AcDbLine
 10
2178.066836297264
 20
1008.18619155352
 30
0.0
 11
2177.757344635877
 21
1008.185846608578
 31
0.0
  0
LINE
  5
5F0
330
5BB
100
AcDbEntity
  8
0
  6
Continuous
 62
     7
370
    15
100
AcDbLine
 10
2177.757344635877
 20
1008.185846608578
 30
0.0
 11
2177.701060505662
 21
1009.031870766486
 31
0.0
  0
LINE
  5
5F1
330
5BB
100
AcDbEntity
  8
0
  6
Continuous
 62
     7
370
    15
100
AcDbLine
 10
2177.231422688828
 20
1008.313269015838
 30
0.0
 11
2177.757344635877
 21
1008.185846608578
 31
0.0
  0
LINE
  5
5F2
330
5BB
100
AcDbEntity
  8
0
  6
Continuous
 62
     7
370
    15
100
AcDbLine
 10
2177.175138558613
 20
1009.159293173746
 30
0.0
 11
2177.231422688828
 21
1008.313269015838
 31
0.0
  0
LINE
  5
5F3
330
5BB
100
AcDbEntity
  8
0
  6
Continuous
 62
     7
370
    15
100
AcDbLine
 10
2185.219310233315
 20
1008.626929349913
 30
0.0
 11
2185.223400029702
 21
1008.565454356331
 31
0.0
  0
LINE
  5
5F4
330
5BB
100
AcDbEntity
  8
0
  6
Continuous
 62
     7
370
    15
100
AcDbLine
 10
2184.224625413277
 20
1018.313564416676
 30
0.0
 11
2184.750547360325
 21
1018.186142009416
 31
0.0
  0
LINE
  5
5F5
330
5BB
100
AcDbEntity
  8
0
  6
Continuous
 62
     7
370
    15
100
AcDbLine
 10
2184.224625413277
 20
1018.313564416676
 30
0.0
 11
2178.834279861494
 21
1012.799316000251
 31
0.0
  0
LINE
  5
5F6
330
5BB
100
AcDbEntity
  8
0
  6
Continuous
 62
     7
370
    15
100
AcDbLine
 10
2171.471372602815
 20
1014.583229701895
 30
0.0
 11
2170.945450655766
 21
1014.710652109156
 31
0.0
  0
LINE
  5
5F7
330
5BB
100
AcDbEntity
  8
0
  6
Continuous
 62
     7
370
    15
100
AcDbLine
 10
2169.812231299935
 20
1010.943206875391
 30
0.0
 11
2171.471372602815
 21
1014.583229701895
 31
0.0
  0
LINE
  5
5F8
330
5BB
100
AcDbEntity
  8
0
  6
Continuous
 62
     7
370
    15
100
AcDbLine
 10
2169.812231299935
 20
1010.943206875391
 30
0.0
 11
2169.286309352886
 21
1011.070629282651
 31
0.0
  0
LINE
  5
5F9
330
5BB
100
AcDbEntity
  8
0
  6
Continuous
 62
     7
370
    15
100
AcDbLine
 10
2170.945450655766
 20
1014.710652109156
 30
0.0
 11
2169.286309352886
 21
1011.070629282651
 31
0.0
  0
LINE
  5
5FA
330
5BB
100
AcDbEntity
  8
0
  6
Continuous
 62
     7
370
    15
100
AcDbLine
 10
2171.471372602815
 20
1014.583229701895
 30
0.0
 11
2176.861718154598
 21
1020.097478118321
 31
0.0
  0
LWPOLYLINE
  5
5FB
330
5BB
100
AcDbEntity
  8
0
  6
Continuous
 62
     7
370
    15
100
AcDbPolyline
 90
        9
 70
   128
 43
0.0
 10
2176.861718154598
 20
1020.097478118321
 10
2176.908888720223
 20
1020.137051720004
 10
2176.955328031246
 20
1020.158848413402
 10
2176.999251450984
 20
1020.16203056381
 10
2177.038971027053
 20
1020.146475882973
 10
2177.072960358417
 20
1020.112782128553
 10
2177.099913254134
 20
1020.062244132635
 10
2177.118793929538
 20
1019.996804042062
 10
2177.12887681086
 20
1019.918976682814
  0
LINE
  5
5FC
330
5BB
100
AcDbEntity
  8
0
  6
Continuous
 62
     7
370
    15
100
AcDbLine
 10
2177.12887681086
 20
1019.918976682814
 30
0.0
 11
2177.171089908521
 21
1019.284458564384
 31
0.0
  0
LINE
  5
5FD
330
5BB
100
AcDbEntity
  8
0
  6
Continuous
 62
     7
370
    15
100
AcDbLine
 10
2177.171089908521
 20
1019.284458564384
 30
0.0
 11
2175.97600695275
 21
1018.061905347146
 31
0.0
  0
LINE
  5
5FE
330
5BB
100
AcDbEntity
  8
0
  6
Continuous
 62
     7
370
    15
100
AcDbLine
 10
2175.97600695275
 20
1018.061905347146
 30
0.0
 11
2176.102646245735
 21
1016.158350991854
 31
0.0
  0
LINE
  5
5FF
330
5BB
100
AcDbEntity
  8
0
  6
Continuous
 62
     7
370
    15
100
AcDbLine
 10
2176.102646245735
 20
1016.158350991854
 30
0.0
 11
2171.895954241421
 21
1011.854963667175
 31
0.0
  0
ARC
  5
600
330
5BB
100
AcDbEntity
  8
0
  6
Continuous
 62
     7
370
    15
100
AcDbCircle
 10
2172.499247489121
 20
1010.148224345282
 30
0.0
 40
1.81022701770188
100
AcDbArc
 50
109.4673345484778
 51
161.8346498715365
  0
LINE
  5
601
330
5BB
100
AcDbEntity
  8
0
  6
Continuous
 62
     7
370
    15
100
AcDbLine
 10
2170.178007091537
 20
1010.097527662425
 30
0.0
 11
2169.86851543015
 21
1010.097182717483
 31
0.0
  0
LINE
  5
602
330
5BB
100
AcDbEntity
  8
0
  6
Continuous
 62
     7
370
    15
100
AcDbLine
 10
2169.86851543015
 20
1010.097182717483
 30
0.0
 11
2169.812231299935
 21
1010.943206875391
 31
0.0
  0
LINE
  5
603
330
5BB
100
AcDbEntity
  8
0
  6
Continuous
 62
     7
370
    15
100
AcDbLine
 10
2177.330481027588
 20
1010.538265458819
 30
0.0
 11
2177.334570823974
 21
1010.476790465236
 31
0.0
  0
LINE
  5
604
330
5BB
100
AcDbEntity
  8
0
  6
Continuous
 62
     7
370
    15
100
AcDbLine
 10
2177.756620854256
 20
1010.435018650336
 30
0.0
 11
2177.330481027588
 21
1010.538265458819
 31
0.0
  0
LINE
  5
605
330
5BB
100
AcDbEntity
  8
0
  6
Continuous
 62
     7
370
    15
100
AcDbLine
 10
2181.825732180089
 20
1007.784363749167
 30
0.0
 11
2181.713163919658
 21
1009.476412064983
 31
0.0
  0
LINE
  5
606
330
5BB
100
AcDbEntity
  8
0
  6
Continuous
 62
     7
370
    15
100
AcDbLine
 10
2181.825732180089
 20
1007.784363749167
 30
0.0
 11
2181.773839065472
 21
1007.796936614061
 31
0.0
  0
LINE
  5
607
330
5BB
100
AcDbEntity
  8
0
  6
Continuous
 62
     7
370
    15
100
AcDbLine
 10
2184.837341228633
 20
1010.865197856607
 30
0.0
 11
2184.724772968202
 21
1012.557246172423
 31
0.0
  0
LINE
  5
608
330
5BB
100
AcDbEntity
  8
0
  6
Continuous
 62
     7
370
    15
100
AcDbLine
 10
2184.837341228633
 20
1010.865197856607
 30
0.0
 11
2181.825732180089
 21
1007.784363749167
 31
0.0
  0
LINE
  5
609
330
5BB
100
AcDbEntity
  8
0
  6
Continuous
 62
     7
370
    15
100
AcDbLine
 10
2169.342593483101
 20
1010.224605124743
 30
0.0
 11
2169.86851543015
 21
1010.097182717483
 31
0.0
  0
LINE
  5
60A
330
5BB
100
AcDbEntity
  8
0
  6
Continuous
 62
     7
370
    15
100
AcDbLine
 10
2169.286309352886
 20
1011.070629282651
 30
0.0
 11
2169.342593483101
 21
1010.224605124743
 31
0.0
  0
LINE
  5
60B
330
5BB
100
AcDbEntity
  8
0
  6
Continuous
 62
     7
370
    15
100
AcDbLine
 10
2178.217092645037
 20
1011.445256793704
 30
0.0
 11
2177.330481027588
 21
1010.538265458819
 31
0.0
  0
ARC
  5
60C
330
5BB
100
AcDbEntity
  8
0
  6
Continuous
 62
     7
370
    15
100
AcDbCircle
 10
2178.663004186244
 20
1012.364025943472
 30
0.0
 40
2.786988907640461
100
AcDbArc
 50
49.3911731223127
 51
130.9627240412205
  0
LINE
  5
60D
330
5BB
100
AcDbEntity
  8
0
  6
Continuous
 62
     7
370
    15
100
AcDbLine
 10
2173.824334713931
 20
1011.387748173888
 30
0.0
 11
2176.835943762475
 21
1014.468582281327
 31
0.0
  0
LINE
  5
60E
330
5BB
100
AcDbEntity
  8
0
  6
Continuous
 62
     7
370
    15
100
AcDbLine
 10
2173.824334713931
 20
1011.387748173888
 30
0.0
 11
2171.895954241421
 21
1011.854963667175
 31
0.0
  0
LINE
  5
60F
330
5BB
100
AcDbEntity
  8
0
  6
Continuous
 62
     7
370
    15
100
AcDbLine
 10
2177.33410565745
 20
1015.85998823372
 30
0.0
 11
2176.102646245735
 21
1016.158350991854
 31
0.0
  0
ARC
  5
610
330
5BB
100
AcDbEntity
  8
0
  6
Continuous
 62
     7
370
    15
100
AcDbCircle
 10
2178.863330936312
 20
1010.145178002122
 30
0.0
 40
5.915875753993722
100
AcDbArc
 50
64.14030989269
 51
104.9807892779982
  0
LINE
  5
611
330
5BB
100
AcDbEntity
  8
0
  6
Continuous
 62
     7
370
    15
100
AcDbLine
 10
2176.335796207549
 20
1020.224900525581
 30
0.0
 11
2176.861718154598
 21
1020.097478118321
 31
0.0
  0
LINE
  5
612
330
5BB
100
AcDbEntity
  8
0
  6
Continuous
 62
     7
370
    15
100
AcDbLine
 10
2176.335796207549
 20
1020.224900525581
 30
0.0
 11
2170.945450655766
 21
1014.710652109156
 31
0.0
  0
LINE
  5
613
330
5BB
100
AcDbEntity
  8
0
  6
Continuous
 62
     7
370
    15
100
AcDbLine
 10
2190.122923298425
 20
1012.761463939437
 30
0.0
 11
2189.996284005441
 21
1014.665018294729
 31
0.0
  0
LINE
  5
614
330
5BB
100
AcDbEntity
  8
0
  6
Continuous
 62
     7
370
    15
100
AcDbLine
 10
2189.996284005441
 20
1014.665018294729
 30
0.0
 11
2190.877128785791
 21
1014.451603808103
 31
0.0
  0
LWPOLYLINE
  5
615
330
5BB
100
AcDbEntity
  8
0
  6
Continuous
 62
     7
370
    15
100
AcDbPolyline
 90
       10
 70
   128
 43
0.0
 10
2191.195675163148
 20
1015.886527704108
 10
2191.340621744473
 20
1015.842220590577
 10
2191.466639400925
 20
1015.784401061925
 10
2191.569899149778
 20
1015.714825935272
 10
2191.647263495815
 20
1015.635609215634
 10
2191.696381762531
 20
1015.549157862951
 10
2191.715761516246
 20
1015.458098657829
 10
2191.704813912952
 20
1015.365198388137
 10
2191.663871590032
 20
1015.27327978156
 10
2191.594178559253
 20
1015.185135738446
  0
LWPOLYLINE
  5
616
330
5BB
100
AcDbEntity
  8
0
  6
Continuous
 62
     7
370
    15
100
AcDbPolyline
 90
       20
 70
   128
 43
0.0
 10
2185.096295570193
 20
1015.852206480107
 10
2185.413103387872
 20
1015.919004620673
 10
2185.737259435527
 20
1015.971053517658
 10
2186.066224576135
 20
1016.007945468409
 10
2186.39742200271
 20
1016.02939149569
 10
2186.728257422618
 20
1016.035223611268
 10
2187.056139378844
 20
1016.025396131774
 10
2187.378499549064
 20
1015.999986036542
 10
2187.692812863486
 20
1015.959192364628
 10
2187.996617283911
 20
1015.903334655722
 10
2188.287533089033
 20
1015.832850447168
 10
2188.56328151498
 20
1015.748291846708
 10
2188.82170260502
 20
1015.650321207783
 10
2189.060772128656
 20
1015.539705941266
 10
2189.278617437568
 20
1015.417312504289
 10
2189.473532134194
 20
1015.284099613213
 10
2189.643989438065
 20
1015.141110733944
 10
2189.788654145184
 20
1014.989465908388
 10
2189.906393086767
 20
1014.830352981082
 10
2189.996284005441
 20
1014.665018294729
  0
LINE
  5
617
330
5BB
100
AcDbEntity
  8
0
  6
Continuous
 62
     7
370
    15
100
AcDbLine
 10
2183.864836158477
 20
1016.150569238241
 30
0.0
 11
2185.096295570193
 21
1015.852206480107
 31
0.0
  0
LINE
  5
618
330
5BB
100
AcDbEntity
  8
0
  6
Continuous
 62
     7
370
    15
100
AcDbLine
 10
2191.195675163148
 20
1015.886527704108
 30
0.0
 11
2185.059919114249
 21
1017.373122455479
 31
0.0
  0
ARC
  5
619
330
5BB
100
AcDbEntity
  8
0
  6
Continuous
 62
     7
370
    15
100
AcDbCircle
 10
2186.750245294256
 20
1008.429128910367
 30
0.0
 40
3.097359177608666
100
AcDbArc
 50
69.10990841771831
 51
128.1404976828773
  0
LINE
  5
61A
330
5BB
100
AcDbEntity
  8
0
  6
Continuous
 62
     7
370
    15
100
AcDbLine
 10
2153.074960313451
 20
1011.455290653677
 30
0.0
 11
2152.549038366402
 21
1011.582713060938
 31
0.0
  0
LINE
  5
61B
330
5BB
100
AcDbEntity
  8
0
  6
Continuous
 62
     7
370
    15
100
AcDbLine
 10
2152.549038366402
 20
1011.582713060938
 30
0.0
 11
2160.675602465646
 21
1019.896074938157
 31
0.0
  0
LINE
  5
61C
330
5BB
100
AcDbEntity
  8
0
  6
Continuous
 62
     7
370
    15
100
AcDbLine
 10
2161.556447245996
 20
1019.68266045153
 30
0.0
 11
2160.675602465646
 21
1019.896074938157
 31
0.0
  0
ARC
  5
61D
330
5BB
100
AcDbEntity
  8
0
  6
Continuous
 62
     7
370
    15
100
AcDbCircle
 10
2163.085672524858
 20
1013.967850219932
 30
0.0
 40
5.915875753993287
100
AcDbArc
 50
64.14030989269
 51
104.9807892779982
  0
LINE
  5
61E
330
5BB
100
AcDbEntity
  8
0
  6
Continuous
 62
     7
370
    15
100
AcDbLine
 10
2161.978962442801
 20
1014.257690868147
 30
0.0
 11
2161.552822616134
 21
1014.360937676629
 31
0.0
  0
LINE
  5
61F
330
5BB
100
AcDbEntity
  8
0
  6
Continuous
 62
     7
370
    15
100
AcDbLine
 10
2162.439434233583
 20
1015.267929011514
 30
0.0
 11
2161.552822616134
 21
1014.360937676629
 31
0.0
  0
ARC
  5
620
330
5BB
100
AcDbEntity
  8
0
  6
Continuous
 62
     7
370
    15
100
AcDbCircle
 10
2162.88534577479
 20
1016.186698161283
 30
0.0
 40
2.78698890764039
100
AcDbArc
 50
49.39117312230848
 51
130.9627240412205
  0
LINE
  5
621
330
5BB
100
AcDbEntity
  8
0
  6
Continuous
 62
     7
370
    15
100
AcDbLine
 10
2158.046676302477
 20
1015.210420391698
 30
0.0
 11
2161.058285351021
 21
1018.291254499138
 31
0.0
  0
LINE
  5
622
330
5BB
100
AcDbEntity
  8
0
  6
Continuous
 62
     7
370
    15
100
AcDbLine
 10
2158.046676302477
 20
1015.210420391698
 30
0.0
 11
2156.99483240838
 21
1015.465265206218
 31
0.0
  0
LINE
  5
623
330
5BB
100
AcDbEntity
  8
0
  6
Continuous
 62
     7
370
    15
100
AcDbLine
 10
2156.99483240838
 20
1015.465265206218
 30
0.0
 11
2153.074960313451
 21
1011.455290653677
 31
0.0
  0
LINE
  5
624
330
5BB
100
AcDbEntity
  8
0
  6
Continuous
 62
     7
370
    15
100
AcDbLine
 10
2185.222934863178
 20
1013.948652124815
 30
0.0
 11
2185.096295570193
 21
1015.852206480107
 31
0.0
  0
LINE
  5
625
330
5BB
100
AcDbEntity
  8
0
  6
Continuous
 62
     7
370
    15
100
AcDbLine
 10
2163.582543397088
 20
1016.4945658108
 30
0.0
 11
2168.972888948871
 21
1022.008814227226
 31
0.0
  0
LWPOLYLINE
  5
626
330
5BB
100
AcDbEntity
  8
0
  6
Continuous
 62
     7
370
    15
100
AcDbPolyline
 90
        9
 70
   128
 43
0.0
 10
2168.972888948871
 20
1022.008814227226
 10
2169.020059514496
 20
1022.048387828909
 10
2169.066498825518
 20
1022.070184522307
 10
2169.110422245257
 20
1022.073366672715
 10
2169.150141821326
 20
1022.057811991878
 10
2169.18413115269
 20
1022.024118237458
 10
2169.211084048408
 20
1021.97358024154
 10
2169.229964723811
 20
1021.908140150967
 10
2169.240047605133
 20
1021.83031279172
  0
LINE
  5
627
330
5BB
100
AcDbEntity
  8
0
  6
Continuous
 62
     7
370
    15
100
AcDbLine
 10
2169.240047605133
 20
1021.83031279172
 30
0.0
 11
2169.282260702794
 21
1021.195794673289
 31
0.0
  0
LINE
  5
628
330
5BB
100
AcDbEntity
  8
0
  6
Continuous
 62
     7
370
    15
100
AcDbLine
 10
2169.282260702794
 20
1021.195794673289
 30
0.0
 11
2168.087177747023
 21
1019.973241456051
 31
0.0
  0
LINE
  5
629
330
5BB
100
AcDbEntity
  8
0
  6
Continuous
 62
     7
370
    15
100
AcDbLine
 10
2168.087177747023
 20
1019.973241456051
 30
0.0
 11
2168.213817040008
 21
1018.069687100759
 31
0.0
  0
LINE
  5
62A
330
5BB
100
AcDbEntity
  8
0
  6
Continuous
 62
     7
370
    15
100
AcDbLine
 10
2168.213817040008
 20
1018.069687100759
 30
0.0
 11
2164.007125035693
 21
1013.766299776081
 31
0.0
  0
ARC
  5
62B
330
5BB
100
AcDbEntity
  8
0
  6
Continuous
 62
     7
370
    15
100
AcDbCircle
 10
2164.610418283394
 20
1012.059560454187
 30
0.0
 40
1.810227017702196
100
AcDbArc
 50
109.4673345484778
 51
161.8346498715365
  0
LINE
  5
62C
330
5BB
100
AcDbEntity
  8
0
  6
Continuous
 62
     7
370
    15
100
AcDbLine
 10
2162.289177885809
 20
1012.00886377133
 30
0.0
 11
2161.979686224423
 21
1012.008518826388
 31
0.0
  0
LINE
  5
62D
330
5BB
100
AcDbEntity
  8
0
  6
Continuous
 62
     7
370
    15
100
AcDbLine
 10
2161.979686224423
 20
1012.008518826388
 30
0.0
 11
2161.923402094207
 21
1012.854542984296
 31
0.0
  0
LINE
  5
62E
330
5BB
100
AcDbEntity
  8
0
  6
Continuous
 62
     7
370
    15
100
AcDbLine
 10
2161.923402094207
 20
1012.854542984296
 30
0.0
 11
2163.582543397088
 21
1016.4945658108
 31
0.0
  0
LINE
  5
62F
330
5BB
100
AcDbEntity
  8
0
  6
Continuous
 62
     7
370
    15
100
AcDbLine
 10
2163.582543397088
 20
1016.4945658108
 30
0.0
 11
2163.056621450039
 21
1016.621988218061
 31
0.0
  0
LINE
  5
630
330
5BB
100
AcDbEntity
  8
0
  6
Continuous
 62
     7
370
    15
100
AcDbLine
 10
2161.397480147158
 20
1012.981965391556
 30
0.0
 11
2161.923402094207
 21
1012.854542984296
 31
0.0
  0
LINE
  5
631
330
5BB
100
AcDbEntity
  8
0
  6
Continuous
 62
     7
370
    15
100
AcDbLine
 10
2163.056621450039
 20
1016.621988218061
 30
0.0
 11
2161.397480147158
 21
1012.981965391556
 31
0.0
  0
ARC
  5
632
330
5BB
100
AcDbEntity
  8
0
  6
Continuous
 62
     7
370
    15
100
AcDbCircle
 10
2191.48498389099
 20
1013.549919398047
 30
0.0
 40
0.357243540900333
100
AcDbArc
 50
311.3112362929702
 51
1.670421790940428
  0
LINE
  5
633
330
5BB
100
AcDbEntity
  8
0
  6
Continuous
 62
     7
370
    15
100
AcDbLine
 10
2169.441651821861
 20
1012.449601567724
 30
0.0
 11
2169.445741618247
 21
1012.388126574141
 31
0.0
  0
LINE
  5
634
330
5BB
100
AcDbEntity
  8
0
  6
Continuous
 62
     7
370
    15
100
AcDbLine
 10
2169.867791648528
 20
1012.346354759241
 30
0.0
 11
2169.441651821861
 21
1012.449601567724
 31
0.0
  0
LINE
  5
635
330
5BB
100
AcDbEntity
  8
0
  6
Continuous
 62
     7
370
    15
100
AcDbLine
 10
2173.936902974362
 20
1009.695699858072
 30
0.0
 11
2173.824334713931
 21
1011.387748173888
 31
0.0
  0
LINE
  5
636
330
5BB
100
AcDbEntity
  8
0
  6
Continuous
 62
     7
370
    15
100
AcDbLine
 10
2173.936902974362
 20
1009.695699858072
 30
0.0
 11
2173.885009859745
 21
1009.708272722966
 31
0.0
  0
LINE
  5
637
330
5BB
100
AcDbEntity
  8
0
  6
Continuous
 62
     7
370
    15
100
AcDbLine
 10
2176.948512022906
 20
1012.776533965512
 30
0.0
 11
2176.835943762475
 21
1014.468582281327
 31
0.0
  0
LINE
  5
638
330
5BB
100
AcDbEntity
  8
0
  6
Continuous
 62
     7
370
    15
100
AcDbLine
 10
2176.948512022906
 20
1012.776533965512
 30
0.0
 11
2173.936902974362
 21
1009.695699858072
 31
0.0
  0
LINE
  5
639
330
5BB
100
AcDbEntity
  8
0
  6
Continuous
 62
     7
370
    15
100
AcDbLine
 10
2190.624310246878
 20
1009.946044380453
 30
0.0
 11
2190.302939365543
 21
1010.023907362884
 31
0.0
  0
LINE
  5
63A
330
5BB
100
AcDbEntity
  8
0
  6
Continuous
 62
     7
370
    15
100
AcDbLine
 10
2161.453764277374
 20
1012.135941233649
 30
0.0
 11
2161.979686224423
 21
1012.008518826388
 31
0.0
  0
LINE
  5
63B
330
5BB
100
AcDbEntity
  8
0
  6
Continuous
 62
     7
370
    15
100
AcDbLine
 10
2161.397480147158
 20
1012.981965391556
 30
0.0
 11
2161.453764277374
 21
1012.135941233649
 31
0.0
  0
LWPOLYLINE
  5
63C
330
5BB
100
AcDbEntity
  8
0
  6
Continuous
 62
     7
370
    15
100
AcDbPolyline
 90
       14
 70
   128
 43
0.0
 10
2191.746321498489
 20
1014.999642900636
 10
2191.776068228965
 20
1015.001684832538
 10
2191.949758726167
 20
1015.004159380404
 10
2192.118909443075
 20
1014.990464371791
 10
2192.278380820749
 20
1014.961015922607
 10
2192.423327402075
 20
1014.916708809076
 10
2192.549345058526
 20
1014.858889280424
 10
2192.652604807379
 20
1014.78931415377
 10
2192.729969153417
 20
1014.710097434132
 10
2192.779087420132
 20
1014.623646081449
 10
2192.798467173848
 20
1014.532586876327
 10
2192.787519570553
 20
1014.439686606636
 10
2192.746577247634
 20
1014.347768000058
 10
2192.676884216855
 20
1014.259623956944
  0
LINE
  5
63D
330
5BB
100
AcDbEntity
  8
0
  6
Continuous
 62
     7
370
    15
100
AcDbLine
 10
2170.32826343931
 20
1013.356592902609
 30
0.0
 11
2169.441651821861
 21
1012.449601567724
 31
0.0
  0
ARC
  5
63E
330
5BB
100
AcDbEntity
  8
0
  6
Continuous
 62
     7
370
    15
100
AcDbCircle
 10
2170.774174980517
 20
1014.275362052377
 30
0.0
 40
2.786988907640633
100
AcDbArc
 50
49.3911731223127
 51
130.9627240412205
  0
LINE
  5
63F
330
5BB
100
AcDbEntity
  8
0
  6
Continuous
 62
     7
370
    15
100
AcDbLine
 10
2165.935505508204
 20
1013.299084282793
 30
0.0
 11
2168.947114556748
 21
1016.379918390233
 31
0.0
  0
LINE
  5
640
330
5BB
100
AcDbEntity
  8
0
  6
Continuous
 62
     7
370
    15
100
AcDbLine
 10
2165.935505508204
 20
1013.299084282793
 30
0.0
 11
2164.007125035693
 21
1013.766299776081
 31
0.0
  0
LINE
  5
641
330
5BB
100
AcDbEntity
  8
0
  6
Continuous
 62
     7
370
    15
100
AcDbLine
 10
2169.445276451723
 20
1017.771324342625
 30
0.0
 11
2168.213817040008
 21
1018.069687100759
 31
0.0
  0
ARC
  5
642
330
5BB
100
AcDbEntity
  8
0
  6
Continuous
 62
     7
370
    15
100
AcDbCircle
 10
2170.974501730585
 20
1012.056514111028
 30
0.0
 40
5.915875753993109
100
AcDbArc
 50
64.14030989269
 51
104.9807892779982
  0
ARC
  5
643
330
5BB
100
AcDbEntity
  8
0
  6
Continuous
 62
     7
370
    15
100
AcDbCircle
 10
2153.829188846475
 20
1010.849955589865
 30
0.0
 40
0.967104554589218
100
AcDbArc
 50
141.2498767042317
 51
183.6868303663854
  0
LINE
  5
644
330
5BB
100
AcDbEntity
  8
0
  6
Continuous
 62
     7
370
    15
100
AcDbLine
 10
2156.998922204767
 20
1015.403790212635
 30
0.0
 11
2156.99483240838
 21
1015.465265206218
 31
0.0
  0
ARC
  5
645
330
5BB
100
AcDbEntity
  8
0
  6
Continuous
 62
     7
370
    15
100
AcDbCircle
 10
2153.303266899426
 20
1010.977377997125
 30
0.0
 40
0.9671045545894163
100
AcDbArc
 50
141.2498767042317
 51
183.6868303663724
  0
LINE
  5
646
330
5BB
100
AcDbEntity
  8
0
  6
Continuous
 62
     7
370
    15
100
AcDbLine
 10
2182.107454799714
 20
1016.576354403634
 30
0.0
 11
2182.446217318831
 21
1016.494277707809
 31
0.0
  0
LWPOLYLINE
  5
647
330
5BB
100
AcDbEntity
  8
0
  6
Continuous
 62
     7
370
    15
100
AcDbPolyline
 90
       20
 70
   128
 43
0.0
 10
2177.207466364466
 20
1017.763542589012
 10
2177.524274182145
 20
1017.830340729578
 10
2177.8484302298
 20
1017.882389626564
 10
2178.177395370408
 20
1017.919281577314
 10
2178.508592796983
 20
1017.940727604595
 10
2178.839428216891
 20
1017.946559720173
 10
2179.167310173117
 20
1017.936732240679
 10
2179.489670343336
 20
1017.911322145447
 10
2179.803983657759
 20
1017.870528473534
 10
2180.107788078183
 20
1017.814670764627
 10
2180.398703883306
 20
1017.744186556073
 10
2180.674452309253
 20
1017.659627955614
 10
2180.932873399292
 20
1017.561657316688
 10
2181.171942922929
 20
1017.451042050171
 10
2181.389788231841
 20
1017.328648613194
 10
2181.584702928466
 20
1017.195435722118
 10
2181.755160232338
 20
1017.052446842849
 10
2181.899824939457
 20
1016.900802017293
 10
2182.01756388104
 20
1016.741689089987
 10
2182.107454799714
 20
1016.576354403634
  0
LINE
  5
648
330
5BB
100
AcDbEntity
  8
0
  6
Continuous
 62
     7
370
    15
100
AcDbLine
 10
2175.97600695275
 20
1018.061905347146
 30
0.0
 11
2177.207466364466
 21
1017.763542589012
 31
0.0
  0
LINE
  5
649
330
5BB
100
AcDbEntity
  8
0
  6
Continuous
 62
     7
370
    15
100
AcDbLine
 10
2183.641300274602
 20
1017.716830925047
 30
0.0
 11
2177.171089908521
 21
1019.284458564384
 31
0.0
  0
LINE
  5
64A
330
5BB
100
AcDbEntity
  8
0
  6
Continuous
 62
     7
370
    15
100
AcDbLine
 10
2182.134153326806
 20
1016.175040590761
 30
0.0
 11
2182.107454799714
 21
1016.576354403634
 31
0.0
  0
ARC
  5
64B
330
5BB
100
AcDbEntity
  8
0
  6
Continuous
 62
     7
370
    15
100
AcDbCircle
 10
2192.66618677647
 20
1011.143865340206
 30
0.0
 40
0.3572435408981169
100
AcDbArc
 50
311.3112362928232
 51
1.670421791103204
  0
LINE
  5
64C
330
5BB
100
AcDbEntity
  8
0
  6
Continuous
 62
     7
370
    15
100
AcDbLine
 10
2168.446967001822
 20
1022.136236634486
 30
0.0
 11
2168.972888948871
 21
1022.008814227226
 31
0.0
  0
LINE
  5
64D
330
5BB
100
AcDbEntity
  8
0
  6
Continuous
 62
     7
370
    15
100
AcDbLine
 10
2168.446967001822
 20
1022.136236634486
 30
0.0
 11
2163.056621450039
 21
1016.621988218061
 31
0.0
  0
ARC
  5
64E
330
5BB
100
AcDbEntity
  8
0
  6
Continuous
 62
     7
370
    15
100
AcDbCircle
 10
2178.835680108524
 20
1010.392113556181
 30
0.0
 40
3.040865678028981
100
AcDbArc
 50
79.27162356987055
 51
128.3601274020402
  0
ARC
  5
64F
330
5BB
100
AcDbEntity
  8
0
  6
Continuous
 62
     7
370
    15
100
AcDbCircle
 10
2184.349873853745
 20
1018.223767388502
 30
0.0
 40
0.1541125501334212
100
AcDbArc
 50
82.30740576977135
 51
144.3613209576324
  0
LINE
  5
650
330
5BB
100
AcDbEntity
  8
0
  6
Continuous
 62
     7
370
    15
100
AcDbLine
 10
2191.317043408586
 20
1010.654700755681
 30
0.0
 11
2192.423987555407
 21
1010.386506038418
 31
0.0
  0
LINE
  5
651
330
5BB
100
AcDbEntity
  8
0
  6
Continuous
 62
     7
370
    15
100
AcDbLine
 10
2177.33410565745
 20
1015.85998823372
 30
0.0
 11
2177.207466364466
 21
1017.763542589012
 31
0.0
  0
LINE
  5
652
330
5BB
100
AcDbEntity
  8
0
  6
Continuous
 62
     7
370
    15
100
AcDbLine
 10
2161.552822616134
 20
1014.360937676629
 30
0.0
 11
2161.55691241252
 21
1014.299462683046
 31
0.0
  0
LINE
  5
653
330
5BB
100
AcDbEntity
  8
0
  6
Continuous
 62
     7
370
    15
100
AcDbLine
 10
2166.048073768635
 20
1011.607035966977
 30
0.0
 11
2165.935505508204
 21
1013.299084282793
 31
0.0
  0
LINE
  5
654
330
5BB
100
AcDbEntity
  8
0
  6
Continuous
 62
     7
370
    15
100
AcDbLine
 10
2166.048073768635
 20
1011.607035966977
 30
0.0
 11
2165.996180654018
 21
1011.619608831871
 31
0.0
  0
LINE
  5
655
330
5BB
100
AcDbEntity
  8
0
  6
Continuous
 62
     7
370
    15
100
AcDbLine
 10
2169.059682817179
 20
1014.687870074417
 30
0.0
 11
2168.947114556748
 21
1016.379918390233
 31
0.0
  0
LINE
  5
656
330
5BB
100
AcDbEntity
  8
0
  6
Continuous
 62
     7
370
    15
100
AcDbLine
 10
2169.059682817179
 20
1014.687870074417
 30
0.0
 11
2166.048073768635
 21
1011.607035966977
 31
0.0
  0
LINE
  5
657
330
5BB
100
AcDbEntity
  8
0
  6
Continuous
 62
     7
370
    15
100
AcDbLine
 10
2174.218625593987
 20
1018.487690512539
 30
0.0
 11
2174.557388113104
 21
1018.405613816714
 31
0.0
  0
LWPOLYLINE
  5
658
330
5BB
100
AcDbEntity
  8
0
  6
Continuous
 62
     7
370
    15
100
AcDbPolyline
 90
       20
 70
   128
 43
0.0
 10
2169.318637158738
 20
1019.674878697918
 10
2169.635444976417
 20
1019.741676838483
 10
2169.959601024073
 20
1019.793725735469
 10
2170.28856616468
 20
1019.830617686219
 10
2170.619763591256
 20
1019.8520637135
 10
2170.950599011163
 20
1019.857895829078
 10
2171.278480967389
 20
1019.848068349584
 10
2171.600841137609
 20
1019.822658254352
 10
2171.915154452032
 20
1019.781864582439
 10
2172.218958872456
 20
1019.726006873532
 10
2172.509874677579
 20
1019.655522664978
 10
2172.785623103526
 20
1019.570964064519
 10
2173.044044193565
 20
1019.472993425593
 10
2173.283113717202
 20
1019.362378159077
 10
2173.500959026114
 20
1019.239984722099
 10
2173.695873722739
 20
1019.106771831023
 10
2173.866331026611
 20
1018.963782951755
 10
2174.01099573373
 20
1018.812138126198
 10
2174.128734675313
 20
1018.653025198892
 10
2174.218625593987
 20
1018.487690512539
  0
LINE
  5
659
330
5BB
100
AcDbEntity
  8
0
  6
Continuous
 62
     7
370
    15
100
AcDbLine
 10
2168.087177747023
 20
1019.973241456051
 30
0.0
 11
2169.318637158738
 21
1019.674878697918
 31
0.0
  0
LINE
  5
65A
330
5BB
100
AcDbEntity
  8
0
  6
Continuous
 62
     7
370
    15
100
AcDbLine
 10
2175.752471068875
 20
1019.628167033953
 30
0.0
 11
2169.282260702794
 21
1021.195794673289
 31
0.0
  0
LINE
  5
65B
330
5BB
100
AcDbEntity
  8
0
  6
Continuous
 62
     7
370
    15
100
AcDbLine
 10
2174.245324121079
 20
1018.086376699666
 30
0.0
 11
2174.218625593987
 21
1018.487690512539
 31
0.0
  0
ARC
  5
65C
330
5BB
100
AcDbEntity
  8
0
  6
Continuous
 62
     7
370
    15
100
AcDbCircle
 10
2170.946850902797
 20
1012.303449665086
 30
0.0
 40
3.040865678028987
100
AcDbArc
 50
79.27162356987055
 51
128.3601274020402
  0
ARC
  5
65D
330
5BB
100
AcDbEntity
  8
0
  6
Continuous
 62
     7
370
    15
100
AcDbCircle
 10
2176.461044648018
 20
1020.135103497407
 30
0.0
 40
0.1541125501334284
100
AcDbArc
 50
82.30740576977135
 51
144.3613209576377
  0
LINE
  5
65E
330
5BB
100
AcDbEntity
  8
0
  6
Continuous
 62
     7
370
    15
100
AcDbLine
 10
2169.445276451723
 20
1017.771324342625
 30
0.0
 11
2169.318637158738
 21
1019.674878697918
 31
0.0
  0
LINE
  5
65F
330
5BB
100
AcDbEntity
  8
0
  6
Continuous
 62
     7
370
    15
100
AcDbLine
 10
2158.159244562908
 20
1013.518372075882
 30
0.0
 11
2158.046676302477
 21
1015.210420391698
 31
0.0
  0
LINE
  5
660
330
5BB
100
AcDbEntity
  8
0
  6
Continuous
 62
     7
370
    15
100
AcDbLine
 10
2158.159244562908
 20
1013.518372075882
 30
0.0
 11
2158.107351448291
 21
1013.530944940776
 31
0.0
  0
LINE
  5
661
330
5BB
100
AcDbEntity
  8
0
  6
Continuous
 62
     7
370
    15
100
AcDbLine
 10
2161.170853611452
 20
1016.599206183322
 30
0.0
 11
2161.058285351021
 21
1018.291254499138
 31
0.0
  0
LINE
  5
662
330
5BB
100
AcDbEntity
  8
0
  6
Continuous
 62
     7
370
    15
100
AcDbLine
 10
2161.170853611452
 20
1016.599206183322
 30
0.0
 11
2158.159244562908
 21
1013.518372075882
 31
0.0
  0
LINE
  5
663
330
5BB
100
AcDbEntity
  8
0
  6
Continuous
 62
     7
370
    15
100
AcDbLine
 10
2166.356494915352
 20
1019.997712808572
 30
0.0
 11
2166.329796388259
 21
1020.399026621444
 31
0.0
  0
LINE
  5
664
330
5BB
100
AcDbEntity
  8
0
  6
Continuous
 62
     7
370
    15
100
AcDbLine
 10
2166.329796388259
 20
1020.399026621444
 30
0.0
 11
2166.668558907376
 21
1020.316949925619
 31
0.0
  0
ARC
  5
665
330
5BB
100
AcDbEntity
  8
0
  6
Continuous
 62
     7
370
    15
100
AcDbCircle
 10
2162.221150852434
 20
1021.311029345341
 30
0.0
 40
1.551094693562018
100
AcDbArc
 50
75.07727286721508
 51
128.0088441411937
  0
LWPOLYLINE
  5
666
330
5BB
100
AcDbEntity
  8
0
  6
Continuous
 62
     7
370
    15
100
AcDbPolyline
 90
       20
 70
   128
 43
0.0
 10
2161.429807953011
 20
1021.586214806823
 10
2161.74661577069
 20
1021.653012947388
 10
2162.070771818346
 20
1021.705061844374
 10
2162.399736958953
 20
1021.741953795124
 10
2162.730934385529
 20
1021.763399822405
 10
2163.061769805436
 20
1021.769231937983
 10
2163.389651761662
 20
1021.759404458489
 10
2163.712011931882
 20
1021.733994363257
 10
2164.026325246305
 20
1021.693200691344
 10
2164.330129666728
 20
1021.637342982437
 10
2164.621045471851
 20
1021.566858773883
 10
2164.896793897799
 20
1021.482300173424
 10
2165.155214987838
 20
1021.384329534498
 10
2165.394284511474
 20
1021.273714267981
 10
2165.612129820386
 20
1021.151320831004
 10
2165.807044517012
 20
1021.018107939928
 10
2165.977501820884
 20
1020.87511906066
 10
2166.122166528003
 20
1020.723474235103
 10
2166.239905469586
 20
1020.564361307797
 10
2166.329796388259
 20
1020.399026621444
  0
LINE
  5
667
330
5BB
100
AcDbEntity
  8
0
  6
Continuous
 62
     7
370
    15
100
AcDbLine
 10
2160.548963172661
 20
1021.799629293449
 30
0.0
 11
2161.429807953011
 21
1021.586214806823
 31
0.0
  0
LINE
  5
668
330
5BB
100
AcDbEntity
  8
0
  6
Continuous
 62
     7
370
    15
100
AcDbLine
 10
2161.266012946124
 20
1022.533161223792
 30
0.0
 11
2160.548963172661
 21
1021.799629293449
 31
0.0
  0
LINE
  5
669
330
5BB
100
AcDbEntity
  8
0
  6
Continuous
 62
     7
370
    15
100
AcDbLine
 10
2167.863641863148
 20
1021.539503142858
 30
0.0
 11
2162.620582706847
 21
1022.80981183192
 31
0.0
  0
ARC
  5
66A
330
5BB
100
AcDbEntity
  8
0
  6
Continuous
 62
     7
370
    15
100
AcDbCircle
 10
2163.05802169707
 20
1014.214785773992
 30
0.0
 40
3.040865678028487
100
AcDbArc
 50
79.27162356984374
 51
128.3601274020443
  0
ARC
  5
66B
330
5BB
100
AcDbEntity
  8
0
  6
Continuous
 62
     7
370
    15
100
AcDbCircle
 10
2168.57221544229
 20
1022.046439606312
 30
0.0
 40
0.1541125501334532
100
AcDbArc
 50
82.30740576977046
 51
144.3613209576324
  0
LINE
  5
66C
330
5BB
100
AcDbEntity
  8
0
  6
Continuous
 62
     7
370
    15
100
AcDbLine
 10
2161.556447245996
 20
1019.68266045153
 30
0.0
 11
2161.429807953011
 21
1021.586214806823
 31
0.0
  0
LINE
  5
66D
330
5BB
100
AcDbEntity
  8
0
  6
Continuous
 62
     7
370
    15
100
AcDbLine
 10
2160.675602465646
 20
1019.896074938157
 30
0.0
 11
2160.548963172661
 21
1021.799629293449
 31
0.0
  0
LINE
  5
66E
330
5BB
100
AcDbEntity
  8
0
  6
Continuous
 62
     7
370
    15
100
AcDbLine
 10
2156.99085591907
 20
1015.40574454359
 30
0.0
 11
2153.883640234065
 21
1012.227106178771
 31
0.0
  0
LINE
  5
66F
330
5BB
100
AcDbEntity
  8
0
  6
Continuous
 62
     7
370
    15
100
AcDbLine
 10
2156.99085591907
 20
1015.40574454359
 30
0.0
 11
2157.998872984246
 21
1015.161518263008
 31
0.0
  0
LINE
  5
670
330
5BB
100
AcDbEntity
  8
0
  6
Continuous
 62
     7
370
    15
100
AcDbLine
 10
2157.998872984246
 20
1015.161518263008
 30
0.0
 11
2156.803790028475
 21
1013.93896504577
 31
0.0
  0
LWPOLYLINE
  5
671
330
5BB
100
AcDbEntity
  8
0
  6
Continuous
 62
     7
370
    15
100
AcDbPolyline
 90
       27
 70
   128
 43
0.0
 10
2156.803790028475
 20
1013.93896504577
 10
2156.701330839883
 20
1013.817978198063
 10
2156.62592949118
 20
1013.692561925608
 10
2156.578685503824
 20
1013.564545080069
 10
2156.56028780153
 20
1013.435794435323
 10
2156.571004664229
 20
1013.308187465692
 10
2156.610679815928
 20
1013.183584968138
 10
2156.678734703576
 20
1013.063803927657
 10
2156.774176933665
 20
1012.950591021543
 10
2156.895614743563
 20
1012.845597148899
 10
2157.041277296547
 20
1012.750353356814
 10
2157.209040504592
 20
1012.666248514248
 10
2157.396458002352
 20
1012.594509059192
 10
2157.600796820686
 20
1012.536181114445
 10
2157.819077239491
 20
1012.492115232784
 10
2158.048116238733
 20
1012.462953993991
 10
2158.284573914056
 20
1012.449122634593
 10
2158.525002180095
 20
1012.450822846956
 10
2158.765895051335
 20
1012.468029838155
 10
2159.003739767269
 20
1012.500492691511
 10
2159.235068016361
 20
1012.547738025524
 10
2159.45650651183
 20
1012.609076896834
 10
2159.664826181779
 20
1012.683614846577
 10
2159.856989256324
 20
1012.770264943599
 10
2160.030193565124
 20
1012.867763634367
 10
2160.181913399336
 20
1012.974689168421
 10
2160.309936342132
 20
1013.089482330701
  0
LINE
  5
672
330
5BB
100
AcDbEntity
  8
0
  6
Continuous
 62
     7
370
    15
100
AcDbLine
 10
2160.309936342132
 20
1013.089482330701
 30
0.0
 11
2161.505019297903
 21
1014.312035547939
 31
0.0
  0
LINE
  5
673
330
5BB
100
AcDbEntity
  8
0
  6
Continuous
 62
     7
370
    15
100
AcDbLine
 10
2161.505019297903
 20
1014.312035547939
 30
0.0
 11
2161.954135247762
 21
1014.203221995298
 31
0.0
  0
LINE
  5
674
330
5BB
100
AcDbEntity
  8
0
  6
Continuous
 62
     7
370
    15
100
AcDbLine
 10
2163.872245996634
 20
1013.738494690449
 30
0.0
 11
2165.887702189973
 21
1013.250182154103
 31
0.0
  0
LINE
  5
675
330
5BB
100
AcDbEntity
  8
0
  6
Continuous
 62
     7
370
    15
100
AcDbLine
 10
2165.887702189973
 20
1013.250182154103
 30
0.0
 11
2164.692619234203
 21
1012.027628936865
 31
0.0
  0
LWPOLYLINE
  5
676
330
5BB
100
AcDbEntity
  8
0
  6
Continuous
 62
     7
370
    15
100
AcDbPolyline
 90
       27
 70
   128
 43
0.0
 10
2164.692619234203
 20
1012.027628936865
 10
2164.59016004561
 20
1011.906642089158
 10
2164.514758696908
 20
1011.781225816703
 10
2164.467514709551
 20
1011.653208971164
 10
2164.449117007257
 20
1011.524458326418
 10
2164.459833869956
 20
1011.396851356787
 10
2164.499509021656
 20
1011.272248859233
 10
2164.567563909304
 20
1011.152467818752
 10
2164.663006139392
 20
1011.039254912638
 10
2164.78444394929
 20
1010.934261039994
 10
2164.930106502274
 20
1010.839017247909
 10
2165.097869710319
 20
1010.754912405343
 10
2165.28528720808
 20
1010.683172950287
 10
2165.489626026413
 20
1010.62484500554
 10
2165.707906445218
 20
1010.580779123879
 10
2165.936945444461
 20
1010.551617885085
 10
2166.173403119783
 20
1010.537786525688
 10
2166.413831385822
 20
1010.539486738051
 10
2166.654724257062
 20
1010.55669372925
 10
2166.892568972997
 20
1010.589156582606
 10
2167.123897222088
 20
1010.636401916618
 10
2167.345335717557
 20
1010.697740787929
 10
2167.553655387506
 20
1010.772278737672
 10
2167.745818462051
 20
1010.858928834694
 10
2167.919022770851
 20
1010.956427525462
 10
2168.070742605063
 20
1011.063353059516
 10
2168.198765547859
 20
1011.178146221796
  0
LINE
  5
677
330
5BB
100
AcDbEntity
  8
0
  6
Continuous
 62
     7
370
    15
100
AcDbLine
 10
2168.198765547859
 20
1011.178146221796
 30
0.0
 11
2169.39384850363
 21
1012.400699439034
 31
0.0
  0
LINE
  5
678
330
5BB
100
AcDbEntity
  8
0
  6
Continuous
 62
     7
370
    15
100
AcDbLine
 10
2169.39384850363
 20
1012.400699439034
 30
0.0
 11
2169.842964453489
 21
1012.291885886394
 31
0.0
  0
LINE
  5
679
330
5BB
100
AcDbEntity
  8
0
  6
Continuous
 62
     7
370
    15
100
AcDbLine
 10
2171.761075202361
 20
1011.827158581544
 30
0.0
 11
2173.7765313957
 21
1011.338846045198
 31
0.0
  0
LINE
  5
67A
330
5BB
100
AcDbEntity
  8
0
  6
Continuous
 62
     7
370
    15
100
AcDbLine
 10
2173.7765313957
 20
1011.338846045198
 30
0.0
 11
2172.58144843993
 21
1010.11629282796
 31
0.0
  0
LWPOLYLINE
  5
67B
330
5BB
100
AcDbEntity
  8
0
  6
Continuous
 62
     7
370
    15
100
AcDbPolyline
 90
       27
 70
   128
 43
0.0
 10
2172.58144843993
 20
1010.11629282796
 10
2172.478989251337
 20
1009.995305980253
 10
2172.403587902635
 20
1009.869889707798
 10
2172.356343915278
 20
1009.741872862258
 10
2172.337946212984
 20
1009.613122217513
 10
2172.348663075683
 20
1009.485515247881
 10
2172.388338227383
 20
1009.360912750328
 10
2172.456393115031
 20
1009.241131709847
 10
2172.55183534512
 20
1009.127918803733
 10
2172.673273155018
 20
1009.022924931089
 10
2172.818935708002
 20
1008.927681139004
 10
2172.986698916046
 20
1008.843576296438
 10
2173.174116413807
 20
1008.771836841382
 10
2173.378455232141
 20
1008.713508896635
 10
2173.596735650945
 20
1008.669443014974
 10
2173.825774650188
 20
1008.64028177618
 10
2174.06223232551
 20
1008.626450416783
 10
2174.30266059155
 20
1008.628150629146
 10
2174.54355346279
 20
1008.645357620345
 10
2174.781398178724
 20
1008.677820473701
 10
2175.012726427815
 20
1008.725065807714
 10
2175.234164923284
 20
1008.786404679024
 10
2175.442484593233
 20
1008.860942628767
 10
2175.634647667778
 20
1008.947592725789
 10
2175.807851976578
 20
1009.045091416557
 10
2175.95957181079
 20
1009.152016950611
 10
2176.087594753586
 20
1009.266810112891
  0
LINE
  5
67C
330
5BB
100
AcDbEntity
  8
0
  6
Continuous
 62
     7
370
    15
100
AcDbLine
 10
2176.087594753586
 20
1009.266810112891
 30
0.0
 11
2177.282677709357
 21
1010.489363330129
 31
0.0
  0
LINE
  5
67D
330
5BB
100
AcDbEntity
  8
0
  6
Continuous
 62
     7
370
    15
100
AcDbLine
 10
2177.282677709357
 20
1010.489363330129
 30
0.0
 11
2177.731793659216
 21
1010.380549777488
 31
0.0
  0
LINE
  5
67E
330
5BB
100
AcDbEntity
  8
0
  6
Continuous
 62
     7
370
    15
100
AcDbLine
 10
2179.649904408089
 20
1009.915822472639
 30
0.0
 11
2181.665360601428
 21
1009.427509936293
 31
0.0
  0
LINE
  5
67F
330
5BB
100
AcDbEntity
  8
0
  6
Continuous
 62
     7
370
    15
100
AcDbLine
 10
2181.665360601428
 20
1009.427509936293
 30
0.0
 11
2180.470277645657
 21
1008.204956719055
 31
0.0
  0
LWPOLYLINE
  5
680
330
5BB
100
AcDbEntity
  8
0
  6
Continuous
 62
     7
370
    15
100
AcDbPolyline
 90
       27
 70
   128
 43
0.0
 10
2180.470277645657
 20
1008.204956719055
 10
2180.367818457064
 20
1008.083969871348
 10
2180.292417108363
 20
1007.958553598893
 10
2180.245173121005
 20
1007.830536753353
 10
2180.226775418711
 20
1007.701786108608
 10
2180.23749228141
 20
1007.574179138976
 10
2180.27716743311
 20
1007.449576641423
 10
2180.345222320758
 20
1007.329795600942
 10
2180.440664550847
 20
1007.216582694828
 10
2180.562102360745
 20
1007.111588822184
 10
2180.707764913729
 20
1007.016345030099
 10
2180.875528121773
 20
1006.932240187533
 10
2181.062945619535
 20
1006.860500732477
 10
2181.267284437868
 20
1006.80217278773
 10
2181.485564856672
 20
1006.758106906069
 10
2181.714603855915
 20
1006.728945667275
 10
2181.951061531238
 20
1006.715114307878
 10
2182.191489797277
 20
1006.716814520241
 10
2182.432382668517
 20
1006.73402151144
 10
2182.670227384452
 20
1006.766484364796
 10
2182.901555633542
 20
1006.813729698808
 10
2183.122994129012
 20
1006.875068570119
 10
2183.331313798961
 20
1006.949606519862
 10
2183.523476873506
 20
1007.036256616884
 10
2183.696681182305
 20
1007.133755307652
 10
2183.848401016517
 20
1007.240680841706
 10
2183.976423959313
 20
1007.355474003986
  0
LINE
  5
681
330
5BB
100
AcDbEntity
  8
0
  6
Continuous
 62
     7
370
    15
100
AcDbLine
 10
2183.976423959313
 20
1007.355474003986
 30
0.0
 11
2185.171506915084
 21
1008.578027221224
 31
0.0
  0
LINE
  5
682
330
5BB
100
AcDbEntity
  8
0
  6
Continuous
 62
     7
370
    15
100
AcDbLine
 10
2185.171506915084
 20
1008.578027221224
 30
0.0
 11
2186.179523980261
 21
1008.333800940642
 31
0.0
  0
LINE
  5
683
330
5BB
100
AcDbEntity
  8
0
  6
Continuous
 62
     7
370
    15
100
AcDbLine
 10
2183.072308295256
 20
1005.155162575823
 30
0.0
 11
2186.179523980261
 21
1008.333800940642
 31
0.0
  0
LINE
  5
684
330
5BB
100
AcDbEntity
  8
0
  6
Continuous
 62
     7
370
    15
100
AcDbLine
 10
2183.072308295256
 20
1005.155162575823
 30
0.0
 11
2153.883640234065
 21
1012.227106178771
 31
0.0
  0
LINE
  5
685
330
5BB
100
AcDbEntity
  8
0
  6
Continuous
 62
     7
370
    15
100
AcDbLine
 10
2183.075762372119
 20
1005.103243278888
 30
0.0
 11
2183.072308295256
 21
1005.155162575823
 31
0.0
  0
LINE
  5
686
330
5BB
100
AcDbEntity
  8
0
  6
Continuous
 62
     7
370
    15
100
AcDbLine
 10
2186.179523980261
 20
1008.333800940642
 30
0.0
 11
2186.182978057124
 21
1008.281881643707
 31
0.0
  0
LINE
  5
687
330
5BB
100
AcDbEntity
  8
0
  6
Continuous
 62
     7
370
    15
100
AcDbLine
 10
2153.883640234065
 20
1012.227106178771
 30
0.0
 11
2153.915872095559
 21
1011.742619106234
 31
0.0
  0
LINE
  5
688
330
5BB
100
AcDbEntity
  8
0
  6
Continuous
 62
     7
370
    15
100
AcDbLine
 10
2181.665360601428
 20
1009.427509936293
 30
0.0
 11
2181.777928861858
 21
1007.735461620478
 31
0.0
  0
LINE
  5
689
330
5BB
100
AcDbEntity
  8
0
  6
Continuous
 62
     7
370
    15
100
AcDbLine
 10
2181.777928861858
 20
1007.735461620478
 30
0.0
 11
2180.959074591581
 21
1006.897785107945
 31
0.0
  0
LINE
  5
68A
330
5BB
100
AcDbEntity
  8
0
  6
Continuous
 62
     7
370
    15
100
AcDbLine
 10
2173.7765313957
 20
1011.338846045198
 30
0.0
 11
2173.889099656131
 21
1009.646797729383
 31
0.0
  0
LINE
  5
68B
330
5BB
100
AcDbEntity
  8
0
  6
Continuous
 62
     7
370
    15
100
AcDbLine
 10
2173.889099656131
 20
1009.646797729383
 30
0.0
 11
2173.070245385853
 21
1008.80912121685
 31
0.0
  0
LINE
  5
68C
330
5BB
100
AcDbEntity
  8
0
  6
Continuous
 62
     7
370
    15
100
AcDbLine
 10
2165.887702189973
 20
1013.250182154103
 30
0.0
 11
2166.000270450404
 21
1011.558133838288
 31
0.0
  0
LINE
  5
68D
330
5BB
100
AcDbEntity
  8
0
  6
Continuous
 62
     7
370
    15
100
AcDbLine
 10
2166.000270450404
 20
1011.558133838288
 30
0.0
 11
2165.181416180126
 21
1010.720457325755
 31
0.0
  0
LINE
  5
68E
330
5BB
100
AcDbEntity
  8
0
  6
Continuous
 62
     7
370
    15
100
AcDbLine
 10
2157.998872984246
 20
1015.161518263008
 30
0.0
 11
2158.111441244677
 21
1013.469469947193
 31
0.0
  0
LINE
  5
68F
330
5BB
100
AcDbEntity
  8
0
  6
Continuous
 62
     7
370
    15
100
AcDbLine
 10
2158.111441244677
 20
1013.469469947193
 30
0.0
 11
2157.292586974399
 21
1012.63179343466
 31
0.0
  0
LINE
  5
690
330
5BB
100
AcDbEntity
  8
0
  6
Continuous
 62
     8
370
    15
100
AcDbLine
 10
2180.470277645657
 20
1008.204956719055
 30
0.0
 11
2180.541992484093
 21
1007.126988816465
 31
0.0
  0
LINE
  5
691
330
5BB
100
AcDbEntity
  8
0
  6
Continuous
 62
     8
370
    15
100
AcDbLine
 10
2172.58144843993
 20
1010.11629282796
 30
0.0
 11
2172.653163278366
 21
1009.03832492537
 31
0.0
  0
LINE
  5
692
330
5BB
100
AcDbEntity
  8
0
  6
Continuous
 62
     8
370
    15
100
AcDbLine
 10
2164.692619234203
 20
1012.027628936865
 30
0.0
 11
2164.764334072639
 21
1010.949661034275
 31
0.0
  0
LINE
  5
693
330
5BB
100
AcDbEntity
  8
0
  6
Continuous
 62
     8
370
    15
100
AcDbLine
 10
2156.803790028475
 20
1013.93896504577
 30
0.0
 11
2156.875504866912
 21
1012.86099714318
 31
0.0
  0
ENDBLK
  5
5BD
330
5BB
100
AcDbEntity
  8
0
100
AcDbBlockEnd
  0
ENDSEC
  0
SECTION
  2
ENTITIES
  0
INSERT
  5
567
330
1F
100
AcDbEntity
  8
0
100
AcDbBlockReference
  2
1
 10
0.0
 20
0.0
 30
0.0
  0
INSERT
  5
58B
330
1F
100
AcDbEntity
  8
0
100
AcDbBlockReference
  2
2
 10
0.0
 20
0.0
 30
0.0
  0
INSERT
  5
5BA
330
1F
100
AcDbEntity
  8
0
100
AcDbBlockReference
  2
3
 10
0.0
 20
0.0
 30
0.0
  0
INSERT
  5
694
330
1F
100
AcDbEntity
  8
0
100
AcDbBlockReference
  2
4
 10
0.0
 20
0.0
 30
0.0
  0
ENDSEC
  0
SECTION
  2
OBJECTS
  0
DICTIONARY
  5
C
330
0
100
AcDbDictionary
281
     1
  3
ACAD_COLOR
350
6B
  3
ACAD_GROUP
350
D
  3
ACAD_LAYOUT
350
1A
  3
ACAD_MATERIAL
350
6A
  3
ACAD_MLEADERSTYLE
350
12D
  3
ACAD_MLINESTYLE
350
17
  3
ACAD_PLOTSETTINGS
350
19
  3
ACAD_PLOTSTYLENAME
350
E
  3
ACAD_SCALELIST
350
10C
  3
ACAD_TABLESTYLE
350
7E
  3
ACAD_VISUALSTYLE
350
EF
  3
ACDB_RECOMPOSE_DATA
350
15D
  3
AcDbVariableDictionary
350
5E
  3
DWGPROPS
350
6A4
  0
DICTIONARY
  5
13C
330
10
100
AcDbDictionary
280
     1
281
     1
  3
ADSK_XREC_LAYER_RECONCILED
360
695
  0
DICTIONARY
  5
6B
102
{ACAD_REACTORS
330
C
102
}
330
C
100
AcDbDictionary
281
     1
  0
DICTIONARY
  5
D
102
{ACAD_REACTORS
330
C
102
}
330
C
100
AcDbDictionary
281
     1
  0
DICTIONARY
  5
1A
102
{ACAD_REACTORS
330
C
102
}
330
C
100
AcDbDictionary
281
     1
  3
Layout1
350
D3
  3
Layout2
350
D7
  3
Model
350
22
  0
DICTIONARY
  5
6A
102
{ACAD_REACTORS
330
C
102
}
330
C
100
AcDbDictionary
281
     1
  3
ByBlock
350
ED
  3
ByLayer
350
EC
  3
Global
350
EE
  0
DICTIONARY
  5
12D
102
{ACAD_REACTORS
330
C
102
}
330
C
100
AcDbDictionary
281
     1
  3
Annotative
350
13B
  3
Standard
350
12E
  0
DICTIONARY
  5
17
102
{ACAD_REACTORS
330
C
102
}
330
C
100
AcDbDictionary
281
     1
  3
Standard
350
18
  0
DICTIONARY
  5
19
102
{ACAD_REACTORS
330
C
102
}
330
C
100
AcDbDictionary
281
     1
  0
ACDBDICTIONARYWDFLT
  5
E
102
{ACAD_REACTORS
330
C
102
}
330
C
100
AcDbDictionary
281
     1
  3
Normal
350
F
100
AcDbDictionaryWithDefault
340
F
  0
DICTIONARY
  5
10C
102
{ACAD_REACTORS
330
C
102
}
330
C
100
AcDbDictionary
281
     1
  3
A0
350
10D
  3
A1
350
188
  3
A2
350
189
  3
A3
350
18A
  3
A4
350
18B
  3
A5
350
18C
  3
A6
350
18D
  3
A7
350
18E
  3
A8
350
18F
  3
A9
350
190
  3
B0
350
191
  3
B1
350
192
  3
B2
350
193
  3
B3
350
194
  3
B4
350
195
  3
B5
350
196
  3
B6
350
197
  3
B7
350
198
  3
B8
350
199
  3
B9
350
19A
  3
C0
350
19B
  3
C1
350
19C
  3
C2
350
19D
  3
C3
350
19E
  3
C4
350
19F
  3
C5
350
1A0
  3
C6
350
1A1
  3
C7
350
1A2
  3
C8
350
1A3
  3
C9
350
1A4
  3
D0
350
1A5
  3
D1
350
1A6
  3
D2
350
1A7
  0
DICTIONARY
  5
7E
102
{ACAD_REACTORS
330
C
102
}
330
C
100
AcDbDictionary
281
     1
  3
Standard
350
7F
  0
DICTIONARY
  5
EF
102
{ACAD_REACTORS
330
C
102
}
330
C
100
AcDbDictionary
281
     1
  3
2dWireframe
350
F5
  3
3D Hidden
350
F7
  3
3dWireframe
350
F6
  3
Basic
350
F4
  3
Brighten
350
FB
  3
ColorChange
350
FF
  3
Conceptual
350
F8
  3
Dim
350
FA
  3
Facepattern
350
FE
  3
Flat
350
F0
  3
FlatWithEdges
350
F1
  3
Gouraud
350
F2
  3
GouraudWithEdges
350
F3
  3
Linepattern
350
FD
  3
Realistic
350
F9
  3
Thicken
350
FC
  0
XRECORD
  5
15D
102
{ACAD_REACTORS
330
C
102
}
330
C
100
AcDbXrecord
280
     1
 90
        1
330
7F
  0
DICTIONARY
  5
5E
102
{ACAD_REACTORS
330
C
102
}
330
C
100
AcDbDictionary
281
     1
  3
CANNOSCALE
350
146
  3
CMLEADERSTYLE
350
145
  3
CTABLESTYLE
350
84
  3
DIMASSOC
350
5F
  3
HIDETEXT
350
63
  3
INDEXCTL
350
6A0
  3
LIGHTINGUNITS
350
69E
  3
MSLTSCALE
350
69D
  3
PSOLHEIGHT
350
6A2
  3
PSOLWIDTH
350
6A1
  3
SORTENTS
350
69F
  0
XRECORD
  5
6A4
102
{ACAD_REACTORS
330
C
102
}
330
C
100
AcDbXrecord
280
     1
  1
DWGPROPS COOKIE
  2

  3

  4

  6

  7

  8
orhan kara
  9

300
=
301
=
302
=
303
=
304
=
305
=
306
=
307
=
308
=
309
=
 40
0.0006186805555556
 41
2458445.575988068
 42
2458956.433683831
  1

 90
        0
  0
XRECORD
  5
695
102
{ACAD_REACTORS
330
13C
102
}
330
13C
100
AcDbXrecord
280
     1
290
     1
  0
LAYOUT
  5
D3
102
{ACAD_XDICTIONARY
360
6A8
102
}
102
{ACAD_REACTORS
330
1A
102
}
330
1A
100
AcDbPlotSettings
  1

  2
C:\Documents and Settings\basas\Application Data\Autodesk\AutoCAD 2005\R16.1\enu\plotters\Default Windows System Printer.pc3
  4

  6

 40
0.0
 41
0.0
 42
0.0
 43
0.0
 44
0.0
 45
0.0
 46
0.0
 47
0.0
 48
0.0
 49
0.0
140
0.0
141
0.0
142
1.0
143
1.0
 70
   688
 72
     0
 73
     0
 74
     5
  7

 75
    16
147
1.0
148
0.0
149
0.0
100
AcDbLayout
  1
Layout1
 70
     1
 71
     1
 10
0.0
 20
0.0
 11
12.0
 21
9.0
 12
0.0
 22
0.0
 32
0.0
 14
0.0
 24
0.0
 34
0.0
 15
0.0
 25
0.0
 35
0.0
146
0.0
 13
0.0
 23
0.0
 33
0.0
 16
1.0
 26
0.0
 36
0.0
 17
0.0
 27
1.0
 37
0.0
 76
     0
330
D2
  0
LAYOUT
  5
D7
102
{ACAD_XDICTIONARY
360
6AA
102
}
102
{ACAD_REACTORS
330
1A
102
}
330
1A
100
AcDbPlotSettings
  1

  2
C:\Documents and Settings\basas\Application Data\Autodesk\AutoCAD 2005\R16.1\enu\plotters\Default Windows System Printer.pc3
  4

  6

 40
0.0
 41
0.0
 42
0.0
 43
0.0
 44
0.0
 45
0.0
 46
0.0
 47
0.0
 48
0.0
 49
0.0
140
0.0
141
0.0
142
1.0
143
1.0
 70
   688
 72
     0
 73
     0
 74
     5
  7

 75
    16
147
1.0
148
0.0
149
0.0
100
AcDbLayout
  1
Layout2
 70
     1
 71
     2
 10
0.0
 20
0.0
 11
12.0
 21
9.0
 12
0.0
 22
0.0
 32
0.0
 14
0.0
 24
0.0
 34
0.0
 15
0.0
 25
0.0
 35
0.0
146
0.0
 13
0.0
 23
0.0
 33
0.0
 16
1.0
 26
0.0
 36
0.0
 17
0.0
 27
1.0
 37
0.0
 76
     0
330
D6
  0
LAYOUT
  5
22
102
{ACAD_XDICTIONARY
360
6A5
102
}
102
{ACAD_REACTORS
330
1A
102
}
330
1A
100
AcDbPlotSettings
  1

  2
none_device
  4
ISO_A4_(210.00_x_297.00_MM)
  6

 40
7.5
 41
20.0
 42
7.5
 43
20.0
 44
210.0
 45
297.0
 46
11.54999923706054
 47
-13.65000009536743
 48
0.0
 49
0.0
140
0.0
141
0.0
142
1.0
143
8.704084754739808
 70
 11952
 72
     1
 73
     0
 74
     0
  7

 75
     0
147
0.1148885871608098
148
0.0
149
0.0
100
AcDbLayout
  1
Model
 70
     1
 71
     0
 10
0.0
 20
0.0
 11
12.0
 21
9.0
 12
0.0
 22
0.0
 32
0.0
 14
0.0
 24
0.0
 34
0.0
 15
0.0
 25
0.0
 35
0.0
146
0.0
 13
0.0
 23
0.0
 33
0.0
 16
1.0
 26
0.0
 36
0.0
 17
0.0
 27
1.0
 37
0.0
 76
     0
330
1F
331
EA
1001
ACAD_PSEXT
1000
None
1000
None
1000
Not applicable
1000
The layout will not be plotted unless a new plotter configuration name is selected.
1070
     0
  0
MATERIAL
  5
ED
102
{ACAD_XDICTIONARY
360
6AE
102
}
102
{ACAD_REACTORS
330
6A
102
}
330
6A
100
AcDbMaterial
  1
ByBlock
  0
MATERIAL
  5
EC
102
{ACAD_XDICTIONARY
360
6AC
102
}
102
{ACAD_REACTORS
330
6A
102
}
330
6A
100
AcDbMaterial
  1
ByLayer
  0
MATERIAL
  5
EE
102
{ACAD_XDICTIONARY
360
173
102
}
102
{ACAD_REACTORS
330
6A
102
}
330
6A
100
AcDbMaterial
  1
Global
 43
0.0007999999797903
 43
0.0
 43
0.0
 43
0.0
 43
0.0
 43
0.0007999999797903
 43
0.0
 43
0.0
 43
0.0
 43
0.0
 43
1.0
 43
0.0
 43
0.0
 43
0.0
 43
0.0
 43
1.0
 49
0.0007999999797903
 49
0.0
 49
0.0
 49
0.0
 49
0.0
 49
0.0007999999797903
 49
0.0
 49
0.0
 49
0.0
 49
0.0
 49
1.0
 49
0.0
 49
0.0
 49
0.0
 49
0.0
 49
1.0
142
0.0007999999797903
142
0.0
142
0.0
142
0.0
142
0.0
142
0.0007999999797903
142
0.0
142
0.0
142
0.0
142
0.0
142
1.0
142
0.0
142
0.0
142
0.0
142
0.0
142
1.0
144
0.0007999999797903
144
0.0
144
0.0
144
0.0
144
0.0
144
0.0007999999797903
144
0.0
144
0.0
144
0.0
144
0.0
144
1.0
144
0.0
144
0.0
144
0.0
144
0.0
144
1.0
1001
ACAD
1070
    -1
1070
     3
1070
     0
1000

1071
        0
1070
     0
  0
MLEADERSTYLE
  5
13B
102
{ACAD_REACTORS
330
12D
102
}
330
12D
100
AcDbMLeaderStyle
170
     2
171
     1
172
     0
 90
        2
 40
0.0
 41
0.0
173
     1
 91
-1056964608
340
14
 92
       -2
290
     1
 42
2.0
291
     1
 43
8.0
  3
Standard
 44
4.0
300

342
11
174
     1
178
     1
175
     1
176
     0
 93
-1056964608
 45
4.0
292
     0
297
     0
 46
4.0
 94
-1056964608
 47
1.0
 49
1.0
140
1.0
293
     1
141
0.0
294
     1
177
     0
142
1.0
295
     0
296
     1
143
3.75
1001
ACAD_MLEADERVER
1070
     2
  0
MLEADERSTYLE
  5
12E
102
{ACAD_REACTORS
330
12D
102
}
330
12D
100
AcDbMLeaderStyle
170
     2
171
     1
172
     0
 90
        2
 40
0.0
 41
0.0
173
     1
 91
-1056964608
340
14
 92
       -2
290
     1
 42
2.0
291
     1
 43
8.0
  3
Standard
 44
4.0
300

342
11
174
     1
178
     1
175
     1
176
     0
 93
-1056964608
 45
4.0
292
     0
297
     0
 46
4.0
 94
-1056964608
 47
1.0
 49
1.0
140
1.0
293
     1
141
0.0
294
     1
177
     0
142
1.0
295
     0
296
     0
143
3.75
1001
ACAD_MLEADERVER
1070
     2
  0
MLINESTYLE
  5
18
102
{ACAD_REACTORS
330
17
102
}
330
17
100
AcDbMlineStyle
  2
STANDARD
 70
     0
  3

 62
   256
 51
90.0
 52
90.0
 71
     2
 49
0.5
 62
   256
  6
BYLAYER
 49
-0.5
 62
   256
  6
BYLAYER
  0
ACDBPLACEHOLDER
  5
F
102
{ACAD_REACTORS
330
E
102
}
330
E
  0
SCALE
  5
10D
102
{ACAD_REACTORS
330
10C
102
}
330
10C
100
AcDbScale
 70
     0
300
1:1
140
1.0
141
1.0
290
     1
  0
SCALE
  5
188
102
{ACAD_REACTORS
330
10C
102
}
330
10C
100
AcDbScale
 70
     0
300
1:2
140
1.0
141
2.0
290
     0
  0
SCALE
  5
189
102
{ACAD_REACTORS
330
10C
102
}
330
10C
100
AcDbScale
 70
     0
300
1:4
140
1.0
141
4.0
290
     0
  0
SCALE
  5
18A
102
{ACAD_REACTORS
330
10C
102
}
330
10C
100
AcDbScale
 70
     0
300
1:5
140
1.0
141
5.0
290
     0
  0
SCALE
  5
18B
102
{ACAD_REACTORS
330
10C
102
}
330
10C
100
AcDbScale
 70
     0
300
1:8
140
1.0
141
8.0
290
     0
  0
SCALE
  5
18C
102
{ACAD_REACTORS
330
10C
102
}
330
10C
100
AcDbScale
 70
     0
300
1:10
140
1.0
141
10.0
290
     0
  0
SCALE
  5
18D
102
{ACAD_REACTORS
330
10C
102
}
330
10C
100
AcDbScale
 70
     0
300
1:16
140
1.0
141
16.0
290
     0
  0
SCALE
  5
18E
102
{ACAD_REACTORS
330
10C
102
}
330
10C
100
AcDbScale
 70
     0
300
1:20
140
1.0
141
20.0
290
     0
  0
SCALE
  5
18F
102
{ACAD_REACTORS
330
10C
102
}
330
10C
100
AcDbScale
 70
     0
300
1:30
140
1.0
141
30.0
290
     0
  0
SCALE
  5
190
102
{ACAD_REACTORS
330
10C
102
}
330
10C
100
AcDbScale
 70
     0
300
1:40
140
1.0
141
40.0
290
     0
  0
SCALE
  5
191
102
{ACAD_REACTORS
330
10C
102
}
330
10C
100
AcDbScale
 70
     0
300
1:50
140
1.0
141
50.0
290
     0
  0
SCALE
  5
192
102
{ACAD_REACTORS
330
10C
102
}
330
10C
100
AcDbScale
 70
     0
300
1:100
140
1.0
141
100.0
290
     0
  0
SCALE
  5
193
102
{ACAD_REACTORS
330
10C
102
}
330
10C
100
AcDbScale
 70
     0
300
2:1
140
2.0
141
1.0
290
     0
  0
SCALE
  5
194
102
{ACAD_REACTORS
330
10C
102
}
330
10C
100
AcDbScale
 70
     0
300
4:1
140
4.0
141
1.0
290
     0
  0
SCALE
  5
195
102
{ACAD_REACTORS
330
10C
102
}
330
10C
100
AcDbScale
 70
     0
300
8:1
140
8.0
141
1.0
290
     0
  0
SCALE
  5
196
102
{ACAD_REACTORS
330
10C
102
}
330
10C
100
AcDbScale
 70
     0
300
10:1
140
10.0
141
1.0
290
     0
  0
SCALE
  5
197
102
{ACAD_REACTORS
330
10C
102
}
330
10C
100
AcDbScale
 70
     0
300
100:1
140
100.0
141
1.0
290
     0
  0
SCALE
  5
198
102
{ACAD_REACTORS
330
10C
102
}
330
10C
100
AcDbScale
 70
     0
300
1/128" = 1'-0"
140
0.0078125
141
12.0
290
     0
  0
SCALE
  5
199
102
{ACAD_REACTORS
330
10C
102
}
330
10C
100
AcDbScale
 70
     0
300
1/64" = 1'-0"
140
0.015625
141
12.0
290
     0
  0
SCALE
  5
19A
102
{ACAD_REACTORS
330
10C
102
}
330
10C
100
AcDbScale
 70
     0
300
1/32" = 1'-0"
140
0.03125
141
12.0
290
     0
  0
SCALE
  5
19B
102
{ACAD_REACTORS
330
10C
102
}
330
10C
100
AcDbScale
 70
     0
300
1/16" = 1'-0"
140
0.0625
141
12.0
290
     0
  0
SCALE
  5
19C
102
{ACAD_REACTORS
330
10C
102
}
330
10C
100
AcDbScale
 70
     0
300
3/32" = 1'-0"
140
0.09375
141
12.0
290
     0
  0
SCALE
  5
19D
102
{ACAD_REACTORS
330
10C
102
}
330
10C
100
AcDbScale
 70
     0
300
1/8" = 1'-0"
140
0.125
141
12.0
290
     0
  0
SCALE
  5
19E
102
{ACAD_REACTORS
330
10C
102
}
330
10C
100
AcDbScale
 70
     0
300
3/16" = 1'-0"
140
0.1875
141
12.0
290
     0
  0
SCALE
  5
19F
102
{ACAD_REACTORS
330
10C
102
}
330
10C
100
AcDbScale
 70
     0
300
1/4" = 1'-0"
140
0.25
141
12.0
290
     0
  0
SCALE
  5
1A0
102
{ACAD_REACTORS
330
10C
102
}
330
10C
100
AcDbScale
 70
     0
300
3/8" = 1'-0"
140
0.375
141
12.0
290
     0
  0
SCALE
  5
1A1
102
{ACAD_REACTORS
330
10C
102
}
330
10C
100
AcDbScale
 70
     0
300
1/2" = 1'-0"
140
0.5
141
12.0
290
     0
  0
SCALE
  5
1A2
102
{ACAD_REACTORS
330
10C
102
}
330
10C
100
AcDbScale
 70
     0
300
3/4" = 1'-0"
140
0.75
141
12.0
290
     0
  0
SCALE
  5
1A3
102
{ACAD_REACTORS
330
10C
102
}
330
10C
100
AcDbScale
 70
     0
300
1" = 1'-0"
140
1.0
141
12.0
290
     0
  0
SCALE
  5
1A4
102
{ACAD_REACTORS
330
10C
102
}
330
10C
100
AcDbScale
 70
     0
300
1-1/2" = 1'-0"
140
1.5
141
12.0
290
     0
  0
SCALE
  5
1A5
102
{ACAD_REACTORS
330
10C
102
}
330
10C
100
AcDbScale
 70
     0
300
3" = 1'-0"
140
3.0
141
12.0
290
     0
  0
SCALE
  5
1A6
102
{ACAD_REACTORS
330
10C
102
}
330
10C
100
AcDbScale
 70
     0
300
6" = 1'-0"
140
6.0
141
12.0
290
     0
  0
SCALE
  5
1A7
102
{ACAD_REACTORS
330
10C
102
}
330
10C
100
AcDbScale
 70
     0
300
1'-0" = 1'-0"
140
12.0
141
12.0
290
     0
  0
TABLESTYLE
  5
7F
102
{ACAD_XDICTIONARY
360
162
102
}
102
{ACAD_REACTORS
330
7E
102
}
330
7E
100
AcDbTableStyle
  3
Standard
 70
     0
 71
     0
 40
1.5
 41
1.5
280
     0
281
     0
  7
Standard
140
4.5
170
     2
 62
     0
 63
     7
283
     0
274
    -2
284
     1
 64
     0
275
    -2
285
     1
 65
     0
276
    -2
286
     1
 66
     0
277
    -2
287
     1
 67
     0
278
    -2
288
     1
 68
     0
279
    -2
289
     1
 69
     0
  7
Standard
140
6.0
170
     5
 62
     0
 63
     7
283
     0
274
    -2
284
     1
 64
     0
275
    -2
285
     1
 65
     0
276
    -2
286
     1
 66
     0
277
    -2
287
     1
 67
     0
278
    -2
288
     1
 68
     0
279
    -2
289
     1
 69
     0
  7
Standard
140
4.5
170
     5
 62
     0
 63
     7
283
     0
274
    -2
284
     1
 64
     0
275
    -2
285
     1
 65
     0
276
    -2
286
     1
 66
     0
277
    -2
287
     1
 67
     0
278
    -2
288
     1
 68
     0
279
    -2
289
     1
 69
     0
  0
VISUALSTYLE
  5
F5
102
{ACAD_REACTORS
330
EF
102
}
330
EF
100
AcDbVisualStyle
  2
2dWireframe
 70
     4
 71
     0
 72
     2
 73
     1
 90
        0
 40
-0.6
 41
-30.0
 62
     5
 63
     7
 74
     1
 91
        4
 64
     7
 65
   257
 75
     1
175
     1
 42
1.0
 92
        0
 66
   257
 43
1.0
 76
     1
 77
     6
 78
     2
 67
     7
 79
     5
170
     0
171
     0
290
     0
174
     0
 93
        1
 44
0.0
173
     0
291
     0
 45
0.0
1001
ACAD
1000
AcDbSavedByObjectVersion
1070
     0
  0
VISUALSTYLE
  5
F7
102
{ACAD_REACTORS
330
EF
102
}
330
EF
100
AcDbVisualStyle
  2
3D Hidden
 70
     6
 71
     1
 72
     2
 73
     2
 90
        0
 40
-0.6
 41
-30.0
 62
     5
 63
     7
 74
     2
 91
        2
 64
     7
 65
   257
 75
     2
175
     1
 42
40.0
 92
        0
 66
   257
 43
1.0
 76
     1
 77
     6
 78
     2
 67
     7
 79
     3
170
     0
171
     0
290
     0
174
     0
 93
        1
 44
0.0
173
     0
291
     0
 45
0.0
1001
ACAD
1000
AcDbSavedByObjectVersion
1070
     0
  0
VISUALSTYLE
  5
F6
102
{ACAD_REACTORS
330
EF
102
}
330
EF
100
AcDbVisualStyle
  2
3dWireframe
 70
     5
 71
     0
 72
     2
 73
     1
 90
        0
 40
-0.6
 41
-30.0
 62
     5
 63
     7
 74
     1
 91
        4
 64
     7
 65
   257
 75
     1
175
     1
 42
1.0
 92
        0
 66
   257
 43
1.0
 76
     1
 77
     6
 78
     2
 67
     7
 79
     5
170
     0
171
     0
290
     0
174
     0
 93
        1
 44
0.0
173
     0
291
     0
 45
0.0
1001
ACAD
1000
AcDbSavedByObjectVersion
1070
     0
  0
VISUALSTYLE
  5
F4
102
{ACAD_REACTORS
330
EF
102
}
330
EF
100
AcDbVisualStyle
  2
Basic
 70
     7
 71
     1
 72
     0
 73
     1
 90
        0
 40
-0.6
 41
-30.0
 62
     5
 63
     7
 74
     0
 91
        4
 64
     7
 65
   257
 75
     1
175
     1
 42
1.0
 92
        8
 66
     7
 43
1.0
 76
     1
 77
     6
 78
     2
 67
     7
 79
     5
170
     0
171
     0
290
     0
174
     0
 93
        1
 44
0.0
173
     0
291
     1
 45
0.0
1001
ACAD
1000
AcDbSavedByObjectVersion
1070
     0
  0
VISUALSTYLE
  5
FB
102
{ACAD_REACTORS
330
EF
102
}
330
EF
100
AcDbVisualStyle
  2
Brighten
 70
    12
 71
     2
 72
     2
 73
     1
 90
        0
 40
-0.6
 41
-30.0
 62
     5
 63
     7
 74
     1
 91
        4
 64
     7
 65
   257
 75
     1
175
     1
 42
1.0
 92
        8
 66
     7
 43
1.0
 76
     1
 77
     6
 78
     2
 67
     7
 79
     5
170
     0
171
     0
290
     0
174
     0
 93
        1
 44
50.0
173
     0
291
     1
 45
0.0
1001
ACAD
1000
AcDbSavedByObjectVersion
1070
     0
  0
VISUALSTYLE
  5
FF
102
{ACAD_REACTORS
330
EF
102
}
330
EF
100
AcDbVisualStyle
  2
ColorChange
 70
    16
 71
     2
 72
     2
 73
     3
 90
        0
 40
-0.6
 41
-30.0
 62
     5
 63
     8
 74
     1
 91
        4
 64
     7
 65
   257
 75
     1
175
     1
 42
1.0
 92
        8
 66
     8
 43
1.0
 76
     1
 77
     6
 78
     2
 67
     7
 79
     5
170
     0
171
     0
290
     0
174
     0
 93
        1
 44
0.0
173
     0
291
     1
 45
0.0
1001
ACAD
1000
AcDbSavedByObjectVersion
1070
     0
  0
VISUALSTYLE
  5
F8
102
{ACAD_REACTORS
330
EF
102
}
330
EF
100
AcDbVisualStyle
  2
Conceptual
 70
     9
 71
     3
 72
     2
 73
     1
 90
        0
 40
-0.6
 41
-30.0
 62
     5
 63
     7
 74
     2
 91
        2
 64
     7
 65
   257
 75
     1
175
     1
 42
40.0
 92
        8
 66
     7
 43
1.0
 76
     1
 77
     6
 78
     2
 67
     7
 79
     3
170
     0
171
     0
290
     0
174
     0
 93
        1
 44
0.0
173
     0
291
     0
 45
0.0
1001
ACAD
1000
AcDbSavedByObjectVersion
1070
     0
  0
VISUALSTYLE
  5
FA
102
{ACAD_REACTORS
330
EF
102
}
330
EF
100
AcDbVisualStyle
  2
Dim
 70
    11
 71
     2
 72
     2
 73
     1
 90
        0
 40
-0.6
 41
-30.0
 62
     5
 63
     7
 74
     1
 91
        4
 64
     7
 65
   257
 75
     1
175
     1
 42
1.0
 92
        8
 66
     7
 43
1.0
 76
     1
 77
     6
 78
     2
 67
     7
 79
     5
170
     0
171
     0
290
     0
174
     0
 93
        1
 44
-50.0
173
     0
291
     1
 45
0.0
1001
ACAD
1000
AcDbSavedByObjectVersion
1070
     0
  0
VISUALSTYLE
  5
FE
102
{ACAD_REACTORS
330
EF
102
}
330
EF
100
AcDbVisualStyle
  2
Facepattern
 70
    15
 71
     2
 72
     2
 73
     1
 90
        0
 40
-0.6
 41
-30.0
 62
     5
 63
     7
 74
     1
 91
        4
 64
     7
 65
   257
 75
     1
175
     1
 42
1.0
 92
        8
 66
     7
 43
1.0
 76
     1
 77
     6
 78
     2
 67
     7
 79
     5
170
     0
171
     0
290
     0
174
     0
 93
        1
 44
0.0
173
     0
291
     1
 45
0.0
1001
ACAD
1000
AcDbSavedByObjectVersion
1070
     0
  0
VISUALSTYLE
  5
F0
102
{ACAD_REACTORS
330
EF
102
}
330
EF
100
AcDbVisualStyle
  2
Flat
 70
     0
 71
     2
 72
     1
 73
     1
 90
        2
 40
-0.6
 41
30.0
 62
     5
 63
     7
 74
     0
 91
        4
 64
     7
 65
   257
 75
     1
175
     1
 42
1.0
 92
        8
 66
     7
 43
1.0
 76
     1
 77
     6
 78
     2
 67
     7
 79
     5
170
     0
171
     0
290
     0
174
     0
 93
        1
 44
0.0
173
     0
291
     1
 45
0.0
1001
ACAD
1000
AcDbSavedByObjectVersion
1070
     0
  0
VISUALSTYLE
  5
F1
102
{ACAD_REACTORS
330
EF
102
}
330
EF
100
AcDbVisualStyle
  2
FlatWithEdges
 70
     1
 71
     2
 72
     1
 73
     1
 90
        2
 40
-0.6
 41
30.0
 62
     5
 63
     7
 74
     1
 91
        4
 64
     7
 65
   257
 75
     1
175
     1
 42
1.0
 92
        0
 66
   257
 43
1.0
 76
     1
 77
     6
 78
     2
 67
     7
 79
     5
170
     0
171
     0
290
     0
174
     0
 93
        1
 44
0.0
173
     0
291
     1
 45
0.0
1001
ACAD
1000
AcDbSavedByObjectVersion
1070
     0
  0
VISUALSTYLE
  5
F2
102
{ACAD_REACTORS
330
EF
102
}
330
EF
100
AcDbVisualStyle
  2
Gouraud
 70
     2
 71
     2
 72
     2
 73
     1
 90
        2
 40
-0.6
 41
30.0
 62
     5
 63
     7
 74
     0
 91
        4
 64
     7
 65
   257
 75
     1
175
     1
 42
1.0
 92
        0
 66
     7
 43
1.0
 76
     1
 77
     6
 78
     2
 67
     7
 79
     5
170
     0
171
     0
290
     0
174
     0
 93
        1
 44
0.0
173
     0
291
     1
 45
0.0
1001
ACAD
1000
AcDbSavedByObjectVersion
1070
     0
  0
VISUALSTYLE
  5
F3
102
{ACAD_REACTORS
330
EF
102
}
330
EF
100
AcDbVisualStyle
  2
GouraudWithEdges
 70
     3
 71
     2
 72
     2
 73
     1
 90
        2
 40
-0.6
 41
30.0
 62
     5
 63
     7
 74
     1
 91
        4
 64
     7
 65
   257
 75
     1
175
     1
 42
1.0
 92
        0
 66
   257
 43
1.0
 76
     1
 77
     6
 78
     2
 67
     7
 79
     5
170
     0
171
     0
290
     0
174
     0
 93
        1
 44
0.0
173
     0
291
     1
 45
0.0
1001
ACAD
1000
AcDbSavedByObjectVersion
1070
     0
  0
VISUALSTYLE
  5
FD
102
{ACAD_REACTORS
330
EF
102
}
330
EF
100
AcDbVisualStyle
  2
Linepattern
 70
    14
 71
     2
 72
     2
 73
     1
 90
        0
 40
-0.6
 41
-30.0
 62
     5
 63
     7
 74
     1
 91
        4
 64
     7
 65
   257
 75
     7
175
     7
 42
1.0
 92
        8
 66
     7
 43
1.0
 76
     1
 77
     6
 78
     2
 67
     7
 79
     5
170
     0
171
     0
290
     0
174
     0
 93
        1
 44
0.0
173
     0
291
     1
 45
0.0
1001
ACAD
1000
AcDbSavedByObjectVersion
1070
     0
  0
VISUALSTYLE
  5
F9
102
{ACAD_REACTORS
330
EF
102
}
330
EF
100
AcDbVisualStyle
  2
Realistic
 70
     8
 71
     2
 72
     2
 73
     1
 90
        0
 40
-0.6
 41
-30.0
 62
     5
 63
     7
 74
     1
 91
        0
 64
     7
 65
   257
 75
     1
175
     1
 42
1.0
 92
        8
 66
     8
 43
1.0
 76
     1
 77
     6
 78
     2
 67
     7
 79
     5
170
     0
171
     0
290
     0
174
     0
 93
       13
 44
0.0
173
     0
291
     0
 45
0.0
1001
ACAD
1000
AcDbSavedByObjectVersion
1070
     0
  0
VISUALSTYLE
  5
FC
102
{ACAD_REACTORS
330
EF
102
}
330
EF
100
AcDbVisualStyle
  2
Thicken
 70
    13
 71
     2
 72
     2
 73
     1
 90
        0
 40
-0.6
 41
-30.0
 62
     5
 63
     7
 74
     1
 91
        4
 64
     7
 65
   257
 75
     1
175
     1
 42
1.0
 92
       12
 66
     7
 43
1.0
 76
     1
 77
     6
 78
     2
 67
     7
 79
     5
170
     0
171
     0
290
     0
174
     0
 93
        1
 44
0.0
173
     0
291
     1
 45
0.0
1001
ACAD
1000
AcDbSavedByObjectVersion
1070
     0
  0
DICTIONARYVAR
  5
146
102
{ACAD_REACTORS
330
5E
102
}
330
5E
100
DictionaryVariables
280
     0
  1
1:1
  0
DICTIONARYVAR
  5
145
102
{ACAD_REACTORS
330
5E
102
}
330
5E
100
DictionaryVariables
280
     0
  1
STANDARD
  0
DICTIONARYVAR
  5
84
102
{ACAD_REACTORS
330
5E
102
}
330
5E
100
DictionaryVariables
280
     0
  1
STANDARD
  0
DICTIONARYVAR
  5
5F
102
{ACAD_REACTORS
330
5E
102
}
330
5E
100
DictionaryVariables
280
     0
  1
2
  0
DICTIONARYVAR
  5
63
102
{ACAD_REACTORS
330
5E
102
}
330
5E
100
DictionaryVariables
280
     0
  1
1
  0
DICTIONARYVAR
  5
6A0
102
{ACAD_REACTORS
330
5E
102
}
330
5E
100
DictionaryVariables
280
     0
  1
0
  0
DICTIONARYVAR
  5
69E
102
{ACAD_REACTORS
330
5E
102
}
330
5E
100
DictionaryVariables
280
     0
  1
2
  0
DICTIONARYVAR
  5
69D
102
{ACAD_REACTORS
330
5E
102
}
330
5E
100
DictionaryVariables
280
     0
  1
1
  0
DICTIONARYVAR
  5
6A2
102
{ACAD_REACTORS
330
5E
102
}
330
5E
100
DictionaryVariables
280
     0
  1
80.000000
  0
DICTIONARYVAR
  5
6A1
102
{ACAD_REACTORS
330
5E
102
}
330
5E
100
DictionaryVariables
280
     0
  1
5.000000
  0
DICTIONARYVAR
  5
69F
102
{ACAD_REACTORS
330
5E
102
}
330
5E
100
DictionaryVariables
280
     0
  1
127
  0
DICTIONARY
  5
6A8
330
D3
100
AcDbDictionary
280
     1
281
     1
  3
ACAD_XREC_ROUNDTRIP
360
6A9
  0
DICTIONARY
  5
6AA
330
D7
100
AcDbDictionary
280
     1
281
     1
  3
ACAD_XREC_ROUNDTRIP
360
6AB
  0
DICTIONARY
  5
6A5
330
22
100
AcDbDictionary
280
     1
281
     1
  3
ACAD_XREC_ROUNDTRIP
360
6A6
  0
DICTIONARY
  5
6AE
330
ED
100
AcDbDictionary
280
     1
281
     1
  3
ACAD_XREC_ROUNDTRIP
360
6AF
  0
DICTIONARY
  5
6AC
330
EC
100
AcDbDictionary
280
     1
281
     1
  3
ACAD_XREC_ROUNDTRIP
360
6AD
  0
DICTIONARY
  5
173
330
EE
100
AcDbDictionary
280
     1
281
     1
  3
ACAD_XREC_ROUNDTRIP
360
6B0
  3
BUMPTILE
360
175
  3
DIFFUSETILE
360
174
  3
OPACITYTILE
360
176
  3
REFLECTIONTILE
360
177
  0
DICTIONARY
  5
162
330
7F
100
AcDbDictionary
280
     1
281
     1
  3
ACAD_ROUNDTRIP_2008_TABLESTYLE_CELLSTYLEMAP
360
6A3
  3
ACAD_XREC_ROUNDTRIP
360
6A7
  0
XRECORD
  5
6A9
102
{ACAD_REACTORS
330
6A8
102
}
330
6A8
100
AcDbXrecord
280
     1
102
SHADEPLOT
 70
     0
102
SHADEPLOTRESLEVEL
 70
     2
102
SHADEPLOTCUSTOMDPI
 70
   300
  0
XRECORD
  5
6AB
102
{ACAD_REACTORS
330
6AA
102
}
330
6AA
100
AcDbXrecord
280
     1
102
SHADEPLOT
 70
     0
102
SHADEPLOTRESLEVEL
 70
     2
102
SHADEPLOTCUSTOMDPI
 70
   300
  0
XRECORD
  5
6A6
102
{ACAD_REACTORS
330
6A5
102
}
330
6A5
100
AcDbXrecord
280
     1
102
SHADEPLOT
 70
     0
102
SHADEPLOTRESLEVEL
 70
     2
102
SHADEPLOTCUSTOMDPI
 70
   300
  0
XRECORD
  5
6AF
102
{ACAD_REACTORS
330
6AE
102
}
330
6AE
100
AcDbXrecord
280
     1
102
MATERIAL
148
0.0
149
0.0
149
0.0
 93
        0
 94
       63
282
     0
 72
     1
 77
     1
171
     1
175
     1
179
     1
273
     0
  0
XRECORD
  5
6AD
102
{ACAD_REACTORS
330
6AC
102
}
330
6AC
100
AcDbXrecord
280
     1
102
MATERIAL
148
0.0
149
0.0
149
0.0
 93
        0
 94
       63
282
     0
 72
     1
 77
     1
171
     1
175
     1
179
     1
273
     0
  0
XRECORD
  5
6B0
102
{ACAD_REACTORS
330
173
102
}
330
173
100
AcDbXrecord
280
     1
102
MATERIAL
148
0.0
149
0.0
149
0.0
 93
        0
 94
       63
282
     0
 72
     1
 77
     1
171
     1
175
     1
179
     1
273
     0
  0
XRECORD
  5
175
102
{ACAD_REACTORS
330
173
102
}
330
173
100
AcDbXrecord
280
     1
270
     1
271
     1
  0
XRECORD
  5
174
102
{ACAD_REACTORS
330
173
102
}
330
173
100
AcDbXrecord
280
     1
270
     1
271
     1
  0
XRECORD
  5
176
102
{ACAD_REACTORS
330
173
102
}
330
173
100
AcDbXrecord
280
     1
270
     1
271
     1
  0
XRECORD
  5
177
102
{ACAD_REACTORS
330
173
102
}
330
173
100
AcDbXrecord
280
     1
270
     1
271
     1
  0
CELLSTYLEMAP
  5
6A3
102
{ACAD_REACTORS
330
162
102
}
330
162
100
AcDbCellStyleMap
 90
        3
300
CELLSTYLE
  1
TABLEFORMAT_BEGIN
 90
        5
170
     1
 91
        0
 92
    32768
 62
   257
 93
        1
300
CONTENTFORMAT
  1
CONTENTFORMAT_BEGIN
 90
        0
 91
        0
 92
      512
 93
        0
300

 40
0.0
140
1.0
 94
        5
 62
     0
340
11
144
6.0
309
CONTENTFORMAT_END
171
     1
301
MARGIN
  1
CELLMARGIN_BEGIN
 40
1.5
 40
1.5
 40
1.5
 40
1.5
 40
4.5
 40
4.5
309
CELLMARGIN_END
 94
        6
 95
        1
302
GRIDFORMAT
  1
GRIDFORMAT_BEGIN
 90
        0
 91
        1
 62
     0
 92
       -2
340
14
 93
        0
 40
1.125
309
GRIDFORMAT_END
 95
        2
302
GRIDFORMAT
  1
GRIDFORMAT_BEGIN
 90
        0
 91
        1
 62
     0
 92
       -2
340
14
 93
        0
 40
1.125
309
GRIDFORMAT_END
 95
        4
302
GRIDFORMAT
  1
GRIDFORMAT_BEGIN
 90
        0
 91
        1
 62
     0
 92
       -2
340
14
 93
        0
 40
1.125
309
GRIDFORMAT_END
 95
        8
302
GRIDFORMAT
  1
GRIDFORMAT_BEGIN
 90
        0
 91
        1
 62
     0
 92
       -2
340
14
 93
        0
 40
1.125
309
GRIDFORMAT_END
 95
       16
302
GRIDFORMAT
  1
GRIDFORMAT_BEGIN
 90
        0
 91
        1
 62
     0
 92
       -2
340
14
 93
        0
 40
1.125
309
GRIDFORMAT_END
 95
       32
302
GRIDFORMAT
  1
GRIDFORMAT_BEGIN
 90
        0
 91
        1
 62
     0
 92
       -2
340
14
 93
        0
 40
1.125
309
GRIDFORMAT_END
309
TABLEFORMAT_END
  1
CELLSTYLE_BEGIN
 90
        1
 91
        1
300
_TITLE
309
CELLSTYLE_END
300
CELLSTYLE
  1
TABLEFORMAT_BEGIN
 90
        5
170
     1
 91
        0
 92
        0
 62
   257
 93
        1
300
CONTENTFORMAT
  1
CONTENTFORMAT_BEGIN
 90
        0
 91
        0
 92
      512
 93
        0
300

 40
0.0
140
1.0
 94
        5
 62
     0
340
11
144
4.5
309
CONTENTFORMAT_END
171
     1
301
MARGIN
  1
CELLMARGIN_BEGIN
 40
1.5
 40
1.5
 40
1.5
 40
1.5
 40
4.5
 40
4.5
309
CELLMARGIN_END
 94
        6
 95
        1
302
GRIDFORMAT
  1
GRIDFORMAT_BEGIN
 90
        0
 91
        1
 62
     0
 92
       -2
340
14
 93
        0
 40
1.125
309
GRIDFORMAT_END
 95
        2
302
GRIDFORMAT
  1
GRIDFORMAT_BEGIN
 90
        0
 91
        1
 62
     0
 92
       -2
340
14
 93
        0
 40
1.125
309
GRIDFORMAT_END
 95
        4
302
GRIDFORMAT
  1
GRIDFORMAT_BEGIN
 90
        0
 91
        1
 62
     0
 92
       -2
340
14
 93
        0
 40
1.125
309
GRIDFORMAT_END
 95
        8
302
GRIDFORMAT
  1
GRIDFORMAT_BEGIN
 90
        0
 91
        1
 62
     0
 92
       -2
340
14
 93
        0
 40
1.125
309
GRIDFORMAT_END
 95
       16
302
GRIDFORMAT
  1
GRIDFORMAT_BEGIN
 90
        0
 91
        1
 62
     0
 92
       -2
340
14
 93
        0
 40
1.125
309
GRIDFORMAT_END
 95
       32
302
GRIDFORMAT
  1
GRIDFORMAT_BEGIN
 90
        0
 91
        1
 62
     0
 92
       -2
340
14
 93
        0
 40
1.125
309
GRIDFORMAT_END
309
TABLEFORMAT_END
  1
CELLSTYLE_BEGIN
 90
        2
 91
        1
300
_HEADER
309
CELLSTYLE_END
300
CELLSTYLE
  1
TABLEFORMAT_BEGIN
 90
        5
170
     1
 91
        0
 92
        0
 62
   257
 93
        1
300
CONTENTFORMAT
  1
CONTENTFORMAT_BEGIN
 90
        0
 91
        0
 92
      512
 93
        0
300

 40
0.0
140
1.0
 94
        2
 62
     0
340
11
144
4.5
309
CONTENTFORMAT_END
171
     1
301
MARGIN
  1
CELLMARGIN_BEGIN
 40
1.5
 40
1.5
 40
1.5
 40
1.5
 40
4.5
 40
4.5
309
CELLMARGIN_END
 94
        6
 95
        1
302
GRIDFORMAT
  1
GRIDFORMAT_BEGIN
 90
        0
 91
        1
 62
     0
 92
       -2
340
14
 93
        0
 40
1.125
309
GRIDFORMAT_END
 95
        2
302
GRIDFORMAT
  1
GRIDFORMAT_BEGIN
 90
        0
 91
        1
 62
     0
 92
       -2
340
14
 93
        0
 40
1.125
309
GRIDFORMAT_END
 95
        4
302
GRIDFORMAT
  1
GRIDFORMAT_BEGIN
 90
        0
 91
        1
 62
     0
 92
       -2
340
14
 93
        0
 40
1.125
309
GRIDFORMAT_END
 95
        8
302
GRIDFORMAT
  1
GRIDFORMAT_BEGIN
 90
        0
 91
        1
 62
     0
 92
       -2
340
14
 93
        0
 40
1.125
309
GRIDFORMAT_END
 95
       16
302
GRIDFORMAT
  1
GRIDFORMAT_BEGIN
 90
        0
 91
        1
 62
     0
 92
       -2
340
14
 93
        0
 40
1.125
309
GRIDFORMAT_END
 95
       32
302
GRIDFORMAT
  1
GRIDFORMAT_BEGIN
 90
        0
 91
        1
 62
     0
 92
       -2
340
14
 93
        0
 40
1.125
309
GRIDFORMAT_END
309
TABLEFORMAT_END
  1
CELLSTYLE_BEGIN
 90
        3
 91
        2
300
_DATA
309
CELLSTYLE_END
  0
XRECORD
  5
6A7
102
{ACAD_REACTORS
330
162
102
}
330
162
100
AcDbXrecord
280
     1
102
ACAD_ROUNDTRIP_PRE2007_TABLESTYLE
 90
      512
 91
        0
  1

 92
      512
 93
        0
  2

 94
      512
 95
        0
  3

  0
ENDSEC
  0
EOF
