  0
SECTION
  2
HEADER
  9
$ACADVER
  1
AC1015
  9
$ACADMAINTVER
 70
    20
  9
$DWGCODEPAGE
  3
ANSI_1254
  9
$INSBASE
 10
0.0
 20
0.0
 30
0.0
  9
$EXTMIN
 10
1639.763764245475
 20
1119.285266997132
 30
0.0
  9
$EXTMAX
 10
1796.15232436555
 20
1212.442118581479
 30
0.0
  9
$LIMMIN
 10
0.0
 20
0.0
  9
$LIMMAX
 10
420.0
 20
297.0
  9
$ORTHOMODE
 70
     1
  9
$REGENMODE
 70
     1
  9
$FILLMODE
 70
     1
  9
$QTEXTMODE
 70
     0
  9
$MIRRTEXT
 70
     0
  9
$LTSCALE
 40
1.0
  9
$ATTMODE
 70
     1
  9
$TEXTSIZE
 40
2.5
  9
$TRACEWID
 40
1.0
  9
$TEXTSTYLE
  7
Standard
  9
$CLAYER
  8
0
  9
$CELTYPE
  6
ByLayer
  9
$CECOLOR
 62
   256
  9
$CELTSCALE
 40
1.0
  9
$DISPSILH
 70
     0
  9
$DIMSCALE
 40
1.0
  9
$DIMASZ
 40
2.5
  9
$DIMEXO
 40
0.625
  9
$DIMDLI
 40
3.75
  9
$DIMRND
 40
0.0
  9
$DIMDLE
 40
0.0
  9
$DIMEXE
 40
1.25
  9
$DIMTP
 40
0.0
  9
$DIMTM
 40
0.0
  9
$DIMTXT
 40
2.5
  9
$DIMCEN
 40
2.5
  9
$DIMTSZ
 40
0.0
  9
$DIMTOL
 70
     0
  9
$DIMLIM
 70
     0
  9
$DIMTIH
 70
     0
  9
$DIMTOH
 70
     0
  9
$DIMSE1
 70
     0
  9
$DIMSE2
 70
     0
  9
$DIMTAD
 70
     1
  9
$DIMZIN
 70
     8
  9
$DIMBLK
  1

  9
$DIMASO
 70
     1
  9
$DIMSHO
 70
     1
  9
$DIMPOST
  1

  9
$DIMAPOST
  1

  9
$DIMALT
 70
     0
  9
$DIMALTD
 70
     3
  9
$DIMALTF
 40
0.03937007874016
  9
$DIMLFAC
 40
1.0
  9
$DIMTOFL
 70
     1
  9
$DIMTVP
 40
0.0
  9
$DIMTIX
 70
     0
  9
$DIMSOXD
 70
     0
  9
$DIMSAH
 70
     0
  9
$DIMBLK1
  1

  9
$DIMBLK2
  1

  9
$DIMSTYLE
  2
ISO-25
  9
$DIMCLRD
 70
     0
  9
$DIMCLRE
 70
     0
  9
$DIMCLRT
 70
     0
  9
$DIMTFAC
 40
1.0
  9
$DIMGAP
 40
0.625
  9
$DIMJUST
 70
     0
  9
$DIMSD1
 70
     0
  9
$DIMSD2
 70
     0
  9
$DIMTOLJ
 70
     0
  9
$DIMTZIN
 70
     8
  9
$DIMALTZ
 70
     0
  9
$DIMALTTZ
 70
     0
  9
$DIMUPT
 70
     0
  9
$DIMDEC
 70
     2
  9
$DIMTDEC
 70
     2
  9
$DIMALTU
 70
     2
  9
$DIMALTTD
 70
     3
  9
$DIMTXSTY
  7
Standard
  9
$DIMAUNIT
 70
     0
  9
$DIMADEC
 70
     0
  9
$DIMALTRND
 40
0.0
  9
$DIMAZIN
 70
     0
  9
$DIMDSEP
 70
    44
  9
$DIMATFIT
 70
     3
  9
$DIMFRAC
 70
     0
  9
$DIMLDRBLK
  1

  9
$DIMLUNIT
 70
     2
  9
$DIMLWD
 70
    -2
  9
$DIMLWE
 70
    -2
  9
$DIMTMOVE
 70
     0
  9
$LUNITS
 70
     2
  9
$LUPREC
 70
     4
  9
$SKETCHINC
 40
1.0
  9
$FILLETRAD
 40
0.0
  9
$AUNITS
 70
     0
  9
$AUPREC
 70
     0
  9
$MENU
  1
.
  9
$ELEVATION
 40
0.0
  9
$PELEVATION
 40
0.0
  9
$THICKNESS
 40
0.0
  9
$LIMCHECK
 70
     0
  9
$CHAMFERA
 40
0.0
  9
$CHAMFERB
 40
0.0
  9
$CHAMFERC
 40
0.0
  9
$CHAMFERD
 40
0.0
  9
$SKPOLY
 70
     0
  9
$TDCREATE
 40
2458445.387361980
  9
$TDUCREATE
 40
2458445.262361979
  9
$TDUPDATE
 40
2458956.402436458
  9
$TDUUPDATE
 40
2458956.277436459
  9
$TDINDWG
 40
0.0019918519
  9
$TDUSRTIMER
 40
0.0019918519
  9
$USRTIMER
 70
     1
  9
$ANGBASE
 50
0.0
  9
$ANGDIR
 70
     0
  9
$PDMODE
 70
     0
  9
$PDSIZE
 40
0.0
  9
$PLINEWID
 40
0.0
  9
$SPLFRAME
 70
     0
  9
$SPLINETYPE
 70
     6
  9
$SPLINESEGS
 70
     8
  9
$HANDSEED
  5
D6C
  9
$SURFTAB1
 70
     6
  9
$SURFTAB2
 70
     6
  9
$SURFTYPE
 70
     6
  9
$SURFU
 70
     6
  9
$SURFV
 70
     6
  9
$UCSBASE
  2

  9
$UCSNAME
  2

  9
$UCSORG
 10
0.0
 20
0.0
 30
0.0
  9
$UCSXDIR
 10
1.0
 20
0.0
 30
0.0
  9
$UCSYDIR
 10
0.0
 20
1.0
 30
0.0
  9
$UCSORTHOREF
  2

  9
$UCSORTHOVIEW
 70
     0
  9
$UCSORGTOP
 10
0.0
 20
0.0
 30
0.0
  9
$UCSORGBOTTOM
 10
0.0
 20
0.0
 30
0.0
  9
$UCSORGLEFT
 10
0.0
 20
0.0
 30
0.0
  9
$UCSORGRIGHT
 10
0.0
 20
0.0
 30
0.0
  9
$UCSORGFRONT
 10
0.0
 20
0.0
 30
0.0
  9
$UCSORGBACK
 10
0.0
 20
0.0
 30
0.0
  9
$PUCSBASE
  2

  9
$PUCSNAME
  2

  9
$PUCSORG
 10
0.0
 20
0.0
 30
0.0
  9
$PUCSXDIR
 10
1.0
 20
0.0
 30
0.0
  9
$PUCSYDIR
 10
0.0
 20
1.0
 30
0.0
  9
$PUCSORTHOREF
  2

  9
$PUCSORTHOVIEW
 70
     0
  9
$PUCSORGTOP
 10
0.0
 20
0.0
 30
0.0
  9
$PUCSORGBOTTOM
 10
0.0
 20
0.0
 30
0.0
  9
$PUCSORGLEFT
 10
0.0
 20
0.0
 30
0.0
  9
$PUCSORGRIGHT
 10
0.0
 20
0.0
 30
0.0
  9
$PUCSORGFRONT
 10
0.0
 20
0.0
 30
0.0
  9
$PUCSORGBACK
 10
0.0
 20
0.0
 30
0.0
  9
$USERI1
 70
     0
  9
$USERI2
 70
     0
  9
$USERI3
 70
     0
  9
$USERI4
 70
     0
  9
$USERI5
 70
     0
  9
$USERR1
 40
0.0
  9
$USERR2
 40
0.0
  9
$USERR3
 40
0.0
  9
$USERR4
 40
0.0
  9
$USERR5
 40
0.0
  9
$WORLDVIEW
 70
     1
  9
$SHADEDGE
 70
     3
  9
$SHADEDIF
 70
    70
  9
$TILEMODE
 70
     1
  9
$MAXACTVP
 70
    64
  9
$PINSBASE
 10
0.0
 20
0.0
 30
0.0
  9
$PLIMCHECK
 70
     0
  9
$PEXTMIN
 10
0.0
 20
0.0
 30
0.0
  9
$PEXTMAX
 10
0.0
 20
0.0
 30
0.0
  9
$PLIMMIN
 10
0.0
 20
0.0
  9
$PLIMMAX
 10
12.0
 20
9.0
  9
$UNITMODE
 70
     0
  9
$VISRETAIN
 70
     1
  9
$PLINEGEN
 70
     0
  9
$PSLTSCALE
 70
     1
  9
$TREEDEPTH
 70
  3020
  9
$CMLSTYLE
  2
Standard
  9
$CMLJUST
 70
     0
  9
$CMLSCALE
 40
20.0
  9
$PROXYGRAPHICS
 70
     1
  9
$MEASUREMENT
 70
     1
  9
$CELWEIGHT
370
    -1
  9
$ENDCAPS
280
     0
  9
$JOINSTYLE
280
     0
  9
$LWDISPLAY
290
     0
  9
$INSUNITS
 70
     4
  9
$HYPERLINKBASE
  1

  9
$STYLESHEET
  1

  9
$XEDIT
290
     1
  9
$CEPSNTYPE
380
     0
  9
$PSTYLEMODE
290
     1
  9
$FINGERPRINTGUID
  2
{ACBE5ADC-CE85-4BD8-9480-F57F746AE228}
  9
$VERSIONGUID
  2
{7E9402B2-3827-4FDE-99DD-5587ED04F1EF}
  9
$EXTNAMES
290
     1
  9
$PSVPSCALE
 40
0.0
  9
$OLESTARTUP
290
     0
  0
ENDSEC
  0
SECTION
  2
CLASSES
  0
CLASS
  1
ACDBDICTIONARYWDFLT
  2
AcDbDictionaryWithDefault
  3
ObjectDBX Classes
 90
        0
280
     0
281
     0
  0
CLASS
  1
ACDBPLACEHOLDER
  2
AcDbPlaceHolder
  3
ObjectDBX Classes
 90
        0
280
     0
281
     0
  0
CLASS
  1
LAYOUT
  2
AcDbLayout
  3
ObjectDBX Classes
 90
        0
280
     0
281
     0
  0
CLASS
  1
DICTIONARYVAR
  2
AcDbDictionaryVar
  3
ObjectDBX Classes
 90
        0
280
     0
281
     0
  0
CLASS
  1
TABLESTYLE
  2
AcDbTableStyle
  3
ObjectDBX Classes
 90
     4095
280
     0
281
     0
  0
CLASS
  1
MATERIAL
  2
AcDbMaterial
  3
ObjectDBX Classes
 90
     1153
280
     0
281
     0
  0
CLASS
  1
VISUALSTYLE
  2
AcDbVisualStyle
  3
ObjectDBX Classes
 90
     4095
280
     0
281
     0
  0
CLASS
  1
SCALE
  2
AcDbScale
  3
ObjectDBX Classes
 90
     1153
280
     0
281
     0
  0
CLASS
  1
MLEADERSTYLE
  2
AcDbMLeaderStyle
  3
ACDB_MLEADERSTYLE_CLASS
 90
     4095
280
     0
281
     0
  0
CLASS
  1
CELLSTYLEMAP
  2
AcDbCellStyleMap
  3
ObjectDBX Classes
 90
     1152
280
     0
281
     0
  0
CLASS
  1
ACAD_EVALUATION_GRAPH
  2
AcDbEvalGraph
  3
ObjectDBX Classes
 90
    33921
280
     0
281
     0
  0
CLASS
  1
ACAECUSTOBJ
  2
AcAeEditorObj
  3
AcAeEditorObj
 90
    33792
280
     0
281
     0
  0
CLASS
  1
ACDB_DYNAMICBLOCKPURGEPREVENTER_VERSION
  2
AcDbDynamicBlockPurgePreventer
  3
ObjectDBX Classes
 90
    33921
280
     0
281
     0
  0
ENDSEC
  0
SECTION
  2
TABLES
  0
TABLE
  2
VPORT
  5
8
330
0
100
AcDbSymbolTable
 70
     1
  0
VPORT
  5
EA
330
8
100
AcDbSymbolTableRecord
100
AcDbViewportTableRecord
  2
*Active
 70
     0
 10
0.0
 20
0.0
 11
1.0
 21
1.0
 12
1717.99258694486
 22
1167.610677126495
 13
0.0
 23
0.0
 14
10.0
 24
10.0
 15
10.0
 25
10.0
 16
0.0
 26
0.0
 36
1.0
 17
0.0
 27
0.0
 37
0.0
 40
97.36600620814725
 41
1.90311004784689
 42
50.0
 43
0.0
 44
0.0
 50
0.0
 51
0.0
 71
     0
 72
  1000
 73
     1
 74
     3
 75
     0
 76
     0
 77
     0
 78
     0
281
     0
 65
     1
110
0.0
120
0.0
130
0.0
111
1.0
121
0.0
131
0.0
112
0.0
122
1.0
132
0.0
 79
     0
146
0.0
  0
ENDTAB
  0
TABLE
  2
LTYPE
  5
5
330
0
100
AcDbSymbolTable
 70
     1
  0
LTYPE
  5
14
330
5
100
AcDbSymbolTableRecord
100
AcDbLinetypeTableRecord
  2
ByBlock
 70
     0
  3

 72
    65
 73
     0
 40
0.0
  0
LTYPE
  5
15
330
5
100
AcDbSymbolTableRecord
100
AcDbLinetypeTableRecord
  2
ByLayer
 70
     0
  3

 72
    65
 73
     0
 40
0.0
  0
LTYPE
  5
16
330
5
100
AcDbSymbolTableRecord
100
AcDbLinetypeTableRecord
  2
Continuous
 70
     0
  3
Solid line
 72
    65
 73
     0
 40
0.0
  0
ENDTAB
  0
TABLE
  2
LAYER
  5
2
330
0
100
AcDbSymbolTable
 70
     1
  0
LAYER
  5
10
102
{ACAD_XDICTIONARY
360
13C
102
}
330
2
100
AcDbSymbolTableRecord
100
AcDbLayerTableRecord
  2
0
 70
     0
 62
     7
  6
Continuous
370
    -3
390
F
  0
ENDTAB
  0
TABLE
  2
STYLE
  5
3
330
0
100
AcDbSymbolTable
 70
     2
  0
STYLE
  5
11
330
3
100
AcDbSymbolTableRecord
100
AcDbTextStyleTableRecord
  2
Standard
 70
     0
 40
0.0
 41
1.0
 50
0.0
 71
     0
 42
2.5
  3
txt
  4

  0
STYLE
  5
132
330
3
100
AcDbSymbolTableRecord
100
AcDbTextStyleTableRecord
  2
Annotative
 70
     0
 40
0.0
 41
1.0
 50
0.0
 71
     0
 42
2.5
  3
txt.shx
  4

1001
AcadAnnotative
1000
AnnotativeData
1002
{
1070
     1
1070
     1
1002
}
  0
ENDTAB
  0
TABLE
  2
VIEW
  5
6
330
0
100
AcDbSymbolTable
 70
     0
  0
ENDTAB
  0
TABLE
  2
UCS
  5
7
330
0
100
AcDbSymbolTable
 70
     0
  0
ENDTAB
  0
TABLE
  2
APPID
  5
9
330
0
100
AcDbSymbolTable
 70
    12
  0
APPID
  5
12
330
9
100
AcDbSymbolTableRecord
100
AcDbRegAppTableRecord
  2
ACAD
 70
     0
  0
APPID
  5
9E
330
9
100
AcDbSymbolTableRecord
100
AcDbRegAppTableRecord
  2
ACAD_PSEXT
 70
     0
  0
APPID
  5
133
330
9
100
AcDbSymbolTableRecord
100
AcDbRegAppTableRecord
  2
AcadAnnoPO
 70
     0
  0
APPID
  5
134
330
9
100
AcDbSymbolTableRecord
100
AcDbRegAppTableRecord
  2
AcadAnnotative
 70
     0
  0
APPID
  5
135
330
9
100
AcDbSymbolTableRecord
100
AcDbRegAppTableRecord
  2
ACAD_DSTYLE_DIMJAG
 70
     0
  0
APPID
  5
136
330
9
100
AcDbSymbolTableRecord
100
AcDbRegAppTableRecord
  2
ACAD_DSTYLE_DIMTALN
 70
     0
  0
APPID
  5
165
330
9
100
AcDbSymbolTableRecord
100
AcDbRegAppTableRecord
  2
ACAD_MLEADERVER
 70
     0
  0
APPID
  5
C18
330
9
100
AcDbSymbolTableRecord
100
AcDbRegAppTableRecord
  2
ACAUTHENVIRON
 70
     0
  0
APPID
  5
C1C
330
9
100
AcDbSymbolTableRecord
100
AcDbRegAppTableRecord
  2
AcDbDynamicBlockTrueName
 70
     0
  0
APPID
  5
C1D
330
9
100
AcDbSymbolTableRecord
100
AcDbRegAppTableRecord
  2
AcDbDynamicBlockGUID
 70
     0
  0
APPID
  5
C1F
330
9
100
AcDbSymbolTableRecord
100
AcDbRegAppTableRecord
  2
AcDbBlockRepETag
 70
     0
  0
APPID
  5
D4B
330
9
100
AcDbSymbolTableRecord
100
AcDbRegAppTableRecord
  2
ACAD_EXEMPT_FROM_CAD_STANDARDS
 70
     0
  0
ENDTAB
  0
TABLE
  2
DIMSTYLE
  5
A
330
0
100
AcDbSymbolTable
 70
     2
100
AcDbDimStyleTable
 71
     2
340
27
340
137
  0
DIMSTYLE
105
27
330
A
100
AcDbSymbolTableRecord
100
AcDbDimStyleTableRecord
  2
ISO-25
 70
     0
 41
2.5
 42
0.625
 43
3.75
 44
1.25
 73
     0
 74
     0
 77
     1
 78
     8
140
2.5
141
2.5
143
0.03937007874016
147
0.625
171
     3
172
     1
271
     2
272
     2
274
     3
278
    44
283
     0
284
     8
340
11
  0
DIMSTYLE
105
137
330
A
100
AcDbSymbolTableRecord
100
AcDbDimStyleTableRecord
  2
Annotative
 70
     0
 40
0.0
 41
2.5
 42
0.625
 43
3.75
 44
1.25
 73
     0
 74
     0
 77
     1
 78
     8
140
2.5
141
2.5
143
0.03937007874016
147
0.625
171
     3
172
     1
271
     2
272
     2
274
     3
278
    44
283
     0
284
     8
340
11
1001
AcadAnnotative
1000
AnnotativeData
1002
{
1070
     1
1070
     1
1002
}
1001
ACAD_DSTYLE_DIMJAG
1070
   388
1040
1.5
1001
ACAD_DSTYLE_DIMTALN
1070
   392
1070
     0
  0
ENDTAB
  0
TABLE
  2
BLOCK_RECORD
  5
1
330
0
100
AcDbSymbolTable
 70
     5
  0
BLOCK_RECORD
  5
1F
330
1
100
AcDbSymbolTableRecord
100
AcDbBlockTableRecord
  2
*Model_Space
340
22
  0
BLOCK_RECORD
  5
D2
330
1
100
AcDbSymbolTableRecord
100
AcDbBlockTableRecord
  2
*Paper_Space
340
D3
  0
BLOCK_RECORD
  5
D6
330
1
100
AcDbSymbolTableRecord
100
AcDbBlockTableRecord
  2
*Paper_Space0
340
D7
  0
BLOCK_RECORD
  5
81B
102
{ACAD_XDICTIONARY
360
D47
102
}
330
1
100
AcDbSymbolTableRecord
100
AcDbBlockTableRecord
  2
1
340
0
310
2800000020000000200000000100080000000000000400000000000000000000000000000000000000000000000080000080000000808000800000008000800080800000C0C0C000C0DCC000F0CAA6000020400000206000002080000020A0000020C0000020E00000400000004020000040400000406000004080000040A0
310
000040C0000040E00000600000006020000060400000606000006080000060A0000060C0000060E00000800000008020000080400000806000008080000080A0000080C0000080E00000A0000000A0200000A0400000A0600000A0800000A0A00000A0C00000A0E00000C0000000C0200000C0400000C0600000C0800000C0
310
A00000C0C00000C0E00000E0000000E0200000E0400000E0600000E0800000E0A00000E0C00000E0E00040000000400020004000400040006000400080004000A0004000C0004000E00040200000402020004020400040206000402080004020A0004020C0004020E000404000004040200040404000404060004040800040
310
40A0004040C0004040E00040600000406020004060400040606000406080004060A0004060C0004060E00040800000408020004080400040806000408080004080A0004080C0004080E00040A0000040A0200040A0400040A0600040A0800040A0A00040A0C00040A0E00040C0000040C0200040C0400040C0600040C08000
310
40C0A00040C0C00040C0E00040E0000040E0200040E0400040E0600040E0800040E0A00040E0C00040E0E00080000000800020008000400080006000800080008000A0008000C0008000E00080200000802020008020400080206000802080008020A0008020C0008020E00080400000804020008040400080406000804080
310
008040A0008040C0008040E00080600000806020008060400080606000806080008060A0008060C0008060E00080800000808020008080400080806000808080008080A0008080C0008080E00080A0000080A0200080A0400080A0600080A0800080A0A00080A0C00080A0E00080C0000080C0200080C0400080C0600080C0
310
800080C0A00080C0C00080C0E00080E0000080E0200080E0400080E0600080E0800080E0A00080E0C00080E0E000C0000000C0002000C0004000C0006000C0008000C000A000C000C000C000E000C0200000C0202000C0204000C0206000C0208000C020A000C020C000C020E000C0400000C0402000C0404000C0406000C0
310
408000C040A000C040C000C040E000C0600000C0602000C0604000C0606000C0608000C060A000C060C000C060E000C0800000C0802000C0804000C0806000C0808000C080A000C080C000C080E000C0A00000C0A02000C0A04000C0A06000C0A08000C0A0A000C0A0C000C0A0E000C0C00000C0C02000C0C04000C0C06000
310
C0C08000C0C0A000F0FBFF00A4A0A000808080000000FF0000FF000000FFFF00FF000000FF00FF00FFFF0000FFFFFF0000000000000000000000000000000000000000000000000000000000000000000000000000000000000000000000000000000000000000000000000000000000000000000000000000000000000000
310
00000000000000000000000000000000000000FFFFFFFFFFFF00000000000000000000000000000000FFFFFFFFFFFF000000FFFFFFFFFFFFFFFF00FFFF0000000000000000FFFF00FFFFFFFFFFFFFFFF00000000FFFFFFFFFFFFFFFF00000000000000000000FFFFFFFFFFFF00FF000000000000FF00FFFFFFFFFFFF000000
310
00000000000000FFFFFFFFFFFFFFFFFF00000000FFFFFFFFFFFF00FF000000000000000000000000FF00FFFFFFFFFFFF00000000FFFFFFFFFFFFFFFFFFFFFFFFFFFFFFFFFFFFFFFFFFFFFFFFFFFFFFFF0000000000FFFFFFFFFFFFFFFFFFFFFFFFFFFFFFFFFFFFFFFFFFFFFFFFFFFF000000000000FF000000000000000000
310
000000000000000000000000000000FF000000000000FF000000000000000000000000000000000000000000000000FF000000000000FF000000000000000000000000000000000000000000000000FF000000000000FF000000000000000000000000000000000000000000000000FF000000000000FF0000000000000000
310
00000000000000000000000000000000FF000000000000FF000000000000000000000000000000000000000000000000FF000000000000FF000000000000000000000000000000000000000000000000FF000000000000FF000000000000000000000000000000000000000000000000FF000000000000FF00000000000000
310
0000000000000000000000000000000000FF000000000000FF000000000000000000000000000000000000000000000000FF00000000000000FF00000000000000000000000000000000000000000000FF0000000000000000FF00000000000000000000000000000000000000000000FF0000000000000000FF0000000000
310
0000000000000000000000000000000000FF000000000000000000FF0000000000000000000000000000000000000000FF00000000000000000000FF0000000000000000000000000000000000000000FF0000000000000000000000FFFFFFFFFFFFFFFFFFFFFFFFFFFFFFFFFFFFFFFF000000000000000000000000000000
310
0000FFFFFFFF000000FF00000000000000000000000000000000000000000000000000FFFF00FFFFFF000000000000000000000000000000000000000000000000000000FFFFFF00FF000000000000000000000000000000000000000000000000000000000000000000000000000000000000000000000000000000000000
310
0000000000000000000000000000000000000000000000000000000000000000000000000000000000000000000000000000000000000000
102
{BLKREFS
331
8CD
102
}
1001
AcDbDynamicBlockGUID
1000
{853BE7A6-737E-48F0-8251-DF27185CB44E}
1001
AcDbBlockRepETag
1070
     1
1071
      175
1001
ACAD
1000
DesignCenter Data
1002
{
1070
     1
1070
     4
1002
}
  0
BLOCK_RECORD
  5
8CE
102
{ACAD_XDICTIONARY
360
C8C
102
}
330
1
100
AcDbSymbolTableRecord
100
AcDbBlockTableRecord
  2
2
340
0
310
2800000020000000200000000100080000000000000400000000000000000000000000000000000000000000000080000080000000808000800000008000800080800000C0C0C000C0DCC000F0CAA6000020400000206000002080000020A0000020C0000020E00000400000004020000040400000406000004080000040A0
310
000040C0000040E00000600000006020000060400000606000006080000060A0000060C0000060E00000800000008020000080400000806000008080000080A0000080C0000080E00000A0000000A0200000A0400000A0600000A0800000A0A00000A0C00000A0E00000C0000000C0200000C0400000C0600000C0800000C0
310
A00000C0C00000C0E00000E0000000E0200000E0400000E0600000E0800000E0A00000E0C00000E0E00040000000400020004000400040006000400080004000A0004000C0004000E00040200000402020004020400040206000402080004020A0004020C0004020E000404000004040200040404000404060004040800040
310
40A0004040C0004040E00040600000406020004060400040606000406080004060A0004060C0004060E00040800000408020004080400040806000408080004080A0004080C0004080E00040A0000040A0200040A0400040A0600040A0800040A0A00040A0C00040A0E00040C0000040C0200040C0400040C0600040C08000
310
40C0A00040C0C00040C0E00040E0000040E0200040E0400040E0600040E0800040E0A00040E0C00040E0E00080000000800020008000400080006000800080008000A0008000C0008000E00080200000802020008020400080206000802080008020A0008020C0008020E00080400000804020008040400080406000804080
310
008040A0008040C0008040E00080600000806020008060400080606000806080008060A0008060C0008060E00080800000808020008080400080806000808080008080A0008080C0008080E00080A0000080A0200080A0400080A0600080A0800080A0A00080A0C00080A0E00080C0000080C0200080C0400080C0600080C0
310
800080C0A00080C0C00080C0E00080E0000080E0200080E0400080E0600080E0800080E0A00080E0C00080E0E000C0000000C0002000C0004000C0006000C0008000C000A000C000C000C000E000C0200000C0202000C0204000C0206000C0208000C020A000C020C000C020E000C0400000C0402000C0404000C0406000C0
310
408000C040A000C040C000C040E000C0600000C0602000C0604000C0606000C0608000C060A000C060C000C060E000C0800000C0802000C0804000C0806000C0808000C080A000C080C000C080E000C0A00000C0A02000C0A04000C0A06000C0A08000C0A0A000C0A0C000C0A0E000C0C00000C0C02000C0C04000C0C06000
310
C0C08000C0C0A000F0FBFF00A4A0A000808080000000FF0000FF000000FFFF00FF000000FF00FF00FFFF0000FFFFFF00000000000000000000000000000000000000000000000000000000000000000000000000000000000000000000FFFFFFFFFFFF0000000000000000000000000000000000000000000000000000FFFF
310
FFFFFFFF0000000000000000000000000000000000000000000000000000FFFFFFFFFFFF0000000000000000000000000000000000000000000000000000FF00000000FF0000000000000000000000000000000000000000000000000000FF00000000FF0000000000000000000000000000000000000000000000000000FF
310
00000000FF0000000000000000000000000000000000000000000000000000FFFFFFFFFFFF0000000000000000000000000000000000000000000000000000FFFFFFFFFFFF0000000000000000000000000000000000000000000000000000FFFFFFFFFFFF0000000000000000000000000000000000000000000000000000
310
FFFFFFFFFFFF0000000000000000000000000000000000000000000000000000FFFFFFFFFFFF0000000000000000000000000000000000000000000000000000FFFF0000FFFF0000000000000000000000000000000000000000000000000000FFFF0000FFFF00000000000000000000000000000000000000000000000000
310
00FFFFFFFFFFFF0000000000000000000000000000000000000000000000000000FFFFFFFFFFFF0000000000000000000000000000000000000000000000000000FF00000000FF0000000000000000000000000000000000000000000000000000FF00000000FF000000000000000000000000000000000000000000000000
310
0000FFFFFFFFFFFF0000000000000000000000000000000000000000000000000000FFFFFFFFFFFF0000000000000000000000000000000000000000000000000000FFFFFFFFFFFF0000000000000000000000000000000000000000000000000000FFFFFFFFFFFF0000000000000000000000000000000000000000000000
310
000000FFFFFFFFFFFF0000000000000000000000000000000000000000000000000000FFFFFFFFFFFF0000000000000000000000000000000000000000000000000000FFFFFFFFFFFF0000000000000000000000000000000000000000000000000000FFFFFFFFFFFF00000000000000000000000000000000000000000000
310
00000000FFFFFFFFFFFF000000000000000000000000000000000000000000000000000000FF0000FF00000000000000000000000000000000000000000000000000000000FF0000FF00000000000000000000000000000000000000000000000000000000FFFFFFFF00000000000000000000000000000000000000000000
310
000000000000FFFFFFFF00000000000000000000000000000000000000000000000000000000000000000000000000000000000000000000
102
{BLKREFS
331
93A
102
}
1001
AcDbDynamicBlockGUID
1000
{F4D52568-475C-4DA4-9183-507C8013DF07}
1001
AcDbBlockRepETag
1070
     1
1071
      105
1001
ACAD
1000
DesignCenter Data
1002
{
1070
     1
1070
     4
1002
}
  0
BLOCK_RECORD
  5
93B
330
1
100
AcDbSymbolTableRecord
100
AcDbBlockTableRecord
  2
3
340
0
310
2800000020000000200000000100080000000000000400000000000000000000000000000000000000000000000080000080000000808000800000008000800080800000C0C0C000C0DCC000F0CAA6000020400000206000002080000020A0000020C0000020E00000400000004020000040400000406000004080000040A0
310
000040C0000040E00000600000006020000060400000606000006080000060A0000060C0000060E00000800000008020000080400000806000008080000080A0000080C0000080E00000A0000000A0200000A0400000A0600000A0800000A0A00000A0C00000A0E00000C0000000C0200000C0400000C0600000C0800000C0
310
A00000C0C00000C0E00000E0000000E0200000E0400000E0600000E0800000E0A00000E0C00000E0E00040000000400020004000400040006000400080004000A0004000C0004000E00040200000402020004020400040206000402080004020A0004020C0004020E000404000004040200040404000404060004040800040
310
40A0004040C0004040E00040600000406020004060400040606000406080004060A0004060C0004060E00040800000408020004080400040806000408080004080A0004080C0004080E00040A0000040A0200040A0400040A0600040A0800040A0A00040A0C00040A0E00040C0000040C0200040C0400040C0600040C08000
310
40C0A00040C0C00040C0E00040E0000040E0200040E0400040E0600040E0800040E0A00040E0C00040E0E00080000000800020008000400080006000800080008000A0008000C0008000E00080200000802020008020400080206000802080008020A0008020C0008020E00080400000804020008040400080406000804080
310
008040A0008040C0008040E00080600000806020008060400080606000806080008060A0008060C0008060E00080800000808020008080400080806000808080008080A0008080C0008080E00080A0000080A0200080A0400080A0600080A0800080A0A00080A0C00080A0E00080C0000080C0200080C0400080C0600080C0
310
800080C0A00080C0C00080C0E00080E0000080E0200080E0400080E0600080E0800080E0A00080E0C00080E0E000C0000000C0002000C0004000C0006000C0008000C000A000C000C000C000E000C0200000C0202000C0204000C0206000C0208000C020A000C020C000C020E000C0400000C0402000C0404000C0406000C0
310
408000C040A000C040C000C040E000C0600000C0602000C0604000C0606000C0608000C060A000C060C000C060E000C0800000C0802000C0804000C0806000C0808000C080A000C080C000C080E000C0A00000C0A02000C0A04000C0A06000C0A08000C0A0A000C0A0C000C0A0E000C0C00000C0C02000C0C04000C0C06000
310
C0C08000C0C0A000F0FBFF00A4A0A000808080000000FF0000FF000000FFFF00FF000000FF00FF00FFFF0000FFFFFF0000000000000000000000000000000000000000000000000000000000000000000000000000000000000000000000000000000000000000000000000000000000000000000000000000000000000000
310
00000000000000000000000000000000000000000000000000000000000000000000000000000000000000000000000000000000000000000000000000000000000000000000000000000000000000000000000000000000000000000000000000000000000000000000000000000000000000000000000000000000000000
310
00000000000000000000000000000000000000000000000000000000000000000000000000000000000000000000000000000000000000000000000000000000000000000000000000000000000000000000000000000000000000000000000000000000000000000000000000000000000000000000000000000000000000
310
0000000000000000000000000000000000000000000000000000000000000000000000000000000000000000000000000000000000000000000000000000000000000000000000000000000000000000000000000000FFFFFFFFFFFFFFFFFFFFFFFFFFFFFFFFFFFFFFFFFFFFFFFFFFFF00000000FFFFFFFFFFFF00FFFF00FF
310
FFFFFFFFFFFFFF000000FFFF00FFFFFFFFFFFF0000FFFFFFFFFFFFFFFFFFFFFFFFFF00FF00FFFF0000FFFFFFFFFFFFFFFFFFFF0000FFFFFFFFFFFF00FFFFFFFFFFFF00FF00FFFF000000FFFF00FFFFFFFFFFFF0000FFFFFFFFFFFF00FFFF00FFFFFFFFFFFFFFFF000000FFFF00FFFFFFFFFFFF00000000FFFFFFFFFFFFFFFF
310
FFFFFFFFFFFFFFFFFFFFFFFFFFFFFFFFFFFF00000000000000000000000000000000000000000000000000000000000000000000000000000000000000000000000000000000000000000000000000000000000000000000000000000000000000000000000000000000000000000000000000000000000000000000000000
310
00000000000000000000000000000000000000000000000000000000000000000000000000000000000000000000000000000000000000000000000000000000000000000000000000000000000000000000000000000000000000000000000000000000000000000000000000000000000000000000000000000000000000
310
00000000000000000000000000000000000000000000000000000000000000000000000000000000000000000000000000000000000000000000000000000000000000000000000000000000000000000000000000000000000000000000000000000000000000000000000000000000000000000000000000000000000000
310
0000000000000000000000000000000000000000000000000000000000000000000000000000000000000000000000000000000000000000
102
{BLKREFS
331
9E1
102
}
1001
ACAD
1000
DesignCenter Data
1002
{
1070
     1
1070
     4
1002
}
  0
BLOCK_RECORD
  5
9E2
330
1
100
AcDbSymbolTableRecord
100
AcDbBlockTableRecord
  2
4
340
0
310
2800000020000000200000000100080000000000000400000000000000000000000000000000000000000000000080000080000000808000800000008000800080800000C0C0C000C0DCC000F0CAA6000020400000206000002080000020A0000020C0000020E00000400000004020000040400000406000004080000040A0
310
000040C0000040E00000600000006020000060400000606000006080000060A0000060C0000060E00000800000008020000080400000806000008080000080A0000080C0000080E00000A0000000A0200000A0400000A0600000A0800000A0A00000A0C00000A0E00000C0000000C0200000C0400000C0600000C0800000C0
310
A00000C0C00000C0E00000E0000000E0200000E0400000E0600000E0800000E0A00000E0C00000E0E00040000000400020004000400040006000400080004000A0004000C0004000E00040200000402020004020400040206000402080004020A0004020C0004020E000404000004040200040404000404060004040800040
310
40A0004040C0004040E00040600000406020004060400040606000406080004060A0004060C0004060E00040800000408020004080400040806000408080004080A0004080C0004080E00040A0000040A0200040A0400040A0600040A0800040A0A00040A0C00040A0E00040C0000040C0200040C0400040C0600040C08000
310
40C0A00040C0C00040C0E00040E0000040E0200040E0400040E0600040E0800040E0A00040E0C00040E0E00080000000800020008000400080006000800080008000A0008000C0008000E00080200000802020008020400080206000802080008020A0008020C0008020E00080400000804020008040400080406000804080
310
008040A0008040C0008040E00080600000806020008060400080606000806080008060A0008060C0008060E00080800000808020008080400080806000808080008080A0008080C0008080E00080A0000080A0200080A0400080A0600080A0800080A0A00080A0C00080A0E00080C0000080C0200080C0400080C0600080C0
310
800080C0A00080C0C00080C0E00080E0000080E0200080E0400080E0600080E0800080E0A00080E0C00080E0E000C0000000C0002000C0004000C0006000C0008000C000A000C000C000C000E000C0200000C0202000C0204000C0206000C0208000C020A000C020C000C020E000C0400000C0402000C0404000C0406000C0
310
408000C040A000C040C000C040E000C0600000C0602000C0604000C0606000C0608000C060A000C060C000C060E000C0800000C0802000C0804000C0806000C0808000C080A000C080C000C080E000C0A00000C0A02000C0A04000C0A06000C0A08000C0A0A000C0A0C000C0A0E000C0C00000C0C02000C0C04000C0C06000
310
C0C08000C0C0A000F0FBFF00A4A0A000808080000000FF0000FF000000FFFF00FF000000FF00FF00FFFF0000FFFFFF000000000000000000000000000000000000000000000000000000000000000000000000000000FFFFFF000000000000000000000000000000000000000000000000000000FFFFFFFFFFFFFF00000000
310
000000000000000000000000000000000000000000FFFFFFFFFFFFFFFF000000000000000000000000000000000000000000000000FFFFFF00FFFFFFFF00FF0000000000000000000000000000000000000000000000FF0000FFFFFFFFFFFFFF00000000000000000000000000000000000000000000FF00FFFFFFFFFFFFFF
310
0000000000000000000000000000000000000000000000FFFF00FFFFFFFFFFFF0000000000FFFFFF00FFFF000000000000000000000000FFFFFFFF00FFFFFFFFFF0000FFFFFFFFFFFFFFFFFFFF00000000000000000000FFFF00FF000000FFFFFFFFFFFFFFFF00FFFFFFFFFFFFFF000000000000000000FFFFFFFF00000000
310
0000FFFF00FFFF00FFFFFFFFFFFFFF000000000000000000FFFFFFFF0000000000000000FFFFFFFFFFFFFFFFFFFF00000000000000000000FFFFFFFF0000000000000000000000FFFFFFFFFFFFFF00000000000000000000FFFFFFFF0000000000000000000000000000FFFFFFFF00000000000000000000FFFFFFFF000000
310
00000000000000000000000000FFFF00000000000000000000FF0000FF0000000000000000000000000000000000FF00000000000000000000FF00FFFF0000000000000000000000000000000000FF00000000000000000000FFFFFFFF0000000000000000000000000000000000FF00000000000000000000FFFFFFFF0000
310
000000000000000000000000000000FF0000000000000000000000FFFFFF0000000000000000000000000000000000FF0000000000000000000000FFFFFFFF00000000000000000000000000000000FF0000000000000000000000FFFF00FF00000000000000000000000000000000FF000000000000000000000000FFFFFF
310
00000000000000000000000000000000FF000000000000000000000000FFFFFFFFFF0000000000000000000000000000FF000000000000000000000000FFFFFFFFFFFFFFFF0000000000000000000000FF0000000000000000000000000000FFFFFFFFFFFFFFFF0000000000000000FF000000000000000000000000000000
310
0000FFFFFFFFFFFFFFFFFF0000000000FF00000000000000000000000000000000000000FFFFFF0000FF00FFFFFF00FF0000000000000000000000000000000000000000FFFFFFFFFFFFFFFFFFFFFFFF0000000000000000000000000000000000000000FFFFFFFFFF0000FFFFFF0000000000000000000000000000000000
310
0000000000000000FF0000000000000000000000000000000000000000000000000000000000000000000000000000000000000000000000
102
{BLKREFS
331
B5F
102
}
1001
ACAD
1000
DesignCenter Data
1002
{
1070
     1
1070
     4
1002
}
  0
ENDTAB
  0
ENDSEC
  0
SECTION
  2
BLOCKS
  0
BLOCK
  5
20
330
1F
100
AcDbEntity
  8
0
100
AcDbBlockBegin
  2
*Model_Space
 70
     0
 10
0.0
 20
0.0
 30
0.0
  3
*Model_Space
  1

  0
ENDBLK
  5
21
330
1F
100
AcDbEntity
  8
0
100
AcDbBlockEnd
  0
BLOCK
  5
D4
330
D2
100
AcDbEntity
 67
     1
  8
0
100
AcDbBlockBegin
  2
*Paper_Space
 70
     0
 10
0.0
 20
0.0
 30
0.0
  3
*Paper_Space
  1

  0
ENDBLK
  5
D5
330
D2
100
AcDbEntity
 67
     1
  8
0
100
AcDbBlockEnd
  0
BLOCK
  5
D8
330
D6
100
AcDbEntity
 67
     1
  8
0
100
AcDbBlockBegin
  2
*Paper_Space0
 70
     0
 10
0.0
 20
0.0
 30
0.0
  3
*Paper_Space0
  1

  0
ENDBLK
  5
D9
330
D6
100
AcDbEntity
 67
     1
  8
0
100
AcDbBlockEnd
  0
BLOCK
  5
81C
330
81B
100
AcDbEntity
  8
0
100
AcDbBlockBegin
  2
1
 70
     0
 10
0.0
 20
0.0
 30
0.0
  3
1
  1

  0
LINE
  5
C98
330
81B
100
AcDbEntity
  8
0
  6
Continuous
 62
     7
370
    15
100
AcDbLine
 10
1721.405977332393
 20
1187.09041852547
 30
0.0
 11
1721.405977332393
 21
1167.10582162453
 31
0.0
1001
AcDbBlockRepETag
1070
     1
1071
        0
1005
C98
  0
LINE
  5
C99
330
81B
100
AcDbEntity
  8
0
  6
Continuous
 62
     7
370
    15
100
AcDbLine
 10
1668.605977618496
 20
1167.10582162453
 30
0.0
 11
1721.405977332393
 21
1167.10582162453
 31
0.0
1001
AcDbBlockRepETag
1070
     1
1071
        1
1005
C99
  0
LINE
  5
C9A
330
81B
100
AcDbEntity
  8
0
  6
Continuous
 62
     7
370
    15
100
AcDbLine
 10
1668.605977618496
 20
1167.10582162453
 30
0.0
 11
1668.605977618496
 21
1187.09041852547
 31
0.0
1001
AcDbBlockRepETag
1070
     1
1071
        2
1005
C9A
  0
LINE
  5
C9B
330
81B
100
AcDbEntity
  8
0
  6
Continuous
 62
     7
370
    15
100
AcDbLine
 10
1668.605977618496
 20
1187.09041852547
 30
0.0
 11
1673.262173259059
 21
1199.885747619403
 31
0.0
1001
AcDbBlockRepETag
1070
     1
1071
        3
1005
C9B
  0
ARC
  5
C9C
330
81B
100
AcDbEntity
  8
0
  6
Continuous
 62
     7
370
    15
100
AcDbCircle
 10
1675.149488900427
 20
1199.198945264551
 30
0.0
 40
2.00839245282475
100
AcDbArc
 50
90.0
 51
160.0035393365891
1001
AcDbBlockRepETag
1070
     1
1071
        4
1005
C9C
  0
LINE
  5
C9D
330
81B
100
AcDbEntity
  8
0
  6
Continuous
 62
     7
370
    15
100
AcDbLine
 10
1675.149494731227
 20
1201.207331605686
 30
0.0
 11
1714.862400615017
 21
1201.207331605686
 31
0.0
1001
AcDbBlockRepETag
1070
     1
1071
        5
1005
C9D
  0
ARC
  5
C9E
330
81B
100
AcDbEntity
  8
0
  6
Continuous
 62
     7
370
    15
100
AcDbCircle
 10
1714.862408656833
 20
1199.198945264551
 30
0.0
 40
2.008392452821311
100
AcDbArc
 50
19.99646066341092
 51
90.0
1001
AcDbBlockRepETag
1070
     1
1071
        6
1005
C9E
  0
LINE
  5
C9F
330
81B
100
AcDbEntity
  8
0
  6
Continuous
 62
     7
370
    15
100
AcDbLine
 10
1716.749722087184
 20
1199.885747619403
 30
0.0
 11
1721.405977332393
 21
1187.09041852547
 31
0.0
1001
AcDbBlockRepETag
1070
     1
1071
        7
1005
C9F
  0
LINE
  5
CA0
330
81B
100
AcDbEntity
  8
0
  6
Continuous
 62
     7
370
    15
100
AcDbLine
 10
1721.958989226619
 20
1165.188191190494
 30
0.0
 11
1720.574313723842
 21
1157.335219636692
 31
0.0
1001
AcDbBlockRepETag
1070
     1
1071
        8
1005
CA0
  0
LINE
  5
CA1
330
81B
100
AcDbEntity
  8
0
  6
Continuous
 62
     7
370
    15
100
AcDbLine
 10
1721.938067996303
 20
1156.708193674816
 30
0.0
 11
1721.055442416469
 21
1156.708193674816
 31
0.0
1001
AcDbBlockRepETag
1070
     1
1071
        9
1005
CA1
  0
ARC
  5
CA2
330
81B
100
AcDbEntity
  8
0
  6
Continuous
 62
     7
370
    15
100
AcDbCircle
 10
1721.938075623942
 20
1157.206301754494
 30
0.0
 40
0.49811320754211
100
AcDbArc
 50
270.0000021618832
 51
10.00003060199764
1001
AcDbBlockRepETag
1070
     1
1071
       10
1005
CA2
  0
ARC
  5
CA3
330
81B
100
AcDbEntity
  8
0
  6
Continuous
 62
     7
370
    15
100
AcDbCircle
 10
1722.090511800597
 20
1156.695261103491
 30
0.0
 40
1.992452830179859
100
AcDbArc
 50
270.0210803614802
 51
0.0000992382500177
1001
AcDbBlockRepETag
1070
     1
1071
       11
1005
CA3
  0
LINE
  5
CA4
330
81B
100
AcDbEntity
  8
0
  6
Continuous
 62
     7
370
    15
100
AcDbLine
 10
1714.539879882137
 20
1154.702810302509
 30
0.0
 11
1722.091251933376
 21
1154.702810302509
 31
0.0
1001
AcDbBlockRepETag
1070
     1
1071
       12
1005
CA4
  0
ARC
  5
CA5
330
81B
100
AcDbEntity
  8
0
  6
Continuous
 62
     7
370
    15
100
AcDbCircle
 10
1714.541724526386
 20
1157.691485600136
 30
0.0
 40
2.988679245269735
100
AcDbArc
 50
215.0000043237055
 51
269.9647468667426
1001
AcDbBlockRepETag
1070
     1
1071
       13
1005
CA5
  0
LINE
  5
CA6
330
81B
100
AcDbEntity
  8
0
  6
Continuous
 62
     7
370
    15
100
AcDbLine
 10
1710.935944640438
 20
1157.630486145748
 30
0.0
 11
1712.093526446621
 21
1155.977247014774
 31
0.0
1001
AcDbBlockRepETag
1070
     1
1071
       14
1005
CA6
  0
LINE
  5
CA7
330
81B
100
AcDbEntity
  8
0
  6
Continuous
 62
     7
370
    15
100
AcDbLine
 10
1711.183601939479
 20
1158.114982500805
 30
0.0
 11
1711.104566180507
 21
1158.093807950748
 31
0.0
1001
AcDbBlockRepETag
1070
     1
1071
       15
1005
CA7
  0
ARC
  5
CA8
330
81B
100
AcDbEntity
  8
0
  6
Continuous
 62
     7
370
    15
100
AcDbCircle
 10
1712.056613958691
 20
1159.210912166829
 30
0.0
 40
0.1992440997181758
100
AcDbArc
 50
0.0001085473348051
 51
85.00067857510877
1001
AcDbBlockRepETag
1070
     1
1071
       16
1005
CA8
  0
ARC
  5
CA9
330
81B
100
AcDbEntity
  8
0
  6
Continuous
 62
     7
370
    15
100
AcDbCircle
 10
1711.048876582754
 20
1159.79550691084
 30
0.0
 40
0.3009597482045351
100
AcDbArc
 50
179.9999692143704
 51
265.0005964920333
1001
AcDbBlockRepETag
1070
     1
1071
       17
1005
CA9
  0
LINE
  5
CAA
330
81B
100
AcDbEntity
  8
0
  6
Continuous
 62
     7
370
    15
100
AcDbLine
 10
1710.747891986171
 20
1161.59181083752
 30
0.0
 11
1710.747891986171
 21
1159.795505657924
 31
0.0
1001
AcDbBlockRepETag
1070
     1
1071
       18
1005
CAA
  0
ARC
  5
CAB
330
81B
100
AcDbEntity
  8
0
  6
Continuous
 62
     7
370
    15
100
AcDbCircle
 10
1711.444229690212
 20
1162.858592566376
 30
0.0
 40
0.4981174881640995
100
AcDbArc
 50
299.9998505317534
 51
359.9999959702395
1001
AcDbBlockRepETag
1070
     1
1071
       19
1005
CAB
  0
LINE
  5
CAC
330
81B
100
AcDbEntity
  8
0
  6
Continuous
 62
     7
370
    15
100
AcDbLine
 10
1711.94236906747
 20
1165.163187042011
 30
0.0
 11
1711.94236906747
 21
1162.858603254093
 31
0.0
1001
AcDbBlockRepETag
1070
     1
1071
       20
1005
CAC
  0
ARC
  5
CAD
330
81B
100
AcDbEntity
  8
0
  6
Continuous
 62
     7
370
    15
100
AcDbCircle
 10
1711.444235336276
 20
1165.163183869016
 30
0.0
 40
0.4981132075452024
100
AcDbArc
 50
0.0
 51
90.0
1001
AcDbBlockRepETag
1070
     1
1071
       21
1005
CAD
  0
LINE
  5
CAE
330
81B
100
AcDbEntity
  8
0
  6
Continuous
 62
     7
370
    15
100
AcDbLine
 10
1710.542911612789
 20
1165.661303058399
 30
0.0
 11
1711.444253051082
 21
1165.661303058399
 31
0.0
1001
AcDbBlockRepETag
1070
     1
1071
       22
1005
CAE
  0
ARC
  5
CAF
330
81B
100
AcDbEntity
  8
0
  6
Continuous
 62
     7
370
    15
100
AcDbCircle
 10
1710.542886859678
 20
1165.163183869016
 30
0.0
 40
0.4981132075450035
100
AcDbArc
 50
90.0
 51
115.1382943203374
1001
AcDbBlockRepETag
1070
     1
1071
       23
1005
CAF
  0
ARC
  5
CB0
330
81B
100
AcDbEntity
  8
0
  6
Continuous
 62
     7
370
    15
100
AcDbCircle
 10
1708.946355979304
 20
1164.99244551128
 30
0.0
 40
0.2988702015260487
100
AcDbArc
 50
91.01023301245808
 51
170.0000365906421
1001
AcDbBlockRepETag
1070
     1
1071
       24
1005
CB0
  0
LINE
  5
CB1
330
81B
100
AcDbEntity
  8
0
  6
Continuous
 62
     7
370
    15
100
AcDbLine
 10
1707.757824981014
 20
1159.973082795871
 30
0.0
 11
1708.652013861934
 21
1165.044335380329
 31
0.0
1001
AcDbBlockRepETag
1070
     1
1071
       25
1005
CB1
  0
ARC
  5
CB2
330
81B
100
AcDbEntity
  8
0
  6
Continuous
 62
     7
370
    15
100
AcDbCircle
 10
1708.248372912125
 20
1159.886583330097
 30
0.0
 40
0.4981157170449934
100
AcDbArc
 50
170.0000261473469
 51
228.7131733264819
1001
AcDbBlockRepETag
1070
     1
1071
       26
1005
CB2
  0
ARC
  5
CB3
330
81B
100
AcDbEntity
  8
0
  6
Continuous
 62
     7
370
    15
100
AcDbCircle
 10
1707.098029660429
 20
1158.576567755561
 30
0.0
 40
1.245283018862519
100
AcDbArc
 50
251.5413099186996
 51
48.71317332650032
1001
AcDbBlockRepETag
1070
     1
1071
       27
1005
CB3
  0
ARC
  5
CB4
330
81B
100
AcDbEntity
  8
0
  6
Continuous
 62
     7
370
    15
100
AcDbCircle
 10
1706.546034085846
 20
1156.922865458322
 30
0.0
 40
0.498113207544934
100
AcDbArc
 50
71.54130991871605
 51
114.1167068306921
1001
AcDbBlockRepETag
1070
     1
1071
       28
1005
CB4
  0
LINE
  5
CB5
330
81B
100
AcDbEntity
  8
0
  6
Continuous
 62
     7
370
    15
100
AcDbLine
 10
1705.105597102443
 20
1157.181841984523
 30
0.0
 11
1705.426627719204
 21
1157.181856885685
 31
0.0
1001
AcDbBlockRepETag
1070
     1
1071
       29
1005
CB5
  0
ARC
  5
CB6
330
81B
100
AcDbEntity
  8
0
  6
Continuous
 62
     7
370
    15
100
AcDbCircle
 10
1705.10557675089
 20
1157.8792092165
 30
0.0
 40
0.4981182900011163
100
AcDbArc
 50
89.99962181559864
 51
180.0
1001
AcDbBlockRepETag
1070
     1
1071
       30
1005
CB6
  0
ARC
  5
CB7
330
81B
100
AcDbEntity
  8
0
  6
Continuous
 62
     7
370
    15
100
AcDbCircle
 10
1705.426605007183
 20
1159.373548390891
 30
0.0
 40
0.9962278902358983
100
AcDbArc
 50
269.999997754493
 51
349.9999754968146
1001
AcDbBlockRepETag
1070
     1
1071
       31
1005
CB7
  0
LINE
  5
CB8
330
81B
100
AcDbEntity
  8
0
  6
Continuous
 62
     7
370
    15
100
AcDbLine
 10
1707.443827712337
 20
1165.076700702442
 30
0.0
 11
1706.407720172206
 21
1159.200561896099
 31
0.0
1001
AcDbBlockRepETag
1070
     1
1071
       32
1005
CB8
  0
ARC
  5
CB9
330
81B
100
AcDbEntity
  8
0
  6
Continuous
 62
     7
370
    15
100
AcDbCircle
 10
1706.953271124399
 20
1165.163183869016
 30
0.0
 40
0.4981165300304235
100
AcDbArc
 50
349.9999823468221
 51
89.999997754506
1001
AcDbBlockRepETag
1070
     1
1071
       33
1005
CB9
  0
LINE
  5
CBA
330
81B
100
AcDbEntity
  8
0
  6
Continuous
 62
     7
370
    15
100
AcDbLine
 10
1706.953281485836
 20
1165.661303058399
 30
0.0
 11
1683.058613860408
 21
1165.661303058399
 31
0.0
1001
AcDbBlockRepETag
1070
     1
1071
       34
1005
CBA
  0
LINE
  5
CBB
330
81B
100
AcDbEntity
  8
0
  6
Continuous
 62
     7
370
    15
100
AcDbLine
 10
1682.568067633907
 20
1165.076700702442
 30
0.0
 11
1683.604175174037
 21
1159.200561896099
 31
0.0
1001
AcDbBlockRepETag
1070
     1
1071
       35
1005
CBB
  0
ARC
  5
CBC
330
81B
100
AcDbEntity
  8
0
  6
Continuous
 62
     7
370
    15
100
AcDbCircle
 10
1684.585292550077
 20
1159.373548390891
 30
0.0
 40
0.9962278902355626
100
AcDbArc
 50
190.0000245031981
 51
270.0002161216548
1001
AcDbBlockRepETag
1070
     1
1071
       36
1005
CBC
  0
LINE
  5
CBD
330
81B
100
AcDbEntity
  8
0
  6
Continuous
 62
     7
370
    15
100
AcDbLine
 10
1684.906298243801
 20
1157.181856885685
 30
0.0
 11
1684.58526762704
 21
1157.181856885685
 31
0.0
1001
AcDbBlockRepETag
1070
     1
1071
       37
1005
CBD
  0
ARC
  5
CBE
330
81B
100
AcDbEntity
  8
0
  6
Continuous
 62
     7
370
    15
100
AcDbCircle
 10
1684.585264010776
 20
1159.423360339397
 30
0.0
 40
2.241509670753035
100
AcDbArc
 50
245.8832931692788
 51
270.0001147295205
1001
AcDbBlockRepETag
1070
     1
1071
       38
1005
CBE
  0
LINE
  5
CBF
330
81B
100
AcDbEntity
  8
0
  6
Continuous
 62
     7
370
    15
100
AcDbLine
 10
1678.069526278774
 20
1165.163187042011
 30
0.0
 11
1678.069526278774
 21
1162.858603254093
 31
0.0
1001
AcDbBlockRepETag
1070
     1
1071
       39
1005
CBF
  0
ARC
  5
CC0
330
81B
100
AcDbEntity
  8
0
  6
Continuous
 62
     7
370
    15
100
AcDbCircle
 10
1678.762380974506
 20
1161.591805381529
 30
0.0
 40
0.5016014800539143
100
AcDbArc
 50
359.9999978043364
 51
59.99987823635077
1001
AcDbBlockRepETag
1070
     1
1071
       40
1005
CC0
  0
LINE
  5
CC1
330
81B
100
AcDbEntity
  8
0
  6
Continuous
 62
     7
370
    15
100
AcDbLine
 10
1677.756034514705
 20
1159.210918203128
 30
0.0
 11
1677.756034514705
 21
1158.459780469669
 31
0.0
1001
AcDbBlockRepETag
1070
     1
1071
       41
1005
CC1
  0
ARC
  5
CC2
330
81B
100
AcDbEntity
  8
0
  6
Continuous
 62
     7
370
    15
100
AcDbCircle
 10
1668.073821933318
 20
1157.206301754494
 30
0.0
 40
0.4981114180957033
100
AcDbArc
 50
170.00002596392
 51
270.0001763205033
1001
AcDbBlockRepETag
1070
     1
1071
       42
1005
CC2
  0
ARC
  5
CC3
330
81B
100
AcDbEntity
  8
0
  6
Continuous
 62
     7
370
    15
100
AcDbCircle
 10
1668.95646759485
 20
1157.206302151077
 30
0.0
 40
0.4981132075452692
100
AcDbArc
 50
270.0
 51
14.99999566603188
1001
AcDbBlockRepETag
1070
     1
1071
       43
1005
CC3
  0
LINE
  5
CC4
330
81B
100
AcDbEntity
  8
0
  6
Continuous
 62
     7
370
    15
100
AcDbLine
 10
1669.437581622402
 20
1157.335219636692
 30
0.0
 11
1669.233793341915
 21
1158.491102710498
 31
0.0
1001
AcDbBlockRepETag
1070
     1
1071
       44
1005
CC4
  0
LINE
  5
CC5
330
81B
100
AcDbEntity
  8
0
  6
Continuous
 62
     7
370
    15
100
AcDbLine
 10
1668.052906119625
 20
1165.188191190494
 30
0.0
 11
1669.233793341915
 21
1158.491102710498
 31
0.0
1001
AcDbBlockRepETag
1070
     1
1071
       45
1005
CC5
  0
ARC
  5
CC6
330
81B
100
AcDbEntity
  8
0
  6
Continuous
 62
     7
370
    15
100
AcDbCircle
 10
1716.420342398849
 20
1160.605654953095
 30
0.0
 40
0.1992452830184299
100
AcDbArc
 50
183.981834008187
 51
350.0001675904303
1001
AcDbBlockRepETag
1070
     1
1071
       46
1005
CC6
  0
LINE
  5
CC7
330
81B
100
AcDbEntity
  8
0
  6
Continuous
 62
     7
370
    15
100
AcDbLine
 10
1716.08226927499
 20
1165.661303058399
 30
0.0
 11
1717.276627146999
 21
1165.661303058399
 31
0.0
1001
AcDbBlockRepETag
1070
     1
1071
       47
1005
CC7
  0
LINE
  5
CC8
330
81B
100
AcDbEntity
  8
0
  6
Continuous
 62
     7
370
    15
100
AcDbLine
 10
1673.929626071254
 20
1165.661303058399
 30
0.0
 11
1672.735268199245
 21
1165.661303058399
 31
0.0
1001
AcDbBlockRepETag
1070
     1
1071
       48
1005
CC8
  0
ARC
  5
CC9
330
81B
100
AcDbEntity
  8
0
  6
Continuous
 62
     7
370
    15
100
AcDbCircle
 10
1671.566973984995
 20
1156.446202366775
 30
0.0
 40
0.7471698113174341
100
AcDbArc
 50
189.9999912339799
 51
270.0
1001
AcDbBlockRepETag
1070
     1
1071
       49
1005
CC9
  0
ARC
  5
CCA
330
81B
100
AcDbEntity
  8
0
  6
Continuous
 62
     7
370
    15
100
AcDbCircle
 10
1675.536173264887
 20
1156.446202366775
 30
0.0
 40
0.7471698113175183
100
AcDbArc
 50
270.0
 51
356.0179310166422
1001
AcDbBlockRepETag
1070
     1
1071
       50
1005
CCA
  0
ARC
  5
CCB
330
81B
100
AcDbEntity
  8
0
  6
Continuous
 62
     7
370
    15
100
AcDbCircle
 10
1676.125645274947
 20
1164.914127265244
 30
0.0
 40
0.7471698113175183
100
AcDbArc
 50
356.0179310166422
 51
90.0
1001
AcDbBlockRepETag
1070
     1
1071
       51
1005
CCB
  0
LINE
  5
CCC
330
81B
100
AcDbEntity
  8
0
  6
Continuous
 62
     7
370
    15
100
AcDbLine
 10
1675.629610144893
 20
1165.661303058399
 30
0.0
 11
1676.125639998714
 21
1165.661303058399
 31
0.0
1001
AcDbBlockRepETag
1070
     1
1071
       52
1005
CCC
  0
ARC
  5
CCD
330
81B
100
AcDbEntity
  8
0
  6
Continuous
 62
     7
370
    15
100
AcDbCircle
 10
1675.629613814425
 20
1164.914127265244
 30
0.0
 40
0.747169811317491
100
AcDbArc
 50
90.0
 51
176.0181975618384
1001
AcDbBlockRepETag
1070
     1
1071
       53
1005
CCD
  0
ARC
  5
CCE
330
81B
100
AcDbEntity
  8
0
  6
Continuous
 62
     7
370
    15
100
AcDbCircle
 10
1671.071175678967
 20
1164.914127265244
 30
0.0
 40
0.747169811317491
100
AcDbArc
 50
9.999970386423896
 51
90.0
1001
AcDbBlockRepETag
1070
     1
1071
       54
1005
CCE
  0
LINE
  5
CCF
330
81B
100
AcDbEntity
  8
0
  6
Continuous
 62
     7
370
    15
100
AcDbLine
 10
1670.073861205379
 20
1165.661303058399
 30
0.0
 11
1671.071166121761
 21
1165.661303058399
 31
0.0
1001
AcDbBlockRepETag
1070
     1
1071
       55
1005
CCF
  0
LINE
  5
CD0
330
81B
100
AcDbEntity
  8
0
  6
Continuous
 62
     7
370
    15
100
AcDbLine
 10
1719.938034140865
 20
1165.661303058399
 30
0.0
 11
1718.940729224483
 21
1165.661303058399
 31
0.0
1001
AcDbBlockRepETag
1070
     1
1071
       56
1005
CD0
  0
ARC
  5
CD1
330
81B
100
AcDbEntity
  8
0
  6
Continuous
 62
     7
370
    15
100
AcDbCircle
 10
1718.940721878293
 20
1164.914127265244
 30
0.0
 40
0.747169811317491
100
AcDbArc
 50
90.0
 51
170.0000296135761
1001
AcDbBlockRepETag
1070
     1
1071
       57
1005
CD1
  0
ARC
  5
CD2
330
81B
100
AcDbEntity
  8
0
  6
Continuous
 62
     7
370
    15
100
AcDbCircle
 10
1714.382283742835
 20
1164.914127265244
 30
0.0
 40
0.7471698113175478
100
AcDbArc
 50
3.981802438161584
 51
90.0
1001
AcDbBlockRepETag
1070
     1
1071
       58
1005
CD2
  0
LINE
  5
CD3
330
81B
100
AcDbEntity
  8
0
  6
Continuous
 62
     7
370
    15
100
AcDbLine
 10
1714.382285201351
 20
1165.661303058399
 30
0.0
 11
1713.88625534753
 21
1165.661303058399
 31
0.0
1001
AcDbBlockRepETag
1070
     1
1071
       59
1005
CD3
  0
ARC
  5
CD4
330
81B
100
AcDbEntity
  8
0
  6
Continuous
 62
     7
370
    15
100
AcDbCircle
 10
1713.886252282313
 20
1164.914127265244
 30
0.0
 40
0.747169811317491
100
AcDbArc
 50
90.0
 51
183.9820689833708
1001
AcDbBlockRepETag
1070
     1
1071
       60
1005
CD4
  0
ARC
  5
CD5
330
81B
100
AcDbEntity
  8
0
  6
Continuous
 62
     7
370
    15
100
AcDbCircle
 10
1714.475724292373
 20
1156.446202366775
 30
0.0
 40
0.7471698113175194
100
AcDbArc
 50
183.9820689833708
 51
270.0
1001
AcDbBlockRepETag
1070
     1
1071
       61
1005
CD5
  0
ARC
  5
CD6
330
81B
100
AcDbEntity
  8
0
  6
Continuous
 62
     7
370
    15
100
AcDbCircle
 10
1718.444923572264
 20
1156.446202366775
 30
0.0
 40
0.7471698113175194
100
AcDbArc
 50
270.0
 51
350.0000087660201
1001
AcDbBlockRepETag
1070
     1
1071
       62
1005
CD6
  0
ARC
  5
CD7
330
81B
100
AcDbEntity
  8
0
  6
Continuous
 62
     7
370
    15
100
AcDbCircle
 10
1719.938045866638
 20
1164.914127265244
 30
0.0
 40
0.747169811317928
100
AcDbArc
 50
350.0000087660201
 51
90.0
1001
AcDbBlockRepETag
1070
     1
1071
       63
1005
CD7
  0
LINE
  5
CD8
330
81B
100
AcDbEntity
  8
0
  6
Continuous
 62
     7
370
    15
100
AcDbLine
 10
1678.828293406765
 20
1158.114982500805
 30
0.0
 11
1678.907329165737
 21
1158.093807950748
 31
0.0
1001
AcDbBlockRepETag
1070
     1
1071
       64
1005
CD8
  0
ARC
  5
CD9
330
81B
100
AcDbEntity
  8
0
  6
Continuous
 62
     7
370
    15
100
AcDbCircle
 10
1672.735255906687
 20
1165.462052396717
 30
0.0
 40
0.1992452830188845
100
AcDbArc
 50
90.0
 51
189.9998324094928
1001
AcDbBlockRepETag
1070
     1
1071
       65
1005
CD9
  0
LINE
  5
CDA
330
81B
100
AcDbEntity
  8
0
  6
Continuous
 62
     7
370
    15
100
AcDbLine
 10
1678.31861408929
 20
1162.427214637531
 30
0.0
 11
1679.013187014858
 21
1162.026194587482
 31
0.0
1001
AcDbBlockRepETag
1070
     1
1071
       66
1005
CDA
  0
LINE
  5
CDB
330
81B
100
AcDbEntity
  8
0
  6
Continuous
 62
     7
370
    15
100
AcDbLine
 10
1679.468983733455
 20
1165.661303058399
 30
0.0
 11
1678.567642295162
 21
1165.661303058399
 31
0.0
1001
AcDbBlockRepETag
1070
     1
1071
       67
1005
CDB
  0
ARC
  5
CDC
330
81B
100
AcDbEntity
  8
0
  6
Continuous
 62
     7
370
    15
100
AcDbCircle
 10
1681.131007783772
 20
1168.705003444107
 30
0.0
 40
3.414267169795819
100
AcDbArc
 50
244.8617056796626
 51
268.989766987568
1001
AcDbBlockRepETag
1070
     1
1071
       68
1005
CDC
  0
LINE
  5
CDD
330
81B
100
AcDbEntity
  8
0
  6
Continuous
 62
     7
370
    15
100
AcDbLine
 10
1665.928954207698
 20
1156.695259466899
 30
0.0
 11
1665.928954207698
 21
1157.99298669411
 31
0.0
1001
AcDbBlockRepETag
1070
     1
1071
       69
1005
CDD
  0
LINE
  5
CDE
330
81B
100
AcDbEntity
  8
0
  6
Continuous
 62
     7
370
    15
100
AcDbLine
 10
1684.58526762704
 20
1158.377317443622
 30
0.0
 11
1684.906298243801
 21
1158.377317443622
 31
0.0
1001
AcDbBlockRepETag
1070
     1
1071
       70
1005
CDE
  0
LINE
  5
CDF
330
81B
100
AcDbEntity
  8
0
  6
Continuous
 62
     7
370
    15
100
AcDbLine
 10
1705.426627719204
 20
1158.377317443622
 30
0.0
 11
1705.105597102443
 21
1158.377317443622
 31
0.0
1001
AcDbBlockRepETag
1070
     1
1071
       71
1005
CDF
  0
ARC
  5
CE0
330
81B
100
AcDbEntity
  8
0
  6
Continuous
 62
     7
370
    15
100
AcDbCircle
 10
1705.426633546483
 20
1159.423360339397
 30
0.0
 40
2.241509433952488
100
AcDbArc
 50
269.999997754493
 51
294.1167068307384
1001
AcDbBlockRepETag
1070
     1
1071
       72
1005
CE0
  0
ARC
  5
CE1
330
81B
100
AcDbEntity
  8
0
  6
Continuous
 62
     7
370
    15
100
AcDbCircle
 10
1708.880889773488
 20
1168.705003444107
 30
0.0
 40
3.414267169796183
100
AcDbArc
 50
271.010233012419
 51
295.1382943203375
1001
AcDbBlockRepETag
1070
     1
1071
       73
1005
CE1
  0
LINE
  5
CE2
330
81B
100
AcDbEntity
  8
0
  6
Continuous
 62
     7
370
    15
100
AcDbLine
 10
1711.693281256954
 20
1162.427214637531
 30
0.0
 11
1710.998708331386
 21
1162.026194587482
 31
0.0
1001
AcDbBlockRepETag
1070
     1
1071
       74
1005
CE2
  0
LINE
  5
CE3
330
81B
100
AcDbEntity
  8
0
  6
Continuous
 62
     7
370
    15
100
AcDbLine
 10
1717.052811705867
 20
1158.509982481731
 30
0.0
 11
1718.204909884731
 21
1165.043858543171
 31
0.0
1001
AcDbBlockRepETag
1070
     1
1071
       75
1005
CE3
  0
LINE
  5
CE4
330
81B
100
AcDbEntity
  8
0
  6
Continuous
 62
     7
370
    15
100
AcDbLine
 10
1711.022669398586
 20
1159.495694294704
 30
0.0
 11
1712.073976875447
 21
1159.409398288244
 31
0.0
1001
AcDbBlockRepETag
1070
     1
1071
       76
1005
CE4
  0
LINE
  5
CE5
330
81B
100
AcDbEntity
  8
0
  6
Continuous
 62
     7
370
    15
100
AcDbLine
 10
1677.920685084094
 20
1158.263558629426
 30
0.0
 11
1678.828293406765
 21
1158.114982500805
 31
0.0
1001
AcDbBlockRepETag
1070
     1
1071
       77
1005
CE5
  0
ARC
  5
CE6
330
81B
100
AcDbEntity
  8
0
  6
Continuous
 62
     7
370
    15
100
AcDbCircle
 10
1677.955283598568
 20
1159.210912166829
 30
0.0
 40
0.1992452830183231
100
AcDbArc
 50
94.99999751685329
 51
180.0
1001
AcDbBlockRepETag
1070
     1
1071
       78
1005
CE6
  0
ARC
  5
CE7
330
81B
100
AcDbEntity
  8
0
  6
Continuous
 62
     7
370
    15
100
AcDbCircle
 10
1679.469010697581
 20
1165.163183869016
 30
0.0
 40
0.4981132075450035
100
AcDbArc
 50
64.86170567967987
 51
90.0
1001
AcDbBlockRepETag
1070
     1
1071
       79
1005
CE7
  0
LINE
  5
CE8
330
81B
100
AcDbEntity
  8
0
  6
Continuous
 62
     7
370
    15
100
AcDbLine
 10
1675.536150061885
 20
1155.699027434124
 30
0.0
 11
1671.566957557003
 21
1155.699027434124
 31
0.0
1001
AcDbBlockRepETag
1070
     1
1071
       80
1005
CE8
  0
ARC
  5
CE9
330
81B
100
AcDbEntity
  8
0
  6
Continuous
 62
     7
370
    15
100
AcDbCircle
 10
1684.906320806369
 20
1157.8792092165
 30
0.0
 40
0.4981127844645153
100
AcDbArc
 50
0.0000044909879924
 51
89.99995812804097
1001
AcDbBlockRepETag
1070
     1
1071
       81
1005
CE9
  0
LINE
  5
CEA
330
81B
100
AcDbEntity
  8
0
  6
Continuous
 62
     7
370
    15
100
AcDbLine
 10
1673.790330016414
 20
1160.591823712123
 30
0.0
 11
1674.128347956935
 21
1165.448216453327
 31
0.0
1001
AcDbBlockRepETag
1070
     1
1071
       82
1005
CEA
  0
LINE
  5
CEB
330
81B
100
AcDbEntity
  8
0
  6
Continuous
 62
     7
370
    15
100
AcDbLine
 10
1672.539049708644
 20
1165.427444234623
 30
0.0
 11
1673.395330035488
 21
1160.571051493419
 31
0.0
1001
AcDbBlockRepETag
1070
     1
1071
       83
1005
CEB
  0
LINE
  5
CEC
330
81B
100
AcDbEntity
  8
0
  6
Continuous
 62
     7
370
    15
100
AcDbLine
 10
1717.4728456376
 20
1165.427444234623
 30
0.0
 11
1716.616565310756
 21
1160.571051493419
 31
0.0
1001
AcDbBlockRepETag
1070
     1
1071
       84
1005
CEC
  0
LINE
  5
CED
330
81B
100
AcDbEntity
  8
0
  6
Continuous
 62
     7
370
    15
100
AcDbLine
 10
1716.22156532983
 20
1160.591823712123
 30
0.0
 11
1715.883547389308
 21
1165.448216453327
 31
0.0
1001
AcDbBlockRepETag
1070
     1
1071
       85
1005
CED
  0
ARC
  5
CEE
330
81B
100
AcDbEntity
  8
0
  6
Continuous
 62
     7
370
    15
100
AcDbCircle
 10
1667.921385756662
 20
1156.695261103491
 30
0.0
 40
1.992451581450175
100
AcDbArc
 50
180.0000992381848
 51
269.9789196359664
1001
AcDbBlockRepETag
1070
     1
1071
       86
1005
CEE
  0
LINE
  5
CEF
330
81B
100
AcDbEntity
  8
0
  6
Continuous
 62
     7
370
    15
100
AcDbLine
 10
1675.472015464107
 20
1154.702810302509
 30
0.0
 11
1667.920643412868
 21
1154.702810302509
 31
0.0
1001
AcDbBlockRepETag
1070
     1
1071
       87
1005
CEF
  0
LINE
  5
CF0
330
81B
100
AcDbEntity
  8
0
  6
Continuous
 62
     7
370
    15
100
AcDbLine
 10
1668.073827349941
 20
1156.708193674816
 30
0.0
 11
1668.956452929775
 21
1156.708193674816
 31
0.0
1001
AcDbBlockRepETag
1070
     1
1071
       88
1005
CF0
  0
ARC
  5
CF1
330
81B
100
AcDbEntity
  8
0
  6
Continuous
 62
     7
370
    15
100
AcDbCircle
 10
1670.073851690621
 20
1164.914127265244
 30
0.0
 40
0.7471698113176282
100
AcDbArc
 50
90.0
 51
189.9999912339799
1001
AcDbBlockRepETag
1070
     1
1071
       89
1005
CF1
  0
ARC
  5
CF2
330
81B
100
AcDbEntity
  8
0
  6
Continuous
 62
     7
370
    15
100
AcDbCircle
 10
1673.929600302674
 20
1165.462052396717
 30
0.0
 40
0.1992452830180582
100
AcDbArc
 50
356.0181659918129
 51
90.0
1001
AcDbBlockRepETag
1070
     1
1071
       90
1005
CF2
  0
ARC
  5
CF3
330
81B
100
AcDbEntity
  8
0
  6
Continuous
 62
     7
370
    15
100
AcDbCircle
 10
1673.591555158411
 20
1160.605654953095
 30
0.0
 40
0.1992452830187721
100
AcDbArc
 50
189.9998324095312
 51
356.0181659918129
1001
AcDbBlockRepETag
1070
     1
1071
       91
1005
CF3
  0
LINE
  5
CF4
330
81B
100
AcDbEntity
  8
0
  6
Continuous
 62
     7
370
    15
100
AcDbLine
 10
1678.989225947658
 20
1159.495694294704
 30
0.0
 11
1677.93791823654
 21
1159.409399262144
 31
0.0
1001
AcDbBlockRepETag
1070
     1
1071
       92
1005
CF4
  0
ARC
  5
CF5
330
81B
100
AcDbEntity
  8
0
  6
Continuous
 62
     7
370
    15
100
AcDbCircle
 10
1682.91386789683
 20
1158.576567755561
 30
0.0
 40
1.245283018862393
100
AcDbArc
 50
131.286826673518
 51
288.4586900813004
1001
AcDbBlockRepETag
1070
     1
1071
       93
1005
CF5
  0
ARC
  5
CF6
330
81B
100
AcDbEntity
  8
0
  6
Continuous
 62
     7
370
    15
100
AcDbCircle
 10
1717.276641650573
 20
1165.462052396717
 30
0.0
 40
0.1992452830187166
100
AcDbArc
 50
350.0001675904944
 51
90.0
1001
AcDbBlockRepETag
1070
     1
1071
       94
1005
CF6
  0
ARC
  5
CF7
330
81B
100
AcDbEntity
  8
0
  6
Continuous
 62
     7
370
    15
100
AcDbCircle
 10
1716.082297254586
 20
1165.462052396717
 30
0.0
 40
0.1992452830184845
100
AcDbArc
 50
90.0
 51
183.981834008187
1001
AcDbBlockRepETag
1070
     1
1071
       95
1005
CF7
  0
ARC
  5
CF8
330
81B
100
AcDbEntity
  8
0
  6
Continuous
 62
     7
370
    15
100
AcDbCircle
 10
1684.906320584373
 20
1157.679963952687
 30
0.0
 40
0.4981130220774645
100
AcDbArc
 50
270.0000219973081
 51
359.9999938242369
1001
AcDbBlockRepETag
1070
     1
1071
       96
1005
CF8
  0
ARC
  5
CF9
330
81B
100
AcDbEntity
  8
0
  6
Continuous
 62
     7
370
    15
100
AcDbCircle
 10
1678.829427491956
 20
1157.803102391643
 30
0.0
 40
0.3009579588834772
100
AcDbArc
 50
324.9997379102993
 51
74.99976249107556
1001
AcDbBlockRepETag
1070
     1
1071
       97
1005
CF9
  0
ARC
  5
CFA
330
81B
100
AcDbEntity
  8
0
  6
Continuous
 62
     7
370
    15
100
AcDbCircle
 10
1678.963020974506
 20
1159.79550691084
 30
0.0
 40
0.3009599999988952
100
AcDbArc
 50
274.9999956766128
 51
359.9999978382862
1001
AcDbBlockRepETag
1070
     1
1071
       98
1005
CFA
  0
LINE
  5
CFB
330
81B
100
AcDbEntity
  8
0
  6
Continuous
 62
     7
370
    15
100
AcDbLine
 10
1713.140899264614
 20
1164.86224319054
 30
0.0
 11
1713.730329596798
 21
1156.394315615429
 31
0.0
1001
AcDbBlockRepETag
1070
     1
1071
       99
1005
CFB
  0
ARC
  5
CFC
330
81B
100
AcDbEntity
  8
0
  6
Continuous
 62
     7
370
    15
100
AcDbCircle
 10
1678.567667867048
 20
1162.858592566376
 30
0.0
 40
0.4981133457597152
100
AcDbArc
 50
180.0000724305313
 51
240.0001494682353
1001
AcDbBlockRepETag
1070
     1
1071
      100
1005
CFC
  0
ARC
  5
CFD
330
81B
100
AcDbEntity
  8
0
  6
Continuous
 62
     7
370
    15
100
AcDbCircle
 10
1678.567662220984
 20
1165.163183869016
 30
0.0
 40
0.4981132075450035
100
AcDbArc
 50
90.0
 51
180.0000701850113
1001
AcDbBlockRepETag
1070
     1
1071
      101
1005
CFD
  0
ARC
  5
CFE
330
81B
100
AcDbEntity
  8
0
  6
Continuous
 62
     7
370
    15
100
AcDbCircle
 10
1681.065541577955
 20
1164.99244551128
 30
0.0
 40
0.2988702015261606
100
AcDbArc
 50
9.999963409357928
 51
88.98976698755495
1001
AcDbBlockRepETag
1070
     1
1071
      102
1005
CFE
  0
ARC
  5
CFF
330
81B
100
AcDbEntity
  8
0
  6
Continuous
 62
     7
370
    15
100
AcDbCircle
 10
1681.763524645135
 20
1159.886583330097
 30
0.0
 40
0.4981157170448255
100
AcDbArc
 50
311.2868266734531
 51
9.999973852665942
1001
AcDbBlockRepETag
1070
     1
1071
      103
1005
CFF
  0
ARC
  5
D00
330
81B
100
AcDbEntity
  8
0
  6
Continuous
 62
     7
370
    15
100
AcDbCircle
 10
1683.465863471413
 20
1156.922865458322
 30
0.0
 40
0.4981132075448873
100
AcDbArc
 50
65.88329316926159
 51
108.4586900813128
1001
AcDbBlockRepETag
1070
     1
1071
      104
1005
D00
  0
LINE
  5
D01
330
81B
100
AcDbEntity
  8
0
  6
Continuous
 62
     7
370
    15
100
AcDbLine
 10
1674.884254061977
 20
1164.966014877094
 30
0.0
 11
1674.440259063045
 21
1158.587841048969
 31
0.0
1001
AcDbBlockRepETag
1070
     1
1071
      105
1005
D01
  0
ARC
  5
D02
330
81B
100
AcDbEntity
  8
0
  6
Continuous
 62
     7
370
    15
100
AcDbCircle
 10
1683.05862643286
 20
1165.163183869016
 30
0.0
 40
0.4981165300304235
100
AcDbArc
 50
90.00000224549401
 51
190.0000176531779
1001
AcDbBlockRepETag
1070
     1
1071
      106
1005
D02
  0
ARC
  5
D03
330
81B
100
AcDbEntity
  8
0
  6
Continuous
 62
     7
370
    15
100
AcDbCircle
 10
1677.955283598568
 20
1158.459776940501
 30
0.0
 40
0.1992452830180582
100
AcDbArc
 50
180.0
 51
260.0000192224532
1001
AcDbBlockRepETag
1070
     1
1071
      107
1005
D03
  0
LINE
  5
D04
330
81B
100
AcDbEntity
  8
0
  6
Continuous
 62
     7
370
    15
100
AcDbLine
 10
1669.338041865627
 20
1164.784369722141
 30
0.0
 11
1670.83113821725
 21
1156.316457048191
 31
0.0
1001
AcDbBlockRepETag
1070
     1
1071
      108
1005
D04
  0
ARC
  5
D05
330
81B
100
AcDbEntity
  8
0
  6
Continuous
 62
     7
370
    15
100
AcDbCircle
 10
1666.427046134027
 20
1157.992991611503
 30
0.0
 40
0.4981136288151293
100
AcDbArc
 50
89.99978459381837
 51
180.0001158547492
1001
AcDbBlockRepETag
1070
     1
1071
      109
1005
D05
  0
LINE
  5
D06
330
81B
100
AcDbEntity
  8
0
  6
Continuous
 62
     7
370
    15
100
AcDbLine
 10
1685.404414260189
 20
1157.879216328395
 30
0.0
 11
1685.404414260189
 21
1157.679958000911
 31
0.0
1001
AcDbBlockRepETag
1070
     1
1071
      110
1005
D06
  0
LINE
  5
D07
330
81B
100
AcDbEntity
  8
0
  6
Continuous
 62
     7
370
    15
100
AcDbLine
 10
1704.607481086055
 20
1157.879216328395
 30
0.0
 11
1704.607481086055
 21
1157.679958000911
 31
0.0
1001
AcDbBlockRepETag
1070
     1
1071
      111
1005
D07
  0
ARC
  5
D08
330
81B
100
AcDbEntity
  8
0
  6
Continuous
 62
     7
370
    15
100
AcDbCircle
 10
1705.105576972886
 20
1157.679963952687
 30
0.0
 40
0.4981185456977104
100
AcDbArc
 50
180.0000280758466
 51
270.0003654165666
1001
AcDbBlockRepETag
1070
     1
1071
      112
1005
D08
  0
LINE
  5
D09
330
81B
100
AcDbEntity
  8
0
  6
Continuous
 62
     7
370
    15
100
AcDbLine
 10
1712.255860831539
 20
1159.210918203128
 30
0.0
 11
1712.255860831539
 21
1158.459780469669
 31
0.0
1001
AcDbBlockRepETag
1070
     1
1071
      113
1005
D09
  0
LINE
  5
D0A
330
81B
100
AcDbEntity
  8
0
  6
Continuous
 62
     7
370
    15
100
AcDbLine
 10
1712.09122392692
 20
1158.263561979068
 30
0.0
 11
1711.183601939479
 21
1158.114982500805
 31
0.0
1001
AcDbBlockRepETag
1070
     1
1071
      114
1005
D0A
  0
ARC
  5
D0B
330
81B
100
AcDbEntity
  8
0
  6
Continuous
 62
     7
370
    15
100
AcDbCircle
 10
1711.249516582754
 20
1161.591805381529
 30
0.0
 40
0.5016010249881377
100
AcDbArc
 50
120.0001217634214
 51
179.9999558181387
1001
AcDbBlockRepETag
1070
     1
1071
      115
1005
D0B
  0
ARC
  5
D0C
330
81B
100
AcDbEntity
  8
0
  6
Continuous
 62
     7
370
    15
100
AcDbCircle
 10
1711.182470065304
 20
1157.803102391643
 30
0.0
 40
0.3009599999976273
100
AcDbArc
 50
105.0002588108883
 51
215.0000043237525
1001
AcDbBlockRepETag
1070
     1
1071
      116
1005
D0C
  0
LINE
  5
D0D
330
81B
100
AcDbEntity
  8
0
  6
Continuous
 62
     7
370
    15
100
AcDbLine
 10
1724.082941138546
 20
1157.99298669411
 30
0.0
 11
1724.082941138546
 21
1156.695259466899
 31
0.0
1001
AcDbBlockRepETag
1070
     1
1071
      117
1005
D0D
  0
ARC
  5
D0E
330
81B
100
AcDbEntity
  8
0
  6
Continuous
 62
     7
370
    15
100
AcDbCircle
 10
1673.694911601726
 20
1158.639720589841
 30
0.0
 40
0.747169811317701
100
AcDbArc
 50
189.9999703864239
 51
356.0181975618384
1001
AcDbBlockRepETag
1070
     1
1071
      118
1005
D0E
  0
LINE
  5
D0F
330
81B
100
AcDbEntity
  8
0
  6
Continuous
 62
     7
370
    15
100
AcDbLine
 10
1682.25407036523
 20
1159.973082795871
 30
0.0
 11
1681.35988148431
 21
1165.044335380329
 31
0.0
1001
AcDbBlockRepETag
1070
     1
1071
      119
1005
D0F
  0
ARC
  5
D10
330
81B
100
AcDbEntity
  8
0
  6
Continuous
 62
     7
370
    15
100
AcDbCircle
 10
1723.584851423232
 20
1157.992991611503
 30
0.0
 40
0.4981122747651016
100
AcDbArc
 50
0.0001009017641845
 51
90.00021540558234
1001
AcDbBlockRepETag
1070
     1
1071
      120
1005
D10
  0
ARC
  5
D11
330
81B
100
AcDbEntity
  8
0
  6
Continuous
 62
     7
370
    15
100
AcDbCircle
 10
1721.05542580315
 20
1157.206301754494
 30
0.0
 40
0.4981118284454097
100
AcDbArc
 50
164.9998745111372
 51
270.0002392104112
1001
AcDbBlockRepETag
1070
     1
1071
      121
1005
D11
  0
ARC
  5
D12
330
81B
100
AcDbEntity
  8
0
  6
Continuous
 62
     7
370
    15
100
AcDbCircle
 10
1716.316985955533
 20
1158.639720589841
 30
0.0
 40
0.7471698113179279
100
AcDbArc
 50
183.9818024381616
 51
350.0000296135762
1001
AcDbBlockRepETag
1070
     1
1071
      122
1005
D12
  0
ARC
  5
D13
330
81B
100
AcDbEntity
  8
0
  6
Continuous
 62
     7
370
    15
100
AcDbCircle
 10
1712.056613958691
 20
1158.459776940501
 30
0.0
 40
0.1992439735369528
100
AcDbArc
 50
279.9997189665719
 51
0.0000152203625513
1001
AcDbBlockRepETag
1070
     1
1071
      123
1005
D13
  0
LINE
  5
D14
330
81B
100
AcDbEntity
  8
0
  6
Continuous
 62
     7
370
    15
100
AcDbLine
 10
1720.673853480617
 20
1164.784369722141
 30
0.0
 11
1719.180757128994
 21
1156.316457048191
 31
0.0
1001
AcDbBlockRepETag
1070
     1
1071
      124
1005
D14
  0
LINE
  5
D15
330
81B
100
AcDbEntity
  8
0
  6
Continuous
 62
     7
370
    15
100
AcDbLine
 10
1714.475745284359
 20
1155.699027434124
 30
0.0
 11
1718.444937789241
 21
1155.699027434124
 31
0.0
1001
AcDbBlockRepETag
1070
     1
1071
      125
1005
D15
  0
LINE
  5
D16
330
81B
100
AcDbEntity
  8
0
  6
Continuous
 62
     7
370
    15
100
AcDbLine
 10
1715.127641284267
 20
1164.966014877094
 30
0.0
 11
1715.571636283199
 21
1158.587841048969
 31
0.0
1001
AcDbBlockRepETag
1070
     1
1071
      126
1005
D16
  0
LINE
  5
D17
330
81B
100
AcDbEntity
  8
0
  6
Continuous
 62
     7
370
    15
100
AcDbLine
 10
1679.264003360073
 20
1161.59181083752
 30
0.0
 11
1679.264003360073
 21
1159.795505657924
 31
0.0
1001
AcDbBlockRepETag
1070
     1
1071
      127
1005
D17
  0
LINE
  5
D18
330
81B
100
AcDbEntity
  8
0
  6
Continuous
 62
     7
370
    15
100
AcDbLine
 10
1672.959083640377
 20
1158.509982481731
 30
0.0
 11
1671.806985461513
 21
1165.043858543171
 31
0.0
1001
AcDbBlockRepETag
1070
     1
1071
      128
1005
D18
  0
LINE
  5
D19
330
81B
100
AcDbEntity
  8
0
  6
Continuous
 62
     7
370
    15
100
AcDbLine
 10
1679.075950705806
 20
1157.630486145748
 30
0.0
 11
1677.918368899623
 21
1155.977247014774
 31
0.0
1001
AcDbBlockRepETag
1070
     1
1071
      129
1005
D19
  0
LINE
  5
D1A
330
81B
100
AcDbEntity
  8
0
  6
Continuous
 62
     7
370
    15
100
AcDbLine
 10
1676.87099608163
 20
1164.86224319054
 30
0.0
 11
1676.281565749446
 21
1156.394315615429
 31
0.0
1001
AcDbBlockRepETag
1070
     1
1071
      130
1005
D1A
  0
ARC
  5
D1B
330
81B
100
AcDbEntity
  8
0
  6
Continuous
 62
     7
370
    15
100
AcDbCircle
 10
1675.470174058991
 20
1157.691485600136
 30
0.0
 40
2.98867924526156
100
AcDbArc
 50
270.0352334188806
 51
325.0000639179974
1001
AcDbBlockRepETag
1070
     1
1071
      131
1005
D1B
  0
ARC
  5
D1C
330
81B
100
AcDbEntity
  8
0
  6
Continuous
 62
     7
370
    15
100
AcDbCircle
 10
1719.998864276101
 20
1165.545727285925
 30
0.0
 40
1.992452830460577
100
AcDbArc
 50
349.6625847959013
 51
45.07284670238731
1001
AcDbBlockRepETag
1070
     1
1071
      132
1005
D1C
  0
LINE
  5
D1D
330
81B
100
AcDbEntity
  8
0
  6
Continuous
 62
     7
370
    15
100
AcDbLine
 10
1668.605977618496
 20
1166.956392780079
 30
0.0
 11
1721.405977332393
 21
1166.956392780079
 31
0.0
1001
AcDbBlockRepETag
1070
     1
1071
      133
1005
D1D
  0
LINE
  5
D1E
330
81B
100
AcDbEntity
  8
0
  6
Continuous
 62
     7
370
    15
100
AcDbLine
 10
1722.217315757076
 20
1158.491102710498
 30
0.0
 11
1723.584825122158
 21
1158.491102710498
 31
0.0
1001
AcDbBlockRepETag
1070
     1
1071
      134
1005
D1E
  0
LINE
  5
D1F
330
81B
100
AcDbEntity
  8
0
  6
Continuous
 62
     7
370
    15
100
AcDbLine
 10
1667.794579589168
 20
1158.491102710498
 30
0.0
 11
1667.583281123439
 21
1157.292796030773
 31
0.0
1001
AcDbBlockRepETag
1070
     1
1071
      135
1005
D1F
  0
LINE
  5
D20
330
81B
100
AcDbEntity
  8
0
  6
Continuous
 62
     7
370
    15
100
AcDbLine
 10
1667.794579589168
 20
1158.491102710498
 30
0.0
 11
1666.427070224086
 21
1158.491102710498
 31
0.0
1001
AcDbBlockRepETag
1070
     1
1071
      136
1005
D20
  0
ARC
  5
D21
330
81B
100
AcDbEntity
  8
0
  6
Continuous
 62
     7
370
    15
100
AcDbCircle
 10
1670.013033281159
 20
1165.545727285925
 30
0.0
 40
1.992452830460435
100
AcDbArc
 50
134.9271532976311
 51
190.3374152037025
1001
AcDbBlockRepETag
1070
     1
1071
      137
1005
D21
  0
LINE
  5
D22
330
81B
100
AcDbEntity
  8
0
  6
Continuous
 62
     7
370
    15
100
AcDbLine
 10
1722.428614222805
 20
1157.292796030773
 30
0.0
 11
1722.217315757076
 21
1158.491102710498
 31
0.0
1001
AcDbBlockRepETag
1070
     1
1071
      138
1005
D22
  0
ARC
  5
D23
330
81B
100
AcDbEntity
  8
0
  6
Continuous
 62
     7
370
    15
100
AcDbCircle
 10
1692.503196854945
 20
1206.262328487806
 30
0.0
 40
2.000000000000285
100
AcDbArc
 50
7.999999999999968
 51
148.3736100541726
1001
AcDbBlockRepETag
1070
     1
1071
      139
1005
D23
  0
LINE
  5
D24
330
81B
100
AcDbEntity
  8
0
  6
Continuous
 62
     7
370
    15
100
AcDbLine
 10
1694.622928225795
 20
1205.550394244922
 30
0.0
 11
1694.483751380245
 21
1206.540665813221
 31
0.0
1001
AcDbBlockRepETag
1070
     1
1071
      140
1005
D24
  0
LINE
  5
D25
330
81B
100
AcDbEntity
  8
0
  6
Continuous
 62
     7
370
    15
100
AcDbLine
 10
1697.404438578884
 20
1204.426578470005
 30
0.0
 11
1694.622928225795
 21
1205.550394244922
 31
0.0
1001
AcDbBlockRepETag
1070
     1
1071
      141
1005
D25
  0
LINE
  5
D26
330
81B
100
AcDbEntity
  8
0
  6
Continuous
 62
     7
370
    15
100
AcDbLine
 10
1697.696501338283
 20
1206.805072017444
 30
0.0
 11
1697.404438578884
 21
1204.426578470005
 31
0.0
1001
AcDbBlockRepETag
1070
     1
1071
      142
1005
D26
  0
ARC
  5
D27
330
81B
100
AcDbEntity
  8
0
  6
Continuous
 62
     7
370
    15
100
AcDbCircle
 10
1697.944636856824
 20
1206.774616114523
 30
0.0
 40
0.2500000000003657
100
AcDbArc
 50
97.99999999999995
 51
172.9999999999814
1001
AcDbBlockRepETag
1070
     1
1071
      143
1005
D27
  0
LINE
  5
D28
330
81B
100
AcDbEntity
  8
0
  6
Continuous
 62
     7
370
    15
100
AcDbLine
 10
1698.29433592538
 20
1207.076213546528
 30
0.0
 11
1697.909826361934
 21
1207.022181936039
 31
0.0
1001
AcDbBlockRepETag
1070
     1
1071
      144
1005
D28
  0
ARC
  5
D29
330
81B
100
AcDbEntity
  8
0
  6
Continuous
 62
     7
370
    15
100
AcDbCircle
 10
1698.329153265857
 20
1206.828656371606
 30
0.0
 40
0.2499999999999408
100
AcDbArc
 50
7.999999999999968
 51
97.99999999999995
1001
AcDbBlockRepETag
1070
     1
1071
      145
1005
D29
  0
LINE
  5
D2A
330
81B
100
AcDbEntity
  8
0
  6
Continuous
 62
     7
370
    15
100
AcDbLine
 10
1699.371630275051
 20
1201.207331605686
 30
0.0
 11
1698.576742732326
 21
1206.863454767002
 31
0.0
1001
AcDbBlockRepETag
1070
     1
1071
      146
1005
D2A
  0
LINE
  5
D2B
330
81B
100
AcDbEntity
  8
0
  6
Continuous
 62
     7
370
    15
100
AcDbLine
 10
1690.764898383419
 20
1204.965255447162
 30
0.0
 11
1691.292995536129
 21
1201.207331605686
 31
0.0
1001
AcDbBlockRepETag
1070
     1
1071
      147
1005
D2B
  0
LINE
  5
D2C
330
81B
100
AcDbEntity
  8
0
  6
Continuous
 62
     7
370
    15
100
AcDbLine
 10
1688.672179305355
 20
1203.855536170734
 30
0.0
 11
1689.693922126094
 21
1203.22628993584
 31
0.0
1001
AcDbBlockRepETag
1070
     1
1071
      148
1005
D2C
  0
LINE
  5
D2D
330
81B
100
AcDbEntity
  8
0
  6
Continuous
 62
     7
370
    15
100
AcDbLine
 10
1690.80024393777
 20
1207.311085649265
 30
0.0
 11
1688.672179305355
 21
1203.855536170734
 31
0.0
1001
AcDbBlockRepETag
1070
     1
1071
      149
1005
D2D
  0
LINE
  5
D2E
330
81B
100
AcDbEntity
  8
0
  6
Continuous
 62
     7
370
    15
100
AcDbLine
 10
1689.693922126094
 20
1203.22628993584
 30
0.0
 11
1690.764898383419
 21
1204.965255447162
 31
0.0
1001
AcDbBlockRepETag
1070
     1
1071
      150
1005
D2E
  0
LINE
  5
D2F
330
81B
100
AcDbEntity
  8
0
  6
Continuous
 62
     7
370
    15
100
AcDbLine
 10
1690.542155825893
 20
1202.957234569324
 30
0.0
 11
1690.50043257455
 21
1203.254333921207
 31
0.0
1001
AcDbBlockRepETag
1070
     1
1071
      151
1005
D2F
  0
LINE
  5
D30
330
81B
100
AcDbEntity
  8
0
  6
Continuous
 62
     7
370
    15
100
AcDbLine
 10
1690.047020041744
 20
1202.887646146549
 30
0.0
 11
1690.005296790401
 21
1203.184745498432
 31
0.0
1001
AcDbBlockRepETag
1070
     1
1071
      152
1005
D30
  0
LINE
  5
D31
330
81B
100
AcDbEntity
  8
0
  6
Continuous
 62
     7
370
    15
100
AcDbLine
 10
1690.005296790401
 20
1203.184745498432
 30
0.0
 11
1690.50043257455
 21
1203.254333921207
 31
0.0
1001
AcDbBlockRepETag
1070
     1
1071
      153
1005
D31
  0
LINE
  5
D32
330
81B
100
AcDbEntity
  8
0
  6
Continuous
 62
     7
370
    15
100
AcDbLine
 10
1687.034482085506
 20
1202.76721496178
 30
0.0
 11
1687.25370796899
 21
1201.207331605686
 31
0.0
1001
AcDbBlockRepETag
1070
     1
1071
      154
1005
D32
  0
ARC
  5
D33
330
81B
100
AcDbEntity
  8
0
  6
Continuous
 62
     7
370
    15
100
AcDbCircle
 10
1688.024745624236
 20
1202.906388767868
 30
0.0
 40
1.000000000018285
100
AcDbArc
 50
97.99999999998705
 51
187.9999999999999
1001
AcDbBlockRepETag
1070
     1
1071
      155
1005
D33
  0
LINE
  5
D34
330
81B
100
AcDbEntity
  8
0
  6
Continuous
 62
     7
370
    15
100
AcDbLine
 10
1688.774401271144
 20
1204.021564908756
 30
0.0
 11
1687.885576808254
 21
1203.896663375629
 31
0.0
1001
AcDbBlockRepETag
1070
     1
1071
      156
1005
D34
  0
LWPOLYLINE
  5
D35
330
81B
100
AcDbEntity
  8
0
  6
Continuous
 62
     7
370
    15
100
AcDbPolyline
 90
        3
 70
   128
 43
0.0
 10
1689.885610663692
 20
1203.537545390857
 10
1689.9591031907
 20
1203.375241943134
 10
1690.005296790401
 20
1203.184745498432
1001
AcDbBlockRepETag
1070
     1
1071
      157
1005
D35
  0
LINE
  5
D36
330
81B
100
AcDbEntity
  8
0
  6
Continuous
 62
     7
370
    15
100
AcDbLine
 10
1691.037291610042
 20
1203.026822992099
 30
0.0
 11
1690.047020041744
 21
1202.887646146549
 31
0.0
1001
AcDbBlockRepETag
1070
     1
1071
      158
1005
D36
  0
LINE
  5
D37
330
81B
100
AcDbEntity
  8
0
  6
Continuous
 62
     7
370
    15
100
AcDbLine
 10
1686.539346301357
 20
1202.697626539005
 30
0.0
 11
1686.748797023098
 21
1201.207331605686
 31
0.0
1001
AcDbBlockRepETag
1070
     1
1071
      159
1005
D37
  0
LINE
  5
D38
330
81B
100
AcDbEntity
  8
0
  6
Continuous
 62
     7
370
    15
100
AcDbLine
 10
1687.034482085506
 20
1202.76721496178
 30
0.0
 11
1686.539346301357
 21
1202.697626539005
 31
0.0
1001
AcDbBlockRepETag
1070
     1
1071
      160
1005
D38
  0
ARC
  5
D39
330
81B
100
AcDbEntity
  8
0
  6
Continuous
 62
     7
370
    15
100
AcDbCircle
 10
1688.024745624236
 20
1202.906388767868
 30
0.0
 40
1.500000000003149
100
AcDbArc
 50
97.99999999973833
 51
187.9999999999999
1001
AcDbBlockRepETag
1070
     1
1071
      161
1005
D39
  0
LINE
  5
D3A
330
81B
100
AcDbEntity
  8
0
  6
Continuous
 62
     7
370
    15
100
AcDbLine
 10
1687.815958583156
 20
1204.391799159778
 30
0.0
 11
1687.885576808254
 21
1203.896663375629
 31
0.0
1001
AcDbBlockRepETag
1070
     1
1071
      162
1005
D3A
  0
LINE
  5
D3B
330
81B
100
AcDbEntity
  8
0
  6
Continuous
 62
     7
370
    15
100
AcDbLine
 10
1688.806230151454
 20
1204.530976005329
 30
0.0
 11
1687.815958583156
 21
1204.391799159778
 31
0.0
1001
AcDbBlockRepETag
1070
     1
1071
      163
1005
D3B
  0
LINE
  5
D3C
330
81B
100
AcDbEntity
  8
0
  6
Continuous
 62
     7
370
    15
100
AcDbLine
 10
1688.806230151454
 20
1204.530976005329
 30
0.0
 11
1689.095789515773
 21
1204.543373771442
 31
0.0
1001
AcDbBlockRepETag
1070
     1
1071
      164
1005
D3C
  0
ARC
  5
D3D
330
81B
100
AcDbEntity
  8
0
  6
Continuous
 62
     7
370
    15
100
AcDbCircle
 10
1689.015013692978
 20
1203.045561868828
 30
0.0
 40
1.499999999999912
100
AcDbArc
 50
8.000000000171304
 51
39.57616344063838
1001
AcDbBlockRepETag
1070
     1
1071
      165
1005
D3D
  0
LINE
  5
D3E
330
81B
100
AcDbEntity
  8
0
  6
Continuous
 62
     7
370
    15
100
AcDbLine
 10
1713.870996558467
 20
1166.956392780079
 30
0.0
 11
1713.870996558467
 21
1167.10582162453
 31
0.0
1001
AcDbBlockRepETag
1070
     1
1071
      166
1005
D3E
  0
LINE
  5
D3F
330
81B
100
AcDbEntity
  8
0
  6
Continuous
 62
     7
370
    15
100
AcDbLine
 10
1721.405977332393
 20
1167.10582162453
 30
0.0
 11
1721.405977332393
 21
1166.956392780079
 31
0.0
1001
AcDbBlockRepETag
1070
     1
1071
      167
1005
D3F
  0
LINE
  5
D40
330
81B
100
AcDbEntity
  8
0
  6
Continuous
 62
     7
370
    15
100
AcDbLine
 10
1676.140898787777
 20
1166.956392780079
 30
0.0
 11
1676.140898787777
 21
1167.10582162453
 31
0.0
1001
AcDbBlockRepETag
1070
     1
1071
      168
1005
D40
  0
LINE
  5
D41
330
81B
100
AcDbEntity
  8
0
  6
Continuous
 62
     7
370
    15
100
AcDbLine
 10
1668.605977618496
 20
1166.956392780079
 30
0.0
 11
1668.605977618496
 21
1167.10582162453
 31
0.0
1001
AcDbBlockRepETag
1070
     1
1071
      169
1005
D41
  0
LINE
  5
D42
330
81B
100
AcDbEntity
  8
0
  6
Continuous
 62
     7
370
    15
100
AcDbLine
 10
1711.560839736263
 20
1166.956392780079
 30
0.0
 11
1711.560839736263
 21
1167.10582162453
 31
0.0
1001
AcDbBlockRepETag
1070
     1
1071
      170
1005
D42
  0
LINE
  5
D43
330
81B
100
AcDbEntity
  8
0
  6
Continuous
 62
     7
370
    15
100
AcDbLine
 10
1678.451055609981
 20
1166.956392780079
 30
0.0
 11
1678.451055609981
 21
1167.10582162453
 31
0.0
1001
AcDbBlockRepETag
1070
     1
1071
      171
1005
D43
  0
LINE
  5
D44
330
81B
100
AcDbEntity
  8
0
  6
Continuous
 62
     7
370
    15
100
AcDbLine
 10
1669.233793341915
 20
1158.491102710498
 30
0.0
 11
1667.794579589168
 21
1158.491102710498
 31
0.0
1001
AcDbBlockRepETag
1070
     1
1071
      172
1005
D44
  0
LINE
  5
D45
330
81B
100
AcDbEntity
  8
0
  6
Continuous
 62
     7
370
    15
100
AcDbLine
 10
1720.778102004329
 20
1158.491102710498
 30
0.0
 11
1722.217315757076
 21
1158.491102710498
 31
0.0
1001
AcDbBlockRepETag
1070
     1
1071
      173
1005
D45
  0
LINE
  5
D46
330
81B
100
AcDbEntity
  8
0
  6
Continuous
 62
     8
370
    15
100
AcDbLine
 10
1688.806230151454
 20
1204.530976005329
 30
0.0
 11
1688.858622634212
 21
1204.158327766193
 31
0.0
1001
AcDbBlockRepETag
1070
     1
1071
      174
1005
D46
  0
ENDBLK
  5
81D
330
81B
100
AcDbEntity
  8
0
100
AcDbBlockEnd
  0
BLOCK
  5
8CF
330
8CE
100
AcDbEntity
  8
0
100
AcDbBlockBegin
  2
2
 70
     0
 10
0.0
 20
0.0
 30
0.0
  3
2
  1

  0
LINE
  5
C23
330
8CE
100
AcDbEntity
  8
0
  6
Continuous
 62
     7
370
    15
100
AcDbLine
 10
1647.263763845006
 20
1187.352708764804
 30
0.0
 11
1640.763763943726
 21
1187.352708764804
 31
0.0
1001
AcDbBlockRepETag
1070
     1
1071
        0
1005
C23
  0
LINE
  5
C24
330
8CE
100
AcDbEntity
  8
0
  6
Continuous
 62
     7
370
    15
100
AcDbLine
 10
1647.263763845006
 20
1190.30805606438
 30
0.0
 11
1640.763763943726
 21
1190.30805606438
 31
0.0
1001
AcDbBlockRepETag
1070
     1
1071
        1
1005
C24
  0
LINE
  5
C25
330
8CE
100
AcDbEntity
  8
0
  6
Continuous
 62
     7
370
    15
100
AcDbLine
 10
1640.763763943726
 20
1188.544265218509
 30
0.0
 11
1647.263763845006
 21
1188.544265218509
 31
0.0
1001
AcDbBlockRepETag
1070
     1
1071
        2
1005
C25
  0
LINE
  5
C26
330
8CE
100
AcDbEntity
  8
0
  6
Continuous
 62
     7
370
    15
100
AcDbLine
 10
1647.263763845006
 20
1193.263433166278
 30
0.0
 11
1640.763763943726
 21
1193.263433166278
 31
0.0
1001
AcDbBlockRepETag
1070
     1
1071
        3
1005
C26
  0
LINE
  5
C27
330
8CE
100
AcDbEntity
  8
0
  6
Continuous
 62
     7
370
    15
100
AcDbLine
 10
1640.763763943726
 20
1191.499642320407
 30
0.0
 11
1647.263763845006
 21
1191.499642320407
 31
0.0
1001
AcDbBlockRepETag
1070
     1
1071
        4
1005
C27
  0
LINE
  5
C28
330
8CE
100
AcDbEntity
  8
0
  6
Continuous
 62
     7
370
    15
100
AcDbLine
 10
1647.263763845006
 20
1196.223399825824
 30
0.0
 11
1640.763763943726
 21
1196.223399825824
 31
0.0
1001
AcDbBlockRepETag
1070
     1
1071
        5
1005
C28
  0
LINE
  5
C29
330
8CE
100
AcDbEntity
  8
0
  6
Continuous
 62
     7
370
    15
100
AcDbLine
 10
1640.763763943726
 20
1194.454989619983
 30
0.0
 11
1647.263763845006
 21
1194.454989619983
 31
0.0
1001
AcDbBlockRepETag
1070
     1
1071
        6
1005
C29
  0
LINE
  5
C2A
330
8CE
100
AcDbEntity
  8
0
  6
Continuous
 62
     7
370
    15
100
AcDbLine
 10
1640.763763943726
 20
1197.414986081851
 30
0.0
 11
1647.263763845006
 21
1197.414986081851
 31
0.0
1001
AcDbBlockRepETag
1070
     1
1071
        7
1005
C2A
  0
LINE
  5
C2B
330
8CE
100
AcDbEntity
  8
0
  6
Continuous
 62
     7
370
    15
100
AcDbLine
 10
1646.256241737904
 20
1207.078657336963
 30
0.0
 11
1641.756241815204
 21
1207.078657336963
 31
0.0
1001
AcDbBlockRepETag
1070
     1
1071
        8
1005
C2B
  0
LINE
  5
C2C
330
8CE
100
AcDbEntity
  8
0
  6
Continuous
 62
     7
370
    15
100
AcDbLine
 10
1646.256241737904
 20
1208.262316175235
 30
0.0
 11
1641.756241815204
 21
1208.262316175235
 31
0.0
1001
AcDbBlockRepETag
1070
     1
1071
        9
1005
C2C
  0
LINE
  5
C2D
330
8CE
100
AcDbEntity
  8
0
  6
Continuous
 62
     7
370
    15
100
AcDbLine
 10
1648.112254383835
 20
1156.695259466899
 30
0.0
 11
1639.91319774654
 21
1156.695259466899
 31
0.0
1001
AcDbBlockRepETag
1070
     1
1071
       10
1005
C2D
  0
LINE
  5
C2E
330
8CE
100
AcDbEntity
  8
0
  6
Continuous
 62
     7
370
    15
100
AcDbLine
 10
1639.91319774654
 20
1154.702810302509
 30
0.0
 11
1648.112254383835
 21
1154.702810302509
 31
0.0
1001
AcDbBlockRepETag
1070
     1
1071
       11
1005
C2E
  0
LINE
  5
C2F
330
8CE
100
AcDbEntity
  8
0
  6
Continuous
 62
     7
370
    15
100
AcDbLine
 10
1639.91319774654
 20
1156.695259466899
 30
0.0
 11
1639.91319774654
 21
1154.702810302509
 31
0.0
1001
AcDbBlockRepETag
1070
     1
1071
       12
1005
C2F
  0
LINE
  5
C30
330
8CE
100
AcDbEntity
  8
0
  6
Continuous
 62
     7
370
    15
100
AcDbLine
 10
1648.112254383835
 20
1156.695259466899
 30
0.0
 11
1648.112254383835
 21
1154.702810302509
 31
0.0
1001
AcDbBlockRepETag
1070
     1
1071
       13
1005
C30
  0
LINE
  5
C31
330
8CE
100
AcDbEntity
  8
0
  6
Continuous
 62
     7
370
    15
100
AcDbLine
 10
1648.112254383835
 20
1157.99298669411
 30
0.0
 11
1639.91319774654
 21
1157.99298669411
 31
0.0
1001
AcDbBlockRepETag
1070
     1
1071
       14
1005
C31
  0
LINE
  5
C32
330
8CE
100
AcDbEntity
  8
0
  6
Continuous
 62
     7
370
    15
100
AcDbLine
 10
1639.91319774654
 20
1157.99298669411
 30
0.0
 11
1639.91319774654
 21
1156.695259466899
 31
0.0
1001
AcDbBlockRepETag
1070
     1
1071
       15
1005
C32
  0
LINE
  5
C33
330
8CE
100
AcDbEntity
  8
0
  6
Continuous
 62
     7
370
    15
100
AcDbLine
 10
1648.112254383835
 20
1156.695259466899
 30
0.0
 11
1648.112254383835
 21
1157.99298669411
 31
0.0
1001
AcDbBlockRepETag
1070
     1
1071
       16
1005
C33
  0
LINE
  5
C34
330
8CE
100
AcDbEntity
  8
0
  6
Continuous
 62
     7
370
    15
100
AcDbLine
 10
1639.91319774654
 20
1158.491102710498
 30
0.0
 11
1648.112254383835
 21
1158.491102710498
 31
0.0
1001
AcDbBlockRepETag
1070
     1
1071
       17
1005
C34
  0
LINE
  5
C35
330
8CE
100
AcDbEntity
  8
0
  6
Continuous
 62
     7
370
    15
100
AcDbLine
 10
1639.91319774654
 20
1158.491102710498
 30
0.0
 11
1639.91319774654
 21
1157.99298669411
 31
0.0
1001
AcDbBlockRepETag
1070
     1
1071
       18
1005
C35
  0
LINE
  5
C36
330
8CE
100
AcDbEntity
  8
0
  6
Continuous
 62
     7
370
    15
100
AcDbLine
 10
1648.112254383835
 20
1157.99298669411
 30
0.0
 11
1648.112254383835
 21
1158.491102710498
 31
0.0
1001
AcDbBlockRepETag
1070
     1
1071
       19
1005
C36
  0
LINE
  5
C37
330
8CE
100
AcDbEntity
  8
0
  6
Continuous
 62
     7
370
    15
100
AcDbLine
 10
1644.012726051772
 20
1166.956392780079
 30
0.0
 11
1639.91319774654
 21
1166.956392780079
 31
0.0
1001
AcDbBlockRepETag
1070
     1
1071
       20
1005
C37
  0
LINE
  5
C38
330
8CE
100
AcDbEntity
  8
0
  6
Continuous
 62
     7
370
    15
100
AcDbLine
 10
1644.012726051772
 20
1166.956392780079
 30
0.0
 11
1648.112254383835
 21
1166.956392780079
 31
0.0
1001
AcDbBlockRepETag
1070
     1
1071
       21
1005
C38
  0
LINE
  5
C39
330
8CE
100
AcDbEntity
  8
0
  6
Continuous
 62
     7
370
    15
100
AcDbLine
 10
1639.91319774654
 20
1165.188191190494
 30
0.0
 11
1648.112254383835
 21
1165.188191190494
 31
0.0
1001
AcDbBlockRepETag
1070
     1
1071
       22
1005
C39
  0
LINE
  5
C3A
330
8CE
100
AcDbEntity
  8
0
  6
Continuous
 62
     7
370
    15
100
AcDbLine
 10
1639.91319774654
 20
1166.956392780079
 30
0.0
 11
1639.91319774654
 21
1165.188191190494
 31
0.0
1001
AcDbBlockRepETag
1070
     1
1071
       23
1005
C3A
  0
LINE
  5
C3B
330
8CE
100
AcDbEntity
  8
0
  6
Continuous
 62
     7
370
    15
100
AcDbLine
 10
1648.112254383835
 20
1166.956392780079
 30
0.0
 11
1648.112254383835
 21
1165.188191190494
 31
0.0
1001
AcDbBlockRepETag
1070
     1
1071
       24
1005
C3B
  0
LINE
  5
C3C
330
8CE
100
AcDbEntity
  8
0
  6
Continuous
 62
     7
370
    15
100
AcDbLine
 10
1639.91319774654
 20
1165.188191190494
 30
0.0
 11
1639.91319774654
 21
1158.491102710498
 31
0.0
1001
AcDbBlockRepETag
1070
     1
1071
       25
1005
C3C
  0
LINE
  5
C3D
330
8CE
100
AcDbEntity
  8
0
  6
Continuous
 62
     7
370
    15
100
AcDbLine
 10
1648.112254383835
 20
1165.188191190494
 30
0.0
 11
1648.112254383835
 21
1158.491102710498
 31
0.0
1001
AcDbBlockRepETag
1070
     1
1071
       26
1005
C3D
  0
LINE
  5
C3E
330
8CE
100
AcDbEntity
  8
0
  6
Continuous
 62
     7
370
    15
100
AcDbLine
 10
1648.261688352835
 20
1187.09041852547
 30
0.0
 11
1648.261688352835
 21
1166.956392780078
 31
0.0
1001
AcDbBlockRepETag
1070
     1
1071
       27
1005
C3E
  0
LINE
  5
C3F
330
8CE
100
AcDbEntity
  8
0
  6
Continuous
 62
     7
370
    15
100
AcDbLine
 10
1648.261688352835
 20
1166.956392780079
 30
0.0
 11
1648.112254383835
 21
1166.956392780079
 31
0.0
1001
AcDbBlockRepETag
1070
     1
1071
       28
1005
C3F
  0
LINE
  5
C40
330
8CE
100
AcDbEntity
  8
0
  6
Continuous
 62
     7
370
    15
100
AcDbLine
 10
1644.012726051772
 20
1167.10582162453
 30
0.0
 11
1644.012726051772
 21
1166.956392780079
 31
0.0
1001
AcDbBlockRepETag
1070
     1
1071
       29
1005
C40
  0
LINE
  5
C41
330
8CE
100
AcDbEntity
  8
0
  6
Continuous
 62
     7
370
    15
100
AcDbLine
 10
1639.763764245475
 20
1167.10582162453
 30
0.0
 11
1644.012726051772
 21
1167.10582162453
 31
0.0
1001
AcDbBlockRepETag
1070
     1
1071
       30
1005
C41
  0
LINE
  5
C42
330
8CE
100
AcDbEntity
  8
0
  6
Continuous
 62
     7
370
    15
100
AcDbLine
 10
1640.763763943726
 20
1187.09041852547
 30
0.0
 11
1639.763764245475
 21
1187.09041852547
 31
0.0
1001
AcDbBlockRepETag
1070
     1
1071
       31
1005
C42
  0
LINE
  5
C43
330
8CE
100
AcDbEntity
  8
0
  6
Continuous
 62
     7
370
    15
100
AcDbLine
 10
1647.263763845006
 20
1187.09041852547
 30
0.0
 11
1640.763763943726
 21
1187.09041852547
 31
0.0
1001
AcDbBlockRepETag
1070
     1
1071
       32
1005
C43
  0
LINE
  5
C44
330
8CE
100
AcDbEntity
  8
0
  6
Continuous
 62
     7
370
    15
100
AcDbLine
 10
1648.261688352835
 20
1187.09041852547
 30
0.0
 11
1647.263763845006
 21
1187.09041852547
 31
0.0
1001
AcDbBlockRepETag
1070
     1
1071
       33
1005
C44
  0
LINE
  5
C45
330
8CE
100
AcDbEntity
  8
0
  6
Continuous
 62
     7
370
    15
100
AcDbLine
 10
1640.376499528105
 20
1169.618449397815
 30
0.0
 11
1640.376499528105
 21
1181.381783672107
 31
0.0
1001
AcDbBlockRepETag
1070
     1
1071
       34
1005
C45
  0
LINE
  5
C46
330
8CE
100
AcDbEntity
  8
0
  6
Continuous
 62
     7
370
    15
100
AcDbLine
 10
1647.648952488128
 20
1169.618449397815
 30
0.0
 11
1640.376499528105
 21
1169.618449397815
 31
0.0
1001
AcDbBlockRepETag
1070
     1
1071
       35
1005
C46
  0
LINE
  5
C47
330
8CE
100
AcDbEntity
  8
0
  6
Continuous
 62
     7
370
    15
100
AcDbLine
 10
1647.648952488128
 20
1181.381783672107
 30
0.0
 11
1647.648952488128
 21
1169.618449397815
 31
0.0
1001
AcDbBlockRepETag
1070
     1
1071
       36
1005
C47
  0
LINE
  5
C48
330
8CE
100
AcDbEntity
  8
0
  6
Continuous
 62
     7
370
    15
100
AcDbLine
 10
1640.376499528105
 20
1181.381783672107
 30
0.0
 11
1647.648952488128
 21
1181.381783672107
 31
0.0
1001
AcDbBlockRepETag
1070
     1
1071
       37
1005
C48
  0
LINE
  5
C49
330
8CE
100
AcDbEntity
  8
0
  6
Continuous
 62
     7
370
    15
100
AcDbLine
 10
1639.763764245475
 20
1187.09041852547
 30
0.0
 11
1639.763764245475
 21
1167.10582162453
 31
0.0
1001
AcDbBlockRepETag
1070
     1
1071
       38
1005
C49
  0
LINE
  5
C4A
330
8CE
100
AcDbEntity
  8
0
  6
Continuous
 62
     7
370
    15
100
AcDbLine
 10
1647.263763845006
 20
1198.488346524967
 30
0.0
 11
1640.763763943726
 21
1198.488346524967
 31
0.0
1001
AcDbBlockRepETag
1070
     1
1071
       39
1005
C4A
  0
LINE
  5
C4B
330
8CE
100
AcDbEntity
  8
0
  6
Continuous
 62
     7
370
    15
100
AcDbLine
 10
1640.763763943726
 20
1187.09041852547
 30
0.0
 11
1640.763763943726
 21
1198.488346524967
 31
0.0
1001
AcDbBlockRepETag
1070
     1
1071
       40
1005
C4B
  0
LINE
  5
C4C
330
8CE
100
AcDbEntity
  8
0
  6
Continuous
 62
     7
370
    15
100
AcDbLine
 10
1648.261688352835
 20
1199.885747619403
 30
0.0
 11
1639.763764245475
 21
1199.885747619403
 31
0.0
1001
AcDbBlockRepETag
1070
     1
1071
       41
1005
C4C
  0
LINE
  5
C4D
330
8CE
100
AcDbEntity
  8
0
  6
Continuous
 62
     7
370
    15
100
AcDbLine
 10
1648.261688352835
 20
1199.885747619403
 30
0.0
 11
1648.261688352835
 21
1187.09041852547
 31
0.0
1001
AcDbBlockRepETag
1070
     1
1071
       42
1005
C4D
  0
LINE
  5
C4E
330
8CE
100
AcDbEntity
  8
0
  6
Continuous
 62
     7
370
    15
100
AcDbLine
 10
1647.263763845006
 20
1187.09041852547
 30
0.0
 11
1647.263763845006
 21
1198.488346524967
 31
0.0
1001
AcDbBlockRepETag
1070
     1
1071
       43
1005
C4E
  0
LINE
  5
C4F
330
8CE
100
AcDbEntity
  8
0
  6
Continuous
 62
     7
370
    15
100
AcDbLine
 10
1639.763764245475
 20
1199.885747619403
 30
0.0
 11
1639.763764245475
 21
1187.09041852547
 31
0.0
1001
AcDbBlockRepETag
1070
     1
1071
       44
1005
C4F
  0
LINE
  5
C50
330
8CE
100
AcDbEntity
  8
0
  6
Continuous
 62
     7
370
    15
100
AcDbLine
 10
1640.701877092982
 20
1171.47665400101
 30
0.0
 11
1640.376499528105
 21
1170.324168391956
 31
0.0
1001
AcDbBlockRepETag
1070
     1
1071
       45
1005
C50
  0
LINE
  5
C51
330
8CE
100
AcDbEntity
  8
0
  6
Continuous
 62
     7
370
    15
100
AcDbLine
 10
1647.323575010562
 20
1171.827784963382
 30
0.0
 11
1640.701877092982
 21
1171.827784963382
 31
0.0
1001
AcDbBlockRepETag
1070
     1
1071
       46
1005
C51
  0
LINE
  5
C52
330
8CE
100
AcDbEntity
  8
0
  6
Continuous
 62
     7
370
    15
100
AcDbLine
 10
1647.648952488128
 20
1170.324168391956
 30
0.0
 11
1647.323575010562
 21
1171.47665400101
 31
0.0
1001
AcDbBlockRepETag
1070
     1
1071
       47
1005
C52
  0
LINE
  5
C53
330
8CE
100
AcDbEntity
  8
0
  6
Continuous
 62
     7
370
    15
100
AcDbLine
 10
1640.701877092982
 20
1179.17244810654
 30
0.0
 11
1647.323575010562
 21
1179.17244810654
 31
0.0
1001
AcDbBlockRepETag
1070
     1
1071
       48
1005
C53
  0
LINE
  5
C54
330
8CE
100
AcDbEntity
  8
0
  6
Continuous
 62
     7
370
    15
100
AcDbLine
 10
1640.701877092982
 20
1179.523579068912
 30
0.0
 11
1640.735020535106
 21
1179.496816583408
 31
0.0
1001
AcDbBlockRepETag
1070
     1
1071
       49
1005
C54
  0
LINE
  5
C55
330
8CE
100
AcDbEntity
  8
0
  6
Continuous
 62
     7
370
    15
100
AcDbLine
 10
1640.376499528105
 20
1180.676064677967
 30
0.0
 11
1640.701877092982
 21
1179.523579068912
 31
0.0
1001
AcDbBlockRepETag
1070
     1
1071
       50
1005
C55
  0
LINE
  5
C56
330
8CE
100
AcDbEntity
  8
0
  6
Continuous
 62
     7
370
    15
100
AcDbLine
 10
1647.323575010562
 20
1179.523579068912
 30
0.0
 11
1647.648952488128
 21
1180.676064677967
 31
0.0
1001
AcDbBlockRepETag
1070
     1
1071
       51
1005
C56
  0
LINE
  5
C57
330
8CE
100
AcDbEntity
  8
0
  6
Continuous
 62
     7
370
    15
100
AcDbLine
 10
1647.290431452023
 20
1179.496816583408
 30
0.0
 11
1647.323575010562
 21
1179.523579068912
 31
0.0
1001
AcDbBlockRepETag
1070
     1
1071
       52
1005
C57
  0
LINE
  5
C58
330
8CE
100
AcDbEntity
  8
0
  6
Continuous
 62
     7
370
    15
100
AcDbLine
 10
1647.263763845006
 20
1187.220058627857
 30
0.0
 11
1640.763763943726
 21
1187.220058627857
 31
0.0
1001
AcDbBlockRepETag
1070
     1
1071
       53
1005
C58
  0
LINE
  5
C59
330
8CE
100
AcDbEntity
  8
0
  6
Continuous
 62
     7
370
    15
100
AcDbLine
 10
1647.263763845006
 20
1189.071080871356
 30
0.0
 11
1640.763763943726
 21
1189.071080871356
 31
0.0
1001
AcDbBlockRepETag
1070
     1
1071
       54
1005
C59
  0
LINE
  5
C5A
330
8CE
100
AcDbEntity
  8
0
  6
Continuous
 62
     7
370
    15
100
AcDbLine
 10
1647.263763845006
 20
1188.818863816989
 30
0.0
 11
1640.763763943726
 21
1188.818863816989
 31
0.0
1001
AcDbBlockRepETag
1070
     1
1071
       55
1005
C5A
  0
LINE
  5
C5B
330
8CE
100
AcDbEntity
  8
0
  6
Continuous
 62
     7
370
    15
100
AcDbLine
 10
1647.263763845006
 20
1190.175405927432
 30
0.0
 11
1640.763763943726
 21
1190.175405927432
 31
0.0
1001
AcDbBlockRepETag
1070
     1
1071
       56
1005
C5B
  0
LINE
  5
C5C
330
8CE
100
AcDbEntity
  8
0
  6
Continuous
 62
     7
370
    15
100
AcDbLine
 10
1647.263763845006
 20
1188.5626234491
 30
0.0
 11
1640.763763943726
 21
1188.5626234491
 31
0.0
1001
AcDbBlockRepETag
1070
     1
1071
       57
1005
C5C
  0
LINE
  5
C5D
330
8CE
100
AcDbEntity
  8
0
  6
Continuous
 62
     7
370
    15
100
AcDbLine
 10
1647.323575010562
 20
1171.47665400101
 30
0.0
 11
1647.323575010562
 21
1179.496816583408
 31
0.0
1001
AcDbBlockRepETag
1070
     1
1071
       58
1005
C5D
  0
LINE
  5
C5E
330
8CE
100
AcDbEntity
  8
0
  6
Continuous
 62
     7
370
    15
100
AcDbLine
 10
1647.323575010562
 20
1179.496816583408
 30
0.0
 11
1647.323575010562
 21
1179.523579068912
 31
0.0
1001
AcDbBlockRepETag
1070
     1
1071
       59
1005
C5E
  0
LINE
  5
C5F
330
8CE
100
AcDbEntity
  8
0
  6
Continuous
 62
     7
370
    15
100
AcDbLine
 10
1640.701877092982
 20
1179.496816583408
 30
0.0
 11
1640.701877092982
 21
1179.523579068912
 31
0.0
1001
AcDbBlockRepETag
1070
     1
1071
       60
1005
C5F
  0
LINE
  5
C60
330
8CE
100
AcDbEntity
  8
0
  6
Continuous
 62
     7
370
    15
100
AcDbLine
 10
1640.701877092982
 20
1179.496816583408
 30
0.0
 11
1640.701877092982
 21
1171.47665400101
 31
0.0
1001
AcDbBlockRepETag
1070
     1
1071
       61
1005
C60
  0
LINE
  5
C61
330
8CE
100
AcDbEntity
  8
0
  6
Continuous
 62
     7
370
    15
100
AcDbLine
 10
1647.263763845006
 20
1192.026457973255
 30
0.0
 11
1640.763763943726
 21
1192.026457973255
 31
0.0
1001
AcDbBlockRepETag
1070
     1
1071
       62
1005
C61
  0
LINE
  5
C62
330
8CE
100
AcDbEntity
  8
0
  6
Continuous
 62
     7
370
    15
100
AcDbLine
 10
1647.263763845006
 20
1191.774240918888
 30
0.0
 11
1640.763763943726
 21
1191.774240918888
 31
0.0
1001
AcDbBlockRepETag
1070
     1
1071
       63
1005
C62
  0
LINE
  5
C63
330
8CE
100
AcDbEntity
  8
0
  6
Continuous
 62
     7
370
    15
100
AcDbLine
 10
1647.263763845006
 20
1193.130753227008
 30
0.0
 11
1640.763763943726
 21
1193.130753227008
 31
0.0
1001
AcDbBlockRepETag
1070
     1
1071
       64
1005
C63
  0
LINE
  5
C64
330
8CE
100
AcDbEntity
  8
0
  6
Continuous
 62
     7
370
    15
100
AcDbLine
 10
1647.263763845006
 20
1188.450566716922
 30
0.0
 11
1640.763763943726
 21
1188.450566716922
 31
0.0
1001
AcDbBlockRepETag
1070
     1
1071
       65
1005
C64
  0
LINE
  5
C65
330
8CE
100
AcDbEntity
  8
0
  6
Continuous
 62
     7
370
    15
100
AcDbLine
 10
1647.263763845006
 20
1191.517970748676
 30
0.0
 11
1640.763763943726
 21
1191.517970748676
 31
0.0
1001
AcDbBlockRepETag
1070
     1
1071
       66
1005
C65
  0
LINE
  5
C66
330
8CE
100
AcDbEntity
  8
0
  6
Continuous
 62
     7
370
    15
100
AcDbLine
 10
1647.263763845006
 20
1194.98180527283
 30
0.0
 11
1640.763763943726
 21
1194.98180527283
 31
0.0
1001
AcDbBlockRepETag
1070
     1
1071
       67
1005
C66
  0
LINE
  5
C67
330
8CE
100
AcDbEntity
  8
0
  6
Continuous
 62
     7
370
    15
100
AcDbLine
 10
1647.263763845006
 20
1194.729588218463
 30
0.0
 11
1640.763763943726
 21
1194.729588218463
 31
0.0
1001
AcDbBlockRepETag
1070
     1
1071
       68
1005
C67
  0
LINE
  5
C68
330
8CE
100
AcDbEntity
  8
0
  6
Continuous
 62
     7
370
    15
100
AcDbLine
 10
1647.263763845006
 20
1196.090719886554
 30
0.0
 11
1640.763763943726
 21
1196.090719886554
 31
0.0
1001
AcDbBlockRepETag
1070
     1
1071
       69
1005
C68
  0
LINE
  5
C69
330
8CE
100
AcDbEntity
  8
0
  6
Continuous
 62
     7
370
    15
100
AcDbLine
 10
1647.263763845006
 20
1191.40594381882
 30
0.0
 11
1640.763763943726
 21
1191.40594381882
 31
0.0
1001
AcDbBlockRepETag
1070
     1
1071
       70
1005
C69
  0
LINE
  5
C6A
330
8CE
100
AcDbEntity
  8
0
  6
Continuous
 62
     7
370
    15
100
AcDbLine
 10
1647.263763845006
 20
1194.473347850574
 30
0.0
 11
1640.763763943726
 21
1194.473347850574
 31
0.0
1001
AcDbBlockRepETag
1070
     1
1071
       71
1005
C6A
  0
LINE
  5
C6B
330
8CE
100
AcDbEntity
  8
0
  6
Continuous
 62
     7
370
    15
100
AcDbLine
 10
1640.735020535106
 20
1179.496816583408
 30
0.0
 11
1640.701877092982
 21
1179.496816583408
 31
0.0
1001
AcDbBlockRepETag
1070
     1
1071
       72
1005
C6B
  0
LINE
  5
C6C
330
8CE
100
AcDbEntity
  8
0
  6
Continuous
 62
     7
370
    15
100
AcDbLine
 10
1647.323575010562
 20
1179.496816583408
 30
0.0
 11
1647.290431452023
 21
1179.496816583408
 31
0.0
1001
AcDbBlockRepETag
1070
     1
1071
       73
1005
C6C
  0
LINE
  5
C6D
330
8CE
100
AcDbEntity
  8
0
  6
Continuous
 62
     7
370
    15
100
AcDbLine
 10
1647.263763845006
 20
1198.351732679141
 30
0.0
 11
1640.763763943726
 21
1198.351732679141
 31
0.0
1001
AcDbBlockRepETag
1070
     1
1071
       74
1005
C6D
  0
LINE
  5
C6E
330
8CE
100
AcDbEntity
  8
0
  6
Continuous
 62
     7
370
    15
100
AcDbLine
 10
1647.263763845006
 20
1198.092899509204
 30
0.0
 11
1640.763763943726
 21
1198.092899509204
 31
0.0
1001
AcDbBlockRepETag
1070
     1
1071
       75
1005
C6E
  0
LINE
  5
C6F
330
8CE
100
AcDbEntity
  8
0
  6
Continuous
 62
     7
370
    15
100
AcDbLine
 10
1647.263763845006
 20
1197.941771932376
 30
0.0
 11
1640.763763943726
 21
1197.941771932376
 31
0.0
1001
AcDbBlockRepETag
1070
     1
1071
       76
1005
C6F
  0
LINE
  5
C70
330
8CE
100
AcDbEntity
  8
0
  6
Continuous
 62
     7
370
    15
100
AcDbLine
 10
1647.263763845006
 20
1197.689554878009
 30
0.0
 11
1640.763763943726
 21
1197.689554878009
 31
0.0
1001
AcDbBlockRepETag
1070
     1
1071
       77
1005
C70
  0
LINE
  5
C71
330
8CE
100
AcDbEntity
  8
0
  6
Continuous
 62
     7
370
    15
100
AcDbLine
 10
1647.263763845006
 20
1194.361291118396
 30
0.0
 11
1640.763763943726
 21
1194.361291118396
 31
0.0
1001
AcDbBlockRepETag
1070
     1
1071
       78
1005
C71
  0
LINE
  5
C72
330
8CE
100
AcDbEntity
  8
0
  6
Continuous
 62
     7
370
    15
100
AcDbLine
 10
1648.261688352835
 20
1201.207331605686
 30
0.0
 11
1639.763764245475
 21
1201.207331605686
 31
0.0
1001
AcDbBlockRepETag
1070
     1
1071
       79
1005
C72
  0
LINE
  5
C73
330
8CE
100
AcDbEntity
  8
0
  6
Continuous
 62
     7
370
    15
100
AcDbLine
 10
1648.261688352835
 20
1201.207331605686
 30
0.0
 11
1648.261688352835
 21
1199.885747619403
 31
0.0
1001
AcDbBlockRepETag
1070
     1
1071
       80
1005
C73
  0
LINE
  5
C74
330
8CE
100
AcDbEntity
  8
0
  6
Continuous
 62
     7
370
    15
100
AcDbLine
 10
1639.763764245475
 20
1201.207331605686
 30
0.0
 11
1639.763764245475
 21
1199.885747619403
 31
0.0
1001
AcDbBlockRepETag
1070
     1
1071
       81
1005
C74
  0
LINE
  5
C75
330
8CE
100
AcDbEntity
  8
0
  6
Continuous
 62
     7
370
    15
100
AcDbLine
 10
1647.263763845006
 20
1197.43331451012
 30
0.0
 11
1640.763763943726
 21
1197.43331451012
 31
0.0
1001
AcDbBlockRepETag
1070
     1
1071
       82
1005
C75
  0
ELLIPSE
  5
C76
330
8CE
100
AcDbEntity
  8
0
  6
Continuous
 62
     7
370
    15
100
AcDbEllipse
 10
1641.656588643314
 20
1182.812887611643
 30
0.0
 11
0.0
 21
4.016784905616077
 31
0.0
210
0.0
220
0.0
230
1.0
 40
0.5773502691895964
 41
2.71730169308498
 42
3.054326190991294
1001
AcDbBlockRepETag
1070
     1
1071
       83
1005
C76
  0
ELLIPSE
  5
C77
330
8CE
100
AcDbEntity
  8
0
  6
Continuous
 62
     7
370
    15
100
AcDbEllipse
 10
1646.36886352058
 20
1182.812887611643
 30
0.0
 11
0.0
 21
4.016784905616077
 31
0.0
210
0.0
220
0.0
230
1.0
 40
0.5773502691895964
 41
3.228859116187182
 42
3.565883614094615
1001
AcDbBlockRepETag
1070
     1
1071
       84
1005
C77
  0
LINE
  5
C78
330
8CE
100
AcDbEntity
  8
0
  6
Continuous
 62
     7
370
    15
100
AcDbLine
 10
1641.454466292674
 20
1178.811392970813
 30
0.0
 11
1646.570985694455
 21
1178.811392970813
 31
0.0
1001
AcDbBlockRepETag
1070
     1
1071
       85
1005
C78
  0
LINE
  5
C79
330
8CE
100
AcDbEntity
  8
0
  6
Continuous
 62
     7
370
    15
100
AcDbLine
 10
1646.570985694455
 20
1172.188840099109
 30
0.0
 11
1641.454466292674
 21
1172.188840099109
 31
0.0
1001
AcDbBlockRepETag
1070
     1
1071
       86
1005
C79
  0
ELLIPSE
  5
C7A
330
8CE
100
AcDbEntity
  8
0
  6
Continuous
 62
     7
370
    15
100
AcDbEllipse
 10
1646.3688635207
 20
1168.187349936287
 30
0.0
 11
0.0
 21
4.016784904903659
 31
0.0
210
0.0
220
0.0
230
1.0
 40
0.5773502691895953
 41
5.858894346651995
 42
6.195918844598321
1001
AcDbBlockRepETag
1070
     1
1071
       87
1005
C7A
  0
ELLIPSE
  5
C7B
330
8CE
100
AcDbEntity
  8
0
  6
Continuous
 62
     7
370
    15
100
AcDbEllipse
 10
1641.656588643193
 20
1168.187349936287
 30
0.0
 11
0.0
 21
4.016784904903659
 31
0.0
210
0.0
220
0.0
230
1.0
 40
0.5773502691895953
 41
0.0872664625820768
 42
0.4242909605280478
1001
AcDbBlockRepETag
1070
     1
1071
       88
1005
C7B
  0
LINE
  5
C7C
330
8CE
100
AcDbEntity
  8
0
  6
Continuous
 62
     7
370
    15
100
AcDbLine
 10
1641.454466292674
 20
1178.811392970813
 30
0.0
 11
1641.571971261913
 21
1178.793571182025
 31
0.0
1001
AcDbBlockRepETag
1070
     1
1071
       89
1005
C7C
  0
LINE
  5
C7D
330
8CE
100
AcDbEntity
  8
0
  6
Continuous
 62
     7
370
    15
100
AcDbLine
 10
1641.571971261913
 20
1172.206661887897
 30
0.0
 11
1641.571971261913
 21
1178.793571182025
 31
0.0
1001
AcDbBlockRepETag
1070
     1
1071
       90
1005
C7D
  0
LINE
  5
C7E
330
8CE
100
AcDbEntity
  8
0
  6
Continuous
 62
     7
370
    15
100
AcDbLine
 10
1641.454466292674
 20
1172.188840099109
 30
0.0
 11
1641.571971261913
 21
1172.206661887897
 31
0.0
1001
AcDbBlockRepETag
1070
     1
1071
       91
1005
C7E
  0
LINE
  5
C7F
330
8CE
100
AcDbEntity
  8
0
  6
Continuous
 62
     7
370
    15
100
AcDbLine
 10
1646.453480841631
 20
1172.206661887897
 30
0.0
 11
1646.570985694455
 21
1172.188840099109
 31
0.0
1001
AcDbBlockRepETag
1070
     1
1071
       92
1005
C7F
  0
LINE
  5
C80
330
8CE
100
AcDbEntity
  8
0
  6
Continuous
 62
     7
370
    15
100
AcDbLine
 10
1646.453480841631
 20
1178.793571182025
 30
0.0
 11
1646.453480841631
 21
1172.206661887897
 31
0.0
1001
AcDbBlockRepETag
1070
     1
1071
       93
1005
C80
  0
LINE
  5
C81
330
8CE
100
AcDbEntity
  8
0
  6
Continuous
 62
     7
370
    15
100
AcDbLine
 10
1646.570985694455
 20
1178.811392970813
 30
0.0
 11
1646.453480841631
 21
1178.793571182025
 31
0.0
1001
AcDbBlockRepETag
1070
     1
1071
       94
1005
C81
  0
LINE
  5
C82
330
8CE
100
AcDbEntity
  8
0
  6
Continuous
 62
     7
370
    15
100
AcDbLine
 10
1647.263763845006
 20
1197.321257777942
 30
0.0
 11
1640.763763943726
 21
1197.321257777942
 31
0.0
1001
AcDbBlockRepETag
1070
     1
1071
       95
1005
C82
  0
LINE
  5
C83
330
8CE
100
AcDbEntity
  8
0
  6
Continuous
 62
     7
370
    15
100
AcDbLine
 10
1646.453480841631
 20
1172.315678783191
 30
0.0
 11
1641.571971261913
 21
1172.315678783191
 31
0.0
1001
AcDbBlockRepETag
1070
     1
1071
       96
1005
C83
  0
LINE
  5
C84
330
8CE
100
AcDbEntity
  8
0
  6
Continuous
 62
     7
370
    15
100
AcDbLine
 10
1641.571971261913
 20
1178.727767654193
 30
0.0
 11
1646.453480841631
 21
1178.727767654193
 31
0.0
1001
AcDbBlockRepETag
1070
     1
1071
       97
1005
C84
  0
LINE
  5
C85
330
8CE
100
AcDbEntity
  8
0
  6
Continuous
 62
     7
370
    15
100
AcDbLine
 10
1641.756241815204
 20
1206.863454767002
 30
0.0
 11
1646.256241737904
 21
1206.863454767002
 31
0.0
1001
AcDbBlockRepETag
1070
     1
1071
       98
1005
C85
  0
LINE
  5
C86
330
8CE
100
AcDbEntity
  8
0
  6
Continuous
 62
     7
370
    15
100
AcDbLine
 10
1646.256241737904
 20
1201.207331605686
 30
0.0
 11
1646.256241737904
 21
1206.863454767002
 31
0.0
1001
AcDbBlockRepETag
1070
     1
1071
       99
1005
C86
  0
LINE
  5
C87
330
8CE
100
AcDbEntity
  8
0
  6
Continuous
 62
     7
370
    15
100
AcDbLine
 10
1641.756241815204
 20
1201.207331605686
 30
0.0
 11
1641.756241815204
 21
1206.863454767002
 31
0.0
1001
AcDbBlockRepETag
1070
     1
1071
      100
1005
C87
  0
LINE
  5
C88
330
8CE
100
AcDbEntity
  8
0
  6
Continuous
 62
     7
370
    15
100
AcDbLine
 10
1646.256241737904
 20
1206.863454767002
 30
0.0
 11
1646.256241737904
 21
1207.078657336963
 31
0.0
1001
AcDbBlockRepETag
1070
     1
1071
      101
1005
C88
  0
LINE
  5
C89
330
8CE
100
AcDbEntity
  8
0
  6
Continuous
 62
     7
370
    15
100
AcDbLine
 10
1641.756241815204
 20
1207.078657336963
 30
0.0
 11
1641.756241815204
 21
1206.863454767002
 31
0.0
1001
AcDbBlockRepETag
1070
     1
1071
      102
1005
C89
  0
LINE
  5
C8A
330
8CE
100
AcDbEntity
  8
0
  6
Continuous
 62
     7
370
    15
100
AcDbLine
 10
1646.256241737904
 20
1207.078657336963
 30
0.0
 11
1646.256241737904
 21
1208.262316175235
 31
0.0
1001
AcDbBlockRepETag
1070
     1
1071
      103
1005
C8A
  0
LINE
  5
C8B
330
8CE
100
AcDbEntity
  8
0
  6
Continuous
 62
     7
370
    15
100
AcDbLine
 10
1641.756241815204
 20
1207.078657336963
 30
0.0
 11
1641.756241815204
 21
1208.262316175235
 31
0.0
1001
AcDbBlockRepETag
1070
     1
1071
      104
1005
C8B
  0
ENDBLK
  5
8D0
330
8CE
100
AcDbEntity
  8
0
100
AcDbBlockEnd
  0
BLOCK
  5
93C
330
93B
100
AcDbEntity
  8
0
100
AcDbBlockBegin
  2
3
 70
     0
 10
0.0
 20
0.0
 30
0.0
  3
3
  1

  0
LINE
  5
93E
330
93B
100
AcDbEntity
  8
0
  6
Continuous
 62
     7
370
    15
100
AcDbLine
 10
1686.524743163387
 20
1123.277744429025
 30
0.0
 11
1687.024766528408
 21
1122.777744347069
 31
0.0
  0
LINE
  5
93F
330
93B
100
AcDbEntity
  8
0
  6
Continuous
 62
     7
370
    15
100
AcDbLine
 10
1686.524743163387
 20
1123.777744510982
 30
0.0
 11
1686.524743163387
 21
1123.277744429025
 31
0.0
  0
LINE
  5
940
330
93B
100
AcDbEntity
  8
0
  6
Continuous
 62
     7
370
    15
100
AcDbLine
 10
1687.024766528408
 20
1124.277744592938
 30
0.0
 11
1686.524743163387
 21
1123.777744510982
 31
0.0
  0
LINE
  5
941
330
93B
100
AcDbEntity
  8
0
  6
Continuous
 62
     7
370
    15
100
AcDbLine
 10
1698.55570229272
 20
1121.043662691328
 30
0.0
 11
1698.55570229272
 21
1121.277744566861
 31
0.0
  0
LINE
  5
942
330
93B
100
AcDbEntity
  8
0
  6
Continuous
 62
     7
370
    15
100
AcDbLine
 10
1696.055704676906
 20
1121.277744566861
 30
0.0
 11
1696.055704676906
 21
1121.043662691328
 31
0.0
  0
LINE
  5
943
330
93B
100
AcDbEntity
  8
0
  6
Continuous
 62
     7
370
    15
100
AcDbLine
 10
1698.55570229272
 20
1125.777744489561
 30
0.0
 11
1698.55570229272
 21
1126.02479491553
 31
0.0
  0
LINE
  5
944
330
93B
100
AcDbEntity
  8
0
  6
Continuous
 62
     7
370
    15
100
AcDbLine
 10
1696.055704676906
 20
1126.02479491553
 30
0.0
 11
1696.055704676906
 21
1125.777744489561
 31
0.0
  0
LINE
  5
945
330
93B
100
AcDbEntity
  8
0
  6
Continuous
 62
     7
370
    15
100
AcDbLine
 10
1672.11424740533
 20
1126.785266596663
 30
0.0
 11
1672.11424740533
 21
1120.285266695383
 31
0.0
  0
LINE
  5
946
330
93B
100
AcDbEntity
  8
0
  6
Continuous
 62
     7
370
    15
100
AcDbLine
 10
1717.897647940914
 20
1120.285266695383
 30
0.0
 11
1717.897647940914
 21
1126.785266596663
 31
0.0
  0
LINE
  5
947
330
93B
100
AcDbEntity
  8
0
  6
Continuous
 62
     7
370
    15
100
AcDbLine
 10
1671.038800799648
 20
1126.785266596663
 30
0.0
 11
1671.038800799648
 21
1120.285266695383
 31
0.0
  0
LINE
  5
948
330
93B
100
AcDbEntity
  8
0
  6
Continuous
 62
     7
370
    15
100
AcDbLine
 10
1718.973094546596
 20
1120.285266695383
 30
0.0
 11
1718.973094546596
 21
1126.785266596663
 31
0.0
  0
LINE
  5
949
330
93B
100
AcDbEntity
  8
0
  6
Continuous
 62
     7
370
    15
100
AcDbLine
 10
1669.963354193965
 20
1126.785266596663
 30
0.0
 11
1669.963354193965
 21
1120.285266695383
 31
0.0
  0
LINE
  5
94A
330
93B
100
AcDbEntity
  8
0
  6
Continuous
 62
     7
370
    15
100
AcDbLine
 10
1720.048541152278
 20
1120.285266695383
 30
0.0
 11
1720.048541152278
 21
1126.785266596663
 31
0.0
  0
LINE
  5
94B
330
93B
100
AcDbEntity
  8
0
  6
Continuous
 62
     7
370
    15
100
AcDbLine
 10
1668.020600402156
 20
1127.633757135492
 30
0.0
 11
1668.020600402156
 21
1119.434700498197
 31
0.0
  0
LINE
  5
94C
330
93B
100
AcDbEntity
  8
0
  6
Continuous
 62
     7
370
    15
100
AcDbLine
 10
1721.991294944088
 20
1119.434700498197
 30
0.0
 11
1721.991294944088
 21
1127.633757135492
 31
0.0
  0
LINE
  5
94D
330
93B
100
AcDbEntity
  8
0
  6
Continuous
 62
     7
370
    15
100
AcDbLine
 10
1694.483751380245
 20
1121.277744566861
 30
0.0
 11
1694.483751380245
 21
1125.777744489561
 31
0.0
  0
LINE
  5
94E
330
93B
100
AcDbEntity
  8
0
  6
Continuous
 62
     7
370
    15
100
AcDbLine
 10
1690.80024393777
 20
1125.777744489561
 30
0.0
 11
1690.80024393777
 21
1121.277744566861
 31
0.0
  0
LINE
  5
94F
330
93B
100
AcDbEntity
  8
0
  6
Continuous
 62
     7
370
    15
100
AcDbLine
 10
1694.483751380245
 20
1121.277744566861
 30
0.0
 11
1690.80024393777
 21
1121.277744566861
 31
0.0
  0
LINE
  5
950
330
93B
100
AcDbEntity
  8
0
  6
Continuous
 62
     7
370
    15
100
AcDbLine
 10
1694.483751380245
 20
1125.777744489561
 30
0.0
 11
1690.80024393777
 21
1125.777744489561
 31
0.0
  0
LINE
  5
951
330
93B
100
AcDbEntity
  8
0
  6
Continuous
 62
     7
370
    15
100
AcDbLine
 10
1688.672179305355
 20
1124.377744423065
 30
0.0
 11
1688.672179305355
 21
1125.777744489561
 31
0.0
  0
LINE
  5
952
330
93B
100
AcDbEntity
  8
0
  6
Continuous
 62
     7
370
    15
100
AcDbLine
 10
1688.672179305355
 20
1122.677744516942
 30
0.0
 11
1688.672179305355
 21
1121.277744566861
 31
0.0
  0
LINE
  5
953
330
93B
100
AcDbEntity
  8
0
  6
Continuous
 62
     7
370
    15
100
AcDbLine
 10
1688.672179305355
 20
1122.677744516942
 30
0.0
 11
1690.502995574276
 21
1122.677744516942
 31
0.0
  0
LINE
  5
954
330
93B
100
AcDbEntity
  8
0
  6
Continuous
 62
     7
370
    15
100
AcDbLine
 10
1690.502995574276
 20
1122.677744516942
 30
0.0
 11
1690.502995574276
 21
1124.377744423065
 31
0.0
  0
LINE
  5
955
330
93B
100
AcDbEntity
  8
0
  6
Continuous
 62
     7
370
    15
100
AcDbLine
 10
1690.502995574276
 20
1124.377744423065
 30
0.0
 11
1688.672179305355
 21
1124.377744423065
 31
0.0
  0
LINE
  5
956
330
93B
100
AcDbEntity
  8
0
  6
Continuous
 62
     7
370
    15
100
AcDbLine
 10
1690.80024393777
 20
1121.277744566861
 30
0.0
 11
1688.672179305355
 21
1121.277744566861
 31
0.0
  0
LINE
  5
957
330
93B
100
AcDbEntity
  8
0
  6
Continuous
 62
     7
370
    15
100
AcDbLine
 10
1690.80024393777
 20
1125.777744489561
 30
0.0
 11
1688.672179305355
 21
1125.777744489561
 31
0.0
  0
LINE
  5
958
330
93B
100
AcDbEntity
  8
0
  6
Continuous
 62
     7
370
    15
100
AcDbLine
 10
1698.29433592538
 20
1125.777744489561
 30
0.0
 11
1698.29433592538
 21
1121.277744566861
 31
0.0
  0
LINE
  5
959
330
93B
100
AcDbEntity
  8
0
  6
Continuous
 62
     7
370
    15
100
AcDbLine
 10
1698.576742732326
 20
1121.277744566861
 30
0.0
 11
1698.576742732326
 21
1125.777744489561
 31
0.0
  0
LINE
  5
95A
330
93B
100
AcDbEntity
  8
0
  6
Continuous
 62
     7
370
    15
100
AcDbLine
 10
1698.29433592538
 20
1121.277744566861
 30
0.0
 11
1698.576742732326
 21
1121.277744566861
 31
0.0
  0
LINE
  5
95B
330
93B
100
AcDbEntity
  8
0
  6
Continuous
 62
     7
370
    15
100
AcDbLine
 10
1698.576742732326
 20
1125.777744489561
 30
0.0
 11
1698.29433592538
 21
1125.777744489561
 31
0.0
  0
LINE
  5
95C
330
93B
100
AcDbEntity
  8
0
  6
Continuous
 62
     7
370
    15
100
AcDbLine
 10
1697.909826361934
 20
1121.277744566861
 30
0.0
 11
1697.909826361934
 21
1125.777744489561
 31
0.0
  0
LINE
  5
95D
330
93B
100
AcDbEntity
  8
0
  6
Continuous
 62
     7
370
    15
100
AcDbLine
 10
1698.29433592538
 20
1121.277744566861
 30
0.0
 11
1697.909826361934
 21
1121.277744566861
 31
0.0
  0
LINE
  5
95E
330
93B
100
AcDbEntity
  8
0
  6
Continuous
 62
     7
370
    15
100
AcDbLine
 10
1697.909826361934
 20
1125.777744489561
 30
0.0
 11
1698.29433592538
 21
1125.777744489561
 31
0.0
  0
LINE
  5
95F
330
93B
100
AcDbEntity
  8
0
  6
Continuous
 62
     7
370
    15
100
AcDbLine
 10
1697.696501338283
 20
1125.777744489561
 30
0.0
 11
1697.696501338283
 21
1121.277744566861
 31
0.0
  0
LINE
  5
960
330
93B
100
AcDbEntity
  8
0
  6
Continuous
 62
     7
370
    15
100
AcDbLine
 10
1697.696501338283
 20
1121.277744566861
 30
0.0
 11
1697.909826361934
 21
1121.277744566861
 31
0.0
  0
LINE
  5
961
330
93B
100
AcDbEntity
  8
0
  6
Continuous
 62
     7
370
    15
100
AcDbLine
 10
1697.909826361934
 20
1125.777744489561
 30
0.0
 11
1697.696501338283
 21
1125.777744489561
 31
0.0
  0
LINE
  5
962
330
93B
100
AcDbEntity
  8
0
  6
Continuous
 62
     7
370
    15
100
AcDbLine
 10
1699.57357081155
 20
1121.277744566861
 30
0.0
 11
1698.576742732326
 21
1121.277744566861
 31
0.0
  0
LINE
  5
963
330
93B
100
AcDbEntity
  8
0
  6
Continuous
 62
     7
370
    15
100
AcDbLine
 10
1699.57357081155
 20
1125.777744489561
 30
0.0
 11
1698.576742732326
 21
1125.777744489561
 31
0.0
  0
LINE
  5
964
330
93B
100
AcDbEntity
  8
0
  6
Continuous
 62
     7
370
    15
100
AcDbLine
 10
1697.404438578884
 20
1125.777744489561
 30
0.0
 11
1697.404438578884
 21
1121.277744566861
 31
0.0
  0
LINE
  5
965
330
93B
100
AcDbEntity
  8
0
  6
Continuous
 62
     7
370
    15
100
AcDbLine
 10
1697.696501338283
 20
1121.277744566861
 30
0.0
 11
1697.404438578884
 21
1121.277744566861
 31
0.0
  0
LINE
  5
966
330
93B
100
AcDbEntity
  8
0
  6
Continuous
 62
     7
370
    15
100
AcDbLine
 10
1697.696501338283
 20
1125.777744489561
 30
0.0
 11
1697.404438578884
 21
1125.777744489561
 31
0.0
  0
LINE
  5
967
330
93B
100
AcDbEntity
  8
0
  6
Continuous
 62
     7
370
    15
100
AcDbLine
 10
1694.622928225795
 20
1121.277744566861
 30
0.0
 11
1694.622928225795
 21
1125.777744489561
 31
0.0
  0
LINE
  5
968
330
93B
100
AcDbEntity
  8
0
  6
Continuous
 62
     7
370
    15
100
AcDbLine
 10
1694.622928225795
 20
1121.277744566861
 30
0.0
 11
1694.483751380245
 21
1121.277744566861
 31
0.0
  0
LINE
  5
969
330
93B
100
AcDbEntity
  8
0
  6
Continuous
 62
     7
370
    15
100
AcDbLine
 10
1694.483751380245
 20
1125.777744489561
 30
0.0
 11
1694.622928225795
 21
1125.777744489561
 31
0.0
  0
LINE
  5
96A
330
93B
100
AcDbEntity
  8
0
  6
Continuous
 62
     7
370
    15
100
AcDbLine
 10
1697.404438578884
 20
1121.277744566861
 30
0.0
 11
1694.622928225795
 21
1121.277744566861
 31
0.0
  0
LINE
  5
96B
330
93B
100
AcDbEntity
  8
0
  6
Continuous
 62
     7
370
    15
100
AcDbLine
 10
1697.404438578884
 20
1125.777744489561
 30
0.0
 11
1694.622928225795
 21
1125.777744489561
 31
0.0
  0
LINE
  5
96C
330
93B
100
AcDbEntity
  8
0
  6
Continuous
 62
     7
370
    15
100
AcDbLine
 10
1688.806230151454
 20
1123.777744510982
 30
0.0
 11
1690.50043257455
 21
1123.777744510982
 31
0.0
  0
LINE
  5
96D
330
93B
100
AcDbEntity
  8
0
  6
Continuous
 62
     7
370
    15
100
AcDbLine
 10
1690.50043257455
 20
1123.277744429025
 30
0.0
 11
1690.50043257455
 21
1123.777744510982
 31
0.0
  0
LINE
  5
96E
330
93B
100
AcDbEntity
  8
0
  6
Continuous
 62
     7
370
    15
100
AcDbLine
 10
1688.806230151454
 20
1123.277744429025
 30
0.0
 11
1690.50043257455
 21
1123.277744429025
 31
0.0
  0
LINE
  5
96F
330
93B
100
AcDbEntity
  8
0
  6
Continuous
 62
     7
370
    15
100
AcDbLine
 10
1688.806230151454
 20
1123.777744510982
 30
0.0
 11
1688.806230151454
 21
1123.277744429025
 31
0.0
  0
LINE
  5
970
330
93B
100
AcDbEntity
  8
0
  6
Continuous
 62
     7
370
    15
100
AcDbLine
 10
1690.005296790401
 20
1122.777744347069
 30
0.0
 11
1690.50043257455
 21
1123.277744429025
 31
0.0
  0
LINE
  5
971
330
93B
100
AcDbEntity
  8
0
  6
Continuous
 62
     7
370
    15
100
AcDbLine
 10
1688.875848376552
 20
1122.777744347069
 30
0.0
 11
1690.005296790401
 21
1122.777744347069
 31
0.0
  0
LINE
  5
972
330
93B
100
AcDbEntity
  8
0
  6
Continuous
 62
     7
370
    15
100
AcDbLine
 10
1688.806230151454
 20
1123.277744429025
 30
0.0
 11
1688.875848376552
 21
1122.777744347069
 31
0.0
  0
LINE
  5
973
330
93B
100
AcDbEntity
  8
0
  6
Continuous
 62
     7
370
    15
100
AcDbLine
 10
1690.005296790401
 20
1124.277744592938
 30
0.0
 11
1688.875848376552
 21
1124.277744592938
 31
0.0
  0
LINE
  5
974
330
93B
100
AcDbEntity
  8
0
  6
Continuous
 62
     7
370
    15
100
AcDbLine
 10
1690.50043257455
 20
1123.777744510982
 30
0.0
 11
1690.005296790401
 21
1124.277744592938
 31
0.0
  0
LINE
  5
975
330
93B
100
AcDbEntity
  8
0
  6
Continuous
 62
     7
370
    15
100
AcDbLine
 10
1688.875848376552
 20
1124.277744592938
 30
0.0
 11
1688.806230151454
 21
1123.777744510982
 31
0.0
  0
LINE
  5
976
330
93B
100
AcDbEntity
  8
0
  6
Continuous
 62
     7
370
    15
100
AcDbLine
 10
1688.806230151454
 20
1123.777744510982
 30
0.0
 11
1687.815958583156
 21
1123.777744510982
 31
0.0
  0
LINE
  5
977
330
93B
100
AcDbEntity
  8
0
  6
Continuous
 62
     7
370
    15
100
AcDbLine
 10
1687.815958583156
 20
1123.777744510982
 30
0.0
 11
1687.885576808254
 21
1124.277744592938
 31
0.0
  0
LINE
  5
978
330
93B
100
AcDbEntity
  8
0
  6
Continuous
 62
     7
370
    15
100
AcDbLine
 10
1688.875848376552
 20
1124.277744592938
 30
0.0
 11
1687.885576808254
 21
1124.277744592938
 31
0.0
  0
LINE
  5
979
330
93B
100
AcDbEntity
  8
0
  6
Continuous
 62
     7
370
    15
100
AcDbLine
 10
1688.806230151454
 20
1123.277744429025
 30
0.0
 11
1687.815958583156
 21
1123.277744429025
 31
0.0
  0
LINE
  5
97A
330
93B
100
AcDbEntity
  8
0
  6
Continuous
 62
     7
370
    15
100
AcDbLine
 10
1687.815958583156
 20
1123.277744429025
 30
0.0
 11
1687.815958583156
 21
1123.777744510982
 31
0.0
  0
LINE
  5
97B
330
93B
100
AcDbEntity
  8
0
  6
Continuous
 62
     7
370
    15
100
AcDbLine
 10
1688.875848376552
 20
1122.777744347069
 30
0.0
 11
1687.885576808254
 21
1122.777744347069
 31
0.0
  0
LINE
  5
97C
330
93B
100
AcDbEntity
  8
0
  6
Continuous
 62
     7
370
    15
100
AcDbLine
 10
1687.815958583156
 20
1123.277744429025
 30
0.0
 11
1687.885576808254
 21
1122.777744347069
 31
0.0
  0
LINE
  5
97D
330
93B
100
AcDbEntity
  8
0
  6
Continuous
 62
     7
370
    15
100
AcDbLine
 10
1687.815958583156
 20
1123.277744429025
 30
0.0
 11
1686.524743163387
 21
1123.277744429025
 31
0.0
  0
LINE
  5
97E
330
93B
100
AcDbEntity
  8
0
  6
Continuous
 62
     7
370
    15
100
AcDbLine
 10
1687.885576808254
 20
1122.777744347069
 30
0.0
 11
1687.024766528408
 21
1122.777744347069
 31
0.0
  0
LINE
  5
97F
330
93B
100
AcDbEntity
  8
0
  6
Continuous
 62
     7
370
    15
100
AcDbLine
 10
1687.815958583156
 20
1123.777744510982
 30
0.0
 11
1686.524743163387
 21
1123.777744510982
 31
0.0
  0
LINE
  5
980
330
93B
100
AcDbEntity
  8
0
  6
Continuous
 62
     7
370
    15
100
AcDbLine
 10
1687.885576808254
 20
1124.277744592938
 30
0.0
 11
1687.024766528408
 21
1124.277744592938
 31
0.0
  0
LINE
  5
981
330
93B
100
AcDbEntity
  8
0
  6
Continuous
 62
     7
370
    15
100
AcDbLine
 10
1690.502995574276
 20
1123.277744429025
 30
0.0
 11
1690.50043257455
 21
1123.277744429025
 31
0.0
  0
LINE
  5
982
330
93B
100
AcDbEntity
  8
0
  6
Continuous
 62
     7
370
    15
100
AcDbLine
 10
1690.047020041744
 20
1122.777744347069
 30
0.0
 11
1690.502995574276
 21
1123.238206991765
 31
0.0
  0
LINE
  5
983
330
93B
100
AcDbEntity
  8
0
  6
Continuous
 62
     7
370
    15
100
AcDbLine
 10
1690.047020041744
 20
1122.777744347069
 30
0.0
 11
1690.005296790401
 21
1122.777744347069
 31
0.0
  0
LINE
  5
984
330
93B
100
AcDbEntity
  8
0
  6
Continuous
 62
     7
370
    15
100
AcDbLine
 10
1690.502995574276
 20
1123.777744510982
 30
0.0
 11
1690.50043257455
 21
1123.777744510982
 31
0.0
  0
LINE
  5
985
330
93B
100
AcDbEntity
  8
0
  6
Continuous
 62
     7
370
    15
100
AcDbLine
 10
1690.502995574276
 20
1123.817281715411
 30
0.0
 11
1690.047020041744
 21
1124.277744592938
 31
0.0
  0
LINE
  5
986
330
93B
100
AcDbEntity
  8
0
  6
Continuous
 62
     7
370
    15
100
AcDbLine
 10
1690.047020041744
 20
1124.277744592938
 30
0.0
 11
1690.005296790401
 21
1124.277744592938
 31
0.0
  0
LINE
  5
987
330
93B
100
AcDbEntity
  8
0
  6
Continuous
 62
     7
370
    15
100
AcDbLine
 10
1690.502995574276
 20
1124.277744592938
 30
0.0
 11
1690.047020041744
 21
1124.277744592938
 31
0.0
  0
LINE
  5
988
330
93B
100
AcDbEntity
  8
0
  6
Continuous
 62
     7
370
    15
100
AcDbLine
 10
1690.502995574276
 20
1122.777744347069
 30
0.0
 11
1690.047020041744
 21
1122.777744347069
 31
0.0
  0
LINE
  5
989
330
93B
100
AcDbEntity
  8
0
  6
Continuous
 62
     7
370
    15
100
AcDbLine
 10
1699.57357081155
 20
1126.02479491553
 30
0.0
 11
1699.57357081155
 21
1121.043662691328
 31
0.0
  0
LINE
  5
98A
330
93B
100
AcDbEntity
  8
0
  6
Continuous
 62
     7
370
    15
100
AcDbLine
 10
1686.471575820247
 20
1121.043662691328
 30
0.0
 11
1686.471575820247
 21
1126.02479491553
 31
0.0
  0
LINE
  5
98B
330
93B
100
AcDbEntity
  8
0
  6
Continuous
 62
     7
370
    15
100
AcDbLine
 10
1699.57357081155
 20
1121.043662691328
 30
0.0
 11
1686.471575820247
 21
1121.043662691328
 31
0.0
  0
LINE
  5
98C
330
93B
100
AcDbEntity
  8
0
  6
Continuous
 62
     7
370
    15
100
AcDbLine
 10
1675.149494731227
 20
1127.783191104491
 30
0.0
 11
1675.149494731227
 21
1119.285266997132
 31
0.0
  0
LINE
  5
98D
330
93B
100
AcDbEntity
  8
0
  6
Continuous
 62
     7
370
    15
100
AcDbLine
 10
1675.149494731227
 20
1127.783191104491
 30
0.0
 11
1714.862400615017
 21
1127.783191104491
 31
0.0
  0
LINE
  5
98E
330
93B
100
AcDbEntity
  8
0
  6
Continuous
 62
     7
370
    15
100
AcDbLine
 10
1714.862400615017
 20
1127.783191104491
 30
0.0
 11
1714.862400615017
 21
1119.285266997132
 31
0.0
  0
LINE
  5
98F
330
93B
100
AcDbEntity
  8
0
  6
Continuous
 62
     7
370
    15
100
AcDbLine
 10
1675.149494731227
 20
1119.285266997132
 30
0.0
 11
1714.862400615017
 21
1119.285266997132
 31
0.0
  0
CIRCLE
  5
990
330
93B
100
AcDbEntity
  8
0
  6
Continuous
 62
     7
370
    15
100
AcDbCircle
 10
1680.660288401334
 20
1123.534228833603
 30
0.0
 40
2.63999999998856
  0
CIRCLE
  5
991
330
93B
100
AcDbEntity
  8
0
  6
Continuous
 62
     7
370
    15
100
AcDbCircle
 10
1709.351609155926
 20
1123.534228833603
 30
0.0
 40
2.639999999988503
  0
LINE
  5
992
330
93B
100
AcDbEntity
  8
0
  6
Continuous
 62
     7
370
    15
100
AcDbLine
 10
1686.471575820247
 20
1126.02479491553
 30
0.0
 11
1699.57357081155
 21
1126.02479491553
 31
0.0
  0
LINE
  5
993
330
93B
100
AcDbEntity
  8
0
  6
Continuous
 62
     7
370
    15
100
AcDbLine
 10
1673.262173259059
 20
1127.783191104491
 30
0.0
 11
1675.149494731227
 21
1127.783191104491
 31
0.0
  0
LINE
  5
994
330
93B
100
AcDbEntity
  8
0
  6
Continuous
 62
     7
370
    15
100
AcDbLine
 10
1673.262173259059
 20
1119.285266997132
 30
0.0
 11
1675.149494731227
 21
1119.285266997132
 31
0.0
  0
LINE
  5
995
330
93B
100
AcDbEntity
  8
0
  6
Continuous
 62
     7
370
    15
100
AcDbLine
 10
1673.262173259059
 20
1119.285266997132
 30
0.0
 11
1673.262173259059
 21
1127.783191104491
 31
0.0
  0
LINE
  5
996
330
93B
100
AcDbEntity
  8
0
  6
Continuous
 62
     7
370
    15
100
AcDbLine
 10
1687.168354117672
 20
1121.043662691328
 30
0.0
 11
1687.168354117672
 21
1122.777744347069
 31
0.0
  0
LINE
  5
997
330
93B
100
AcDbEntity
  8
0
  6
Continuous
 62
     7
370
    15
100
AcDbLine
 10
1687.168354117672
 20
1124.277744592938
 30
0.0
 11
1687.168354117672
 21
1126.02479491553
 31
0.0
  0
LINE
  5
998
330
93B
100
AcDbEntity
  8
0
  6
Continuous
 62
     7
370
    15
100
AcDbLine
 10
1716.749722087184
 20
1127.783191104491
 30
0.0
 11
1716.749722087184
 21
1119.285266997132
 31
0.0
  0
LINE
  5
999
330
93B
100
AcDbEntity
  8
0
  6
Continuous
 62
     7
370
    15
100
AcDbLine
 10
1714.862400615017
 20
1127.783191104491
 30
0.0
 11
1716.749722087184
 21
1127.783191104491
 31
0.0
  0
LINE
  5
99A
330
93B
100
AcDbEntity
  8
0
  6
Continuous
 62
     7
370
    15
100
AcDbLine
 10
1714.862400615017
 20
1119.285266997132
 30
0.0
 11
1716.749722087184
 21
1119.285266997132
 31
0.0
  0
LINE
  5
99B
330
93B
100
AcDbEntity
  8
0
  6
Continuous
 62
     7
370
    15
100
AcDbLine
 10
1668.605977618496
 20
1120.285266695383
 30
0.0
 11
1668.605977618496
 21
1119.285266997132
 31
0.0
  0
LINE
  5
99C
330
93B
100
AcDbEntity
  8
0
  6
Continuous
 62
     7
370
    15
100
AcDbLine
 10
1668.605977618496
 20
1120.285266695383
 30
0.0
 11
1672.753686034481
 21
1120.285266695383
 31
0.0
  0
LINE
  5
99D
330
93B
100
AcDbEntity
  8
0
  6
Continuous
 62
     7
370
    15
100
AcDbLine
 10
1672.753686034481
 20
1120.285266695383
 30
0.0
 11
1672.753686034481
 21
1126.785266596663
 31
0.0
  0
LINE
  5
99E
330
93B
100
AcDbEntity
  8
0
  6
Continuous
 62
     7
370
    15
100
AcDbLine
 10
1668.605977618496
 20
1126.785266596663
 30
0.0
 11
1672.753686034481
 21
1126.785266596663
 31
0.0
  0
LINE
  5
99F
330
93B
100
AcDbEntity
  8
0
  6
Continuous
 62
     7
370
    15
100
AcDbLine
 10
1668.605977618496
 20
1127.783191104491
 30
0.0
 11
1668.605977618496
 21
1126.785266596663
 31
0.0
  0
LINE
  5
9A0
330
93B
100
AcDbEntity
  8
0
  6
Continuous
 62
     7
370
    15
100
AcDbLine
 10
1668.605977618496
 20
1127.783191104491
 30
0.0
 11
1673.262173259059
 21
1127.783191104491
 31
0.0
  0
LINE
  5
9A1
330
93B
100
AcDbEntity
  8
0
  6
Continuous
 62
     7
370
    15
100
AcDbLine
 10
1668.605977618496
 20
1119.285266997132
 30
0.0
 11
1673.262173259059
 21
1119.285266997132
 31
0.0
  0
LINE
  5
9A2
330
93B
100
AcDbEntity
  8
0
  6
Continuous
 62
     7
370
    15
100
AcDbLine
 10
1717.258209311763
 20
1126.785266596663
 30
0.0
 11
1717.258209311763
 21
1120.285266695383
 31
0.0
  0
LINE
  5
9A3
330
93B
100
AcDbEntity
  8
0
  6
Continuous
 62
     7
370
    15
100
AcDbLine
 10
1721.405977332393
 20
1120.285266695383
 30
0.0
 11
1717.258209311763
 21
1120.285266695383
 31
0.0
  0
LINE
  5
9A4
330
93B
100
AcDbEntity
  8
0
  6
Continuous
 62
     7
370
    15
100
AcDbLine
 10
1721.405977332393
 20
1120.285266695383
 30
0.0
 11
1721.405977332393
 21
1119.285266997132
 31
0.0
  0
LINE
  5
9A5
330
93B
100
AcDbEntity
  8
0
  6
Continuous
 62
     7
370
    15
100
AcDbLine
 10
1721.405977332393
 20
1127.783191104491
 30
0.0
 11
1721.405977332393
 21
1126.785266596663
 31
0.0
  0
LINE
  5
9A6
330
93B
100
AcDbEntity
  8
0
  6
Continuous
 62
     7
370
    15
100
AcDbLine
 10
1721.405977332393
 20
1126.785266596663
 30
0.0
 11
1717.258209311763
 21
1126.785266596663
 31
0.0
  0
LINE
  5
9A7
330
93B
100
AcDbEntity
  8
0
  6
Continuous
 62
     7
370
    15
100
AcDbLine
 10
1716.749722087184
 20
1127.783191104491
 30
0.0
 11
1721.405977332393
 21
1127.783191104491
 31
0.0
  0
LINE
  5
9A8
330
93B
100
AcDbEntity
  8
0
  6
Continuous
 62
     7
370
    15
100
AcDbLine
 10
1716.749722087184
 20
1119.285266997132
 30
0.0
 11
1721.405977332393
 21
1119.285266997132
 31
0.0
  0
LINE
  5
9A9
330
93B
100
AcDbEntity
  8
0
  6
Continuous
 62
     7
370
    15
100
AcDbLine
 10
1681.26028212289
 20
1120.963314698848
 30
0.0
 11
1681.26028212289
 21
1126.105143024425
 31
0.0
  0
LINE
  5
9AA
330
93B
100
AcDbEntity
  8
0
  6
Continuous
 62
     7
370
    15
100
AcDbLine
 10
1709.950262629787
 20
1120.963006896737
 30
0.0
 11
1709.950262629787
 21
1126.105450942952
 31
0.0
  0
LINE
  5
9AB
330
93B
100
AcDbEntity
  8
0
  6
Continuous
 62
     7
370
    15
100
AcDbLine
 10
1680.060261809627
 20
1126.105143024425
 30
0.0
 11
1680.060261809627
 21
1120.963314698848
 31
0.0
  0
LINE
  5
9AC
330
93B
100
AcDbEntity
  8
0
  6
Continuous
 62
     7
370
    15
100
AcDbLine
 10
1708.750301921169
 20
1126.104834523822
 30
0.0
 11
1708.750301921169
 21
1120.96362296662
 31
0.0
  0
LINE
  5
9AD
330
93B
100
AcDbEntity
  8
0
  6
Continuous
 62
     7
370
    15
100
AcDbLine
 10
1717.48196514825
 20
1126.785266596663
 30
0.0
 11
1717.48196514825
 21
1120.285266695383
 31
0.0
  0
LINE
  5
9AE
330
93B
100
AcDbEntity
  8
0
  6
Continuous
 62
     7
370
    15
100
AcDbLine
 10
1672.529930197994
 20
1126.785266596663
 30
0.0
 11
1672.529930197994
 21
1120.285266695383
 31
0.0
  0
LINE
  5
9AF
330
93B
100
AcDbEntity
  8
0
  6
Continuous
 62
     7
370
    15
100
AcDbLine
 10
1672.126406752864
 20
1126.785266596663
 30
0.0
 11
1672.126406752864
 21
1120.285266695383
 31
0.0
  0
LINE
  5
9B0
330
93B
100
AcDbEntity
  8
0
  6
Continuous
 62
     7
370
    15
100
AcDbLine
 10
1717.88548859338
 20
1126.785266596663
 30
0.0
 11
1717.88548859338
 21
1120.285266695383
 31
0.0
  0
LINE
  5
9B1
330
93B
100
AcDbEntity
  8
0
  6
Continuous
 62
     7
370
    15
100
AcDbLine
 10
1691.564911925594
 20
1126.02479491553
 30
0.0
 11
1691.564911925594
 21
1125.777744489561
 31
0.0
  0
LINE
  5
9B2
330
93B
100
AcDbEntity
  8
0
  6
Continuous
 62
     7
370
    15
100
AcDbLine
 10
1691.564911925594
 20
1121.277744566861
 30
0.0
 11
1691.564911925594
 21
1121.043662691328
 31
0.0
  0
LINE
  5
9B3
330
93B
100
AcDbEntity
  8
0
  6
Continuous
 62
     7
370
    15
100
AcDbLine
 10
1688.186818682949
 20
1121.043662691328
 30
0.0
 11
1688.186818682949
 21
1122.777744347069
 31
0.0
  0
LINE
  5
9B4
330
93B
100
AcDbEntity
  8
0
  6
Continuous
 62
     7
370
    15
100
AcDbLine
 10
1688.186818682949
 20
1124.277744592938
 30
0.0
 11
1688.186818682949
 21
1126.02479491553
 31
0.0
  0
LINE
  5
9B5
330
93B
100
AcDbEntity
  8
0
  6
Continuous
 62
     7
370
    15
100
AcDbLine
 10
1718.318754756252
 20
1126.785266596663
 30
0.0
 11
1718.318754756252
 21
1120.285266695383
 31
0.0
  0
LINE
  5
9B6
330
93B
100
AcDbEntity
  8
0
  6
Continuous
 62
     7
370
    15
100
AcDbLine
 10
1718.559080683986
 20
1126.785266596663
 30
0.0
 11
1718.559080683986
 21
1120.285266695383
 31
0.0
  0
LINE
  5
9B7
330
93B
100
AcDbEntity
  8
0
  6
Continuous
 62
     7
370
    15
100
AcDbLine
 10
1671.452814662258
 20
1126.785266596663
 30
0.0
 11
1671.452814662258
 21
1120.285266695383
 31
0.0
  0
LINE
  5
9B8
330
93B
100
AcDbEntity
  8
0
  6
Continuous
 62
     7
370
    15
100
AcDbLine
 10
1671.693200194637
 20
1126.785266596663
 30
0.0
 11
1671.693200194637
 21
1120.285266695383
 31
0.0
  0
LINE
  5
9B9
330
93B
100
AcDbEntity
  8
0
  6
Continuous
 62
     7
370
    15
100
AcDbLine
 10
1718.960935199062
 20
1126.785266596663
 30
0.0
 11
1718.960935199062
 21
1120.285266695383
 31
0.0
  0
LINE
  5
9BA
330
93B
100
AcDbEntity
  8
0
  6
Continuous
 62
     7
370
    15
100
AcDbLine
 10
1671.050960147182
 20
1126.785266596663
 30
0.0
 11
1671.050960147182
 21
1120.285266695383
 31
0.0
  0
LINE
  5
9BB
330
93B
100
AcDbEntity
  8
0
  6
Continuous
 62
     7
370
    15
100
AcDbLine
 10
1670.377368056575
 20
1126.785266596663
 30
0.0
 11
1670.377368056575
 21
1120.285266695383
 31
0.0
  0
LINE
  5
9BC
330
93B
100
AcDbEntity
  8
0
  6
Continuous
 62
     7
370
    15
100
AcDbLine
 10
1670.61769398431
 20
1126.785266596663
 30
0.0
 11
1670.61769398431
 21
1120.285266695383
 31
0.0
  0
LINE
  5
9BD
330
93B
100
AcDbEntity
  8
0
  6
Continuous
 62
     7
370
    15
100
AcDbLine
 10
1719.394201361934
 20
1126.785266596663
 30
0.0
 11
1719.394201361934
 21
1120.285266695383
 31
0.0
  0
LINE
  5
9BE
330
93B
100
AcDbEntity
  8
0
  6
Continuous
 62
     7
370
    15
100
AcDbLine
 10
1719.634527289669
 20
1126.785266596663
 30
0.0
 11
1719.634527289669
 21
1120.285266695383
 31
0.0
  0
LINE
  5
9BF
330
93B
100
AcDbEntity
  8
0
  6
Continuous
 62
     7
370
    15
100
AcDbLine
 10
1720.036441409389
 20
1126.785266596663
 30
0.0
 11
1720.036441409389
 21
1120.285266695383
 31
0.0
  0
LINE
  5
9C0
330
93B
100
AcDbEntity
  8
0
  6
Continuous
 62
     7
370
    15
100
AcDbLine
 10
1669.9755135415
 20
1126.785266596663
 30
0.0
 11
1669.9755135415
 21
1120.285266695383
 31
0.0
  0
LINE
  5
9C1
330
93B
100
AcDbEntity
  8
0
  6
Continuous
 62
     7
370
    15
100
AcDbLine
 10
1720.469647967617
 20
1126.785266596663
 30
0.0
 11
1720.469647967617
 21
1120.285266695383
 31
0.0
  0
LINE
  5
9C2
330
93B
100
AcDbEntity
  8
0
  6
Continuous
 62
     7
370
    15
100
AcDbLine
 10
1720.709973895351
 20
1126.785266596663
 30
0.0
 11
1720.709973895351
 21
1120.285266695383
 31
0.0
  0
LINE
  5
9C3
330
93B
100
AcDbEntity
  8
0
  6
Continuous
 62
     7
370
    15
100
AcDbLine
 10
1669.301921450893
 20
1126.785266596663
 30
0.0
 11
1669.301921450893
 21
1120.285266695383
 31
0.0
  0
LINE
  5
9C4
330
93B
100
AcDbEntity
  8
0
  6
Continuous
 62
     7
370
    15
100
AcDbLine
 10
1669.542247378627
 20
1126.785266596663
 30
0.0
 11
1669.542247378627
 21
1120.285266695383
 31
0.0
  0
LINE
  5
9C5
330
93B
100
AcDbEntity
  8
0
  6
Continuous
 62
     7
370
    15
100
AcDbLine
 10
1720.764988982479
 20
1126.785266596663
 30
0.0
 11
1720.764988982479
 21
1120.285266695383
 31
0.0
  0
LINE
  5
9C6
330
93B
100
AcDbEntity
  8
0
  6
Continuous
 62
     7
370
    15
100
AcDbLine
 10
1669.246906363765
 20
1126.785266596663
 30
0.0
 11
1669.246906363765
 21
1120.285266695383
 31
0.0
  0
LINE
  5
9C7
330
93B
100
AcDbEntity
  8
0
  6
Continuous
 62
     7
370
    15
100
AcDbLine
 10
1721.024567210475
 20
1126.785266596663
 30
0.0
 11
1721.024567210475
 21
1120.285266695383
 31
0.0
  0
LINE
  5
9C8
330
93B
100
AcDbEntity
  8
0
  6
Continuous
 62
     7
370
    15
100
AcDbLine
 10
1721.405977332393
 20
1126.785266596663
 30
0.0
 11
1721.405977332393
 21
1120.285266695383
 31
0.0
  0
LINE
  5
9C9
330
93B
100
AcDbEntity
  8
0
  6
Continuous
 62
     7
370
    15
100
AcDbLine
 10
1668.987328135768
 20
1126.785266596663
 30
0.0
 11
1668.987328135768
 21
1120.285266695383
 31
0.0
  0
LINE
  5
9CA
330
93B
100
AcDbEntity
  8
0
  6
Continuous
 62
     7
370
    15
100
AcDbLine
 10
1668.605977618496
 20
1126.785266596663
 30
0.0
 11
1668.605977618496
 21
1120.285266695383
 31
0.0
  0
LINE
  5
9CB
330
93B
100
AcDbEntity
  8
0
  6
Continuous
 62
     7
370
    15
100
AcDbLine
 10
1668.020600402156
 20
1119.434700498197
 30
0.0
 11
1668.605977618496
 21
1119.434700498197
 31
0.0
  0
LINE
  5
9CC
330
93B
100
AcDbEntity
  8
0
  6
Continuous
 62
     7
370
    15
100
AcDbLine
 10
1668.605977618496
 20
1127.633757135492
 30
0.0
 11
1668.020600402156
 21
1127.633757135492
 31
0.0
  0
LINE
  5
9CD
330
93B
100
AcDbEntity
  8
0
  6
Continuous
 62
     7
370
    15
100
AcDbLine
 10
1721.405977332393
 20
1127.633757135492
 30
0.0
 11
1721.991294944088
 21
1127.633757135492
 31
0.0
  0
LINE
  5
9CE
330
93B
100
AcDbEntity
  8
0
  6
Continuous
 62
     7
370
    15
100
AcDbLine
 10
1721.405977332393
 20
1119.434700498197
 30
0.0
 11
1721.991294944088
 21
1119.434700498197
 31
0.0
  0
LINE
  5
9CF
330
93B
100
AcDbEntity
  8
0
  6
Continuous
 62
     7
370
    15
100
AcDbLine
 10
1668.020600402156
 20
1126.821776013195
 30
0.0
 11
1667.794579589168
 21
1126.821776013195
 31
0.0
  0
LINE
  5
9D0
330
93B
100
AcDbEntity
  8
0
  6
Continuous
 62
     7
370
    15
100
AcDbLine
 10
1667.794579589168
 20
1126.821776013195
 30
0.0
 11
1667.794579589168
 21
1119.434700498197
 31
0.0
  0
LINE
  5
9D1
330
93B
100
AcDbEntity
  8
0
  6
Continuous
 62
     7
370
    15
100
AcDbLine
 10
1666.427070224086
 20
1119.434700498197
 30
0.0
 11
1666.427070224086
 21
1127.633757135492
 31
0.0
  0
LINE
  5
9D2
330
93B
100
AcDbEntity
  8
0
  6
Continuous
 62
     7
370
    15
100
AcDbLine
 10
1667.794579589168
 20
1119.434700498197
 30
0.0
 11
1666.427070224086
 21
1119.434700498197
 31
0.0
  0
LINE
  5
9D3
330
93B
100
AcDbEntity
  8
0
  6
Continuous
 62
     7
370
    15
100
AcDbLine
 10
1666.427070224086
 20
1127.633757135492
 30
0.0
 11
1668.020600402156
 21
1127.633757135492
 31
0.0
  0
LINE
  5
9D4
330
93B
100
AcDbEntity
  8
0
  6
Continuous
 62
     7
370
    15
100
AcDbLine
 10
1723.584825122158
 20
1119.434700498197
 30
0.0
 11
1723.584825122158
 21
1127.633757135492
 31
0.0
  0
LINE
  5
9D5
330
93B
100
AcDbEntity
  8
0
  6
Continuous
 62
     7
370
    15
100
AcDbLine
 10
1722.217315757076
 20
1126.821776013195
 30
0.0
 11
1722.217315757076
 21
1119.434700498197
 31
0.0
  0
LINE
  5
9D6
330
93B
100
AcDbEntity
  8
0
  6
Continuous
 62
     7
370
    15
100
AcDbLine
 10
1721.991294944088
 20
1126.821776013195
 30
0.0
 11
1722.217315757076
 21
1126.821776013195
 31
0.0
  0
LINE
  5
9D7
330
93B
100
AcDbEntity
  8
0
  6
Continuous
 62
     7
370
    15
100
AcDbLine
 10
1722.217315757076
 20
1119.434700498197
 30
0.0
 11
1723.584825122158
 21
1119.434700498197
 31
0.0
  0
LINE
  5
9D8
330
93B
100
AcDbEntity
  8
0
  6
Continuous
 62
     7
370
    15
100
AcDbLine
 10
1721.991294944088
 20
1127.633757135492
 30
0.0
 11
1723.584825122158
 21
1127.633757135492
 31
0.0
  0
LINE
  5
9D9
330
93B
100
AcDbEntity
  8
0
  6
Continuous
 62
     7
370
    15
100
AcDbLine
 10
1665.928954207698
 20
1127.633757135492
 30
0.0
 11
1665.928954207698
 21
1119.434700498197
 31
0.0
  0
LINE
  5
9DA
330
93B
100
AcDbEntity
  8
0
  6
Continuous
 62
     7
370
    15
100
AcDbLine
 10
1665.928954207698
 20
1119.434700498197
 30
0.0
 11
1666.427070224086
 21
1119.434700498197
 31
0.0
  0
LINE
  5
9DB
330
93B
100
AcDbEntity
  8
0
  6
Continuous
 62
     7
370
    15
100
AcDbLine
 10
1666.427070224086
 20
1127.633757135492
 30
0.0
 11
1665.928954207698
 21
1127.633757135492
 31
0.0
  0
LINE
  5
9DC
330
93B
100
AcDbEntity
  8
0
  6
Continuous
 62
     7
370
    15
100
AcDbLine
 10
1724.082941138546
 20
1127.633757135492
 30
0.0
 11
1724.082941138546
 21
1119.434700498197
 31
0.0
  0
LINE
  5
9DD
330
93B
100
AcDbEntity
  8
0
  6
Continuous
 62
     7
370
    15
100
AcDbLine
 10
1723.584825122158
 20
1119.434700498197
 30
0.0
 11
1724.082941138546
 21
1119.434700498197
 31
0.0
  0
LINE
  5
9DE
330
93B
100
AcDbEntity
  8
0
  6
Continuous
 62
     7
370
    15
100
AcDbLine
 10
1724.082941138546
 20
1127.633757135492
 30
0.0
 11
1723.584825122158
 21
1127.633757135492
 31
0.0
  0
LINE
  5
9DF
330
93B
100
AcDbEntity
  8
0
  6
Continuous
 62
     7
370
    15
100
AcDbLine
 10
1722.217315757076
 20
1119.434700498197
 30
0.0
 11
1721.991294944088
 21
1119.434700498197
 31
0.0
  0
LINE
  5
9E0
330
93B
100
AcDbEntity
  8
0
  6
Continuous
 62
     7
370
    15
100
AcDbLine
 10
1668.020600402156
 20
1119.434700498197
 30
0.0
 11
1667.794579589168
 21
1119.434700498197
 31
0.0
  0
ENDBLK
  5
93D
330
93B
100
AcDbEntity
  8
0
100
AcDbBlockEnd
  0
BLOCK
  5
9E3
330
9E2
100
AcDbEntity
  8
0
100
AcDbBlockBegin
  2
4
 70
     0
 10
0.0
 20
0.0
 30
0.0
  3
4
  1

  0
LINE
  5
9E5
330
9E2
100
AcDbEntity
  8
0
  6
Continuous
 62
     7
370
    15
100
AcDbLine
 10
1754.712027895741
 20
1197.500223923963
 30
0.0
 11
1758.773216861528
 21
1195.976077188238
 31
0.0
  0
LINE
  5
9E6
330
9E2
100
AcDbEntity
  8
0
  6
Continuous
 62
     7
370
    15
100
AcDbLine
 10
1753.945305880544
 20
1194.470153646331
 30
0.0
 11
1758.006494846331
 21
1192.946006910606
 31
0.0
  0
LINE
  5
9E7
330
9E2
100
AcDbEntity
  8
0
  6
Continuous
 62
     7
370
    15
100
AcDbLine
 10
1753.179814296901
 20
1191.444852077665
 30
0.0
 11
1757.24100358875
 21
1189.92070521957
 31
0.0
  0
LINE
  5
9E8
330
9E2
100
AcDbEntity
  8
0
  6
Continuous
 62
     7
370
    15
100
AcDbLine
 10
1758.432377151065
 20
1194.629067020939
 30
0.0
 11
1754.799576662991
 21
1195.992441405161
 31
0.0
  0
LINE
  5
9E9
330
9E2
100
AcDbEntity
  8
0
  6
Continuous
 62
     7
370
    15
100
AcDbLine
 10
1752.414322713258
 20
1188.419550508998
 30
0.0
 11
1756.475510048736
 21
1186.895404385121
 31
0.0
  0
LINE
  5
9EA
330
9E2
100
AcDbEntity
  8
0
  6
Continuous
 62
     7
370
    15
100
AcDbLine
 10
1757.665697666402
 20
1191.599039867715
 30
0.0
 11
1754.032897178327
 21
1192.962414251937
 31
0.0
  0
LINE
  5
9EB
330
9E2
100
AcDbEntity
  8
0
  6
Continuous
 62
     7
370
    15
100
AcDbLine
 10
1756.900163528966
 20
1188.573722876224
 30
0.0
 11
1753.267363040892
 21
1189.937097260446
 31
0.0
  0
LINE
  5
9EC
330
9E2
100
AcDbEntity
  8
0
  6
Continuous
 62
     7
370
    15
100
AcDbLine
 10
1756.134671968582
 20
1185.548393605974
 30
0.0
 11
1752.501871480508
 21
1186.911767990196
 31
0.0
  0
LINE
  5
9ED
330
9E2
100
AcDbEntity
  8
0
  6
Continuous
 62
     7
370
    15
100
AcDbLine
 10
1772.978922181167
 20
1210.857068070373
 30
0.0
 11
1769.827966455029
 21
1212.039608189748
 31
0.0
  0
LINE
  5
9EE
330
9E2
100
AcDbEntity
  8
0
  6
Continuous
 62
     7
370
    15
100
AcDbLine
 10
1766.746344703525
 20
1206.320856088886
 30
0.0
 11
1766.591079018981
 21
1206.133069013743
 31
0.0
  0
LINE
  5
9EF
330
9E2
100
AcDbEntity
  8
0
  6
Continuous
 62
     7
370
    15
100
AcDbLine
 10
1766.267359568163
 20
1205.270482151642
 30
0.0
 11
1766.260722985136
 21
1205.026946522118
 31
0.0
  0
LINE
  5
9F0
330
9E2
100
AcDbEntity
  8
0
  6
Continuous
 62
     7
370
    15
100
AcDbLine
 10
1768.914969401581
 20
1207.02193220918
 30
0.0
 11
1768.564863146387
 21
1207.153325579571
 31
0.0
  0
LINE
  5
9F1
330
9E2
100
AcDbEntity
  8
0
  6
Continuous
 62
     7
370
    15
100
AcDbLine
 10
1749.614286629965
 20
1156.523053830558
 30
0.0
 11
1755.355367719743
 21
1154.368450812518
 31
0.0
  0
LINE
  5
9F2
330
9E2
100
AcDbEntity
  8
0
  6
Continuous
 62
     7
370
    15
100
AcDbLine
 10
1776.522909895898
 20
1211.252527361863
 30
0.0
 11
1773.37195416976
 21
1212.435067481238
 31
0.0
  0
LINE
  5
9F3
330
9E2
100
AcDbEntity
  8
0
  6
Continuous
 62
     7
370
    15
100
AcDbLine
 10
1757.698609561012
 20
1159.666810124321
 30
0.0
 11
1759.913324379707
 21
1158.835637187057
 31
0.0
  0
LINE
  5
9F4
330
9E2
100
AcDbEntity
  8
0
  6
Continuous
 62
     7
370
    15
100
AcDbLine
 10
1763.94796093652
 20
1160.367855684753
 30
0.0
 11
1763.121575223803
 21
1160.677994685203
 31
0.0
  0
LINE
  5
9F5
330
9E2
100
AcDbEntity
  8
0
  6
Continuous
 62
     7
370
    15
100
AcDbLine
 10
1763.817469368396
 20
1161.635213246075
 30
0.0
 11
1766.320057633957
 21
1160.696002643478
 31
0.0
  0
LINE
  5
9F6
330
9E2
100
AcDbEntity
  8
0
  6
Continuous
 62
     7
370
    15
100
AcDbLine
 10
1768.355659697761
 20
1162.195586016436
 30
0.0
 11
1767.251550190058
 21
1162.609953561562
 31
0.0
  0
LINE
  5
9F7
330
9E2
100
AcDbEntity
  8
0
  6
Continuous
 62
     7
370
    15
100
AcDbLine
 10
1790.345514119859
 20
1209.561312708046
 30
0.0
 11
1784.395162322896
 21
1211.794454121597
 31
0.0
  0
LINE
  5
9F8
330
9E2
100
AcDbEntity
  8
0
  6
Continuous
 62
     7
370
    15
100
AcDbLine
 10
1776.685651724769
 20
1168.458881785905
 30
0.0
 11
1782.426732814547
 21
1166.304278767865
 31
0.0
  0
LINE
  5
9F9
330
9E2
100
AcDbEntity
  8
0
  6
Continuous
 62
     7
370
    15
100
AcDbLine
 10
1784.646113829889
 20
1170.778000863458
 30
0.0
 11
1786.737476859057
 21
1169.993121321783
 31
0.0
  0
LINE
  5
9FA
330
9E2
100
AcDbEntity
  8
0
  6
Continuous
 62
     7
370
    15
100
AcDbLine
 10
1784.76454774466
 20
1167.747348641805
 30
0.0
 11
1788.288412450785
 21
1166.424857387588
 31
0.0
  0
LINE
  5
9FB
330
9E2
100
AcDbEntity
  8
0
  6
Continuous
 62
     7
370
    15
100
AcDbLine
 10
1788.610374994276
 20
1170.514321099393
 30
0.0
 11
1790.342690175357
 21
1169.864190669429
 31
0.0
  0
LINE
  5
9FC
330
9E2
100
AcDbEntity
  8
0
  6
Continuous
 62
     7
370
    15
100
AcDbLine
 10
1795.969492695769
 20
1172.309485366972
 30
0.0
 11
1793.97966107404
 21
1173.056260608521
 31
0.0
  0
LINE
  5
9FD
330
9E2
100
AcDbEntity
  8
0
  6
Continuous
 62
     7
370
    15
100
AcDbLine
 10
1794.320979517794
 20
1198.119150765174
 30
0.0
 11
1794.336435948228
 21
1179.7105619787
 31
0.0
  0
LINE
  5
9FE
330
9E2
100
AcDbEntity
  8
0
  6
Continuous
 62
     7
370
    15
100
AcDbLine
 10
1756.640712241341
 20
1166.04845322001
 30
0.0
 11
1794.336435948228
 21
1179.7105619787
 31
0.0
  0
LINE
  5
9FF
330
9E2
100
AcDbEntity
  8
0
  6
Continuous
 62
     7
370
    15
100
AcDbLine
 10
1756.640712241341
 20
1166.04845322001
 30
0.0
 11
1756.625255810907
 21
1184.457042006485
 31
0.0
  0
LINE
  5
A00
330
9E2
100
AcDbEntity
  8
0
  6
Continuous
 62
     7
370
    15
100
AcDbLine
 10
1756.625255810907
 20
1184.457042006485
 30
0.0
 11
1759.939486886391
 21
1197.555240150483
 31
0.0
  0
ARC
  5
A01
330
9E2
100
AcDbEntity
  8
0
  6
Continuous
 62
     7
370
    15
100
AcDbCircle
 10
1762.328152515592
 20
1197.068259546711
 30
0.0
 40
2.437800975587917
100
AcDbArc
 50
115.3119683621222
 51
168.4769436914838
  0
LINE
  5
A02
330
9E2
100
AcDbEntity
  8
0
  6
Continuous
 62
     7
370
    15
100
AcDbLine
 10
1761.285878739942
 20
1199.272015198586
 30
0.0
 11
1789.638279041166
 21
1209.547811453281
 31
0.0
  0
ARC
  5
A03
330
9E2
100
AcDbEntity
  8
0
  6
Continuous
 62
     7
370
    15
100
AcDbCircle
 10
1789.997738184007
 20
1208.604251026165
 30
0.0
 40
1.009711421640389
100
AcDbArc
 50
11.62614683238339
 51
110.8548584778773
  0
LINE
  5
A04
330
9E2
100
AcDbEntity
  8
0
  6
Continuous
 62
     7
370
    15
100
AcDbLine
 10
1790.986733746191
 20
1208.807733047416
 30
0.0
 11
1794.320979517794
 21
1198.119150765174
 31
0.0
  0
LINE
  5
A05
330
9E2
100
AcDbEntity
  8
0
  6
Continuous
 62
     7
370
    15
100
AcDbLine
 10
1750.674904013944
 20
1186.690183420036
 30
0.0
 11
1753.989135089427
 21
1199.788381564034
 31
0.0
  0
LINE
  5
A06
330
9E2
100
AcDbEntity
  8
0
  6
Continuous
 62
     7
370
    15
100
AcDbLine
 10
1759.939486886391
 20
1197.555240150483
 30
0.0
 11
1753.989135089427
 21
1199.788381564034
 31
0.0
  0
LINE
  5
A07
330
9E2
100
AcDbEntity
  8
0
  6
Continuous
 62
     7
370
    15
100
AcDbLine
 10
1755.925043626581
 20
1184.719828624898
 30
0.0
 11
1756.625255810907
 21
1184.457042006485
 31
0.0
  0
LINE
  5
A08
330
9E2
100
AcDbEntity
  8
0
  6
Continuous
 62
     7
370
    15
100
AcDbLine
 10
1755.925043626581
 20
1184.719828624898
 30
0.0
 11
1758.877338896921
 21
1196.387555095638
 31
0.0
  0
LINE
  5
A09
330
9E2
100
AcDbEntity
  8
0
  6
Continuous
 62
     7
370
    15
100
AcDbLine
 10
1758.877338896921
 20
1196.387555095638
 30
0.0
 11
1754.325958394553
 21
1198.095668604801
 31
0.0
  0
LINE
  5
A0A
330
9E2
100
AcDbEntity
  8
0
  6
Continuous
 62
     7
370
    15
100
AcDbLine
 10
1751.373663124213
 20
1186.427942134061
 30
0.0
 11
1754.325958394553
 21
1198.095668604801
 31
0.0
  0
LINE
  5
A0B
330
9E2
100
AcDbEntity
  8
0
  6
Continuous
 62
     7
370
    15
100
AcDbLine
 10
1750.674904013944
 20
1186.690183420036
 30
0.0
 11
1751.373663124213
 21
1186.427942134061
 31
0.0
  0
ARC
  5
A0C
330
9E2
100
AcDbEntity
  8
0
  6
Continuous
 62
     7
370
    15
100
AcDbCircle
 10
1756.377800718629
 20
1199.301400960262
 30
0.0
 40
2.437800975587906
100
AcDbArc
 50
115.3119683621222
 51
168.4769436914838
  0
LINE
  5
A0D
330
9E2
100
AcDbEntity
  8
0
  6
Continuous
 62
     7
370
    15
100
AcDbLine
 10
1755.335526942979
 20
1201.505156612137
 30
0.0
 11
1761.285878739942
 21
1199.272015198586
 31
0.0
  0
LINE
  5
A0E
330
9E2
100
AcDbEntity
  8
0
  6
Continuous
 62
     7
370
    15
100
AcDbLine
 10
1777.171136027997
 20
1206.174226027191
 30
0.0
 11
1777.491810640377
 21
1206.053878225646
 31
0.0
  0
LINE
  5
A0F
330
9E2
100
AcDbEntity
  8
0
  6
Continuous
 62
     7
370
    15
100
AcDbLine
 10
1764.649998259059
 20
1203.972685303525
 30
0.0
 11
1766.295085315464
 21
1204.568916283381
 31
0.0
  0
LINE
  5
A10
330
9E2
100
AcDbEntity
  8
0
  6
Continuous
 62
     7
370
    15
100
AcDbLine
 10
1768.137848786639
 20
1202.663710015478
 30
0.0
 11
1764.649998259059
 21
1203.972685303525
 31
0.0
  0
LINE
  5
A11
330
9E2
100
AcDbEntity
  8
0
  6
Continuous
 62
     7
370
    15
100
AcDbLine
 10
1777.491810640377
 20
1206.053878225646
 30
0.0
 11
1768.137848786639
 21
1202.663710015478
 31
0.0
  0
LINE
  5
A12
330
9E2
100
AcDbEntity
  8
0
  6
Continuous
 62
     7
370
    15
100
AcDbLine
 10
1755.335526942979
 20
1201.505156612137
 30
0.0
 11
1766.289085849156
 21
1205.475068802563
 31
0.0
  0
LINE
  5
A13
330
9E2
100
AcDbEntity
  8
0
  6
Continuous
 62
     7
370
    15
100
AcDbLine
 10
1776.818255784756
 20
1209.291169162314
 30
0.0
 11
1783.687927244203
 21
1211.780952866831
 31
0.0
  0
LINE
  5
A14
330
9E2
100
AcDbEntity
  8
0
  6
Continuous
 62
     7
370
    15
100
AcDbLine
 10
1783.687927244203
 20
1211.780952866831
 30
0.0
 11
1789.638279041166
 21
1209.547811453281
 31
0.0
  0
LWPOLYLINE
  5
A15
330
9E2
100
AcDbEntity
  8
0
  6
Continuous
 62
     7
370
    15
100
AcDbPolyline
 90
       44
 70
   128
 43
0.0
 10
1760.396495655663
 20
1202.508275422951
 10
1760.690624493744
 20
1202.600344107545
 10
1761.01785996703
 20
1202.675655769462
 10
1761.37129164806
 20
1202.732628582773
 10
1761.743332946883
 20
1202.77002866166
 10
1762.126062190794
 20
1202.787061806214
 10
1762.511325907139
 20
1202.783366133931
 10
1762.890897865411
 20
1202.75901517805
 10
1763.256738307295
 20
1202.714546171956
 10
1763.600966304748
 20
1202.650876243832
 10
1763.916350344528
 20
1202.569400840118
 10
1764.196085443131
 20
1202.471826228674
 10
1764.434253567882
 20
1202.360247849367
 10
1764.62573281508
 20
1202.237027433723
 10
1764.766490550477
 20
1202.104808562888
 10
1764.853530739382
 20
1201.966410862089
 10
1764.884964862379
 20
1201.824771993195
 10
1764.860116907231
 20
1201.682908251706
 10
1764.77953118891
 20
1201.543848845773
 10
1764.644928160036
 20
1201.410558301104
 10
1764.459184841724
 20
1201.285881019029
 10
1764.226262266647
 20
1201.172474327565
 10
1763.951109445656
 20
1201.072750343092
 10
1763.639556248294
 20
1200.988821992593
 10
1763.298313402801
 20
1200.922503013654
 10
1762.934654077671
 20
1200.875207703978
 10
1762.556254592279
 20
1200.847916522759
 10
1762.171224420022
 20
1200.841227616792
 10
1761.787785327146
 20
1200.855288879816
 10
1761.414060239538
 20
1200.889783010649
 10
1761.058065422703
 20
1200.943993234181
 10
1760.727392720901
 20
1201.01676559025
 10
1760.42901098005
 20
1201.106520672614
 10
1760.169403825203
 20
1201.211390280139
 10
1759.953978643529
 20
1201.329093899059
 10
1759.787412728915
 20
1201.457154120282
 10
1759.673235414675
 20
1201.592833711618
 10
1759.613838189645
 20
1201.733226000499
 10
1759.610537312957
 20
1201.875356947238
 10
1759.663388686996
 20
1202.016191836254
 10
1759.771269057697
 20
1202.152730374269
 10
1759.931844633822
 20
1202.28204986044
 10
1760.141765680699
 20
1202.401420514638
 10
1760.396495655663
 20
1202.508275422951
  0
LWPOLYLINE
  5
A16
330
9E2
100
AcDbEntity
  8
0
  6
Continuous
 62
     7
370
    15
100
AcDbPolyline
 90
       44
 70
   128
 43
0.0
 10
1784.613542463718
 20
1209.921557166473
 10
1784.862609682056
 20
1209.813265778004
 10
1785.066195253044
 20
1209.692722319503
 10
1785.21996100616
 20
1209.562496680082
 10
1785.320663088834
 20
1209.425375917634
 10
1785.36609359048
 20
1209.28426059476
 10
1785.355317434576
 20
1209.142170053434
 10
1785.28855481975
 20
1209.002129568953
 10
1785.167225072369
 20
1208.867122499175
 10
1784.99393229436
 20
1208.740032884665
 10
1784.772394110533
 20
1208.623578010285
 10
1784.507267700968
 20
1208.520216729085
 10
1784.204215831262
 20
1208.432156074522
 10
1783.869739571912
 20
1208.361288467829
 10
1783.51095346507
 20
1208.309119131572
 10
1783.135511668817
 20
1208.276762414303
 10
1782.751346604989
 20
1208.264882909506
 10
1782.366733364568
 20
1208.273765463772
 10
1781.989870696447
 20
1208.303221285275
 10
1781.628704928601
 20
1208.352591239234
 10
1781.290997147724
 20
1208.420846208011
 10
1780.983957341528
 20
1208.506536037444
 10
1780.71408495179
 20
1208.607817983531
 10
1780.487131382698
 20
1208.722533569039
 10
1780.307979031919
 20
1208.848253982626
 10
1780.180433583782
 20
1208.982295244157
 10
1780.107149832938
 20
1209.121777435843
 10
1780.089775983071
 20
1209.263758906036
 10
1780.128680640743
 20
1209.405213154942
 10
1780.222947522347
 20
1209.543093607241
 10
1780.370636732938
 20
1209.674486699902
 10
1780.568593441291
 20
1209.796589506377
 10
1780.812612962322
 20
1209.906804747268
 10
1781.097451845918
 20
1210.002768021825
 10
1781.417027684938
 20
1210.082429786256
 10
1781.764593406158
 20
1210.144115515412
 10
1782.132717459291
 20
1210.186501744674
 10
1782.513535550328
 20
1210.20867856092
 10
1782.898935037677
 20
1210.210174578682
 10
1783.280710713637
 20
1210.190961262192
 10
1783.650693193966
 20
1210.15143613441
 10
1784.001057793555
 20
1210.092463822707
 10
1784.324304465451
 20
1210.01528940843
 10
1784.613542463718
 20
1209.921557166473
  0
ARC
  5
A17
330
9E2
100
AcDbEntity
  8
0
  6
Continuous
 62
     7
370
    15
100
AcDbCircle
 10
1754.438285768388
 20
1197.924513928941
 30
0.0
 40
0.2569752851051014
100
AcDbArc
 50
345.1670045907511
 51
7.462442553023733
  0
LINE
  5
A18
330
9E2
100
AcDbEntity
  8
0
  6
Continuous
 62
     7
370
    15
100
AcDbLine
 10
1754.647538437303
 20
1197.704017618618
 30
0.0
 11
1754.686697640589
 21
1197.858727616502
 31
0.0
  0
LINE
  5
A19
330
9E2
100
AcDbEntity
  8
0
  6
Continuous
 62
     7
370
    15
100
AcDbLine
 10
1753.88085895264
 20
1194.673990465394
 30
0.0
 11
1754.168082677843
 21
1195.809151214628
 31
0.0
  0
ARC
  5
A1A
330
9E2
100
AcDbEntity
  8
0
  6
Continuous
 62
     7
370
    15
100
AcDbCircle
 10
1754.797265817178
 20
1197.639297547194
 30
0.0
 40
0.1631164489846984
100
AcDbArc
 50
156.6234527793638
 51
238.495958151347
  0
ARC
  5
A1B
330
9E2
100
AcDbEntity
  8
0
  6
Continuous
 62
     7
370
    15
100
AcDbCircle
 10
1754.382951799503
 20
1195.775452484679
 30
0.0
 40
0.2174956179857048
100
AcDbArc
 50
101.4963594666338
 51
171.0866944925748
  0
LINE
  5
A1C
330
9E2
100
AcDbEntity
  8
0
  6
Continuous
 62
     7
370
    15
100
AcDbLine
 10
1753.665653137315
 20
1167.026128121352
 30
0.0
 11
1753.66553651608
 21
1167.165023861777
 31
0.0
  0
LINE
  5
A1D
330
9E2
100
AcDbEntity
  8
0
  6
Continuous
 62
     7
370
    15
100
AcDbLine
 10
1750.795112583032
 20
1168.103429633898
 30
0.0
 11
1753.665653137315
 21
1167.026128121352
 31
0.0
  0
LINE
  5
A1E
330
9E2
100
AcDbEntity
  8
0
  6
Continuous
 62
     7
370
    15
100
AcDbLine
 10
1750.690477065613
 20
1168.142698893137
 30
0.0
 11
1750.795112583032
 21
1168.103429633898
 31
0.0
  0
LINE
  5
A1F
330
9E2
100
AcDbEntity
  8
0
  6
Continuous
 62
     7
370
    15
100
AcDbLine
 10
1750.690477065613
 20
1168.142698893137
 30
0.0
 11
1750.674904013944
 21
1186.690183420036
 31
0.0
  0
LINE
  5
A20
330
9E2
100
AcDbEntity
  8
0
  6
Continuous
 62
     7
370
    15
100
AcDbLine
 10
1751.373663124213
 20
1186.427942134061
 30
0.0
 11
1755.925043626581
 21
1184.719828624898
 31
0.0
  0
LINE
  5
A21
330
9E2
100
AcDbEntity
  8
0
  6
Continuous
 62
     7
370
    15
100
AcDbLine
 10
1753.66553651608
 20
1167.165023861777
 30
0.0
 11
1756.640712241341
 21
1166.04845322001
 31
0.0
  0
LINE
  5
A22
330
9E2
100
AcDbEntity
  8
0
  6
Continuous
 62
     7
370
    15
100
AcDbLine
 10
1756.209846909785
 20
1168.377674853831
 30
0.0
 11
1751.117585200654
 21
1170.288778751436
 31
0.0
  0
LINE
  5
A23
330
9E2
100
AcDbEntity
  8
0
  6
Continuous
 62
     7
370
    15
100
AcDbLine
 10
1756.200666255476
 20
1179.311822339711
 30
0.0
 11
1756.209846909785
 21
1168.377674853831
 31
0.0
  0
LINE
  5
A24
330
9E2
100
AcDbEntity
  8
0
  6
Continuous
 62
     7
370
    15
100
AcDbLine
 10
1751.108404546345
 20
1181.222926237317
 30
0.0
 11
1756.200666255476
 21
1179.311822339711
 31
0.0
  0
LINE
  5
A25
330
9E2
100
AcDbEntity
  8
0
  6
Continuous
 62
     7
370
    15
100
AcDbLine
 10
1751.117585200654
 20
1170.288778751436
 30
0.0
 11
1751.108404546345
 21
1181.222926237317
 31
0.0
  0
LINE
  5
A26
330
9E2
100
AcDbEntity
  8
0
  6
Continuous
 62
     7
370
    15
100
AcDbLine
 10
1754.339603689574
 20
1195.988584568629
 30
0.0
 11
1754.764922525041
 21
1195.998170271069
 31
0.0
  0
LINE
  5
A27
330
9E2
100
AcDbEntity
  8
0
  6
Continuous
 62
     7
370
    15
100
AcDbLine
 10
1753.115367368996
 20
1191.648688896727
 30
0.0
 11
1753.401403193179
 21
1192.779124061404
 31
0.0
  0
ARC
  5
A28
330
9E2
100
AcDbEntity
  8
0
  6
Continuous
 62
     7
370
    15
100
AcDbCircle
 10
1754.030718678246
 20
1194.609265020846
 30
0.0
 40
0.163240070236402
100
AcDbArc
 50
156.6401525842285
 51
238.4505494644275
  0
ARC
  5
A29
330
9E2
100
AcDbEntity
  8
0
  6
Continuous
 62
     7
370
    15
100
AcDbCircle
 10
1753.616362086578
 20
1192.745372438368
 30
0.0
 40
0.2175925042572325
100
AcDbArc
 50
101.5152999818278
 51
171.0765975726501
  0
LINE
  5
A2A
330
9E2
100
AcDbEntity
  8
0
  6
Continuous
 62
     7
370
    15
100
AcDbLine
 10
1753.572924181652
 20
1192.958585116989
 30
0.0
 11
1753.998243040377
 21
1192.968143117845
 31
0.0
  0
LINE
  5
A2B
330
9E2
100
AcDbEntity
  8
0
  6
Continuous
 62
     7
370
    15
100
AcDbLine
 10
1752.349875808613
 20
1188.623359626477
 30
0.0
 11
1752.635911609536
 21
1189.753822492737
 31
0.0
  0
ARC
  5
A2C
330
9E2
100
AcDbEntity
  8
0
  6
Continuous
 62
     7
370
    15
100
AcDbCircle
 10
1753.265146069495
 20
1191.583937834534
 30
0.0
 40
0.1631758535384767
100
AcDbArc
 50
156.6206141255502
 51
238.4700879230967
  0
LWPOLYLINE
  5
A2D
330
9E2
100
AcDbEntity
  8
0
  6
Continuous
 62
     7
370
    15
100
AcDbPolyline
 90
        3
 70
   128
 43
0.0
 10
1754.764922525041
 20
1195.998170271069
 10
1754.792934410378
 20
1195.994633907394
 10
1754.799576662991
 20
1195.992441405161
  0
LINE
  5
A2E
330
9E2
100
AcDbEntity
  8
0
  6
Continuous
 62
     7
370
    15
100
AcDbLine
 10
1755.481327607768
 20
1195.736564806499
 30
0.0
 11
1755.822177815096
 21
1197.083579803016
 31
0.0
  0
ARC
  5
A2F
330
9E2
100
AcDbEntity
  8
0
  6
Continuous
 62
     7
370
    15
100
AcDbCircle
 10
1752.850739774705
 20
1189.720154872879
 30
0.0
 40
0.2174503372649252
100
AcDbArc
 50
101.4992155636353
 51
171.0931206241168
  0
LINE
  5
A30
330
9E2
100
AcDbEntity
  8
0
  6
Continuous
 62
     7
370
    15
100
AcDbLine
 10
1751.373663124213
 20
1186.427942134061
 30
0.0
 11
1751.646032768155
 21
1186.395034844115
 31
0.0
  0
LINE
  5
A31
330
9E2
100
AcDbEntity
  8
0
  6
Continuous
 62
     7
370
    15
100
AcDbLine
 10
1754.714648123104
 20
1192.706537653275
 30
0.0
 11
1755.055498330432
 21
1194.053552649792
 31
0.0
  0
LWPOLYLINE
  5
A32
330
9E2
100
AcDbEntity
  8
0
  6
Continuous
 62
     7
370
    15
100
AcDbPolyline
 90
        3
 70
   128
 43
0.0
 10
1753.998243040377
 20
1192.968143117845
 10
1754.026254925715
 20
1192.964606754171
 10
1754.032897178327
 20
1192.962414251937
  0
LINE
  5
A33
330
9E2
100
AcDbEntity
  8
0
  6
Continuous
 62
     7
370
    15
100
AcDbLine
 10
1753.949156539461
 20
1189.681236084609
 30
0.0
 11
1754.290006770048
 21
1191.028223379542
 31
0.0
  0
LWPOLYLINE
  5
A34
330
9E2
100
AcDbEntity
  8
0
  6
Continuous
 62
     7
370
    15
100
AcDbPolyline
 90
        3
 70
   128
 43
0.0
 10
1753.232751456734
 20
1189.942841549179
 10
1753.260720788279
 20
1189.939289762679
 10
1753.267363040892
 20
1189.937097260446
  0
LINE
  5
A35
330
9E2
100
AcDbEntity
  8
0
  6
Continuous
 62
     7
370
    15
100
AcDbLine
 10
1752.807390067476
 20
1189.933240423914
 30
0.0
 11
1753.232751456734
 21
1189.942841549179
 31
0.0
  0
ARC
  5
A36
330
9E2
100
AcDbEntity
  8
0
  6
Continuous
 62
     7
370
    15
100
AcDbCircle
 10
1752.499580278219
 20
1188.558603984392
 30
0.0
 40
0.163109538047952
100
AcDbArc
 50
156.6087903166071
 51
238.4863766647923
  0
LINE
  5
A37
330
9E2
100
AcDbEntity
  8
0
  6
Continuous
 62
     7
370
    15
100
AcDbLine
 10
1753.183664979077
 20
1186.655906814359
 30
0.0
 11
1753.524472632612
 21
1188.002906388051
 31
0.0
  0
LWPOLYLINE
  5
A38
330
9E2
100
AcDbEntity
  8
0
  6
Continuous
 62
     7
370
    15
100
AcDbPolyline
 90
        3
 70
   128
 43
0.0
 10
1752.467259896351
 20
1186.917512278929
 10
1752.495229227896
 20
1186.913960492429
 10
1752.501871480508
 20
1186.911767990196
  0
LINE
  5
A39
330
9E2
100
AcDbEntity
  8
0
  6
Continuous
 62
     7
370
    15
100
AcDbLine
 10
1752.041898507092
 20
1186.907911153664
 30
0.0
 11
1752.467259896351
 21
1186.917512278929
 31
0.0
  0
ARC
  5
A3A
330
9E2
100
AcDbEntity
  8
0
  6
Continuous
 62
     7
370
    15
100
AcDbCircle
 10
1752.08518672112
 20
1186.694879154787
 30
0.0
 40
0.2173856067433719
100
AcDbArc
 50
101.4861470938497
 51
171.0973433758614
  0
LINE
  5
A3B
330
9E2
100
AcDbEntity
  8
0
  6
Continuous
 62
     7
370
    15
100
AcDbLine
 10
1751.831260845866
 20
1186.573783224603
 30
0.0
 11
1751.870420025893
 21
1186.728520924071
 31
0.0
  0
ARC
  5
A3C
330
9E2
100
AcDbEntity
  8
0
  6
Continuous
 62
     7
370
    15
100
AcDbCircle
 10
1751.62611647101
 20
1186.60101863812
 30
0.0
 40
0.2069443941851696
100
AcDbArc
 50
275.5226849041804
 51
352.4375123474115
  0
ARC
  5
A3D
330
9E2
100
AcDbEntity
  8
0
  6
Continuous
 62
     7
370
    15
100
AcDbCircle
 10
1792.923806518002
 20
1178.46299130241
 30
0.0
 40
1.740382032555376
100
AcDbArc
 50
348.3135063120836
 51
41.26885169969113
  0
LINE
  5
A3E
330
9E2
100
AcDbEntity
  8
0
  6
Continuous
 62
     7
370
    15
100
AcDbLine
 10
1794.628111451557
 20
1178.110465682489
 30
0.0
 11
1793.645673127704
 21
1170.452755346927
 31
0.0
  0
LWPOLYLINE
  5
A3F
330
9E2
100
AcDbEntity
  8
0
  6
Continuous
 62
     7
370
    15
100
AcDbPolyline
 90
        9
 70
   128
 43
0.0
 10
1793.645673127704
 20
1170.452755346927
 10
1793.633803408289
 20
1170.343737248572
 10
1793.640530358991
 20
1170.240669429475
 10
1793.665508920909
 20
1170.148941122184
 10
1793.707372965086
 20
1170.073308246411
 10
1793.763948259174
 20
1170.017735059692
 10
1793.832337795984
 20
1169.985161837995
 10
1793.908879449023
 20
1169.977240138637
 10
1793.989656699409
 20
1169.994420918643
  0
LINE
  5
A40
330
9E2
100
AcDbEntity
  8
0
  6
Continuous
 62
     7
370
    15
100
AcDbLine
 10
1794.619793255741
 20
1170.222802106715
 30
0.0
 11
1793.989656699409
 21
1169.994420918643
 31
0.0
  0
ARC
  5
A41
330
9E2
100
AcDbEntity
  8
0
  6
Continuous
 62
     7
370
    15
100
AcDbCircle
 10
1794.328060135956
 20
1170.801433759348
 30
0.0
 40
0.6480145080226926
100
AcDbArc
 50
296.7562182458459
 51
8.13451176677433
  0
LINE
  5
A42
330
9E2
100
AcDbEntity
  8
0
  6
Continuous
 62
     7
370
    15
100
AcDbLine
 10
1794.969554715419
 20
1170.893126218838
 30
0.0
 11
1794.817766307346
 21
1171.952291431511
 31
0.0
  0
LINE
  5
A43
330
9E2
100
AcDbEntity
  8
0
  6
Continuous
 62
     7
370
    15
100
AcDbLine
 10
1794.817766307346
 20
1171.952291431511
 30
0.0
 11
1795.794077964013
 21
1172.306137298471
 31
0.0
  0
LWPOLYLINE
  5
A44
330
9E2
100
AcDbEntity
  8
0
  6
Continuous
 62
     7
370
    15
100
AcDbPolyline
 90
        9
 70
   128
 43
0.0
 10
1795.794077964013
 20
1172.306137298471
 10
1795.863490665427
 20
1172.322399717196
 10
1795.930194577381
 20
1172.32022307744
 10
1795.991720730963
 20
1172.299723963175
 10
1796.045684741516
 20
1172.261673089653
 10
1796.089957035438
 20
1172.207543143915
 10
1796.122875770322
 20
1172.139405838621
 10
1796.14320430443
 20
1172.059888787639
 10
1796.150088759192
 20
1171.972021575306
  0
LINE
  5
A45
330
9E2
100
AcDbEntity
  8
0
  6
Continuous
 62
     7
370
    15
100
AcDbLine
 10
1796.150088759192
 20
1171.972021575306
 30
0.0
 11
1796.151101566002
 21
1170.765769966034
 31
0.0
  0
ARC
  5
A46
330
9E2
100
AcDbEntity
  8
0
  6
Continuous
 62
     7
370
    15
100
AcDbCircle
 10
1793.599737662229
 20
1170.686769279369
 30
0.0
 40
2.552586703321254
100
AcDbArc
 50
296.3001578401891
 51
1.77354557189215
  0
LINE
  5
A47
330
9E2
100
AcDbEntity
  8
0
  6
Continuous
 62
     7
370
    15
100
AcDbLine
 10
1789.339539096707
 20
1166.444479969785
 30
0.0
 11
1794.73072159659
 21
1168.398413053125
 31
0.0
  0
ARC
  5
A48
330
9E2
100
AcDbEntity
  8
0
  6
Continuous
 62
     7
370
    15
100
AcDbCircle
 10
1788.794734761258
 20
1167.762458376064
 30
0.0
 40
1.426141242424144
100
AcDbArc
 50
212.5052137422289
 51
292.4584214594364
  0
LINE
  5
A49
330
9E2
100
AcDbEntity
  8
0
  6
Continuous
 62
     7
370
    15
100
AcDbLine
 10
1786.764281704593
 20
1168.233260919759
 30
0.0
 11
1787.59200916966
 21
1166.996083797507
 31
0.0
  0
ARC
  5
A4A
330
9E2
100
AcDbEntity
  8
0
  6
Continuous
 62
     7
370
    15
100
AcDbCircle
 10
1787.111062077063
 20
1168.397839159061
 30
0.0
 40
0.3838523460680322
100
AcDbArc
 50
126.2096045031152
 51
205.3885135496539
  0
LINE
  5
A4B
330
9E2
100
AcDbEntity
  8
0
  6
Continuous
 62
     7
370
    15
100
AcDbLine
 10
1786.940714588051
 20
1168.747687401771
 30
0.0
 11
1786.884304785071
 21
1168.707554761043
 31
0.0
  0
LINE
  5
A4C
330
9E2
100
AcDbEntity
  8
0
  6
Continuous
 62
     7
370
    15
100
AcDbLine
 10
1787.542181591402
 20
1169.103826119764
 30
0.0
 11
1786.940714588051
 21
1168.747687401771
 31
0.0
  0
ARC
  5
A4D
330
9E2
100
AcDbEntity
  8
0
  6
Continuous
 62
     7
370
    15
100
AcDbCircle
 10
1787.389243262629
 20
1169.326730653036
 30
0.0
 40
0.2703267714476376
100
AcDbArc
 50
304.454635070703
 51
0.4409739642703701
  0
LINE
  5
A4E
330
9E2
100
AcDbEntity
  8
0
  6
Continuous
 62
     7
370
    15
100
AcDbLine
 10
1787.658975804777
 20
1170.027001902653
 30
0.0
 11
1787.659562027671
 21
1169.328811188324
 31
0.0
  0
LWPOLYLINE
  5
A4F
330
9E2
100
AcDbEntity
  8
0
  6
Continuous
 62
     7
370
    15
100
AcDbPolyline
 90
        9
 70
   128
 43
0.0
 10
1787.528946724938
 20
1170.164423988799
 10
1787.554867136342
 20
1170.167680588259
 10
1787.579516074243
 20
1170.164352452992
 10
1787.601956994695
 20
1170.1545296554
 10
1787.621508525318
 20
1170.138574865129
 10
1787.63744658876
 20
1170.117015389294
 10
1787.649259737074
 20
1170.090621858633
 10
1787.656521571749
 20
1170.060265003495
 10
1787.658975804777
 20
1170.027001902653
  0
LINE
  5
A50
330
9E2
100
AcDbEntity
  8
0
  6
Continuous
 62
     7
370
    15
100
AcDbLine
 10
1786.824741777016
 20
1169.989432444043
 30
0.0
 11
1787.528946724938
 21
1170.164423988799
 31
0.0
  0
LWPOLYLINE
  5
A51
330
9E2
100
AcDbEntity
  8
0
  6
Continuous
 62
     7
370
    15
100
AcDbPolyline
 90
        9
 70
   128
 43
0.0
 10
1786.824741777016
 20
1169.989432444043
 10
1786.785584507927
 20
1169.984509625056
 10
1786.748376944737
 20
1169.989548584943
 10
1786.714481367018
 20
1170.004378016089
 10
1786.6849623755
 20
1170.028483187641
 10
1786.660884826761
 20
1170.061044651328
 10
1786.643058440701
 20
1170.100928809261
 10
1786.63208029618
 20
1170.146772590719
 10
1786.628334807767
 20
1170.197011153728
  0
LINE
  5
A52
330
9E2
100
AcDbEntity
  8
0
  6
Continuous
 62
     7
370
    15
100
AcDbLine
 10
1786.626932887486
 20
1171.866696406682
 30
0.0
 11
1786.628334807767
 21
1170.197011153728
 31
0.0
  0
ARC
  5
A53
330
9E2
100
AcDbEntity
  8
0
  6
Continuous
 62
     7
370
    15
100
AcDbCircle
 10
1787.349777165064
 20
1171.859447104665
 30
0.0
 40
0.7228806277716015
100
AcDbArc
 50
138.8253686007856
 51
179.4254080740498
  0
LINE
  5
A54
330
9E2
100
AcDbEntity
  8
0
  6
Continuous
 62
     7
370
    15
100
AcDbLine
 10
1787.301226599046
 20
1172.887834771258
 30
0.0
 11
1786.805660232148
 21
1172.335360085494
 31
0.0
  0
ARC
  5
A55
330
9E2
100
AcDbEntity
  8
0
  6
Continuous
 62
     7
370
    15
100
AcDbCircle
 10
1786.76091818273
 20
1173.360445586347
 30
0.0
 40
0.7178399315174545
100
AcDbArc
 50
318.8236286584189
 51
359.427032013817
  0
LINE
  5
A56
330
9E2
100
AcDbEntity
  8
0
  6
Continuous
 62
     7
370
    15
100
AcDbLine
 10
1787.476923616678
 20
1175.495402941111
 30
0.0
 11
1787.478722221273
 21
1173.353267178997
 31
0.0
  0
LWPOLYLINE
  5
A57
330
9E2
100
AcDbEntity
  8
0
  6
Continuous
 62
     7
370
    15
100
AcDbPolyline
 90
        9
 70
   128
 43
0.0
 10
1787.476923616678
 20
1175.495402941111
 10
1787.469996608123
 20
1175.58325473062
 10
1787.449710639437
 20
1175.662773353635
 10
1787.41674933913
 20
1175.730909086896
 10
1787.372477056839
 20
1175.785025181842
 10
1787.318555600078
 20
1175.823091478189
 10
1787.257029434866
 20
1175.843604443245
 10
1787.19028296912
 20
1175.845765660177
 10
1787.120912821498
 20
1175.829518664277
  0
LINE
  5
A58
330
9E2
100
AcDbEntity
  8
0
  6
Continuous
 62
     7
370
    15
100
AcDbLine
 10
1786.477414374385
 20
1175.59629470925
 30
0.0
 11
1787.120912821498
 21
1175.829518664277
 31
0.0
  0
ARC
  5
A59
330
9E2
100
AcDbEntity
  8
0
  6
Continuous
 62
     7
370
    15
100
AcDbCircle
 10
1786.632463835135
 20
1175.193839660451
 30
0.0
 40
0.4312892319352307
100
AcDbArc
 50
111.0696322780214
 51
135.209123197673
  0
ARC
  5
A5A
330
9E2
100
AcDbEntity
  8
0
  6
Continuous
 62
     7
370
    15
100
AcDbCircle
 10
1784.210169847787
 20
1177.604172209474
 30
0.0
 40
2.985904570837536
100
AcDbArc
 50
292.1118665201413
 51
315.1320927949926
  0
ARC
  5
A5B
330
9E2
100
AcDbEntity
  8
0
  6
Continuous
 62
     7
370
    15
100
AcDbCircle
 10
1785.505700842467
 20
1174.499606862496
 30
0.0
 40
0.3793026300127727
100
AcDbArc
 50
116.8963789598486
 51
174.8669183022374
  0
LINE
  5
A5C
330
9E2
100
AcDbEntity
  8
0
  6
Continuous
 62
     7
370
    15
100
AcDbLine
 10
1784.493485227719
 20
1169.588385039122
 30
0.0
 11
1785.127919377889
 21
1174.533542833916
 31
0.0
  0
ARC
  5
A5D
330
9E2
100
AcDbEntity
  8
0
  6
Continuous
 62
     7
370
    15
100
AcDbCircle
 10
1784.902141750244
 20
1169.500390734818
 30
0.0
 40
0.4180229072570859
100
AcDbArc
 50
167.8482772523888
 51
225.552884923876
  0
LWPOLYLINE
  5
A5E
330
9E2
100
AcDbEntity
  8
0
  6
Continuous
 62
     7
370
    15
100
AcDbPolyline
 90
       14
 70
   128
 43
0.0
 10
1784.609420948502
 20
1169.201965395378
 10
1784.736466866906
 20
1169.068699310814
 10
1784.831921042221
 20
1168.893336115984
 10
1784.891477714732
 20
1168.683639688493
 10
1784.912532497233
 20
1168.448918821985
 10
1784.894182735547
 20
1168.199597851599
 10
1784.837185361766
 20
1167.946716453426
 10
1784.744084939406
 20
1167.701518836859
 10
1784.619043901789
 20
1167.474851872407
 10
1784.467587450248
 20
1167.276809389708
 10
1784.296391227096
 20
1167.116128733309
 10
1784.113111240004
 20
1166.999962861873
 10
1783.925873390941
 20
1166.933487512401
 10
1783.742975750813
 20
1166.919613180165
  0
ARC
  5
A5F
330
9E2
100
AcDbEntity
  8
0
  6
Continuous
 62
     7
370
    15
100
AcDbCircle
 10
1783.740337093598
 20
1166.568615320525
 30
0.0
 40
0.3510077776682194
100
AcDbArc
 50
89.56928206270086
 51
136.6552837433845
  0
ARC
  5
A60
330
9E2
100
AcDbEntity
  8
0
  6
Continuous
 62
     7
370
    15
100
AcDbCircle
 10
1782.144149505552
 20
1168.182895882363
 30
0.0
 40
1.919419498781346
100
AcDbArc
 50
290.9787170061253
 51
314.315422766925
  0
LINE
  5
A61
330
9E2
100
AcDbEntity
  8
0
  6
Continuous
 62
     7
370
    15
100
AcDbLine
 10
1782.602147546303
 20
1166.307626836365
 30
0.0
 11
1782.831342259984
 21
1166.39070802096
 31
0.0
  0
LWPOLYLINE
  5
A62
330
9E2
100
AcDbEntity
  8
0
  6
Continuous
 62
     7
370
    15
100
AcDbPolyline
 90
        9
 70
   128
 43
0.0
 10
1782.602147546303
 20
1166.307626836365
 10
1782.532734833259
 20
1166.291378268432
 10
1782.466030921306
 20
1166.293554908188
 10
1782.404504767724
 20
1166.314054022453
 10
1782.3505407688
 20
1166.352091045183
 10
1782.306268463249
 20
1166.406234841713
 10
1782.273349728364
 20
1166.474372147007
 10
1782.253021194256
 20
1166.553889197989
 10
1782.246136751123
 20
1166.641742559531
  0
LINE
  5
A63
330
9E2
100
AcDbEntity
  8
0
  6
Continuous
 62
     7
370
    15
100
AcDbLine
 10
1782.245981240638
 20
1166.826955347818
 30
0.0
 11
1782.246136751123
 21
1166.641742559531
 31
0.0
  0
ARC
  5
A64
330
9E2
100
AcDbEntity
  8
0
  6
Continuous
 62
     7
370
    15
100
AcDbCircle
 10
1782.888272797422
 20
1166.844006728226
 30
0.0
 40
0.6425178546077963
100
AcDbArc
 50
116.5366937966437
 51
181.5207154781226
  0
LINE
  5
A65
330
9E2
100
AcDbEntity
  8
0
  6
Continuous
 62
     7
370
    15
100
AcDbLine
 10
1782.830409266849
 20
1167.501901645935
 30
0.0
 11
1782.601214541538
 21
1167.418834312132
 31
0.0
  0
ARC
  5
A66
330
9E2
100
AcDbEntity
  8
0
  6
Continuous
 62
     7
370
    15
100
AcDbCircle
 10
1782.278989829579
 20
1168.630367638796
 30
0.0
 40
1.255985227955895
100
AcDbArc
 50
296.042223102852
 51
355.0034217402891
  0
LINE
  5
A67
330
9E2
100
AcDbEntity
  8
0
  6
Continuous
 62
     7
370
    15
100
AcDbLine
 10
1784.265328748626
 20
1174.251006097208
 30
0.0
 11
1783.530202189717
 21
1168.520976036374
 31
0.0
  0
LWPOLYLINE
  5
A68
330
9E2
100
AcDbEntity
  8
0
  6
Continuous
 62
     7
370
    15
100
AcDbPolyline
 90
        9
 70
   128
 43
0.0
 10
1784.265328748626
 20
1174.251006097208
 10
1784.27030819604
 20
1174.353425863581
 10
1784.258437132514
 20
1174.448796337532
 10
1784.230315288451
 20
1174.532596467801
 10
1784.187223045596
 20
1174.600801282578
 10
1784.131206265517
 20
1174.650245154154
 10
1784.064991205275
 20
1174.678563251686
 10
1783.991643807975
 20
1174.684400577609
 10
1783.914654787098
 20
1174.667470514863
  0
LINE
  5
A69
330
9E2
100
AcDbEntity
  8
0
  6
Continuous
 62
     7
370
    15
100
AcDbLine
 10
1783.914654787098
 20
1174.667470514863
 30
0.0
 11
1766.855435208373
 21
1168.48467601448
 31
0.0
  0
ARC
  5
A6A
330
9E2
100
AcDbEntity
  8
0
  6
Continuous
 62
     7
370
    15
100
AcDbCircle
 10
1767.147190341988
 20
1167.906032875479
 30
0.0
 40
0.6480346752325428
100
AcDbArc
 50
116.7574989945886
 51
188.1332310180325
  0
LINE
  5
A6B
330
9E2
100
AcDbEntity
  8
0
  6
Continuous
 62
     7
370
    15
100
AcDbLine
 10
1766.505673748694
 20
1167.814351902356
 30
0.0
 11
1767.249972332778
 21
1162.620511764844
 31
0.0
  0
ARC
  5
A6C
330
9E2
100
AcDbEntity
  8
0
  6
Continuous
 62
     7
370
    15
100
AcDbCircle
 10
1767.78093133543
 20
1162.612193746123
 30
0.0
 40
0.531024153812836
100
AcDbArc
 50
179.1024761210853
 51
288.6846997116875
  0
LINE
  5
A6D
330
9E2
100
AcDbEntity
  8
0
  6
Continuous
 62
     7
370
    15
100
AcDbLine
 10
1767.951050252324
 20
1162.10915676334
 30
0.0
 11
1768.180244977635
 21
1162.192224097143
 31
0.0
  0
LWPOLYLINE
  5
A6E
330
9E2
100
AcDbEntity
  8
0
  6
Continuous
 62
     7
370
    15
100
AcDbPolyline
 90
        9
 70
   128
 43
0.0
 10
1768.180244977635
 20
1162.192224097143
 10
1768.249657679049
 20
1162.208486515868
 10
1768.316361591003
 20
1162.206309876112
 10
1768.377887744584
 20
1162.185810761847
 10
1768.431851743508
 20
1162.147773739117
 10
1768.476124049059
 20
1162.093629942587
 10
1768.509042783944
 20
1162.025492637293
 10
1768.529371318052
 20
1161.945975586311
 10
1768.536255761185
 20
1161.85812222477
  0
LINE
  5
A6F
330
9E2
100
AcDbEntity
  8
0
  6
Continuous
 62
     7
370
    15
100
AcDbLine
 10
1768.536255761185
 20
1161.85812222477
 30
0.0
 11
1768.53641127167
 21
1161.672909436482
 31
0.0
  0
ARC
  5
A70
330
9E2
100
AcDbEntity
  8
0
  6
Continuous
 62
     7
370
    15
100
AcDbCircle
 10
1767.894119714886
 20
1161.655858056074
 30
0.0
 40
0.6425178546076387
100
AcDbArc
 50
296.5366937966438
 51
1.520715478148703
  0
LINE
  5
A71
330
9E2
100
AcDbEntity
  8
0
  6
Continuous
 62
     7
370
    15
100
AcDbLine
 10
1768.18117797077
 20
1161.081030472168
 30
0.0
 11
1767.951983245459
 21
1160.997963138365
 31
0.0
  0
ARC
  5
A72
330
9E2
100
AcDbEntity
  8
0
  6
Continuous
 62
     7
370
    15
100
AcDbCircle
 10
1767.530304812032
 20
1162.093201373493
 30
0.0
 40
1.173609599868627
100
AcDbArc
 50
258.5809114163384
 51
291.0572392326986
  0
ARC
  5
A73
330
9E2
100
AcDbEntity
  8
0
  6
Continuous
 62
     7
370
    15
100
AcDbCircle
 10
1767.249740125391
 20
1160.633525036858
 30
0.0
 40
0.3130325248216004
100
AcDbArc
 50
81.14085235209177
 51
132.0545554115865
  0
LWPOLYLINE
  5
A74
330
9E2
100
AcDbEntity
  8
0
  6
Continuous
 62
     7
370
    15
100
AcDbPolyline
 90
       14
 70
   128
 43
0.0
 10
1767.04005907499
 20
1160.865953990946
 10
1766.857206870326
 20
1160.747269144936
 10
1766.669971347176
 20
1160.678023637099
 10
1766.486607859838
 20
1160.661306450968
 10
1766.315246055001
 20
1160.697833368578
 10
1766.163549290218
 20
1160.786003648156
 10
1766.038203813961
 20
1160.921922712107
 10
1765.944748410891
 20
1161.099506665214
 10
1765.887361190978
 20
1161.310931510608
 10
1765.868604045781
 20
1161.546803777862
 10
1765.889251979731
 20
1161.79663901257
 10
1765.948420387729
 20
1162.049365120958
 10
1766.043522094319
 20
1162.293791724768
 10
1766.170266993174
 20
1162.519039535809
  0
ARC
  5
A75
330
9E2
100
AcDbEntity
  8
0
  6
Continuous
 62
     7
370
    15
100
AcDbCircle
 10
1765.589031373842
 20
1162.910679432398
 30
0.0
 40
0.7008684996344526
100
AcDbArc
 50
326.0276840735942
 51
6.43549477664306
  0
LINE
  5
A76
330
9E2
100
AcDbEntity
  8
0
  6
Continuous
 62
     7
370
    15
100
AcDbLine
 10
1766.285483472148
 20
1162.989235963292
 30
0.0
 11
1765.643133638242
 21
1167.471647325959
 31
0.0
  0
ARC
  5
A77
330
9E2
100
AcDbEntity
  8
0
  6
Continuous
 62
     7
370
    15
100
AcDbCircle
 10
1765.483654087259
 20
1167.473997796241
 30
0.0
 40
0.1594968711055728
100
AcDbArc
 50
359.1556141442649
 51
107.1753924555091
  0
ARC
  5
A78
330
9E2
100
AcDbEntity
  8
0
  6
Continuous
 62
     7
370
    15
100
AcDbCircle
 10
1764.839101578932
 20
1169.279899695824
 30
0.0
 40
1.75814435021027
100
AcDbArc
 50
257.0072176438681
 51
289.8659365888392
  0
ARC
  5
A79
330
9E2
100
AcDbEntity
  8
0
  6
Continuous
 62
     7
370
    15
100
AcDbCircle
 10
1764.386113850035
 20
1167.313912546171
 30
0.0
 40
0.2593555761781217
100
AcDbArc
 50
77.14397615697428
 51
111.1168248727943
  0
LINE
  5
A7A
330
9E2
100
AcDbEntity
  8
0
  6
Continuous
 62
     7
370
    15
100
AcDbLine
 10
1764.292675621086
 20
1167.555851820093
 30
0.0
 11
1763.649177173972
 21
1167.322627865066
 31
0.0
  0
ARC
  5
A7B
330
9E2
100
AcDbEntity
  8
0
  6
Continuous
 62
     7
370
    15
100
AcDbCircle
 10
1763.936421973273
 20
1166.747687937792
 30
0.0
 40
0.6427017151833013
100
AcDbArc
 50
116.5470973193661
 51
181.5114968160848
  0
LINE
  5
A7C
330
9E2
100
AcDbEntity
  8
0
  6
Continuous
 62
     7
370
    15
100
AcDbLine
 10
1763.293943884702
 20
1166.73073504996
 30
0.0
 11
1763.295742489297
 21
1164.588599287846
 31
0.0
  0
ARC
  5
A7D
330
9E2
100
AcDbEntity
  8
0
  6
Continuous
 62
     7
370
    15
100
AcDbCircle
 10
1763.633723293475
 20
1164.55210877989
 30
0.0
 40
0.3399449678454208
100
AcDbArc
 50
173.8378610196027
 51
241.9585053058984
  0
LINE
  5
A7E
330
9E2
100
AcDbEntity
  8
0
  6
Continuous
 62
     7
370
    15
100
AcDbLine
 10
1763.473911463088
 20
1164.252070848902
 30
0.0
 11
1763.97010377946
 21
1164.059040515462
 31
0.0
  0
ARC
  5
A7F
330
9E2
100
AcDbEntity
  8
0
  6
Continuous
 62
     7
370
    15
100
AcDbCircle
 10
1763.809168673754
 20
1163.756912774398
 30
0.0
 40
0.342317513675003
100
AcDbArc
 50
353.8391636326388
 51
61.95700417694386
  0
LINE
  5
A80
330
9E2
100
AcDbEntity
  8
0
  6
Continuous
 62
     7
370
    15
100
AcDbLine
 10
1764.149509150769
 20
1163.720175329276
 30
0.0
 11
1764.15091107105
 21
1162.050490076323
 31
0.0
  0
ARC
  5
A81
330
9E2
100
AcDbEntity
  8
0
  6
Continuous
 62
     7
370
    15
100
AcDbCircle
 10
1763.752135542745
 20
1162.044107735529
 30
0.0
 40
0.3988265992236413
100
AcDbArc
 50
300.5695074955673
 51
0.9169318227112851
  0
LINE
  5
A82
330
9E2
100
AcDbEntity
  8
0
  6
Continuous
 62
     7
370
    15
100
AcDbLine
 10
1763.954972075322
 20
1161.700712922957
 30
0.0
 11
1763.250901820971
 21
1161.365301507282
 31
0.0
  0
ARC
  5
A83
330
9E2
100
AcDbEntity
  8
0
  6
Continuous
 62
     7
370
    15
100
AcDbCircle
 10
1763.385057562523
 20
1161.138033591221
 30
0.0
 40
0.2639099631731693
100
AcDbArc
 50
120.5532582975522
 51
180.9325207253314
  0
LINE
  5
A84
330
9E2
100
AcDbEntity
  8
0
  6
Continuous
 62
     7
370
    15
100
AcDbLine
 10
1763.12118255263
 20
1161.133738499202
 30
0.0
 11
1763.121768775524
 21
1160.435547784873
 31
0.0
  0
LWPOLYLINE
  5
A85
330
9E2
100
AcDbEntity
  8
0
  6
Continuous
 62
     7
370
    15
100
AcDbPolyline
 90
        9
 70
   128
 43
0.0
 10
1763.239455487903
 20
1160.295758399923
 10
1763.215533244007
 20
1160.295442799916
 10
1763.193010832765
 20
1160.3009271556
 10
1763.172697125116
 20
1160.312088976892
 10
1763.155145797174
 20
1160.328560878046
 10
1763.140910629716
 20
1160.349850816192
 10
1763.130417823549
 20
1160.375323524444
 10
1763.123966022771
 20
1160.404172810314
 10
1763.121768775524
 20
1160.435547784873
  0
LINE
  5
A86
330
9E2
100
AcDbEntity
  8
0
  6
Continuous
 62
     7
370
    15
100
AcDbLine
 10
1763.239455487903
 20
1160.295758399923
 30
0.0
 11
1763.841154407953
 21
1160.375684627336
 31
0.0
  0
LINE
  5
A87
330
9E2
100
AcDbEntity
  8
0
  6
Continuous
 62
     7
370
    15
100
AcDbLine
 10
1763.841154407953
 20
1160.375684627336
 30
0.0
 11
1763.897597262145
 21
1160.376453317697
 31
0.0
  0
LWPOLYLINE
  5
A88
330
9E2
100
AcDbEntity
  8
0
  6
Continuous
 62
     7
370
    15
100
AcDbPolyline
 90
        9
 70
   128
 43
0.0
 10
1763.897597262145
 20
1160.376453317697
 10
1763.94536357357
 20
1160.368798600135
 10
1763.987184146448
 20
1160.344939984204
 10
1764.020716661474
 20
1160.30624534124
 10
1764.044043744156
 20
1160.254943161206
 10
1764.055758246846
 20
1160.193945636466
 10
1764.055261276472
 20
1160.12677656127
 10
1764.042549611645
 20
1160.057272604952
 10
1764.018343538483
 20
1159.989421818534
  0
LINE
  5
A89
330
9E2
100
AcDbEntity
  8
0
  6
Continuous
 62
     7
370
    15
100
AcDbLine
 10
1764.018343538483
 20
1159.989421818534
 30
0.0
 11
1763.193196603154
 21
1158.153191339507
 31
0.0
  0
ARC
  5
A8A
330
9E2
100
AcDbEntity
  8
0
  6
Continuous
 62
     7
370
    15
100
AcDbCircle
 10
1760.091962738289
 20
1159.384503676644
 30
0.0
 40
3.336732167281446
100
AcDbArc
 50
293.9722213346534
 51
338.3449674410987
  0
LINE
  5
A8B
330
9E2
100
AcDbEntity
  8
0
  6
Continuous
 62
     7
370
    15
100
AcDbLine
 10
1761.44765593572
 20
1156.335589523932
 30
0.0
 11
1756.056473435837
 21
1154.381656440591
 31
0.0
  0
LWPOLYLINE
  5
A8C
330
9E2
100
AcDbEntity
  8
0
  6
Continuous
 62
     7
370
    15
100
AcDbPolyline
 90
       10
 70
   128
 43
0.0
 10
1756.056473435837
 20
1154.381656440591
 10
1755.809510066464
 20
1154.320399553422
 10
1755.570032211714
 20
1154.317261822733
 10
1755.345233602325
 20
1154.372301160202
 10
1755.142053972051
 20
1154.483903950289
 10
1754.966625800212
 20
1154.648653807479
 10
1754.824231571834
 20
1154.86153776612
 10
1754.7192610843
 20
1155.116097067106
 10
1754.654828195735
 20
1155.404606920662
 10
1754.632983466049
 20
1155.718305979182
  0
LINE
  5
A8D
330
9E2
100
AcDbEntity
  8
0
  6
Continuous
 62
     7
370
    15
100
AcDbLine
 10
1754.632983466049
 20
1155.718305979182
 30
0.0
 11
1754.631970659239
 21
1156.924557588454
 31
0.0
  0
ARC
  5
A8E
330
9E2
100
AcDbEntity
  8
0
  6
Continuous
 62
     7
370
    15
100
AcDbCircle
 10
1755.274276760303
 20
1156.941613697149
 30
0.0
 40
0.642532519261569
100
AcDbArc
 50
116.5374915946711
 51
181.5211025407751
  0
LINE
  5
A8F
330
9E2
100
AcDbEntity
  8
0
  6
Continuous
 62
     7
370
    15
100
AcDbLine
 10
1755.963515605176
 20
1157.87029627052
 30
0.0
 11
1754.987203948509
 21
1157.516450403559
 31
0.0
  0
LINE
  5
A90
330
9E2
100
AcDbEntity
  8
0
  6
Continuous
 62
     7
370
    15
100
AcDbLine
 10
1755.963515605176
 20
1157.87029627052
 30
0.0
 11
1755.813597625865
 21
1156.701783230765
 31
0.0
  0
LWPOLYLINE
  5
A91
330
9E2
100
AcDbEntity
  8
0
  6
Continuous
 62
     7
370
    15
100
AcDbPolyline
 90
        9
 70
   128
 43
0.0
 10
1756.164271587393
 20
1156.28531881311
 10
1756.087282566516
 20
1156.268388750363
 10
1756.013935169216
 20
1156.274226076286
 10
1755.947720120603
 20
1156.302530323027
 10
1755.891703340524
 20
1156.351974194603
 10
1755.84861108604
 20
1156.420192860172
 10
1755.820489241977
 20
1156.503992990441
 10
1755.808618190081
 20
1156.5993496136
 10
1755.813597625865
 20
1156.701783230765
  0
LINE
  5
A92
330
9E2
100
AcDbEntity
  8
0
  6
Continuous
 62
     7
370
    15
100
AcDbLine
 10
1756.164271587393
 20
1156.28531881311
 30
0.0
 11
1756.794408143725
 21
1156.513700001182
 31
0.0
  0
ARC
  5
A93
330
9E2
100
AcDbEntity
  8
0
  6
Continuous
 62
     7
370
    15
100
AcDbCircle
 10
1756.50330842474
 20
1157.091692475457
 30
0.0
 40
0.6471586719742546
100
AcDbArc
 50
296.7316209643093
 51
11.52758899034171
  0
LINE
  5
A94
330
9E2
100
AcDbEntity
  8
0
  6
Continuous
 62
     7
370
    15
100
AcDbLine
 10
1757.137412994862
 20
1157.22102051133
 30
0.0
 11
1756.991019473977
 21
1158.242695795588
 31
0.0
  0
LINE
  5
A95
330
9E2
100
AcDbEntity
  8
0
  6
Continuous
 62
     7
370
    15
100
AcDbLine
 10
1756.142717021017
 20
1164.162155565948
 30
0.0
 11
1756.991019473977
 21
1158.242695795588
 31
0.0
  0
ARC
  5
A96
330
9E2
100
AcDbEntity
  8
0
  6
Continuous
 62
     7
370
    15
100
AcDbCircle
 10
1758.908933708658
 20
1164.489617623212
 30
0.0
 40
2.785531576186648
100
AcDbArc
 50
148.4089421075491
 51
186.7511997863197
  0
LINE
  5
A97
330
9E2
100
AcDbEntity
  8
0
  6
Continuous
 62
     7
370
    15
100
AcDbLine
 10
1756.53619367281
 20
1165.948826615857
 30
0.0
 11
1794.231917379697
 21
1179.610935374547
 31
0.0
  0
LINE
  5
A98
330
9E2
100
AcDbEntity
  8
0
  6
Continuous
 62
     7
370
    15
100
AcDbLine
 10
1790.535555732043
 20
1172.353521729019
 30
0.0
 11
1790.290443020695
 21
1176.780128901579
 31
0.0
  0
LWPOLYLINE
  5
A99
330
9E2
100
AcDbEntity
  8
0
  6
Continuous
 62
     7
370
    15
100
AcDbPolyline
 90
        9
 70
   128
 43
0.0
 10
1790.535555732043
 20
1172.353521729019
 10
1790.54833357947
 20
1172.293505358945
 10
1790.577826635838
 20
1172.24959198305
 10
1790.620284189831
 20
1172.227543699759
 10
1790.67012764757
 20
1172.23016019459
 10
1790.720972253926
 20
1172.257136408656
 10
1790.766137982243
 20
1172.304956745925
 10
1790.799798393696
 20
1172.367422295825
 10
1790.817575925202
 20
1172.436420784463
  0
LINE
  5
A9A
330
9E2
100
AcDbEntity
  8
0
  6
Continuous
 62
     7
370
    15
100
AcDbLine
 10
1791.425113550106
 20
1177.172055095422
 30
0.0
 11
1790.817575925202
 21
1172.436420784463
 31
0.0
  0
LWPOLYLINE
  5
A9B
330
9E2
100
AcDbEntity
  8
0
  6
Continuous
 62
     7
370
    15
100
AcDbPolyline
 90
        9
 70
   128
 43
0.0
 10
1791.425113550106
 20
1177.172055095422
 10
1791.427122336633
 20
1177.213045792052
 10
1791.422365395813
 20
1177.251196437384
 10
1791.411099655278
 20
1177.284688159095
 10
1791.393879756394
 20
1177.312003955719
 10
1791.37147306297
 20
1177.331759343083
 10
1791.344987043524
 20
1177.343081041779
 10
1791.315656595363
 20
1177.345419056713
 10
1791.28484395154
 20
1177.338657483435
  0
LINE
  5
A9C
330
9E2
100
AcDbEntity
  8
0
  6
Continuous
 62
     7
370
    15
100
AcDbLine
 10
1790.432151061495
 20
1177.029614922211
 30
0.0
 11
1791.28484395154
 21
1177.338657483435
 31
0.0
  0
ARC
  5
A9D
330
9E2
100
AcDbEntity
  8
0
  6
Continuous
 62
     7
370
    15
100
AcDbCircle
 10
1790.548115808728
 20
1176.798758866047
 30
0.0
 40
0.2583453914216051
100
AcDbArc
 50
116.6715179887884
 51
184.1353385062097
  0
LINE
  5
A9E
330
9E2
100
AcDbEntity
  8
0
  6
Continuous
 62
     7
370
    15
100
AcDbLine
 10
1759.345341474015
 20
1165.545342780108
 30
0.0
 11
1759.960459409384
 21
1161.252837068264
 31
0.0
  0
LWPOLYLINE
  5
A9F
330
9E2
100
AcDbEntity
  8
0
  6
Continuous
 62
     7
370
    15
100
AcDbPolyline
 90
        9
 70
   128
 43
0.0
 10
1759.960459409384
 20
1161.252837068264
 10
1759.978341955823
 20
1161.19676290672
 10
1760.012086751368
 20
1161.158727111136
 10
1760.05730527789
 20
1161.143664853518
 10
1760.108164235124
 20
1161.153549190471
 10
1760.157981758943
 20
1161.187052951073
 10
1760.20037646679
 20
1161.239854346805
 10
1760.229777858961
 20
1161.305112912077
 10
1760.242447179328
 20
1161.374352131318
  0
LINE
  5
AA0
330
9E2
100
AcDbEntity
  8
0
  6
Continuous
 62
     7
370
    15
100
AcDbLine
 10
1760.242447179328
 20
1161.374352131318
 30
0.0
 11
1760.479979580211
 21
1165.975884981561
 31
0.0
  0
LWPOLYLINE
  5
AA1
330
9E2
100
AcDbEntity
  8
0
  6
Continuous
 62
     7
370
    15
100
AcDbPolyline
 90
        9
 70
   128
 43
0.0
 10
1760.479979580211
 20
1165.975884981561
 10
1760.479011578302
 20
1166.013441445851
 10
1760.472086952578
 20
1166.047758352922
 10
1760.459589919902
 20
1166.077506324263
 10
1760.441989827982
 20
1166.101359125427
 10
1760.420053714999
 20
1166.118320094411
 10
1760.394633470868
 20
1166.127728132282
 10
1760.366878769015
 20
1166.129140906212
 10
1760.337938933976
 20
1166.122531607131
  0
LINE
  5
AA2
330
9E2
100
AcDbEntity
  8
0
  6
Continuous
 62
     7
370
    15
100
AcDbLine
 10
1760.337938933976
 20
1166.122531607131
 30
0.0
 11
1759.485246043931
 21
1165.813489045908
 31
0.0
  0
ARC
  5
AA3
330
9E2
100
AcDbEntity
  8
0
  6
Continuous
 62
     7
370
    15
100
AcDbCircle
 10
1759.6019341794
 20
1165.582036791688
 30
0.0
 40
0.2592031383738234
100
AcDbArc
 50
116.7552496448189
 51
188.1383981581282
  0
LINE
  5
AA4
330
9E2
100
AcDbEntity
  8
0
  6
Continuous
 62
     7
370
    15
100
AcDbLine
 10
1757.060534497824
 20
1164.119330630716
 30
0.0
 11
1758.133115748567
 21
1156.634655217171
 31
0.0
  0
ARC
  5
AA5
330
9E2
100
AcDbEntity
  8
0
  6
Continuous
 62
     7
370
    15
100
AcDbCircle
 10
1758.531326179294
 20
1156.62840801625
 30
0.0
 40
0.3982594313505405
100
AcDbArc
 50
179.1012066533363
 51
288.6864614637097
  0
LINE
  5
AA6
330
9E2
100
AcDbEntity
  8
0
  6
Continuous
 62
     7
370
    15
100
AcDbLine
 10
1761.492666321952
 20
1157.278179170782
 30
0.0
 11
1758.658924185319
 21
1156.251142428741
 31
0.0
  0
ARC
  5
AA7
330
9E2
100
AcDbEntity
  8
0
  6
Continuous
 62
     7
370
    15
100
AcDbCircle
 10
1761.067650171703
 20
1158.135424825689
 30
0.0
 40
0.9568222618808455
100
AcDbArc
 50
296.3718790543239
 51
358.9166906085986
  0
LINE
  5
AA8
330
9E2
100
AcDbEntity
  8
0
  6
Continuous
 62
     7
370
    15
100
AcDbLine
 10
1762.438507099804
 20
1166.140882299305
 30
0.0
 11
1762.024301413116
 21
1158.117334962976
 31
0.0
  0
LWPOLYLINE
  5
AA9
330
9E2
100
AcDbEntity
  8
0
  6
Continuous
 62
     7
370
    15
100
AcDbPolyline
 90
        9
 70
   128
 43
0.0
 10
1762.438507099804
 20
1166.140882299305
 10
1762.434813285217
 20
1166.281668204574
 10
1762.408952270899
 20
1166.410457491716
 10
1762.362035270086
 20
1166.521916926356
 10
1762.296024292752
 20
1166.611354149619
 10
1762.213689312708
 20
1166.675034674306
 10
1762.118480513183
 20
1166.710246422755
 10
1762.01435779255
 20
1166.715570454545
 10
1761.90574830357
 20
1166.690754737342
  0
LINE
  5
AAA
330
9E2
100
AcDbEntity
  8
0
  6
Continuous
 62
     7
370
    15
100
AcDbLine
 10
1761.551615644075
 20
1166.562405990236
 30
0.0
 11
1761.90574830357
 21
1166.690754737342
 31
0.0
  0
ARC
  5
AAB
330
9E2
100
AcDbEntity
  8
0
  6
Continuous
 62
     7
370
    15
100
AcDbCircle
 10
1761.976514754866
 20
1165.70528265863
 30
0.0
 40
0.9566606817125046
100
AcDbArc
 50
116.3688531182526
 51
178.922911176575
  0
LINE
  5
AAC
330
9E2
100
AcDbEntity
  8
0
  6
Continuous
 62
     7
370
    15
100
AcDbLine
 10
1761.020023106703
 20
1165.723265620867
 30
0.0
 11
1760.708017732001
 21
1159.679798873161
 31
0.0
  0
LWPOLYLINE
  5
AAD
330
9E2
100
AcDbEntity
  8
0
  6
Continuous
 62
     7
370
    15
100
AcDbPolyline
 90
       11
 70
   128
 43
0.0
 10
1760.708017732001
 20
1159.679798873161
 10
1760.675415835327
 20
1159.471976146194
 10
1760.601179234333
 20
1159.26943056066
 10
1760.491465936455
 20
1159.089038713097
 10
1760.35541518006
 20
1158.945820429908
 10
1760.204424787521
 20
1158.851762427076
 10
1760.05104539462
 20
1158.814669373965
 10
1759.908086972089
 20
1158.837659953706
 10
1759.787427272911
 20
1158.918790427277
 10
1759.699160279661
 20
1159.051314059468
 10
1759.650616757878
 20
1159.224171292221
  0
LINE
  5
AAE
330
9E2
100
AcDbEntity
  8
0
  6
Continuous
 62
     7
370
    15
100
AcDbLine
 10
1759.650616757878
 20
1159.224171292221
 30
0.0
 11
1758.822995165176
 21
1164.999372564047
 31
0.0
  0
ARC
  5
AAF
330
9E2
100
AcDbEntity
  8
0
  6
Continuous
 62
     7
370
    15
100
AcDbCircle
 10
1758.424802957861
 20
1165.005658377753
 30
0.0
 40
0.3982418177686253
100
AcDbArc
 50
359.0956109179168
 51
108.6900880805807
  0
LINE
  5
AB0
330
9E2
100
AcDbEntity
  8
0
  6
Continuous
 62
     7
370
    15
100
AcDbLine
 10
1757.585176664083
 20
1165.124844500484
 30
0.0
 11
1758.297186716794
 21
1165.382899203269
 31
0.0
  0
ARC
  5
AB1
330
9E2
100
AcDbEntity
  8
0
  6
Continuous
 62
     7
370
    15
100
AcDbCircle
 10
1758.022807303078
 20
1164.256877100769
 30
0.0
 40
0.9720534878057007
100
AcDbArc
 50
116.7573190818628
 51
188.134707761548
  0
LINE
  5
AB2
330
9E2
100
AcDbEntity
  8
0
  6
Continuous
 62
     7
370
    15
100
AcDbLine
 10
1793.184913331387
 20
1178.027302028858
 30
0.0
 11
1792.472903278676
 21
1177.769247326074
 31
0.0
  0
ARC
  5
AB3
330
9E2
100
AcDbEntity
  8
0
  6
Continuous
 62
     7
370
    15
100
AcDbCircle
 10
1792.886396146143
 20
1176.922948199688
 30
0.0
 40
0.9419121842123304
100
AcDbArc
 50
116.0396490277795
 51
175.0067234892659
  0
LINE
  5
AB4
330
9E2
100
AcDbEntity
  8
0
  6
Continuous
 62
     7
370
    15
100
AcDbLine
 10
1791.130635685338
 20
1170.633514316295
 30
0.0
 11
1791.948058595248
 21
1177.004931145151
 31
0.0
  0
LWPOLYLINE
  5
AB5
330
9E2
100
AcDbEntity
  8
0
  6
Continuous
 62
     7
370
    15
100
AcDbPolyline
 90
       11
 70
   128
 43
0.0
 10
1791.130635685338
 20
1170.633514316295
 10
1791.082411883437
 20
1170.425585580187
 10
1790.994421068994
 20
1170.229180608112
 10
1790.873970981017
 20
1170.060664409824
 10
1790.731138134483
 20
1169.934094139436
 10
1790.577789792508
 20
1169.860019472151
 10
1790.426733367324
 20
1169.844606265303
 10
1790.290524960604
 20
1169.889149316097
 10
1790.180575582645
 20
1169.989928542588
 10
1790.106044125769
 20
1170.138555932992
 10
1790.073113182305
 20
1170.322627509929
  0
LINE
  5
AB6
330
9E2
100
AcDbEntity
  8
0
  6
Continuous
 62
     7
370
    15
100
AcDbLine
 10
1789.751152159369
 20
1176.13632501534
 30
0.0
 11
1790.073113182305
 21
1170.322627509929
 31
0.0
  0
LWPOLYLINE
  5
AB7
330
9E2
100
AcDbEntity
  8
0
  6
Continuous
 62
     7
370
    15
100
AcDbPolyline
 90
        9
 70
   128
 43
0.0
 10
1789.751152159369
 20
1176.13632501534
 10
1789.734788804685
 20
1176.258830336528
 10
1789.700345275058
 20
1176.368603504066
 10
1789.648974151304
 20
1176.461739487172
 10
1789.582508549286
 20
1176.53496784243
 10
1789.503249234662
 20
1176.585714107583
 10
1789.414049614167
 20
1176.612269155106
 10
1789.318017905592
 20
1176.61362582926
 10
1789.218474351396
 20
1176.589740539106
  0
LINE
  5
AB8
330
9E2
100
AcDbEntity
  8
0
  6
Continuous
 62
     7
370
    15
100
AcDbLine
 10
1789.218474351396
 20
1176.589740539106
 30
0.0
 11
1788.864341691901
 21
1176.461391792001
 31
0.0
  0
ARC
  5
AB9
330
9E2
100
AcDbEntity
  8
0
  6
Continuous
 62
     7
370
    15
100
AcDbCircle
 10
1789.299137371855
 20
1175.595610818114
 30
0.0
 40
0.9688260824574964
100
AcDbArc
 50
116.6658280799433
 51
184.1324756470358
  0
LINE
  5
ABA
330
9E2
100
AcDbEntity
  8
0
  6
Continuous
 62
     7
370
    15
100
AcDbLine
 10
1788.332830142791
 20
1175.52579450836
 30
0.0
 11
1788.76025336015
 21
1167.807279798834
 31
0.0
  0
LWPOLYLINE
  5
ABB
330
9E2
100
AcDbEntity
  8
0
  6
Continuous
 62
     7
370
    15
100
AcDbPolyline
 90
        9
 70
   128
 43
0.0
 10
1788.76025336015
 20
1167.807279798834
 10
1788.776616726465
 20
1167.684760626855
 10
1788.811102798254
 20
1167.575016732933
 10
1788.862473910379
 20
1167.481894600619
 10
1788.928939524026
 20
1167.40865239457
 10
1789.008156296488
 20
1167.357876855799
 10
1789.097355893724
 20
1167.33134950986
 10
1789.193430156091
 20
1167.330008258531
 10
1789.292973721916
 20
1167.353879697893
  0
LINE
  5
ABC
330
9E2
100
AcDbEntity
  8
0
  6
Continuous
 62
     7
370
    15
100
AcDbLine
 10
1789.292973721916
 20
1167.353879697893
 30
0.0
 11
1792.12671585855
 21
1168.380916439933
 31
0.0
  0
ARC
  5
ABD
330
9E2
100
AcDbEntity
  8
0
  6
Continuous
 62
     7
370
    15
100
AcDbCircle
 10
1791.71319750434
 20
1169.227234568117
 30
0.0
 40
0.9419404457611923
100
AcDbArc
 50
296.0405345492027
 51
355.0048677329888
  0
LINE
  5
ABE
330
9E2
100
AcDbEntity
  8
0
  6
Continuous
 62
     7
370
    15
100
AcDbLine
 10
1793.710924296939
 20
1177.402577700791
 30
0.0
 11
1792.651560553608
 21
1169.145218770064
 31
0.0
  0
LWPOLYLINE
  5
ABF
330
9E2
100
AcDbEntity
  8
0
  6
Continuous
 62
     7
370
    15
100
AcDbPolyline
 90
        9
 70
   128
 43
0.0
 10
1793.710924296939
 20
1177.402577700791
 10
1793.718414710066
 20
1177.55625661414
 10
1793.700586849511
 20
1177.699290762862
 10
1793.658382829779
 20
1177.824955545269
 10
1793.593765707505
 20
1177.927312031223
 10
1793.509761825913
 20
1178.001471699207
 10
1793.410417958653
 20
1178.043941134093
 10
1793.300375585807
 20
1178.052689411565
 10
1793.184913331387
 20
1178.027302028858
  0
LINE
  5
AC0
330
9E2
100
AcDbEntity
  8
0
  6
Continuous
 62
     7
370
    15
100
AcDbLine
 10
1754.188902098231
 20
1172.961588265729
 30
0.0
 11
1754.726252671142
 21
1173.482820291487
 31
0.0
  0
LINE
  5
AC1
330
9E2
100
AcDbEntity
  8
0
  6
Continuous
 62
     7
370
    15
100
AcDbLine
 10
1752.197475211078
 20
1171.336337771269
 30
0.0
 11
1751.117585200654
 21
1170.288778751436
 31
0.0
  0
LINE
  5
AC2
330
9E2
100
AcDbEntity
  8
0
  6
Continuous
 62
     7
370
    15
100
AcDbLine
 10
1754.188902098231
 20
1172.961588265729
 30
0.0
 11
1752.197475211078
 21
1171.336337771269
 31
0.0
  0
LWPOLYLINE
  5
AC3
330
9E2
100
AcDbEntity
  8
0
  6
Continuous
 62
     7
370
    15
100
AcDbPolyline
 90
       15
 70
   128
 43
0.0
 10
1773.689945241352
 20
1209.755782864948
 10
1773.633465876489
 20
1210.051983011485
 10
1773.535553887471
 20
1210.315570821153
 10
1773.399153114958
 20
1210.538524349416
 10
1773.228483408643
 20
1210.714004577658
 10
1773.028699848023
 20
1210.836647554333
 10
1772.805935179901
 20
1210.902718325714
 10
1772.566959225229
 20
1210.910181464374
 10
1772.319136185765
 20
1210.85885185587
 10
1772.069999082886
 20
1210.750268172075
 10
1771.827122026441
 20
1210.58772970746
 10
1771.597992576624
 20
1210.376222409028
 10
1771.389586252578
 20
1210.122209244908
 10
1771.2082815411
 20
1209.833460850783
 10
1771.059562159652
 20
1209.518781360618
  0
LINE
  5
AC4
330
9E2
100
AcDbEntity
  8
0
  6
Continuous
 62
     7
370
    15
100
AcDbLine
 10
1773.79008120045
 20
1208.871326939068
 30
0.0
 11
1773.689945241352
 21
1209.755782864948
 31
0.0
  0
LINE
  5
AC5
330
9E2
100
AcDbEntity
  8
0
  6
Continuous
 62
     7
370
    15
100
AcDbLine
 10
1775.776773549983
 20
1208.546449458371
 30
0.0
 11
1773.79008120045
 21
1208.871326939068
 31
0.0
  0
LINE
  5
AC6
330
9E2
100
AcDbEntity
  8
0
  6
Continuous
 62
     7
370
    15
100
AcDbLine
 10
1775.983430845022
 20
1210.832856988941
 30
0.0
 11
1775.776773549983
 21
1208.546449458371
 31
0.0
  0
ARC
  5
AC7
330
9E2
100
AcDbEntity
  8
0
  6
Continuous
 62
     7
370
    15
100
AcDbCircle
 10
1776.315511664298
 20
1210.809813878682
 30
0.0
 40
0.3328793406947338
100
AcDbArc
 50
122.7236064407808
 51
176.0306047229133
  0
LINE
  5
AC8
330
9E2
100
AcDbEntity
  8
0
  6
Continuous
 62
     7
370
    15
100
AcDbLine
 10
1776.410033770273
 20
1211.239576928677
 30
0.0
 11
1776.135561424953
 21
1211.089861315416
 31
0.0
  0
LWPOLYLINE
  5
AC9
330
9E2
100
AcDbEntity
  8
0
  6
Continuous
 62
     7
370
    15
100
AcDbPolyline
 90
        9
 70
   128
 43
0.0
 10
1776.410033770273
 20
1211.239576928677
 10
1776.445011405921
 20
1211.254138198264
 10
1776.479570969824
 20
1211.259653031252
 10
1776.51243566214
 20
1211.25588035557
 10
1776.54232833414
 20
1211.242994622901
 10
1776.568099289141
 20
1211.221465867654
 10
1776.588768766518
 20
1211.192158234543
 10
1776.603527081262
 20
1211.15616376908
 10
1776.611819685043
 20
1211.114888666397
  0
LINE
  5
ACA
330
9E2
100
AcDbEntity
  8
0
  6
Continuous
 62
     7
370
    15
100
AcDbLine
 10
1777.196896878279
 20
1205.946984394777
 30
0.0
 11
1776.611819685043
 21
1211.114888666397
 31
0.0
  0
LINE
  5
ACB
330
9E2
100
AcDbEntity
  8
0
  6
Continuous
 62
     7
370
    15
100
AcDbLine
 10
1771.036158556039
 20
1207.329160871688
 30
0.0
 11
1771.429283531738
 21
1203.856621004191
 31
0.0
  0
LINE
  5
ACC
330
9E2
100
AcDbEntity
  8
0
  6
Continuous
 62
     7
370
    15
100
AcDbLine
 10
1770.27290918578
 20
1205.435656151571
 30
0.0
 11
1771.036158556039
 21
1207.329160871688
 31
0.0
  0
LINE
  5
ACD
330
9E2
100
AcDbEntity
  8
0
  6
Continuous
 62
     7
370
    15
100
AcDbLine
 10
1769.542960985139
 20
1205.75616932786
 30
0.0
 11
1770.27290918578
 21
1205.435656151571
 31
0.0
  0
LINE
  5
ACE
330
9E2
100
AcDbEntity
  8
0
  6
Continuous
 62
     7
370
    15
100
AcDbLine
 10
1771.059562159652
 20
1209.518781360618
 30
0.0
 11
1769.542960985139
 21
1205.75616932786
 31
0.0
  0
LINE
  5
ACF
330
9E2
100
AcDbEntity
  8
0
  6
Continuous
 62
     7
370
    15
100
AcDbLine
 10
1767.131014477866
 20
1206.661362468778
 30
0.0
 11
1766.392005259
 21
1206.938709447235
 31
0.0
  0
LINE
  5
AD0
330
9E2
100
AcDbEntity
  8
0
  6
Continuous
 62
     7
370
    15
100
AcDbLine
 10
1767.908606433513
 20
1210.701321479993
 30
0.0
 11
1766.392005259
 21
1206.938709447235
 31
0.0
  0
LINE
  5
AD1
330
9E2
100
AcDbEntity
  8
0
  6
Continuous
 62
     7
370
    15
100
AcDbLine
 10
1767.908606433513
 20
1210.701321479993
 30
0.0
 11
1771.059562159652
 21
1209.518781360618
 31
0.0
  0
LINE
  5
AD2
330
9E2
100
AcDbEntity
  8
0
  6
Continuous
 62
     7
370
    15
100
AcDbLine
 10
1768.562663666233
 20
1206.124070691534
 30
0.0
 11
1769.542960985139
 21
1205.75616932786
 31
0.0
  0
LINE
  5
AD3
330
9E2
100
AcDbEntity
  8
0
  6
Continuous
 62
     7
370
    15
100
AcDbLine
 10
1768.562663666233
 20
1206.124070691534
 30
0.0
 11
1769.867425736772
 21
1209.361169651905
 31
0.0
  0
LINE
  5
AD4
330
9E2
100
AcDbEntity
  8
0
  6
Continuous
 62
     7
370
    15
100
AcDbLine
 10
1769.867425736772
 20
1209.361169651905
 30
0.0
 11
1768.677064729962
 21
1209.807907013339
 31
0.0
  0
LINE
  5
AD5
330
9E2
100
AcDbEntity
  8
0
  6
Continuous
 62
     7
370
    15
100
AcDbLine
 10
1768.677064729962
 20
1209.807907013339
 30
0.0
 11
1767.487885964147
 21
1206.857600155265
 31
0.0
  0
LINE
  5
AD6
330
9E2
100
AcDbEntity
  8
0
  6
Continuous
 62
     7
370
    15
100
AcDbLine
 10
1756.53619367281
 20
1165.948826615857
 30
0.0
 11
1753.665653137315
 21
1167.026128121352
 31
0.0
  0
LINE
  5
AD7
330
9E2
100
AcDbEntity
  8
0
  6
Continuous
 62
     7
370
    15
100
AcDbLine
 10
1750.401635931239
 20
1166.316758583988
 30
0.0
 11
1756.142717021017
 21
1164.162155565948
 31
0.0
  0
ARC
  5
AD8
330
9E2
100
AcDbEntity
  8
0
  6
Continuous
 62
     7
370
    15
100
AcDbCircle
 10
1753.167852618879
 20
1166.644220641253
 30
0.0
 40
2.785531576185841
100
AcDbArc
 50
148.4089421075423
 51
186.7511997863327
  0
LINE
  5
AD9
330
9E2
100
AcDbEntity
  8
0
  6
Continuous
 62
     7
370
    15
100
AcDbLine
 10
1752.189514823311
 20
1180.817149372506
 30
0.0
 11
1752.197475211078
 21
1171.336337771269
 31
0.0
  0
LINE
  5
ADA
330
9E2
100
AcDbEntity
  8
0
  6
Continuous
 62
     7
370
    15
100
AcDbLine
 10
1794.1482140536
 20
1179.642348872495
 30
0.0
 11
1794.231917379697
 21
1179.610935374547
 31
0.0
  0
LINE
  5
ADB
330
9E2
100
AcDbEntity
  8
0
  6
Continuous
 62
     7
370
    15
100
AcDbLine
 10
1753.853868560644
 20
1167.094343274975
 30
0.0
 11
1753.665653137315
 21
1167.026128121352
 31
0.0
  0
ARC
  5
ADC
330
9E2
100
AcDbEntity
  8
0
  6
Continuous
 62
     7
370
    15
100
AcDbCircle
 10
1768.630148455796
 20
1204.863565781217
 30
0.0
 40
2.020353111440232
100
AcDbArc
 50
122.9645946968806
 51
185.9658752481575
  0
LINE
  5
ADD
330
9E2
100
AcDbEntity
  8
0
  6
Continuous
 62
     7
370
    15
100
AcDbLine
 10
1767.53083253945
 20
1206.55865610653
 30
0.0
 11
1767.931028051089
 21
1205.985042484612
 31
0.0
  0
ARC
  5
ADE
330
9E2
100
AcDbEntity
  8
0
  6
Continuous
 62
     7
370
    15
100
AcDbCircle
 10
1768.663866633314
 20
1204.854985225538
 30
0.0
 40
1.346878538095612
100
AcDbArc
 50
122.9632820815861
 51
185.9663262722095
  0
LINE
  5
ADF
330
9E2
100
AcDbEntity
  8
0
  6
Continuous
 62
     7
370
    15
100
AcDbLine
 10
1767.324283925063
 20
1204.714985353614
 30
0.0
 11
1766.620737627307
 21
1204.653578121446
 31
0.0
  0
LINE
  5
AE0
330
9E2
100
AcDbEntity
  8
0
  6
Continuous
 62
     7
370
    15
100
AcDbLine
 10
1751.249938384199
 20
1160.397298813628
 30
0.0
 11
1750.401635931239
 21
1166.316758583988
 31
0.0
  0
LINE
  5
AE1
330
9E2
100
AcDbEntity
  8
0
  6
Continuous
 62
     7
370
    15
100
AcDbLine
 10
1755.937947038194
 20
1157.67117492125
 30
0.0
 11
1757.137412994862
 21
1157.22102051133
 31
0.0
  0
LINE
  5
AE2
330
9E2
100
AcDbEntity
  8
0
  6
Continuous
 62
     7
370
    15
100
AcDbLine
 10
1751.818497631036
 20
1160.183920975898
 30
0.0
 11
1751.933291704582
 21
1159.382809006922
 31
0.0
  0
LINE
  5
AE3
330
9E2
100
AcDbEntity
  8
0
  6
Continuous
 62
     7
370
    15
100
AcDbLine
 10
1751.818497631036
 20
1160.183920975898
 30
0.0
 11
1751.249938384199
 21
1160.397298813628
 31
0.0
  0
ARC
  5
AE4
330
9E2
100
AcDbEntity
  8
0
  6
Continuous
 62
     7
370
    15
100
AcDbCircle
 10
1768.280042200602
 20
1204.994959151608
 30
0.0
 40
2.02035311144017
100
AcDbArc
 50
122.9645946968735
 51
185.9658752481575
  0
LINE
  5
AE5
330
9E2
100
AcDbEntity
  8
0
  6
Continuous
 62
     7
370
    15
100
AcDbLine
 10
1767.53083253945
 20
1206.55865610653
 30
0.0
 11
1767.180726284256
 21
1206.690049476922
 31
0.0
  0
LINE
  5
AE6
330
9E2
100
AcDbEntity
  8
0
  6
Continuous
 62
     7
370
    15
100
AcDbLine
 10
1766.270631372113
 20
1204.784971491837
 30
0.0
 11
1766.620737627307
 21
1204.653578121446
 31
0.0
  0
ARC
  5
AE7
330
9E2
100
AcDbEntity
  8
0
  6
Continuous
 62
     7
370
    15
100
AcDbCircle
 10
1769.611556802997
 20
1210.304472472159
 30
0.0
 40
1.748579164906493
100
AcDbArc
 50
82.89066557403344
 51
166.882126605706
  0
LINE
  5
AE8
330
9E2
100
AcDbEntity
  8
0
  6
Continuous
 62
     7
370
    15
100
AcDbLine
 10
1767.324283925063
 20
1204.714985353614
 30
0.0
 11
1767.53073122403
 21
1202.891561545294
 31
0.0
  0
LINE
  5
AE9
330
9E2
100
AcDbEntity
  8
0
  6
Continuous
 62
     7
370
    15
100
AcDbLine
 10
1768.637908136212
 20
1206.37064368973
 30
0.0
 11
1767.931028051089
 21
1205.985042484612
 31
0.0
  0
LINE
  5
AEA
330
9E2
100
AcDbEntity
  8
0
  6
Continuous
 62
     7
370
    15
100
AcDbLine
 10
1768.637908136212
 20
1206.37064368973
 30
0.0
 11
1768.668372697446
 21
1206.386395701432
 31
0.0
  0
LINE
  5
AEB
330
9E2
100
AcDbEntity
  8
0
  6
Continuous
 62
     7
370
    15
100
AcDbLine
 10
1769.474943705222
 20
1205.606427858843
 30
0.0
 11
1769.459719673653
 21
1205.740818051928
 31
0.0
  0
LINE
  5
AEC
330
9E2
100
AcDbEntity
  8
0
  6
Continuous
 62
     7
370
    15
100
AcDbLine
 10
1769.614711421489
 20
1205.682688101257
 30
0.0
 11
1769.474943705222
 21
1205.606427858843
 31
0.0
  0
LINE
  5
AED
330
9E2
100
AcDbEntity
  8
0
  6
Continuous
 62
     7
370
    15
100
AcDbLine
 10
1770.463233665632
 20
1203.506515161483
 30
0.0
 11
1770.243577807391
 21
1205.446660184105
 31
0.0
  0
LINE
  5
AEE
330
9E2
100
AcDbEntity
  8
0
  6
Continuous
 62
     7
370
    15
100
AcDbLine
 10
1770.27290918578
 20
1205.435656151571
 30
0.0
 11
1769.292611866873
 21
1205.803557515245
 31
0.0
  0
LINE
  5
AEF
330
9E2
100
AcDbEntity
  8
0
  6
Continuous
 62
     7
370
    15
100
AcDbLine
 10
1769.292611866873
 20
1205.803557515245
 30
0.0
 11
1768.562663666233
 21
1206.124070691534
 31
0.0
  0
LINE
  5
AF0
330
9E2
100
AcDbEntity
  8
0
  6
Continuous
 62
     7
370
    15
100
AcDbLine
 10
1766.620737627307
 20
1204.653578121446
 30
0.0
 11
1766.788674625071
 21
1203.170026138184
 31
0.0
  0
ARC
  5
AF1
330
9E2
100
AcDbEntity
  8
0
  6
Continuous
 62
     7
370
    15
100
AcDbCircle
 10
1767.706137966612
 20
1205.222561917684
 30
0.0
 40
1.439576197589634
100
AcDbArc
 50
140.7664670482827
 51
178.092400752341
  0
LINE
  5
AF2
330
9E2
100
AcDbEntity
  8
0
  6
Continuous
 62
     7
370
    15
100
AcDbLine
 10
1768.865500230322
 20
1208.143799596796
 30
0.0
 11
1768.677064729962
 21
1209.807907013339
 31
0.0
  0
LINE
  5
AF3
330
9E2
100
AcDbEntity
  8
0
  6
Continuous
 62
     7
370
    15
100
AcDbLine
 10
1754.182934458946
 20
1180.069038986121
 30
0.0
 11
1754.188902098231
 21
1172.961588265729
 31
0.0
  0
LINE
  5
AF4
330
9E2
100
AcDbEntity
  8
0
  6
Continuous
 62
     7
370
    15
100
AcDbLine
 10
1768.237712624573
 20
1206.944257311649
 30
0.0
 11
1767.53083253945
 21
1206.55865610653
 31
0.0
  0
LINE
  5
AF5
330
9E2
100
AcDbEntity
  8
0
  6
Continuous
 62
     7
370
    15
100
AcDbLine
 10
1768.237712624573
 20
1206.944257311649
 30
0.0
 11
1768.637908136212
 21
1206.37064368973
 31
0.0
  0
LINE
  5
AF6
330
9E2
100
AcDbEntity
  8
0
  6
Continuous
 62
     7
370
    15
100
AcDbLine
 10
1766.270631372113
 20
1204.784971491837
 30
0.0
 11
1766.438568369877
 21
1203.301419508576
 31
0.0
  0
LINE
  5
AF7
330
9E2
100
AcDbEntity
  8
0
  6
Continuous
 62
     7
370
    15
100
AcDbLine
 10
1767.887606369379
 20
1207.075650682041
 30
0.0
 11
1768.237712624573
 21
1206.944257311649
 31
0.0
  0
LINE
  5
AF8
330
9E2
100
AcDbEntity
  8
0
  6
Continuous
 62
     7
370
    15
100
AcDbLine
 10
1767.887606369379
 20
1207.075650682041
 30
0.0
 11
1767.180726284256
 21
1206.690049476922
 31
0.0
  0
LINE
  5
AF9
330
9E2
100
AcDbEntity
  8
0
  6
Continuous
 62
     7
370
    15
100
AcDbLine
 10
1748.890889569461
 20
1159.079160606494
 30
0.0
 11
1754.631970659239
 21
1156.924557588454
 31
0.0
  0
ARC
  5
AFA
330
9E2
100
AcDbEntity
  8
0
  6
Continuous
 62
     7
370
    15
100
AcDbCircle
 10
1749.533195670525
 20
1159.096216715189
 30
0.0
 40
0.6425325192617356
100
AcDbArc
 50
116.5374915946711
 51
181.5211025407621
  0
LINE
  5
AFB
330
9E2
100
AcDbEntity
  8
0
  6
Continuous
 62
     7
370
    15
100
AcDbLine
 10
1754.987203948509
 20
1157.516450403559
 30
0.0
 11
1749.246122858731
 21
1159.6710534216
 31
0.0
  0
LINE
  5
AFC
330
9E2
100
AcDbEntity
  8
0
  6
Continuous
 62
     7
370
    15
100
AcDbLine
 10
1748.89190237627
 20
1157.872908997223
 30
0.0
 11
1748.890889569461
 21
1159.079160606494
 31
0.0
  0
LINE
  5
AFD
330
9E2
100
AcDbEntity
  8
0
  6
Continuous
 62
     7
370
    15
100
AcDbLine
 10
1754.632983466049
 20
1155.718305979182
 30
0.0
 11
1748.89190237627
 21
1157.872908997223
 31
0.0
  0
ARC
  5
AFE
330
9E2
100
AcDbEntity
  8
0
  6
Continuous
 62
     7
370
    15
100
AcDbCircle
 10
1768.658654900405
 20
1206.265390073224
 30
0.0
 40
0.7987822775885519
100
AcDbArc
 50
71.28375389475289
 51
121.8016310248237
  0
LINE
  5
AFF
330
9E2
100
AcDbEntity
  8
0
  6
Continuous
 62
     7
370
    15
100
AcDbLine
 10
1768.476824152338
 20
1207.179555894251
 30
0.0
 11
1768.865500230322
 21
1208.143799596796
 31
0.0
  0
LINE
  5
B00
330
9E2
100
AcDbEntity
  8
0
  6
Continuous
 62
     7
370
    15
100
AcDbLine
 10
1749.246122858731
 20
1159.6710534216
 30
0.0
 11
1751.249938384199
 21
1160.397298813628
 31
0.0
  0
LINE
  5
B01
330
9E2
100
AcDbEntity
  8
0
  6
Continuous
 62
     7
370
    15
100
AcDbLine
 10
1751.818497631036
 20
1160.183920975898
 30
0.0
 11
1750.790993762235
 21
1159.81152145083
 31
0.0
  0
LINE
  5
B02
330
9E2
100
AcDbEntity
  8
0
  6
Continuous
 62
     7
370
    15
100
AcDbLine
 10
1750.790993762235
 20
1159.81152145083
 30
0.0
 11
1755.963515605176
 21
1157.87029627052
 31
0.0
  0
ARC
  5
B03
330
9E2
100
AcDbEntity
  8
0
  6
Continuous
 62
     7
370
    15
100
AcDbCircle
 10
1757.709412876879
 20
1170.409627068122
 30
0.0
 40
4.282961755751246
100
AcDbArc
 50
133.5667518373282
 51
134.1483106068661
  0
ELLIPSE
  5
B04
330
9E2
100
AcDbEntity
  8
0
  6
Continuous
 62
     7
370
    15
100
AcDbEllipse
 10
1756.609535830702
 20
1170.287356126467
 30
0.0
 11
4.37245830005429
 21
1.270219118599044
 31
0.0
210
0.0
220
0.0
230
1.0
 40
0.8089632273351394
 41
1.427941655382059
 42
1.764966153328139
  0
ARC
  5
B05
330
9E2
100
AcDbEntity
  8
0
  6
Continuous
 62
     7
370
    15
100
AcDbCircle
 10
1768.308548645212
 20
1206.396783443616
 30
0.0
 40
0.7987822775886735
100
AcDbArc
 50
71.28375389475289
 51
121.8016310248237
  0
ARC
  5
B06
330
9E2
100
AcDbEntity
  8
0
  6
Continuous
 62
     7
370
    15
100
AcDbCircle
 10
1750.244521788449
 20
1157.728550527743
 30
0.0
 40
1.360300937996221
100
AcDbArc
 50
173.9081603971325
 51
242.3993760753705
  0
LINE
  5
B07
330
9E2
100
AcDbEntity
  8
0
  6
Continuous
 62
     7
370
    15
100
AcDbLine
 10
1766.392005259
 20
1206.938709447235
 30
0.0
 11
1767.08720618971
 21
1206.633451337564
 31
0.0
  0
LINE
  5
B08
330
9E2
100
AcDbEntity
  8
0
  6
Continuous
 62
     7
370
    15
100
AcDbLine
 10
1769.474943705222
 20
1205.606427858843
 30
0.0
 11
1769.476274708592
 21
1205.734642803647
 31
0.0
  0
LINE
  5
B09
330
9E2
100
AcDbEntity
  8
0
  6
Continuous
 62
     7
370
    15
100
AcDbLine
 10
1754.75227377751
 20
1179.855356970133
 30
0.0
 11
1754.75759906964
 21
1173.512940885419
 31
0.0
  0
LINE
  5
B0A
330
9E2
100
AcDbEntity
  8
0
  6
Continuous
 62
     7
370
    15
100
AcDbLine
 10
1773.740304330024
 20
1209.310727589764
 30
0.0
 11
1775.776773549983
 21
1208.546449458371
 31
0.0
  0
LINE
  5
B0B
330
9E2
100
AcDbEntity
  8
0
  6
Continuous
 62
     7
370
    15
100
AcDbLine
 10
1772.832475118883
 20
1212.015397108316
 30
0.0
 11
1775.983430845022
 21
1210.832856988941
 31
0.0
  0
LINE
  5
B0C
330
9E2
100
AcDbEntity
  8
0
  6
Continuous
 62
     7
370
    15
100
AcDbLine
 10
1772.832475118883
 20
1212.015397108316
 30
0.0
 11
1772.73602102143
 21
1210.948213415673
 31
0.0
  0
LINE
  5
B0D
330
9E2
100
AcDbEntity
  8
0
  6
Continuous
 62
     7
370
    15
100
AcDbLine
 10
1776.135561424953
 20
1211.089861315416
 30
0.0
 11
1772.984605698814
 21
1212.272401434791
 31
0.0
  0
ARC
  5
B0E
330
9E2
100
AcDbEntity
  8
0
  6
Continuous
 62
     7
370
    15
100
AcDbCircle
 10
1773.164555938159
 20
1211.992353998057
 30
0.0
 40
0.3328793406946704
100
AcDbArc
 50
122.7236064407628
 51
176.0306047229003
  0
LINE
  5
B0F
330
9E2
100
AcDbEntity
  8
0
  6
Continuous
 62
     7
370
    15
100
AcDbLine
 10
1773.259078044135
 20
1212.422117048052
 30
0.0
 11
1776.410033770273
 21
1211.239576928677
 31
0.0
  0
LINE
  5
B10
330
9E2
100
AcDbEntity
  8
0
  6
Continuous
 62
     7
370
    15
100
AcDbLine
 10
1772.984605698814
 20
1212.272401434791
 30
0.0
 11
1773.259078044135
 21
1212.422117048052
 31
0.0
  0
ARC
  5
B11
330
9E2
100
AcDbEntity
  8
0
  6
Continuous
 62
     7
370
    15
100
AcDbCircle
 10
1773.329223662634
 20
1212.309117050534
 30
0.0
 40
0.133001530945607
100
AcDbArc
 50
71.25975070525152
 51
121.8302608816806
  0
LINE
  5
B12
330
9E2
100
AcDbEntity
  8
0
  6
Continuous
 62
     7
370
    15
100
AcDbLine
 10
1763.121602193694
 20
1160.645729475726
 30
0.0
 11
1763.841154407953
 21
1160.375684627336
 31
0.0
  0
ARC
  5
B13
330
9E2
100
AcDbEntity
  8
0
  6
Continuous
 62
     7
370
    15
100
AcDbCircle
 10
1784.059434815052
 20
1210.850571497378
 30
0.0
 40
1.001812042163815
100
AcDbArc
 50
70.42014919825506
 51
111.7671601943942
  0
LINE
  5
B14
330
9E2
100
AcDbEntity
  8
0
  6
Continuous
 62
     7
370
    15
100
AcDbLine
 10
1783.530202189717
 20
1168.520976036374
 30
0.0
 11
1777.789121099939
 21
1170.675579054414
 31
0.0
  0
LINE
  5
B15
330
9E2
100
AcDbEntity
  8
0
  6
Continuous
 62
     7
370
    15
100
AcDbLine
 10
1777.789121099939
 20
1170.675579054414
 30
0.0
 11
1778.027509615638
 21
1172.533784477416
 31
0.0
  0
LINE
  5
B16
330
9E2
100
AcDbEntity
  8
0
  6
Continuous
 62
     7
370
    15
100
AcDbLine
 10
1776.50490015086
 20
1168.981558365858
 30
0.0
 11
1782.245981240638
 21
1166.826955347818
 31
0.0
  0
LINE
  5
B17
330
9E2
100
AcDbEntity
  8
0
  6
Continuous
 62
     7
370
    15
100
AcDbLine
 10
1782.601214541538
 20
1167.418834312132
 30
0.0
 11
1776.86013345176
 21
1169.573437330172
 31
0.0
  0
ARC
  5
B18
330
9E2
100
AcDbEntity
  8
0
  6
Continuous
 62
     7
370
    15
100
AcDbCircle
 10
1777.147191707644
 20
1168.998609746267
 30
0.0
 40
0.6425178546075526
100
AcDbArc
 50
116.5366937966437
 51
181.5207154781487
  0
LINE
  5
B19
330
9E2
100
AcDbEntity
  8
0
  6
Continuous
 62
     7
370
    15
100
AcDbLine
 10
1782.246136751123
 20
1166.641742559531
 30
0.0
 11
1776.505055661345
 21
1168.796345577571
 31
0.0
  0
LINE
  5
B1A
330
9E2
100
AcDbEntity
  8
0
  6
Continuous
 62
     7
370
    15
100
AcDbLine
 10
1776.505055661345
 20
1168.796345577571
 30
0.0
 11
1776.50490015086
 21
1168.981558365858
 31
0.0
  0
LINE
  5
B1B
330
9E2
100
AcDbEntity
  8
0
  6
Continuous
 62
     7
370
    15
100
AcDbLine
 10
1782.830409266849
 20
1167.501901645935
 30
0.0
 11
1777.089328177071
 21
1169.656504663976
 31
0.0
  0
ARC
  5
B1C
330
9E2
100
AcDbEntity
  8
0
  6
Continuous
 62
     7
370
    15
100
AcDbCircle
 10
1776.5379087398
 20
1170.784970656837
 30
0.0
 40
1.255985227956432
100
AcDbArc
 50
296.0422231028637
 51
355.0034217402762
  0
ARC
  5
B1D
330
9E2
100
AcDbEntity
  8
0
  6
Continuous
 62
     7
370
    15
100
AcDbCircle
 10
1776.836367211303
 20
1168.756593719602
 30
0.0
 40
0.333687808208462
100
AcDbArc
 50
173.158169014495
 51
243.1493674580306
  0
LINE
  5
B1E
330
9E2
100
AcDbEntity
  8
0
  6
Continuous
 62
     7
370
    15
100
AcDbLine
 10
1776.86013345176
 20
1169.573437330172
 30
0.0
 11
1777.089328177071
 21
1169.656504663976
 31
0.0
  0
LINE
  5
B1F
330
9E2
100
AcDbEntity
  8
0
  6
Continuous
 62
     7
370
    15
100
AcDbLine
 10
1784.502993058082
 20
1169.662553797747
 30
0.0
 11
1786.940714588051
 21
1168.747687401771
 31
0.0
  0
LINE
  5
B20
330
9E2
100
AcDbEntity
  8
0
  6
Continuous
 62
     7
370
    15
100
AcDbLine
 10
1793.883038082134
 20
1172.303090910493
 30
0.0
 11
1794.817766307346
 21
1171.952291431511
 31
0.0
  0
LINE
  5
B21
330
9E2
100
AcDbEntity
  8
0
  6
Continuous
 62
     8
370
    15
100
AcDbLine
 10
1754.686697640589
 20
1197.858727616502
 30
0.0
 11
1758.853860931977
 21
1196.294809172592
 31
0.0
  0
LINE
  5
B22
330
9E2
100
AcDbEntity
  8
0
  6
Continuous
 62
     8
370
    15
100
AcDbLine
 10
1754.647538437303
 20
1197.704017618618
 30
0.0
 11
1758.814703359001
 21
1196.140098562858
 31
0.0
  0
LINE
  5
B23
330
9E2
100
AcDbEntity
  8
0
  6
Continuous
 62
     8
370
    15
100
AcDbLine
 10
1753.88085895264
 20
1194.673990465394
 30
0.0
 11
1758.048023874337
 21
1193.110071409635
 31
0.0
  0
LINE
  5
B24
330
9E2
100
AcDbEntity
  8
0
  6
Continuous
 62
     8
370
    15
100
AcDbLine
 10
1754.168082677843
 20
1195.809151214628
 30
0.0
 11
1758.33524759954
 21
1194.245232158869
 31
0.0
  0
LINE
  5
B25
330
9E2
100
AcDbEntity
  8
0
  6
Continuous
 62
     8
370
    15
100
AcDbLine
 10
1754.339603689574
 20
1195.988584568629
 30
0.0
 11
1758.391599668817
 21
1194.467887921179
 31
0.0
  0
LINE
  5
B26
330
9E2
100
AcDbEntity
  8
0
  6
Continuous
 62
     8
370
    15
100
AcDbLine
 10
1754.764922525041
 20
1195.998170271069
 30
0.0
 11
1758.430681014357
 21
1194.622426890863
 31
0.0
  0
LINE
  5
B27
330
9E2
100
AcDbEntity
  8
0
  6
Continuous
 62
     8
370
    15
100
AcDbLine
 10
1753.115367368996
 20
1191.648688896727
 30
0.0
 11
1757.282535551312
 21
1190.084768617273
 31
0.0
  0
LINE
  5
B28
330
9E2
100
AcDbEntity
  8
0
  6
Continuous
 62
     8
370
    15
100
AcDbLine
 10
1753.401403193179
 20
1192.779124061404
 30
0.0
 11
1757.568570723371
 21
1191.215204026688
 31
0.0
  0
LINE
  5
B29
330
9E2
100
AcDbEntity
  8
0
  6
Continuous
 62
     8
370
    15
100
AcDbLine
 10
1753.572924181652
 20
1192.958585116989
 30
0.0
 11
1757.624920813018
 21
1191.4378882248
 31
0.0
  0
LINE
  5
B2A
330
9E2
100
AcDbEntity
  8
0
  6
Continuous
 62
     8
370
    15
100
AcDbLine
 10
1753.998243040377
 20
1192.968143117845
 30
0.0
 11
1757.664001529693
 21
1191.592399737639
 31
0.0
  0
LINE
  5
B2B
330
9E2
100
AcDbEntity
  8
0
  6
Continuous
 62
     8
370
    15
100
AcDbLine
 10
1752.349875808613
 20
1188.623359626477
 30
0.0
 11
1756.517038121815
 21
1187.059441549675
 31
0.0
  0
LINE
  5
B2C
330
9E2
100
AcDbEntity
  8
0
  6
Continuous
 62
     8
370
    15
100
AcDbLine
 10
1752.635911609536
 20
1189.753822492737
 30
0.0
 11
1756.803076531233
 21
1188.189903436978
 31
0.0
  0
LINE
  5
B2D
330
9E2
100
AcDbEntity
  8
0
  6
Continuous
 62
     8
370
    15
100
AcDbLine
 10
1752.807390067476
 20
1189.933240423914
 30
0.0
 11
1756.859386046718
 21
1188.412543776464
 31
0.0
  0
LINE
  5
B2E
330
9E2
100
AcDbEntity
  8
0
  6
Continuous
 62
     8
370
    15
100
AcDbLine
 10
1751.646032768155
 20
1186.395034844115
 30
0.0
 11
1755.941062174767
 21
1184.783128797615
 31
0.0
  0
LINE
  5
B2F
330
9E2
100
AcDbEntity
  8
0
  6
Continuous
 62
     8
370
    15
100
AcDbLine
 10
1753.232751456734
 20
1189.942841549179
 30
0.0
 11
1756.89850994605
 21
1188.567098168973
 31
0.0
  0
LINE
  5
B30
330
9E2
100
AcDbEntity
  8
0
  6
Continuous
 62
     8
370
    15
100
AcDbLine
 10
1751.831260845866
 20
1186.573783224603
 30
0.0
 11
1755.998425767564
 21
1185.009864168844
 31
0.0
  0
LINE
  5
B31
330
9E2
100
AcDbEntity
  8
0
  6
Continuous
 62
     8
370
    15
100
AcDbLine
 10
1751.870420025893
 20
1186.728520924071
 30
0.0
 11
1756.037584947591
 21
1185.164601868312
 31
0.0
  0
LINE
  5
B32
330
9E2
100
AcDbEntity
  8
0
  6
Continuous
 62
     8
370
    15
100
AcDbLine
 10
1752.041898507092
 20
1186.907911153664
 30
0.0
 11
1756.093894486334
 21
1185.387214506214
 31
0.0
  0
LINE
  5
B33
330
9E2
100
AcDbEntity
  8
0
  6
Continuous
 62
     8
370
    15
100
AcDbLine
 10
1752.467259896351
 20
1186.917512278929
 30
0.0
 11
1756.133018385666
 21
1185.541768898723
 31
0.0
  0
LINE
  5
B34
330
9E2
100
AcDbEntity
  8
0
  6
Continuous
 62
     8
370
    15
100
AcDbLine
 10
1756.206015702564
 20
1172.927471596072
 30
0.0
 11
1754.726252671142
 21
1173.482820291487
 31
0.0
  0
LINE
  5
B35
330
9E2
100
AcDbEntity
  8
0
  6
Continuous
 62
     8
370
    15
100
AcDbLine
 10
1758.822995165176
 20
1164.999372564047
 30
0.0
 11
1758.044823233456
 21
1165.291417140045
 31
0.0
  0
LINE
  5
B36
330
9E2
100
AcDbEntity
  8
0
  6
Continuous
 62
     8
370
    15
100
AcDbLine
 10
1757.654683867644
 20
1159.973236313574
 30
0.0
 11
1759.650616757878
 21
1159.224171292221
 31
0.0
  0
LINE
  5
B37
330
9E2
100
AcDbEntity
  8
0
  6
Continuous
 62
     8
370
    15
100
AcDbLine
 10
1755.85897013702
 20
1156.399897133133
 30
0.0
 11
1756.164271587393
 21
1156.28531881311
 31
0.0
  0
LINE
  5
B38
330
9E2
100
AcDbEntity
  8
0
  6
Continuous
 62
     8
370
    15
100
AcDbLine
 10
1756.794408143725
 20
1156.513700001182
 30
0.0
 11
1755.835620470006
 21
1156.873528887615
 31
0.0
  0
LINE
  5
B39
330
9E2
100
AcDbEntity
  8
0
  6
Continuous
 62
     8
370
    15
100
AcDbLine
 10
1759.926043650539
 20
1161.493097013577
 30
0.0
 11
1760.242447179328
 21
1161.374352131318
 31
0.0
  0
LINE
  5
B3A
330
9E2
100
AcDbEntity
  8
0
  6
Continuous
 62
     8
370
    15
100
AcDbLine
 10
1760.479979580211
 20
1165.975884981561
 30
0.0
 11
1760.21142301289
 21
1166.076673105159
 31
0.0
  0
LINE
  5
B3B
330
9E2
100
AcDbEntity
  8
0
  6
Continuous
 62
     8
370
    15
100
AcDbLine
 10
1761.449004404004
 20
1166.512238401299
 30
0.0
 11
1762.438507099804
 21
1166.140882299305
 31
0.0
  0
LINE
  5
B3C
330
9E2
100
AcDbEntity
  8
0
  6
Continuous
 62
     8
370
    15
100
AcDbLine
 10
1758.658924185319
 20
1156.251142428741
 30
0.0
 11
1758.200971357636
 21
1156.423010153516
 31
0.0
  0
LINE
  5
B3D
330
9E2
100
AcDbEntity
  8
0
  6
Continuous
 62
     8
370
    15
100
AcDbLine
 10
1762.024301413116
 20
1158.117334962976
 30
0.0
 11
1760.132851115722
 21
1158.827188117026
 31
0.0
  0
LINE
  5
B3E
330
9E2
100
AcDbEntity
  8
0
  6
Continuous
 62
     8
370
    15
100
AcDbLine
 10
1757.844694015036
 20
1158.647247473301
 30
0.0
 11
1761.492666321952
 21
1157.278179170782
 31
0.0
  0
LINE
  5
B3F
330
9E2
100
AcDbEntity
  8
0
  6
Continuous
 62
     8
370
    15
100
AcDbLine
 10
1765.643133638242
 20
1167.471647325959
 30
0.0
 11
1765.32380044413
 21
1167.591491699002
 31
0.0
  0
LINE
  5
B40
330
9E2
100
AcDbEntity
  8
0
  6
Continuous
 62
     8
370
    15
100
AcDbLine
 10
1764.14488054548
 20
1163.792595026524
 30
0.0
 11
1766.285483472148
 21
1162.989235963292
 31
0.0
  0
LINE
  5
B41
330
9E2
100
AcDbEntity
  8
0
  6
Continuous
 62
     8
370
    15
100
AcDbLine
 10
1763.156603183118
 20
1160.326852513236
 30
0.0
 11
1763.239455487903
 21
1160.295758399923
 31
0.0
  0
LINE
  5
B42
330
9E2
100
AcDbEntity
  8
0
  6
Continuous
 62
     8
370
    15
100
AcDbLine
 10
1763.121581577145
 20
1160.667688663584
 30
0.0
 11
1763.897597262145
 21
1160.376453317697
 31
0.0
  0
LINE
  5
B43
330
9E2
100
AcDbEntity
  8
0
  6
Continuous
 62
     8
370
    15
100
AcDbLine
 10
1766.170266993174
 20
1162.519039535809
 30
0.0
 11
1764.149857621384
 21
1163.277290475321
 31
0.0
  0
LINE
  5
B44
330
9E2
100
AcDbEntity
  8
0
  6
Continuous
 62
     8
370
    15
100
AcDbLine
 10
1767.34048077564
 20
1162.33833225256
 30
0.0
 11
1767.951050252324
 21
1162.10915676334
 31
0.0
  0
LINE
  5
B45
330
9E2
100
AcDbEntity
  8
0
  6
Continuous
 62
     8
370
    15
100
AcDbLine
 10
1768.180244977635
 20
1162.192224097143
 30
0.0
 11
1767.266039408524
 21
1162.53532151164
 31
0.0
  0
LINE
  5
B46
330
9E2
100
AcDbEntity
  8
0
  6
Continuous
 62
     8
370
    15
100
AcDbLine
 10
1783.528513844196
 20
1174.527529558903
 30
0.0
 11
1784.265328748626
 21
1174.251006097208
 31
0.0
  0
LINE
  5
B47
330
9E2
100
AcDbEntity
  8
0
  6
Continuous
 62
     8
370
    15
100
AcDbLine
 10
1786.849126824804
 20
1175.73101237448
 30
0.0
 11
1787.476923616678
 21
1175.495402941111
 31
0.0
  0
LINE
  5
B48
330
9E2
100
AcDbEntity
  8
0
  6
Continuous
 62
     8
370
    15
100
AcDbLine
 10
1787.478722221273
 20
1173.353267178997
 30
0.0
 11
1785.091460059957
 21
1174.249196391142
 31
0.0
  0
LINE
  5
B49
330
9E2
100
AcDbEntity
  8
0
  6
Continuous
 62
     8
370
    15
100
AcDbLine
 10
1784.870342078922
 20
1172.525937375135
 30
0.0
 11
1786.626932887486
 21
1171.866696406682
 31
0.0
  0
LINE
  5
B4A
330
9E2
100
AcDbEntity
  8
0
  6
Continuous
 62
     8
370
    15
100
AcDbLine
 10
1786.805660232148
 20
1172.335360085494
 30
0.0
 11
1784.935931520115
 21
1173.037061222068
 31
0.0
  0
LINE
  5
B4B
330
9E2
100
AcDbEntity
  8
0
  6
Continuous
 62
     8
370
    15
100
AcDbLine
 10
1787.301226599046
 20
1172.887834771258
 30
0.0
 11
1785.026320118927
 21
1173.741597379933
 31
0.0
  0
LINE
  5
B4C
330
9E2
100
AcDbEntity
  8
0
  6
Continuous
 62
     8
370
    15
100
AcDbLine
 10
1786.628334807767
 20
1170.197011153728
 30
0.0
 11
1784.666034214588
 21
1170.933454118781
 31
0.0
  0
LINE
  5
B4D
330
9E2
100
AcDbEntity
  8
0
  6
Continuous
 62
     8
370
    15
100
AcDbLine
 10
1788.874848014534
 20
1176.465198188469
 30
0.0
 11
1789.751152159369
 21
1176.13632501534
 31
0.0
  0
LINE
  5
B4E
330
9E2
100
AcDbEntity
  8
0
  6
Continuous
 62
     8
370
    15
100
AcDbLine
 10
1786.884304785071
 20
1168.707554761043
 30
0.0
 11
1784.495491221684
 21
1169.604066207706
 31
0.0
  0
LINE
  5
B4F
330
9E2
100
AcDbEntity
  8
0
  6
Continuous
 62
     8
370
    15
100
AcDbLine
 10
1784.795803544447
 20
1168.972022299101
 30
0.0
 11
1786.764281704593
 21
1168.233260919759
 31
0.0
  0
LINE
  5
B50
330
9E2
100
AcDbEntity
  8
0
  6
Continuous
 62
     8
370
    15
100
AcDbLine
 10
1784.574235960617
 20
1170.217683338199
 30
0.0
 11
1787.542181591402
 21
1169.103826119764
 31
0.0
  0
LINE
  5
B51
330
9E2
100
AcDbEntity
  8
0
  6
Continuous
 62
     8
370
    15
100
AcDbLine
 10
1787.59200916966
 20
1166.996083797507
 30
0.0
 11
1784.858162546711
 21
1168.022084666081
 31
0.0
  0
LINE
  5
B52
330
9E2
100
AcDbEntity
  8
0
  6
Continuous
 62
     8
370
    15
100
AcDbLine
 10
1790.073113182305
 20
1170.322627509929
 30
0.0
 11
1788.590164200982
 21
1170.879171878628
 31
0.0
  0
LINE
  5
B53
330
9E2
100
AcDbEntity
  8
0
  6
Continuous
 62
     8
370
    15
100
AcDbLine
 10
1787.658975804777
 20
1170.027001902653
 30
0.0
 11
1787.386868424392
 21
1170.129122631108
 31
0.0
  0
LINE
  5
B54
330
9E2
100
AcDbEntity
  8
0
  6
Continuous
 62
     8
370
    15
100
AcDbLine
 10
1787.659562027671
 20
1169.328811188324
 30
0.0
 11
1784.607155792245
 21
1170.474366108084
 31
0.0
  0
LINE
  5
B55
330
9E2
100
AcDbEntity
  8
0
  6
Continuous
 62
     8
370
    15
100
AcDbLine
 10
1791.130389218644
 20
1177.282663868253
 30
0.0
 11
1791.425113550106
 21
1177.172055095422
 31
0.0
  0
LINE
  5
B56
330
9E2
100
AcDbEntity
  8
0
  6
Continuous
 62
     8
370
    15
100
AcDbLine
 10
1790.817575925202
 20
1172.436420784463
 30
0.0
 11
1790.524894370951
 21
1172.5462629118
 31
0.0
  0
LINE
  5
B57
330
9E2
100
AcDbEntity
  8
0
  6
Continuous
 62
     8
370
    15
100
AcDbLine
 10
1788.835020894234
 20
1167.525747422667
 30
0.0
 11
1789.292973721916
 21
1167.353879697893
 31
0.0
  0
LINE
  5
B58
330
9E2
100
AcDbEntity
  8
0
  6
Continuous
 62
     8
370
    15
100
AcDbLine
 10
1792.605705853036
 20
1177.8173614249
 30
0.0
 11
1793.710924296939
 21
1177.402577700791
 31
0.0
  0
LINE
  5
B59
330
9E2
100
AcDbEntity
  8
0
  6
Continuous
 62
     8
370
    15
100
AcDbLine
 10
1792.651560553608
 20
1169.145218770064
 30
0.0
 11
1790.660218613596
 21
1169.892560827562
 31
0.0
  0
LINE
  5
B5A
330
9E2
100
AcDbEntity
  8
0
  6
Continuous
 62
     8
370
    15
100
AcDbLine
 10
1792.12671585855
 20
1168.380916439933
 30
0.0
 11
1788.656388870584
 21
1169.683315219001
 31
0.0
  0
LINE
  5
B5B
330
9E2
100
AcDbEntity
  8
0
  6
Continuous
 62
     8
370
    15
100
AcDbLine
 10
1795.794077964013
 20
1172.306137298471
 30
0.0
 11
1793.971187704283
 21
1172.990260165533
 31
0.0
  0
LINE
  5
B5C
330
9E2
100
AcDbEntity
  8
0
  6
Continuous
 62
     8
370
    15
100
AcDbLine
 10
1793.684351988418
 20
1170.109000462362
 30
0.0
 11
1793.989656699409
 21
1169.994420918643
 31
0.0
  0
LINE
  5
B5D
330
9E2
100
AcDbEntity
  8
0
  6
Continuous
 62
     8
370
    15
100
AcDbLine
 10
1794.619793255741
 20
1170.222802106715
 30
0.0
 11
1793.662251464181
 21
1170.582163418937
 31
0.0
  0
LINE
  5
B5E
330
9E2
100
AcDbEntity
  8
0
  6
Continuous
 62
     8
370
    15
100
AcDbLine
 10
1794.969554715419
 20
1170.893126218838
 30
0.0
 11
1793.760368204205
 21
1171.346928711034
 31
0.0
  0
ENDBLK
  5
9E4
330
9E2
100
AcDbEntity
  8
0
100
AcDbBlockEnd
  0
ENDSEC
  0
SECTION
  2
ENTITIES
  0
INSERT
  5
8CD
330
1F
100
AcDbEntity
  8
0
100
AcDbBlockReference
  2
1
 10
0.0
 20
0.0
 30
0.0
  0
INSERT
  5
93A
330
1F
100
AcDbEntity
  8
0
100
AcDbBlockReference
  2
2
 10
0.0
 20
0.0
 30
0.0
  0
INSERT
  5
9E1
330
1F
100
AcDbEntity
  8
0
100
AcDbBlockReference
  2
3
 10
0.0
 20
0.0
 30
0.0
  0
INSERT
  5
B5F
330
1F
100
AcDbEntity
  8
0
100
AcDbBlockReference
  2
4
 10
0.0
 20
0.0
 30
0.0
  0
ENDSEC
  0
SECTION
  2
OBJECTS
  0
DICTIONARY
  5
C
330
0
100
AcDbDictionary
281
     1
  3
ACAD_COLOR
350
6B
  3
ACAD_GROUP
350
D
  3
ACAD_LAYOUT
350
1A
  3
ACAD_MATERIAL
350
6A
  3
ACAD_MLEADERSTYLE
350
12D
  3
ACAD_MLINESTYLE
350
17
  3
ACAD_PLOTSETTINGS
350
19
  3
ACAD_PLOTSTYLENAME
350
E
  3
ACAD_SCALELIST
350
10C
  3
ACAD_TABLESTYLE
350
7E
  3
ACAD_VISUALSTYLE
350
EF
  3
ACDB_RECOMPOSE_DATA
350
15D
  3
AcDbVariableDictionary
350
5E
  3
DWGPROPS
350
D5F
  0
DICTIONARY
  5
13C
330
10
100
AcDbDictionary
280
     1
281
     1
  3
ADSK_XREC_LAYER_RECONCILED
360
B60
  0
DICTIONARY
  5
D47
330
81B
100
AcDbDictionary
280
     1
281
     1
  0
DICTIONARY
  5
C8C
330
8CE
100
AcDbDictionary
280
     1
281
     1
  0
DICTIONARY
  5
6B
102
{ACAD_REACTORS
330
C
102
}
330
C
100
AcDbDictionary
281
     1
  0
DICTIONARY
  5
D
102
{ACAD_REACTORS
330
C
102
}
330
C
100
AcDbDictionary
281
     1
  0
DICTIONARY
  5
1A
102
{ACAD_REACTORS
330
C
102
}
330
C
100
AcDbDictionary
281
     1
  3
Layout1
350
D3
  3
Layout2
350
D7
  3
Model
350
22
  0
DICTIONARY
  5
6A
102
{ACAD_REACTORS
330
C
102
}
330
C
100
AcDbDictionary
281
     1
  3
ByBlock
350
ED
  3
ByLayer
350
EC
  3
Global
350
EE
  0
DICTIONARY
  5
12D
102
{ACAD_REACTORS
330
C
102
}
330
C
100
AcDbDictionary
281
     1
  3
Annotative
350
13B
  3
Standard
350
12E
  0
DICTIONARY
  5
17
102
{ACAD_REACTORS
330
C
102
}
330
C
100
AcDbDictionary
281
     1
  3
Standard
350
18
  0
DICTIONARY
  5
19
102
{ACAD_REACTORS
330
C
102
}
330
C
100
AcDbDictionary
281
     1
  0
ACDBDICTIONARYWDFLT
  5
E
102
{ACAD_REACTORS
330
C
102
}
330
C
100
AcDbDictionary
281
     1
  3
Normal
350
F
100
AcDbDictionaryWithDefault
340
F
  0
DICTIONARY
  5
10C
102
{ACAD_REACTORS
330
C
102
}
330
C
100
AcDbDictionary
281
     1
  3
A0
350
10D
  3
A1
350
188
  3
A2
350
189
  3
A3
350
18A
  3
A4
350
18B
  3
A5
350
18C
  3
A6
350
18D
  3
A7
350
18E
  3
A8
350
18F
  3
A9
350
190
  3
B0
350
191
  3
B1
350
192
  3
B2
350
193
  3
B3
350
194
  3
B4
350
195
  3
B5
350
196
  3
B6
350
197
  3
B7
350
198
  3
B8
350
199
  3
B9
350
19A
  3
C0
350
19B
  3
C1
350
19C
  3
C2
350
19D
  3
C3
350
19E
  3
C4
350
19F
  3
C5
350
1A0
  3
C6
350
1A1
  3
C7
350
1A2
  3
C8
350
1A3
  3
C9
350
1A4
  3
D0
350
1A5
  3
D1
350
1A6
  3
D2
350
1A7
  0
DICTIONARY
  5
7E
102
{ACAD_REACTORS
330
C
102
}
330
C
100
AcDbDictionary
281
     1
  3
Standard
350
7F
  0
DICTIONARY
  5
EF
102
{ACAD_REACTORS
330
C
102
}
330
C
100
AcDbDictionary
281
     1
  3
2dWireframe
350
F5
  3
3D Hidden
350
F7
  3
3dWireframe
350
F6
  3
Basic
350
F4
  3
Brighten
350
FB
  3
ColorChange
350
FF
  3
Conceptual
350
F8
  3
Dim
350
FA
  3
Facepattern
350
FE
  3
Flat
350
F0
  3
FlatWithEdges
350
F1
  3
Gouraud
350
F2
  3
GouraudWithEdges
350
F3
  3
Linepattern
350
FD
  3
Realistic
350
F9
  3
Thicken
350
FC
  0
XRECORD
  5
15D
102
{ACAD_REACTORS
330
C
102
}
330
C
100
AcDbXrecord
280
     1
 90
        1
330
7F
  0
DICTIONARY
  5
5E
102
{ACAD_REACTORS
330
C
102
}
330
C
100
AcDbDictionary
281
     1
  3
CANNOSCALE
350
146
  3
CMLEADERSTYLE
350
145
  3
CTABLESTYLE
350
84
  3
DIMASSOC
350
5F
  3
HIDETEXT
350
63
  3
INDEXCTL
350
D5B
  3
LIGHTINGUNITS
350
D59
  3
MSLTSCALE
350
D58
  3
PSOLHEIGHT
350
D5D
  3
PSOLWIDTH
350
D5C
  3
SORTENTS
350
D5A
  0
XRECORD
  5
D5F
102
{ACAD_REACTORS
330
C
102
}
330
C
100
AcDbXrecord
280
     1
  1
DWGPROPS COOKIE
  2

  3

  4

  6

  7

  8
orhan kara
  9

300
=
301
=
302
=
303
=
304
=
305
=
306
=
307
=
308
=
309
=
 40
0.0019918518518519
 41
2458445.38736198
 42
2458956.402436458
  1

 90
        0
  0
XRECORD
  5
B60
102
{ACAD_REACTORS
330
13C
102
}
330
13C
100
AcDbXrecord
280
     1
290
     1
  0
LAYOUT
  5
D3
102
{ACAD_XDICTIONARY
360
D63
102
}
102
{ACAD_REACTORS
330
1A
102
}
330
1A
100
AcDbPlotSettings
  1

  2
C:\Documents and Settings\basas\Application Data\Autodesk\AutoCAD 2005\R16.1\enu\plotters\Default Windows System Printer.pc3
  4

  6

 40
0.0
 41
0.0
 42
0.0
 43
0.0
 44
0.0
 45
0.0
 46
0.0
 47
0.0
 48
0.0
 49
0.0
140
0.0
141
0.0
142
1.0
143
1.0
 70
   688
 72
     0
 73
     0
 74
     5
  7

 75
    16
147
1.0
148
0.0
149
0.0
100
AcDbLayout
  1
Layout1
 70
     1
 71
     1
 10
0.0
 20
0.0
 11
12.0
 21
9.0
 12
0.0
 22
0.0
 32
0.0
 14
0.0
 24
0.0
 34
0.0
 15
0.0
 25
0.0
 35
0.0
146
0.0
 13
0.0
 23
0.0
 33
0.0
 16
1.0
 26
0.0
 36
0.0
 17
0.0
 27
1.0
 37
0.0
 76
     0
330
D2
  0
LAYOUT
  5
D7
102
{ACAD_XDICTIONARY
360
D65
102
}
102
{ACAD_REACTORS
330
1A
102
}
330
1A
100
AcDbPlotSettings
  1

  2
C:\Documents and Settings\basas\Application Data\Autodesk\AutoCAD 2005\R16.1\enu\plotters\Default Windows System Printer.pc3
  4

  6

 40
0.0
 41
0.0
 42
0.0
 43
0.0
 44
0.0
 45
0.0
 46
0.0
 47
0.0
 48
0.0
 49
0.0
140
0.0
141
0.0
142
1.0
143
1.0
 70
   688
 72
     0
 73
     0
 74
     5
  7

 75
    16
147
1.0
148
0.0
149
0.0
100
AcDbLayout
  1
Layout2
 70
     1
 71
     2
 10
0.0
 20
0.0
 11
12.0
 21
9.0
 12
0.0
 22
0.0
 32
0.0
 14
0.0
 24
0.0
 34
0.0
 15
0.0
 25
0.0
 35
0.0
146
0.0
 13
0.0
 23
0.0
 33
0.0
 16
1.0
 26
0.0
 36
0.0
 17
0.0
 27
1.0
 37
0.0
 76
     0
330
D6
  0
LAYOUT
  5
22
102
{ACAD_XDICTIONARY
360
D60
102
}
102
{ACAD_REACTORS
330
1A
102
}
330
1A
100
AcDbPlotSettings
  1

  2
none_device
  4
ISO_A4_(210.00_x_297.00_MM)
  6

 40
7.5
 41
20.0
 42
7.5
 43
20.0
 44
210.0
 45
297.0
 46
11.54999923706054
 47
-13.65000009536743
 48
0.0
 49
0.0
140
0.0
141
0.0
142
1.0
143
8.704084754739808
 70
 11952
 72
     1
 73
     0
 74
     0
  7

 75
     0
147
0.1148885871608098
148
0.0
149
0.0
100
AcDbLayout
  1
Model
 70
     1
 71
     0
 10
0.0
 20
0.0
 11
12.0
 21
9.0
 12
0.0
 22
0.0
 32
0.0
 14
0.0
 24
0.0
 34
0.0
 15
0.0
 25
0.0
 35
0.0
146
0.0
 13
0.0
 23
0.0
 33
0.0
 16
1.0
 26
0.0
 36
0.0
 17
0.0
 27
1.0
 37
0.0
 76
     0
330
1F
331
EA
1001
ACAD_PSEXT
1000
None
1000
None
1000
Not applicable
1000
The layout will not be plotted unless a new plotter configuration name is selected.
1070
     0
  0
MATERIAL
  5
ED
102
{ACAD_XDICTIONARY
360
D69
102
}
102
{ACAD_REACTORS
330
6A
102
}
330
6A
100
AcDbMaterial
  1
ByBlock
  0
MATERIAL
  5
EC
102
{ACAD_XDICTIONARY
360
D67
102
}
102
{ACAD_REACTORS
330
6A
102
}
330
6A
100
AcDbMaterial
  1
ByLayer
  0
MATERIAL
  5
EE
102
{ACAD_XDICTIONARY
360
173
102
}
102
{ACAD_REACTORS
330
6A
102
}
330
6A
100
AcDbMaterial
  1
Global
 43
0.0007999999797903
 43
0.0
 43
0.0
 43
0.0
 43
0.0
 43
0.0007999999797903
 43
0.0
 43
0.0
 43
0.0
 43
0.0
 43
1.0
 43
0.0
 43
0.0
 43
0.0
 43
0.0
 43
1.0
 49
0.0007999999797903
 49
0.0
 49
0.0
 49
0.0
 49
0.0
 49
0.0007999999797903
 49
0.0
 49
0.0
 49
0.0
 49
0.0
 49
1.0
 49
0.0
 49
0.0
 49
0.0
 49
0.0
 49
1.0
142
0.0007999999797903
142
0.0
142
0.0
142
0.0
142
0.0
142
0.0007999999797903
142
0.0
142
0.0
142
0.0
142
0.0
142
1.0
142
0.0
142
0.0
142
0.0
142
0.0
142
1.0
144
0.0007999999797903
144
0.0
144
0.0
144
0.0
144
0.0
144
0.0007999999797903
144
0.0
144
0.0
144
0.0
144
0.0
144
1.0
144
0.0
144
0.0
144
0.0
144
0.0
144
1.0
1001
ACAD
1070
    -1
1070
     3
1070
     0
1000

1071
        0
1070
     0
  0
MLEADERSTYLE
  5
13B
102
{ACAD_REACTORS
330
12D
102
}
330
12D
100
AcDbMLeaderStyle
170
     2
171
     1
172
     0
 90
        2
 40
0.0
 41
0.0
173
     1
 91
-1056964608
340
14
 92
       -2
290
     1
 42
2.0
291
     1
 43
8.0
  3
Standard
 44
4.0
300

342
11
174
     1
178
     1
175
     1
176
     0
 93
-1056964608
 45
4.0
292
     0
297
     0
 46
4.0
 94
-1056964608
 47
1.0
 49
1.0
140
1.0
293
     1
141
0.0
294
     1
177
     0
142
1.0
295
     0
296
     1
143
3.75
1001
ACAD_MLEADERVER
1070
     2
  0
MLEADERSTYLE
  5
12E
102
{ACAD_REACTORS
330
12D
102
}
330
12D
100
AcDbMLeaderStyle
170
     2
171
     1
172
     0
 90
        2
 40
0.0
 41
0.0
173
     1
 91
-1056964608
340
14
 92
       -2
290
     1
 42
2.0
291
     1
 43
8.0
  3
Standard
 44
4.0
300

342
11
174
     1
178
     1
175
     1
176
     0
 93
-1056964608
 45
4.0
292
     0
297
     0
 46
4.0
 94
-1056964608
 47
1.0
 49
1.0
140
1.0
293
     1
141
0.0
294
     1
177
     0
142
1.0
295
     0
296
     0
143
3.75
1001
ACAD_MLEADERVER
1070
     2
  0
MLINESTYLE
  5
18
102
{ACAD_REACTORS
330
17
102
}
330
17
100
AcDbMlineStyle
  2
STANDARD
 70
     0
  3

 62
   256
 51
90.0
 52
90.0
 71
     2
 49
0.5
 62
   256
  6
BYLAYER
 49
-0.5
 62
   256
  6
BYLAYER
  0
ACDBPLACEHOLDER
  5
F
102
{ACAD_REACTORS
330
E
102
}
330
E
  0
SCALE
  5
10D
102
{ACAD_REACTORS
330
10C
102
}
330
10C
100
AcDbScale
 70
     0
300
1:1
140
1.0
141
1.0
290
     1
  0
SCALE
  5
188
102
{ACAD_REACTORS
330
10C
102
}
330
10C
100
AcDbScale
 70
     0
300
1:2
140
1.0
141
2.0
290
     0
  0
SCALE
  5
189
102
{ACAD_REACTORS
330
10C
102
}
330
10C
100
AcDbScale
 70
     0
300
1:4
140
1.0
141
4.0
290
     0
  0
SCALE
  5
18A
102
{ACAD_REACTORS
330
10C
102
}
330
10C
100
AcDbScale
 70
     0
300
1:5
140
1.0
141
5.0
290
     0
  0
SCALE
  5
18B
102
{ACAD_REACTORS
330
10C
102
}
330
10C
100
AcDbScale
 70
     0
300
1:8
140
1.0
141
8.0
290
     0
  0
SCALE
  5
18C
102
{ACAD_REACTORS
330
10C
102
}
330
10C
100
AcDbScale
 70
     0
300
1:10
140
1.0
141
10.0
290
     0
  0
SCALE
  5
18D
102
{ACAD_REACTORS
330
10C
102
}
330
10C
100
AcDbScale
 70
     0
300
1:16
140
1.0
141
16.0
290
     0
  0
SCALE
  5
18E
102
{ACAD_REACTORS
330
10C
102
}
330
10C
100
AcDbScale
 70
     0
300
1:20
140
1.0
141
20.0
290
     0
  0
SCALE
  5
18F
102
{ACAD_REACTORS
330
10C
102
}
330
10C
100
AcDbScale
 70
     0
300
1:30
140
1.0
141
30.0
290
     0
  0
SCALE
  5
190
102
{ACAD_REACTORS
330
10C
102
}
330
10C
100
AcDbScale
 70
     0
300
1:40
140
1.0
141
40.0
290
     0
  0
SCALE
  5
191
102
{ACAD_REACTORS
330
10C
102
}
330
10C
100
AcDbScale
 70
     0
300
1:50
140
1.0
141
50.0
290
     0
  0
SCALE
  5
192
102
{ACAD_REACTORS
330
10C
102
}
330
10C
100
AcDbScale
 70
     0
300
1:100
140
1.0
141
100.0
290
     0
  0
SCALE
  5
193
102
{ACAD_REACTORS
330
10C
102
}
330
10C
100
AcDbScale
 70
     0
300
2:1
140
2.0
141
1.0
290
     0
  0
SCALE
  5
194
102
{ACAD_REACTORS
330
10C
102
}
330
10C
100
AcDbScale
 70
     0
300
4:1
140
4.0
141
1.0
290
     0
  0
SCALE
  5
195
102
{ACAD_REACTORS
330
10C
102
}
330
10C
100
AcDbScale
 70
     0
300
8:1
140
8.0
141
1.0
290
     0
  0
SCALE
  5
196
102
{ACAD_REACTORS
330
10C
102
}
330
10C
100
AcDbScale
 70
     0
300
10:1
140
10.0
141
1.0
290
     0
  0
SCALE
  5
197
102
{ACAD_REACTORS
330
10C
102
}
330
10C
100
AcDbScale
 70
     0
300
100:1
140
100.0
141
1.0
290
     0
  0
SCALE
  5
198
102
{ACAD_REACTORS
330
10C
102
}
330
10C
100
AcDbScale
 70
     0
300
1/128" = 1'-0"
140
0.0078125
141
12.0
290
     0
  0
SCALE
  5
199
102
{ACAD_REACTORS
330
10C
102
}
330
10C
100
AcDbScale
 70
     0
300
1/64" = 1'-0"
140
0.015625
141
12.0
290
     0
  0
SCALE
  5
19A
102
{ACAD_REACTORS
330
10C
102
}
330
10C
100
AcDbScale
 70
     0
300
1/32" = 1'-0"
140
0.03125
141
12.0
290
     0
  0
SCALE
  5
19B
102
{ACAD_REACTORS
330
10C
102
}
330
10C
100
AcDbScale
 70
     0
300
1/16" = 1'-0"
140
0.0625
141
12.0
290
     0
  0
SCALE
  5
19C
102
{ACAD_REACTORS
330
10C
102
}
330
10C
100
AcDbScale
 70
     0
300
3/32" = 1'-0"
140
0.09375
141
12.0
290
     0
  0
SCALE
  5
19D
102
{ACAD_REACTORS
330
10C
102
}
330
10C
100
AcDbScale
 70
     0
300
1/8" = 1'-0"
140
0.125
141
12.0
290
     0
  0
SCALE
  5
19E
102
{ACAD_REACTORS
330
10C
102
}
330
10C
100
AcDbScale
 70
     0
300
3/16" = 1'-0"
140
0.1875
141
12.0
290
     0
  0
SCALE
  5
19F
102
{ACAD_REACTORS
330
10C
102
}
330
10C
100
AcDbScale
 70
     0
300
1/4" = 1'-0"
140
0.25
141
12.0
290
     0
  0
SCALE
  5
1A0
102
{ACAD_REACTORS
330
10C
102
}
330
10C
100
AcDbScale
 70
     0
300
3/8" = 1'-0"
140
0.375
141
12.0
290
     0
  0
SCALE
  5
1A1
102
{ACAD_REACTORS
330
10C
102
}
330
10C
100
AcDbScale
 70
     0
300
1/2" = 1'-0"
140
0.5
141
12.0
290
     0
  0
SCALE
  5
1A2
102
{ACAD_REACTORS
330
10C
102
}
330
10C
100
AcDbScale
 70
     0
300
3/4" = 1'-0"
140
0.75
141
12.0
290
     0
  0
SCALE
  5
1A3
102
{ACAD_REACTORS
330
10C
102
}
330
10C
100
AcDbScale
 70
     0
300
1" = 1'-0"
140
1.0
141
12.0
290
     0
  0
SCALE
  5
1A4
102
{ACAD_REACTORS
330
10C
102
}
330
10C
100
AcDbScale
 70
     0
300
1-1/2" = 1'-0"
140
1.5
141
12.0
290
     0
  0
SCALE
  5
1A5
102
{ACAD_REACTORS
330
10C
102
}
330
10C
100
AcDbScale
 70
     0
300
3" = 1'-0"
140
3.0
141
12.0
290
     0
  0
SCALE
  5
1A6
102
{ACAD_REACTORS
330
10C
102
}
330
10C
100
AcDbScale
 70
     0
300
6" = 1'-0"
140
6.0
141
12.0
290
     0
  0
SCALE
  5
1A7
102
{ACAD_REACTORS
330
10C
102
}
330
10C
100
AcDbScale
 70
     0
300
1'-0" = 1'-0"
140
12.0
141
12.0
290
     0
  0
TABLESTYLE
  5
7F
102
{ACAD_XDICTIONARY
360
162
102
}
102
{ACAD_REACTORS
330
7E
102
}
330
7E
100
AcDbTableStyle
  3
Standard
 70
     0
 71
     0
 40
1.5
 41
1.5
280
     0
281
     0
  7
Standard
140
4.5
170
     2
 62
     0
 63
     7
283
     0
274
    -2
284
     1
 64
     0
275
    -2
285
     1
 65
     0
276
    -2
286
     1
 66
     0
277
    -2
287
     1
 67
     0
278
    -2
288
     1
 68
     0
279
    -2
289
     1
 69
     0
  7
Standard
140
6.0
170
     5
 62
     0
 63
     7
283
     0
274
    -2
284
     1
 64
     0
275
    -2
285
     1
 65
     0
276
    -2
286
     1
 66
     0
277
    -2
287
     1
 67
     0
278
    -2
288
     1
 68
     0
279
    -2
289
     1
 69
     0
  7
Standard
140
4.5
170
     5
 62
     0
 63
     7
283
     0
274
    -2
284
     1
 64
     0
275
    -2
285
     1
 65
     0
276
    -2
286
     1
 66
     0
277
    -2
287
     1
 67
     0
278
    -2
288
     1
 68
     0
279
    -2
289
     1
 69
     0
  0
VISUALSTYLE
  5
F5
102
{ACAD_REACTORS
330
EF
102
}
330
EF
100
AcDbVisualStyle
  2
2dWireframe
 70
     4
 71
     0
 72
     2
 73
     1
 90
        0
 40
-0.6
 41
-30.0
 62
     5
 63
     7
 74
     1
 91
        4
 64
     7
 65
   257
 75
     1
175
     1
 42
1.0
 92
        0
 66
   257
 43
1.0
 76
     1
 77
     6
 78
     2
 67
     7
 79
     5
170
     0
171
     0
290
     0
174
     0
 93
        1
 44
0.0
173
     0
291
     0
 45
0.0
1001
ACAD
1000
AcDbSavedByObjectVersion
1070
     0
  0
VISUALSTYLE
  5
F7
102
{ACAD_REACTORS
330
EF
102
}
330
EF
100
AcDbVisualStyle
  2
3D Hidden
 70
     6
 71
     1
 72
     2
 73
     2
 90
        0
 40
-0.6
 41
-30.0
 62
     5
 63
     7
 74
     2
 91
        2
 64
     7
 65
   257
 75
     2
175
     1
 42
40.0
 92
        0
 66
   257
 43
1.0
 76
     1
 77
     6
 78
     2
 67
     7
 79
     3
170
     0
171
     0
290
     0
174
     0
 93
        1
 44
0.0
173
     0
291
     0
 45
0.0
1001
ACAD
1000
AcDbSavedByObjectVersion
1070
     0
  0
VISUALSTYLE
  5
F6
102
{ACAD_REACTORS
330
EF
102
}
330
EF
100
AcDbVisualStyle
  2
3dWireframe
 70
     5
 71
     0
 72
     2
 73
     1
 90
        0
 40
-0.6
 41
-30.0
 62
     5
 63
     7
 74
     1
 91
        4
 64
     7
 65
   257
 75
     1
175
     1
 42
1.0
 92
        0
 66
   257
 43
1.0
 76
     1
 77
     6
 78
     2
 67
     7
 79
     5
170
     0
171
     0
290
     0
174
     0
 93
        1
 44
0.0
173
     0
291
     0
 45
0.0
1001
ACAD
1000
AcDbSavedByObjectVersion
1070
     0
  0
VISUALSTYLE
  5
F4
102
{ACAD_REACTORS
330
EF
102
}
330
EF
100
AcDbVisualStyle
  2
Basic
 70
     7
 71
     1
 72
     0
 73
     1
 90
        0
 40
-0.6
 41
-30.0
 62
     5
 63
     7
 74
     0
 91
        4
 64
     7
 65
   257
 75
     1
175
     1
 42
1.0
 92
        8
 66
     7
 43
1.0
 76
     1
 77
     6
 78
     2
 67
     7
 79
     5
170
     0
171
     0
290
     0
174
     0
 93
        1
 44
0.0
173
     0
291
     1
 45
0.0
1001
ACAD
1000
AcDbSavedByObjectVersion
1070
     0
  0
VISUALSTYLE
  5
FB
102
{ACAD_REACTORS
330
EF
102
}
330
EF
100
AcDbVisualStyle
  2
Brighten
 70
    12
 71
     2
 72
     2
 73
     1
 90
        0
 40
-0.6
 41
-30.0
 62
     5
 63
     7
 74
     1
 91
        4
 64
     7
 65
   257
 75
     1
175
     1
 42
1.0
 92
        8
 66
     7
 43
1.0
 76
     1
 77
     6
 78
     2
 67
     7
 79
     5
170
     0
171
     0
290
     0
174
     0
 93
        1
 44
50.0
173
     0
291
     1
 45
0.0
1001
ACAD
1000
AcDbSavedByObjectVersion
1070
     0
  0
VISUALSTYLE
  5
FF
102
{ACAD_REACTORS
330
EF
102
}
330
EF
100
AcDbVisualStyle
  2
ColorChange
 70
    16
 71
     2
 72
     2
 73
     3
 90
        0
 40
-0.6
 41
-30.0
 62
     5
 63
     8
 74
     1
 91
        4
 64
     7
 65
   257
 75
     1
175
     1
 42
1.0
 92
        8
 66
     8
 43
1.0
 76
     1
 77
     6
 78
     2
 67
     7
 79
     5
170
     0
171
     0
290
     0
174
     0
 93
        1
 44
0.0
173
     0
291
     1
 45
0.0
1001
ACAD
1000
AcDbSavedByObjectVersion
1070
     0
  0
VISUALSTYLE
  5
F8
102
{ACAD_REACTORS
330
EF
102
}
330
EF
100
AcDbVisualStyle
  2
Conceptual
 70
     9
 71
     3
 72
     2
 73
     1
 90
        0
 40
-0.6
 41
-30.0
 62
     5
 63
     7
 74
     2
 91
        2
 64
     7
 65
   257
 75
     1
175
     1
 42
40.0
 92
        8
 66
     7
 43
1.0
 76
     1
 77
     6
 78
     2
 67
     7
 79
     3
170
     0
171
     0
290
     0
174
     0
 93
        1
 44
0.0
173
     0
291
     0
 45
0.0
1001
ACAD
1000
AcDbSavedByObjectVersion
1070
     0
  0
VISUALSTYLE
  5
FA
102
{ACAD_REACTORS
330
EF
102
}
330
EF
100
AcDbVisualStyle
  2
Dim
 70
    11
 71
     2
 72
     2
 73
     1
 90
        0
 40
-0.6
 41
-30.0
 62
     5
 63
     7
 74
     1
 91
        4
 64
     7
 65
   257
 75
     1
175
     1
 42
1.0
 92
        8
 66
     7
 43
1.0
 76
     1
 77
     6
 78
     2
 67
     7
 79
     5
170
     0
171
     0
290
     0
174
     0
 93
        1
 44
-50.0
173
     0
291
     1
 45
0.0
1001
ACAD
1000
AcDbSavedByObjectVersion
1070
     0
  0
VISUALSTYLE
  5
FE
102
{ACAD_REACTORS
330
EF
102
}
330
EF
100
AcDbVisualStyle
  2
Facepattern
 70
    15
 71
     2
 72
     2
 73
     1
 90
        0
 40
-0.6
 41
-30.0
 62
     5
 63
     7
 74
     1
 91
        4
 64
     7
 65
   257
 75
     1
175
     1
 42
1.0
 92
        8
 66
     7
 43
1.0
 76
     1
 77
     6
 78
     2
 67
     7
 79
     5
170
     0
171
     0
290
     0
174
     0
 93
        1
 44
0.0
173
     0
291
     1
 45
0.0
1001
ACAD
1000
AcDbSavedByObjectVersion
1070
     0
  0
VISUALSTYLE
  5
F0
102
{ACAD_REACTORS
330
EF
102
}
330
EF
100
AcDbVisualStyle
  2
Flat
 70
     0
 71
     2
 72
     1
 73
     1
 90
        2
 40
-0.6
 41
30.0
 62
     5
 63
     7
 74
     0
 91
        4
 64
     7
 65
   257
 75
     1
175
     1
 42
1.0
 92
        8
 66
     7
 43
1.0
 76
     1
 77
     6
 78
     2
 67
     7
 79
     5
170
     0
171
     0
290
     0
174
     0
 93
        1
 44
0.0
173
     0
291
     1
 45
0.0
1001
ACAD
1000
AcDbSavedByObjectVersion
1070
     0
  0
VISUALSTYLE
  5
F1
102
{ACAD_REACTORS
330
EF
102
}
330
EF
100
AcDbVisualStyle
  2
FlatWithEdges
 70
     1
 71
     2
 72
     1
 73
     1
 90
        2
 40
-0.6
 41
30.0
 62
     5
 63
     7
 74
     1
 91
        4
 64
     7
 65
   257
 75
     1
175
     1
 42
1.0
 92
        0
 66
   257
 43
1.0
 76
     1
 77
     6
 78
     2
 67
     7
 79
     5
170
     0
171
     0
290
     0
174
     0
 93
        1
 44
0.0
173
     0
291
     1
 45
0.0
1001
ACAD
1000
AcDbSavedByObjectVersion
1070
     0
  0
VISUALSTYLE
  5
F2
102
{ACAD_REACTORS
330
EF
102
}
330
EF
100
AcDbVisualStyle
  2
Gouraud
 70
     2
 71
     2
 72
     2
 73
     1
 90
        2
 40
-0.6
 41
30.0
 62
     5
 63
     7
 74
     0
 91
        4
 64
     7
 65
   257
 75
     1
175
     1
 42
1.0
 92
        0
 66
     7
 43
1.0
 76
     1
 77
     6
 78
     2
 67
     7
 79
     5
170
     0
171
     0
290
     0
174
     0
 93
        1
 44
0.0
173
     0
291
     1
 45
0.0
1001
ACAD
1000
AcDbSavedByObjectVersion
1070
     0
  0
VISUALSTYLE
  5
F3
102
{ACAD_REACTORS
330
EF
102
}
330
EF
100
AcDbVisualStyle
  2
GouraudWithEdges
 70
     3
 71
     2
 72
     2
 73
     1
 90
        2
 40
-0.6
 41
30.0
 62
     5
 63
     7
 74
     1
 91
        4
 64
     7
 65
   257
 75
     1
175
     1
 42
1.0
 92
        0
 66
   257
 43
1.0
 76
     1
 77
     6
 78
     2
 67
     7
 79
     5
170
     0
171
     0
290
     0
174
     0
 93
        1
 44
0.0
173
     0
291
     1
 45
0.0
1001
ACAD
1000
AcDbSavedByObjectVersion
1070
     0
  0
VISUALSTYLE
  5
FD
102
{ACAD_REACTORS
330
EF
102
}
330
EF
100
AcDbVisualStyle
  2
Linepattern
 70
    14
 71
     2
 72
     2
 73
     1
 90
        0
 40
-0.6
 41
-30.0
 62
     5
 63
     7
 74
     1
 91
        4
 64
     7
 65
   257
 75
     7
175
     7
 42
1.0
 92
        8
 66
     7
 43
1.0
 76
     1
 77
     6
 78
     2
 67
     7
 79
     5
170
     0
171
     0
290
     0
174
     0
 93
        1
 44
0.0
173
     0
291
     1
 45
0.0
1001
ACAD
1000
AcDbSavedByObjectVersion
1070
     0
  0
VISUALSTYLE
  5
F9
102
{ACAD_REACTORS
330
EF
102
}
330
EF
100
AcDbVisualStyle
  2
Realistic
 70
     8
 71
     2
 72
     2
 73
     1
 90
        0
 40
-0.6
 41
-30.0
 62
     5
 63
     7
 74
     1
 91
        0
 64
     7
 65
   257
 75
     1
175
     1
 42
1.0
 92
        8
 66
     8
 43
1.0
 76
     1
 77
     6
 78
     2
 67
     7
 79
     5
170
     0
171
     0
290
     0
174
     0
 93
       13
 44
0.0
173
     0
291
     0
 45
0.0
1001
ACAD
1000
AcDbSavedByObjectVersion
1070
     0
  0
VISUALSTYLE
  5
FC
102
{ACAD_REACTORS
330
EF
102
}
330
EF
100
AcDbVisualStyle
  2
Thicken
 70
    13
 71
     2
 72
     2
 73
     1
 90
        0
 40
-0.6
 41
-30.0
 62
     5
 63
     7
 74
     1
 91
        4
 64
     7
 65
   257
 75
     1
175
     1
 42
1.0
 92
       12
 66
     7
 43
1.0
 76
     1
 77
     6
 78
     2
 67
     7
 79
     5
170
     0
171
     0
290
     0
174
     0
 93
        1
 44
0.0
173
     0
291
     1
 45
0.0
1001
ACAD
1000
AcDbSavedByObjectVersion
1070
     0
  0
DICTIONARYVAR
  5
146
102
{ACAD_REACTORS
330
5E
102
}
330
5E
100
DictionaryVariables
280
     0
  1
1:1
  0
DICTIONARYVAR
  5
145
102
{ACAD_REACTORS
330
5E
102
}
330
5E
100
DictionaryVariables
280
     0
  1
STANDARD
  0
DICTIONARYVAR
  5
84
102
{ACAD_REACTORS
330
5E
102
}
330
5E
100
DictionaryVariables
280
     0
  1
STANDARD
  0
DICTIONARYVAR
  5
5F
102
{ACAD_REACTORS
330
5E
102
}
330
5E
100
DictionaryVariables
280
     0
  1
2
  0
DICTIONARYVAR
  5
63
102
{ACAD_REACTORS
330
5E
102
}
330
5E
100
DictionaryVariables
280
     0
  1
1
  0
DICTIONARYVAR
  5
D5B
102
{ACAD_REACTORS
330
5E
102
}
330
5E
100
DictionaryVariables
280
     0
  1
0
  0
DICTIONARYVAR
  5
D59
102
{ACAD_REACTORS
330
5E
102
}
330
5E
100
DictionaryVariables
280
     0
  1
2
  0
DICTIONARYVAR
  5
D58
102
{ACAD_REACTORS
330
5E
102
}
330
5E
100
DictionaryVariables
280
     0
  1
1
  0
DICTIONARYVAR
  5
D5D
102
{ACAD_REACTORS
330
5E
102
}
330
5E
100
DictionaryVariables
280
     0
  1
80.000000
  0
DICTIONARYVAR
  5
D5C
102
{ACAD_REACTORS
330
5E
102
}
330
5E
100
DictionaryVariables
280
     0
  1
5.000000
  0
DICTIONARYVAR
  5
D5A
102
{ACAD_REACTORS
330
5E
102
}
330
5E
100
DictionaryVariables
280
     0
  1
127
  0
DICTIONARY
  5
D63
330
D3
100
AcDbDictionary
280
     1
281
     1
  3
ACAD_XREC_ROUNDTRIP
360
D64
  0
DICTIONARY
  5
D65
330
D7
100
AcDbDictionary
280
     1
281
     1
  3
ACAD_XREC_ROUNDTRIP
360
D66
  0
DICTIONARY
  5
D60
330
22
100
AcDbDictionary
280
     1
281
     1
  3
ACAD_XREC_ROUNDTRIP
360
D61
  0
DICTIONARY
  5
D69
330
ED
100
AcDbDictionary
280
     1
281
     1
  3
ACAD_XREC_ROUNDTRIP
360
D6A
  0
DICTIONARY
  5
D67
330
EC
100
AcDbDictionary
280
     1
281
     1
  3
ACAD_XREC_ROUNDTRIP
360
D68
  0
DICTIONARY
  5
173
330
EE
100
AcDbDictionary
280
     1
281
     1
  3
ACAD_XREC_ROUNDTRIP
360
D6B
  3
BUMPTILE
360
175
  3
DIFFUSETILE
360
174
  3
OPACITYTILE
360
176
  3
REFLECTIONTILE
360
177
  0
DICTIONARY
  5
162
330
7F
100
AcDbDictionary
280
     1
281
     1
  3
ACAD_ROUNDTRIP_2008_TABLESTYLE_CELLSTYLEMAP
360
D5E
  3
ACAD_XREC_ROUNDTRIP
360
D62
  0
XRECORD
  5
D64
102
{ACAD_REACTORS
330
D63
102
}
330
D63
100
AcDbXrecord
280
     1
102
SHADEPLOT
 70
     0
102
SHADEPLOTRESLEVEL
 70
     2
102
SHADEPLOTCUSTOMDPI
 70
   300
  0
XRECORD
  5
D66
102
{ACAD_REACTORS
330
D65
102
}
330
D65
100
AcDbXrecord
280
     1
102
SHADEPLOT
 70
     0
102
SHADEPLOTRESLEVEL
 70
     2
102
SHADEPLOTCUSTOMDPI
 70
   300
  0
XRECORD
  5
D61
102
{ACAD_REACTORS
330
D60
102
}
330
D60
100
AcDbXrecord
280
     1
102
SHADEPLOT
 70
     0
102
SHADEPLOTRESLEVEL
 70
     2
102
SHADEPLOTCUSTOMDPI
 70
   300
  0
XRECORD
  5
D6A
102
{ACAD_REACTORS
330
D69
102
}
330
D69
100
AcDbXrecord
280
     1
102
MATERIAL
148
0.0
149
0.0
149
0.0
 93
        0
 94
       63
282
     0
 72
     1
 77
     1
171
     1
175
     1
179
     1
273
     0
  0
XRECORD
  5
D68
102
{ACAD_REACTORS
330
D67
102
}
330
D67
100
AcDbXrecord
280
     1
102
MATERIAL
148
0.0
149
0.0
149
0.0
 93
        0
 94
       63
282
     0
 72
     1
 77
     1
171
     1
175
     1
179
     1
273
     0
  0
XRECORD
  5
D6B
102
{ACAD_REACTORS
330
173
102
}
330
173
100
AcDbXrecord
280
     1
102
MATERIAL
148
0.0
149
0.0
149
0.0
 93
        0
 94
       63
282
     0
 72
     1
 77
     1
171
     1
175
     1
179
     1
273
     0
  0
XRECORD
  5
175
102
{ACAD_REACTORS
330
173
102
}
330
173
100
AcDbXrecord
280
     1
270
     1
271
     1
  0
XRECORD
  5
174
102
{ACAD_REACTORS
330
173
102
}
330
173
100
AcDbXrecord
280
     1
270
     1
271
     1
  0
XRECORD
  5
176
102
{ACAD_REACTORS
330
173
102
}
330
173
100
AcDbXrecord
280
     1
270
     1
271
     1
  0
XRECORD
  5
177
102
{ACAD_REACTORS
330
173
102
}
330
173
100
AcDbXrecord
280
     1
270
     1
271
     1
  0
CELLSTYLEMAP
  5
D5E
102
{ACAD_REACTORS
330
162
102
}
330
162
100
AcDbCellStyleMap
 90
        3
300
CELLSTYLE
  1
TABLEFORMAT_BEGIN
 90
        5
170
     1
 91
        0
 92
    32768
 62
   257
 93
        1
300
CONTENTFORMAT
  1
CONTENTFORMAT_BEGIN
 90
        0
 91
        0
 92
      512
 93
        0
300

 40
0.0
140
1.0
 94
        5
 62
     0
340
11
144
6.0
309
CONTENTFORMAT_END
171
     1
301
MARGIN
  1
CELLMARGIN_BEGIN
 40
1.5
 40
1.5
 40
1.5
 40
1.5
 40
4.5
 40
4.5
309
CELLMARGIN_END
 94
        6
 95
        1
302
GRIDFORMAT
  1
GRIDFORMAT_BEGIN
 90
        0
 91
        1
 62
     0
 92
       -2
340
14
 93
        0
 40
1.125
309
GRIDFORMAT_END
 95
        2
302
GRIDFORMAT
  1
GRIDFORMAT_BEGIN
 90
        0
 91
        1
 62
     0
 92
       -2
340
14
 93
        0
 40
1.125
309
GRIDFORMAT_END
 95
        4
302
GRIDFORMAT
  1
GRIDFORMAT_BEGIN
 90
        0
 91
        1
 62
     0
 92
       -2
340
14
 93
        0
 40
1.125
309
GRIDFORMAT_END
 95
        8
302
GRIDFORMAT
  1
GRIDFORMAT_BEGIN
 90
        0
 91
        1
 62
     0
 92
       -2
340
14
 93
        0
 40
1.125
309
GRIDFORMAT_END
 95
       16
302
GRIDFORMAT
  1
GRIDFORMAT_BEGIN
 90
        0
 91
        1
 62
     0
 92
       -2
340
14
 93
        0
 40
1.125
309
GRIDFORMAT_END
 95
       32
302
GRIDFORMAT
  1
GRIDFORMAT_BEGIN
 90
        0
 91
        1
 62
     0
 92
       -2
340
14
 93
        0
 40
1.125
309
GRIDFORMAT_END
309
TABLEFORMAT_END
  1
CELLSTYLE_BEGIN
 90
        1
 91
        1
300
_TITLE
309
CELLSTYLE_END
300
CELLSTYLE
  1
TABLEFORMAT_BEGIN
 90
        5
170
     1
 91
        0
 92
        0
 62
   257
 93
        1
300
CONTENTFORMAT
  1
CONTENTFORMAT_BEGIN
 90
        0
 91
        0
 92
      512
 93
        0
300

 40
0.0
140
1.0
 94
        5
 62
     0
340
11
144
4.5
309
CONTENTFORMAT_END
171
     1
301
MARGIN
  1
CELLMARGIN_BEGIN
 40
1.5
 40
1.5
 40
1.5
 40
1.5
 40
4.5
 40
4.5
309
CELLMARGIN_END
 94
        6
 95
        1
302
GRIDFORMAT
  1
GRIDFORMAT_BEGIN
 90
        0
 91
        1
 62
     0
 92
       -2
340
14
 93
        0
 40
1.125
309
GRIDFORMAT_END
 95
        2
302
GRIDFORMAT
  1
GRIDFORMAT_BEGIN
 90
        0
 91
        1
 62
     0
 92
       -2
340
14
 93
        0
 40
1.125
309
GRIDFORMAT_END
 95
        4
302
GRIDFORMAT
  1
GRIDFORMAT_BEGIN
 90
        0
 91
        1
 62
     0
 92
       -2
340
14
 93
        0
 40
1.125
309
GRIDFORMAT_END
 95
        8
302
GRIDFORMAT
  1
GRIDFORMAT_BEGIN
 90
        0
 91
        1
 62
     0
 92
       -2
340
14
 93
        0
 40
1.125
309
GRIDFORMAT_END
 95
       16
302
GRIDFORMAT
  1
GRIDFORMAT_BEGIN
 90
        0
 91
        1
 62
     0
 92
       -2
340
14
 93
        0
 40
1.125
309
GRIDFORMAT_END
 95
       32
302
GRIDFORMAT
  1
GRIDFORMAT_BEGIN
 90
        0
 91
        1
 62
     0
 92
       -2
340
14
 93
        0
 40
1.125
309
GRIDFORMAT_END
309
TABLEFORMAT_END
  1
CELLSTYLE_BEGIN
 90
        2
 91
        1
300
_HEADER
309
CELLSTYLE_END
300
CELLSTYLE
  1
TABLEFORMAT_BEGIN
 90
        5
170
     1
 91
        0
 92
        0
 62
   257
 93
        1
300
CONTENTFORMAT
  1
CONTENTFORMAT_BEGIN
 90
        0
 91
        0
 92
      512
 93
        0
300

 40
0.0
140
1.0
 94
        2
 62
     0
340
11
144
4.5
309
CONTENTFORMAT_END
171
     1
301
MARGIN
  1
CELLMARGIN_BEGIN
 40
1.5
 40
1.5
 40
1.5
 40
1.5
 40
4.5
 40
4.5
309
CELLMARGIN_END
 94
        6
 95
        1
302
GRIDFORMAT
  1
GRIDFORMAT_BEGIN
 90
        0
 91
        1
 62
     0
 92
       -2
340
14
 93
        0
 40
1.125
309
GRIDFORMAT_END
 95
        2
302
GRIDFORMAT
  1
GRIDFORMAT_BEGIN
 90
        0
 91
        1
 62
     0
 92
       -2
340
14
 93
        0
 40
1.125
309
GRIDFORMAT_END
 95
        4
302
GRIDFORMAT
  1
GRIDFORMAT_BEGIN
 90
        0
 91
        1
 62
     0
 92
       -2
340
14
 93
        0
 40
1.125
309
GRIDFORMAT_END
 95
        8
302
GRIDFORMAT
  1
GRIDFORMAT_BEGIN
 90
        0
 91
        1
 62
     0
 92
       -2
340
14
 93
        0
 40
1.125
309
GRIDFORMAT_END
 95
       16
302
GRIDFORMAT
  1
GRIDFORMAT_BEGIN
 90
        0
 91
        1
 62
     0
 92
       -2
340
14
 93
        0
 40
1.125
309
GRIDFORMAT_END
 95
       32
302
GRIDFORMAT
  1
GRIDFORMAT_BEGIN
 90
        0
 91
        1
 62
     0
 92
       -2
340
14
 93
        0
 40
1.125
309
GRIDFORMAT_END
309
TABLEFORMAT_END
  1
CELLSTYLE_BEGIN
 90
        3
 91
        2
300
_DATA
309
CELLSTYLE_END
  0
XRECORD
  5
D62
102
{ACAD_REACTORS
330
162
102
}
330
162
100
AcDbXrecord
280
     1
102
ACAD_ROUNDTRIP_PRE2007_TABLESTYLE
 90
      512
 91
        0
  1

 92
      512
 93
        0
  2

 94
      512
 95
        0
  3

  0
ENDSEC
  0
EOF
