  0
SECTION
  2
HEADER
  9
$ACADVER
  1
AC1015
  9
$ACADMAINTVER
 70
    20
  9
$DWGCODEPAGE
  3
ANSI_1254
  9
$INSBASE
 10
0.0
 20
0.0
 30
0.0
  9
$EXTMIN
 10
1075.967978911056
 20
1429.29995556198
 30
0.0
  9
$EXTMAX
 10
1164.021055344314
 20
1469.429976304314
 30
0.0
  9
$LIMMIN
 10
0.0
 20
0.0
  9
$LIMMAX
 10
420.0
 20
297.0
  9
$ORTHOMODE
 70
     1
  9
$REGENMODE
 70
     1
  9
$FILLMODE
 70
     1
  9
$QTEXTMODE
 70
     0
  9
$MIRRTEXT
 70
     0
  9
$LTSCALE
 40
1.0
  9
$ATTMODE
 70
     1
  9
$TEXTSIZE
 40
2.5
  9
$TRACEWID
 40
1.0
  9
$TEXTSTYLE
  7
Standard
  9
$CLAYER
  8
0
  9
$CELTYPE
  6
ByLayer
  9
$CECOLOR
 62
   256
  9
$CELTSCALE
 40
1.0
  9
$DISPSILH
 70
     0
  9
$DIMSCALE
 40
1.0
  9
$DIMASZ
 40
2.5
  9
$DIMEXO
 40
0.625
  9
$DIMDLI
 40
3.75
  9
$DIMRND
 40
0.0
  9
$DIMDLE
 40
0.0
  9
$DIMEXE
 40
1.25
  9
$DIMTP
 40
0.0
  9
$DIMTM
 40
0.0
  9
$DIMTXT
 40
2.5
  9
$DIMCEN
 40
2.5
  9
$DIMTSZ
 40
0.0
  9
$DIMTOL
 70
     0
  9
$DIMLIM
 70
     0
  9
$DIMTIH
 70
     0
  9
$DIMTOH
 70
     0
  9
$DIMSE1
 70
     0
  9
$DIMSE2
 70
     0
  9
$DIMTAD
 70
     1
  9
$DIMZIN
 70
     8
  9
$DIMBLK
  1

  9
$DIMASO
 70
     1
  9
$DIMSHO
 70
     1
  9
$DIMPOST
  1

  9
$DIMAPOST
  1

  9
$DIMALT
 70
     0
  9
$DIMALTD
 70
     3
  9
$DIMALTF
 40
0.03937007874016
  9
$DIMLFAC
 40
1.0
  9
$DIMTOFL
 70
     1
  9
$DIMTVP
 40
0.0
  9
$DIMTIX
 70
     0
  9
$DIMSOXD
 70
     0
  9
$DIMSAH
 70
     0
  9
$DIMBLK1
  1

  9
$DIMBLK2
  1

  9
$DIMSTYLE
  2
ISO-25
  9
$DIMCLRD
 70
     0
  9
$DIMCLRE
 70
     0
  9
$DIMCLRT
 70
     0
  9
$DIMTFAC
 40
1.0
  9
$DIMGAP
 40
0.625
  9
$DIMJUST
 70
     0
  9
$DIMSD1
 70
     0
  9
$DIMSD2
 70
     0
  9
$DIMTOLJ
 70
     0
  9
$DIMTZIN
 70
     8
  9
$DIMALTZ
 70
     0
  9
$DIMALTTZ
 70
     0
  9
$DIMUPT
 70
     0
  9
$DIMDEC
 70
     2
  9
$DIMTDEC
 70
     2
  9
$DIMALTU
 70
     2
  9
$DIMALTTD
 70
     3
  9
$DIMTXSTY
  7
Standard
  9
$DIMAUNIT
 70
     0
  9
$DIMADEC
 70
     0
  9
$DIMALTRND
 40
0.0
  9
$DIMAZIN
 70
     0
  9
$DIMDSEP
 70
    44
  9
$DIMATFIT
 70
     3
  9
$DIMFRAC
 70
     0
  9
$DIMLDRBLK
  1

  9
$DIMLUNIT
 70
     2
  9
$DIMLWD
 70
    -2
  9
$DIMLWE
 70
    -2
  9
$DIMTMOVE
 70
     0
  9
$LUNITS
 70
     2
  9
$LUPREC
 70
     4
  9
$SKETCHINC
 40
1.0
  9
$FILLETRAD
 40
0.0
  9
$AUNITS
 70
     0
  9
$AUPREC
 70
     0
  9
$MENU
  1
.
  9
$ELEVATION
 40
0.0
  9
$PELEVATION
 40
0.0
  9
$THICKNESS
 40
0.0
  9
$LIMCHECK
 70
     0
  9
$CHAMFERA
 40
0.0
  9
$CHAMFERB
 40
0.0
  9
$CHAMFERC
 40
0.0
  9
$CHAMFERD
 40
0.0
  9
$SKPOLY
 70
     0
  9
$TDCREATE
 40
2458569.641423183
  9
$TDUCREATE
 40
2458569.516423183
  9
$TDUPDATE
 40
2458956.433144005
  9
$TDUUPDATE
 40
2458956.308144005
  9
$TDINDWG
 40
0.0048137616
  9
$TDUSRTIMER
 40
0.0048137616
  9
$USRTIMER
 70
     1
  9
$ANGBASE
 50
0.0
  9
$ANGDIR
 70
     0
  9
$PDMODE
 70
     0
  9
$PDSIZE
 40
0.0
  9
$PLINEWID
 40
0.0
  9
$SPLFRAME
 70
     0
  9
$SPLINETYPE
 70
     6
  9
$SPLINESEGS
 70
     8
  9
$HANDSEED
  5
450
  9
$SURFTAB1
 70
     6
  9
$SURFTAB2
 70
     6
  9
$SURFTYPE
 70
     6
  9
$SURFU
 70
     6
  9
$SURFV
 70
     6
  9
$UCSBASE
  2

  9
$UCSNAME
  2

  9
$UCSORG
 10
0.0
 20
0.0
 30
0.0
  9
$UCSXDIR
 10
1.0
 20
0.0
 30
0.0
  9
$UCSYDIR
 10
0.0
 20
1.0
 30
0.0
  9
$UCSORTHOREF
  2

  9
$UCSORTHOVIEW
 70
     0
  9
$UCSORGTOP
 10
0.0
 20
0.0
 30
0.0
  9
$UCSORGBOTTOM
 10
0.0
 20
0.0
 30
0.0
  9
$UCSORGLEFT
 10
0.0
 20
0.0
 30
0.0
  9
$UCSORGRIGHT
 10
0.0
 20
0.0
 30
0.0
  9
$UCSORGFRONT
 10
0.0
 20
0.0
 30
0.0
  9
$UCSORGBACK
 10
0.0
 20
0.0
 30
0.0
  9
$PUCSBASE
  2

  9
$PUCSNAME
  2

  9
$PUCSORG
 10
0.0
 20
0.0
 30
0.0
  9
$PUCSXDIR
 10
1.0
 20
0.0
 30
0.0
  9
$PUCSYDIR
 10
0.0
 20
1.0
 30
0.0
  9
$PUCSORTHOREF
  2

  9
$PUCSORTHOVIEW
 70
     0
  9
$PUCSORGTOP
 10
0.0
 20
0.0
 30
0.0
  9
$PUCSORGBOTTOM
 10
0.0
 20
0.0
 30
0.0
  9
$PUCSORGLEFT
 10
0.0
 20
0.0
 30
0.0
  9
$PUCSORGRIGHT
 10
0.0
 20
0.0
 30
0.0
  9
$PUCSORGFRONT
 10
0.0
 20
0.0
 30
0.0
  9
$PUCSORGBACK
 10
0.0
 20
0.0
 30
0.0
  9
$USERI1
 70
     0
  9
$USERI2
 70
     0
  9
$USERI3
 70
     0
  9
$USERI4
 70
     0
  9
$USERI5
 70
     0
  9
$USERR1
 40
0.0
  9
$USERR2
 40
0.0
  9
$USERR3
 40
0.0
  9
$USERR4
 40
0.0
  9
$USERR5
 40
0.0
  9
$WORLDVIEW
 70
     1
  9
$SHADEDGE
 70
     3
  9
$SHADEDIF
 70
    70
  9
$TILEMODE
 70
     1
  9
$MAXACTVP
 70
    64
  9
$PINSBASE
 10
0.0
 20
0.0
 30
0.0
  9
$PLIMCHECK
 70
     0
  9
$PEXTMIN
 10
0.0
 20
0.0
 30
0.0
  9
$PEXTMAX
 10
0.0
 20
0.0
 30
0.0
  9
$PLIMMIN
 10
0.0
 20
0.0
  9
$PLIMMAX
 10
12.0
 20
9.0
  9
$UNITMODE
 70
     0
  9
$VISRETAIN
 70
     1
  9
$PLINEGEN
 70
     0
  9
$PSLTSCALE
 70
     1
  9
$TREEDEPTH
 70
  3020
  9
$CMLSTYLE
  2
Standard
  9
$CMLJUST
 70
     0
  9
$CMLSCALE
 40
20.0
  9
$PROXYGRAPHICS
 70
     1
  9
$MEASUREMENT
 70
     1
  9
$CELWEIGHT
370
    -1
  9
$ENDCAPS
280
     0
  9
$JOINSTYLE
280
     0
  9
$LWDISPLAY
290
     0
  9
$INSUNITS
 70
     4
  9
$HYPERLINKBASE
  1

  9
$STYLESHEET
  1

  9
$XEDIT
290
     1
  9
$CEPSNTYPE
380
     0
  9
$PSTYLEMODE
290
     1
  9
$FINGERPRINTGUID
  2
{A10BAF07-9FE1-4452-9B7A-531B2A44860E}
  9
$VERSIONGUID
  2
{40F0955F-82D3-476C-BF22-F7B1C3BE5C5F}
  9
$EXTNAMES
290
     1
  9
$PSVPSCALE
 40
0.0
  9
$OLESTARTUP
290
     0
  0
ENDSEC
  0
SECTION
  2
CLASSES
  0
CLASS
  1
ACDBDICTIONARYWDFLT
  2
AcDbDictionaryWithDefault
  3
ObjectDBX Classes
 90
        0
280
     0
281
     0
  0
CLASS
  1
ACDBPLACEHOLDER
  2
AcDbPlaceHolder
  3
ObjectDBX Classes
 90
        0
280
     0
281
     0
  0
CLASS
  1
LAYOUT
  2
AcDbLayout
  3
ObjectDBX Classes
 90
        0
280
     0
281
     0
  0
CLASS
  1
DICTIONARYVAR
  2
AcDbDictionaryVar
  3
ObjectDBX Classes
 90
        0
280
     0
281
     0
  0
CLASS
  1
TABLESTYLE
  2
AcDbTableStyle
  3
ObjectDBX Classes
 90
     4095
280
     0
281
     0
  0
CLASS
  1
MATERIAL
  2
AcDbMaterial
  3
ObjectDBX Classes
 90
     1153
280
     0
281
     0
  0
CLASS
  1
VISUALSTYLE
  2
AcDbVisualStyle
  3
ObjectDBX Classes
 90
     4095
280
     0
281
     0
  0
CLASS
  1
SCALE
  2
AcDbScale
  3
ObjectDBX Classes
 90
     1153
280
     0
281
     0
  0
CLASS
  1
MLEADERSTYLE
  2
AcDbMLeaderStyle
  3
ACDB_MLEADERSTYLE_CLASS
 90
     4095
280
     0
281
     0
  0
CLASS
  1
CELLSTYLEMAP
  2
AcDbCellStyleMap
  3
ObjectDBX Classes
 90
     1152
280
     0
281
     0
  0
CLASS
  1
ACAD_EVALUATION_GRAPH
  2
AcDbEvalGraph
  3
ObjectDBX Classes
 90
    33921
280
     0
281
     0
  0
CLASS
  1
ACAECUSTOBJ
  2
AcAeEditorObj
  3
AcAeEditorObj
 90
    33792
280
     0
281
     0
  0
CLASS
  1
ACDB_DYNAMICBLOCKPURGEPREVENTER_VERSION
  2
AcDbDynamicBlockPurgePreventer
  3
ObjectDBX Classes
 90
    33921
280
     0
281
     0
  0
ENDSEC
  0
SECTION
  2
TABLES
  0
TABLE
  2
VPORT
  5
8
330
0
100
AcDbSymbolTable
 70
     1
  0
VPORT
  5
EA
330
8
100
AcDbSymbolTableRecord
100
AcDbViewportTableRecord
  2
*Active
 70
     0
 10
0.0
 20
0.0
 11
1.0
 21
1.0
 12
1116.856923130618
 22
1453.759361879089
 13
0.0
 23
0.0
 14
10.0
 24
10.0
 15
10.0
 25
10.0
 16
0.0
 26
0.0
 36
1.0
 17
0.0
 27
0.0
 37
0.0
 40
79.86637192687021
 41
1.903110047846889
 42
50.0
 43
0.0
 44
0.0
 50
0.0
 51
0.0
 71
     0
 72
  1000
 73
     1
 74
     3
 75
     0
 76
     0
 77
     0
 78
     0
281
     0
 65
     1
110
0.0
120
0.0
130
0.0
111
1.0
121
0.0
131
0.0
112
0.0
122
1.0
132
0.0
 79
     0
146
0.0
  0
ENDTAB
  0
TABLE
  2
LTYPE
  5
5
330
0
100
AcDbSymbolTable
 70
     1
  0
LTYPE
  5
14
330
5
100
AcDbSymbolTableRecord
100
AcDbLinetypeTableRecord
  2
ByBlock
 70
     0
  3

 72
    65
 73
     0
 40
0.0
  0
LTYPE
  5
15
330
5
100
AcDbSymbolTableRecord
100
AcDbLinetypeTableRecord
  2
ByLayer
 70
     0
  3

 72
    65
 73
     0
 40
0.0
  0
LTYPE
  5
16
330
5
100
AcDbSymbolTableRecord
100
AcDbLinetypeTableRecord
  2
Continuous
 70
     0
  3
Solid line
 72
    65
 73
     0
 40
0.0
  0
ENDTAB
  0
TABLE
  2
LAYER
  5
2
330
0
100
AcDbSymbolTable
 70
     1
  0
LAYER
  5
10
102
{ACAD_XDICTIONARY
360
13C
102
}
330
2
100
AcDbSymbolTableRecord
100
AcDbLayerTableRecord
  2
0
 70
     0
 62
     7
  6
Continuous
370
    -3
390
F
  0
ENDTAB
  0
TABLE
  2
STYLE
  5
3
330
0
100
AcDbSymbolTable
 70
     2
  0
STYLE
  5
11
330
3
100
AcDbSymbolTableRecord
100
AcDbTextStyleTableRecord
  2
Standard
 70
     0
 40
0.0
 41
1.0
 50
0.0
 71
     0
 42
2.5
  3
txt
  4

  0
STYLE
  5
132
330
3
100
AcDbSymbolTableRecord
100
AcDbTextStyleTableRecord
  2
Annotative
 70
     0
 40
0.0
 41
1.0
 50
0.0
 71
     0
 42
2.5
  3
txt.shx
  4

1001
AcadAnnotative
1000
AnnotativeData
1002
{
1070
     1
1070
     1
1002
}
  0
ENDTAB
  0
TABLE
  2
VIEW
  5
6
330
0
100
AcDbSymbolTable
 70
     0
  0
ENDTAB
  0
TABLE
  2
UCS
  5
7
330
0
100
AcDbSymbolTable
 70
     0
  0
ENDTAB
  0
TABLE
  2
APPID
  5
9
330
0
100
AcDbSymbolTable
 70
    11
  0
APPID
  5
12
330
9
100
AcDbSymbolTableRecord
100
AcDbRegAppTableRecord
  2
ACAD
 70
     0
  0
APPID
  5
9E
330
9
100
AcDbSymbolTableRecord
100
AcDbRegAppTableRecord
  2
ACAD_PSEXT
 70
     0
  0
APPID
  5
133
330
9
100
AcDbSymbolTableRecord
100
AcDbRegAppTableRecord
  2
AcadAnnoPO
 70
     0
  0
APPID
  5
134
330
9
100
AcDbSymbolTableRecord
100
AcDbRegAppTableRecord
  2
AcadAnnotative
 70
     0
  0
APPID
  5
135
330
9
100
AcDbSymbolTableRecord
100
AcDbRegAppTableRecord
  2
ACAD_DSTYLE_DIMJAG
 70
     0
  0
APPID
  5
136
330
9
100
AcDbSymbolTableRecord
100
AcDbRegAppTableRecord
  2
ACAD_DSTYLE_DIMTALN
 70
     0
  0
APPID
  5
165
330
9
100
AcDbSymbolTableRecord
100
AcDbRegAppTableRecord
  2
ACAD_MLEADERVER
 70
     0
  0
APPID
  5
374
330
9
100
AcDbSymbolTableRecord
100
AcDbRegAppTableRecord
  2
ACAUTHENVIRON
 70
     0
  0
APPID
  5
378
330
9
100
AcDbSymbolTableRecord
100
AcDbRegAppTableRecord
  2
AcDbDynamicBlockTrueName
 70
     0
  0
APPID
  5
379
330
9
100
AcDbSymbolTableRecord
100
AcDbRegAppTableRecord
  2
AcDbDynamicBlockGUID
 70
     0
  0
APPID
  5
37B
330
9
100
AcDbSymbolTableRecord
100
AcDbRegAppTableRecord
  2
AcDbBlockRepETag
 70
     0
  0
ENDTAB
  0
TABLE
  2
DIMSTYLE
  5
A
330
0
100
AcDbSymbolTable
 70
     2
100
AcDbDimStyleTable
 71
     2
340
27
340
137
  0
DIMSTYLE
105
27
330
A
100
AcDbSymbolTableRecord
100
AcDbDimStyleTableRecord
  2
ISO-25
 70
     0
 41
2.5
 42
0.625
 43
3.75
 44
1.25
 73
     0
 74
     0
 77
     1
 78
     8
140
2.5
141
2.5
143
0.03937007874016
147
0.625
171
     3
172
     1
271
     2
272
     2
274
     3
278
    44
283
     0
284
     8
340
11
  0
DIMSTYLE
105
137
330
A
100
AcDbSymbolTableRecord
100
AcDbDimStyleTableRecord
  2
Annotative
 70
     0
 40
0.0
 41
2.5
 42
0.625
 43
3.75
 44
1.25
 73
     0
 74
     0
 77
     1
 78
     8
140
2.5
141
2.5
143
0.03937007874016
147
0.625
171
     3
172
     1
271
     2
272
     2
274
     3
278
    44
283
     0
284
     8
340
11
1001
AcadAnnotative
1000
AnnotativeData
1002
{
1070
     1
1070
     1
1002
}
1001
ACAD_DSTYLE_DIMJAG
1070
   388
1040
1.5
1001
ACAD_DSTYLE_DIMTALN
1070
   392
1070
     0
  0
ENDTAB
  0
TABLE
  2
BLOCK_RECORD
  5
1
330
0
100
AcDbSymbolTable
 70
     4
  0
BLOCK_RECORD
  5
1F
330
1
100
AcDbSymbolTableRecord
100
AcDbBlockTableRecord
  2
*Model_Space
340
22
  0
BLOCK_RECORD
  5
D2
330
1
100
AcDbSymbolTableRecord
100
AcDbBlockTableRecord
  2
*Paper_Space
340
D3
  0
BLOCK_RECORD
  5
D6
330
1
100
AcDbSymbolTableRecord
100
AcDbBlockTableRecord
  2
*Paper_Space0
340
D7
  0
BLOCK_RECORD
  5
1AD
102
{ACAD_XDICTIONARY
360
3FF
102
}
330
1
100
AcDbSymbolTableRecord
100
AcDbBlockTableRecord
  2
1
340
0
310
2800000020000000200000000100080000000000000400000000000000000000000000000000000000000000000080000080000000808000800000008000800080800000C0C0C000C0DCC000F0CAA6000020400000206000002080000020A0000020C0000020E00000400000004020000040400000406000004080000040A0
310
000040C0000040E00000600000006020000060400000606000006080000060A0000060C0000060E00000800000008020000080400000806000008080000080A0000080C0000080E00000A0000000A0200000A0400000A0600000A0800000A0A00000A0C00000A0E00000C0000000C0200000C0400000C0600000C0800000C0
310
A00000C0C00000C0E00000E0000000E0200000E0400000E0600000E0800000E0A00000E0C00000E0E00040000000400020004000400040006000400080004000A0004000C0004000E00040200000402020004020400040206000402080004020A0004020C0004020E000404000004040200040404000404060004040800040
310
40A0004040C0004040E00040600000406020004060400040606000406080004060A0004060C0004060E00040800000408020004080400040806000408080004080A0004080C0004080E00040A0000040A0200040A0400040A0600040A0800040A0A00040A0C00040A0E00040C0000040C0200040C0400040C0600040C08000
310
40C0A00040C0C00040C0E00040E0000040E0200040E0400040E0600040E0800040E0A00040E0C00040E0E00080000000800020008000400080006000800080008000A0008000C0008000E00080200000802020008020400080206000802080008020A0008020C0008020E00080400000804020008040400080406000804080
310
008040A0008040C0008040E00080600000806020008060400080606000806080008060A0008060C0008060E00080800000808020008080400080806000808080008080A0008080C0008080E00080A0000080A0200080A0400080A0600080A0800080A0A00080A0C00080A0E00080C0000080C0200080C0400080C0600080C0
310
800080C0A00080C0C00080C0E00080E0000080E0200080E0400080E0600080E0800080E0A00080E0C00080E0E000C0000000C0002000C0004000C0006000C0008000C000A000C000C000C000E000C0200000C0202000C0204000C0206000C0208000C020A000C020C000C020E000C0400000C0402000C0404000C0406000C0
310
408000C040A000C040C000C040E000C0600000C0602000C0604000C0606000C0608000C060A000C060C000C060E000C0800000C0802000C0804000C0806000C0808000C080A000C080C000C080E000C0A00000C0A02000C0A04000C0A06000C0A08000C0A0A000C0A0C000C0A0E000C0C00000C0C02000C0C04000C0C06000
310
C0C08000C0C0A000F0FBFF00A4A0A000808080000000FF0000FF000000FFFF00FF000000FF00FF00FFFF0000FFFFFF0000000000000000000000000000000000000000000000000000000000000000000000000000000000000000000000000000000000000000000000000000000000000000000000000000000000000000
310
000000000000000000000000000000000000FFFFFFFF00000000000000000000000000000000000000000000FFFFFFFF0000FF00FFFFFFFFFFFFFFFFFFFFFFFFFFFFFFFFFFFFFFFFFFFFFFFFFFFF00FF0000FFFF000000000000000000000000FFFF000000000000000000000000FFFF0000FF000000000000000000000000
310
00FFFF00000000000000000000000000FF0000FFFFFFFFFFFFFFFFFFFFFFFFFFFFFFFFFFFFFFFFFFFFFFFFFFFFFFFFFFFF0000FF00000000000000000000000000FFFF00000000000000000000000000FF0000FF00000000000000000000000000FFFF00000000000000000000000000FF0000FF0000000000FFFFFFFFFFFF
310
0000FFFF0000FFFFFFFFFFFF0000000000FF0000FF0000000000FF00000000FF0000FFFF0000FF00000000FF0000000000FF0000FF0000000000FF00000000FF0000FFFF0000FF00000000FF0000000000FF0000FF0000000000FF00000000FF0000FFFF0000FF00000000FF0000000000FF0000FF0000000000FF00000000
310
FF0000FFFF0000FF00000000FF0000000000FF0000FF0000000000FF00000000FF0000FFFF0000FF00000000FF0000000000FF0000FF0000000000FF00000000FF0000FFFF0000FF00000000FF0000000000FF0000FF0000000000FF00000000FF0000FFFF0000FF00000000FF0000000000FF0000FFFFFFFFFFFFFF000000
310
00FFFFFFFFFFFFFFFF00000000FFFFFFFFFFFFFF0000FFFFFFFFFFFFFF00000000FFFFFFFFFFFFFFFF00000000FFFFFFFFFFFFFF0000FFFF00000000FF00000000FF0000FFFF0000FF00000000FF00000000FFFF0000FFFF00000000FF00000000FF0000FFFF0000FF00000000FF00000000FFFF0000FFFF00000000FFFFFF
310
FFFFFF0000FFFF0000FFFFFFFFFFFF00000000FFFF0000FFFF000000000000000000000000FFFF000000000000000000000000FFFF0000FFFF000000000000000000000000FFFF000000000000000000000000FFFF0000FFFF0000000000000000000000000000000000000000000000000000FFFF0000FFFF000000000000
310
0000000000000000000000000000000000000000FFFF0000FFFFFFFFFFFFFFFFFFFFFFFFFFFFFFFFFFFFFFFFFFFFFFFFFFFFFFFFFFFF0000FFFF0000000000000000000000000000000000000000000000000000FFFF0000FFFF0000000000000000000000000000000000000000000000000000FFFF0000FFFFFFFFFFFFFF
310
FFFFFFFFFFFFFFFFFFFFFFFFFFFFFFFFFFFFFFFFFFFFFF000000000000000000000000000000000000000000000000000000000000000000
102
{BLKREFS
331
348
102
}
1001
AcDbDynamicBlockGUID
1000
{F94EC159-2A81-4B52-BF47-F63DF2339F09}
1001
AcDbBlockRepETag
1070
     1
1071
       71
1001
ACAD
1000
DesignCenter Data
1002
{
1070
     1
1070
     4
1002
}
  0
BLOCK_RECORD
  5
1F7
102
{ACAD_XDICTIONARY
360
432
102
}
330
1
100
AcDbSymbolTableRecord
100
AcDbBlockTableRecord
  2
2
340
0
310
2800000020000000200000000100080000000000000400000000000000000000000000000000000000000000000080000080000000808000800000008000800080800000C0C0C000C0DCC000F0CAA6000020400000206000002080000020A0000020C0000020E00000400000004020000040400000406000004080000040A0
310
000040C0000040E00000600000006020000060400000606000006080000060A0000060C0000060E00000800000008020000080400000806000008080000080A0000080C0000080E00000A0000000A0200000A0400000A0600000A0800000A0A00000A0C00000A0E00000C0000000C0200000C0400000C0600000C0800000C0
310
A00000C0C00000C0E00000E0000000E0200000E0400000E0600000E0800000E0A00000E0C00000E0E00040000000400020004000400040006000400080004000A0004000C0004000E00040200000402020004020400040206000402080004020A0004020C0004020E000404000004040200040404000404060004040800040
310
40A0004040C0004040E00040600000406020004060400040606000406080004060A0004060C0004060E00040800000408020004080400040806000408080004080A0004080C0004080E00040A0000040A0200040A0400040A0600040A0800040A0A00040A0C00040A0E00040C0000040C0200040C0400040C0600040C08000
310
40C0A00040C0C00040C0E00040E0000040E0200040E0400040E0600040E0800040E0A00040E0C00040E0E00080000000800020008000400080006000800080008000A0008000C0008000E00080200000802020008020400080206000802080008020A0008020C0008020E00080400000804020008040400080406000804080
310
008040A0008040C0008040E00080600000806020008060400080606000806080008060A0008060C0008060E00080800000808020008080400080806000808080008080A0008080C0008080E00080A0000080A0200080A0400080A0600080A0800080A0A00080A0C00080A0E00080C0000080C0200080C0400080C0600080C0
310
800080C0A00080C0C00080C0E00080E0000080E0200080E0400080E0600080E0800080E0A00080E0C00080E0E000C0000000C0002000C0004000C0006000C0008000C000A000C000C000C000E000C0200000C0202000C0204000C0206000C0208000C020A000C020C000C020E000C0400000C0402000C0404000C0406000C0
310
408000C040A000C040C000C040E000C0600000C0602000C0604000C0606000C0608000C060A000C060C000C060E000C0800000C0802000C0804000C0806000C0808000C080A000C080C000C080E000C0A00000C0A02000C0A04000C0A06000C0A08000C0A0A000C0A0C000C0A0E000C0C00000C0C02000C0C04000C0C06000
310
C0C08000C0C0A000F0FBFF00A4A0A000808080000000FF0000FF000000FFFF00FF000000FF00FF00FFFF0000FFFFFF0000000000000000000000000000000000000000000000000000000000000000000000000000000000000000000000000000000000000000000000000000000000000000000000000000000000000000
310
00000000000000000000000000000000000000000000000000000000000000000000000000000000000000000000000000000000000000000000000000000000000000000000000000000000000000000000000000000000000000000000000000000000000000000000000000000000000000000000000000000000000000
310
00000000000000000000000000000000000000000000000000000000000000000000000000000000000000000000000000000000000000000000000000000000000000000000000000000000000000000000000000000000000000000000000000000000000000000000000000000000000000000000000000000000000000
310
0000FFFF000000000000000000000000000000000000000000000000000000000000FFFF00000000000000000000000000000000FFFFFFFFFFFFFFFFFFFFFFFFFFFFFFFFFFFFFFFFFFFFFFFFFFFFFFFFFFFF0000FF00000000FF000000000000FF00FFFF00FF000000000000FF00000000FF0000FF00000000FF0000000000
310
00FF00FFFF00FF000000000000FF00000000FF0000FFFFFFFFFFFFFFFFFFFFFFFFFFFFFFFFFFFFFFFFFFFFFFFFFFFFFFFFFFFF0000FF00000000000000000000000000000000000000000000000000000000FF0000FF00000000000000000000000000000000000000000000000000000000FF0000FFFFFFFFFFFFFFFFFFFF
310
FFFFFFFFFFFFFFFFFFFFFFFFFFFFFFFFFFFFFFFF0000FF0000FF00000000000000000000000000000000000000000000FF0000FF0000FF0000FF00000000000000000000000000000000000000000000FF0000FF0000FFFFFFFF00000000000000000000000000000000000000000000FFFFFFFF0000000000000000000000
310
00000000000000000000000000000000000000000000000000000000000000000000000000000000000000000000000000000000000000000000000000000000000000000000000000000000000000000000000000000000000000000000000000000000000000000000000000000000000000000000000000000000000000
310
00000000000000000000000000000000000000000000000000000000000000000000000000000000000000000000000000000000000000000000000000000000000000000000000000000000000000000000000000000000000000000000000000000000000000000000000000000000000000000000000000000000000000
310
0000000000000000000000000000000000000000000000000000000000000000000000000000000000000000000000000000000000000000
102
{BLKREFS
331
349
102
}
1001
AcDbDynamicBlockGUID
1000
{09A8680E-823C-4F6D-97B6-F5DE901748E6}
1001
AcDbBlockRepETag
1070
     1
1071
       44
1001
ACAD
1000
DesignCenter Data
1002
{
1070
     1
1070
     4
1002
}
  0
BLOCK_RECORD
  5
226
102
{ACAD_XDICTIONARY
360
375
102
}
330
1
100
AcDbSymbolTableRecord
100
AcDbBlockTableRecord
  2
3
340
0
310
2800000020000000200000000100080000000000000400000000000000000000000000000000000000000000000080000080000000808000800000008000800080800000C0C0C000C0DCC000F0CAA6000020400000206000002080000020A0000020C0000020E00000400000004020000040400000406000004080000040A0
310
000040C0000040E00000600000006020000060400000606000006080000060A0000060C0000060E00000800000008020000080400000806000008080000080A0000080C0000080E00000A0000000A0200000A0400000A0600000A0800000A0A00000A0C00000A0E00000C0000000C0200000C0400000C0600000C0800000C0
310
A00000C0C00000C0E00000E0000000E0200000E0400000E0600000E0800000E0A00000E0C00000E0E00040000000400020004000400040006000400080004000A0004000C0004000E00040200000402020004020400040206000402080004020A0004020C0004020E000404000004040200040404000404060004040800040
310
40A0004040C0004040E00040600000406020004060400040606000406080004060A0004060C0004060E00040800000408020004080400040806000408080004080A0004080C0004080E00040A0000040A0200040A0400040A0600040A0800040A0A00040A0C00040A0E00040C0000040C0200040C0400040C0600040C08000
310
40C0A00040C0C00040C0E00040E0000040E0200040E0400040E0600040E0800040E0A00040E0C00040E0E00080000000800020008000400080006000800080008000A0008000C0008000E00080200000802020008020400080206000802080008020A0008020C0008020E00080400000804020008040400080406000804080
310
008040A0008040C0008040E00080600000806020008060400080606000806080008060A0008060C0008060E00080800000808020008080400080806000808080008080A0008080C0008080E00080A0000080A0200080A0400080A0600080A0800080A0A00080A0C00080A0E00080C0000080C0200080C0400080C0600080C0
310
800080C0A00080C0C00080C0E00080E0000080E0200080E0400080E0600080E0800080E0A00080E0C00080E0E000C0000000C0002000C0004000C0006000C0008000C000A000C000C000C000E000C0200000C0202000C0204000C0206000C0208000C020A000C020C000C020E000C0400000C0402000C0404000C0406000C0
310
408000C040A000C040C000C040E000C0600000C0602000C0604000C0606000C0608000C060A000C060C000C060E000C0800000C0802000C0804000C0806000C0808000C080A000C080C000C080E000C0A00000C0A02000C0A04000C0A06000C0A08000C0A0A000C0A0C000C0A0E000C0C00000C0C02000C0C04000C0C06000
310
C0C08000C0C0A000F0FBFF00A4A0A000808080000000FF0000FF000000FFFF00FF000000FF00FF00FFFF0000FFFFFF000000000000000000000000000000000000000000000000000000000000000000000000000000000000000000000000FFFFFFFFFFFFFF00000000000000000000000000000000000000000000000000
310
FF0000000000FF00000000000000000000000000000000000000000000000000FFFFFFFFFFFFFF000000000000000000000000000000000000000000FFFFFFFFFF0000FFFFFFFF0000000000000000000000000000000000000000FF00FFFFFFFF0000FF0000000000000000000000000000000000000000000000FF00FF00
310
00000000FF0000000000000000000000000000000000000000000000FF00FFFFFFFF0000FF0000000000000000000000000000000000000000000000FF00000000FF0000FF0000000000000000000000000000000000000000000000FF00000000FF00FFFF0000000000000000000000000000000000000000000000FF0000
310
0000FF00FFFF0000000000000000000000000000000000000000000000FF00000000FF00FFFF0000000000000000000000000000000000000000000000FF00000000FF00FFFF0000000000000000000000000000000000000000000000FF00000000FF00FFFF0000000000000000000000000000000000000000000000FF00
310
000000FF00FFFF0000000000000000000000000000000000000000000000FF00000000FF00FFFF0000000000000000000000000000000000000000000000FF00000000FF00FFFF0000000000000000000000000000000000000000000000FF00000000FF00FFFF0000000000000000000000000000000000000000000000FF
310
00000000FF00FFFF0000000000000000000000000000000000000000000000FF00000000FF00FFFF000000000000000000000000000000000000000000000000FF000000FF00FFFF000000000000000000000000000000000000000000000000FF000000FF00FFFF0000000000000000000000000000000000000000000000
310
0000FF0000FF00FFFF00000000000000000000000000000000000000000000000000FF0000FF00FFFF0000000000000000000000000000000000000000000000000000FFFFFF00FFFF00000000000000000000000000000000000000000000000000000000FF0000FF00000000000000000000000000000000000000000000
310
000000000000FF0000FF00000000000000000000000000000000000000000000000000000000FF0000FF00000000000000000000000000000000000000000000000000000000FF0000FF00000000000000000000000000000000000000000000000000000000FF0000FF000000000000000000000000000000000000000000
310
00000000000000FFFFFFFF000000000000000000000000000000000000000000000000000000000000000000000000000000000000000000
102
{BLKREFS
331
34A
102
}
1001
AcDbDynamicBlockGUID
1000
{1B862678-80D9-4517-A7AF-4AADDA4EB064}
1001
AcDbBlockRepETag
1070
     1
1071
       32
1001
ACAD
1000
DesignCenter Data
1002
{
1070
     1
1070
     4
1002
}
  0
ENDTAB
  0
ENDSEC
  0
SECTION
  2
BLOCKS
  0
BLOCK
  5
20
330
1F
100
AcDbEntity
  8
0
100
AcDbBlockBegin
  2
*Model_Space
 70
     0
 10
0.0
 20
0.0
 30
0.0
  3
*Model_Space
  1

  0
ENDBLK
  5
21
330
1F
100
AcDbEntity
  8
0
100
AcDbBlockEnd
  0
BLOCK
  5
D4
330
D2
100
AcDbEntity
 67
     1
  8
0
100
AcDbBlockBegin
  2
*Paper_Space
 70
     0
 10
0.0
 20
0.0
 30
0.0
  3
*Paper_Space
  1

  0
ENDBLK
  5
D5
330
D2
100
AcDbEntity
 67
     1
  8
0
100
AcDbBlockEnd
  0
BLOCK
  5
D8
330
D6
100
AcDbEntity
 67
     1
  8
0
100
AcDbBlockBegin
  2
*Paper_Space0
 70
     0
 10
0.0
 20
0.0
 30
0.0
  3
*Paper_Space0
  1

  0
ENDBLK
  5
D9
330
D6
100
AcDbEntity
 67
     1
  8
0
100
AcDbBlockEnd
  0
BLOCK
  5
1AE
330
1AD
100
AcDbEntity
  8
0
100
AcDbBlockBegin
  2
1
 70
     0
 10
0.0
 20
0.0
 30
0.0
  3
1
  1

  0
LINE
  5
3B8
330
1AD
100
AcDbEntity
  8
0
  6
Continuous
 62
     7
370
    15
100
AcDbLine
 10
1240.895596133662
 20
1552.643447387733
 30
0.0
 11
1240.895596133662
 21
1548.919538151461
 31
0.0
1001
AcDbBlockRepETag
1070
     1
1071
        0
1005
3B8
  0
LINE
  5
3B9
330
1AD
100
AcDbEntity
  8
0
  6
Continuous
 62
     7
370
    15
100
AcDbLine
 10
1240.295596133662
 20
1548.919538151461
 30
0.0
 11
1240.895596133662
 21
1548.919538151461
 31
0.0
1001
AcDbBlockRepETag
1070
     1
1071
        1
1005
3B9
  0
LINE
  5
3BA
330
1AD
100
AcDbEntity
  8
0
  6
Continuous
 62
     7
370
    15
100
AcDbLine
 10
1240.295596133662
 20
1548.919538151461
 30
0.0
 11
1240.295596133662
 21
1552.643447387733
 31
0.0
1001
AcDbBlockRepETag
1070
     1
1071
        2
1005
3BA
  0
LINE
  5
3BB
330
1AD
100
AcDbEntity
  8
0
  6
Continuous
 62
     7
370
    15
100
AcDbLine
 10
1240.295596133662
 20
1552.643447387733
 30
0.0
 11
1240.895596133662
 21
1552.643447387733
 31
0.0
1001
AcDbBlockRepETag
1070
     1
1071
        3
1005
3BB
  0
LINE
  5
3BC
330
1AD
100
AcDbEntity
  8
0
  6
Continuous
 62
     7
370
    15
100
AcDbLine
 10
1240.895596133662
 20
1548.919538151461
 30
0.0
 11
1240.895596133662
 21
1537.643447387734
 31
0.0
1001
AcDbBlockRepETag
1070
     1
1071
        4
1005
3BC
  0
LINE
  5
3BD
330
1AD
100
AcDbEntity
  8
0
  6
Continuous
 62
     7
370
    15
100
AcDbLine
 10
1240.895596133662
 20
1537.643447387734
 30
0.0
 11
1240.295596133662
 21
1537.643447387734
 31
0.0
1001
AcDbBlockRepETag
1070
     1
1071
        5
1005
3BD
  0
LINE
  5
3BE
330
1AD
100
AcDbEntity
  8
0
  6
Continuous
 62
     7
370
    15
100
AcDbLine
 10
1240.295596133662
 20
1537.643447387734
 30
0.0
 11
1240.295596133662
 21
1548.919538151461
 31
0.0
1001
AcDbBlockRepETag
1070
     1
1071
        6
1005
3BE
  0
LINE
  5
3BF
330
1AD
100
AcDbEntity
  8
0
  6
Continuous
 62
     7
370
    15
100
AcDbLine
 10
1240.295596133662
 20
1537.143447387734
 30
0.0
 11
1240.895596133662
 21
1537.143447387734
 31
0.0
1001
AcDbBlockRepETag
1070
     1
1071
        7
1005
3BF
  0
LINE
  5
3C0
330
1AD
100
AcDbEntity
  8
0
  6
Continuous
 62
     7
370
    15
100
AcDbLine
 10
1240.895596133662
 20
1537.143447387734
 30
0.0
 11
1240.895596133662
 21
1537.643447387734
 31
0.0
1001
AcDbBlockRepETag
1070
     1
1071
        8
1005
3C0
  0
LINE
  5
3C1
330
1AD
100
AcDbEntity
  8
0
  6
Continuous
 62
     7
370
    15
100
AcDbLine
 10
1240.295596133662
 20
1537.643447387734
 30
0.0
 11
1240.295596133662
 21
1537.143447387734
 31
0.0
1001
AcDbBlockRepETag
1070
     1
1071
        9
1005
3C1
  0
LINE
  5
3C2
330
1AD
100
AcDbEntity
  8
0
  6
Continuous
 62
     7
370
    15
100
AcDbLine
 10
1229.59559613366
 20
1538.143447387734
 30
0.0
 11
1229.59559613366
 21
1539.643447387734
 31
0.0
1001
AcDbBlockRepETag
1070
     1
1071
       10
1005
3C2
  0
LINE
  5
3C3
330
1AD
100
AcDbEntity
  8
0
  6
Continuous
 62
     7
370
    15
100
AcDbLine
 10
1233.300511161785
 20
1539.643447387734
 30
0.0
 11
1229.59559613366
 21
1539.643447387734
 31
0.0
1001
AcDbBlockRepETag
1070
     1
1071
       11
1005
3C3
  0
ARC
  5
3C4
330
1AD
100
AcDbEntity
  8
0
  6
Continuous
 62
     7
370
    15
100
AcDbCircle
 10
1236.09559613366
 20
1542.143447387734
 30
0.0
 40
3.749999999999977
100
AcDbArc
 50
221.8103148957799
 51
318.1896851042201
1001
AcDbBlockRepETag
1070
     1
1071
       12
1005
3C4
  0
LINE
  5
3C5
330
1AD
100
AcDbEntity
  8
0
  6
Continuous
 62
     7
370
    15
100
AcDbLine
 10
1238.890681105535
 20
1539.643447387734
 30
0.0
 11
1240.295596133661
 21
1539.643447387734
 31
0.0
1001
AcDbBlockRepETag
1070
     1
1071
       13
1005
3C5
  0
ARC
  5
3C6
330
1AD
100
AcDbEntity
  8
0
  6
Continuous
 62
     7
370
    15
100
AcDbCircle
 10
1230.59559613366
 20
1538.143447387734
 30
0.0
 40
1.000000000000014
100
AcDbArc
 50
180.0
 51
270.0
1001
AcDbBlockRepETag
1070
     1
1071
       14
1005
3C6
  0
LINE
  5
3C7
330
1AD
100
AcDbEntity
  8
0
  6
Continuous
 62
     7
370
    15
100
AcDbLine
 10
1230.59559613366
 20
1537.143447387734
 30
0.0
 11
1240.595596133662
 21
1537.143447387734
 31
0.0
1001
AcDbBlockRepETag
1070
     1
1071
       15
1005
3C7
  0
LINE
  5
3C8
330
1AD
100
AcDbEntity
  8
0
  6
Continuous
 62
     7
370
    15
100
AcDbLine
 10
1251.59559613366
 20
1539.643447387734
 30
0.0
 11
1251.59559613366
 21
1538.143447387734
 31
0.0
1001
AcDbBlockRepETag
1070
     1
1071
       16
1005
3C8
  0
ARC
  5
3C9
330
1AD
100
AcDbEntity
  8
0
  6
Continuous
 62
     7
370
    15
100
AcDbCircle
 10
1250.59559613366
 20
1538.143447387734
 30
0.0
 40
1.0
100
AcDbArc
 50
270.0
 51
0.0
1001
AcDbBlockRepETag
1070
     1
1071
       17
1005
3C9
  0
LINE
  5
3CA
330
1AD
100
AcDbEntity
  8
0
  6
Continuous
 62
     7
370
    15
100
AcDbLine
 10
1240.895596133662
 20
1539.643447387734
 30
0.0
 11
1242.300511161785
 21
1539.643447387734
 31
0.0
1001
AcDbBlockRepETag
1070
     1
1071
       18
1005
3CA
  0
ARC
  5
3CB
330
1AD
100
AcDbEntity
  8
0
  6
Continuous
 62
     7
370
    15
100
AcDbCircle
 10
1245.09559613366
 20
1542.143447387734
 30
0.0
 40
3.749999999999994
100
AcDbArc
 50
221.8103148957799
 51
318.1896851042201
1001
AcDbBlockRepETag
1070
     1
1071
       19
1005
3CB
  0
LINE
  5
3CC
330
1AD
100
AcDbEntity
  8
0
  6
Continuous
 62
     7
370
    15
100
AcDbLine
 10
1251.59559613366
 20
1539.643447387734
 30
0.0
 11
1247.890681105535
 21
1539.643447387734
 31
0.0
1001
AcDbBlockRepETag
1070
     1
1071
       20
1005
3CC
  0
LINE
  5
3CD
330
1AD
100
AcDbEntity
  8
0
  6
Continuous
 62
     7
370
    15
100
AcDbLine
 10
1240.895596133662
 20
1537.143447387734
 30
0.0
 11
1250.59559613366
 21
1537.143447387734
 31
0.0
1001
AcDbBlockRepETag
1070
     1
1071
       21
1005
3CD
  0
ARC
  5
3CE
330
1AD
100
AcDbEntity
  8
0
  6
Continuous
 62
     7
370
    15
100
AcDbCircle
 10
1236.09559613366
 20
1542.143447387734
 30
0.0
 40
2.000000000000014
100
AcDbArc
 50
180.0
 51
0.0
1001
AcDbBlockRepETag
1070
     1
1071
       22
1005
3CE
  0
LINE
  5
3CF
330
1AD
100
AcDbEntity
  8
0
  6
Continuous
 62
     7
370
    15
100
AcDbLine
 10
1238.09559613366
 20
1548.443447387734
 30
0.0
 11
1238.09559613366
 21
1542.143447387734
 31
0.0
1001
AcDbBlockRepETag
1070
     1
1071
       23
1005
3CF
  0
LINE
  5
3D0
330
1AD
100
AcDbEntity
  8
0
  6
Continuous
 62
     7
370
    15
100
AcDbLine
 10
1240.295596133662
 20
1548.443447387733
 30
0.0
 11
1238.09559613366
 21
1548.443447387734
 31
0.0
1001
AcDbBlockRepETag
1070
     1
1071
       24
1005
3D0
  0
LINE
  5
3D1
330
1AD
100
AcDbEntity
  8
0
  6
Continuous
 62
     7
370
    15
100
AcDbLine
 10
1229.59559613366
 20
1556.643447387734
 30
0.0
 11
1230.19559613366
 21
1556.643447387734
 31
0.0
1001
AcDbBlockRepETag
1070
     1
1071
       25
1005
3D1
  0
LINE
  5
3D2
330
1AD
100
AcDbEntity
  8
0
  6
Continuous
 62
     7
370
    15
100
AcDbLine
 10
1230.19559613366
 20
1548.443447387734
 30
0.0
 11
1230.19559613366
 21
1556.643447387734
 31
0.0
1001
AcDbBlockRepETag
1070
     1
1071
       26
1005
3D2
  0
LINE
  5
3D3
330
1AD
100
AcDbEntity
  8
0
  6
Continuous
 62
     7
370
    15
100
AcDbLine
 10
1230.19559613366
 20
1548.443447387733
 30
0.0
 11
1234.09559613366
 21
1548.443447387733
 31
0.0
1001
AcDbBlockRepETag
1070
     1
1071
       27
1005
3D3
  0
LINE
  5
3D4
330
1AD
100
AcDbEntity
  8
0
  6
Continuous
 62
     7
370
    15
100
AcDbLine
 10
1234.09559613366
 20
1542.143447387734
 30
0.0
 11
1234.09559613366
 21
1548.443447387733
 31
0.0
1001
AcDbBlockRepETag
1070
     1
1071
       28
1005
3D4
  0
LINE
  5
3D5
330
1AD
100
AcDbEntity
  8
0
  6
Continuous
 62
     7
370
    15
100
AcDbLine
 10
1229.59559613366
 20
1556.643447387734
 30
0.0
 11
1229.59559613366
 21
1539.643447387734
 31
0.0
1001
AcDbBlockRepETag
1070
     1
1071
       29
1005
3D5
  0
LINE
  5
3D6
330
1AD
100
AcDbEntity
  8
0
  6
Continuous
 62
     7
370
    15
100
AcDbLine
 10
1243.09559613366
 20
1548.443447387734
 30
0.0
 11
1240.895596133662
 21
1548.443447387734
 31
0.0
1001
AcDbBlockRepETag
1070
     1
1071
       30
1005
3D6
  0
LINE
  5
3D7
330
1AD
100
AcDbEntity
  8
0
  6
Continuous
 62
     7
370
    15
100
AcDbLine
 10
1243.09559613366
 20
1542.143447387734
 30
0.0
 11
1243.09559613366
 21
1548.443447387734
 31
0.0
1001
AcDbBlockRepETag
1070
     1
1071
       31
1005
3D7
  0
ARC
  5
3D8
330
1AD
100
AcDbEntity
  8
0
  6
Continuous
 62
     7
370
    15
100
AcDbCircle
 10
1245.09559613366
 20
1542.143447387734
 30
0.0
 40
2.0
100
AcDbArc
 50
180.0
 51
0.0
1001
AcDbBlockRepETag
1070
     1
1071
       32
1005
3D8
  0
LINE
  5
3D9
330
1AD
100
AcDbEntity
  8
0
  6
Continuous
 62
     7
370
    15
100
AcDbLine
 10
1247.09559613366
 20
1548.443447387733
 30
0.0
 11
1247.09559613366
 21
1542.143447387734
 31
0.0
1001
AcDbBlockRepETag
1070
     1
1071
       33
1005
3D9
  0
LINE
  5
3DA
330
1AD
100
AcDbEntity
  8
0
  6
Continuous
 62
     7
370
    15
100
AcDbLine
 10
1250.99559613366
 20
1556.643447387734
 30
0.0
 11
1251.59559613366
 21
1556.643447387734
 31
0.0
1001
AcDbBlockRepETag
1070
     1
1071
       34
1005
3DA
  0
LINE
  5
3DB
330
1AD
100
AcDbEntity
  8
0
  6
Continuous
 62
     7
370
    15
100
AcDbLine
 10
1247.09559613366
 20
1548.443447387733
 30
0.0
 11
1250.99559613366
 21
1548.443447387733
 31
0.0
1001
AcDbBlockRepETag
1070
     1
1071
       35
1005
3DB
  0
LINE
  5
3DC
330
1AD
100
AcDbEntity
  8
0
  6
Continuous
 62
     7
370
    15
100
AcDbLine
 10
1250.99559613366
 20
1556.643447387734
 30
0.0
 11
1250.99559613366
 21
1548.443447387734
 31
0.0
1001
AcDbBlockRepETag
1070
     1
1071
       36
1005
3DC
  0
LINE
  5
3DD
330
1AD
100
AcDbEntity
  8
0
  6
Continuous
 62
     7
370
    15
100
AcDbLine
 10
1251.59559613366
 20
1539.643447387734
 30
0.0
 11
1251.59559613366
 21
1556.643447387734
 31
0.0
1001
AcDbBlockRepETag
1070
     1
1071
       37
1005
3DD
  0
LINE
  5
3DE
330
1AD
100
AcDbEntity
  8
0
  6
Continuous
 62
     7
370
    15
100
AcDbLine
 10
1234.09559613366
 20
1548.543447387734
 30
0.0
 11
1234.09559613366
 21
1551.043447387734
 31
0.0
1001
AcDbBlockRepETag
1070
     1
1071
       38
1005
3DE
  0
LINE
  5
3DF
330
1AD
100
AcDbEntity
  8
0
  6
Continuous
 62
     7
370
    15
100
AcDbLine
 10
1230.24559613366
 20
1548.543447387734
 30
0.0
 11
1234.09559613366
 21
1548.543447387734
 31
0.0
1001
AcDbBlockRepETag
1070
     1
1071
       39
1005
3DF
  0
LINE
  5
3E0
330
1AD
100
AcDbEntity
  8
0
  6
Continuous
 62
     7
370
    15
100
AcDbLine
 10
1230.24559613366
 20
1548.543447387734
 30
0.0
 11
1230.24559613366
 21
1555.043447387734
 31
0.0
1001
AcDbBlockRepETag
1070
     1
1071
       40
1005
3E0
  0
LINE
  5
3E1
330
1AD
100
AcDbEntity
  8
0
  6
Continuous
 62
     7
370
    15
100
AcDbLine
 10
1250.94559613366
 20
1555.043447387734
 30
0.0
 11
1230.24559613366
 21
1555.043447387734
 31
0.0
1001
AcDbBlockRepETag
1070
     1
1071
       41
1005
3E1
  0
LINE
  5
3E2
330
1AD
100
AcDbEntity
  8
0
  6
Continuous
 62
     7
370
    15
100
AcDbLine
 10
1250.94559613366
 20
1555.043447387734
 30
0.0
 11
1250.94559613366
 21
1548.543447387733
 31
0.0
1001
AcDbBlockRepETag
1070
     1
1071
       42
1005
3E2
  0
LINE
  5
3E3
330
1AD
100
AcDbEntity
  8
0
  6
Continuous
 62
     7
370
    15
100
AcDbLine
 10
1247.09559613366
 20
1548.543447387733
 30
0.0
 11
1250.94559613366
 21
1548.543447387733
 31
0.0
1001
AcDbBlockRepETag
1070
     1
1071
       43
1005
3E3
  0
LINE
  5
3E4
330
1AD
100
AcDbEntity
  8
0
  6
Continuous
 62
     7
370
    15
100
AcDbLine
 10
1247.09559613366
 20
1551.043447387734
 30
0.0
 11
1247.09559613366
 21
1548.543447387733
 31
0.0
1001
AcDbBlockRepETag
1070
     1
1071
       44
1005
3E4
  0
ARC
  5
3E5
330
1AD
100
AcDbEntity
  8
0
  6
Continuous
 62
     7
370
    15
100
AcDbCircle
 10
1245.09559613366
 20
1551.043447387734
 30
0.0
 40
2.0
100
AcDbArc
 50
0.0
 51
180.0
1001
AcDbBlockRepETag
1070
     1
1071
       45
1005
3E5
  0
LINE
  5
3E6
330
1AD
100
AcDbEntity
  8
0
  6
Continuous
 62
     7
370
    15
100
AcDbLine
 10
1243.09559613366
 20
1548.543447387733
 30
0.0
 11
1243.09559613366
 21
1551.043447387734
 31
0.0
1001
AcDbBlockRepETag
1070
     1
1071
       46
1005
3E6
  0
LINE
  5
3E7
330
1AD
100
AcDbEntity
  8
0
  6
Continuous
 62
     7
370
    15
100
AcDbLine
 10
1238.09559613366
 20
1548.543447387733
 30
0.0
 11
1240.295596133662
 21
1548.543447387733
 31
0.0
1001
AcDbBlockRepETag
1070
     1
1071
       47
1005
3E7
  0
LINE
  5
3E8
330
1AD
100
AcDbEntity
  8
0
  6
Continuous
 62
     7
370
    15
100
AcDbLine
 10
1240.895596133662
 20
1548.543447387733
 30
0.0
 11
1243.09559613366
 21
1548.543447387733
 31
0.0
1001
AcDbBlockRepETag
1070
     1
1071
       48
1005
3E8
  0
LINE
  5
3E9
330
1AD
100
AcDbEntity
  8
0
  6
Continuous
 62
     7
370
    15
100
AcDbLine
 10
1238.09559613366
 20
1551.043447387734
 30
0.0
 11
1238.09559613366
 21
1548.543447387733
 31
0.0
1001
AcDbBlockRepETag
1070
     1
1071
       49
1005
3E9
  0
ARC
  5
3EA
330
1AD
100
AcDbEntity
  8
0
  6
Continuous
 62
     7
370
    15
100
AcDbCircle
 10
1236.09559613366
 20
1551.043447387734
 30
0.0
 40
2.0
100
AcDbArc
 50
0.0
 51
180.0
1001
AcDbBlockRepETag
1070
     1
1071
       50
1005
3EA
  0
ARC
  5
3EB
330
1AD
100
AcDbEntity
  8
0
  6
Continuous
 62
     7
370
    15
100
AcDbCircle
 10
1248.84559613366
 20
1536.393447387734
 30
0.0
 40
0.7500000000000285
100
AcDbArc
 50
0.0
 51
90.0
1001
AcDbBlockRepETag
1070
     1
1071
       51
1005
3EB
  0
ARC
  5
3EC
330
1AD
100
AcDbEntity
  8
0
  6
Continuous
 62
     7
370
    15
100
AcDbCircle
 10
1250.59559613366
 20
1536.143447387734
 30
0.0
 40
1.0
100
AcDbArc
 50
180.0
 51
0.0
1001
AcDbBlockRepETag
1070
     1
1071
       52
1005
3EC
  0
LINE
  5
3ED
330
1AD
100
AcDbEntity
  8
0
  6
Continuous
 62
     7
370
    15
100
AcDbLine
 10
1249.59559613366
 20
1536.393447387734
 30
0.0
 11
1249.59559613366
 21
1536.143447387734
 31
0.0
1001
AcDbBlockRepETag
1070
     1
1071
       53
1005
3ED
  0
LINE
  5
3EE
330
1AD
100
AcDbEntity
  8
0
  6
Continuous
 62
     7
370
    15
100
AcDbLine
 10
1251.59559613366
 20
1536.143447387734
 30
0.0
 11
1251.59559613366
 21
1538.143447387734
 31
0.0
1001
AcDbBlockRepETag
1070
     1
1071
       54
1005
3EE
  0
LINE
  5
3EF
330
1AD
100
AcDbEntity
  8
0
  6
Continuous
 62
     7
370
    15
100
AcDbLine
 10
1229.59559613366
 20
1557.143447387734
 30
0.0
 11
1230.19559613366
 21
1557.143447387734
 31
0.0
1001
AcDbBlockRepETag
1070
     1
1071
       55
1005
3EF
  0
LINE
  5
3F0
330
1AD
100
AcDbEntity
  8
0
  6
Continuous
 62
     7
370
    15
100
AcDbLine
 10
1230.19559613366
 20
1557.143447387734
 30
0.0
 11
1230.19559613366
 21
1556.643447387734
 31
0.0
1001
AcDbBlockRepETag
1070
     1
1071
       56
1005
3F0
  0
LINE
  5
3F1
330
1AD
100
AcDbEntity
  8
0
  6
Continuous
 62
     7
370
    15
100
AcDbLine
 10
1229.59559613366
 20
1557.143447387734
 30
0.0
 11
1229.59559613366
 21
1556.643447387734
 31
0.0
1001
AcDbBlockRepETag
1070
     1
1071
       57
1005
3F1
  0
LINE
  5
3F2
330
1AD
100
AcDbEntity
  8
0
  6
Continuous
 62
     7
370
    15
100
AcDbLine
 10
1250.99559613366
 20
1557.143447387734
 30
0.0
 11
1251.59559613366
 21
1557.143447387734
 31
0.0
1001
AcDbBlockRepETag
1070
     1
1071
       58
1005
3F2
  0
LINE
  5
3F3
330
1AD
100
AcDbEntity
  8
0
  6
Continuous
 62
     7
370
    15
100
AcDbLine
 10
1250.99559613366
 20
1557.143447387734
 30
0.0
 11
1250.99559613366
 21
1556.643447387734
 31
0.0
1001
AcDbBlockRepETag
1070
     1
1071
       59
1005
3F3
  0
LINE
  5
3F4
330
1AD
100
AcDbEntity
  8
0
  6
Continuous
 62
     7
370
    15
100
AcDbLine
 10
1251.59559613366
 20
1556.643447387734
 30
0.0
 11
1251.59559613366
 21
1557.143447387734
 31
0.0
1001
AcDbBlockRepETag
1070
     1
1071
       60
1005
3F4
  0
LINE
  5
3F5
330
1AD
100
AcDbEntity
  8
0
  6
Continuous
 62
     7
370
    15
100
AcDbLine
 10
1231.59559613366
 20
1536.143447387734
 30
0.0
 11
1231.59559613366
 21
1536.393447387734
 31
0.0
1001
AcDbBlockRepETag
1070
     1
1071
       61
1005
3F5
  0
ARC
  5
3F6
330
1AD
100
AcDbEntity
  8
0
  6
Continuous
 62
     7
370
    15
100
AcDbCircle
 10
1232.34559613366
 20
1536.393447387734
 30
0.0
 40
0.7500000000000285
100
AcDbArc
 50
90.0
 51
180.0
1001
AcDbBlockRepETag
1070
     1
1071
       62
1005
3F6
  0
ARC
  5
3F7
330
1AD
100
AcDbEntity
  8
0
  6
Continuous
 62
     7
370
    15
100
AcDbCircle
 10
1230.59559613366
 20
1536.143447387734
 30
0.0
 40
1.0
100
AcDbArc
 50
180.0
 51
0.0
1001
AcDbBlockRepETag
1070
     1
1071
       63
1005
3F7
  0
LINE
  5
3F8
330
1AD
100
AcDbEntity
  8
0
  6
Continuous
 62
     7
370
    15
100
AcDbLine
 10
1229.59559613366
 20
1538.143447387734
 30
0.0
 11
1229.59559613366
 21
1536.143447387734
 31
0.0
1001
AcDbBlockRepETag
1070
     1
1071
       64
1005
3F8
  0
LINE
  5
3F9
330
1AD
100
AcDbEntity
  8
0
  6
Continuous
 62
     7
370
    15
100
AcDbLine
 10
1230.19559613366
 20
1555.143447387734
 30
0.0
 11
1250.99559613366
 21
1555.143447387734
 31
0.0
1001
AcDbBlockRepETag
1070
     1
1071
       65
1005
3F9
  0
LINE
  5
3FA
330
1AD
100
AcDbEntity
  8
0
  6
Continuous
 62
     7
370
    15
100
AcDbLine
 10
1230.19559613366
 20
1557.143447387734
 30
0.0
 11
1250.99559613366
 21
1557.143447387734
 31
0.0
1001
AcDbBlockRepETag
1070
     1
1071
       66
1005
3FA
  0
LINE
  5
3FB
330
1AD
100
AcDbEntity
  8
0
  6
Continuous
 62
     7
370
    15
100
AcDbLine
 10
1230.19559613366
 20
1552.56119207561
 30
0.0
 11
1230.24559613366
 21
1552.56119207561
 31
0.0
1001
AcDbBlockRepETag
1070
     1
1071
       67
1005
3FB
  0
LINE
  5
3FC
330
1AD
100
AcDbEntity
  8
0
  6
Continuous
 62
     7
370
    15
100
AcDbLine
 10
1250.99559613366
 20
1552.56119207561
 30
0.0
 11
1250.94559613366
 21
1552.56119207561
 31
0.0
1001
AcDbBlockRepETag
1070
     1
1071
       68
1005
3FC
  0
LINE
  5
3FD
330
1AD
100
AcDbEntity
  8
0
  6
Continuous
 62
     7
370
    15
100
AcDbLine
 10
1241.29559613366
 20
1548.543447387733
 30
0.0
 11
1241.29559613366
 21
1548.443447387733
 31
0.0
1001
AcDbBlockRepETag
1070
     1
1071
       69
1005
3FD
  0
LINE
  5
3FE
330
1AD
100
AcDbEntity
  8
0
  6
Continuous
 62
     7
370
    15
100
AcDbLine
 10
1239.59559613366
 20
1548.443447387733
 30
0.0
 11
1239.59559613366
 21
1548.543447387733
 31
0.0
1001
AcDbBlockRepETag
1070
     1
1071
       70
1005
3FE
  0
ENDBLK
  5
1F6
330
1AD
100
AcDbEntity
  8
0
100
AcDbBlockEnd
  0
BLOCK
  5
1F8
330
1F7
100
AcDbEntity
  8
0
100
AcDbBlockBegin
  2
2
 70
     0
 10
0.0
 20
0.0
 30
0.0
  3
2
  1

  0
LINE
  5
406
330
1F7
100
AcDbEntity
  8
0
  6
Continuous
 62
     7
370
    15
100
AcDbLine
 10
1229.59559613366
 20
1522.963426645399
 30
0.0
 11
1251.59559613366
 21
1522.963426645399
 31
0.0
1001
AcDbBlockRepETag
1070
     1
1071
        0
1005
406
  0
LINE
  5
407
330
1F7
100
AcDbEntity
  8
0
  6
Continuous
 62
     7
370
    15
100
AcDbLine
 10
1251.59559613366
 20
1521.013426645399
 30
0.0
 11
1251.59559613366
 21
1522.963426645399
 31
0.0
1001
AcDbBlockRepETag
1070
     1
1071
        1
1005
407
  0
LINE
  5
408
330
1F7
100
AcDbEntity
  8
0
  6
Continuous
 62
     7
370
    15
100
AcDbLine
 10
1250.99559613366
 20
1521.013426645399
 30
0.0
 11
1251.59559613366
 21
1521.013426645399
 31
0.0
1001
AcDbBlockRepETag
1070
     1
1071
        2
1005
408
  0
LINE
  5
409
330
1F7
100
AcDbEntity
  8
0
  6
Continuous
 62
     7
370
    15
100
AcDbLine
 10
1230.19559613366
 20
1521.013426645399
 30
0.0
 11
1250.99559613366
 21
1521.013426645399
 31
0.0
1001
AcDbBlockRepETag
1070
     1
1071
        3
1005
409
  0
LINE
  5
40A
330
1F7
100
AcDbEntity
  8
0
  6
Continuous
 62
     7
370
    15
100
AcDbLine
 10
1229.59559613366
 20
1521.013426645399
 30
0.0
 11
1230.19559613366
 21
1521.013426645399
 31
0.0
1001
AcDbBlockRepETag
1070
     1
1071
        4
1005
40A
  0
LINE
  5
40B
330
1F7
100
AcDbEntity
  8
0
  6
Continuous
 62
     7
370
    15
100
AcDbLine
 10
1229.59559613366
 20
1522.963426645399
 30
0.0
 11
1229.59559613366
 21
1521.013426645399
 31
0.0
1001
AcDbBlockRepETag
1070
     1
1071
        5
1005
40B
  0
LINE
  5
40C
330
1F7
100
AcDbEntity
  8
0
  6
Continuous
 62
     7
370
    15
100
AcDbLine
 10
1229.59559613366
 20
1520.513426645399
 30
0.0
 11
1230.19559613366
 21
1520.513426645399
 31
0.0
1001
AcDbBlockRepETag
1070
     1
1071
        6
1005
40C
  0
LINE
  5
40D
330
1F7
100
AcDbEntity
  8
0
  6
Continuous
 62
     7
370
    15
100
AcDbLine
 10
1230.19559613366
 20
1521.013426645399
 30
0.0
 11
1230.19559613366
 21
1520.513426645399
 31
0.0
1001
AcDbBlockRepETag
1070
     1
1071
        7
1005
40D
  0
LINE
  5
40E
330
1F7
100
AcDbEntity
  8
0
  6
Continuous
 62
     7
370
    15
100
AcDbLine
 10
1229.59559613366
 20
1521.013426645399
 30
0.0
 11
1229.59559613366
 21
1520.513426645399
 31
0.0
1001
AcDbBlockRepETag
1070
     1
1071
        8
1005
40E
  0
LINE
  5
40F
330
1F7
100
AcDbEntity
  8
0
  6
Continuous
 62
     7
370
    15
100
AcDbLine
 10
1250.99559613366
 20
1520.513426645399
 30
0.0
 11
1251.59559613366
 21
1520.513426645399
 31
0.0
1001
AcDbBlockRepETag
1070
     1
1071
        9
1005
40F
  0
LINE
  5
410
330
1F7
100
AcDbEntity
  8
0
  6
Continuous
 62
     7
370
    15
100
AcDbLine
 10
1250.99559613366
 20
1521.013426645399
 30
0.0
 11
1250.99559613366
 21
1520.513426645399
 31
0.0
1001
AcDbBlockRepETag
1070
     1
1071
       10
1005
410
  0
LINE
  5
411
330
1F7
100
AcDbEntity
  8
0
  6
Continuous
 62
     7
370
    15
100
AcDbLine
 10
1251.59559613366
 20
1520.513426645399
 30
0.0
 11
1251.59559613366
 21
1521.013426645399
 31
0.0
1001
AcDbBlockRepETag
1070
     1
1071
       11
1005
411
  0
LINE
  5
412
330
1F7
100
AcDbEntity
  8
0
  6
Continuous
 62
     7
370
    15
100
AcDbLine
 10
1250.94559613366
 20
1521.013426645399
 30
0.0
 11
1250.94559613366
 21
1520.513426645399
 31
0.0
1001
AcDbBlockRepETag
1070
     1
1071
       12
1005
412
  0
LINE
  5
413
330
1F7
100
AcDbEntity
  8
0
  6
Continuous
 62
     7
370
    15
100
AcDbLine
 10
1250.94559613366
 20
1520.513426645399
 30
0.0
 11
1230.24559613366
 21
1520.513426645399
 31
0.0
1001
AcDbBlockRepETag
1070
     1
1071
       13
1005
413
  0
LINE
  5
414
330
1F7
100
AcDbEntity
  8
0
  6
Continuous
 62
     7
370
    15
100
AcDbLine
 10
1230.24559613366
 20
1520.513426645399
 30
0.0
 11
1230.24559613366
 21
1521.013426645399
 31
0.0
1001
AcDbBlockRepETag
1070
     1
1071
       14
1005
414
  0
LINE
  5
415
330
1F7
100
AcDbEntity
  8
0
  6
Continuous
 62
     7
370
    15
100
AcDbLine
 10
1240.895596133662
 20
1520.513426645399
 30
0.0
 11
1240.895596133662
 21
1520.163426645399
 31
0.0
1001
AcDbBlockRepETag
1070
     1
1071
       15
1005
415
  0
LINE
  5
416
330
1F7
100
AcDbEntity
  8
0
  6
Continuous
 62
     7
370
    15
100
AcDbLine
 10
1240.295596133662
 20
1520.163426645399
 30
0.0
 11
1240.895596133662
 21
1520.163426645399
 31
0.0
1001
AcDbBlockRepETag
1070
     1
1071
       16
1005
416
  0
LINE
  5
417
330
1F7
100
AcDbEntity
  8
0
  6
Continuous
 62
     7
370
    15
100
AcDbLine
 10
1240.295596133662
 20
1520.163426645399
 30
0.0
 11
1240.295596133662
 21
1520.513426645399
 31
0.0
1001
AcDbBlockRepETag
1070
     1
1071
       17
1005
417
  0
LINE
  5
418
330
1F7
100
AcDbEntity
  8
0
  6
Continuous
 62
     7
370
    15
100
AcDbLine
 10
1240.895596133662
 20
1519.163426645399
 30
0.0
 11
1240.895596133662
 21
1517.013426645399
 31
0.0
1001
AcDbBlockRepETag
1070
     1
1071
       18
1005
418
  0
LINE
  5
419
330
1F7
100
AcDbEntity
  8
0
  6
Continuous
 62
     7
370
    15
100
AcDbLine
 10
1240.295596133662
 20
1517.013426645399
 30
0.0
 11
1240.895596133662
 21
1517.013426645399
 31
0.0
1001
AcDbBlockRepETag
1070
     1
1071
       19
1005
419
  0
LINE
  5
41A
330
1F7
100
AcDbEntity
  8
0
  6
Continuous
 62
     7
370
    15
100
AcDbLine
 10
1240.295596133662
 20
1517.013426645399
 30
0.0
 11
1240.295596133662
 21
1519.163426645399
 31
0.0
1001
AcDbBlockRepETag
1070
     1
1071
       20
1005
41A
  0
LINE
  5
41B
330
1F7
100
AcDbEntity
  8
0
  6
Continuous
 62
     7
370
    15
100
AcDbLine
 10
1240.295596133662
 20
1519.163426645399
 30
0.0
 11
1240.895596133662
 21
1519.163426645399
 31
0.0
1001
AcDbBlockRepETag
1070
     1
1071
       21
1005
41B
  0
LINE
  5
41C
330
1F7
100
AcDbEntity
  8
0
  6
Continuous
 62
     7
370
    15
100
AcDbLine
 10
1240.895596133662
 20
1520.163426645399
 30
0.0
 11
1240.895596133662
 21
1519.163426645399
 31
0.0
1001
AcDbBlockRepETag
1070
     1
1071
       22
1005
41C
  0
LINE
  5
41D
330
1F7
100
AcDbEntity
  8
0
  6
Continuous
 62
     7
370
    15
100
AcDbLine
 10
1240.295596133662
 20
1519.163426645399
 30
0.0
 11
1240.295596133662
 21
1520.163426645399
 31
0.0
1001
AcDbBlockRepETag
1070
     1
1071
       23
1005
41D
  0
LINE
  5
41E
330
1F7
100
AcDbEntity
  8
0
  6
Continuous
 62
     7
370
    15
100
AcDbLine
 10
1230.19559613366
 20
1520.513426645399
 30
0.0
 11
1230.24559613366
 21
1520.513426645399
 31
0.0
1001
AcDbBlockRepETag
1070
     1
1071
       24
1005
41E
  0
LINE
  5
41F
330
1F7
100
AcDbEntity
  8
0
  6
Continuous
 62
     7
370
    15
100
AcDbLine
 10
1250.94559613366
 20
1520.513426645399
 30
0.0
 11
1250.99559613366
 21
1520.513426645399
 31
0.0
1001
AcDbBlockRepETag
1070
     1
1071
       25
1005
41F
  0
LINE
  5
420
330
1F7
100
AcDbEntity
  8
0
  6
Continuous
 62
     7
370
    15
100
AcDbLine
 10
1233.300511161785
 20
1520.513426645399
 30
0.0
 11
1233.300511161785
 21
1518.263426645399
 31
0.0
1001
AcDbBlockRepETag
1070
     1
1071
       26
1005
420
  0
LINE
  5
421
330
1F7
100
AcDbEntity
  8
0
  6
Continuous
 62
     7
370
    15
100
AcDbLine
 10
1233.300511161785
 20
1518.263426645399
 30
0.0
 11
1229.59559613366
 21
1518.263426645399
 31
0.0
1001
AcDbBlockRepETag
1070
     1
1071
       27
1005
421
  0
LINE
  5
422
330
1F7
100
AcDbEntity
  8
0
  6
Continuous
 62
     7
370
    15
100
AcDbLine
 10
1229.59559613366
 20
1520.513426645399
 30
0.0
 11
1229.59559613366
 21
1518.263426645399
 31
0.0
1001
AcDbBlockRepETag
1070
     1
1071
       28
1005
422
  0
LINE
  5
423
330
1F7
100
AcDbEntity
  8
0
  6
Continuous
 62
     7
370
    15
100
AcDbLine
 10
1238.890681105535
 20
1520.513426645399
 30
0.0
 11
1238.890681105535
 21
1518.263426645399
 31
0.0
1001
AcDbBlockRepETag
1070
     1
1071
       29
1005
423
  0
LINE
  5
424
330
1F7
100
AcDbEntity
  8
0
  6
Continuous
 62
     7
370
    15
100
AcDbLine
 10
1238.890681105535
 20
1518.263426645399
 30
0.0
 11
1240.295596133662
 21
1518.263426645399
 31
0.0
1001
AcDbBlockRepETag
1070
     1
1071
       30
1005
424
  0
LINE
  5
425
330
1F7
100
AcDbEntity
  8
0
  6
Continuous
 62
     7
370
    15
100
AcDbLine
 10
1242.300511161785
 20
1518.263426645399
 30
0.0
 11
1242.300511161785
 21
1520.513426645399
 31
0.0
1001
AcDbBlockRepETag
1070
     1
1071
       31
1005
425
  0
LINE
  5
426
330
1F7
100
AcDbEntity
  8
0
  6
Continuous
 62
     7
370
    15
100
AcDbLine
 10
1240.895596133661
 20
1518.263426645399
 30
0.0
 11
1247.890681105535
 21
1518.263426645399
 31
0.0
1001
AcDbBlockRepETag
1070
     1
1071
       32
1005
426
  0
LINE
  5
427
330
1F7
100
AcDbEntity
  8
0
  6
Continuous
 62
     7
370
    15
100
AcDbLine
 10
1247.890681105535
 20
1518.263426645399
 30
0.0
 11
1247.890681105535
 21
1520.513426645399
 31
0.0
1001
AcDbBlockRepETag
1070
     1
1071
       33
1005
427
  0
LINE
  5
428
330
1F7
100
AcDbEntity
  8
0
  6
Continuous
 62
     7
370
    15
100
AcDbLine
 10
1251.59559613366
 20
1518.263426645399
 30
0.0
 11
1247.890681105535
 21
1518.263426645399
 31
0.0
1001
AcDbBlockRepETag
1070
     1
1071
       34
1005
428
  0
LINE
  5
429
330
1F7
100
AcDbEntity
  8
0
  6
Continuous
 62
     7
370
    15
100
AcDbLine
 10
1251.59559613366
 20
1518.263426645399
 30
0.0
 11
1251.59559613366
 21
1520.513426645399
 31
0.0
1001
AcDbBlockRepETag
1070
     1
1071
       35
1005
429
  0
LINE
  5
42A
330
1F7
100
AcDbEntity
  8
0
  6
Continuous
 62
     7
370
    15
100
AcDbLine
 10
1233.300511161785
 20
1518.263426645399
 30
0.0
 11
1238.890681105535
 21
1518.263426645399
 31
0.0
1001
AcDbBlockRepETag
1070
     1
1071
       36
1005
42A
  0
LINE
  5
42B
330
1F7
100
AcDbEntity
  8
0
  6
Continuous
 62
     7
370
    15
100
AcDbLine
 10
1242.300511161785
 20
1518.263426645399
 30
0.0
 11
1247.890681105535
 21
1518.263426645399
 31
0.0
1001
AcDbBlockRepETag
1070
     1
1071
       37
1005
42B
  0
LINE
  5
42C
330
1F7
100
AcDbEntity
  8
0
  6
Continuous
 62
     7
370
    15
100
AcDbLine
 10
1251.59559613366
 20
1524.513426645399
 30
0.0
 11
1249.59559613366
 21
1524.513426645399
 31
0.0
1001
AcDbBlockRepETag
1070
     1
1071
       38
1005
42C
  0
LINE
  5
42D
330
1F7
100
AcDbEntity
  8
0
  6
Continuous
 62
     7
370
    15
100
AcDbLine
 10
1249.59559613366
 20
1524.513426645399
 30
0.0
 11
1249.59559613366
 21
1522.963426645399
 31
0.0
1001
AcDbBlockRepETag
1070
     1
1071
       39
1005
42D
  0
LINE
  5
42E
330
1F7
100
AcDbEntity
  8
0
  6
Continuous
 62
     7
370
    15
100
AcDbLine
 10
1251.59559613366
 20
1522.963426645399
 30
0.0
 11
1251.59559613366
 21
1524.513426645399
 31
0.0
1001
AcDbBlockRepETag
1070
     1
1071
       40
1005
42E
  0
LINE
  5
42F
330
1F7
100
AcDbEntity
  8
0
  6
Continuous
 62
     7
370
    15
100
AcDbLine
 10
1231.59559613366
 20
1524.513426645399
 30
0.0
 11
1229.59559613366
 21
1524.513426645399
 31
0.0
1001
AcDbBlockRepETag
1070
     1
1071
       41
1005
42F
  0
LINE
  5
430
330
1F7
100
AcDbEntity
  8
0
  6
Continuous
 62
     7
370
    15
100
AcDbLine
 10
1231.59559613366
 20
1522.963426645399
 30
0.0
 11
1231.59559613366
 21
1524.513426645399
 31
0.0
1001
AcDbBlockRepETag
1070
     1
1071
       42
1005
430
  0
LINE
  5
431
330
1F7
100
AcDbEntity
  8
0
  6
Continuous
 62
     7
370
    15
100
AcDbLine
 10
1229.59559613366
 20
1524.513426645399
 30
0.0
 11
1229.59559613366
 21
1522.963426645399
 31
0.0
1001
AcDbBlockRepETag
1070
     1
1071
       43
1005
431
  0
ENDBLK
  5
225
330
1F7
100
AcDbEntity
  8
0
100
AcDbBlockEnd
  0
BLOCK
  5
227
330
226
100
AcDbEntity
  8
0
100
AcDbBlockBegin
  2
3
 70
     0
 10
0.0
 20
0.0
 30
0.0
  3
3
  1

  0
LINE
  5
354
330
226
100
AcDbEntity
  8
0
  6
Continuous
 62
     7
370
    15
100
AcDbLine
 10
1213.163007227518
 20
1535.143447387734
 30
0.0
 11
1217.163007227518
 21
1535.143447387734
 31
0.0
1001
AcDbBlockRepETag
1070
     1
1071
        0
1005
354
  0
LINE
  5
355
330
226
100
AcDbEntity
  8
0
  6
Continuous
 62
     7
370
    15
100
AcDbLine
 10
1215.613007227517
 20
1537.143447387734
 30
0.0
 11
1217.163007227518
 21
1537.143447387734
 31
0.0
1001
AcDbBlockRepETag
1070
     1
1071
        1
1005
355
  0
LINE
  5
356
330
226
100
AcDbEntity
  8
0
  6
Continuous
 62
     7
370
    15
100
AcDbLine
 10
1217.163007227518
 20
1537.143447387734
 30
0.0
 11
1217.163007227518
 21
1536.143447387734
 31
0.0
1001
AcDbBlockRepETag
1070
     1
1071
        2
1005
356
  0
LINE
  5
357
330
226
100
AcDbEntity
  8
0
  6
Continuous
 62
     7
370
    15
100
AcDbLine
 10
1217.163007227518
 20
1536.143447387734
 30
0.0
 11
1213.163007227518
 21
1536.143447387734
 31
0.0
1001
AcDbBlockRepETag
1070
     1
1071
        3
1005
357
  0
LINE
  5
358
330
226
100
AcDbEntity
  8
0
  6
Continuous
 62
     7
370
    15
100
AcDbLine
 10
1213.163007227518
 20
1536.143447387734
 30
0.0
 11
1213.163007227518
 21
1538.143447387734
 31
0.0
1001
AcDbBlockRepETag
1070
     1
1071
        4
1005
358
  0
LINE
  5
359
330
226
100
AcDbEntity
  8
0
  6
Continuous
 62
     7
370
    15
100
AcDbLine
 10
1213.163007227518
 20
1538.143447387734
 30
0.0
 11
1210.913007227518
 21
1538.143447387734
 31
0.0
1001
AcDbBlockRepETag
1070
     1
1071
        5
1005
359
  0
LINE
  5
35A
330
226
100
AcDbEntity
  8
0
  6
Continuous
 62
     7
370
    15
100
AcDbLine
 10
1210.913007227518
 20
1539.643447387734
 30
0.0
 11
1210.913007227518
 21
1538.143447387734
 31
0.0
1001
AcDbBlockRepETag
1070
     1
1071
        6
1005
35A
  0
LINE
  5
35B
330
226
100
AcDbEntity
  8
0
  6
Continuous
 62
     7
370
    15
100
AcDbLine
 10
1210.913007227518
 20
1539.643447387734
 30
0.0
 11
1213.163007227518
 21
1539.643447387734
 31
0.0
1001
AcDbBlockRepETag
1070
     1
1071
        7
1005
35B
  0
LINE
  5
35C
330
226
100
AcDbEntity
  8
0
  6
Continuous
 62
     7
370
    15
100
AcDbLine
 10
1213.163007227518
 20
1539.643447387734
 30
0.0
 11
1213.163007227518
 21
1556.643447387734
 31
0.0
1001
AcDbBlockRepETag
1070
     1
1071
        8
1005
35C
  0
ARC
  5
35D
330
226
100
AcDbEntity
  8
0
  6
Continuous
 62
     7
370
    15
100
AcDbCircle
 10
1213.663007227518
 20
1556.643447387734
 30
0.0
 40
0.5
100
AcDbArc
 50
90.0
 51
180.0
1001
AcDbBlockRepETag
1070
     1
1071
        9
1005
35D
  0
LINE
  5
35E
330
226
100
AcDbEntity
  8
0
  6
Continuous
 62
     7
370
    15
100
AcDbLine
 10
1213.663007227518
 20
1557.143447387734
 30
0.0
 11
1215.613007227517
 21
1557.143447387734
 31
0.0
1001
AcDbBlockRepETag
1070
     1
1071
       10
1005
35E
  0
LINE
  5
35F
330
226
100
AcDbEntity
  8
0
  6
Continuous
 62
     7
370
    15
100
AcDbLine
 10
1215.613007227517
 20
1557.143447387734
 30
0.0
 11
1215.613007227517
 21
1552.56119207561
 31
0.0
1001
AcDbBlockRepETag
1070
     1
1071
       11
1005
35F
  0
LINE
  5
360
330
226
100
AcDbEntity
  8
0
  6
Continuous
 62
     7
370
    15
100
AcDbLine
 10
1215.613007227517
 20
1552.56119207561
 30
0.0
 11
1215.163007227517
 21
1552.56119207561
 31
0.0
1001
AcDbBlockRepETag
1070
     1
1071
       12
1005
360
  0
LINE
  5
361
330
226
100
AcDbEntity
  8
0
  6
Continuous
 62
     7
370
    15
100
AcDbLine
 10
1215.163007227517
 20
1552.56119207561
 30
0.0
 11
1215.163007227517
 21
1540.725702699857
 31
0.0
1001
AcDbBlockRepETag
1070
     1
1071
       13
1005
361
  0
LINE
  5
362
330
226
100
AcDbEntity
  8
0
  6
Continuous
 62
     7
370
    15
100
AcDbLine
 10
1215.163007227517
 20
1540.725702699857
 30
0.0
 11
1215.613007227517
 21
1540.725702699857
 31
0.0
1001
AcDbBlockRepETag
1070
     1
1071
       14
1005
362
  0
LINE
  5
363
330
226
100
AcDbEntity
  8
0
  6
Continuous
 62
     7
370
    15
100
AcDbLine
 10
1215.613007227517
 20
1540.725702699857
 30
0.0
 11
1215.613007227517
 21
1537.143447387734
 31
0.0
1001
AcDbBlockRepETag
1070
     1
1071
       15
1005
363
  0
LINE
  5
364
330
226
100
AcDbEntity
  8
0
  6
Continuous
 62
     7
370
    15
100
AcDbLine
 10
1213.163007227518
 20
1536.143447387734
 30
0.0
 11
1213.163007227518
 21
1535.143447387734
 31
0.0
1001
AcDbBlockRepETag
1070
     1
1071
       16
1005
364
  0
LINE
  5
365
330
226
100
AcDbEntity
  8
0
  6
Continuous
 62
     7
370
    15
100
AcDbLine
 10
1217.163007227518
 20
1535.143447387734
 30
0.0
 11
1217.163007227518
 21
1536.143447387734
 31
0.0
1001
AcDbBlockRepETag
1070
     1
1071
       17
1005
365
  0
LINE
  5
366
330
226
100
AcDbEntity
  8
0
  6
Continuous
 62
     7
370
    15
100
AcDbLine
 10
1210.913007227518
 20
1537.143447387734
 30
0.0
 11
1213.163007227518
 21
1537.143447387734
 31
0.0
1001
AcDbBlockRepETag
1070
     1
1071
       18
1005
366
  0
LINE
  5
367
330
226
100
AcDbEntity
  8
0
  6
Continuous
 62
     7
370
    15
100
AcDbLine
 10
1210.913007227518
 20
1538.143447387734
 30
0.0
 11
1210.913007227518
 21
1537.143447387734
 31
0.0
1001
AcDbBlockRepETag
1070
     1
1071
       19
1005
367
  0
LINE
  5
368
330
226
100
AcDbEntity
  8
0
  6
Continuous
 62
     7
370
    15
100
AcDbLine
 10
1215.613007227517
 20
1551.143447387734
 30
0.0
 11
1215.163007227517
 21
1551.143447387734
 31
0.0
1001
AcDbBlockRepETag
1070
     1
1071
       20
1005
368
  0
LINE
  5
369
330
226
100
AcDbEntity
  8
0
  6
Continuous
 62
     7
370
    15
100
AcDbLine
 10
1215.613007227517
 20
1552.56119207561
 30
0.0
 11
1215.613007227517
 21
1551.143447387734
 31
0.0
1001
AcDbBlockRepETag
1070
     1
1071
       21
1005
369
  0
LINE
  5
36A
330
226
100
AcDbEntity
  8
0
  6
Continuous
 62
     7
370
    15
100
AcDbLine
 10
1215.163007227517
 20
1542.143447387734
 30
0.0
 11
1215.613007227517
 21
1542.143447387734
 31
0.0
1001
AcDbBlockRepETag
1070
     1
1071
       22
1005
36A
  0
LINE
  5
36B
330
226
100
AcDbEntity
  8
0
  6
Continuous
 62
     7
370
    15
100
AcDbLine
 10
1215.613007227517
 20
1542.143447387734
 30
0.0
 11
1215.613007227517
 21
1540.725702699858
 31
0.0
1001
AcDbBlockRepETag
1070
     1
1071
       23
1005
36B
  0
LINE
  5
36C
330
226
100
AcDbEntity
  8
0
  6
Continuous
 62
     7
370
    15
100
AcDbLine
 10
1215.613007227517
 20
1551.143447387734
 30
0.0
 11
1215.613007227517
 21
1542.143447387734
 31
0.0
1001
AcDbBlockRepETag
1070
     1
1071
       24
1005
36C
  0
ARC
  5
36D
330
226
100
AcDbEntity
  8
0
  6
Continuous
 62
     7
370
    15
100
AcDbCircle
 10
1210.163007227518
 20
1537.643447387734
 30
0.0
 40
0.5
100
AcDbArc
 50
180.0
 51
270.0
1001
AcDbBlockRepETag
1070
     1
1071
       25
1005
36D
  0
LINE
  5
36E
330
226
100
AcDbEntity
  8
0
  6
Continuous
 62
     7
370
    15
100
AcDbLine
 10
1209.663007227518
 20
1548.919538151461
 30
0.0
 11
1209.663007227518
 21
1537.643447387734
 31
0.0
1001
AcDbBlockRepETag
1070
     1
1071
       26
1005
36E
  0
LINE
  5
36F
330
226
100
AcDbEntity
  8
0
  6
Continuous
 62
     7
370
    15
100
AcDbLine
 10
1211.813007227518
 20
1552.643447387733
 30
0.0
 11
1209.663007227518
 21
1548.919538151461
 31
0.0
1001
AcDbBlockRepETag
1070
     1
1071
       27
1005
36F
  0
LINE
  5
370
330
226
100
AcDbEntity
  8
0
  6
Continuous
 62
     7
370
    15
100
AcDbLine
 10
1212.813007227518
 20
1552.643447387733
 30
0.0
 11
1211.813007227518
 21
1552.643447387733
 31
0.0
1001
AcDbBlockRepETag
1070
     1
1071
       28
1005
370
  0
LINE
  5
371
330
226
100
AcDbEntity
  8
0
  6
Continuous
 62
     7
370
    15
100
AcDbLine
 10
1213.163007227518
 20
1552.037229605084
 30
0.0
 11
1212.813007227518
 21
1552.643447387733
 31
0.0
1001
AcDbBlockRepETag
1070
     1
1071
       29
1005
371
  0
ARC
  5
372
330
226
100
AcDbEntity
  8
0
  6
Continuous
 62
     7
370
    15
100
AcDbCircle
 10
1215.373370946706
 20
1549.611476594943
 30
0.0
 40
2.500000000000029
100
AcDbArc
 50
152.1465474699074
 51
207.8534525300926
1001
AcDbBlockRepETag
1070
     1
1071
       30
1005
372
  0
LINE
  5
373
330
226
100
AcDbEntity
  8
0
  6
Continuous
 62
     7
370
    15
100
AcDbLine
 10
1210.163007227518
 20
1537.143447387734
 30
0.0
 11
1210.913007227518
 21
1537.143447387734
 31
0.0
1001
AcDbBlockRepETag
1070
     1
1071
       31
1005
373
  0
ENDBLK
  5
248
330
226
100
AcDbEntity
  8
0
100
AcDbBlockEnd
  0
ENDSEC
  0
SECTION
  2
ENTITIES
  0
LINE
  5
2CC
330
1F
100
AcDbEntity
  8
0
  6
Continuous
 62
     7
370
    15
100
AcDbLine
 10
1149.878919720583
 20
1448.357744154865
 30
0.0
 11
1149.878919720583
 21
1452.195485970728
 31
0.0
  0
LINE
  5
2CD
330
1F
100
AcDbEntity
  8
0
  6
Continuous
 62
     7
370
    15
100
AcDbLine
 10
1164.021055344314
 20
1456.521825273092
 30
0.0
 11
1164.021055344314
 21
1460.359567088955
 31
0.0
  0
LINE
  5
2CE
330
1F
100
AcDbEntity
  8
0
  6
Continuous
 62
     7
370
    15
100
AcDbLine
 10
1162.606841781941
 20
1461.175975200778
 30
0.0
 11
1162.606841781941
 21
1463.013192027521
 31
0.0
  0
LINE
  5
2CF
330
1F
100
AcDbEntity
  8
0
  6
Continuous
 62
     7
370
    15
100
AcDbLine
 10
1133.850408310626
 20
1460.425141519794
 30
0.0
 11
1133.426144241914
 21
1460.180219086247
 31
0.0
  0
LINE
  5
2D0
330
1F
100
AcDbEntity
  8
0
  6
Continuous
 62
     7
370
    15
100
AcDbLine
 10
1148.982493428017
 20
1469.160708316297
 30
0.0
 11
1148.558229359306
 21
1468.91578588275
 31
0.0
  0
LINE
  5
2D1
330
1F
100
AcDbEntity
  8
0
  6
Continuous
 62
     7
370
    15
100
AcDbLine
 10
1146.757599377024
 20
1454.440906853383
 30
0.0
 11
1146.757599377024
 21
1452.60369002664
 31
0.0
  0
LINE
  5
2D2
330
1F
100
AcDbEntity
  8
0
  6
Continuous
 62
     7
370
    15
100
AcDbLine
 10
1146.757599377024
 20
1452.60369002664
 30
0.0
 11
1148.171812939397
 21
1451.787281914817
 31
0.0
  0
LINE
  5
2D3
330
1F
100
AcDbEntity
  8
0
  6
Continuous
 62
     7
370
    15
100
AcDbLine
 10
1148.171812939397
 20
1451.787281914817
 30
0.0
 11
1148.171812939397
 21
1447.949540098954
 31
0.0
  0
LINE
  5
2D4
330
1F
100
AcDbEntity
  8
0
  6
Continuous
 62
     7
370
    15
100
AcDbLine
 10
1147.46470615821
 20
1448.357744154865
 30
0.0
 11
1148.171812939397
 21
1447.949540098954
 31
0.0
  0
LINE
  5
2D5
330
1F
100
AcDbEntity
  8
0
  6
Continuous
 62
     7
370
    15
100
AcDbLine
 10
1147.46470615821
 20
1448.357744154865
 30
0.0
 11
1147.46470615821
 21
1450.194960981608
 31
0.0
  0
LINE
  5
2D6
330
1F
100
AcDbEntity
  8
0
  6
Continuous
 62
     7
370
    15
100
AcDbLine
 10
1147.46470615821
 20
1450.194960981608
 30
0.0
 11
1144.931669135066
 21
1451.657252129327
 31
0.0
  0
LINE
  5
2D7
330
1F
100
AcDbEntity
  8
0
  6
Continuous
 62
     7
370
    15
100
AcDbLine
 10
1144.931669135066
 20
1451.657252129327
 30
0.0
 11
1144.931669135066
 21
1452.024695494676
 31
0.0
  0
LINE
  5
2D8
330
1F
100
AcDbEntity
  8
0
  6
Continuous
 62
     7
370
    15
100
AcDbLine
 10
1144.931669135066
 20
1452.024695494676
 30
0.0
 11
1136.56271433881
 21
1456.855990261553
 31
0.0
  0
LINE
  5
2D9
330
1F
100
AcDbEntity
  8
0
  6
Continuous
 62
     7
370
    15
100
AcDbLine
 10
1136.56271433881
 20
1456.855990261553
 30
0.0
 11
1136.56271433881
 21
1456.488546896205
 31
0.0
  0
LINE
  5
2DA
330
1F
100
AcDbEntity
  8
0
  6
Continuous
 62
     7
370
    15
100
AcDbLine
 10
1136.56271433881
 20
1456.488546896205
 30
0.0
 11
1133.322570534479
 21
1458.359042099835
 31
0.0
  0
LINE
  5
2DB
330
1F
100
AcDbEntity
  8
0
  6
Continuous
 62
     7
370
    15
100
AcDbLine
 10
1133.322570534479
 20
1458.359042099835
 30
0.0
 11
1133.322570534479
 21
1459.951296683012
 31
0.0
  0
ARC
  5
2DC
330
1F
100
AcDbEntity
  8
0
  6
Continuous
 62
     7
370
    15
100
AcDbCircle
 10
1133.538107718193
 20
1459.986260281463
 30
0.0
 40
0.2183545987142391
100
AcDbArc
 50
50.79671476430084
 51
189.2140369904564
  0
LINE
  5
2DD
330
1F
100
AcDbEntity
  8
0
  6
Continuous
 62
     7
370
    15
100
AcDbLine
 10
1133.676123925072
 20
1460.155465060999
 30
0.0
 11
1145.696939205244
 21
1453.215996110507
 31
0.0
  0
LINE
  5
2DE
330
1F
100
AcDbEntity
  8
0
  6
Continuous
 62
     7
370
    15
100
AcDbLine
 10
1145.696939205244
 20
1453.215996110507
 30
0.0
 11
1145.696939205244
 21
1455.05321293725
 31
0.0
  0
LINE
  5
2DF
330
1F
100
AcDbEntity
  8
0
  6
Continuous
 62
     7
370
    15
100
AcDbLine
 10
1146.757599377024
 20
1454.440906853383
 30
0.0
 11
1145.696939205244
 21
1455.05321293725
 31
0.0
  0
LINE
  5
2E0
330
1F
100
AcDbEntity
  8
0
  6
Continuous
 62
     7
370
    15
100
AcDbLine
 10
1148.316709745351
 20
1456.565574278537
 30
0.0
 11
1145.696939205244
 21
1455.05321293725
 31
0.0
  0
LWPOLYLINE
  5
2E1
330
1F
100
AcDbEntity
  8
0
  6
Continuous
 62
     7
370
    15
100
AcDbPolyline
 90
       22
 70
   128
 43
0.0
 10
1148.316709745351
 20
1456.565574278537
 10
1148.61697448224
 20
1456.562866567117
 10
1148.916651748429
 20
1456.574037467995
 10
1149.213819754107
 20
1456.599015343694
 10
1149.506572801014
 20
1456.637640014472
 10
1149.793033503424
 20
1456.689663785535
 10
1150.071364827563
 20
1456.754753035471
 10
1150.339781872264
 20
1456.832490355715
 10
1150.596563315292
 20
1456.922377227338
 10
1150.840062451957
 20
1457.02383721798
 10
1151.068717755199
 20
1457.136219678432
 10
1151.281062889462
 20
1457.258803915163
 10
1151.475736114093
 20
1457.390803812028
 10
1151.651489016014
 20
1457.531372871528
 10
1151.807194515614
 20
1457.67960964328
 10
1151.941854094566
 20
1457.8345635049
 10
1152.05460419919
 20
1457.995240758214
 10
1152.144721778301
 20
1458.16061100171
 10
1152.211628920042
 20
1458.329613738366
 10
1152.254896557956
 20
1458.501165176469
 10
1152.274247222528
 20
1458.674165179831
 10
1152.269556820562
 20
1458.847504322809
  0
LINE
  5
2E2
330
1F
100
AcDbEntity
  8
0
  6
Continuous
 62
     7
370
    15
100
AcDbLine
 10
1152.269556820562
 20
1458.847504322809
 30
0.0
 11
1153.475113798297
 21
1459.543457552275
 31
0.0
  0
LINE
  5
2E3
330
1F
100
AcDbEntity
  8
0
  6
Continuous
 62
     7
370
    15
100
AcDbLine
 10
1153.475113798297
 20
1459.543457552275
 30
0.0
 11
1155.242880751263
 21
1458.522947412497
 31
0.0
  0
LINE
  5
2E4
330
1F
100
AcDbEntity
  8
0
  6
Continuous
 62
     7
370
    15
100
AcDbLine
 10
1148.171812939397
 20
1454.440906853383
 30
0.0
 11
1155.242880751263
 21
1458.522947412497
 31
0.0
  0
ARC
  5
2E5
330
1F
100
AcDbEntity
  8
0
  6
Continuous
 62
     7
370
    15
100
AcDbCircle
 10
1147.46470615821
 20
1455.792962369392
 30
0.0
 40
1.525796224392994
100
AcDbArc
 50
242.3910402157566
 51
297.6089597842434
  0
LINE
  5
2E6
330
1F
100
AcDbEntity
  8
0
  6
Continuous
 62
     7
370
    15
100
AcDbLine
 10
1148.171812939397
 20
1452.60369002664
 30
0.0
 11
1148.171812939397
 21
1454.440906853383
 31
0.0
  0
ARC
  5
2E7
330
1F
100
AcDbEntity
  8
0
  6
Continuous
 62
     7
370
    15
100
AcDbCircle
 10
1147.46470615821
 20
1453.955745542649
 30
0.0
 40
1.52579622439317
100
AcDbArc
 50
242.3910402157566
 51
297.6089597842434
  0
LWPOLYLINE
  5
2E8
330
1F
100
AcDbEntity
  8
0
  6
Continuous
 62
     7
370
    15
100
AcDbPolyline
 90
       22
 70
   128
 43
0.0
 10
1149.58602650177
 20
1452.60369002664
 10
1149.68351750035
 20
1452.538291067048
 10
1149.763035114088
 20
1452.465234408073
 10
1149.822803050891
 20
1452.386152014754
 10
1149.861486193817
 20
1452.302810457078
 10
1149.878220425372
 20
1452.217071447724
 10
1149.872631930477
 20
1452.130850254484
 10
1149.844845546872
 20
1452.046072916337
 10
1149.795481976453
 20
1451.964633218928
 10
1149.725643919812
 20
1451.888350390521
 10
1149.636891443729
 20
1451.818928463449
 10
1149.531207131861
 20
1451.757918208848
 10
1149.410951797098
 20
1451.706682494988
 10
1149.278811744903
 20
1451.666365843053
 10
1149.137738765686
 20
1451.637868860426
 10
1148.990884196686
 20
1451.621828122608
 10
1148.841528526307
 20
1451.618601953176
 10
1148.69300811342
 20
1451.628262419423
 10
1148.548640658628
 20
1451.650593722499
 10
1148.41165109231
 20
1451.685097017992
 10
1148.28509953501
 20
1451.731001559298
 10
1148.171812939397
 20
1451.787281914817
  0
LWPOLYLINE
  5
2E9
330
1F
100
AcDbEntity
  8
0
  6
Continuous
 62
     7
370
    15
100
AcDbPolyline
 90
       17
 70
   128
 43
0.0
 10
1148.171812939397
 20
1447.949540098954
 10
1148.28509953501
 20
1447.893259743435
 10
1148.41165109231
 20
1447.84735520213
 10
1148.548640658628
 20
1447.812851906636
 10
1148.69300811342
 20
1447.79052060356
 10
1148.841528526307
 20
1447.780860137313
 10
1148.990884196686
 20
1447.784086306745
 10
1149.137738765686
 20
1447.800127044563
 10
1149.278811744903
 20
1447.82862402719
 10
1149.410951797098
 20
1447.868940679125
 10
1149.531207131861
 20
1447.920176392985
 10
1149.636891443729
 20
1447.981186647586
 10
1149.725643919812
 20
1448.050608574657
 10
1149.795481976453
 20
1448.126891403064
 10
1149.844845546872
 20
1448.208331100474
 10
1149.872631930477
 20
1448.293108438621
 10
1149.878919720583
 20
1448.357744154865
  0
ARC
  5
2EA
330
1F
100
AcDbEntity
  8
0
  6
Continuous
 62
     7
370
    15
100
AcDbCircle
 10
1149.528691160971
 20
1453.011894082551
 30
0.0
 40
0.3286273303446112
100
AcDbArc
 50
111.312551893214
 51
248.687448106786
  0
LINE
  5
2EB
330
1F
100
AcDbEntity
  8
0
  6
Continuous
 62
     7
370
    15
100
AcDbLine
 10
1149.58602650177
 20
1452.60369002664
 30
0.0
 11
1149.409249806473
 21
1452.705741040617
 31
0.0
  0
LINE
  5
2EC
330
1F
100
AcDbEntity
  8
0
  6
Continuous
 62
     7
370
    15
100
AcDbLine
 10
1149.409249806473
 20
1453.318047124484
 30
0.0
 11
1148.171812939397
 21
1452.60369002664
 31
0.0
  0
LINE
  5
2ED
330
1F
100
AcDbEntity
  8
0
  6
Continuous
 62
     7
370
    15
100
AcDbLine
 10
1155.242880751263
 20
1458.522947412497
 30
0.0
 11
1155.242880751263
 21
1459.135353021411
 31
0.0
  0
LINE
  5
2EE
330
1F
100
AcDbEntity
  8
0
  6
Continuous
 62
     7
370
    15
100
AcDbLine
 10
1155.242880751263
 20
1459.135353021411
 30
0.0
 11
1155.667144819975
 21
1459.380275454958
 31
0.0
  0
LINE
  5
2EF
330
1F
100
AcDbEntity
  8
0
  6
Continuous
 62
     7
370
    15
100
AcDbLine
 10
1155.667144819975
 20
1459.380275454958
 30
0.0
 11
1155.667144819975
 21
1458.767869846044
 31
0.0
  0
LINE
  5
2F0
330
1F
100
AcDbEntity
  8
0
  6
Continuous
 62
     7
370
    15
100
AcDbLine
 10
1155.667144819975
 20
1458.767869846044
 30
0.0
 11
1162.313948563127
 21
1462.60498797161
 31
0.0
  0
LINE
  5
2F1
330
1F
100
AcDbEntity
  8
0
  6
Continuous
 62
     7
370
    15
100
AcDbLine
 10
1162.313948563127
 20
1462.60498797161
 30
0.0
 11
1162.313948563127
 21
1460.767771144867
 31
0.0
  0
LINE
  5
2F2
330
1F
100
AcDbEntity
  8
0
  6
Continuous
 62
     7
370
    15
100
AcDbLine
 10
1162.313948563127
 20
1460.767771144867
 30
0.0
 11
1161.076511696051
 21
1460.053414047022
 31
0.0
  0
LINE
  5
2F3
330
1F
100
AcDbEntity
  8
0
  6
Continuous
 62
     7
370
    15
100
AcDbLine
 10
1161.076511696051
 20
1458.052889057902
 30
0.0
 11
1161.076511696051
 21
1460.053414047022
 31
0.0
  0
LINE
  5
2F4
330
1F
100
AcDbEntity
  8
0
  6
Continuous
 62
     7
370
    15
100
AcDbLine
 10
1161.076511696051
 20
1458.052889057902
 30
0.0
 11
1149.878919720583
 21
1451.588656805516
 31
0.0
  0
ARC
  5
2F5
330
1F
100
AcDbEntity
  8
0
  6
Continuous
 62
     7
370
    15
100
AcDbCircle
 10
1149.540303053234
 20
1456.801393107899
 30
0.0
 40
0.9890253815755695
100
AcDbArc
 50
5.130290803719744
 51
66.1898501538846
  0
LWPOLYLINE
  5
2F6
330
1F
100
AcDbEntity
  8
0
  6
Continuous
 62
     7
370
    15
100
AcDbPolyline
 90
        3
 70
   128
 43
0.0
 10
1147.298730347028
 20
1455.977907280729
 10
1147.272346330318
 20
1455.989941077533
 10
1147.111152767617
 20
1456.073424501886
  0
LINE
  5
2F7
330
1F
100
AcDbEntity
  8
0
  6
Continuous
 62
     7
370
    15
100
AcDbLine
 10
1145.484807170888
 20
1460.277926277773
 30
0.0
 11
1149.939579892363
 21
1457.706240725532
 31
0.0
  0
LINE
  5
2F8
330
1F
100
AcDbEntity
  8
0
  6
Continuous
 62
     7
370
    15
100
AcDbLine
 10
1147.252574123855
 20
1461.298436417552
 30
0.0
 11
1145.484807170888
 21
1460.277926277773
 31
0.0
  0
LINE
  5
2F9
330
1F
100
AcDbEntity
  8
0
  6
Continuous
 62
     7
370
    15
100
AcDbLine
 10
1152.237612256173
 20
1458.420635159487
 30
0.0
 11
1147.252574123855
 21
1461.298436417552
 31
0.0
  0
LINE
  5
2FA
330
1F
100
AcDbEntity
  8
0
  6
Continuous
 62
     7
370
    15
100
AcDbLine
 10
1133.676123925072
 20
1460.155465060999
 30
0.0
 11
1134.100387993784
 21
1460.400387494546
 31
0.0
  0
LINE
  5
2FB
330
1F
100
AcDbEntity
  8
0
  6
Continuous
 62
     7
370
    15
100
AcDbLine
 10
1139.898663599514
 20
1457.053114236073
 30
0.0
 11
1134.100387993784
 21
1460.400387494546
 31
0.0
  0
LINE
  5
2FC
330
1F
100
AcDbEntity
  8
0
  6
Continuous
 62
     7
370
    15
100
AcDbLine
 10
1139.898663599514
 20
1457.053114236073
 30
0.0
 11
1142.656380046142
 21
1458.645110054128
 31
0.0
  0
LINE
  5
2FD
330
1F
100
AcDbEntity
  8
0
  6
Continuous
 62
     7
370
    15
100
AcDbLine
 10
1147.111152767617
 20
1456.073424501886
 30
0.0
 11
1142.656380046142
 21
1458.645110054128
 31
0.0
  0
LINE
  5
2FE
330
1F
100
AcDbEntity
  8
0
  6
Continuous
 62
     7
370
    15
100
AcDbLine
 10
1152.269556820562
 20
1458.606594558094
 30
0.0
 11
1152.269556820562
 21
1458.847504322809
 31
0.0
  0
LINE
  5
2FF
330
1F
100
AcDbEntity
  8
0
  6
Continuous
 62
     7
370
    15
100
AcDbLine
 10
1144.711386347859
 20
1462.765432894737
 30
0.0
 11
1145.600731377772
 21
1462.252024937163
 31
0.0
  0
LINE
  5
300
330
1F
100
AcDbEntity
  8
0
  6
Continuous
 62
     7
370
    15
100
AcDbLine
 10
1144.282725642872
 20
1463.29868273654
 30
0.0
 11
1144.711386347859
 21
1462.765432894737
 31
0.0
  0
LINE
  5
301
330
1F
100
AcDbEntity
  8
0
  6
Continuous
 62
     7
370
    15
100
AcDbLine
 10
1144.282725642872
 20
1464.115223548425
 30
0.0
 11
1144.282725642872
 21
1463.29868273654
 31
0.0
  0
LINE
  5
302
330
1F
100
AcDbEntity
  8
0
  6
Continuous
 62
     7
370
    15
100
AcDbLine
 10
1146.915927116364
 20
1464.350671439888
 30
0.0
 11
1144.282725642872
 21
1464.115223548425
 31
0.0
  0
LINE
  5
303
330
1F
100
AcDbEntity
  8
0
  6
Continuous
 62
     7
370
    15
100
AcDbLine
 10
1154.88932736067
 20
1459.747725455309
 30
0.0
 11
1146.915927116364
 21
1464.350671439888
 31
0.0
  0
ARC
  5
304
330
1F
100
AcDbEntity
  8
0
  6
Continuous
 62
     7
370
    15
100
AcDbCircle
 10
1154.47527270058
 20
1459.100422595281
 30
0.0
 40
0.7684024037855818
100
AcDbArc
 50
2.605478485636846
 51
57.39452165998785
  0
ARC
  5
305
330
1F
100
AcDbEntity
  8
0
  6
Continuous
 62
     7
370
    15
100
AcDbCircle
 10
1145.384911472285
 20
1459.970686328465
 30
0.0
 40
2.291524400730621
100
AcDbArc
 50
35.4096061122433
 51
84.59577042045749
  0
LINE
  5
306
330
1F
100
AcDbEntity
  8
0
  6
Continuous
 62
     7
370
    15
100
AcDbLine
 10
1155.313591429382
 20
1459.992647888856
 30
0.0
 11
1154.88932736067
 21
1459.747725455309
 31
0.0
  0
ARC
  5
307
330
1F
100
AcDbEntity
  8
0
  6
Continuous
 62
     7
370
    15
100
AcDbCircle
 10
1154.899536769292
 20
1459.345345028828
 30
0.0
 40
0.7684024037861207
100
AcDbArc
 50
2.60547848564986
 51
57.39452165996985
  0
LINE
  5
308
330
1F
100
AcDbEntity
  8
0
  6
Continuous
 62
     7
370
    15
100
AcDbLine
 10
1147.340191185076
 20
1464.595593873434
 30
0.0
 11
1155.313591429382
 21
1459.992647888856
 31
0.0
  0
LINE
  5
309
330
1F
100
AcDbEntity
  8
0
  6
Continuous
 62
     7
370
    15
100
AcDbLine
 10
1146.915927116364
 20
1464.350671439888
 30
0.0
 11
1147.340191185076
 21
1464.595593873434
 31
0.0
  0
LINE
  5
30A
330
1F
100
AcDbEntity
  8
0
  6
Continuous
 62
     7
370
    15
100
AcDbLine
 10
1161.253288391348
 20
1464.033702167299
 30
0.0
 11
1162.313948563128
 21
1463.421396083432
 31
0.0
  0
LWPOLYLINE
  5
30B
330
1F
100
AcDbEntity
  8
0
  6
Continuous
 62
     7
370
    15
100
AcDbPolyline
 90
       11
 70
   128
 43
0.0
 10
1162.313948563128
 20
1463.421396083432
 10
1162.415858776316
 20
1463.352513231015
 10
1162.49784830613
 20
1463.275275164424
 10
1162.557898298236
 20
1463.191583741199
 10
1162.594530122536
 20
1463.103499721935
 10
1162.606841781941
 20
1463.013192027521
 10
1162.594530122536
 20
1462.922884333107
 10
1162.557898298236
 20
1462.834800313843
 10
1162.49784830613
 20
1462.751108890618
 10
1162.415858776316
 20
1462.673870824027
 10
1162.313948563127
 20
1462.60498797161
  0
LWPOLYLINE
  5
30C
330
1F
100
AcDbEntity
  8
0
  6
Continuous
 62
     7
370
    15
100
AcDbPolyline
 90
       22
 70
   128
 43
0.0
 10
1154.891947839992
 20
1460.236057551891
 10
1154.980935512919
 20
1460.236703070319
 10
1155.280612779107
 20
1460.247873971197
 10
1155.577780784786
 20
1460.272851846896
 10
1155.870533831694
 20
1460.311476517674
 10
1156.156994534103
 20
1460.363500288738
 10
1156.435325858242
 20
1460.428589538673
 10
1156.703742902942
 20
1460.506326858917
 10
1156.960524345971
 20
1460.596213730541
 10
1157.204023482636
 20
1460.697673721182
 10
1157.432678785879
 20
1460.810056181635
 10
1157.645023920141
 20
1460.932640418365
 10
1157.839697144773
 20
1461.06464031523
 10
1158.015450046693
 20
1461.20520937473
 10
1158.171155546293
 20
1461.353446146482
 10
1158.305815125245
 20
1461.508400008102
 10
1158.418565229869
 20
1461.669077261416
 10
1158.50868280898
 20
1461.834447504912
 10
1158.575589950722
 20
1462.003450241568
 10
1158.618857588636
 20
1462.175001679671
 10
1158.638208253208
 20
1462.348001683033
 10
1158.633517851241
 20
1462.521340826012
  0
LINE
  5
30D
330
1F
100
AcDbEntity
  8
0
  6
Continuous
 62
     7
370
    15
100
AcDbLine
 10
1161.253288391348
 20
1464.033702167299
 30
0.0
 11
1158.633517851241
 21
1462.521340826012
 31
0.0
  0
LINE
  5
30E
330
1F
100
AcDbEntity
  8
0
  6
Continuous
 62
     7
370
    15
100
AcDbLine
 10
1158.633517851241
 20
1462.521340826012
 30
0.0
 11
1158.633517851241
 21
1462.280431061296
 31
0.0
  0
LINE
  5
30F
330
1F
100
AcDbEntity
  8
0
  6
Continuous
 62
     7
370
    15
100
AcDbLine
 10
1135.267114182742
 20
1459.767671207884
 30
0.0
 11
1135.267114182742
 21
1459.726850802293
 31
0.0
  0
LINE
  5
310
330
1F
100
AcDbEntity
  8
0
  6
Continuous
 62
     7
370
    15
100
AcDbLine
 10
1139.863308260455
 20
1457.11434484446
 30
0.0
 11
1135.267114182742
 21
1459.767671207884
 31
0.0
  0
LINE
  5
311
330
1F
100
AcDbEntity
  8
0
  6
Continuous
 62
     7
370
    15
100
AcDbLine
 10
1139.863308260455
 20
1457.073524438869
 30
0.0
 11
1139.863308260455
 21
1457.11434484446
 31
0.0
  0
LINE
  5
312
330
1F
100
AcDbEntity
  8
0
  6
Continuous
 62
     7
370
    15
100
AcDbLine
 10
1142.585669368023
 20
1458.685930459719
 30
0.0
 11
1140.817902415057
 21
1459.706440599497
 31
0.0
  0
LINE
  5
313
330
1F
100
AcDbEntity
  8
0
  6
Continuous
 62
     7
370
    15
100
AcDbLine
 10
1139.863308260455
 20
1457.11434484446
 30
0.0
 11
1142.585669368023
 21
1458.685930459719
 31
0.0
  0
LINE
  5
314
330
1F
100
AcDbEntity
  8
0
  6
Continuous
 62
     7
370
    15
100
AcDbLine
 10
1149.904224553304
 20
1468.217495165249
 30
0.0
 11
1135.267114182742
 21
1459.767671207884
 31
0.0
  0
LINE
  5
315
330
1F
100
AcDbEntity
  8
0
  6
Continuous
 62
     7
370
    15
100
AcDbLine
 10
1149.904224553304
 20
1468.217495165249
 30
0.0
 11
1154.500418631016
 21
1465.564168801825
 31
0.0
  0
LINE
  5
316
330
1F
100
AcDbEntity
  8
0
  6
Continuous
 62
     7
370
    15
100
AcDbLine
 10
1151.778057523448
 20
1463.992583186566
 30
0.0
 11
1154.500418631016
 21
1465.564168801825
 31
0.0
  0
LINE
  5
317
330
1F
100
AcDbEntity
  8
0
  6
Continuous
 62
     7
370
    15
100
AcDbLine
 10
1150.010290570482
 20
1465.013093326345
 30
0.0
 11
1151.778057523448
 21
1463.992583186566
 31
0.0
  0
ARC
  5
318
330
1F
100
AcDbEntity
  8
0
  6
Continuous
 62
     7
370
    15
100
AcDbCircle
 10
1148.645043804604
 20
1462.697562360055
 30
0.0
 40
2.688044342563086
100
AcDbArc
 50
59.47622032689114
 51
136.8190465050623
  0
LINE
  5
319
330
1F
100
AcDbEntity
  8
0
  6
Continuous
 62
     7
370
    15
100
AcDbLine
 10
1145.414096492769
 20
1460.318746683364
 30
0.0
 11
1147.205734726092
 21
1461.353037419964
 31
0.0
  0
LINE
  5
31A
330
1F
100
AcDbEntity
  8
0
  6
Continuous
 62
     7
370
    15
100
AcDbLine
 10
1143.646329539803
 20
1461.339256823143
 30
0.0
 11
1145.414096492769
 21
1460.318746683364
 31
0.0
  0
LWPOLYLINE
  5
31B
330
1F
100
AcDbEntity
  8
0
  6
Continuous
 62
     7
370
    15
100
AcDbPolyline
 90
       30
 70
   128
 43
0.0
 10
1140.817902415057
 20
1459.706440599497
 10
1140.673289213346
 20
1459.799495662512
 10
1140.546951830196
 20
1459.901031378656
 10
1140.440371455912
 20
1460.009857334492
 10
1140.354797647935
 20
1460.12469764519
 10
1140.291233680923
 20
1460.244205913104
 10
1140.250424784272
 20
1460.366981013062
 10
1140.232849404983
 20
1460.491583519271
 10
1140.238713598309
 20
1460.616552581271
 10
1140.267948611946
 20
1460.74042305107
 10
1140.320211692086
 20
1460.861742660665
 10
1140.394890101902
 20
1460.979089048558
 10
1140.491108305317
 20
1461.091086435642
 10
1140.607738231869
 20
1461.196421754952
 10
1140.743412502305
 20
1461.29386004618
 10
1140.896540459852
 20
1461.382258934448
 10
1141.065326819215
 20
1461.460582023617
 10
1141.247792714652
 20
1461.527911047077
 10
1141.441798900369
 20
1461.583456633587
 10
1141.645070831222
 20
1461.626567561932
 10
1141.855225329673
 20
1461.656738395894
 10
1142.069798526375
 20
1461.673615410028
 10
1142.286274746782
 20
1461.677000736776
 10
1142.502116005136
 20
1461.666854686278
 10
1142.714791760029
 20
1461.643296211697
 10
1142.921808582686
 20
1461.60660151461
 10
1143.120739390138
 20
1461.557200806788
 10
1143.309251900552
 20
1461.495673266365
 10
1143.485135977102
 20
1461.422740247495
 10
1143.646329539803
 20
1461.339256823143
  0
LINE
  5
31C
330
1F
100
AcDbEntity
  8
0
  6
Continuous
 62
     7
370
    15
100
AcDbLine
 10
1142.585669368023
 20
1458.604289648536
 30
0.0
 11
1142.585669368023
 21
1458.685930459719
 31
0.0
  0
ARC
  5
31D
330
1F
100
AcDbEntity
  8
0
  6
Continuous
 62
     7
370
    15
100
AcDbCircle
 10
1155.904264083913
 20
1460.4752296111
 30
0.0
 40
0.9890253815757812
100
AcDbArc
 50
5.13029080373272
 51
66.1898501538846
  0
LINE
  5
31E
330
1F
100
AcDbEntity
  8
0
  6
Continuous
 62
     7
370
    15
100
AcDbLine
 10
1151.848768201567
 20
1463.951762780975
 30
0.0
 11
1156.303540923042
 21
1461.380077228734
 31
0.0
  0
LINE
  5
31F
330
1F
100
AcDbEntity
  8
0
  6
Continuous
 62
     7
370
    15
100
AcDbLine
 10
1151.848768201567
 20
1463.951762780975
 30
0.0
 11
1154.606484648194
 21
1465.54375859903
 31
0.0
  0
LINE
  5
320
330
1F
100
AcDbEntity
  8
0
  6
Continuous
 62
     7
370
    15
100
AcDbLine
 10
1148.808209042464
 20
1468.891031857502
 30
0.0
 11
1154.606484648194
 21
1465.54375859903
 31
0.0
  0
LINE
  5
321
330
1F
100
AcDbEntity
  8
0
  6
Continuous
 62
     7
370
    15
100
AcDbLine
 10
1148.808209042464
 20
1468.891031857502
 30
0.0
 11
1149.232473111177
 21
1469.135954291049
 31
0.0
  0
LINE
  5
322
330
1F
100
AcDbEntity
  8
0
  6
Continuous
 62
     7
370
    15
100
AcDbLine
 10
1159.662039532
 20
1463.115093753928
 30
0.0
 11
1149.232473111177
 21
1469.135954291049
 31
0.0
  0
LINE
  5
323
330
1F
100
AcDbEntity
  8
0
  6
Continuous
 62
     7
370
    15
100
AcDbLine
 10
1145.484807170888
 20
1458.644844654001
 30
0.0
 11
1145.484807170888
 21
1460.277926277773
 31
0.0
  0
LINE
  5
324
330
1F
100
AcDbEntity
  8
0
  6
Continuous
 62
     7
370
    15
100
AcDbLine
 10
1149.054841505778
 20
1456.583907700746
 30
0.0
 11
1145.484807170888
 21
1458.644844654001
 31
0.0
  0
ARC
  5
325
330
1F
100
AcDbEntity
  8
0
  6
Continuous
 62
     7
370
    15
100
AcDbCircle
 10
1161.606841781941
 20
1459.035503725676
 30
0.0
 40
1.147776730162153
100
AcDbArc
 50
62.48053900393223
 51
117.5194609960677
  0
ARC
  5
326
330
1F
100
AcDbEntity
  8
0
  6
Continuous
 62
     7
370
    15
100
AcDbCircle
 10
1162.099243399035
 20
1461.23100559419
 30
0.0
 40
0.5105726809452415
100
AcDbArc
 50
294.8673152799567
 51
353.8125437624314
  0
LINE
  5
327
330
1F
100
AcDbEntity
  8
0
  6
Continuous
 62
     7
370
    15
100
AcDbLine
 10
1163.728162125501
 20
1460.767771144867
 30
0.0
 11
1162.606841781941
 21
1461.415095600515
 31
0.0
  0
LWPOLYLINE
  5
328
330
1F
100
AcDbEntity
  8
0
  6
Continuous
 62
     7
370
    15
100
AcDbPolyline
 90
       22
 70
   128
 43
0.0
 10
1163.728162125501
 20
1460.767771144867
 10
1163.825653124081
 20
1460.702372185275
 10
1163.905170737819
 20
1460.629315526301
 10
1163.964938674623
 20
1460.550233132981
 10
1164.003621817547
 20
1460.466891575305
 10
1164.020356049103
 20
1460.381152565951
 10
1164.014767554207
 20
1460.294931372711
 10
1163.986981170603
 20
1460.210154034564
 10
1163.937617600184
 20
1460.128714337155
 10
1163.867779543542
 20
1460.052431508748
 10
1163.77902706746
 20
1459.983009581676
 10
1163.673342755592
 20
1459.921999327075
 10
1163.553087420829
 20
1459.870763613215
 10
1163.420947368634
 20
1459.83044696128
 10
1163.279874389417
 20
1459.801949978653
 10
1163.133019820418
 20
1459.785909240835
 10
1162.983664150038
 20
1459.782683071402
 10
1162.835143737151
 20
1459.79234353765
 10
1162.690776282359
 20
1459.814674840726
 10
1162.553786716041
 20
1459.849178136219
 10
1162.427235158741
 20
1459.895082677525
 10
1162.313948563127
 20
1459.951363033044
  0
LINE
  5
329
330
1F
100
AcDbEntity
  8
0
  6
Continuous
 62
     7
370
    15
100
AcDbLine
 10
1162.137171867831
 20
1460.053414047022
 30
0.0
 11
1162.313948563127
 21
1459.951363033044
 31
0.0
  0
LINE
  5
32A
330
1F
100
AcDbEntity
  8
0
  6
Continuous
 62
     7
370
    15
100
AcDbLine
 10
1136.88096411068
 20
1456.672268578879
 30
0.0
 11
1136.56271433881
 21
1456.488546896205
 31
0.0
  0
LWPOLYLINE
  5
32B
330
1F
100
AcDbEntity
  8
0
  6
Continuous
 62
     7
370
    15
100
AcDbPolyline
 90
       17
 70
   128
 43
0.0
 10
1162.313948563127
 20
1456.113621217181
 10
1162.427235158741
 20
1456.057340861662
 10
1162.553786716041
 20
1456.011436320356
 10
1162.690776282359
 20
1455.976933024863
 10
1162.835143737151
 20
1455.954601721787
 10
1162.983664150038
 20
1455.944941255539
 10
1163.133019820418
 20
1455.948167424972
 10
1163.279874389417
 20
1455.96420816279
 10
1163.420947368634
 20
1455.992705145417
 10
1163.553087420829
 20
1456.033021797352
 10
1163.673342755592
 20
1456.084257511212
 10
1163.77902706746
 20
1456.145267765813
 10
1163.867779543542
 20
1456.214689692885
 10
1163.937617600184
 20
1456.290972521292
 10
1163.986981170603
 20
1456.372412218701
 10
1164.014767554207
 20
1456.457189556848
 10
1164.021055344314
 20
1456.521825273092
  0
LINE
  5
32C
330
1F
100
AcDbEntity
  8
0
  6
Continuous
 62
     7
370
    15
100
AcDbLine
 10
1162.313948563127
 20
1459.951363033044
 30
0.0
 11
1162.313948563127
 21
1456.113621217181
 31
0.0
  0
LINE
  5
32D
330
1F
100
AcDbEntity
  8
0
  6
Continuous
 62
     7
370
    15
100
AcDbLine
 10
1143.646329539803
 20
1459.706175199371
 30
0.0
 11
1143.646329539803
 21
1461.339256823143
 31
0.0
  0
ARC
  5
32E
330
1F
100
AcDbEntity
  8
0
  6
Continuous
 62
     7
370
    15
100
AcDbCircle
 10
1142.232103467263
 20
1456.989640127118
 30
0.0
 40
3.062612966574667
100
AcDbArc
 50
62.49854928716281
 51
117.4960744713722
  0
LINE
  5
32F
330
1F
100
AcDbEntity
  8
0
  6
Continuous
 62
     7
370
    15
100
AcDbLine
 10
1162.137171867831
 20
1458.052889057902
 30
0.0
 11
1162.137171867831
 21
1460.053414047022
 31
0.0
  0
ARC
  5
330
330
1F
100
AcDbEntity
  8
0
  6
Continuous
 62
     7
370
    15
100
AcDbCircle
 10
1161.606841781941
 20
1457.034978736556
 30
0.0
 40
1.147776730162368
100
AcDbArc
 50
62.48053900393223
 51
117.5194609960562
  0
LINE
  5
331
330
1F
100
AcDbEntity
  8
0
  6
Continuous
 62
     7
370
    15
100
AcDbLine
 10
1161.606841781941
 20
1456.521825273092
 30
0.0
 11
1162.313948563127
 21
1456.113621217181
 31
0.0
  0
LINE
  5
332
330
1F
100
AcDbEntity
  8
0
  6
Continuous
 62
     7
370
    15
100
AcDbLine
 10
1161.606841781941
 20
1456.521825273092
 30
0.0
 11
1161.606841781941
 21
1458.179701800032
 31
0.0
  0
LINE
  5
333
330
1F
100
AcDbEntity
  8
0
  6
Continuous
 62
     7
370
    15
100
AcDbLine
 10
1149.58596903473
 20
1468.033770165073
 30
0.0
 11
1148.454655651871
 21
1468.686863479515
 31
0.0
  0
LINE
  5
334
330
1F
100
AcDbEntity
  8
0
  6
Continuous
 62
     7
370
    15
100
AcDbLine
 10
1134.100445460824
 20
1460.400354319531
 30
0.0
 11
1148.454655651871
 21
1468.686863479515
 31
0.0
  0
LINE
  5
335
330
1F
100
AcDbEntity
  8
0
  6
Continuous
 62
     7
370
    15
100
AcDbLine
 10
1144.282725642872
 20
1464.115223548425
 30
0.0
 11
1144.706989711584
 21
1464.360145981972
 31
0.0
  0
LINE
  5
336
330
1F
100
AcDbEntity
  8
0
  6
Continuous
 62
     7
370
    15
100
AcDbLine
 10
1144.706989711584
 20
1464.360145981972
 30
0.0
 11
1147.340191185076
 21
1464.595593873434
 31
0.0
  0
ARC
  5
337
330
1F
100
AcDbEntity
  8
0
  6
Continuous
 62
     7
370
    15
100
AcDbCircle
 10
1133.953927966359
 20
1460.195946829987
 30
0.0
 40
0.2514886179512616
100
AcDbArc
 50
54.38242252483476
 51
114.3071190460398
  0
LINE
  5
338
330
1F
100
AcDbEntity
  8
0
  6
Continuous
 62
     7
370
    15
100
AcDbLine
 10
1145.414096492769
 20
1458.685665059593
 30
0.0
 11
1145.414096492769
 21
1460.318746683364
 31
0.0
  0
LINE
  5
339
330
1F
100
AcDbEntity
  8
0
  6
Continuous
 62
     7
370
    15
100
AcDbLine
 10
1145.414096492769
 20
1458.685665059593
 30
0.0
 11
1145.484807170888
 21
1458.726485465184
 31
0.0
  0
LINE
  5
33A
330
1F
100
AcDbEntity
  8
0
  6
Continuous
 62
     7
370
    15
100
AcDbLine
 10
1143.646329539803
 20
1459.706175199371
 30
0.0
 11
1145.414096492769
 21
1458.685665059593
 31
0.0
  0
LINE
  5
33B
330
1F
100
AcDbEntity
  8
0
  6
Continuous
 62
     7
370
    15
100
AcDbLine
 10
1151.848768201567
 20
1462.318681157204
 30
0.0
 11
1151.848768201567
 21
1463.951762780975
 31
0.0
  0
LINE
  5
33C
330
1F
100
AcDbEntity
  8
0
  6
Continuous
 62
     7
370
    15
100
AcDbLine
 10
1155.418802536457
 20
1460.257744203948
 30
0.0
 11
1151.848768201567
 21
1462.318681157204
 31
0.0
  0
LINE
  5
33D
330
1F
100
AcDbEntity
  8
0
  6
Continuous
 62
     7
370
    15
100
AcDbLine
 10
1150.010290570482
 20
1463.380011702573
 30
0.0
 11
1150.010290570482
 21
1465.013093326345
 31
0.0
  0
ARC
  5
33E
330
1F
100
AcDbEntity
  8
0
  6
Continuous
 62
     7
370
    15
100
AcDbCircle
 10
1148.702275213747
 20
1460.971287877333
 30
0.0
 40
2.740958708140972
100
AcDbArc
 50
61.49660098038065
 51
86.27403016778711
  0
LINE
  5
33F
330
1F
100
AcDbEntity
  8
0
  6
Continuous
 62
     7
370
    15
100
AcDbLine
 10
1154.500418631016
 20
1465.564168801825
 30
0.0
 11
1154.500418631016
 21
1465.482527990643
 31
0.0
  0
LINE
  5
340
330
1F
100
AcDbEntity
  8
0
  6
Continuous
 62
     7
370
    15
100
AcDbLine
 10
1151.778057523448
 20
1463.992583186566
 30
0.0
 11
1151.778057523448
 21
1462.359501562795
 31
0.0
  0
LINE
  5
341
330
1F
100
AcDbEntity
  8
0
  6
Continuous
 62
     7
370
    15
100
AcDbLine
 10
1151.848768201567
 20
1462.400321968386
 30
0.0
 11
1151.778057523448
 21
1462.359501562795
 31
0.0
  0
LINE
  5
342
330
1F
100
AcDbEntity
  8
0
  6
Continuous
 62
     7
370
    15
100
AcDbLine
 10
1150.010290570482
 20
1463.380011702573
 30
0.0
 11
1151.778057523448
 21
1462.359501562795
 31
0.0
  0
ARC
  5
343
330
1F
100
AcDbEntity
  8
0
  6
Continuous
 62
     7
370
    15
100
AcDbCircle
 10
1148.670192835585
 20
1468.721827077966
 30
0.0
 40
0.218354598714268
100
AcDbArc
 50
50.79671476431094
 51
189.2140369904435
  0
ARC
  5
344
330
1F
100
AcDbEntity
  8
0
  6
Continuous
 62
     7
370
    15
100
AcDbCircle
 10
1149.086013083751
 20
1468.93151362649
 30
0.0
 40
0.2514886179512043
100
AcDbArc
 50
54.38242252485293
 51
114.3071190460689
  0
LINE
  5
345
330
1F
100
AcDbEntity
  8
0
  6
Continuous
 62
     8
370
    15
100
AcDbLine
 10
1149.409249806473
 20
1453.318047124484
 30
0.0
 11
1149.409249806473
 21
1452.705741040617
 31
0.0
  0
LINE
  5
346
330
1F
100
AcDbEntity
  8
0
  6
Continuous
 62
     8
370
    15
100
AcDbLine
 10
1149.939579892363
 20
1456.722065138965
 30
0.0
 11
1149.939579892363
 21
1457.706240725532
 31
0.0
  0
LINE
  5
347
330
1F
100
AcDbEntity
  8
0
  6
Continuous
 62
     8
370
    15
100
AcDbLine
 10
1156.303540923042
 20
1461.380077228734
 30
0.0
 11
1156.303540923042
 21
1460.395901642168
 31
0.0
  0
INSERT
  5
348
330
1F
100
AcDbEntity
  8
0
100
AcDbBlockReference
  2
1
 10
-133.6950283164619
 20
-87.71347108341933
 30
0.0
  0
INSERT
  5
349
330
1F
100
AcDbEntity
  8
0
100
AcDbBlockReference
  2
2
 10
-133.6950283164619
 20
-87.71347108341933
 30
0.0
  0
INSERT
  5
34A
330
1F
100
AcDbEntity
  8
0
100
AcDbBlockReference
  2
3
 10
-133.6950283164619
 20
-87.71347108341933
 30
0.0
  0
ENDSEC
  0
SECTION
  2
OBJECTS
  0
DICTIONARY
  5
C
330
0
100
AcDbDictionary
281
     1
  3
ACAD_COLOR
350
6B
  3
ACAD_GROUP
350
D
  3
ACAD_LAYOUT
350
1A
  3
ACAD_MATERIAL
350
6A
  3
ACAD_MLEADERSTYLE
350
12D
  3
ACAD_MLINESTYLE
350
17
  3
ACAD_PLOTSETTINGS
350
19
  3
ACAD_PLOTSTYLENAME
350
E
  3
ACAD_SCALELIST
350
10C
  3
ACAD_TABLESTYLE
350
7E
  3
ACAD_VISUALSTYLE
350
EF
  3
ACDB_RECOMPOSE_DATA
350
15D
  3
AcDbVariableDictionary
350
5E
  3
DWGPROPS
350
443
  0
DICTIONARY
  5
13C
330
10
100
AcDbDictionary
280
     1
281
     1
  3
ADSK_XREC_LAYER_RECONCILED
360
34B
  0
DICTIONARY
  5
3FF
330
1AD
100
AcDbDictionary
280
     1
281
     1
  0
DICTIONARY
  5
432
330
1F7
100
AcDbDictionary
280
     1
281
     1
  0
DICTIONARY
  5
375
330
226
100
AcDbDictionary
280
     1
281
     1
  0
DICTIONARY
  5
6B
102
{ACAD_REACTORS
330
C
102
}
330
C
100
AcDbDictionary
281
     1
  0
DICTIONARY
  5
D
102
{ACAD_REACTORS
330
C
102
}
330
C
100
AcDbDictionary
281
     1
  0
DICTIONARY
  5
1A
102
{ACAD_REACTORS
330
C
102
}
330
C
100
AcDbDictionary
281
     1
  3
Layout1
350
D3
  3
Layout2
350
D7
  3
Model
350
22
  0
DICTIONARY
  5
6A
102
{ACAD_REACTORS
330
C
102
}
330
C
100
AcDbDictionary
281
     1
  3
ByBlock
350
ED
  3
ByLayer
350
EC
  3
Global
350
EE
  0
DICTIONARY
  5
12D
102
{ACAD_REACTORS
330
C
102
}
330
C
100
AcDbDictionary
281
     1
  3
Annotative
350
13B
  3
Standard
350
12E
  0
DICTIONARY
  5
17
102
{ACAD_REACTORS
330
C
102
}
330
C
100
AcDbDictionary
281
     1
  3
Standard
350
18
  0
DICTIONARY
  5
19
102
{ACAD_REACTORS
330
C
102
}
330
C
100
AcDbDictionary
281
     1
  0
ACDBDICTIONARYWDFLT
  5
E
102
{ACAD_REACTORS
330
C
102
}
330
C
100
AcDbDictionary
281
     1
  3
Normal
350
F
100
AcDbDictionaryWithDefault
340
F
  0
DICTIONARY
  5
10C
102
{ACAD_REACTORS
330
C
102
}
330
C
100
AcDbDictionary
281
     1
  3
A0
350
10D
  3
A1
350
188
  3
A2
350
189
  3
A3
350
18A
  3
A4
350
18B
  3
A5
350
18C
  3
A6
350
18D
  3
A7
350
18E
  3
A8
350
18F
  3
A9
350
190
  3
B0
350
191
  3
B1
350
192
  3
B2
350
193
  3
B3
350
194
  3
B4
350
195
  3
B5
350
196
  3
B6
350
197
  3
B7
350
198
  3
B8
350
199
  3
B9
350
19A
  3
C0
350
19B
  3
C1
350
19C
  3
C2
350
19D
  3
C3
350
19E
  3
C4
350
19F
  3
C5
350
1A0
  3
C6
350
1A1
  3
C7
350
1A2
  3
C8
350
1A3
  3
C9
350
1A4
  3
D0
350
1A5
  3
D1
350
1A6
  3
D2
350
1A7
  0
DICTIONARY
  5
7E
102
{ACAD_REACTORS
330
C
102
}
330
C
100
AcDbDictionary
281
     1
  3
Standard
350
7F
  0
DICTIONARY
  5
EF
102
{ACAD_REACTORS
330
C
102
}
330
C
100
AcDbDictionary
281
     1
  3
2dWireframe
350
F5
  3
3D Hidden
350
F7
  3
3dWireframe
350
F6
  3
Basic
350
F4
  3
Brighten
350
FB
  3
ColorChange
350
FF
  3
Conceptual
350
F8
  3
Dim
350
FA
  3
Facepattern
350
FE
  3
Flat
350
F0
  3
FlatWithEdges
350
F1
  3
Gouraud
350
F2
  3
GouraudWithEdges
350
F3
  3
Linepattern
350
FD
  3
Realistic
350
F9
  3
Thicken
350
FC
  0
XRECORD
  5
15D
102
{ACAD_REACTORS
330
C
102
}
330
C
100
AcDbXrecord
280
     1
 90
        1
330
7F
  0
DICTIONARY
  5
5E
102
{ACAD_REACTORS
330
C
102
}
330
C
100
AcDbDictionary
281
     1
  3
CANNOSCALE
350
146
  3
CMLEADERSTYLE
350
145
  3
CTABLESTYLE
350
84
  3
DIMASSOC
350
5F
  3
HIDETEXT
350
63
  3
INDEXCTL
350
43F
  3
LIGHTINGUNITS
350
43D
  3
MSLTSCALE
350
43C
  3
PSOLHEIGHT
350
441
  3
PSOLWIDTH
350
440
  3
SORTENTS
350
43E
  0
XRECORD
  5
443
102
{ACAD_REACTORS
330
C
102
}
330
C
100
AcDbXrecord
280
     1
  1
DWGPROPS COOKIE
  2

  3

  4

  6

  7

  8
orhan kara
  9

300
=
301
=
302
=
303
=
304
=
305
=
306
=
307
=
308
=
309
=
 40
0.0048137615740741
 41
2458569.641423183
 42
2458956.433144005
  1

 90
        0
  0
XRECORD
  5
34B
102
{ACAD_REACTORS
330
13C
102
}
330
13C
100
AcDbXrecord
280
     1
290
     1
  0
LAYOUT
  5
D3
102
{ACAD_XDICTIONARY
360
447
102
}
102
{ACAD_REACTORS
330
1A
102
}
330
1A
100
AcDbPlotSettings
  1

  2
C:\Documents and Settings\basas\Application Data\Autodesk\AutoCAD 2005\R16.1\enu\plotters\Default Windows System Printer.pc3
  4

  6

 40
0.0
 41
0.0
 42
0.0
 43
0.0
 44
0.0
 45
0.0
 46
0.0
 47
0.0
 48
0.0
 49
0.0
140
0.0
141
0.0
142
1.0
143
1.0
 70
   688
 72
     0
 73
     0
 74
     5
  7

 75
    16
147
1.0
148
0.0
149
0.0
100
AcDbLayout
  1
Layout1
 70
     1
 71
     1
 10
0.0
 20
0.0
 11
12.0
 21
9.0
 12
0.0
 22
0.0
 32
0.0
 14
0.0
 24
0.0
 34
0.0
 15
0.0
 25
0.0
 35
0.0
146
0.0
 13
0.0
 23
0.0
 33
0.0
 16
1.0
 26
0.0
 36
0.0
 17
0.0
 27
1.0
 37
0.0
 76
     0
330
D2
  0
LAYOUT
  5
D7
102
{ACAD_XDICTIONARY
360
449
102
}
102
{ACAD_REACTORS
330
1A
102
}
330
1A
100
AcDbPlotSettings
  1

  2
C:\Documents and Settings\basas\Application Data\Autodesk\AutoCAD 2005\R16.1\enu\plotters\Default Windows System Printer.pc3
  4

  6

 40
0.0
 41
0.0
 42
0.0
 43
0.0
 44
0.0
 45
0.0
 46
0.0
 47
0.0
 48
0.0
 49
0.0
140
0.0
141
0.0
142
1.0
143
1.0
 70
   688
 72
     0
 73
     0
 74
     5
  7

 75
    16
147
1.0
148
0.0
149
0.0
100
AcDbLayout
  1
Layout2
 70
     1
 71
     2
 10
0.0
 20
0.0
 11
12.0
 21
9.0
 12
0.0
 22
0.0
 32
0.0
 14
0.0
 24
0.0
 34
0.0
 15
0.0
 25
0.0
 35
0.0
146
0.0
 13
0.0
 23
0.0
 33
0.0
 16
1.0
 26
0.0
 36
0.0
 17
0.0
 27
1.0
 37
0.0
 76
     0
330
D6
  0
LAYOUT
  5
22
102
{ACAD_XDICTIONARY
360
444
102
}
102
{ACAD_REACTORS
330
1A
102
}
330
1A
100
AcDbPlotSettings
  1

  2
none_device
  4
ISO_A4_(210.00_x_297.00_MM)
  6

 40
7.5
 41
20.0
 42
7.5
 43
20.0
 44
210.0
 45
297.0
 46
11.54999923706054
 47
-13.65000009536743
 48
0.0
 49
0.0
140
0.0
141
0.0
142
1.0
143
8.704084754739808
 70
 11952
 72
     1
 73
     0
 74
     0
  7

 75
     0
147
0.1148885871608098
148
0.0
149
0.0
100
AcDbLayout
  1
Model
 70
     1
 71
     0
 10
0.0
 20
0.0
 11
12.0
 21
9.0
 12
0.0
 22
0.0
 32
0.0
 14
0.0
 24
0.0
 34
0.0
 15
0.0
 25
0.0
 35
0.0
146
0.0
 13
0.0
 23
0.0
 33
0.0
 16
1.0
 26
0.0
 36
0.0
 17
0.0
 27
1.0
 37
0.0
 76
     0
330
1F
331
EA
1001
ACAD_PSEXT
1000
None
1000
None
1000
Not applicable
1000
The layout will not be plotted unless a new plotter configuration name is selected.
1070
     0
  0
MATERIAL
  5
ED
102
{ACAD_XDICTIONARY
360
44D
102
}
102
{ACAD_REACTORS
330
6A
102
}
330
6A
100
AcDbMaterial
  1
ByBlock
  0
MATERIAL
  5
EC
102
{ACAD_XDICTIONARY
360
44B
102
}
102
{ACAD_REACTORS
330
6A
102
}
330
6A
100
AcDbMaterial
  1
ByLayer
  0
MATERIAL
  5
EE
102
{ACAD_XDICTIONARY
360
173
102
}
102
{ACAD_REACTORS
330
6A
102
}
330
6A
100
AcDbMaterial
  1
Global
 43
0.0007999999797903
 43
0.0
 43
0.0
 43
0.0
 43
0.0
 43
0.0007999999797903
 43
0.0
 43
0.0
 43
0.0
 43
0.0
 43
1.0
 43
0.0
 43
0.0
 43
0.0
 43
0.0
 43
1.0
 49
0.0007999999797903
 49
0.0
 49
0.0
 49
0.0
 49
0.0
 49
0.0007999999797903
 49
0.0
 49
0.0
 49
0.0
 49
0.0
 49
1.0
 49
0.0
 49
0.0
 49
0.0
 49
0.0
 49
1.0
142
0.0007999999797903
142
0.0
142
0.0
142
0.0
142
0.0
142
0.0007999999797903
142
0.0
142
0.0
142
0.0
142
0.0
142
1.0
142
0.0
142
0.0
142
0.0
142
0.0
142
1.0
144
0.0007999999797903
144
0.0
144
0.0
144
0.0
144
0.0
144
0.0007999999797903
144
0.0
144
0.0
144
0.0
144
0.0
144
1.0
144
0.0
144
0.0
144
0.0
144
0.0
144
1.0
1001
ACAD
1070
    -1
1070
     3
1070
     0
1000

1071
        0
1070
     0
  0
MLEADERSTYLE
  5
13B
102
{ACAD_REACTORS
330
12D
102
}
330
12D
100
AcDbMLeaderStyle
170
     2
171
     1
172
     0
 90
        2
 40
0.0
 41
0.0
173
     1
 91
-1056964608
340
14
 92
       -2
290
     1
 42
2.0
291
     1
 43
8.0
  3
Standard
 44
4.0
300

342
11
174
     1
178
     1
175
     1
176
     0
 93
-1056964608
 45
4.0
292
     0
297
     0
 46
4.0
 94
-1056964608
 47
1.0
 49
1.0
140
1.0
293
     1
141
0.0
294
     1
177
     0
142
1.0
295
     0
296
     1
143
3.75
1001
ACAD_MLEADERVER
1070
     2
  0
MLEADERSTYLE
  5
12E
102
{ACAD_REACTORS
330
12D
102
}
330
12D
100
AcDbMLeaderStyle
170
     2
171
     1
172
     0
 90
        2
 40
0.0
 41
0.0
173
     1
 91
-1056964608
340
14
 92
       -2
290
     1
 42
2.0
291
     1
 43
8.0
  3
Standard
 44
4.0
300

342
11
174
     1
178
     1
175
     1
176
     0
 93
-1056964608
 45
4.0
292
     0
297
     0
 46
4.0
 94
-1056964608
 47
1.0
 49
1.0
140
1.0
293
     1
141
0.0
294
     1
177
     0
142
1.0
295
     0
296
     0
143
3.75
1001
ACAD_MLEADERVER
1070
     2
  0
MLINESTYLE
  5
18
102
{ACAD_REACTORS
330
17
102
}
330
17
100
AcDbMlineStyle
  2
STANDARD
 70
     0
  3

 62
   256
 51
90.0
 52
90.0
 71
     2
 49
0.5
 62
   256
  6
BYLAYER
 49
-0.5
 62
   256
  6
BYLAYER
  0
ACDBPLACEHOLDER
  5
F
102
{ACAD_REACTORS
330
E
102
}
330
E
  0
SCALE
  5
10D
102
{ACAD_REACTORS
330
10C
102
}
330
10C
100
AcDbScale
 70
     0
300
1:1
140
1.0
141
1.0
290
     1
  0
SCALE
  5
188
102
{ACAD_REACTORS
330
10C
102
}
330
10C
100
AcDbScale
 70
     0
300
1:2
140
1.0
141
2.0
290
     0
  0
SCALE
  5
189
102
{ACAD_REACTORS
330
10C
102
}
330
10C
100
AcDbScale
 70
     0
300
1:4
140
1.0
141
4.0
290
     0
  0
SCALE
  5
18A
102
{ACAD_REACTORS
330
10C
102
}
330
10C
100
AcDbScale
 70
     0
300
1:5
140
1.0
141
5.0
290
     0
  0
SCALE
  5
18B
102
{ACAD_REACTORS
330
10C
102
}
330
10C
100
AcDbScale
 70
     0
300
1:8
140
1.0
141
8.0
290
     0
  0
SCALE
  5
18C
102
{ACAD_REACTORS
330
10C
102
}
330
10C
100
AcDbScale
 70
     0
300
1:10
140
1.0
141
10.0
290
     0
  0
SCALE
  5
18D
102
{ACAD_REACTORS
330
10C
102
}
330
10C
100
AcDbScale
 70
     0
300
1:16
140
1.0
141
16.0
290
     0
  0
SCALE
  5
18E
102
{ACAD_REACTORS
330
10C
102
}
330
10C
100
AcDbScale
 70
     0
300
1:20
140
1.0
141
20.0
290
     0
  0
SCALE
  5
18F
102
{ACAD_REACTORS
330
10C
102
}
330
10C
100
AcDbScale
 70
     0
300
1:30
140
1.0
141
30.0
290
     0
  0
SCALE
  5
190
102
{ACAD_REACTORS
330
10C
102
}
330
10C
100
AcDbScale
 70
     0
300
1:40
140
1.0
141
40.0
290
     0
  0
SCALE
  5
191
102
{ACAD_REACTORS
330
10C
102
}
330
10C
100
AcDbScale
 70
     0
300
1:50
140
1.0
141
50.0
290
     0
  0
SCALE
  5
192
102
{ACAD_REACTORS
330
10C
102
}
330
10C
100
AcDbScale
 70
     0
300
1:100
140
1.0
141
100.0
290
     0
  0
SCALE
  5
193
102
{ACAD_REACTORS
330
10C
102
}
330
10C
100
AcDbScale
 70
     0
300
2:1
140
2.0
141
1.0
290
     0
  0
SCALE
  5
194
102
{ACAD_REACTORS
330
10C
102
}
330
10C
100
AcDbScale
 70
     0
300
4:1
140
4.0
141
1.0
290
     0
  0
SCALE
  5
195
102
{ACAD_REACTORS
330
10C
102
}
330
10C
100
AcDbScale
 70
     0
300
8:1
140
8.0
141
1.0
290
     0
  0
SCALE
  5
196
102
{ACAD_REACTORS
330
10C
102
}
330
10C
100
AcDbScale
 70
     0
300
10:1
140
10.0
141
1.0
290
     0
  0
SCALE
  5
197
102
{ACAD_REACTORS
330
10C
102
}
330
10C
100
AcDbScale
 70
     0
300
100:1
140
100.0
141
1.0
290
     0
  0
SCALE
  5
198
102
{ACAD_REACTORS
330
10C
102
}
330
10C
100
AcDbScale
 70
     0
300
1/128" = 1'-0"
140
0.0078125
141
12.0
290
     0
  0
SCALE
  5
199
102
{ACAD_REACTORS
330
10C
102
}
330
10C
100
AcDbScale
 70
     0
300
1/64" = 1'-0"
140
0.015625
141
12.0
290
     0
  0
SCALE
  5
19A
102
{ACAD_REACTORS
330
10C
102
}
330
10C
100
AcDbScale
 70
     0
300
1/32" = 1'-0"
140
0.03125
141
12.0
290
     0
  0
SCALE
  5
19B
102
{ACAD_REACTORS
330
10C
102
}
330
10C
100
AcDbScale
 70
     0
300
1/16" = 1'-0"
140
0.0625
141
12.0
290
     0
  0
SCALE
  5
19C
102
{ACAD_REACTORS
330
10C
102
}
330
10C
100
AcDbScale
 70
     0
300
3/32" = 1'-0"
140
0.09375
141
12.0
290
     0
  0
SCALE
  5
19D
102
{ACAD_REACTORS
330
10C
102
}
330
10C
100
AcDbScale
 70
     0
300
1/8" = 1'-0"
140
0.125
141
12.0
290
     0
  0
SCALE
  5
19E
102
{ACAD_REACTORS
330
10C
102
}
330
10C
100
AcDbScale
 70
     0
300
3/16" = 1'-0"
140
0.1875
141
12.0
290
     0
  0
SCALE
  5
19F
102
{ACAD_REACTORS
330
10C
102
}
330
10C
100
AcDbScale
 70
     0
300
1/4" = 1'-0"
140
0.25
141
12.0
290
     0
  0
SCALE
  5
1A0
102
{ACAD_REACTORS
330
10C
102
}
330
10C
100
AcDbScale
 70
     0
300
3/8" = 1'-0"
140
0.375
141
12.0
290
     0
  0
SCALE
  5
1A1
102
{ACAD_REACTORS
330
10C
102
}
330
10C
100
AcDbScale
 70
     0
300
1/2" = 1'-0"
140
0.5
141
12.0
290
     0
  0
SCALE
  5
1A2
102
{ACAD_REACTORS
330
10C
102
}
330
10C
100
AcDbScale
 70
     0
300
3/4" = 1'-0"
140
0.75
141
12.0
290
     0
  0
SCALE
  5
1A3
102
{ACAD_REACTORS
330
10C
102
}
330
10C
100
AcDbScale
 70
     0
300
1" = 1'-0"
140
1.0
141
12.0
290
     0
  0
SCALE
  5
1A4
102
{ACAD_REACTORS
330
10C
102
}
330
10C
100
AcDbScale
 70
     0
300
1-1/2" = 1'-0"
140
1.5
141
12.0
290
     0
  0
SCALE
  5
1A5
102
{ACAD_REACTORS
330
10C
102
}
330
10C
100
AcDbScale
 70
     0
300
3" = 1'-0"
140
3.0
141
12.0
290
     0
  0
SCALE
  5
1A6
102
{ACAD_REACTORS
330
10C
102
}
330
10C
100
AcDbScale
 70
     0
300
6" = 1'-0"
140
6.0
141
12.0
290
     0
  0
SCALE
  5
1A7
102
{ACAD_REACTORS
330
10C
102
}
330
10C
100
AcDbScale
 70
     0
300
1'-0" = 1'-0"
140
12.0
141
12.0
290
     0
  0
TABLESTYLE
  5
7F
102
{ACAD_XDICTIONARY
360
162
102
}
102
{ACAD_REACTORS
330
7E
102
}
330
7E
100
AcDbTableStyle
  3
Standard
 70
     0
 71
     0
 40
1.5
 41
1.5
280
     0
281
     0
  7
Standard
140
4.5
170
     2
 62
     0
 63
     7
283
     0
274
    -2
284
     1
 64
     0
275
    -2
285
     1
 65
     0
276
    -2
286
     1
 66
     0
277
    -2
287
     1
 67
     0
278
    -2
288
     1
 68
     0
279
    -2
289
     1
 69
     0
  7
Standard
140
6.0
170
     5
 62
     0
 63
     7
283
     0
274
    -2
284
     1
 64
     0
275
    -2
285
     1
 65
     0
276
    -2
286
     1
 66
     0
277
    -2
287
     1
 67
     0
278
    -2
288
     1
 68
     0
279
    -2
289
     1
 69
     0
  7
Standard
140
4.5
170
     5
 62
     0
 63
     7
283
     0
274
    -2
284
     1
 64
     0
275
    -2
285
     1
 65
     0
276
    -2
286
     1
 66
     0
277
    -2
287
     1
 67
     0
278
    -2
288
     1
 68
     0
279
    -2
289
     1
 69
     0
  0
VISUALSTYLE
  5
F5
102
{ACAD_REACTORS
330
EF
102
}
330
EF
100
AcDbVisualStyle
  2
2dWireframe
 70
     4
 71
     0
 72
     2
 73
     1
 90
        0
 40
-0.6
 41
-30.0
 62
     5
 63
     7
 74
     1
 91
        4
 64
     7
 65
   257
 75
     1
175
     1
 42
1.0
 92
        0
 66
   257
 43
1.0
 76
     1
 77
     6
 78
     2
 67
     7
 79
     5
170
     0
171
     0
290
     0
174
     0
 93
        1
 44
0.0
173
     0
291
     0
 45
0.0
1001
ACAD
1000
AcDbSavedByObjectVersion
1070
     0
  0
VISUALSTYLE
  5
F7
102
{ACAD_REACTORS
330
EF
102
}
330
EF
100
AcDbVisualStyle
  2
3D Hidden
 70
     6
 71
     1
 72
     2
 73
     2
 90
        0
 40
-0.6
 41
-30.0
 62
     5
 63
     7
 74
     2
 91
        2
 64
     7
 65
   257
 75
     2
175
     1
 42
40.0
 92
        0
 66
   257
 43
1.0
 76
     1
 77
     6
 78
     2
 67
     7
 79
     3
170
     0
171
     0
290
     0
174
     0
 93
        1
 44
0.0
173
     0
291
     0
 45
0.0
1001
ACAD
1000
AcDbSavedByObjectVersion
1070
     0
  0
VISUALSTYLE
  5
F6
102
{ACAD_REACTORS
330
EF
102
}
330
EF
100
AcDbVisualStyle
  2
3dWireframe
 70
     5
 71
     0
 72
     2
 73
     1
 90
        0
 40
-0.6
 41
-30.0
 62
     5
 63
     7
 74
     1
 91
        4
 64
     7
 65
   257
 75
     1
175
     1
 42
1.0
 92
        0
 66
   257
 43
1.0
 76
     1
 77
     6
 78
     2
 67
     7
 79
     5
170
     0
171
     0
290
     0
174
     0
 93
        1
 44
0.0
173
     0
291
     0
 45
0.0
1001
ACAD
1000
AcDbSavedByObjectVersion
1070
     0
  0
VISUALSTYLE
  5
F4
102
{ACAD_REACTORS
330
EF
102
}
330
EF
100
AcDbVisualStyle
  2
Basic
 70
     7
 71
     1
 72
     0
 73
     1
 90
        0
 40
-0.6
 41
-30.0
 62
     5
 63
     7
 74
     0
 91
        4
 64
     7
 65
   257
 75
     1
175
     1
 42
1.0
 92
        8
 66
     7
 43
1.0
 76
     1
 77
     6
 78
     2
 67
     7
 79
     5
170
     0
171
     0
290
     0
174
     0
 93
        1
 44
0.0
173
     0
291
     1
 45
0.0
1001
ACAD
1000
AcDbSavedByObjectVersion
1070
     0
  0
VISUALSTYLE
  5
FB
102
{ACAD_REACTORS
330
EF
102
}
330
EF
100
AcDbVisualStyle
  2
Brighten
 70
    12
 71
     2
 72
     2
 73
     1
 90
        0
 40
-0.6
 41
-30.0
 62
     5
 63
     7
 74
     1
 91
        4
 64
     7
 65
   257
 75
     1
175
     1
 42
1.0
 92
        8
 66
     7
 43
1.0
 76
     1
 77
     6
 78
     2
 67
     7
 79
     5
170
     0
171
     0
290
     0
174
     0
 93
        1
 44
50.0
173
     0
291
     1
 45
0.0
1001
ACAD
1000
AcDbSavedByObjectVersion
1070
     0
  0
VISUALSTYLE
  5
FF
102
{ACAD_REACTORS
330
EF
102
}
330
EF
100
AcDbVisualStyle
  2
ColorChange
 70
    16
 71
     2
 72
     2
 73
     3
 90
        0
 40
-0.6
 41
-30.0
 62
     5
 63
     8
 74
     1
 91
        4
 64
     7
 65
   257
 75
     1
175
     1
 42
1.0
 92
        8
 66
     8
 43
1.0
 76
     1
 77
     6
 78
     2
 67
     7
 79
     5
170
     0
171
     0
290
     0
174
     0
 93
        1
 44
0.0
173
     0
291
     1
 45
0.0
1001
ACAD
1000
AcDbSavedByObjectVersion
1070
     0
  0
VISUALSTYLE
  5
F8
102
{ACAD_REACTORS
330
EF
102
}
330
EF
100
AcDbVisualStyle
  2
Conceptual
 70
     9
 71
     3
 72
     2
 73
     1
 90
        0
 40
-0.6
 41
-30.0
 62
     5
 63
     7
 74
     2
 91
        2
 64
     7
 65
   257
 75
     1
175
     1
 42
40.0
 92
        8
 66
     7
 43
1.0
 76
     1
 77
     6
 78
     2
 67
     7
 79
     3
170
     0
171
     0
290
     0
174
     0
 93
        1
 44
0.0
173
     0
291
     0
 45
0.0
1001
ACAD
1000
AcDbSavedByObjectVersion
1070
     0
  0
VISUALSTYLE
  5
FA
102
{ACAD_REACTORS
330
EF
102
}
330
EF
100
AcDbVisualStyle
  2
Dim
 70
    11
 71
     2
 72
     2
 73
     1
 90
        0
 40
-0.6
 41
-30.0
 62
     5
 63
     7
 74
     1
 91
        4
 64
     7
 65
   257
 75
     1
175
     1
 42
1.0
 92
        8
 66
     7
 43
1.0
 76
     1
 77
     6
 78
     2
 67
     7
 79
     5
170
     0
171
     0
290
     0
174
     0
 93
        1
 44
-50.0
173
     0
291
     1
 45
0.0
1001
ACAD
1000
AcDbSavedByObjectVersion
1070
     0
  0
VISUALSTYLE
  5
FE
102
{ACAD_REACTORS
330
EF
102
}
330
EF
100
AcDbVisualStyle
  2
Facepattern
 70
    15
 71
     2
 72
     2
 73
     1
 90
        0
 40
-0.6
 41
-30.0
 62
     5
 63
     7
 74
     1
 91
        4
 64
     7
 65
   257
 75
     1
175
     1
 42
1.0
 92
        8
 66
     7
 43
1.0
 76
     1
 77
     6
 78
     2
 67
     7
 79
     5
170
     0
171
     0
290
     0
174
     0
 93
        1
 44
0.0
173
     0
291
     1
 45
0.0
1001
ACAD
1000
AcDbSavedByObjectVersion
1070
     0
  0
VISUALSTYLE
  5
F0
102
{ACAD_REACTORS
330
EF
102
}
330
EF
100
AcDbVisualStyle
  2
Flat
 70
     0
 71
     2
 72
     1
 73
     1
 90
        2
 40
-0.6
 41
30.0
 62
     5
 63
     7
 74
     0
 91
        4
 64
     7
 65
   257
 75
     1
175
     1
 42
1.0
 92
        8
 66
     7
 43
1.0
 76
     1
 77
     6
 78
     2
 67
     7
 79
     5
170
     0
171
     0
290
     0
174
     0
 93
        1
 44
0.0
173
     0
291
     1
 45
0.0
1001
ACAD
1000
AcDbSavedByObjectVersion
1070
     0
  0
VISUALSTYLE
  5
F1
102
{ACAD_REACTORS
330
EF
102
}
330
EF
100
AcDbVisualStyle
  2
FlatWithEdges
 70
     1
 71
     2
 72
     1
 73
     1
 90
        2
 40
-0.6
 41
30.0
 62
     5
 63
     7
 74
     1
 91
        4
 64
     7
 65
   257
 75
     1
175
     1
 42
1.0
 92
        0
 66
   257
 43
1.0
 76
     1
 77
     6
 78
     2
 67
     7
 79
     5
170
     0
171
     0
290
     0
174
     0
 93
        1
 44
0.0
173
     0
291
     1
 45
0.0
1001
ACAD
1000
AcDbSavedByObjectVersion
1070
     0
  0
VISUALSTYLE
  5
F2
102
{ACAD_REACTORS
330
EF
102
}
330
EF
100
AcDbVisualStyle
  2
Gouraud
 70
     2
 71
     2
 72
     2
 73
     1
 90
        2
 40
-0.6
 41
30.0
 62
     5
 63
     7
 74
     0
 91
        4
 64
     7
 65
   257
 75
     1
175
     1
 42
1.0
 92
        0
 66
     7
 43
1.0
 76
     1
 77
     6
 78
     2
 67
     7
 79
     5
170
     0
171
     0
290
     0
174
     0
 93
        1
 44
0.0
173
     0
291
     1
 45
0.0
1001
ACAD
1000
AcDbSavedByObjectVersion
1070
     0
  0
VISUALSTYLE
  5
F3
102
{ACAD_REACTORS
330
EF
102
}
330
EF
100
AcDbVisualStyle
  2
GouraudWithEdges
 70
     3
 71
     2
 72
     2
 73
     1
 90
        2
 40
-0.6
 41
30.0
 62
     5
 63
     7
 74
     1
 91
        4
 64
     7
 65
   257
 75
     1
175
     1
 42
1.0
 92
        0
 66
   257
 43
1.0
 76
     1
 77
     6
 78
     2
 67
     7
 79
     5
170
     0
171
     0
290
     0
174
     0
 93
        1
 44
0.0
173
     0
291
     1
 45
0.0
1001
ACAD
1000
AcDbSavedByObjectVersion
1070
     0
  0
VISUALSTYLE
  5
FD
102
{ACAD_REACTORS
330
EF
102
}
330
EF
100
AcDbVisualStyle
  2
Linepattern
 70
    14
 71
     2
 72
     2
 73
     1
 90
        0
 40
-0.6
 41
-30.0
 62
     5
 63
     7
 74
     1
 91
        4
 64
     7
 65
   257
 75
     7
175
     7
 42
1.0
 92
        8
 66
     7
 43
1.0
 76
     1
 77
     6
 78
     2
 67
     7
 79
     5
170
     0
171
     0
290
     0
174
     0
 93
        1
 44
0.0
173
     0
291
     1
 45
0.0
1001
ACAD
1000
AcDbSavedByObjectVersion
1070
     0
  0
VISUALSTYLE
  5
F9
102
{ACAD_REACTORS
330
EF
102
}
330
EF
100
AcDbVisualStyle
  2
Realistic
 70
     8
 71
     2
 72
     2
 73
     1
 90
        0
 40
-0.6
 41
-30.0
 62
     5
 63
     7
 74
     1
 91
        0
 64
     7
 65
   257
 75
     1
175
     1
 42
1.0
 92
        8
 66
     8
 43
1.0
 76
     1
 77
     6
 78
     2
 67
     7
 79
     5
170
     0
171
     0
290
     0
174
     0
 93
       13
 44
0.0
173
     0
291
     0
 45
0.0
1001
ACAD
1000
AcDbSavedByObjectVersion
1070
     0
  0
VISUALSTYLE
  5
FC
102
{ACAD_REACTORS
330
EF
102
}
330
EF
100
AcDbVisualStyle
  2
Thicken
 70
    13
 71
     2
 72
     2
 73
     1
 90
        0
 40
-0.6
 41
-30.0
 62
     5
 63
     7
 74
     1
 91
        4
 64
     7
 65
   257
 75
     1
175
     1
 42
1.0
 92
       12
 66
     7
 43
1.0
 76
     1
 77
     6
 78
     2
 67
     7
 79
     5
170
     0
171
     0
290
     0
174
     0
 93
        1
 44
0.0
173
     0
291
     1
 45
0.0
1001
ACAD
1000
AcDbSavedByObjectVersion
1070
     0
  0
DICTIONARYVAR
  5
146
102
{ACAD_REACTORS
330
5E
102
}
330
5E
100
DictionaryVariables
280
     0
  1
1:1
  0
DICTIONARYVAR
  5
145
102
{ACAD_REACTORS
330
5E
102
}
330
5E
100
DictionaryVariables
280
     0
  1
STANDARD
  0
DICTIONARYVAR
  5
84
102
{ACAD_REACTORS
330
5E
102
}
330
5E
100
DictionaryVariables
280
     0
  1
STANDARD
  0
DICTIONARYVAR
  5
5F
102
{ACAD_REACTORS
330
5E
102
}
330
5E
100
DictionaryVariables
280
     0
  1
2
  0
DICTIONARYVAR
  5
63
102
{ACAD_REACTORS
330
5E
102
}
330
5E
100
DictionaryVariables
280
     0
  1
1
  0
DICTIONARYVAR
  5
43F
102
{ACAD_REACTORS
330
5E
102
}
330
5E
100
DictionaryVariables
280
     0
  1
0
  0
DICTIONARYVAR
  5
43D
102
{ACAD_REACTORS
330
5E
102
}
330
5E
100
DictionaryVariables
280
     0
  1
2
  0
DICTIONARYVAR
  5
43C
102
{ACAD_REACTORS
330
5E
102
}
330
5E
100
DictionaryVariables
280
     0
  1
1
  0
DICTIONARYVAR
  5
441
102
{ACAD_REACTORS
330
5E
102
}
330
5E
100
DictionaryVariables
280
     0
  1
80.000000
  0
DICTIONARYVAR
  5
440
102
{ACAD_REACTORS
330
5E
102
}
330
5E
100
DictionaryVariables
280
     0
  1
5.000000
  0
DICTIONARYVAR
  5
43E
102
{ACAD_REACTORS
330
5E
102
}
330
5E
100
DictionaryVariables
280
     0
  1
127
  0
DICTIONARY
  5
447
330
D3
100
AcDbDictionary
280
     1
281
     1
  3
ACAD_XREC_ROUNDTRIP
360
448
  0
DICTIONARY
  5
449
330
D7
100
AcDbDictionary
280
     1
281
     1
  3
ACAD_XREC_ROUNDTRIP
360
44A
  0
DICTIONARY
  5
444
330
22
100
AcDbDictionary
280
     1
281
     1
  3
ACAD_XREC_ROUNDTRIP
360
445
  0
DICTIONARY
  5
44D
330
ED
100
AcDbDictionary
280
     1
281
     1
  3
ACAD_XREC_ROUNDTRIP
360
44E
  0
DICTIONARY
  5
44B
330
EC
100
AcDbDictionary
280
     1
281
     1
  3
ACAD_XREC_ROUNDTRIP
360
44C
  0
DICTIONARY
  5
173
330
EE
100
AcDbDictionary
280
     1
281
     1
  3
ACAD_XREC_ROUNDTRIP
360
44F
  3
BUMPTILE
360
175
  3
DIFFUSETILE
360
174
  3
OPACITYTILE
360
176
  3
REFLECTIONTILE
360
177
  0
DICTIONARY
  5
162
330
7F
100
AcDbDictionary
280
     1
281
     1
  3
ACAD_ROUNDTRIP_2008_TABLESTYLE_CELLSTYLEMAP
360
442
  3
ACAD_XREC_ROUNDTRIP
360
446
  0
XRECORD
  5
448
102
{ACAD_REACTORS
330
447
102
}
330
447
100
AcDbXrecord
280
     1
102
SHADEPLOT
 70
     0
102
SHADEPLOTRESLEVEL
 70
     2
102
SHADEPLOTCUSTOMDPI
 70
   300
  0
XRECORD
  5
44A
102
{ACAD_REACTORS
330
449
102
}
330
449
100
AcDbXrecord
280
     1
102
SHADEPLOT
 70
     0
102
SHADEPLOTRESLEVEL
 70
     2
102
SHADEPLOTCUSTOMDPI
 70
   300
  0
XRECORD
  5
445
102
{ACAD_REACTORS
330
444
102
}
330
444
100
AcDbXrecord
280
     1
102
SHADEPLOT
 70
     0
102
SHADEPLOTRESLEVEL
 70
     2
102
SHADEPLOTCUSTOMDPI
 70
   300
  0
XRECORD
  5
44E
102
{ACAD_REACTORS
330
44D
102
}
330
44D
100
AcDbXrecord
280
     1
102
MATERIAL
148
0.0
149
0.0
149
0.0
 93
        0
 94
       63
282
     0
 72
     1
 77
     1
171
     1
175
     1
179
     1
273
     0
  0
XRECORD
  5
44C
102
{ACAD_REACTORS
330
44B
102
}
330
44B
100
AcDbXrecord
280
     1
102
MATERIAL
148
0.0
149
0.0
149
0.0
 93
        0
 94
       63
282
     0
 72
     1
 77
     1
171
     1
175
     1
179
     1
273
     0
  0
XRECORD
  5
44F
102
{ACAD_REACTORS
330
173
102
}
330
173
100
AcDbXrecord
280
     1
102
MATERIAL
148
0.0
149
0.0
149
0.0
 93
        0
 94
       63
282
     0
 72
     1
 77
     1
171
     1
175
     1
179
     1
273
     0
  0
XRECORD
  5
175
102
{ACAD_REACTORS
330
173
102
}
330
173
100
AcDbXrecord
280
     1
270
     1
271
     1
  0
XRECORD
  5
174
102
{ACAD_REACTORS
330
173
102
}
330
173
100
AcDbXrecord
280
     1
270
     1
271
     1
  0
XRECORD
  5
176
102
{ACAD_REACTORS
330
173
102
}
330
173
100
AcDbXrecord
280
     1
270
     1
271
     1
  0
XRECORD
  5
177
102
{ACAD_REACTORS
330
173
102
}
330
173
100
AcDbXrecord
280
     1
270
     1
271
     1
  0
CELLSTYLEMAP
  5
442
102
{ACAD_REACTORS
330
162
102
}
330
162
100
AcDbCellStyleMap
 90
        3
300
CELLSTYLE
  1
TABLEFORMAT_BEGIN
 90
        5
170
     1
 91
        0
 92
    32768
 62
   257
 93
        1
300
CONTENTFORMAT
  1
CONTENTFORMAT_BEGIN
 90
        0
 91
        0
 92
      512
 93
        0
300

 40
0.0
140
1.0
 94
        5
 62
     0
340
11
144
6.0
309
CONTENTFORMAT_END
171
     1
301
MARGIN
  1
CELLMARGIN_BEGIN
 40
1.5
 40
1.5
 40
1.5
 40
1.5
 40
4.5
 40
4.5
309
CELLMARGIN_END
 94
        6
 95
        1
302
GRIDFORMAT
  1
GRIDFORMAT_BEGIN
 90
        0
 91
        1
 62
     0
 92
       -2
340
14
 93
        0
 40
1.125
309
GRIDFORMAT_END
 95
        2
302
GRIDFORMAT
  1
GRIDFORMAT_BEGIN
 90
        0
 91
        1
 62
     0
 92
       -2
340
14
 93
        0
 40
1.125
309
GRIDFORMAT_END
 95
        4
302
GRIDFORMAT
  1
GRIDFORMAT_BEGIN
 90
        0
 91
        1
 62
     0
 92
       -2
340
14
 93
        0
 40
1.125
309
GRIDFORMAT_END
 95
        8
302
GRIDFORMAT
  1
GRIDFORMAT_BEGIN
 90
        0
 91
        1
 62
     0
 92
       -2
340
14
 93
        0
 40
1.125
309
GRIDFORMAT_END
 95
       16
302
GRIDFORMAT
  1
GRIDFORMAT_BEGIN
 90
        0
 91
        1
 62
     0
 92
       -2
340
14
 93
        0
 40
1.125
309
GRIDFORMAT_END
 95
       32
302
GRIDFORMAT
  1
GRIDFORMAT_BEGIN
 90
        0
 91
        1
 62
     0
 92
       -2
340
14
 93
        0
 40
1.125
309
GRIDFORMAT_END
309
TABLEFORMAT_END
  1
CELLSTYLE_BEGIN
 90
        1
 91
        1
300
_TITLE
309
CELLSTYLE_END
300
CELLSTYLE
  1
TABLEFORMAT_BEGIN
 90
        5
170
     1
 91
        0
 92
        0
 62
   257
 93
        1
300
CONTENTFORMAT
  1
CONTENTFORMAT_BEGIN
 90
        0
 91
        0
 92
      512
 93
        0
300

 40
0.0
140
1.0
 94
        5
 62
     0
340
11
144
4.5
309
CONTENTFORMAT_END
171
     1
301
MARGIN
  1
CELLMARGIN_BEGIN
 40
1.5
 40
1.5
 40
1.5
 40
1.5
 40
4.5
 40
4.5
309
CELLMARGIN_END
 94
        6
 95
        1
302
GRIDFORMAT
  1
GRIDFORMAT_BEGIN
 90
        0
 91
        1
 62
     0
 92
       -2
340
14
 93
        0
 40
1.125
309
GRIDFORMAT_END
 95
        2
302
GRIDFORMAT
  1
GRIDFORMAT_BEGIN
 90
        0
 91
        1
 62
     0
 92
       -2
340
14
 93
        0
 40
1.125
309
GRIDFORMAT_END
 95
        4
302
GRIDFORMAT
  1
GRIDFORMAT_BEGIN
 90
        0
 91
        1
 62
     0
 92
       -2
340
14
 93
        0
 40
1.125
309
GRIDFORMAT_END
 95
        8
302
GRIDFORMAT
  1
GRIDFORMAT_BEGIN
 90
        0
 91
        1
 62
     0
 92
       -2
340
14
 93
        0
 40
1.125
309
GRIDFORMAT_END
 95
       16
302
GRIDFORMAT
  1
GRIDFORMAT_BEGIN
 90
        0
 91
        1
 62
     0
 92
       -2
340
14
 93
        0
 40
1.125
309
GRIDFORMAT_END
 95
       32
302
GRIDFORMAT
  1
GRIDFORMAT_BEGIN
 90
        0
 91
        1
 62
     0
 92
       -2
340
14
 93
        0
 40
1.125
309
GRIDFORMAT_END
309
TABLEFORMAT_END
  1
CELLSTYLE_BEGIN
 90
        2
 91
        1
300
_HEADER
309
CELLSTYLE_END
300
CELLSTYLE
  1
TABLEFORMAT_BEGIN
 90
        5
170
     1
 91
        0
 92
        0
 62
   257
 93
        1
300
CONTENTFORMAT
  1
CONTENTFORMAT_BEGIN
 90
        0
 91
        0
 92
      512
 93
        0
300

 40
0.0
140
1.0
 94
        2
 62
     0
340
11
144
4.5
309
CONTENTFORMAT_END
171
     1
301
MARGIN
  1
CELLMARGIN_BEGIN
 40
1.5
 40
1.5
 40
1.5
 40
1.5
 40
4.5
 40
4.5
309
CELLMARGIN_END
 94
        6
 95
        1
302
GRIDFORMAT
  1
GRIDFORMAT_BEGIN
 90
        0
 91
        1
 62
     0
 92
       -2
340
14
 93
        0
 40
1.125
309
GRIDFORMAT_END
 95
        2
302
GRIDFORMAT
  1
GRIDFORMAT_BEGIN
 90
        0
 91
        1
 62
     0
 92
       -2
340
14
 93
        0
 40
1.125
309
GRIDFORMAT_END
 95
        4
302
GRIDFORMAT
  1
GRIDFORMAT_BEGIN
 90
        0
 91
        1
 62
     0
 92
       -2
340
14
 93
        0
 40
1.125
309
GRIDFORMAT_END
 95
        8
302
GRIDFORMAT
  1
GRIDFORMAT_BEGIN
 90
        0
 91
        1
 62
     0
 92
       -2
340
14
 93
        0
 40
1.125
309
GRIDFORMAT_END
 95
       16
302
GRIDFORMAT
  1
GRIDFORMAT_BEGIN
 90
        0
 91
        1
 62
     0
 92
       -2
340
14
 93
        0
 40
1.125
309
GRIDFORMAT_END
 95
       32
302
GRIDFORMAT
  1
GRIDFORMAT_BEGIN
 90
        0
 91
        1
 62
     0
 92
       -2
340
14
 93
        0
 40
1.125
309
GRIDFORMAT_END
309
TABLEFORMAT_END
  1
CELLSTYLE_BEGIN
 90
        3
 91
        2
300
_DATA
309
CELLSTYLE_END
  0
XRECORD
  5
446
102
{ACAD_REACTORS
330
162
102
}
330
162
100
AcDbXrecord
280
     1
102
ACAD_ROUNDTRIP_PRE2007_TABLESTYLE
 90
      512
 91
        0
  1

 92
      512
 93
        0
  2

 94
      512
 95
        0
  3

  0
ENDSEC
  0
EOF
