  0
SECTION
  2
HEADER
  9
$ACADVER
  1
AC1015
  9
$ACADMAINTVER
 70
    20
  9
$DWGCODEPAGE
  3
ANSI_1254
  9
$INSBASE
 10
0.0
 20
0.0
 30
0.0
  9
$EXTMIN
 10
2012.710773279287
 20
804.2984367967569
 30
0.0
  9
$EXTMAX
 10
2198.720736376419
 20
853.2675927134105
 30
0.0
  9
$LIMMIN
 10
0.0
 20
0.0
  9
$LIMMAX
 10
420.0
 20
297.0
  9
$ORTHOMODE
 70
     0
  9
$REGENMODE
 70
     1
  9
$FILLMODE
 70
     1
  9
$QTEXTMODE
 70
     0
  9
$MIRRTEXT
 70
     0
  9
$LTSCALE
 40
1.0
  9
$ATTMODE
 70
     1
  9
$TEXTSIZE
 40
2.5
  9
$TRACEWID
 40
1.0
  9
$TEXTSTYLE
  7
Standard
  9
$CLAYER
  8
0
  9
$CELTYPE
  6
ByLayer
  9
$CECOLOR
 62
   256
  9
$CELTSCALE
 40
1.0
  9
$DISPSILH
 70
     0
  9
$DIMSCALE
 40
1.0
  9
$DIMASZ
 40
2.5
  9
$DIMEXO
 40
0.625
  9
$DIMDLI
 40
3.75
  9
$DIMRND
 40
0.0
  9
$DIMDLE
 40
0.0
  9
$DIMEXE
 40
1.25
  9
$DIMTP
 40
0.0
  9
$DIMTM
 40
0.0
  9
$DIMTXT
 40
2.5
  9
$DIMCEN
 40
2.5
  9
$DIMTSZ
 40
0.0
  9
$DIMTOL
 70
     0
  9
$DIMLIM
 70
     0
  9
$DIMTIH
 70
     0
  9
$DIMTOH
 70
     0
  9
$DIMSE1
 70
     0
  9
$DIMSE2
 70
     0
  9
$DIMTAD
 70
     1
  9
$DIMZIN
 70
     8
  9
$DIMBLK
  1

  9
$DIMASO
 70
     1
  9
$DIMSHO
 70
     1
  9
$DIMPOST
  1

  9
$DIMAPOST
  1

  9
$DIMALT
 70
     0
  9
$DIMALTD
 70
     3
  9
$DIMALTF
 40
0.03937007874016
  9
$DIMLFAC
 40
1.0
  9
$DIMTOFL
 70
     1
  9
$DIMTVP
 40
0.0
  9
$DIMTIX
 70
     0
  9
$DIMSOXD
 70
     0
  9
$DIMSAH
 70
     0
  9
$DIMBLK1
  1

  9
$DIMBLK2
  1

  9
$DIMSTYLE
  2
ISO-25
  9
$DIMCLRD
 70
     0
  9
$DIMCLRE
 70
     0
  9
$DIMCLRT
 70
     0
  9
$DIMTFAC
 40
1.0
  9
$DIMGAP
 40
0.625
  9
$DIMJUST
 70
     0
  9
$DIMSD1
 70
     0
  9
$DIMSD2
 70
     0
  9
$DIMTOLJ
 70
     0
  9
$DIMTZIN
 70
     8
  9
$DIMALTZ
 70
     0
  9
$DIMALTTZ
 70
     0
  9
$DIMUPT
 70
     0
  9
$DIMDEC
 70
     2
  9
$DIMTDEC
 70
     2
  9
$DIMALTU
 70
     2
  9
$DIMALTTD
 70
     3
  9
$DIMTXSTY
  7
Standard
  9
$DIMAUNIT
 70
     0
  9
$DIMADEC
 70
     0
  9
$DIMALTRND
 40
0.0
  9
$DIMAZIN
 70
     0
  9
$DIMDSEP
 70
    44
  9
$DIMATFIT
 70
     3
  9
$DIMFRAC
 70
     0
  9
$DIMLDRBLK
  1

  9
$DIMLUNIT
 70
     2
  9
$DIMLWD
 70
    -2
  9
$DIMLWE
 70
    -2
  9
$DIMTMOVE
 70
     0
  9
$LUNITS
 70
     2
  9
$LUPREC
 70
     4
  9
$SKETCHINC
 40
1.0
  9
$FILLETRAD
 40
0.0
  9
$AUNITS
 70
     0
  9
$AUPREC
 70
     0
  9
$MENU
  1
.
  9
$ELEVATION
 40
0.0
  9
$PELEVATION
 40
0.0
  9
$THICKNESS
 40
0.0
  9
$LIMCHECK
 70
     0
  9
$CHAMFERA
 40
0.0
  9
$CHAMFERB
 40
0.0
  9
$CHAMFERC
 40
0.0
  9
$CHAMFERD
 40
0.0
  9
$SKPOLY
 70
     0
  9
$TDCREATE
 40
2458445.579726702
  9
$TDUCREATE
 40
2458445.454726702
  9
$TDUPDATE
 40
2458956.432514144
  9
$TDUUPDATE
 40
2458956.307514144
  9
$TDINDWG
 40
0.0005147917
  9
$TDUSRTIMER
 40
0.0005147917
  9
$USRTIMER
 70
     1
  9
$ANGBASE
 50
0.0
  9
$ANGDIR
 70
     0
  9
$PDMODE
 70
     0
  9
$PDSIZE
 40
0.0
  9
$PLINEWID
 40
0.0
  9
$SPLFRAME
 70
     0
  9
$SPLINETYPE
 70
     6
  9
$SPLINESEGS
 70
     8
  9
$HANDSEED
  5
A96
  9
$SURFTAB1
 70
     6
  9
$SURFTAB2
 70
     6
  9
$SURFTYPE
 70
     6
  9
$SURFU
 70
     6
  9
$SURFV
 70
     6
  9
$UCSBASE
  2

  9
$UCSNAME
  2

  9
$UCSORG
 10
0.0
 20
0.0
 30
0.0
  9
$UCSXDIR
 10
1.0
 20
0.0
 30
0.0
  9
$UCSYDIR
 10
0.0
 20
1.0
 30
0.0
  9
$UCSORTHOREF
  2

  9
$UCSORTHOVIEW
 70
     0
  9
$UCSORGTOP
 10
0.0
 20
0.0
 30
0.0
  9
$UCSORGBOTTOM
 10
0.0
 20
0.0
 30
0.0
  9
$UCSORGLEFT
 10
0.0
 20
0.0
 30
0.0
  9
$UCSORGRIGHT
 10
0.0
 20
0.0
 30
0.0
  9
$UCSORGFRONT
 10
0.0
 20
0.0
 30
0.0
  9
$UCSORGBACK
 10
0.0
 20
0.0
 30
0.0
  9
$PUCSBASE
  2

  9
$PUCSNAME
  2

  9
$PUCSORG
 10
0.0
 20
0.0
 30
0.0
  9
$PUCSXDIR
 10
1.0
 20
0.0
 30
0.0
  9
$PUCSYDIR
 10
0.0
 20
1.0
 30
0.0
  9
$PUCSORTHOREF
  2

  9
$PUCSORTHOVIEW
 70
     0
  9
$PUCSORGTOP
 10
0.0
 20
0.0
 30
0.0
  9
$PUCSORGBOTTOM
 10
0.0
 20
0.0
 30
0.0
  9
$PUCSORGLEFT
 10
0.0
 20
0.0
 30
0.0
  9
$PUCSORGRIGHT
 10
0.0
 20
0.0
 30
0.0
  9
$PUCSORGFRONT
 10
0.0
 20
0.0
 30
0.0
  9
$PUCSORGBACK
 10
0.0
 20
0.0
 30
0.0
  9
$USERI1
 70
     0
  9
$USERI2
 70
     0
  9
$USERI3
 70
     0
  9
$USERI4
 70
     0
  9
$USERI5
 70
     0
  9
$USERR1
 40
0.0
  9
$USERR2
 40
0.0
  9
$USERR3
 40
0.0
  9
$USERR4
 40
0.0
  9
$USERR5
 40
0.0
  9
$WORLDVIEW
 70
     1
  9
$SHADEDGE
 70
     3
  9
$SHADEDIF
 70
    70
  9
$TILEMODE
 70
     1
  9
$MAXACTVP
 70
    64
  9
$PINSBASE
 10
0.0
 20
0.0
 30
0.0
  9
$PLIMCHECK
 70
     0
  9
$PEXTMIN
 10
0.0
 20
0.0
 30
0.0
  9
$PEXTMAX
 10
0.0
 20
0.0
 30
0.0
  9
$PLIMMIN
 10
0.0
 20
0.0
  9
$PLIMMAX
 10
12.0
 20
9.0
  9
$UNITMODE
 70
     0
  9
$VISRETAIN
 70
     1
  9
$PLINEGEN
 70
     0
  9
$PSLTSCALE
 70
     1
  9
$TREEDEPTH
 70
  3020
  9
$CMLSTYLE
  2
Standard
  9
$CMLJUST
 70
     0
  9
$CMLSCALE
 40
20.0
  9
$PROXYGRAPHICS
 70
     1
  9
$MEASUREMENT
 70
     1
  9
$CELWEIGHT
370
    -1
  9
$ENDCAPS
280
     0
  9
$JOINSTYLE
280
     0
  9
$LWDISPLAY
290
     0
  9
$INSUNITS
 70
     4
  9
$HYPERLINKBASE
  1

  9
$STYLESHEET
  1

  9
$XEDIT
290
     1
  9
$CEPSNTYPE
380
     0
  9
$PSTYLEMODE
290
     1
  9
$FINGERPRINTGUID
  2
{57AF50F6-4322-4943-B97B-215AC9C5E000}
  9
$VERSIONGUID
  2
{C26A8266-5AB3-4AF0-87E5-4105E9FCA5D0}
  9
$EXTNAMES
290
     1
  9
$PSVPSCALE
 40
0.0
  9
$OLESTARTUP
290
     0
  0
ENDSEC
  0
SECTION
  2
CLASSES
  0
CLASS
  1
ACDBDICTIONARYWDFLT
  2
AcDbDictionaryWithDefault
  3
ObjectDBX Classes
 90
        0
280
     0
281
     0
  0
CLASS
  1
ACDBPLACEHOLDER
  2
AcDbPlaceHolder
  3
ObjectDBX Classes
 90
        0
280
     0
281
     0
  0
CLASS
  1
LAYOUT
  2
AcDbLayout
  3
ObjectDBX Classes
 90
        0
280
     0
281
     0
  0
CLASS
  1
DICTIONARYVAR
  2
AcDbDictionaryVar
  3
ObjectDBX Classes
 90
        0
280
     0
281
     0
  0
CLASS
  1
TABLESTYLE
  2
AcDbTableStyle
  3
ObjectDBX Classes
 90
     4095
280
     0
281
     0
  0
CLASS
  1
MATERIAL
  2
AcDbMaterial
  3
ObjectDBX Classes
 90
     1153
280
     0
281
     0
  0
CLASS
  1
VISUALSTYLE
  2
AcDbVisualStyle
  3
ObjectDBX Classes
 90
     4095
280
     0
281
     0
  0
CLASS
  1
SCALE
  2
AcDbScale
  3
ObjectDBX Classes
 90
     1153
280
     0
281
     0
  0
CLASS
  1
MLEADERSTYLE
  2
AcDbMLeaderStyle
  3
ACDB_MLEADERSTYLE_CLASS
 90
     4095
280
     0
281
     0
  0
CLASS
  1
CELLSTYLEMAP
  2
AcDbCellStyleMap
  3
ObjectDBX Classes
 90
     1152
280
     0
281
     0
  0
ENDSEC
  0
SECTION
  2
TABLES
  0
TABLE
  2
VPORT
  5
8
330
0
100
AcDbSymbolTable
 70
     1
  0
VPORT
  5
EA
330
8
100
AcDbSymbolTableRecord
100
AcDbViewportTableRecord
  2
*Active
 70
     0
 10
0.0
 20
0.0
 11
1.0
 21
1.0
 12
2105.984631809475
 22
841.1573805783472
 13
0.0
 23
0.0
 14
10.0
 24
10.0
 15
10.0
 25
10.0
 16
0.0
 26
0.0
 36
1.0
 17
0.0
 27
0.0
 37
0.0
 40
154.676876477622
 41
1.903110047846889
 42
50.0
 43
0.0
 44
0.0
 50
0.0
 51
0.0
 71
     0
 72
  1000
 73
     1
 74
     3
 75
     0
 76
     0
 77
     0
 78
     0
281
     0
 65
     1
110
0.0
120
0.0
130
0.0
111
1.0
121
0.0
131
0.0
112
0.0
122
1.0
132
0.0
 79
     0
146
0.0
  0
ENDTAB
  0
TABLE
  2
LTYPE
  5
5
330
0
100
AcDbSymbolTable
 70
     1
  0
LTYPE
  5
14
330
5
100
AcDbSymbolTableRecord
100
AcDbLinetypeTableRecord
  2
ByBlock
 70
     0
  3

 72
    65
 73
     0
 40
0.0
  0
LTYPE
  5
15
330
5
100
AcDbSymbolTableRecord
100
AcDbLinetypeTableRecord
  2
ByLayer
 70
     0
  3

 72
    65
 73
     0
 40
0.0
  0
LTYPE
  5
16
330
5
100
AcDbSymbolTableRecord
100
AcDbLinetypeTableRecord
  2
Continuous
 70
     0
  3
Solid line
 72
    65
 73
     0
 40
0.0
  0
ENDTAB
  0
TABLE
  2
LAYER
  5
2
330
0
100
AcDbSymbolTable
 70
     1
  0
LAYER
  5
10
102
{ACAD_XDICTIONARY
360
13C
102
}
330
2
100
AcDbSymbolTableRecord
100
AcDbLayerTableRecord
  2
0
 70
     0
 62
     7
  6
Continuous
370
    -3
390
F
  0
ENDTAB
  0
TABLE
  2
STYLE
  5
3
330
0
100
AcDbSymbolTable
 70
     2
  0
STYLE
  5
11
330
3
100
AcDbSymbolTableRecord
100
AcDbTextStyleTableRecord
  2
Standard
 70
     0
 40
0.0
 41
1.0
 50
0.0
 71
     0
 42
2.5
  3
txt
  4

  0
STYLE
  5
132
330
3
100
AcDbSymbolTableRecord
100
AcDbTextStyleTableRecord
  2
Annotative
 70
     0
 40
0.0
 41
1.0
 50
0.0
 71
     0
 42
2.5
  3
txt.shx
  4

1001
AcadAnnotative
1000
AnnotativeData
1002
{
1070
     1
1070
     1
1002
}
  0
ENDTAB
  0
TABLE
  2
VIEW
  5
6
330
0
100
AcDbSymbolTable
 70
     0
  0
ENDTAB
  0
TABLE
  2
UCS
  5
7
330
0
100
AcDbSymbolTable
 70
     0
  0
ENDTAB
  0
TABLE
  2
APPID
  5
9
330
0
100
AcDbSymbolTable
 70
     7
  0
APPID
  5
12
330
9
100
AcDbSymbolTableRecord
100
AcDbRegAppTableRecord
  2
ACAD
 70
     0
  0
APPID
  5
9E
330
9
100
AcDbSymbolTableRecord
100
AcDbRegAppTableRecord
  2
ACAD_PSEXT
 70
     0
  0
APPID
  5
133
330
9
100
AcDbSymbolTableRecord
100
AcDbRegAppTableRecord
  2
AcadAnnoPO
 70
     0
  0
APPID
  5
134
330
9
100
AcDbSymbolTableRecord
100
AcDbRegAppTableRecord
  2
AcadAnnotative
 70
     0
  0
APPID
  5
135
330
9
100
AcDbSymbolTableRecord
100
AcDbRegAppTableRecord
  2
ACAD_DSTYLE_DIMJAG
 70
     0
  0
APPID
  5
136
330
9
100
AcDbSymbolTableRecord
100
AcDbRegAppTableRecord
  2
ACAD_DSTYLE_DIMTALN
 70
     0
  0
APPID
  5
165
330
9
100
AcDbSymbolTableRecord
100
AcDbRegAppTableRecord
  2
ACAD_MLEADERVER
 70
     0
  0
ENDTAB
  0
TABLE
  2
DIMSTYLE
  5
A
330
0
100
AcDbSymbolTable
 70
     2
100
AcDbDimStyleTable
 71
     2
340
27
340
137
  0
DIMSTYLE
105
27
330
A
100
AcDbSymbolTableRecord
100
AcDbDimStyleTableRecord
  2
ISO-25
 70
     0
 41
2.5
 42
0.625
 43
3.75
 44
1.25
 73
     0
 74
     0
 77
     1
 78
     8
140
2.5
141
2.5
143
0.03937007874016
147
0.625
171
     3
172
     1
271
     2
272
     2
274
     3
278
    44
283
     0
284
     8
340
11
  0
DIMSTYLE
105
137
330
A
100
AcDbSymbolTableRecord
100
AcDbDimStyleTableRecord
  2
Annotative
 70
     0
 40
0.0
 41
2.5
 42
0.625
 43
3.75
 44
1.25
 73
     0
 74
     0
 77
     1
 78
     8
140
2.5
141
2.5
143
0.03937007874016
147
0.625
171
     3
172
     1
271
     2
272
     2
274
     3
278
    44
283
     0
284
     8
340
11
1001
AcadAnnotative
1000
AnnotativeData
1002
{
1070
     1
1070
     1
1002
}
1001
ACAD_DSTYLE_DIMJAG
1070
   388
1040
1.5
1001
ACAD_DSTYLE_DIMTALN
1070
   392
1070
     0
  0
ENDTAB
  0
TABLE
  2
BLOCK_RECORD
  5
1
330
0
100
AcDbSymbolTable
 70
     5
  0
BLOCK_RECORD
  5
1F
330
1
100
AcDbSymbolTableRecord
100
AcDbBlockTableRecord
  2
*Model_Space
340
22
  0
BLOCK_RECORD
  5
D2
330
1
100
AcDbSymbolTableRecord
100
AcDbBlockTableRecord
  2
*Paper_Space
340
D3
  0
BLOCK_RECORD
  5
D6
330
1
100
AcDbSymbolTableRecord
100
AcDbBlockTableRecord
  2
*Paper_Space0
340
D7
  0
BLOCK_RECORD
  5
783
330
1
100
AcDbSymbolTableRecord
100
AcDbBlockTableRecord
  2
1
340
0
310
2800000020000000200000000100080000000000000400000000000000000000000000000000000000000000000080000080000000808000800000008000800080800000C0C0C000C0DCC000F0CAA6000020400000206000002080000020A0000020C0000020E00000400000004020000040400000406000004080000040A0
310
000040C0000040E00000600000006020000060400000606000006080000060A0000060C0000060E00000800000008020000080400000806000008080000080A0000080C0000080E00000A0000000A0200000A0400000A0600000A0800000A0A00000A0C00000A0E00000C0000000C0200000C0400000C0600000C0800000C0
310
A00000C0C00000C0E00000E0000000E0200000E0400000E0600000E0800000E0A00000E0C00000E0E00040000000400020004000400040006000400080004000A0004000C0004000E00040200000402020004020400040206000402080004020A0004020C0004020E000404000004040200040404000404060004040800040
310
40A0004040C0004040E00040600000406020004060400040606000406080004060A0004060C0004060E00040800000408020004080400040806000408080004080A0004080C0004080E00040A0000040A0200040A0400040A0600040A0800040A0A00040A0C00040A0E00040C0000040C0200040C0400040C0600040C08000
310
40C0A00040C0C00040C0E00040E0000040E0200040E0400040E0600040E0800040E0A00040E0C00040E0E00080000000800020008000400080006000800080008000A0008000C0008000E00080200000802020008020400080206000802080008020A0008020C0008020E00080400000804020008040400080406000804080
310
008040A0008040C0008040E00080600000806020008060400080606000806080008060A0008060C0008060E00080800000808020008080400080806000808080008080A0008080C0008080E00080A0000080A0200080A0400080A0600080A0800080A0A00080A0C00080A0E00080C0000080C0200080C0400080C0600080C0
310
800080C0A00080C0C00080C0E00080E0000080E0200080E0400080E0600080E0800080E0A00080E0C00080E0E000C0000000C0002000C0004000C0006000C0008000C000A000C000C000C000E000C0200000C0202000C0204000C0206000C0208000C020A000C020C000C020E000C0400000C0402000C0404000C0406000C0
310
408000C040A000C040C000C040E000C0600000C0602000C0604000C0606000C0608000C060A000C060C000C060E000C0800000C0802000C0804000C0806000C0808000C080A000C080C000C080E000C0A00000C0A02000C0A04000C0A06000C0A08000C0A0A000C0A0C000C0A0E000C0C00000C0C02000C0C04000C0C06000
310
C0C08000C0C0A000F0FBFF00A4A0A000808080000000FF0000FF000000FFFF00FF000000FF00FF00FFFF0000FFFFFF0000000000000000000000000000000000000000000000000000000000000000000000000000000000000000000000000000000000000000000000000000000000000000000000000000000000000000
310
00000000000000000000000000000000000000000000000000000000000000000000000000000000000000000000000000000000000000000000000000000000000000000000000000000000000000000000000000000000000000000000000000000000000000000000000000000000000000000000000000000000000000
310
00000000000000000000000000000000000000000000000000000000000000000000000000000000000000000000000000000000000000000000000000000000000000000000000000000000000000000000000000000000000000000000000000000000000000000000000000000000000000000000000000000000000000
310
0000000000000000000000000000000000000000FFFFFFFFFFFFFFFFFFFFFFFFFFFFFFFFFFFFFFFFFFFFFFFFFFFFFFFFFFFF0000FFFFFFFFFFFFFFFFFFFFFFFFFFFFFFFFFFFFFFFFFFFFFFFFFFFFFFFFFFFF0000FFFF0000FF0000FF000000FF0000FFFF0000FF0000FFFF0000FF0000FFFF0000FFFFFFFFFFFFFFFFFFFFFF
310
FFFFFFFFFFFFFFFFFFFFFFFFFFFFFFFFFFFFFF0000FFFF00FFFFFFFFFFFF00FFFFFFFFFFFF00FFFFFF00FFFFFFFFFFFF00FFFF0000FFFF00FFFFFFFFFFFF00FFFFFFFFFFFF00FFFFFF00FFFFFFFFFFFF00FFFF0000FFFFFFFFFFFFFFFFFFFFFFFFFFFFFFFFFFFFFFFFFFFFFFFFFFFFFFFFFFFF0000FFFFFFFFFFFFFFFFFFFF
310
FFFFFFFFFFFFFFFFFFFFFFFFFFFFFFFFFFFFFFFF0000FFFFFFFFFFFFFFFFFFFFFFFFFFFFFFFFFFFFFFFFFFFFFFFFFFFFFFFFFFFF000000000000000000000000000000000000000000000000000000000000000000000000000000000000000000000000000000000000000000000000000000000000000000000000000000
310
00000000000000000000000000000000000000000000000000000000000000000000000000000000000000000000000000000000000000000000000000000000000000000000000000000000000000000000000000000000000000000000000000000000000000000000000000000000000000000000000000000000000000
310
00000000000000000000000000000000000000000000000000000000000000000000000000000000000000000000000000000000000000000000000000000000000000000000000000000000000000000000000000000000000000000000000000000000000000000000000000000000000000000000000000000000000000
310
0000000000000000000000000000000000000000000000000000000000000000000000000000000000000000000000000000000000000000
102
{BLKREFS
331
86A
102
}
1001
ACAD
1000
DesignCenter Data
1002
{
1070
     1
1070
     4
1002
}
  0
BLOCK_RECORD
  5
86B
330
1
100
AcDbSymbolTableRecord
100
AcDbBlockTableRecord
  2
2
340
0
310
2800000020000000200000000100080000000000000400000000000000000000000000000000000000000000000080000080000000808000800000008000800080800000C0C0C000C0DCC000F0CAA6000020400000206000002080000020A0000020C0000020E00000400000004020000040400000406000004080000040A0
310
000040C0000040E00000600000006020000060400000606000006080000060A0000060C0000060E00000800000008020000080400000806000008080000080A0000080C0000080E00000A0000000A0200000A0400000A0600000A0800000A0A00000A0C00000A0E00000C0000000C0200000C0400000C0600000C0800000C0
310
A00000C0C00000C0E00000E0000000E0200000E0400000E0600000E0800000E0A00000E0C00000E0E00040000000400020004000400040006000400080004000A0004000C0004000E00040200000402020004020400040206000402080004020A0004020C0004020E000404000004040200040404000404060004040800040
310
40A0004040C0004040E00040600000406020004060400040606000406080004060A0004060C0004060E00040800000408020004080400040806000408080004080A0004080C0004080E00040A0000040A0200040A0400040A0600040A0800040A0A00040A0C00040A0E00040C0000040C0200040C0400040C0600040C08000
310
40C0A00040C0C00040C0E00040E0000040E0200040E0400040E0600040E0800040E0A00040E0C00040E0E00080000000800020008000400080006000800080008000A0008000C0008000E00080200000802020008020400080206000802080008020A0008020C0008020E00080400000804020008040400080406000804080
310
008040A0008040C0008040E00080600000806020008060400080606000806080008060A0008060C0008060E00080800000808020008080400080806000808080008080A0008080C0008080E00080A0000080A0200080A0400080A0600080A0800080A0A00080A0C00080A0E00080C0000080C0200080C0400080C0600080C0
310
800080C0A00080C0C00080C0E00080E0000080E0200080E0400080E0600080E0800080E0A00080E0C00080E0E000C0000000C0002000C0004000C0006000C0008000C000A000C000C000C000E000C0200000C0202000C0204000C0206000C0208000C020A000C020C000C020E000C0400000C0402000C0404000C0406000C0
310
408000C040A000C040C000C040E000C0600000C0602000C0604000C0606000C0608000C060A000C060C000C060E000C0800000C0802000C0804000C0806000C0808000C080A000C080C000C080E000C0A00000C0A02000C0A04000C0A06000C0A08000C0A0A000C0A0C000C0A0E000C0C00000C0C02000C0C04000C0C06000
310
C0C08000C0C0A000F0FBFF00A4A0A000808080000000FF0000FF000000FFFF00FF000000FF00FF00FFFF0000FFFFFF00000000000000000000000000000000000000000000000000000000000000000000000000000000000000000000000000FFFFFF00000000000000000000000000000000000000000000000000000000
310
FF0000FF00000000000000000000000000000000000000000000000000000000FF0000FF00000000000000000000000000000000000000000000000000000000FF0000FF00000000000000000000000000000000000000000000000000000000FF0000FF000000000000000000000000000000000000000000000000000000
310
00FF0000FF0000000000000000000000000000000000000000000000000000FFFFFF0000FF0000000000000000000000000000000000000000000000000000FF00FF0000FF00000000000000000000000000000000000000000000000000FF0000FF0000FF00000000000000000000000000000000000000000000000000FF
310
0000FF0000FF000000000000000000000000000000000000000000000000FF000000FF0000FF000000000000000000000000000000000000000000000000FF000000FF0000FF000000000000000000000000000000000000000000000000FF000000FF0000FF000000000000000000000000000000000000000000000000FF
310
000000FF0000FF000000000000000000000000000000000000000000000000FF000000FF0000FF000000000000000000000000000000000000000000000000FF000000FF0000FF000000000000000000000000000000000000000000000000FF000000FF0000FF000000000000000000000000000000000000000000000000
310
FF000000FF0000FF000000000000000000000000000000000000000000000000FF000000FF0000FF000000000000000000000000000000000000000000000000FF000000FF0000FF000000000000000000000000000000000000000000000000FF000000FF0000FF0000000000000000000000000000000000000000000000
310
00FF000000FF0000FF000000000000000000000000000000000000000000000000FF000000FF0000FF000000000000000000000000000000000000000000000000FFFFFFFFFF0000FF000000000000000000000000000000000000000000000000FFFF0000000000FF00000000000000000000000000000000000000000000
310
0000FFFFFFFFFF0000FF000000000000000000000000000000000000000000000000FFFFFFFFFF0000FFFFFF0000000000000000000000000000000000000000000000000000FFFFFFFFFFFF0000000000000000000000000000000000000000000000000000FF00000000FF00000000000000000000000000000000000000
310
00000000000000FFFFFFFFFFFF00000000000000000000000000000000000000000000000000000000000000000000000000000000000000
102
{BLKREFS
331
892
102
}
1001
ACAD
1000
DesignCenter Data
1002
{
1070
     1
1070
     4
1002
}
  0
BLOCK_RECORD
  5
893
330
1
100
AcDbSymbolTableRecord
100
AcDbBlockTableRecord
  2
3
340
0
310
2800000020000000200000000100080000000000000400000000000000000000000000000000000000000000000080000080000000808000800000008000800080800000C0C0C000C0DCC000F0CAA6000020400000206000002080000020A0000020C0000020E00000400000004020000040400000406000004080000040A0
310
000040C0000040E00000600000006020000060400000606000006080000060A0000060C0000060E00000800000008020000080400000806000008080000080A0000080C0000080E00000A0000000A0200000A0400000A0600000A0800000A0A00000A0C00000A0E00000C0000000C0200000C0400000C0600000C0800000C0
310
A00000C0C00000C0E00000E0000000E0200000E0400000E0600000E0800000E0A00000E0C00000E0E00040000000400020004000400040006000400080004000A0004000C0004000E00040200000402020004020400040206000402080004020A0004020C0004020E000404000004040200040404000404060004040800040
310
40A0004040C0004040E00040600000406020004060400040606000406080004060A0004060C0004060E00040800000408020004080400040806000408080004080A0004080C0004080E00040A0000040A0200040A0400040A0600040A0800040A0A00040A0C00040A0E00040C0000040C0200040C0400040C0600040C08000
310
40C0A00040C0C00040C0E00040E0000040E0200040E0400040E0600040E0800040E0A00040E0C00040E0E00080000000800020008000400080006000800080008000A0008000C0008000E00080200000802020008020400080206000802080008020A0008020C0008020E00080400000804020008040400080406000804080
310
008040A0008040C0008040E00080600000806020008060400080606000806080008060A0008060C0008060E00080800000808020008080400080806000808080008080A0008080C0008080E00080A0000080A0200080A0400080A0600080A0800080A0A00080A0C00080A0E00080C0000080C0200080C0400080C0600080C0
310
800080C0A00080C0C00080C0E00080E0000080E0200080E0400080E0600080E0800080E0A00080E0C00080E0E000C0000000C0002000C0004000C0006000C0008000C000A000C000C000C000E000C0200000C0202000C0204000C0206000C0208000C020A000C020C000C020E000C0400000C0402000C0404000C0406000C0
310
408000C040A000C040C000C040E000C0600000C0602000C0604000C0606000C0608000C060A000C060C000C060E000C0800000C0802000C0804000C0806000C0808000C080A000C080C000C080E000C0A00000C0A02000C0A04000C0A06000C0A08000C0A0A000C0A0C000C0A0E000C0C00000C0C02000C0C04000C0C06000
310
C0C08000C0C0A000F0FBFF00A4A0A000808080000000FF0000FF000000FFFF00FF000000FF00FF00FFFF0000FFFFFF0000000000000000000000000000000000000000000000000000000000000000000000000000000000000000000000000000000000000000000000000000000000000000000000000000000000000000
310
00000000000000000000000000000000000000000000000000000000000000000000000000000000000000000000000000000000000000000000000000000000000000000000000000000000000000000000000000000000000000000000000000000000000000000000000000000000000000000000000000000000000000
310
00000000000000000000000000000000000000000000000000000000000000000000000000000000000000000000000000000000000000000000000000000000000000000000000000000000000000000000000000000000000000000000000000000000000000000000000000000000000000000000000000000000000000
310
000000000000000000000000000000000000000000000000000000000000000000000000000000000000000000000000000000000000000000000000000000000000000000000000000000000000000000000000000000000000000000000000000000000000000000000000000000000000000000000000FF0000FF000000
310
FF0000FFFF0000FF0000FFFF0000FF000000000000FFFFFFFFFFFFFFFFFFFFFFFFFFFFFFFFFFFFFFFFFFFFFFFFFFFFFFFFFFFF0000FFFFFFFFFFFFFFFFFFFFFFFFFFFFFFFFFFFFFFFFFFFFFFFFFFFFFFFFFFFF0000FFFF0000000000000000000000000000000000000000000000000000FFFF000000000000000000000000
310
00000000000000000000000000000000000000000000000000000000000000000000000000000000000000000000000000000000000000000000000000000000000000000000000000000000000000000000000000000000000000000000000000000000000000000000000000000000000000000000000000000000000000
310
00000000000000000000000000000000000000000000000000000000000000000000000000000000000000000000000000000000000000000000000000000000000000000000000000000000000000000000000000000000000000000000000000000000000000000000000000000000000000000000000000000000000000
310
00000000000000000000000000000000000000000000000000000000000000000000000000000000000000000000000000000000000000000000000000000000000000000000000000000000000000000000000000000000000000000000000000000000000000000000000000000000000000000000000000000000000000
310
0000000000000000000000000000000000000000000000000000000000000000000000000000000000000000000000000000000000000000
102
{BLKREFS
331
8DD
102
}
1001
ACAD
1000
DesignCenter Data
1002
{
1070
     1
1070
     4
1002
}
  0
BLOCK_RECORD
  5
8DE
330
1
100
AcDbSymbolTableRecord
100
AcDbBlockTableRecord
  2
4
340
0
310
2800000020000000200000000100080000000000000400000000000000000000000000000000000000000000000080000080000000808000800000008000800080800000C0C0C000C0DCC000F0CAA6000020400000206000002080000020A0000020C0000020E00000400000004020000040400000406000004080000040A0
310
000040C0000040E00000600000006020000060400000606000006080000060A0000060C0000060E00000800000008020000080400000806000008080000080A0000080C0000080E00000A0000000A0200000A0400000A0600000A0800000A0A00000A0C00000A0E00000C0000000C0200000C0400000C0600000C0800000C0
310
A00000C0C00000C0E00000E0000000E0200000E0400000E0600000E0800000E0A00000E0C00000E0E00040000000400020004000400040006000400080004000A0004000C0004000E00040200000402020004020400040206000402080004020A0004020C0004020E000404000004040200040404000404060004040800040
310
40A0004040C0004040E00040600000406020004060400040606000406080004060A0004060C0004060E00040800000408020004080400040806000408080004080A0004080C0004080E00040A0000040A0200040A0400040A0600040A0800040A0A00040A0C00040A0E00040C0000040C0200040C0400040C0600040C08000
310
40C0A00040C0C00040C0E00040E0000040E0200040E0400040E0600040E0800040E0A00040E0C00040E0E00080000000800020008000400080006000800080008000A0008000C0008000E00080200000802020008020400080206000802080008020A0008020C0008020E00080400000804020008040400080406000804080
310
008040A0008040C0008040E00080600000806020008060400080606000806080008060A0008060C0008060E00080800000808020008080400080806000808080008080A0008080C0008080E00080A0000080A0200080A0400080A0600080A0800080A0A00080A0C00080A0E00080C0000080C0200080C0400080C0600080C0
310
800080C0A00080C0C00080C0E00080E0000080E0200080E0400080E0600080E0800080E0A00080E0C00080E0E000C0000000C0002000C0004000C0006000C0008000C000A000C000C000C000E000C0200000C0202000C0204000C0206000C0208000C020A000C020C000C020E000C0400000C0402000C0404000C0406000C0
310
408000C040A000C040C000C040E000C0600000C0602000C0604000C0606000C0608000C060A000C060C000C060E000C0800000C0802000C0804000C0806000C0808000C080A000C080C000C080E000C0A00000C0A02000C0A04000C0A06000C0A08000C0A0A000C0A0C000C0A0E000C0C00000C0C02000C0C04000C0C06000
310
C0C08000C0C0A000F0FBFF00A4A0A000808080000000FF0000FF000000FFFF00FF000000FF00FF00FFFF0000FFFFFF0000000000000000000000000000000000000000000000000000000000000000000000000000000000000000000000000000000000000000000000000000000000000000000000000000000000000000
310
00000000000000000000000000000000000000000000000000000000000000000000000000000000000000000000000000000000000000000000000000000000000000000000000000000000000000000000000000000000000000000000000000000000000000000000000000000000000000000000000000000000000000
310
00000000000000000000000000000000000000000000000000000000000000000000000000000000000000000000000000000000000000000000000000000000000000000000000000000000000000000000000000000000000000000000000000000000000000000000FFFFFF000000000000000000000000000000000000
310
00000000000000FFFFFFFFFFFFFF00000000000000000000000000000000000000000000FFFFFF00FFFFFFFFFFFFFF000000000000000000000000000000000000FFFFFFFFFFFFFFFFFFFFFFFFFFFFFF00000000000000000000000000FFFFFFFFFFFFFFFFFFFFFFFFFFFFFF00FFFFFFFFFF0000000000000000FFFFFF00FF
310
FFFFFFFFFFFFFFFFFFFF00FFFFFFFFFFFFFFFF00000000FFFFFFFFFFFFFFFFFFFFFFFFFFFFFFFFFFFFFFFFFFFFFFFFFFFFFF000000FFFF00FFFFFFFFFFFFFFFFFFFFFFFFFFFFFFFFFFFFFFFFFFFFFFFF0000000000FFFFFFFFFFFFFFFFFFFFFFFFFFFFFFFFFFFFFFFFFFFFFFFF000000000000000000FFFFFFFFFFFFFFFFFF
310
FFFFFFFFFFFFFFFFFFFF0000000000000000000000000000FFFFFFFFFFFFFFFFFFFFFFFFFF00FF000000000000000000000000000000000000FFFFFFFFFFFFFFFFFF00FF00000000000000000000000000000000000000000000FFFFFFFFFF000000000000000000000000000000000000000000000000000000FFFFFF0000
310
00000000000000000000000000000000000000000000000000000000000000000000000000000000000000000000000000000000000000000000000000000000000000000000000000000000000000000000000000000000000000000000000000000000000000000000000000000000000000000000000000000000000000
310
00000000000000000000000000000000000000000000000000000000000000000000000000000000000000000000000000000000000000000000000000000000000000000000000000000000000000000000000000000000000000000000000000000000000000000000000000000000000000000000000000000000000000
310
0000000000000000000000000000000000000000000000000000000000000000000000000000000000000000000000000000000000000000
102
{BLKREFS
331
A7B
102
}
1001
ACAD
1000
DesignCenter Data
1002
{
1070
     1
1070
     4
1002
}
  0
ENDTAB
  0
ENDSEC
  0
SECTION
  2
BLOCKS
  0
BLOCK
  5
20
330
1F
100
AcDbEntity
  8
0
100
AcDbBlockBegin
  2
*Model_Space
 70
     0
 10
0.0
 20
0.0
 30
0.0
  3
*Model_Space
  1

  0
ENDBLK
  5
21
330
1F
100
AcDbEntity
  8
0
100
AcDbBlockEnd
  0
BLOCK
  5
D4
330
D2
100
AcDbEntity
 67
     1
  8
0
100
AcDbBlockBegin
  2
*Paper_Space
 70
     0
 10
0.0
 20
0.0
 30
0.0
  3
*Paper_Space
  1

  0
ENDBLK
  5
D5
330
D2
100
AcDbEntity
 67
     1
  8
0
100
AcDbBlockEnd
  0
BLOCK
  5
D8
330
D6
100
AcDbEntity
 67
     1
  8
0
100
AcDbBlockBegin
  2
*Paper_Space0
 70
     0
 10
0.0
 20
0.0
 30
0.0
  3
*Paper_Space0
  1

  0
ENDBLK
  5
D9
330
D6
100
AcDbEntity
 67
     1
  8
0
100
AcDbBlockEnd
  0
BLOCK
  5
784
330
783
100
AcDbEntity
  8
0
100
AcDbBlockBegin
  2
1
 70
     0
 10
0.0
 20
0.0
 30
0.0
  3
1
  1

  0
LINE
  5
786
330
783
100
AcDbEntity
  8
0
  6
Continuous
 62
     7
370
    15
100
AcDbLine
 10
2084.270063104871
 20
839.4914913221288
 30
0.0
 11
2083.670063104871
 21
839.4914913221288
 31
0.0
  0
LINE
  5
787
330
783
100
AcDbEntity
  8
0
  6
Continuous
 62
     7
370
    15
100
AcDbLine
 10
2084.270063104871
 20
835.767582085856
 30
0.0
 11
2084.270063104871
 21
839.4914913221288
 31
0.0
  0
LINE
  5
788
330
783
100
AcDbEntity
  8
0
  6
Continuous
 62
     7
370
    15
100
AcDbLine
 10
2084.270063104871
 20
835.767582085856
 30
0.0
 11
2083.670063104871
 21
835.767582085856
 31
0.0
  0
LINE
  5
789
330
783
100
AcDbEntity
  8
0
  6
Continuous
 62
     7
370
    15
100
AcDbLine
 10
2083.670063104871
 20
839.4914913221288
 30
0.0
 11
2083.670063104871
 21
835.767582085856
 31
0.0
  0
LINE
  5
78A
330
783
100
AcDbEntity
  8
0
  6
Continuous
 62
     7
370
    15
100
AcDbLine
 10
2048.270063104871
 20
839.4914913221288
 30
0.0
 11
2047.670063104871
 21
839.4914913221288
 31
0.0
  0
LINE
  5
78B
330
783
100
AcDbEntity
  8
0
  6
Continuous
 62
     7
370
    15
100
AcDbLine
 10
2048.270063104871
 20
835.767582085856
 30
0.0
 11
2048.270063104871
 21
839.4914913221288
 31
0.0
  0
LINE
  5
78C
330
783
100
AcDbEntity
  8
0
  6
Continuous
 62
     7
370
    15
100
AcDbLine
 10
2047.670063104871
 20
835.767582085856
 30
0.0
 11
2048.270063104871
 21
835.767582085856
 31
0.0
  0
LINE
  5
78D
330
783
100
AcDbEntity
  8
0
  6
Continuous
 62
     7
370
    15
100
AcDbLine
 10
2047.670063104871
 20
839.4914913221288
 30
0.0
 11
2047.670063104871
 21
835.767582085856
 31
0.0
  0
LINE
  5
78E
330
783
100
AcDbEntity
  8
0
  6
Continuous
 62
     7
370
    15
100
AcDbLine
 10
2102.270063104871
 20
839.4914913221288
 30
0.0
 11
2101.670063104871
 21
839.4914913221288
 31
0.0
  0
LINE
  5
78F
330
783
100
AcDbEntity
  8
0
  6
Continuous
 62
     7
370
    15
100
AcDbLine
 10
2102.270063104871
 20
835.767582085856
 30
0.0
 11
2102.270063104871
 21
839.4914913221288
 31
0.0
  0
LINE
  5
790
330
783
100
AcDbEntity
  8
0
  6
Continuous
 62
     7
370
    15
100
AcDbLine
 10
2102.270063104871
 20
835.767582085856
 30
0.0
 11
2101.670063104871
 21
835.767582085856
 31
0.0
  0
LINE
  5
791
330
783
100
AcDbEntity
  8
0
  6
Continuous
 62
     7
370
    15
100
AcDbLine
 10
2101.670063104871
 20
839.4914913221288
 30
0.0
 11
2101.670063104871
 21
835.767582085856
 31
0.0
  0
LINE
  5
792
330
783
100
AcDbEntity
  8
0
  6
Continuous
 62
     7
370
    15
100
AcDbLine
 10
2101.670063104871
 20
851.2675820858559
 30
0.0
 11
2101.670063104871
 21
850.767582085856
 31
0.0
  0
LINE
  5
793
330
783
100
AcDbEntity
  8
0
  6
Continuous
 62
     7
370
    15
100
AcDbLine
 10
2102.270063104871
 20
851.2675820858559
 30
0.0
 11
2101.670063104871
 21
851.2675820858559
 31
0.0
  0
LINE
  5
794
330
783
100
AcDbEntity
  8
0
  6
Continuous
 62
     7
370
    15
100
AcDbLine
 10
2101.670063104871
 20
850.767582085856
 30
0.0
 11
2102.270063104871
 21
850.767582085856
 31
0.0
  0
LINE
  5
795
330
783
100
AcDbEntity
  8
0
  6
Continuous
 62
     7
370
    15
100
AcDbLine
 10
2102.270063104871
 20
850.767582085856
 30
0.0
 11
2102.270063104871
 21
851.2675820858559
 31
0.0
  0
LINE
  5
796
330
783
100
AcDbEntity
  8
0
  6
Continuous
 62
     7
370
    15
100
AcDbLine
 10
2074.670063104871
 20
850.767582085856
 30
0.0
 11
2075.270063104871
 21
850.767582085856
 31
0.0
  0
LINE
  5
797
330
783
100
AcDbEntity
  8
0
  6
Continuous
 62
     7
370
    15
100
AcDbLine
 10
2075.270063104871
 20
839.4914913221288
 30
0.0
 11
2075.270063104871
 21
850.767582085856
 31
0.0
  0
LINE
  5
798
330
783
100
AcDbEntity
  8
0
  6
Continuous
 62
     7
370
    15
100
AcDbLine
 10
2075.270063104871
 20
839.4914913221288
 30
0.0
 11
2074.670063104871
 21
839.4914913221288
 31
0.0
  0
LINE
  5
799
330
783
100
AcDbEntity
  8
0
  6
Continuous
 62
     7
370
    15
100
AcDbLine
 10
2074.670063104871
 20
850.767582085856
 30
0.0
 11
2074.670063104871
 21
839.4914913221288
 31
0.0
  0
LINE
  5
79A
330
783
100
AcDbEntity
  8
0
  6
Continuous
 62
     7
370
    15
100
AcDbLine
 10
2075.270063104871
 20
835.767582085856
 30
0.0
 11
2075.270063104871
 21
839.4914913221288
 31
0.0
  0
LINE
  5
79B
330
783
100
AcDbEntity
  8
0
  6
Continuous
 62
     7
370
    15
100
AcDbLine
 10
2075.270063104871
 20
835.767582085856
 30
0.0
 11
2074.670063104871
 21
835.767582085856
 31
0.0
  0
LINE
  5
79C
330
783
100
AcDbEntity
  8
0
  6
Continuous
 62
     7
370
    15
100
AcDbLine
 10
2074.670063104871
 20
839.4914913221288
 30
0.0
 11
2074.670063104871
 21
835.767582085856
 31
0.0
  0
LINE
  5
79D
330
783
100
AcDbEntity
  8
0
  6
Continuous
 62
     7
370
    15
100
AcDbLine
 10
2092.670063104871
 20
851.2675820858559
 30
0.0
 11
2092.670063104871
 21
850.767582085856
 31
0.0
  0
LINE
  5
79E
330
783
100
AcDbEntity
  8
0
  6
Continuous
 62
     7
370
    15
100
AcDbLine
 10
2093.270063104871
 20
851.2675820858559
 30
0.0
 11
2092.670063104871
 21
851.2675820858559
 31
0.0
  0
LINE
  5
79F
330
783
100
AcDbEntity
  8
0
  6
Continuous
 62
     7
370
    15
100
AcDbLine
 10
2092.670063104871
 20
850.767582085856
 30
0.0
 11
2093.270063104871
 21
850.767582085856
 31
0.0
  0
LINE
  5
7A0
330
783
100
AcDbEntity
  8
0
  6
Continuous
 62
     7
370
    15
100
AcDbLine
 10
2093.270063104871
 20
850.767582085856
 30
0.0
 11
2093.270063104871
 21
851.2675820858559
 31
0.0
  0
LINE
  5
7A1
330
783
100
AcDbEntity
  8
0
  6
Continuous
 62
     7
370
    15
100
AcDbLine
 10
2065.670063104871
 20
850.767582085856
 30
0.0
 11
2066.270063104871
 21
850.767582085856
 31
0.0
  0
LINE
  5
7A2
330
783
100
AcDbEntity
  8
0
  6
Continuous
 62
     7
370
    15
100
AcDbLine
 10
2066.270063104871
 20
839.4914913221288
 30
0.0
 11
2066.270063104871
 21
850.767582085856
 31
0.0
  0
LINE
  5
7A3
330
783
100
AcDbEntity
  8
0
  6
Continuous
 62
     7
370
    15
100
AcDbLine
 10
2066.270063104871
 20
839.4914913221288
 30
0.0
 11
2065.670063104871
 21
839.4914913221288
 31
0.0
  0
LINE
  5
7A4
330
783
100
AcDbEntity
  8
0
  6
Continuous
 62
     7
370
    15
100
AcDbLine
 10
2065.670063104871
 20
850.767582085856
 30
0.0
 11
2065.670063104871
 21
839.4914913221288
 31
0.0
  0
LINE
  5
7A5
330
783
100
AcDbEntity
  8
0
  6
Continuous
 62
     7
370
    15
100
AcDbLine
 10
2066.270063104871
 20
835.767582085856
 30
0.0
 11
2066.270063104871
 21
839.4914913221288
 31
0.0
  0
LINE
  5
7A6
330
783
100
AcDbEntity
  8
0
  6
Continuous
 62
     7
370
    15
100
AcDbLine
 10
2066.270063104871
 20
835.767582085856
 30
0.0
 11
2065.670063104871
 21
835.767582085856
 31
0.0
  0
LINE
  5
7A7
330
783
100
AcDbEntity
  8
0
  6
Continuous
 62
     7
370
    15
100
AcDbLine
 10
2065.670063104871
 20
839.4914913221288
 30
0.0
 11
2065.670063104871
 21
835.767582085856
 31
0.0
  0
LINE
  5
7A8
330
783
100
AcDbEntity
  8
0
  6
Continuous
 62
     7
370
    15
100
AcDbLine
 10
2083.670063104871
 20
850.767582085856
 30
0.0
 11
2084.270063104871
 21
850.767582085856
 31
0.0
  0
LINE
  5
7A9
330
783
100
AcDbEntity
  8
0
  6
Continuous
 62
     7
370
    15
100
AcDbLine
 10
2083.670063104871
 20
850.767582085856
 30
0.0
 11
2083.670063104871
 21
839.4914913221288
 31
0.0
  0
LINE
  5
7AA
330
783
100
AcDbEntity
  8
0
  6
Continuous
 62
     7
370
    15
100
AcDbLine
 10
2084.270063104871
 20
839.4914913221288
 30
0.0
 11
2084.270063104871
 21
850.767582085856
 31
0.0
  0
LINE
  5
7AB
330
783
100
AcDbEntity
  8
0
  6
Continuous
 62
     7
370
    15
100
AcDbLine
 10
2101.670063104871
 20
850.767582085856
 30
0.0
 11
2101.670063104871
 21
839.4914913221288
 31
0.0
  0
LINE
  5
7AC
330
783
100
AcDbEntity
  8
0
  6
Continuous
 62
     7
370
    15
100
AcDbLine
 10
2102.270063104871
 20
839.4914913221288
 30
0.0
 11
2102.270063104871
 21
850.767582085856
 31
0.0
  0
LINE
  5
7AD
330
783
100
AcDbEntity
  8
0
  6
Continuous
 62
     7
370
    15
100
AcDbLine
 10
2075.270063104871
 20
851.2675820858559
 30
0.0
 11
2074.670063104871
 21
851.2675820858559
 31
0.0
  0
LINE
  5
7AE
330
783
100
AcDbEntity
  8
0
  6
Continuous
 62
     7
370
    15
100
AcDbLine
 10
2075.270063104871
 20
850.767582085856
 30
0.0
 11
2075.270063104871
 21
851.2675820858559
 31
0.0
  0
LINE
  5
7AF
330
783
100
AcDbEntity
  8
0
  6
Continuous
 62
     7
370
    15
100
AcDbLine
 10
2074.670063104871
 20
851.2675820858559
 30
0.0
 11
2074.670063104871
 21
850.767582085856
 31
0.0
  0
LINE
  5
7B0
330
783
100
AcDbEntity
  8
0
  6
Continuous
 62
     7
370
    15
100
AcDbLine
 10
2057.270063104871
 20
839.4914913221288
 30
0.0
 11
2056.670063104871
 21
839.4914913221288
 31
0.0
  0
LINE
  5
7B1
330
783
100
AcDbEntity
  8
0
  6
Continuous
 62
     7
370
    15
100
AcDbLine
 10
2057.270063104871
 20
835.767582085856
 30
0.0
 11
2057.270063104871
 21
839.4914913221288
 31
0.0
  0
LINE
  5
7B2
330
783
100
AcDbEntity
  8
0
  6
Continuous
 62
     7
370
    15
100
AcDbLine
 10
2057.270063104871
 20
835.767582085856
 30
0.0
 11
2056.670063104871
 21
835.767582085856
 31
0.0
  0
LINE
  5
7B3
330
783
100
AcDbEntity
  8
0
  6
Continuous
 62
     7
370
    15
100
AcDbLine
 10
2056.670063104871
 20
839.4914913221288
 30
0.0
 11
2056.670063104871
 21
835.767582085856
 31
0.0
  0
LINE
  5
7B4
330
783
100
AcDbEntity
  8
0
  6
Continuous
 62
     7
370
    15
100
AcDbLine
 10
2056.670063104871
 20
850.767582085856
 30
0.0
 11
2057.270063104871
 21
850.767582085856
 31
0.0
  0
LINE
  5
7B5
330
783
100
AcDbEntity
  8
0
  6
Continuous
 62
     7
370
    15
100
AcDbLine
 10
2057.270063104871
 20
839.4914913221288
 30
0.0
 11
2057.270063104871
 21
850.767582085856
 31
0.0
  0
LINE
  5
7B6
330
783
100
AcDbEntity
  8
0
  6
Continuous
 62
     7
370
    15
100
AcDbLine
 10
2056.670063104871
 20
850.767582085856
 30
0.0
 11
2056.670063104871
 21
839.4914913221288
 31
0.0
  0
LINE
  5
7B7
330
783
100
AcDbEntity
  8
0
  6
Continuous
 62
     7
370
    15
100
AcDbLine
 10
2093.270063104871
 20
839.4914913221288
 30
0.0
 11
2092.670063104871
 21
839.4914913221288
 31
0.0
  0
LINE
  5
7B8
330
783
100
AcDbEntity
  8
0
  6
Continuous
 62
     7
370
    15
100
AcDbLine
 10
2093.270063104871
 20
835.767582085856
 30
0.0
 11
2092.670063104871
 21
835.767582085856
 31
0.0
  0
LINE
  5
7B9
330
783
100
AcDbEntity
  8
0
  6
Continuous
 62
     7
370
    15
100
AcDbLine
 10
2092.670063104871
 20
839.4914913221288
 30
0.0
 11
2092.670063104871
 21
835.767582085856
 31
0.0
  0
LINE
  5
7BA
330
783
100
AcDbEntity
  8
0
  6
Continuous
 62
     7
370
    15
100
AcDbLine
 10
2093.270063104871
 20
835.767582085856
 30
0.0
 11
2093.270063104871
 21
839.4914913221288
 31
0.0
  0
LINE
  5
7BB
330
783
100
AcDbEntity
  8
0
  6
Continuous
 62
     7
370
    15
100
AcDbLine
 10
2083.670063104871
 20
851.2675820858559
 30
0.0
 11
2083.670063104871
 21
850.767582085856
 31
0.0
  0
LINE
  5
7BC
330
783
100
AcDbEntity
  8
0
  6
Continuous
 62
     7
370
    15
100
AcDbLine
 10
2084.270063104871
 20
851.2675820858559
 30
0.0
 11
2083.670063104871
 21
851.2675820858559
 31
0.0
  0
LINE
  5
7BD
330
783
100
AcDbEntity
  8
0
  6
Continuous
 62
     7
370
    15
100
AcDbLine
 10
2084.270063104871
 20
850.767582085856
 30
0.0
 11
2084.270063104871
 21
851.2675820858559
 31
0.0
  0
LINE
  5
7BE
330
783
100
AcDbEntity
  8
0
  6
Continuous
 62
     7
370
    15
100
AcDbLine
 10
2092.670063104871
 20
850.767582085856
 30
0.0
 11
2092.670063104871
 21
839.4914913221288
 31
0.0
  0
LINE
  5
7BF
330
783
100
AcDbEntity
  8
0
  6
Continuous
 62
     7
370
    15
100
AcDbLine
 10
2093.270063104871
 20
839.4914913221288
 30
0.0
 11
2093.270063104871
 21
850.767582085856
 31
0.0
  0
LINE
  5
7C0
330
783
100
AcDbEntity
  8
0
  6
Continuous
 62
     7
370
    15
100
AcDbLine
 10
2066.270063104871
 20
851.2675820858559
 30
0.0
 11
2065.670063104871
 21
851.2675820858559
 31
0.0
  0
LINE
  5
7C1
330
783
100
AcDbEntity
  8
0
  6
Continuous
 62
     7
370
    15
100
AcDbLine
 10
2066.270063104871
 20
850.767582085856
 30
0.0
 11
2066.270063104871
 21
851.2675820858559
 31
0.0
  0
LINE
  5
7C2
330
783
100
AcDbEntity
  8
0
  6
Continuous
 62
     7
370
    15
100
AcDbLine
 10
2065.670063104871
 20
851.2675820858559
 30
0.0
 11
2065.670063104871
 21
850.767582085856
 31
0.0
  0
LINE
  5
7C3
330
783
100
AcDbEntity
  8
0
  6
Continuous
 62
     7
370
    15
100
AcDbLine
 10
2048.270063104871
 20
851.2675820858559
 30
0.0
 11
2047.670063104871
 21
851.2675820858559
 31
0.0
  0
LINE
  5
7C4
330
783
100
AcDbEntity
  8
0
  6
Continuous
 62
     7
370
    15
100
AcDbLine
 10
2047.670063104871
 20
850.767582085856
 30
0.0
 11
2048.270063104871
 21
850.767582085856
 31
0.0
  0
LINE
  5
7C5
330
783
100
AcDbEntity
  8
0
  6
Continuous
 62
     7
370
    15
100
AcDbLine
 10
2048.270063104871
 20
850.767582085856
 30
0.0
 11
2048.270063104871
 21
851.2675820858559
 31
0.0
  0
LINE
  5
7C6
330
783
100
AcDbEntity
  8
0
  6
Continuous
 62
     7
370
    15
100
AcDbLine
 10
2047.670063104871
 20
851.2675820858559
 30
0.0
 11
2047.670063104871
 21
850.767582085856
 31
0.0
  0
LINE
  5
7C7
330
783
100
AcDbEntity
  8
0
  6
Continuous
 62
     7
370
    15
100
AcDbLine
 10
2048.270063104871
 20
839.4914913221288
 30
0.0
 11
2048.270063104871
 21
850.767582085856
 31
0.0
  0
LINE
  5
7C8
330
783
100
AcDbEntity
  8
0
  6
Continuous
 62
     7
370
    15
100
AcDbLine
 10
2047.670063104871
 20
850.767582085856
 30
0.0
 11
2047.670063104871
 21
839.4914913221288
 31
0.0
  0
LINE
  5
7C9
330
783
100
AcDbEntity
  8
0
  6
Continuous
 62
     7
370
    15
100
AcDbLine
 10
2057.270063104871
 20
851.2675820858559
 30
0.0
 11
2056.670063104871
 21
851.2675820858559
 31
0.0
  0
LINE
  5
7CA
330
783
100
AcDbEntity
  8
0
  6
Continuous
 62
     7
370
    15
100
AcDbLine
 10
2056.670063104871
 20
851.2675820858559
 30
0.0
 11
2056.670063104871
 21
850.767582085856
 31
0.0
  0
LINE
  5
7CB
330
783
100
AcDbEntity
  8
0
  6
Continuous
 62
     7
370
    15
100
AcDbLine
 10
2057.270063104871
 20
850.767582085856
 30
0.0
 11
2057.270063104871
 21
851.2675820858559
 31
0.0
  0
LINE
  5
7CC
330
783
100
AcDbEntity
  8
0
  6
Continuous
 62
     7
370
    15
100
AcDbLine
 10
2091.265148076745
 20
848.767582085856
 30
0.0
 11
2092.670063104871
 21
848.767582085856
 31
0.0
  0
ARC
  5
7CD
330
783
100
AcDbEntity
  8
0
  6
Continuous
 62
     7
370
    15
100
AcDbCircle
 10
2088.470063104871
 20
846.267582085856
 30
0.0
 40
3.750000000000079
100
AcDbArc
 50
41.81031489577503
 51
138.1896851042249
  0
LINE
  5
7CE
330
783
100
AcDbEntity
  8
0
  6
Continuous
 62
     7
370
    15
100
AcDbLine
 10
2084.270063104871
 20
848.767582085856
 30
0.0
 11
2085.674978132996
 21
848.767582085856
 31
0.0
  0
LINE
  5
7CF
330
783
100
AcDbEntity
  8
0
  6
Continuous
 62
     7
370
    15
100
AcDbLine
 10
2092.670063104871
 20
851.2675820858559
 30
0.0
 11
2084.270063104871
 21
851.2675820858559
 31
0.0
  0
LINE
  5
7D0
330
783
100
AcDbEntity
  8
0
  6
Continuous
 62
     7
370
    15
100
AcDbLine
 10
2082.265148076746
 20
848.767582085856
 30
0.0
 11
2083.670063104871
 21
848.767582085856
 31
0.0
  0
ARC
  5
7D1
330
783
100
AcDbEntity
  8
0
  6
Continuous
 62
     7
370
    15
100
AcDbCircle
 10
2079.470063104871
 20
846.267582085856
 30
0.0
 40
3.750000000000079
100
AcDbArc
 50
41.81031489577503
 51
138.1896851042249
  0
LINE
  5
7D2
330
783
100
AcDbEntity
  8
0
  6
Continuous
 62
     7
370
    15
100
AcDbLine
 10
2075.270063104871
 20
848.767582085856
 30
0.0
 11
2076.674978132996
 21
848.767582085856
 31
0.0
  0
LINE
  5
7D3
330
783
100
AcDbEntity
  8
0
  6
Continuous
 62
     7
370
    15
100
AcDbLine
 10
2083.670063104871
 20
851.2675820858559
 30
0.0
 11
2075.270063104871
 21
851.2675820858559
 31
0.0
  0
LINE
  5
7D4
330
783
100
AcDbEntity
  8
0
  6
Continuous
 62
     7
370
    15
100
AcDbLine
 10
2055.265148076745
 20
848.767582085856
 30
0.0
 11
2056.670063104871
 21
848.767582085856
 31
0.0
  0
ARC
  5
7D5
330
783
100
AcDbEntity
  8
0
  6
Continuous
 62
     7
370
    15
100
AcDbCircle
 10
2052.470063104871
 20
846.267582085856
 30
0.0
 40
3.750000000000099
100
AcDbArc
 50
41.81031489577503
 51
138.1896851042249
  0
LINE
  5
7D6
330
783
100
AcDbEntity
  8
0
  6
Continuous
 62
     7
370
    15
100
AcDbLine
 10
2048.270063104871
 20
848.767582085856
 30
0.0
 11
2049.674978132996
 21
848.767582085856
 31
0.0
  0
LINE
  5
7D7
330
783
100
AcDbEntity
  8
0
  6
Continuous
 62
     7
370
    15
100
AcDbLine
 10
2056.670063104871
 20
851.2675820858559
 30
0.0
 11
2048.270063104871
 21
851.2675820858559
 31
0.0
  0
LINE
  5
7D8
330
783
100
AcDbEntity
  8
0
  6
Continuous
 62
     7
370
    15
100
AcDbLine
 10
2100.265148076745
 20
848.767582085856
 30
0.0
 11
2101.670063104871
 21
848.767582085856
 31
0.0
  0
ARC
  5
7D9
330
783
100
AcDbEntity
  8
0
  6
Continuous
 62
     7
370
    15
100
AcDbCircle
 10
2097.470063104871
 20
846.267582085856
 30
0.0
 40
3.750000000000079
100
AcDbArc
 50
41.81031489577503
 51
138.1896851042249
  0
LINE
  5
7DA
330
783
100
AcDbEntity
  8
0
  6
Continuous
 62
     7
370
    15
100
AcDbLine
 10
2093.270063104871
 20
848.767582085856
 30
0.0
 11
2094.674978132996
 21
848.767582085856
 31
0.0
  0
LINE
  5
7DB
330
783
100
AcDbEntity
  8
0
  6
Continuous
 62
     7
370
    15
100
AcDbLine
 10
2101.670063104871
 20
851.2675820858559
 30
0.0
 11
2093.270063104871
 21
851.2675820858559
 31
0.0
  0
LINE
  5
7DC
330
783
100
AcDbEntity
  8
0
  6
Continuous
 62
     7
370
    15
100
AcDbLine
 10
2109.265148076746
 20
848.767582085856
 30
0.0
 11
2110.670063104871
 21
848.767582085856
 31
0.0
  0
ARC
  5
7DD
330
783
100
AcDbEntity
  8
0
  6
Continuous
 62
     7
370
    15
100
AcDbCircle
 10
2106.470063104871
 20
846.267582085856
 30
0.0
 40
3.750000000000099
100
AcDbArc
 50
41.81031489577503
 51
138.1896851042249
  0
LINE
  5
7DE
330
783
100
AcDbEntity
  8
0
  6
Continuous
 62
     7
370
    15
100
AcDbLine
 10
2102.270063104871
 20
848.767582085856
 30
0.0
 11
2103.674978132996
 21
848.767582085856
 31
0.0
  0
ARC
  5
7DF
330
783
100
AcDbEntity
  8
0
  6
Continuous
 62
     7
370
    15
100
AcDbCircle
 10
2109.670063104871
 20
850.2675820858557
 30
0.0
 40
1.000000000000255
100
AcDbArc
 50
0.0
 51
90.0
  0
LINE
  5
7E0
330
783
100
AcDbEntity
  8
0
  6
Continuous
 62
     7
370
    15
100
AcDbLine
 10
2110.670063104871
 20
848.767582085856
 30
0.0
 11
2110.670063104871
 21
850.2675820858557
 31
0.0
  0
LINE
  5
7E1
330
783
100
AcDbEntity
  8
0
  6
Continuous
 62
     7
370
    15
100
AcDbLine
 10
2109.670063104871
 20
851.2675820858559
 30
0.0
 11
2102.270063104871
 21
851.2675820858559
 31
0.0
  0
ARC
  5
7E2
330
783
100
AcDbEntity
  8
0
  6
Continuous
 62
     7
370
    15
100
AcDbCircle
 10
2040.670063104871
 20
850.2675820858559
 30
0.0
 40
1.0
100
AcDbArc
 50
90.0
 51
180.0
  0
ARC
  5
7E3
330
783
100
AcDbEntity
  8
0
  6
Continuous
 62
     7
370
    15
100
AcDbCircle
 10
2043.470063104871
 20
846.267582085856
 30
0.0
 40
3.750000000000079
100
AcDbArc
 50
41.81031489577503
 51
138.1896851042249
  0
LINE
  5
7E4
330
783
100
AcDbEntity
  8
0
  6
Continuous
 62
     7
370
    15
100
AcDbLine
 10
2039.670063104871
 20
848.767582085856
 30
0.0
 11
2040.674978132996
 21
848.767582085856
 31
0.0
  0
LINE
  5
7E5
330
783
100
AcDbEntity
  8
0
  6
Continuous
 62
     7
370
    15
100
AcDbLine
 10
2039.670063104871
 20
850.2675820858559
 30
0.0
 11
2039.670063104871
 21
848.767582085856
 31
0.0
  0
LINE
  5
7E6
330
783
100
AcDbEntity
  8
0
  6
Continuous
 62
     7
370
    15
100
AcDbLine
 10
2046.265148076745
 20
848.767582085856
 30
0.0
 11
2047.670063104871
 21
848.767582085856
 31
0.0
  0
LINE
  5
7E7
330
783
100
AcDbEntity
  8
0
  6
Continuous
 62
     7
370
    15
100
AcDbLine
 10
2047.670063104871
 20
851.2675820858559
 30
0.0
 11
2040.670063104871
 21
851.2675820858559
 31
0.0
  0
LINE
  5
7E8
330
783
100
AcDbEntity
  8
0
  6
Continuous
 62
     7
370
    15
100
AcDbLine
 10
2073.265148076746
 20
848.767582085856
 30
0.0
 11
2074.670063104871
 21
848.767582085856
 31
0.0
  0
ARC
  5
7E9
330
783
100
AcDbEntity
  8
0
  6
Continuous
 62
     7
370
    15
100
AcDbCircle
 10
2070.470063104871
 20
846.267582085856
 30
0.0
 40
3.750000000000099
100
AcDbArc
 50
41.81031489577503
 51
138.1896851042249
  0
LINE
  5
7EA
330
783
100
AcDbEntity
  8
0
  6
Continuous
 62
     7
370
    15
100
AcDbLine
 10
2066.270063104871
 20
848.767582085856
 30
0.0
 11
2067.674978132996
 21
848.767582085856
 31
0.0
  0
LINE
  5
7EB
330
783
100
AcDbEntity
  8
0
  6
Continuous
 62
     7
370
    15
100
AcDbLine
 10
2074.670063104871
 20
851.2675820858559
 30
0.0
 11
2066.270063104871
 21
851.2675820858559
 31
0.0
  0
LINE
  5
7EC
330
783
100
AcDbEntity
  8
0
  6
Continuous
 62
     7
370
    15
100
AcDbLine
 10
2057.270063104871
 20
848.767582085856
 30
0.0
 11
2058.674978132996
 21
848.767582085856
 31
0.0
  0
LINE
  5
7ED
330
783
100
AcDbEntity
  8
0
  6
Continuous
 62
     7
370
    15
100
AcDbLine
 10
2064.265148076746
 20
848.767582085856
 30
0.0
 11
2065.670063104871
 21
848.767582085856
 31
0.0
  0
ARC
  5
7EE
330
783
100
AcDbEntity
  8
0
  6
Continuous
 62
     7
370
    15
100
AcDbCircle
 10
2061.470063104871
 20
846.267582085856
 30
0.0
 40
3.750000000000057
100
AcDbArc
 50
41.81031489577503
 51
138.1896851042249
  0
LINE
  5
7EF
330
783
100
AcDbEntity
  8
0
  6
Continuous
 62
     7
370
    15
100
AcDbLine
 10
2065.670063104871
 20
851.2675820858559
 30
0.0
 11
2057.270063104871
 21
851.2675820858559
 31
0.0
  0
LINE
  5
7F0
330
783
100
AcDbEntity
  8
0
  6
Continuous
 62
     7
370
    15
100
AcDbLine
 10
2109.930063104871
 20
833.3675820858557
 30
0.0
 11
2040.320063104871
 21
833.3675820858561
 31
0.0
  0
LINE
  5
7F1
330
783
100
AcDbEntity
  8
0
  6
Continuous
 62
     7
370
    15
100
AcDbLine
 10
2040.320063104871
 20
839.867582085856
 30
0.0
 11
2040.320063104871
 21
833.3675820858561
 31
0.0
  0
LINE
  5
7F2
330
783
100
AcDbEntity
  8
0
  6
Continuous
 62
     7
370
    15
100
AcDbLine
 10
2040.320063104871
 20
839.867582085856
 30
0.0
 11
2041.470063104871
 21
839.867582085856
 31
0.0
  0
LINE
  5
7F3
330
783
100
AcDbEntity
  8
0
  6
Continuous
 62
     7
370
    15
100
AcDbLine
 10
2041.470063104871
 20
839.867582085856
 30
0.0
 11
2041.470063104871
 21
837.367582085856
 31
0.0
  0
ARC
  5
7F4
330
783
100
AcDbEntity
  8
0
  6
Continuous
 62
     7
370
    15
100
AcDbCircle
 10
2043.470063104871
 20
837.367582085856
 30
0.0
 40
2.0
100
AcDbArc
 50
180.0
 51
0.0
  0
LINE
  5
7F5
330
783
100
AcDbEntity
  8
0
  6
Continuous
 62
     7
370
    15
100
AcDbLine
 10
2045.470063104871
 20
837.367582085856
 30
0.0
 11
2045.470063104871
 21
839.867582085856
 31
0.0
  0
LINE
  5
7F6
330
783
100
AcDbEntity
  8
0
  6
Continuous
 62
     7
370
    15
100
AcDbLine
 10
2045.470063104871
 20
839.867582085856
 30
0.0
 11
2047.670063104871
 21
839.867582085856
 31
0.0
  0
LINE
  5
7F7
330
783
100
AcDbEntity
  8
0
  6
Continuous
 62
     7
370
    15
100
AcDbLine
 10
2048.270063104871
 20
839.867582085856
 30
0.0
 11
2050.470063104871
 21
839.867582085856
 31
0.0
  0
LINE
  5
7F8
330
783
100
AcDbEntity
  8
0
  6
Continuous
 62
     7
370
    15
100
AcDbLine
 10
2050.470063104871
 20
839.867582085856
 30
0.0
 11
2050.470063104871
 21
837.367582085856
 31
0.0
  0
ARC
  5
7F9
330
783
100
AcDbEntity
  8
0
  6
Continuous
 62
     7
370
    15
100
AcDbCircle
 10
2052.470063104871
 20
837.367582085856
 30
0.0
 40
2.0
100
AcDbArc
 50
180.0
 51
0.0
  0
LINE
  5
7FA
330
783
100
AcDbEntity
  8
0
  6
Continuous
 62
     7
370
    15
100
AcDbLine
 10
2054.470063104871
 20
837.367582085856
 30
0.0
 11
2054.470063104871
 21
839.867582085856
 31
0.0
  0
LINE
  5
7FB
330
783
100
AcDbEntity
  8
0
  6
Continuous
 62
     7
370
    15
100
AcDbLine
 10
2054.470063104871
 20
839.867582085856
 30
0.0
 11
2056.670063104871
 21
839.867582085856
 31
0.0
  0
LINE
  5
7FC
330
783
100
AcDbEntity
  8
0
  6
Continuous
 62
     7
370
    15
100
AcDbLine
 10
2057.270063104871
 20
839.867582085856
 30
0.0
 11
2059.470063104871
 21
839.867582085856
 31
0.0
  0
LINE
  5
7FD
330
783
100
AcDbEntity
  8
0
  6
Continuous
 62
     7
370
    15
100
AcDbLine
 10
2059.470063104871
 20
839.867582085856
 30
0.0
 11
2059.470063104871
 21
837.367582085856
 31
0.0
  0
ARC
  5
7FE
330
783
100
AcDbEntity
  8
0
  6
Continuous
 62
     7
370
    15
100
AcDbCircle
 10
2061.470063104871
 20
837.367582085856
 30
0.0
 40
2.0
100
AcDbArc
 50
180.0
 51
0.0
  0
LINE
  5
7FF
330
783
100
AcDbEntity
  8
0
  6
Continuous
 62
     7
370
    15
100
AcDbLine
 10
2063.470063104871
 20
837.367582085856
 30
0.0
 11
2063.470063104871
 21
839.867582085856
 31
0.0
  0
LINE
  5
800
330
783
100
AcDbEntity
  8
0
  6
Continuous
 62
     7
370
    15
100
AcDbLine
 10
2063.470063104871
 20
839.867582085856
 30
0.0
 11
2065.670063104871
 21
839.867582085856
 31
0.0
  0
LINE
  5
801
330
783
100
AcDbEntity
  8
0
  6
Continuous
 62
     7
370
    15
100
AcDbLine
 10
2066.270063104871
 20
839.867582085856
 30
0.0
 11
2068.470063104871
 21
839.867582085856
 31
0.0
  0
LINE
  5
802
330
783
100
AcDbEntity
  8
0
  6
Continuous
 62
     7
370
    15
100
AcDbLine
 10
2068.470063104871
 20
839.867582085856
 30
0.0
 11
2068.470063104871
 21
837.367582085856
 31
0.0
  0
ARC
  5
803
330
783
100
AcDbEntity
  8
0
  6
Continuous
 62
     7
370
    15
100
AcDbCircle
 10
2070.470063104871
 20
837.367582085856
 30
0.0
 40
2.0
100
AcDbArc
 50
180.0
 51
0.0
  0
LINE
  5
804
330
783
100
AcDbEntity
  8
0
  6
Continuous
 62
     7
370
    15
100
AcDbLine
 10
2072.470063104871
 20
837.367582085856
 30
0.0
 11
2072.470063104871
 21
839.867582085856
 31
0.0
  0
LINE
  5
805
330
783
100
AcDbEntity
  8
0
  6
Continuous
 62
     7
370
    15
100
AcDbLine
 10
2072.470063104871
 20
839.867582085856
 30
0.0
 11
2074.670063104871
 21
839.867582085856
 31
0.0
  0
LINE
  5
806
330
783
100
AcDbEntity
  8
0
  6
Continuous
 62
     7
370
    15
100
AcDbLine
 10
2075.270063104871
 20
839.867582085856
 30
0.0
 11
2077.470063104871
 21
839.867582085856
 31
0.0
  0
LINE
  5
807
330
783
100
AcDbEntity
  8
0
  6
Continuous
 62
     7
370
    15
100
AcDbLine
 10
2077.470063104871
 20
839.867582085856
 30
0.0
 11
2077.470063104871
 21
837.367582085856
 31
0.0
  0
ARC
  5
808
330
783
100
AcDbEntity
  8
0
  6
Continuous
 62
     7
370
    15
100
AcDbCircle
 10
2079.470063104871
 20
837.367582085856
 30
0.0
 40
2.0
100
AcDbArc
 50
180.0
 51
0.0
  0
LINE
  5
809
330
783
100
AcDbEntity
  8
0
  6
Continuous
 62
     7
370
    15
100
AcDbLine
 10
2081.470063104871
 20
837.367582085856
 30
0.0
 11
2081.470063104871
 21
839.867582085856
 31
0.0
  0
LINE
  5
80A
330
783
100
AcDbEntity
  8
0
  6
Continuous
 62
     7
370
    15
100
AcDbLine
 10
2081.470063104871
 20
839.867582085856
 30
0.0
 11
2083.670063104871
 21
839.867582085856
 31
0.0
  0
LINE
  5
80B
330
783
100
AcDbEntity
  8
0
  6
Continuous
 62
     7
370
    15
100
AcDbLine
 10
2084.270063104871
 20
839.867582085856
 30
0.0
 11
2086.470063104871
 21
839.867582085856
 31
0.0
  0
LINE
  5
80C
330
783
100
AcDbEntity
  8
0
  6
Continuous
 62
     7
370
    15
100
AcDbLine
 10
2086.470063104871
 20
839.867582085856
 30
0.0
 11
2086.470063104871
 21
837.367582085856
 31
0.0
  0
ARC
  5
80D
330
783
100
AcDbEntity
  8
0
  6
Continuous
 62
     7
370
    15
100
AcDbCircle
 10
2088.470063104871
 20
837.367582085856
 30
0.0
 40
2.000000000000028
100
AcDbArc
 50
180.0
 51
0.0
  0
LINE
  5
80E
330
783
100
AcDbEntity
  8
0
  6
Continuous
 62
     7
370
    15
100
AcDbLine
 10
2090.470063104871
 20
837.367582085856
 30
0.0
 11
2090.470063104871
 21
839.867582085856
 31
0.0
  0
LINE
  5
80F
330
783
100
AcDbEntity
  8
0
  6
Continuous
 62
     7
370
    15
100
AcDbLine
 10
2090.470063104871
 20
839.867582085856
 30
0.0
 11
2092.670063104871
 21
839.8675820858558
 31
0.0
  0
LINE
  5
810
330
783
100
AcDbEntity
  8
0
  6
Continuous
 62
     7
370
    15
100
AcDbLine
 10
2093.270063104871
 20
839.867582085856
 30
0.0
 11
2095.470063104871
 21
839.867582085856
 31
0.0
  0
LINE
  5
811
330
783
100
AcDbEntity
  8
0
  6
Continuous
 62
     7
370
    15
100
AcDbLine
 10
2095.470063104871
 20
839.867582085856
 30
0.0
 11
2095.470063104871
 21
837.367582085856
 31
0.0
  0
ARC
  5
812
330
783
100
AcDbEntity
  8
0
  6
Continuous
 62
     7
370
    15
100
AcDbCircle
 10
2097.470063104871
 20
837.367582085856
 30
0.0
 40
2.0
100
AcDbArc
 50
180.0
 51
0.0
  0
LINE
  5
813
330
783
100
AcDbEntity
  8
0
  6
Continuous
 62
     7
370
    15
100
AcDbLine
 10
2099.470063104871
 20
837.367582085856
 30
0.0
 11
2099.470063104871
 21
839.867582085856
 31
0.0
  0
LINE
  5
814
330
783
100
AcDbEntity
  8
0
  6
Continuous
 62
     7
370
    15
100
AcDbLine
 10
2099.470063104871
 20
839.867582085856
 30
0.0
 11
2101.670063104871
 21
839.867582085856
 31
0.0
  0
LINE
  5
815
330
783
100
AcDbEntity
  8
0
  6
Continuous
 62
     7
370
    15
100
AcDbLine
 10
2102.270063104871
 20
839.867582085856
 30
0.0
 11
2104.470063104871
 21
839.867582085856
 31
0.0
  0
LINE
  5
816
330
783
100
AcDbEntity
  8
0
  6
Continuous
 62
     7
370
    15
100
AcDbLine
 10
2104.470063104871
 20
839.867582085856
 30
0.0
 11
2104.470063104871
 21
837.367582085856
 31
0.0
  0
ARC
  5
817
330
783
100
AcDbEntity
  8
0
  6
Continuous
 62
     7
370
    15
100
AcDbCircle
 10
2106.470063104871
 20
837.367582085856
 30
0.0
 40
2.0
100
AcDbArc
 50
180.0
 51
0.0
  0
LINE
  5
818
330
783
100
AcDbEntity
  8
0
  6
Continuous
 62
     7
370
    15
100
AcDbLine
 10
2108.470063104871
 20
837.367582085856
 30
0.0
 11
2108.470063104871
 21
839.867582085856
 31
0.0
  0
LINE
  5
819
330
783
100
AcDbEntity
  8
0
  6
Continuous
 62
     7
370
    15
100
AcDbLine
 10
2108.470063104871
 20
839.867582085856
 30
0.0
 11
2109.930063104871
 21
839.867582085856
 31
0.0
  0
LINE
  5
81A
330
783
100
AcDbEntity
  8
0
  6
Continuous
 62
     7
370
    15
100
AcDbLine
 10
2109.930063104871
 20
839.867582085856
 30
0.0
 11
2109.930063104871
 21
833.3675820858557
 31
0.0
  0
LINE
  5
81B
330
783
100
AcDbEntity
  8
0
  6
Continuous
 62
     7
370
    15
100
AcDbLine
 10
2110.07006310487
 20
831.7675820858561
 30
0.0
 11
2110.670063104869
 21
831.7675820858561
 31
0.0
  0
LINE
  5
81C
330
783
100
AcDbEntity
  8
0
  6
Continuous
 62
     7
370
    15
100
AcDbLine
 10
2110.07006310487
 20
839.967582085856
 30
0.0
 11
2110.07006310487
 21
831.7675820858561
 31
0.0
  0
LINE
  5
81D
330
783
100
AcDbEntity
  8
0
  6
Continuous
 62
     7
370
    15
100
AcDbLine
 10
2108.470063104871
 20
846.267582085856
 30
0.0
 11
2108.470063104871
 21
839.967582085856
 31
0.0
  0
ARC
  5
81E
330
783
100
AcDbEntity
  8
0
  6
Continuous
 62
     7
370
    15
100
AcDbCircle
 10
2106.470063104871
 20
846.267582085856
 30
0.0
 40
2.0
100
AcDbArc
 50
0.0
 51
180.0
  0
LINE
  5
81F
330
783
100
AcDbEntity
  8
0
  6
Continuous
 62
     7
370
    15
100
AcDbLine
 10
2104.470063104871
 20
839.967582085856
 30
0.0
 11
2104.470063104871
 21
846.267582085856
 31
0.0
  0
LINE
  5
820
330
783
100
AcDbEntity
  8
0
  6
Continuous
 62
     7
370
    15
100
AcDbLine
 10
2104.470063104871
 20
839.967582085856
 30
0.0
 11
2102.270063104871
 21
839.967582085856
 31
0.0
  0
LINE
  5
821
330
783
100
AcDbEntity
  8
0
  6
Continuous
 62
     7
370
    15
100
AcDbLine
 10
2110.07006310487
 20
839.967582085856
 30
0.0
 11
2108.470063104871
 21
839.967582085856
 31
0.0
  0
LINE
  5
822
330
783
100
AcDbEntity
  8
0
  6
Continuous
 62
     7
370
    15
100
AcDbLine
 10
2110.670063104869
 20
831.7675820858561
 30
0.0
 11
2110.670063104871
 21
848.767582085856
 31
0.0
  0
LINE
  5
823
330
783
100
AcDbEntity
  8
0
  6
Continuous
 62
     7
370
    15
100
AcDbLine
 10
2110.670063104869
 20
831.267582085856
 30
0.0
 11
2110.07006310487
 21
831.267582085856
 31
0.0
  0
LINE
  5
824
330
783
100
AcDbEntity
  8
0
  6
Continuous
 62
     7
370
    15
100
AcDbLine
 10
2110.07006310487
 20
831.267582085856
 30
0.0
 11
2110.07006310487
 21
831.7675820858561
 31
0.0
  0
LINE
  5
825
330
783
100
AcDbEntity
  8
0
  6
Continuous
 62
     7
370
    15
100
AcDbLine
 10
2110.670063104869
 20
831.7675820858561
 30
0.0
 11
2110.670063104869
 21
831.267582085856
 31
0.0
  0
LINE
  5
826
330
783
100
AcDbEntity
  8
0
  6
Continuous
 62
     7
370
    15
100
AcDbLine
 10
2083.670063104871
 20
839.967582085856
 30
0.0
 11
2081.470063104871
 21
839.967582085856
 31
0.0
  0
LINE
  5
827
330
783
100
AcDbEntity
  8
0
  6
Continuous
 62
     7
370
    15
100
AcDbLine
 10
2081.470063104871
 20
846.267582085856
 30
0.0
 11
2081.470063104871
 21
839.967582085856
 31
0.0
  0
ARC
  5
828
330
783
100
AcDbEntity
  8
0
  6
Continuous
 62
     7
370
    15
100
AcDbCircle
 10
2079.470063104871
 20
846.267582085856
 30
0.0
 40
2.0
100
AcDbArc
 50
0.0
 51
180.0
  0
LINE
  5
829
330
783
100
AcDbEntity
  8
0
  6
Continuous
 62
     7
370
    15
100
AcDbLine
 10
2077.470063104871
 20
839.967582085856
 30
0.0
 11
2077.470063104871
 21
846.267582085856
 31
0.0
  0
LINE
  5
82A
330
783
100
AcDbEntity
  8
0
  6
Continuous
 62
     7
370
    15
100
AcDbLine
 10
2077.470063104871
 20
839.967582085856
 30
0.0
 11
2075.270063104871
 21
839.967582085856
 31
0.0
  0
LINE
  5
82B
330
783
100
AcDbEntity
  8
0
  6
Continuous
 62
     7
370
    15
100
AcDbLine
 10
2040.270063104871
 20
831.7675820858561
 30
0.0
 11
2039.670063104871
 21
831.7675820858561
 31
0.0
  0
LINE
  5
82C
330
783
100
AcDbEntity
  8
0
  6
Continuous
 62
     7
370
    15
100
AcDbLine
 10
2047.670063104871
 20
839.967582085856
 30
0.0
 11
2045.470063104871
 21
839.967582085856
 31
0.0
  0
LINE
  5
82D
330
783
100
AcDbEntity
  8
0
  6
Continuous
 62
     7
370
    15
100
AcDbLine
 10
2045.470063104871
 20
846.267582085856
 30
0.0
 11
2045.470063104871
 21
839.967582085856
 31
0.0
  0
LINE
  5
82E
330
783
100
AcDbEntity
  8
0
  6
Continuous
 62
     7
370
    15
100
AcDbLine
 10
2041.470063104871
 20
839.967582085856
 30
0.0
 11
2041.470063104871
 21
846.267582085856
 31
0.0
  0
LINE
  5
82F
330
783
100
AcDbEntity
  8
0
  6
Continuous
 62
     7
370
    15
100
AcDbLine
 10
2041.470063104871
 20
839.967582085856
 30
0.0
 11
2040.270063104871
 21
839.967582085856
 31
0.0
  0
LINE
  5
830
330
783
100
AcDbEntity
  8
0
  6
Continuous
 62
     7
370
    15
100
AcDbLine
 10
2040.270063104871
 20
839.967582085856
 30
0.0
 11
2040.270063104871
 21
831.7675820858561
 31
0.0
  0
ARC
  5
831
330
783
100
AcDbEntity
  8
0
  6
Continuous
 62
     7
370
    15
100
AcDbCircle
 10
2043.470063104871
 20
846.267582085856
 30
0.0
 40
2.0
100
AcDbArc
 50
0.0
 51
180.0
  0
LINE
  5
832
330
783
100
AcDbEntity
  8
0
  6
Continuous
 62
     7
370
    15
100
AcDbLine
 10
2039.670063104871
 20
831.7675820858561
 30
0.0
 11
2039.670063104871
 21
848.767582085856
 31
0.0
  0
LINE
  5
833
330
783
100
AcDbEntity
  8
0
  6
Continuous
 62
     7
370
    15
100
AcDbLine
 10
2074.670063104871
 20
839.967582085856
 30
0.0
 11
2072.470063104871
 21
839.967582085856
 31
0.0
  0
LINE
  5
834
330
783
100
AcDbEntity
  8
0
  6
Continuous
 62
     7
370
    15
100
AcDbLine
 10
2072.470063104871
 20
846.267582085856
 30
0.0
 11
2072.470063104871
 21
839.967582085856
 31
0.0
  0
LINE
  5
835
330
783
100
AcDbEntity
  8
0
  6
Continuous
 62
     7
370
    15
100
AcDbLine
 10
2068.470063104871
 20
839.967582085856
 30
0.0
 11
2068.470063104871
 21
846.267582085856
 31
0.0
  0
LINE
  5
836
330
783
100
AcDbEntity
  8
0
  6
Continuous
 62
     7
370
    15
100
AcDbLine
 10
2068.470063104871
 20
839.967582085856
 30
0.0
 11
2066.270063104871
 21
839.967582085856
 31
0.0
  0
ARC
  5
837
330
783
100
AcDbEntity
  8
0
  6
Continuous
 62
     7
370
    15
100
AcDbCircle
 10
2070.470063104871
 20
846.267582085856
 30
0.0
 40
2.0
100
AcDbArc
 50
0.0
 51
180.0
  0
LINE
  5
838
330
783
100
AcDbEntity
  8
0
  6
Continuous
 62
     7
370
    15
100
AcDbLine
 10
2041.670063104871
 20
852.2675820858561
 30
0.0
 11
2041.670063104871
 21
852.0175820858559
 31
0.0
  0
ARC
  5
839
330
783
100
AcDbEntity
  8
0
  6
Continuous
 62
     7
370
    15
100
AcDbCircle
 10
2042.420063104871
 20
852.0175820858559
 30
0.0
 40
0.7500000000000569
100
AcDbArc
 50
180.0
 51
270.0
  0
ARC
  5
83A
330
783
100
AcDbEntity
  8
0
  6
Continuous
 62
     7
370
    15
100
AcDbCircle
 10
2040.670063104871
 20
852.2675820858561
 30
0.0
 40
1.0
100
AcDbArc
 50
0.0
 51
180.0
  0
LINE
  5
83B
330
783
100
AcDbEntity
  8
0
  6
Continuous
 62
     7
370
    15
100
AcDbLine
 10
2039.670063104871
 20
850.2675820858559
 30
0.0
 11
2039.670063104871
 21
852.2675820858561
 31
0.0
  0
LINE
  5
83C
330
783
100
AcDbEntity
  8
0
  6
Continuous
 62
     7
370
    15
100
AcDbLine
 10
2039.670063104871
 20
831.267582085856
 30
0.0
 11
2040.270063104871
 21
831.267582085856
 31
0.0
  0
LINE
  5
83D
330
783
100
AcDbEntity
  8
0
  6
Continuous
 62
     7
370
    15
100
AcDbLine
 10
2040.270063104871
 20
831.267582085856
 30
0.0
 11
2040.270063104871
 21
831.7675820858561
 31
0.0
  0
LINE
  5
83E
330
783
100
AcDbEntity
  8
0
  6
Continuous
 62
     7
370
    15
100
AcDbLine
 10
2039.670063104871
 20
831.7675820858561
 30
0.0
 11
2039.670063104871
 21
831.267582085856
 31
0.0
  0
LINE
  5
83F
330
783
100
AcDbEntity
  8
0
  6
Continuous
 62
     7
370
    15
100
AcDbLine
 10
2065.670063104871
 20
839.967582085856
 30
0.0
 11
2063.470063104871
 21
839.967582085856
 31
0.0
  0
LINE
  5
840
330
783
100
AcDbEntity
  8
0
  6
Continuous
 62
     7
370
    15
100
AcDbLine
 10
2063.470063104871
 20
846.267582085856
 30
0.0
 11
2063.470063104871
 21
839.967582085856
 31
0.0
  0
ARC
  5
841
330
783
100
AcDbEntity
  8
0
  6
Continuous
 62
     7
370
    15
100
AcDbCircle
 10
2061.470063104871
 20
846.267582085856
 30
0.0
 40
2.0
100
AcDbArc
 50
0.0
 51
180.0
  0
LINE
  5
842
330
783
100
AcDbEntity
  8
0
  6
Continuous
 62
     7
370
    15
100
AcDbLine
 10
2059.470063104871
 20
839.967582085856
 30
0.0
 11
2057.270063104871
 21
839.967582085856
 31
0.0
  0
LINE
  5
843
330
783
100
AcDbEntity
  8
0
  6
Continuous
 62
     7
370
    15
100
AcDbLine
 10
2059.470063104871
 20
839.967582085856
 30
0.0
 11
2059.470063104871
 21
846.267582085856
 31
0.0
  0
LINE
  5
844
330
783
100
AcDbEntity
  8
0
  6
Continuous
 62
     7
370
    15
100
AcDbLine
 10
2056.670063104871
 20
839.967582085856
 30
0.0
 11
2054.470063104871
 21
839.967582085856
 31
0.0
  0
ARC
  5
845
330
783
100
AcDbEntity
  8
0
  6
Continuous
 62
     7
370
    15
100
AcDbCircle
 10
2052.470063104871
 20
846.267582085856
 30
0.0
 40
2.0
100
AcDbArc
 50
0.0
 51
180.0
  0
LINE
  5
846
330
783
100
AcDbEntity
  8
0
  6
Continuous
 62
     7
370
    15
100
AcDbLine
 10
2050.470063104871
 20
839.967582085856
 30
0.0
 11
2050.470063104871
 21
846.267582085856
 31
0.0
  0
LINE
  5
847
330
783
100
AcDbEntity
  8
0
  6
Continuous
 62
     7
370
    15
100
AcDbLine
 10
2050.470063104871
 20
839.967582085856
 30
0.0
 11
2048.270063104871
 21
839.967582085856
 31
0.0
  0
LINE
  5
848
330
783
100
AcDbEntity
  8
0
  6
Continuous
 62
     7
370
    15
100
AcDbLine
 10
2054.470063104871
 20
846.267582085856
 30
0.0
 11
2054.470063104871
 21
839.967582085856
 31
0.0
  0
LINE
  5
849
330
783
100
AcDbEntity
  8
0
  6
Continuous
 62
     7
370
    15
100
AcDbLine
 10
2092.670063104871
 20
839.967582085856
 30
0.0
 11
2090.470063104871
 21
839.967582085856
 31
0.0
  0
LINE
  5
84A
330
783
100
AcDbEntity
  8
0
  6
Continuous
 62
     7
370
    15
100
AcDbLine
 10
2090.470063104871
 20
846.267582085856
 30
0.0
 11
2090.470063104871
 21
839.967582085856
 31
0.0
  0
ARC
  5
84B
330
783
100
AcDbEntity
  8
0
  6
Continuous
 62
     7
370
    15
100
AcDbCircle
 10
2088.470063104871
 20
846.267582085856
 30
0.0
 40
2.000000000000028
100
AcDbArc
 50
0.0
 51
180.0
  0
LINE
  5
84C
330
783
100
AcDbEntity
  8
0
  6
Continuous
 62
     7
370
    15
100
AcDbLine
 10
2086.470063104871
 20
839.967582085856
 30
0.0
 11
2084.270063104871
 21
839.967582085856
 31
0.0
  0
LINE
  5
84D
330
783
100
AcDbEntity
  8
0
  6
Continuous
 62
     7
370
    15
100
AcDbLine
 10
2086.470063104871
 20
839.967582085856
 30
0.0
 11
2086.470063104871
 21
846.267582085856
 31
0.0
  0
ARC
  5
84E
330
783
100
AcDbEntity
  8
0
  6
Continuous
 62
     7
370
    15
100
AcDbCircle
 10
2107.920063104869
 20
852.0175820858559
 30
0.0
 40
0.7500000000000569
100
AcDbArc
 50
270.0
 51
0.0
  0
ARC
  5
84F
330
783
100
AcDbEntity
  8
0
  6
Continuous
 62
     7
370
    15
100
AcDbCircle
 10
2109.67006310487
 20
852.2675820858561
 30
0.0
 40
1.0
100
AcDbArc
 50
0.0
 51
180.0
  0
LINE
  5
850
330
783
100
AcDbEntity
  8
0
  6
Continuous
 62
     7
370
    15
100
AcDbLine
 10
2108.670063104869
 20
852.2675820858561
 30
0.0
 11
2108.670063104869
 21
852.0175820858559
 31
0.0
  0
LINE
  5
851
330
783
100
AcDbEntity
  8
0
  6
Continuous
 62
     7
370
    15
100
AcDbLine
 10
2110.670063104871
 20
850.2675820858557
 30
0.0
 11
2110.670063104869
 21
852.2675820858561
 31
0.0
  0
LINE
  5
852
330
783
100
AcDbEntity
  8
0
  6
Continuous
 62
     7
370
    15
100
AcDbLine
 10
2095.470063104871
 20
839.967582085856
 30
0.0
 11
2093.270063104871
 21
839.967582085856
 31
0.0
  0
LINE
  5
853
330
783
100
AcDbEntity
  8
0
  6
Continuous
 62
     7
370
    15
100
AcDbLine
 10
2099.470063104871
 20
846.267582085856
 30
0.0
 11
2099.470063104871
 21
839.967582085856
 31
0.0
  0
ARC
  5
854
330
783
100
AcDbEntity
  8
0
  6
Continuous
 62
     7
370
    15
100
AcDbCircle
 10
2097.470063104871
 20
846.267582085856
 30
0.0
 40
2.0
100
AcDbArc
 50
0.0
 51
180.0
  0
LINE
  5
855
330
783
100
AcDbEntity
  8
0
  6
Continuous
 62
     7
370
    15
100
AcDbLine
 10
2095.470063104871
 20
839.967582085856
 30
0.0
 11
2095.470063104871
 21
846.267582085856
 31
0.0
  0
LINE
  5
856
330
783
100
AcDbEntity
  8
0
  6
Continuous
 62
     7
370
    15
100
AcDbLine
 10
2101.670063104871
 20
839.967582085856
 30
0.0
 11
2099.470063104871
 21
839.967582085856
 31
0.0
  0
LINE
  5
857
330
783
100
AcDbEntity
  8
0
  6
Continuous
 62
     7
370
    15
100
AcDbLine
 10
2109.930063104871
 20
831.2675820858558
 30
0.0
 11
2040.270063104871
 21
831.267582085856
 31
0.0
  0
LINE
  5
858
330
783
100
AcDbEntity
  8
0
  6
Continuous
 62
     7
370
    15
100
AcDbLine
 10
2040.270063104871
 20
833.2675820858559
 30
0.0
 11
2109.930063104871
 21
833.2675820858558
 31
0.0
  0
LINE
  5
859
330
783
100
AcDbEntity
  8
0
  6
Continuous
 62
     7
370
    15
100
AcDbLine
 10
2109.930063104871
 20
833.2675820858558
 30
0.0
 11
2109.930063104871
 21
831.2675820858558
 31
0.0
  0
ARC
  5
85A
330
783
100
AcDbEntity
  8
0
  6
Continuous
 62
     7
370
    15
100
AcDbCircle
 10
2043.470063104871
 20
837.267582085856
 30
0.0
 40
3.500000000000061
100
AcDbArc
 50
203.8955081861717
 51
205.8419327631717
  0
LINE
  5
85B
330
783
100
AcDbEntity
  8
0
  6
Continuous
 62
     7
370
    15
100
AcDbLine
 10
2109.930063104871
 20
833.2675820858558
 30
0.0
 11
2109.930063104871
 21
833.3675820858559
 31
0.0
  0
LINE
  5
85C
330
783
100
AcDbEntity
  8
0
  6
Continuous
 62
     7
370
    15
100
AcDbLine
 10
2066.970063104871
 20
839.967582085856
 30
0.0
 11
2066.970063104871
 21
839.867582085856
 31
0.0
  0
LINE
  5
85D
330
783
100
AcDbEntity
  8
0
  6
Continuous
 62
     7
370
    15
100
AcDbLine
 10
2064.970063104871
 20
839.867582085856
 30
0.0
 11
2064.970063104871
 21
839.967582085856
 31
0.0
  0
LINE
  5
85E
330
783
100
AcDbEntity
  8
0
  6
Continuous
 62
     7
370
    15
100
AcDbLine
 10
2102.970063104871
 20
839.967582085856
 30
0.0
 11
2102.970063104871
 21
839.867582085856
 31
0.0
  0
LINE
  5
85F
330
783
100
AcDbEntity
  8
0
  6
Continuous
 62
     7
370
    15
100
AcDbLine
 10
2100.970063104871
 20
839.867582085856
 30
0.0
 11
2100.970063104871
 21
839.967582085856
 31
0.0
  0
LINE
  5
860
330
783
100
AcDbEntity
  8
0
  6
Continuous
 62
     7
370
    15
100
AcDbLine
 10
2093.970063104871
 20
839.967582085856
 30
0.0
 11
2093.970063104871
 21
839.867582085856
 31
0.0
  0
LINE
  5
861
330
783
100
AcDbEntity
  8
0
  6
Continuous
 62
     7
370
    15
100
AcDbLine
 10
2091.970063104871
 20
839.867582085856
 30
0.0
 11
2091.970063104871
 21
839.967582085856
 31
0.0
  0
LINE
  5
862
330
783
100
AcDbEntity
  8
0
  6
Continuous
 62
     7
370
    15
100
AcDbLine
 10
2084.970063104871
 20
839.967582085856
 30
0.0
 11
2084.970063104871
 21
839.867582085856
 31
0.0
  0
LINE
  5
863
330
783
100
AcDbEntity
  8
0
  6
Continuous
 62
     7
370
    15
100
AcDbLine
 10
2082.970063104871
 20
839.867582085856
 30
0.0
 11
2082.970063104871
 21
839.967582085856
 31
0.0
  0
LINE
  5
864
330
783
100
AcDbEntity
  8
0
  6
Continuous
 62
     7
370
    15
100
AcDbLine
 10
2055.970063104871
 20
839.867582085856
 30
0.0
 11
2055.970063104871
 21
839.967582085856
 31
0.0
  0
LINE
  5
865
330
783
100
AcDbEntity
  8
0
  6
Continuous
 62
     7
370
    15
100
AcDbLine
 10
2057.970063104871
 20
839.967582085856
 30
0.0
 11
2057.970063104871
 21
839.867582085856
 31
0.0
  0
LINE
  5
866
330
783
100
AcDbEntity
  8
0
  6
Continuous
 62
     7
370
    15
100
AcDbLine
 10
2048.970063104871
 20
839.967582085856
 30
0.0
 11
2048.970063104871
 21
839.867582085856
 31
0.0
  0
LINE
  5
867
330
783
100
AcDbEntity
  8
0
  6
Continuous
 62
     7
370
    15
100
AcDbLine
 10
2046.970063104871
 20
839.867582085856
 30
0.0
 11
2046.970063104871
 21
839.967582085856
 31
0.0
  0
LINE
  5
868
330
783
100
AcDbEntity
  8
0
  6
Continuous
 62
     7
370
    15
100
AcDbLine
 10
2075.970063104871
 20
839.967582085856
 30
0.0
 11
2075.970063104871
 21
839.867582085856
 31
0.0
  0
LINE
  5
869
330
783
100
AcDbEntity
  8
0
  6
Continuous
 62
     7
370
    15
100
AcDbLine
 10
2073.970063104871
 20
839.867582085856
 30
0.0
 11
2073.970063104871
 21
839.967582085856
 31
0.0
  0
ENDBLK
  5
785
330
783
100
AcDbEntity
  8
0
100
AcDbBlockEnd
  0
BLOCK
  5
86C
330
86B
100
AcDbEntity
  8
0
100
AcDbBlockBegin
  2
2
 70
     0
 10
0.0
 20
0.0
 30
0.0
  3
2
  1

  0
LINE
  5
86E
330
86B
100
AcDbEntity
  8
0
  6
Continuous
 62
     7
370
    15
100
AcDbLine
 10
2020.210769550254
 20
853.2675927134105
 30
0.0
 11
2016.210776345183
 21
853.2675927134105
 31
0.0
  0
LINE
  5
86F
330
86B
100
AcDbEntity
  8
0
  6
Continuous
 62
     7
370
    15
100
AcDbLine
 10
2018.210780398299
 20
835.8498340101787
 30
0.0
 11
2018.210780398299
 21
847.6853197069713
 31
0.0
  0
LINE
  5
870
330
86B
100
AcDbEntity
  8
0
  6
Continuous
 62
     7
370
    15
100
AcDbLine
 10
2018.210780398299
 20
835.8498340101787
 30
0.0
 11
2018.660780565192
 21
835.8498340101787
 31
0.0
  0
LINE
  5
871
330
86B
100
AcDbEntity
  8
0
  6
Continuous
 62
     7
370
    15
100
AcDbLine
 10
2018.660780565192
 20
831.2675779314586
 30
0.0
 11
2018.660780565192
 21
835.8498340101787
 31
0.0
  0
LINE
  5
872
330
86B
100
AcDbEntity
  8
0
  6
Continuous
 62
     7
370
    15
100
AcDbLine
 10
2016.710769907882
 20
831.2675779314586
 30
0.0
 11
2018.660780565192
 21
831.2675779314586
 31
0.0
  0
ARC
  5
873
330
86B
100
AcDbEntity
  8
0
  6
Continuous
 62
     7
370
    15
100
AcDbCircle
 10
2016.710773279287
 20
831.7675820858561
 30
0.0
 40
0.5
100
AcDbArc
 50
180.0
 51
270.0
  0
LINE
  5
874
330
86B
100
AcDbEntity
  8
0
  6
Continuous
 62
     7
370
    15
100
AcDbLine
 10
2016.210776345183
 20
831.767571494157
 30
0.0
 11
2016.210776345183
 21
848.7675910444805
 31
0.0
  0
LINE
  5
875
330
86B
100
AcDbEntity
  8
0
  6
Continuous
 62
     7
370
    15
100
AcDbLine
 10
2016.210776345183
 20
848.7675910444805
 30
0.0
 11
2013.960775510718
 21
848.7675910444805
 31
0.0
  0
LINE
  5
876
330
86B
100
AcDbEntity
  8
0
  6
Continuous
 62
     7
370
    15
100
AcDbLine
 10
2013.960775510718
 20
848.7675910444805
 30
0.0
 11
2013.960775510718
 21
850.2675717325756
 31
0.0
  0
LINE
  5
877
330
86B
100
AcDbEntity
  8
0
  6
Continuous
 62
     7
370
    15
100
AcDbLine
 10
2016.210776345183
 20
850.2675717325756
 30
0.0
 11
2013.960775510718
 21
850.2675717325756
 31
0.0
  0
LINE
  5
878
330
86B
100
AcDbEntity
  8
0
  6
Continuous
 62
     7
370
    15
100
AcDbLine
 10
2016.210776345183
 20
850.2675717325756
 30
0.0
 11
2016.210776345183
 21
852.2675757856914
 31
0.0
  0
LINE
  5
879
330
86B
100
AcDbEntity
  8
0
  6
Continuous
 62
     7
370
    15
100
AcDbLine
 10
2020.210769550254
 20
852.2675757856914
 30
0.0
 11
2016.210776345183
 21
852.2675757856914
 31
0.0
  0
LINE
  5
87A
330
86B
100
AcDbEntity
  8
0
  6
Continuous
 62
     7
370
    15
100
AcDbLine
 10
2020.210769550254
 20
852.2675757856914
 30
0.0
 11
2020.210769550254
 21
851.2675886602947
 31
0.0
  0
LINE
  5
87B
330
86B
100
AcDbEntity
  8
0
  6
Continuous
 62
     7
370
    15
100
AcDbLine
 10
2020.210769550254
 20
851.2675886602947
 30
0.0
 11
2018.660780565192
 21
851.2675886602947
 31
0.0
  0
LINE
  5
87C
330
86B
100
AcDbEntity
  8
0
  6
Continuous
 62
     7
370
    15
100
AcDbLine
 10
2018.210780398299
 20
847.6853197069713
 30
0.0
 11
2018.660780565192
 21
847.6853197069713
 31
0.0
  0
LINE
  5
87D
330
86B
100
AcDbEntity
  8
0
  6
Continuous
 62
     7
370
    15
100
AcDbLine
 10
2018.660780565192
 20
847.6853197069713
 30
0.0
 11
2018.660780565192
 21
851.2675886602947
 31
0.0
  0
LINE
  5
87E
330
86B
100
AcDbEntity
  8
0
  6
Continuous
 62
     7
370
    15
100
AcDbLine
 10
2013.960775510718
 20
851.2675886602947
 30
0.0
 11
2016.210776345183
 21
851.2675886602947
 31
0.0
  0
LINE
  5
87F
330
86B
100
AcDbEntity
  8
0
  6
Continuous
 62
     7
370
    15
100
AcDbLine
 10
2013.960775510718
 20
850.2675717325756
 30
0.0
 11
2013.960775510718
 21
851.2675886602947
 31
0.0
  0
LINE
  5
880
330
86B
100
AcDbEntity
  8
0
  6
Continuous
 62
     7
370
    15
100
AcDbLine
 10
2020.210769550254
 20
853.2675927134105
 30
0.0
 11
2020.210769550254
 21
852.2675757856914
 31
0.0
  0
LINE
  5
881
330
86B
100
AcDbEntity
  8
0
  6
Continuous
 62
     7
370
    15
100
AcDbLine
 10
2016.210776345183
 20
852.2675757856914
 30
0.0
 11
2016.210776345183
 21
853.2675927134105
 31
0.0
  0
LINE
  5
882
330
86B
100
AcDbEntity
  8
0
  6
Continuous
 62
     7
370
    15
100
AcDbLine
 10
2018.660780565192
 20
846.795213744218
 30
0.0
 11
2018.210780398299
 21
846.795213744218
 31
0.0
  0
LINE
  5
883
330
86B
100
AcDbEntity
  8
0
  6
Continuous
 62
     7
370
    15
100
AcDbLine
 10
2018.660780565192
 20
847.6853197069713
 30
0.0
 11
2018.660780565192
 21
846.795213744218
 31
0.0
  0
LINE
  5
884
330
86B
100
AcDbEntity
  8
0
  6
Continuous
 62
     7
370
    15
100
AcDbLine
 10
2018.660780565192
 20
836.739939972932
 30
0.0
 11
2018.210780398299
 21
836.739939972932
 31
0.0
  0
LINE
  5
885
330
86B
100
AcDbEntity
  8
0
  6
Continuous
 62
     7
370
    15
100
AcDbLine
 10
2018.660780565192
 20
835.8498340101787
 30
0.0
 11
2018.660780565192
 21
836.739939972932
 31
0.0
  0
LINE
  5
886
330
86B
100
AcDbEntity
  8
0
  6
Continuous
 62
     7
370
    15
100
AcDbLine
 10
2018.660780565192
 20
837.2675900908062
 30
0.0
 11
2018.210780398299
 21
837.2675900908062
 31
0.0
  0
LINE
  5
887
330
86B
100
AcDbEntity
  8
0
  6
Continuous
 62
     7
370
    15
100
AcDbLine
 10
2018.660780565192
 20
836.739939972932
 30
0.0
 11
2018.660780565192
 21
837.2675900908062
 31
0.0
  0
LINE
  5
888
330
86B
100
AcDbEntity
  8
0
  6
Continuous
 62
     7
370
    15
100
AcDbLine
 10
2018.660780565192
 20
846.2675934286663
 30
0.0
 11
2018.210780398299
 21
846.2675934286663
 31
0.0
  0
LINE
  5
889
330
86B
100
AcDbEntity
  8
0
  6
Continuous
 62
     7
370
    15
100
AcDbLine
 10
2018.660780565192
 20
846.2675934286663
 30
0.0
 11
2018.660780565192
 21
846.795213744218
 31
0.0
  0
LINE
  5
88A
330
86B
100
AcDbEntity
  8
0
  6
Continuous
 62
     7
370
    15
100
AcDbLine
 10
2018.660780565192
 20
837.2675900908062
 30
0.0
 11
2018.660780565192
 21
846.2675934286663
 31
0.0
  0
LINE
  5
88B
330
86B
100
AcDbEntity
  8
0
  6
Continuous
 62
     7
370
    15
100
AcDbLine
 10
2016.210776345183
 20
836.3737886400768
 30
0.0
 11
2015.860777871062
 21
835.7675796003887
 31
0.0
  0
LINE
  5
88C
330
86B
100
AcDbEntity
  8
0
  6
Continuous
 62
     7
370
    15
100
AcDbLine
 10
2015.860777871062
 20
835.7675796003887
 30
0.0
 11
2014.860775844504
 21
835.7675796003887
 31
0.0
  0
LINE
  5
88D
330
86B
100
AcDbEntity
  8
0
  6
Continuous
 62
     7
370
    15
100
AcDbLine
 10
2014.860775844504
 20
835.7675796003887
 30
0.0
 11
2012.710776702811
 21
839.4914989920208
 31
0.0
  0
LINE
  5
88E
330
86B
100
AcDbEntity
  8
0
  6
Continuous
 62
     7
370
    15
100
AcDbLine
 10
2012.710776702811
 20
839.4914989920208
 30
0.0
 11
2012.710776702811
 21
850.7675950975963
 31
0.0
  0
ARC
  5
88F
330
86B
100
AcDbEntity
  8
0
  6
Continuous
 62
     7
370
    15
100
AcDbCircle
 10
2013.210773279287
 20
850.767582085856
 30
0.0
 40
0.5
100
AcDbArc
 50
90.0
 51
180.0
  0
ARC
  5
890
330
86B
100
AcDbEntity
  8
0
  6
Continuous
 62
     7
370
    15
100
AcDbCircle
 10
2018.421136998476
 20
838.799552878647
 30
0.0
 40
2.500000000000004
100
AcDbArc
 50
152.1465474699074
 51
207.8534525300926
  0
LINE
  5
891
330
86B
100
AcDbEntity
  8
0
  6
Continuous
 62
     7
370
    15
100
AcDbLine
 10
2013.210770265509
 20
851.2675886602947
 30
0.0
 11
2013.960775510718
 21
851.2675886602947
 31
0.0
  0
ENDBLK
  5
86D
330
86B
100
AcDbEntity
  8
0
100
AcDbBlockEnd
  0
BLOCK
  5
894
330
893
100
AcDbEntity
  8
0
100
AcDbBlockBegin
  2
3
 70
     0
 10
0.0
 20
0.0
 30
0.0
  3
3
  1

  0
LINE
  5
896
330
893
100
AcDbEntity
  8
0
  6
Continuous
 62
     7
370
    15
100
AcDbLine
 10
2110.670060684922
 20
811.7984296441996
 30
0.0
 11
2110.670060684922
 21
807.7984364391291
 31
0.0
  0
LINE
  5
897
330
893
100
AcDbEntity
  8
0
  6
Continuous
 62
     7
370
    15
100
AcDbLine
 10
2108.670064082387
 20
811.7984296441996
 30
0.0
 11
2108.670064082387
 21
807.7984364391291
 31
0.0
  0
LINE
  5
898
330
893
100
AcDbEntity
  8
0
  6
Continuous
 62
     7
370
    15
100
AcDbLine
 10
2110.670060684922
 20
807.7984364391291
 30
0.0
 11
2108.670064082387
 21
807.7984364391291
 31
0.0
  0
LINE
  5
899
330
893
100
AcDbEntity
  8
0
  6
Continuous
 62
     7
370
    15
100
AcDbLine
 10
2108.670064082387
 20
811.7984296441996
 30
0.0
 11
2110.670060684922
 21
811.7984296441996
 31
0.0
  0
LINE
  5
89A
330
893
100
AcDbEntity
  8
0
  6
Continuous
 62
     7
370
    15
100
AcDbLine
 10
2039.670063133369
 20
811.7984296441996
 30
0.0
 11
2039.670063133369
 21
807.7984364391291
 31
0.0
  0
LINE
  5
89B
330
893
100
AcDbEntity
  8
0
  6
Continuous
 62
     7
370
    15
100
AcDbLine
 10
2041.670063111949
 20
811.7984296441996
 30
0.0
 11
2041.670063111949
 21
807.7984364391291
 31
0.0
  0
LINE
  5
89C
330
893
100
AcDbEntity
  8
0
  6
Continuous
 62
     7
370
    15
100
AcDbLine
 10
2039.670063133369
 20
807.7984364391291
 30
0.0
 11
2041.670063111949
 21
807.7984364391291
 31
0.0
  0
LINE
  5
89D
330
893
100
AcDbEntity
  8
0
  6
Continuous
 62
     7
370
    15
100
AcDbLine
 10
2041.670063111949
 20
811.7984296441996
 30
0.0
 11
2039.670063133369
 21
811.7984296441996
 31
0.0
  0
LINE
  5
89E
330
893
100
AcDbEntity
  8
0
  6
Continuous
 62
     7
370
    15
100
AcDbLine
 10
2107.920066287759
 20
807.7984364391291
 30
0.0
 11
2107.920066287759
 21
810.2484406591379
 31
0.0
  0
LINE
  5
89F
330
893
100
AcDbEntity
  8
0
  6
Continuous
 62
     7
370
    15
100
AcDbLine
 10
2108.670064082387
 20
810.2484406591379
 30
0.0
 11
2107.920066287759
 21
810.2484406591379
 31
0.0
  0
LINE
  5
8A0
330
893
100
AcDbEntity
  8
0
  6
Continuous
 62
     7
370
    15
100
AcDbLine
 10
2108.670064082387
 20
807.7984364391291
 30
0.0
 11
2107.920066287759
 21
807.7984364391291
 31
0.0
  0
LINE
  5
8A1
330
893
100
AcDbEntity
  8
0
  6
Continuous
 62
     7
370
    15
100
AcDbLine
 10
2042.420063002053
 20
807.7984364391291
 30
0.0
 11
2042.420063002053
 21
810.2484406591379
 31
0.0
  0
LINE
  5
8A2
330
893
100
AcDbEntity
  8
0
  6
Continuous
 62
     7
370
    15
100
AcDbLine
 10
2041.670063111949
 20
810.2484406591379
 30
0.0
 11
2042.420063002053
 21
810.2484406591379
 31
0.0
  0
LINE
  5
8A3
330
893
100
AcDbEntity
  8
0
  6
Continuous
 62
     7
370
    15
100
AcDbLine
 10
2041.670063111949
 20
807.7984364391291
 30
0.0
 11
2042.420063002053
 21
807.7984364391291
 31
0.0
  0
LINE
  5
8A4
330
893
100
AcDbEntity
  8
0
  6
Continuous
 62
     7
370
    15
100
AcDbLine
 10
2109.670066108945
 20
805.548435604664
 30
0.0
 11
2109.670066108945
 21
807.7984364391291
 31
0.0
  0
LINE
  5
8A5
330
893
100
AcDbEntity
  8
0
  6
Continuous
 62
     7
370
    15
100
AcDbLine
 10
2109.670066108945
 20
805.548435604664
 30
0.0
 11
2102.270060053113
 21
805.548435604664
 31
0.0
  0
LINE
  5
8A6
330
893
100
AcDbEntity
  8
0
  6
Continuous
 62
     7
370
    15
100
AcDbLine
 10
2102.270060053113
 20
804.7984303594553
 30
0.0
 11
2102.270060053113
 21
805.548435604664
 31
0.0
  0
LINE
  5
8A7
330
893
100
AcDbEntity
  8
0
  6
Continuous
 62
     7
370
    15
100
AcDbLine
 10
2102.270060053113
 20
804.7984303594553
 30
0.0
 11
2101.670064797643
 21
804.7984303594553
 31
0.0
  0
LINE
  5
8A8
330
893
100
AcDbEntity
  8
0
  6
Continuous
 62
     7
370
    15
100
AcDbLine
 10
2101.670064797643
 20
805.548435604664
 30
0.0
 11
2101.670064797643
 21
804.7984303594553
 31
0.0
  0
LINE
  5
8A9
330
893
100
AcDbEntity
  8
0
  6
Continuous
 62
     7
370
    15
100
AcDbLine
 10
2101.670064797643
 20
805.548435604664
 30
0.0
 11
2093.270064165833
 21
805.548435604664
 31
0.0
  0
LINE
  5
8AA
330
893
100
AcDbEntity
  8
0
  6
Continuous
 62
     7
370
    15
100
AcDbLine
 10
2093.270064165833
 20
804.7984303594553
 30
0.0
 11
2093.270064165833
 21
805.548435604664
 31
0.0
  0
LINE
  5
8AB
330
893
100
AcDbEntity
  8
0
  6
Continuous
 62
     7
370
    15
100
AcDbLine
 10
2093.270064165833
 20
804.7984303594553
 30
0.0
 11
2092.670061459783
 21
804.7984303594553
 31
0.0
  0
LINE
  5
8AC
330
893
100
AcDbEntity
  8
0
  6
Continuous
 62
     7
370
    15
100
AcDbLine
 10
2092.670061459783
 20
805.548435604664
 30
0.0
 11
2092.670061459783
 21
804.7984303594553
 31
0.0
  0
LINE
  5
8AD
330
893
100
AcDbEntity
  8
0
  6
Continuous
 62
     7
370
    15
100
AcDbLine
 10
2092.670061459783
 20
805.548435604664
 30
0.0
 11
2084.270064553264
 21
805.548435604664
 31
0.0
  0
LINE
  5
8AE
330
893
100
AcDbEntity
  8
0
  6
Continuous
 62
     7
370
    15
100
AcDbLine
 10
2084.270064553264
 20
804.7984303594553
 30
0.0
 11
2084.270064553264
 21
805.548435604664
 31
0.0
  0
LINE
  5
8AF
330
893
100
AcDbEntity
  8
0
  6
Continuous
 62
     7
370
    15
100
AcDbLine
 10
2084.270064553264
 20
804.7984303594553
 30
0.0
 11
2083.670061847213
 21
804.7984303594553
 31
0.0
  0
LINE
  5
8B0
330
893
100
AcDbEntity
  8
0
  6
Continuous
 62
     7
370
    15
100
AcDbLine
 10
2083.670061847213
 20
805.548435604664
 30
0.0
 11
2083.670061847213
 21
804.7984303594553
 31
0.0
  0
LINE
  5
8B1
330
893
100
AcDbEntity
  8
0
  6
Continuous
 62
     7
370
    15
100
AcDbLine
 10
2083.670061847213
 20
805.548435604664
 30
0.0
 11
2075.270064940694
 21
805.548435604664
 31
0.0
  0
LINE
  5
8B2
330
893
100
AcDbEntity
  8
0
  6
Continuous
 62
     7
370
    15
100
AcDbLine
 10
2075.270064940694
 20
804.7984303594553
 30
0.0
 11
2075.270064940694
 21
805.548435604664
 31
0.0
  0
LINE
  5
8B3
330
893
100
AcDbEntity
  8
0
  6
Continuous
 62
     7
370
    15
100
AcDbLine
 10
2075.270064940694
 20
804.7984303594553
 30
0.0
 11
2074.670062234643
 21
804.7984303594553
 31
0.0
  0
LINE
  5
8B4
330
893
100
AcDbEntity
  8
0
  6
Continuous
 62
     7
370
    15
100
AcDbLine
 10
2074.670062234643
 20
805.548435604664
 30
0.0
 11
2074.670062234643
 21
804.7984303594553
 31
0.0
  0
LINE
  5
8B5
330
893
100
AcDbEntity
  8
0
  6
Continuous
 62
     7
370
    15
100
AcDbLine
 10
2074.670062234643
 20
805.548435604664
 30
0.0
 11
2066.270063465479
 21
805.548435604664
 31
0.0
  0
LINE
  5
8B6
330
893
100
AcDbEntity
  8
0
  6
Continuous
 62
     7
370
    15
100
AcDbLine
 10
2066.270063465479
 20
804.7984303594553
 30
0.0
 11
2066.270063465479
 21
805.548435604664
 31
0.0
  0
LINE
  5
8B7
330
893
100
AcDbEntity
  8
0
  6
Continuous
 62
     7
370
    15
100
AcDbLine
 10
2066.270063465479
 20
804.7984303594553
 30
0.0
 11
2065.670062622073
 21
804.7984303594553
 31
0.0
  0
LINE
  5
8B8
330
893
100
AcDbEntity
  8
0
  6
Continuous
 62
     7
370
    15
100
AcDbLine
 10
2065.670062622073
 20
805.548435604664
 30
0.0
 11
2065.670062622073
 21
804.7984303594553
 31
0.0
  0
LINE
  5
8B9
330
893
100
AcDbEntity
  8
0
  6
Continuous
 62
     7
370
    15
100
AcDbLine
 10
2065.670062622073
 20
805.548435604664
 30
0.0
 11
2057.270063852909
 21
805.548435604664
 31
0.0
  0
LINE
  5
8BA
330
893
100
AcDbEntity
  8
0
  6
Continuous
 62
     7
370
    15
100
AcDbLine
 10
2057.270063852909
 20
804.7984303594553
 30
0.0
 11
2057.270063852909
 21
805.548435604664
 31
0.0
  0
LINE
  5
8BB
330
893
100
AcDbEntity
  8
0
  6
Continuous
 62
     7
370
    15
100
AcDbLine
 10
2057.270063852909
 20
804.7984303594553
 30
0.0
 11
2056.670063009503
 21
804.7984303594553
 31
0.0
  0
LINE
  5
8BC
330
893
100
AcDbEntity
  8
0
  6
Continuous
 62
     7
370
    15
100
AcDbLine
 10
2056.670063009503
 20
805.548435604664
 30
0.0
 11
2056.670063009503
 21
804.7984303594553
 31
0.0
  0
LINE
  5
8BD
330
893
100
AcDbEntity
  8
0
  6
Continuous
 62
     7
370
    15
100
AcDbLine
 10
2056.670063009503
 20
805.548435604664
 30
0.0
 11
2048.270063309017
 21
805.548435604664
 31
0.0
  0
LINE
  5
8BE
330
893
100
AcDbEntity
  8
0
  6
Continuous
 62
     7
370
    15
100
AcDbLine
 10
2048.270063309017
 20
804.7984303594553
 30
0.0
 11
2048.270063309017
 21
805.548435604664
 31
0.0
  0
LINE
  5
8BF
330
893
100
AcDbEntity
  8
0
  6
Continuous
 62
     7
370
    15
100
AcDbLine
 10
2048.270063309017
 20
804.7984303594553
 30
0.0
 11
2047.670063396934
 21
804.7984303594553
 31
0.0
  0
LINE
  5
8C0
330
893
100
AcDbEntity
  8
0
  6
Continuous
 62
     7
370
    15
100
AcDbLine
 10
2047.670063396934
 20
805.548435604664
 30
0.0
 11
2047.670063396934
 21
804.7984303594553
 31
0.0
  0
LINE
  5
8C1
330
893
100
AcDbEntity
  8
0
  6
Continuous
 62
     7
370
    15
100
AcDbLine
 10
2047.670063396934
 20
805.548435604664
 30
0.0
 11
2040.670063064451
 21
805.548435604664
 31
0.0
  0
LINE
  5
8C2
330
893
100
AcDbEntity
  8
0
  6
Continuous
 62
     7
370
    15
100
AcDbLine
 10
2040.670063064451
 20
805.548435604664
 30
0.0
 11
2040.670063064451
 21
807.7984364391291
 31
0.0
  0
LINE
  5
8C3
330
893
100
AcDbEntity
  8
0
  6
Continuous
 62
     7
370
    15
100
AcDbLine
 10
2042.420063002053
 20
810.2484406591379
 30
0.0
 11
2107.920066287759
 21
810.2484406591379
 31
0.0
  0
LINE
  5
8C4
330
893
100
AcDbEntity
  8
0
  6
Continuous
 62
     7
370
    15
100
AcDbLine
 10
2110.670060684922
 20
805.548435604664
 30
0.0
 11
2109.670066108945
 21
805.548435604664
 31
0.0
  0
LINE
  5
8C5
330
893
100
AcDbEntity
  8
0
  6
Continuous
 62
     7
370
    15
100
AcDbLine
 10
2110.670060684922
 20
807.7984364391291
 30
0.0
 11
2110.670060684922
 21
805.548435604664
 31
0.0
  0
LINE
  5
8C6
330
893
100
AcDbEntity
  8
0
  6
Continuous
 62
     7
370
    15
100
AcDbLine
 10
2101.670064797643
 20
804.7984303594553
 30
0.0
 11
2101.670064797643
 21
804.2984367967569
 31
0.0
  0
LINE
  5
8C7
330
893
100
AcDbEntity
  8
0
  6
Continuous
 62
     7
370
    15
100
AcDbLine
 10
2102.270060053113
 20
804.2984367967569
 30
0.0
 11
2102.270060053113
 21
804.7984303594553
 31
0.0
  0
LINE
  5
8C8
330
893
100
AcDbEntity
  8
0
  6
Continuous
 62
     7
370
    15
100
AcDbLine
 10
2101.670064797643
 20
804.2984367967569
 30
0.0
 11
2102.270060053113
 21
804.2984367967569
 31
0.0
  0
LINE
  5
8C9
330
893
100
AcDbEntity
  8
0
  6
Continuous
 62
     7
370
    15
100
AcDbLine
 10
2093.270064165833
 20
804.2984367967569
 30
0.0
 11
2093.270064165833
 21
804.7984303594553
 31
0.0
  0
LINE
  5
8CA
330
893
100
AcDbEntity
  8
0
  6
Continuous
 62
     7
370
    15
100
AcDbLine
 10
2092.670061459783
 20
804.2984367967569
 30
0.0
 11
2093.270064165833
 21
804.2984367967569
 31
0.0
  0
LINE
  5
8CB
330
893
100
AcDbEntity
  8
0
  6
Continuous
 62
     7
370
    15
100
AcDbLine
 10
2092.670061459783
 20
804.7984303594553
 30
0.0
 11
2092.670061459783
 21
804.2984367967569
 31
0.0
  0
LINE
  5
8CC
330
893
100
AcDbEntity
  8
0
  6
Continuous
 62
     7
370
    15
100
AcDbLine
 10
2083.670061847213
 20
804.2984367967569
 30
0.0
 11
2084.270064553264
 21
804.2984367967569
 31
0.0
  0
LINE
  5
8CD
330
893
100
AcDbEntity
  8
0
  6
Continuous
 62
     7
370
    15
100
AcDbLine
 10
2083.670061847213
 20
804.7984303594553
 30
0.0
 11
2083.670061847213
 21
804.2984367967569
 31
0.0
  0
LINE
  5
8CE
330
893
100
AcDbEntity
  8
0
  6
Continuous
 62
     7
370
    15
100
AcDbLine
 10
2084.270064553264
 20
804.2984367967569
 30
0.0
 11
2084.270064553264
 21
804.7984303594553
 31
0.0
  0
LINE
  5
8CF
330
893
100
AcDbEntity
  8
0
  6
Continuous
 62
     7
370
    15
100
AcDbLine
 10
2074.670062234643
 20
804.7984303594553
 30
0.0
 11
2074.670062234643
 21
804.2984367967569
 31
0.0
  0
LINE
  5
8D0
330
893
100
AcDbEntity
  8
0
  6
Continuous
 62
     7
370
    15
100
AcDbLine
 10
2074.670062234643
 20
804.2984367967569
 30
0.0
 11
2075.270064940694
 21
804.2984367967569
 31
0.0
  0
LINE
  5
8D1
330
893
100
AcDbEntity
  8
0
  6
Continuous
 62
     7
370
    15
100
AcDbLine
 10
2075.270064940694
 20
804.2984367967569
 30
0.0
 11
2075.270064940694
 21
804.7984303594553
 31
0.0
  0
LINE
  5
8D2
330
893
100
AcDbEntity
  8
0
  6
Continuous
 62
     7
370
    15
100
AcDbLine
 10
2065.670062622073
 20
804.7984303594553
 30
0.0
 11
2065.670062622073
 21
804.2984367967569
 31
0.0
  0
LINE
  5
8D3
330
893
100
AcDbEntity
  8
0
  6
Continuous
 62
     7
370
    15
100
AcDbLine
 10
2066.270063465479
 20
804.2984367967569
 30
0.0
 11
2066.270063465479
 21
804.7984303594553
 31
0.0
  0
LINE
  5
8D4
330
893
100
AcDbEntity
  8
0
  6
Continuous
 62
     7
370
    15
100
AcDbLine
 10
2065.670062622073
 20
804.2984367967569
 30
0.0
 11
2066.270063465479
 21
804.2984367967569
 31
0.0
  0
LINE
  5
8D5
330
893
100
AcDbEntity
  8
0
  6
Continuous
 62
     7
370
    15
100
AcDbLine
 10
2057.270063852909
 20
804.2984367967569
 30
0.0
 11
2057.270063852909
 21
804.7984303594553
 31
0.0
  0
LINE
  5
8D6
330
893
100
AcDbEntity
  8
0
  6
Continuous
 62
     7
370
    15
100
AcDbLine
 10
2056.670063009503
 20
804.2984367967569
 30
0.0
 11
2057.270063852909
 21
804.2984367967569
 31
0.0
  0
LINE
  5
8D7
330
893
100
AcDbEntity
  8
0
  6
Continuous
 62
     7
370
    15
100
AcDbLine
 10
2056.670063009503
 20
804.7984303594553
 30
0.0
 11
2056.670063009503
 21
804.2984367967569
 31
0.0
  0
LINE
  5
8D8
330
893
100
AcDbEntity
  8
0
  6
Continuous
 62
     7
370
    15
100
AcDbLine
 10
2047.670063396934
 20
804.2984367967569
 30
0.0
 11
2048.270063309017
 21
804.2984367967569
 31
0.0
  0
LINE
  5
8D9
330
893
100
AcDbEntity
  8
0
  6
Continuous
 62
     7
370
    15
100
AcDbLine
 10
2048.270063309017
 20
804.2984367967569
 30
0.0
 11
2048.270063309017
 21
804.7984303594553
 31
0.0
  0
LINE
  5
8DA
330
893
100
AcDbEntity
  8
0
  6
Continuous
 62
     7
370
    15
100
AcDbLine
 10
2047.670063396934
 20
804.7984303594553
 30
0.0
 11
2047.670063396934
 21
804.2984367967569
 31
0.0
  0
LINE
  5
8DB
330
893
100
AcDbEntity
  8
0
  6
Continuous
 62
     7
370
    15
100
AcDbLine
 10
2039.670063133369
 20
805.548435604664
 30
0.0
 11
2040.670063064451
 21
805.548435604664
 31
0.0
  0
LINE
  5
8DC
330
893
100
AcDbEntity
  8
0
  6
Continuous
 62
     7
370
    15
100
AcDbLine
 10
2039.670063133369
 20
807.7984364391291
 30
0.0
 11
2039.670063133369
 21
805.548435604664
 31
0.0
  0
ENDBLK
  5
895
330
893
100
AcDbEntity
  8
0
100
AcDbBlockEnd
  0
BLOCK
  5
8DF
330
8DE
100
AcDbEntity
  8
0
100
AcDbBlockBegin
  2
4
 70
     0
 10
0.0
 20
0.0
 30
0.0
  3
4
  1

  0
LINE
  5
8E1
330
8DE
100
AcDbEntity
  8
0
  6
Continuous
 62
     7
370
    15
100
AcDbLine
 10
2197.595221252396
 20
829.9131515399666
 30
0.0
 11
2197.511303310937
 21
831.7530532792844
 31
0.0
  0
LINE
  5
8E2
330
8DE
100
AcDbEntity
  8
0
  6
Continuous
 62
     7
370
    15
100
AcDbLine
 10
2198.720661365624
 20
827.6751388687381
 30
0.0
 11
2198.571474222901
 21
830.9460685246456
 31
0.0
  0
LINE
  5
8E3
330
8DE
100
AcDbEntity
  8
0
  6
Continuous
 62
     7
370
    15
100
AcDbLine
 10
2190.415705801825
 20
834.9396275659181
 30
0.0
 11
2189.892524235524
 21
835.0921056317606
 31
0.0
  0
LINE
  5
8E4
330
8DE
100
AcDbEntity
  8
0
  6
Continuous
 62
     7
370
    15
100
AcDbLine
 10
2182.567923836749
 20
837.2268155944425
 30
0.0
 11
2182.044735773718
 21
837.3792955537169
 31
0.0
  0
LINE
  5
8E5
330
8DE
100
AcDbEntity
  8
0
  6
Continuous
 62
     7
370
    15
100
AcDbLine
 10
2174.720138623307
 20
839.5140045696829
 30
0.0
 11
2174.196950560277
 21
839.6664845289572
 31
0.0
  0
LINE
  5
8E6
330
8DE
100
AcDbEntity
  8
0
  6
Continuous
 62
     7
370
    15
100
AcDbLine
 10
2166.872353409866
 20
841.8011935449232
 30
0.0
 11
2166.349165346836
 21
841.9536735041976
 31
0.0
  0
LINE
  5
8E7
330
8DE
100
AcDbEntity
  8
0
  6
Continuous
 62
     7
370
    15
100
AcDbLine
 10
2159.024566572242
 20
844.0883829935215
 30
0.0
 11
2158.501380133394
 21
844.240862479438
 31
0.0
  0
LINE
  5
8E8
330
8DE
100
AcDbEntity
  8
0
  6
Continuous
 62
     7
370
    15
100
AcDbLine
 10
2151.176781358801
 20
846.375571968762
 30
0.0
 11
2150.653594919953
 21
846.5280514546783
 31
0.0
  0
LINE
  5
8E9
330
8DE
100
AcDbEntity
  8
0
  6
Continuous
 62
     7
370
    15
100
AcDbLine
 10
2143.328995333268
 20
848.6627611806813
 30
0.0
 11
2142.805809706512
 21
848.8152404299187
 31
0.0
  0
LINE
  5
8EA
330
8DE
100
AcDbEntity
  8
0
  6
Continuous
 62
     7
370
    15
100
AcDbLine
 10
2196.282352528198
 20
826.6443537365196
 30
0.0
 11
2196.29913611649
 21
826.2763733886561
 31
0.0
  0
LINE
  5
8EB
330
8DE
100
AcDbEntity
  8
0
  6
Continuous
 62
     7
370
    15
100
AcDbLine
 10
2190.505150201603
 20
820.5318290248339
 30
0.0
 11
2196.282352528198
 21
826.6443537365196
 31
0.0
  0
LINE
  5
8EC
330
8DE
100
AcDbEntity
  8
0
  6
Continuous
 62
     7
370
    15
100
AcDbLine
 10
2190.505150201603
 20
820.5318290248339
 30
0.0
 11
2190.521933789895
 21
820.1638486769702
 31
0.0
  0
LINE
  5
8ED
330
8DE
100
AcDbEntity
  8
0
  6
Continuous
 62
     7
370
    15
100
AcDbLine
 10
2188.285217768497
 20
817.7973084069719
 30
0.0
 11
2190.521933789895
 21
820.1638486769702
 31
0.0
  0
LINE
  5
8EE
330
8DE
100
AcDbEntity
  8
0
  6
Continuous
 62
     7
370
    15
100
AcDbLine
 10
2188.212488515388
 20
819.3918980378361
 30
0.0
 11
2188.285217768497
 21
817.7973084069719
 31
0.0
  0
ARC
  5
8EF
330
8DE
100
AcDbEntity
  8
0
  6
Continuous
 62
     7
370
    15
100
AcDbCircle
 10
2189.226030138867
 20
819.4210454385428
 30
0.0
 40
1.013960646914382
100
AcDbArc
 50
141.0121035484498
 51
181.647256365793
  0
LINE
  5
8F0
330
8DE
100
AcDbEntity
  8
0
  6
Continuous
 62
     7
370
    15
100
AcDbLine
 10
2188.437899936769
 20
820.0589850736427
 30
0.0
 11
2196.736042912422
 21
828.8387717475984
 31
0.0
  0
LINE
  5
8F1
330
8DE
100
AcDbEntity
  8
0
  6
Continuous
 62
     7
370
    15
100
AcDbLine
 10
2196.736042912422
 20
828.8387717475984
 30
0.0
 11
2196.652124970963
 21
830.6786734869161
 31
0.0
  0
LINE
  5
8F2
330
8DE
100
AcDbEntity
  8
0
  6
Continuous
 62
     7
370
    15
100
AcDbLine
 10
2196.652124970963
 20
830.6786734869161
 30
0.0
 11
2197.384303788387
 21
831.4533496817018
 31
0.0
  0
LINE
  5
8F3
330
8DE
100
AcDbEntity
  8
0
  6
Continuous
 62
     7
370
    15
100
AcDbLine
 10
2197.468221729846
 20
829.6134479423843
 30
0.0
 11
2197.384303788387
 21
831.4533496817018
 31
0.0
  0
LINE
  5
8F4
330
8DE
100
AcDbEntity
  8
0
  6
Continuous
 62
     7
370
    15
100
AcDbLine
 10
2197.468221729846
 20
829.6134479423843
 30
0.0
 11
2198.44447470035
 21
830.646364927063
 31
0.0
  0
LINE
  5
8F5
330
8DE
100
AcDbEntity
  8
0
  6
Continuous
 62
     7
370
    15
100
AcDbLine
 10
2198.593661843074
 20
827.3754352711558
 30
0.0
 11
2198.44447470035
 21
830.646364927063
 31
0.0
  0
LINE
  5
8F6
330
8DE
100
AcDbEntity
  8
0
  6
Continuous
 62
     7
370
    15
100
AcDbLine
 10
2198.593661843074
 20
827.3754352711558
 30
0.0
 11
2198.105542631458
 21
826.8589844746321
 31
0.0
  0
LINE
  5
8F7
330
8DE
100
AcDbEntity
  8
0
  6
Continuous
 62
     7
370
    15
100
AcDbLine
 10
2198.105542631458
 20
826.8589844746321
 30
0.0
 11
2198.047732926272
 21
828.1264628621304
 31
0.0
  0
LINE
  5
8F8
330
8DE
100
AcDbEntity
  8
0
  6
Continuous
 62
     7
370
    15
100
AcDbLine
 10
2196.29913611649
 20
826.2763733886561
 30
0.0
 11
2198.047732926272
 21
828.1264628621304
 31
0.0
  0
LINE
  5
8F9
330
8DE
100
AcDbEntity
  8
0
  6
Continuous
 62
     7
370
    15
100
AcDbLine
 10
2187.914718370467
 20
820.2114631394854
 30
0.0
 11
2188.437899936769
 21
820.0589850736427
 31
0.0
  0
LINE
  5
8FA
330
8DE
100
AcDbEntity
  8
0
  6
Continuous
 62
     7
370
    15
100
AcDbLine
 10
2188.212488515388
 20
819.3918980378361
 30
0.0
 11
2187.689306949087
 21
819.5443761036786
 31
0.0
  0
ARC
  5
8FB
330
8DE
100
AcDbEntity
  8
0
  6
Continuous
 62
     7
370
    15
100
AcDbCircle
 10
2188.702848572565
 20
819.5735235043855
 30
0.0
 40
1.013960646914429
100
AcDbArc
 50
141.0121035484498
 51
181.6472563657865
  0
LINE
  5
8FC
330
8DE
100
AcDbEntity
  8
0
  6
Continuous
 62
     7
370
    15
100
AcDbLine
 10
2187.762036202196
 20
817.9497864728146
 30
0.0
 11
2188.285217768497
 21
817.7973084069719
 31
0.0
  0
LINE
  5
8FD
330
8DE
100
AcDbEntity
  8
0
  6
Continuous
 62
     7
370
    15
100
AcDbLine
 10
2187.762036202196
 20
817.9497864728146
 30
0.0
 11
2187.689306949087
 21
819.5443761036786
 31
0.0
  0
LINE
  5
8FE
330
8DE
100
AcDbEntity
  8
0
  6
Continuous
 62
     7
370
    15
100
AcDbLine
 10
2191.746456324782
 20
824.4303494788523
 30
0.0
 11
2191.753624043521
 21
824.2731971709483
 31
0.0
  0
LINE
  5
8FF
330
8DE
100
AcDbEntity
  8
0
  6
Continuous
 62
     7
370
    15
100
AcDbLine
 10
2187.639956172239
 20
817.9853659504656
 30
0.0
 11
2187.754865084815
 21
818.1069444460771
 31
0.0
  0
LINE
  5
900
330
8DE
100
AcDbEntity
  8
0
  6
Continuous
 62
     7
370
    15
100
AcDbLine
 10
2187.567226919131
 20
819.5799555813298
 30
0.0
 11
2187.639956172239
 21
817.9853659504656
 31
0.0
  0
LINE
  5
901
330
8DE
100
AcDbEntity
  8
0
  6
Continuous
 62
     7
370
    15
100
AcDbLine
 10
2187.700887267117
 20
819.7213738896824
 30
0.0
 11
2187.567226919131
 21
819.5799555813298
 31
0.0
  0
LINE
  5
902
330
8DE
100
AcDbEntity
  8
0
  6
Continuous
 62
     7
370
    15
100
AcDbLine
 10
2188.580805526199
 20
820.9162208186494
 30
0.0
 11
2188.57363780746
 21
821.0733731265534
 31
0.0
  0
LINE
  5
903
330
8DE
100
AcDbEntity
  8
0
  6
Continuous
 62
     7
370
    15
100
AcDbLine
 10
2191.746456324782
 20
824.4303494788523
 30
0.0
 11
2188.57363780746
 21
821.0733731265534
 31
0.0
  0
LINE
  5
904
330
8DE
100
AcDbEntity
  8
0
  6
Continuous
 62
     7
370
    15
100
AcDbLine
 10
2191.917357004264
 20
824.4464243158324
 30
0.0
 11
2190.522191001761
 21
824.8530369094199
 31
0.0
  0
LINE
  5
905
330
8DE
100
AcDbEntity
  8
0
  6
Continuous
 62
     7
370
    15
100
AcDbLine
 10
2193.597382767305
 20
828.1067200240878
 30
0.0
 11
2190.522191001761
 21
824.8530369094199
 31
0.0
  0
LWPOLYLINE
  5
906
330
8DE
100
AcDbEntity
  8
0
  6
Continuous
 62
     7
370
    15
100
AcDbPolyline
 90
       20
 70
   128
 43
0.0
 10
2190.109477506139
 20
829.1232486679094
 10
2190.293943161512
 20
829.2863154881921
 10
2190.520957513174
 20
829.4310923477899
 10
2190.784312580492
 20
829.5535972778626
 10
2191.076835905835
 20
829.6505023960451
 10
2191.390525150598
 20
829.7191535732959
 10
2191.7168640367
 20
829.7576942994776
 10
2192.0469148546
 20
829.7650583538061
 10
2192.37169132154
 20
829.7410574510486
 10
2192.68232749649
 20
829.6863320122966
 10
2192.970353468928
 20
829.6023886052301
 10
2193.227921190521
 20
829.4915144955083
 10
2193.447986383538
 20
829.3567246306785
 10
2193.624563467082
 20
829.2017069748284
 10
2193.75282018186
 20
829.0306771427085
 10
2193.829278988769
 20
828.8483197033437
 10
2193.851834014381
 20
828.6595869279251
 10
2193.819879431708
 20
828.4696417426781
 10
2193.734272878035
 20
828.2836524457136
 10
2193.597382767305
 20
828.1067200240878
  0
LINE
  5
907
330
8DE
100
AcDbEntity
  8
0
  6
Continuous
 62
     7
370
    15
100
AcDbLine
 10
2187.034285740594
 20
825.8695655532415
 30
0.0
 11
2190.109477506139
 21
829.1232486679094
 31
0.0
  0
LINE
  5
908
330
8DE
100
AcDbEntity
  8
0
  6
Continuous
 62
     7
370
    15
100
AcDbLine
 10
2187.034285740594
 20
825.8695655532415
 30
0.0
 11
2185.11593817179
 21
826.4286562126716
 31
0.0
  0
LINE
  5
909
330
8DE
100
AcDbEntity
  8
0
  6
Continuous
 62
     7
370
    15
100
AcDbLine
 10
2189.411442513646
 20
830.9734817102803
 30
0.0
 11
2185.11593817179
 21
826.4286562126716
 31
0.0
  0
LINE
  5
90A
330
8DE
100
AcDbEntity
  8
0
  6
Continuous
 62
     7
370
    15
100
AcDbLine
 10
2190.636498170539
 20
830.6164467359156
 30
0.0
 11
2189.411442513646
 21
830.9734817102803
 31
0.0
  0
LWPOLYLINE
  5
90B
330
8DE
100
AcDbEntity
  8
0
  6
Continuous
 62
     7
370
    15
100
AcDbPolyline
 90
       15
 70
   128
 43
0.0
 10
2195.510993752258
 20
829.1958048285314
 10
2195.3868675145
 20
829.4407992788087
 10
2195.211787515654
 20
829.6738863675606
 10
2194.988280667195
 20
829.8916990416572
 10
2194.71956423415
 20
830.0911009382431
 10
2194.409535949275
 20
830.26922852859
 10
2194.062649021389
 20
830.4235079148069
 10
2193.683902249555
 20
830.551696973694
 10
2193.278760227047
 20
830.6519675068409
 10
2192.853062668618
 20
830.7228531412613
 10
2192.412952665011
 20
830.7633487645546
 10
2191.964781067322
 20
830.7728794974664
 10
2191.515005928422
 20
830.751290738377
 10
2191.070103102579
 20
830.6988938498406
 10
2190.636498170539
 20
830.6164467359156
  0
LINE
  5
90C
330
8DE
100
AcDbEntity
  8
0
  6
Continuous
 62
     7
370
    15
100
AcDbLine
 10
2195.510993752258
 20
829.1958048285314
 30
0.0
 11
2196.736042912422
 21
828.8387717475984
 31
0.0
  0
LINE
  5
90D
330
8DE
100
AcDbEntity
  8
0
  6
Continuous
 62
     7
370
    15
100
AcDbLine
 10
2191.917357004264
 20
824.4464243158324
 30
0.0
 11
2187.914718370467
 21
820.2114631394854
 31
0.0
  0
LINE
  5
90E
330
8DE
100
AcDbEntity
  8
0
  6
Continuous
 62
     7
370
    15
100
AcDbLine
 10
2187.567226919131
 20
819.5799555813298
 30
0.0
 11
2126.825368140837
 21
837.2827986070756
 31
0.0
  0
LINE
  5
90F
330
8DE
100
AcDbEntity
  8
0
  6
Continuous
 62
     7
370
    15
100
AcDbLine
 10
2127.801621111342
 20
838.3157155917546
 30
0.0
 11
2126.825368140837
 21
837.2827986070756
 31
0.0
  0
LINE
  5
910
330
8DE
100
AcDbEntity
  8
0
  6
Continuous
 62
     7
370
    15
100
AcDbLine
 10
2127.801621111342
 20
838.3157155917546
 30
0.0
 11
2188.347954341152
 21
820.6698572905786
 31
0.0
  0
LINE
  5
911
330
8DE
100
AcDbEntity
  8
0
  6
Continuous
 62
     7
370
    15
100
AcDbLine
 10
2126.302182412569
 20
837.4352778858979
 30
0.0
 11
2126.374911665677
 21
835.8406882550337
 31
0.0
  0
LINE
  5
912
330
8DE
100
AcDbEntity
  8
0
  6
Continuous
 62
     7
370
    15
100
AcDbLine
 10
2126.302182412569
 20
837.4352778858979
 30
0.0
 11
2126.825368140837
 21
837.2827986070756
 31
0.0
  0
LINE
  5
913
330
8DE
100
AcDbEntity
  8
0
  6
Continuous
 62
     7
370
    15
100
AcDbLine
 10
2187.639956172239
 20
817.9853659504656
 30
0.0
 11
2126.374911665677
 21
835.8406882550337
 31
0.0
  0
LINE
  5
914
330
8DE
100
AcDbEntity
  8
0
  6
Continuous
 62
     7
370
    15
100
AcDbLine
 10
2160.432297754482
 20
832.0837491724983
 30
0.0
 11
2159.818359175242
 21
831.4341761568908
 31
0.0
  0
LINE
  5
915
330
8DE
100
AcDbEntity
  8
0
  6
Continuous
 62
     7
370
    15
100
AcDbLine
 10
2167.666144388684
 20
829.1469871816502
 30
0.0
 11
2168.280082967924
 21
829.7965601972578
 31
0.0
  0
LINE
  5
916
330
8DE
100
AcDbEntity
  8
0
  6
Continuous
 62
     7
370
    15
100
AcDbLine
 10
2176.127868181365
 20
827.5093712220176
 30
0.0
 11
2175.513929602125
 21
826.85979820641
 31
0.0
  0
LINE
  5
917
330
8DE
100
AcDbEntity
  8
0
  6
Continuous
 62
     7
370
    15
100
AcDbLine
 10
2183.975650146442
 20
825.222183193493
 30
0.0
 11
2183.361711567203
 21
824.5726101778855
 31
0.0
  0
LINE
  5
918
330
8DE
100
AcDbEntity
  8
0
  6
Continuous
 62
     7
370
    15
100
AcDbLine
 10
2152.584510916859
 20
834.3709386210965
 30
0.0
 11
2151.970572337619
 21
833.721365605489
 31
0.0
  0
LINE
  5
919
330
8DE
100
AcDbEntity
  8
0
  6
Continuous
 62
     7
370
    15
100
AcDbLine
 10
2144.736725703418
 20
836.6581275963369
 30
0.0
 11
2144.122787124178
 21
836.0085545807294
 31
0.0
  0
LINE
  5
91A
330
8DE
100
AcDbEntity
  8
0
  6
Continuous
 62
     7
370
    15
100
AcDbLine
 10
2136.888939677885
 20
838.9453168082562
 30
0.0
 11
2136.275001098645
 21
838.2957437926487
 31
0.0
  0
LINE
  5
91B
330
8DE
100
AcDbEntity
  8
0
  6
Continuous
 62
     7
370
    15
100
AcDbLine
 10
2188.57363780746
 20
821.0733731265534
 30
0.0
 11
2127.875377763722
 21
838.7635095679193
 31
0.0
  0
LINE
  5
91C
330
8DE
100
AcDbEntity
  8
0
  6
Continuous
 62
     7
370
    15
100
AcDbLine
 10
2131.048196281044
 20
842.1204859202182
 30
0.0
 11
2127.875377763722
 21
838.7635095679193
 31
0.0
  0
LINE
  5
91D
330
8DE
100
AcDbEntity
  8
0
  6
Continuous
 62
     7
370
    15
100
AcDbLine
 10
2131.048196281044
 20
842.1204859202182
 30
0.0
 11
2132.050969003024
 21
841.8282339469534
 31
0.0
  0
LINE
  5
91E
330
8DE
100
AcDbEntity
  8
0
  6
Continuous
 62
     7
370
    15
100
AcDbLine
 10
2132.050969003024
 20
841.8282339469534
 30
0.0
 11
2130.830656426712
 21
840.5370915640126
 31
0.0
  0
LWPOLYLINE
  5
91F
330
8DE
100
AcDbEntity
  8
0
  6
Continuous
 62
     7
370
    15
100
AcDbPolyline
 90
       20
 70
   128
 43
0.0
 10
2130.830656426712
 20
840.5370915640126
 10
2130.693752377776
 20
840.3601435732461
 10
2130.608163416718
 20
840.1741687803667
 10
2130.576208428
 20
839.9842237134592
 10
2130.598761220362
 20
839.7954915889078
 10
2130.675219418202
 20
839.6131343270523
 10
2130.803476742048
 20
839.4421043174231
 10
2130.980053825593
 20
839.287086661573
 10
2131.200120845814
 20
839.1522962642154
 10
2131.457686943225
 20
839.0414226278517
 10
2131.745716164027
 20
838.9574782740693
 10
2132.056350714796
 20
838.9027533086753
 10
2132.381129211964
 20
838.8787518142203
 10
2132.711180029863
 20
838.8861158685486
 10
2133.037512825282
 20
838.9246583698229
 10
2133.351208160728
 20
838.9933077719813
 10
2133.643729049798
 20
839.0902136002008
 10
2133.90708371107
 20
839.2127186486129
 10
2134.134086763824
 20
839.3574791698636
 10
2134.318560875787
 20
839.52056315687
  0
LINE
  5
920
330
8DE
100
AcDbEntity
  8
0
  6
Continuous
 62
     7
370
    15
100
AcDbLine
 10
2134.318560875787
 20
839.52056315687
 30
0.0
 11
2135.538873452099
 21
840.8117055398109
 31
0.0
  0
LINE
  5
921
330
8DE
100
AcDbEntity
  8
0
  6
Continuous
 62
     7
370
    15
100
AcDbLine
 10
2135.538873452099
 20
840.8117055398109
 30
0.0
 11
2136.074175477977
 21
840.6556950401974
 31
0.0
  0
LINE
  5
922
330
8DE
100
AcDbEntity
  8
0
  6
Continuous
 62
     7
370
    15
100
AcDbLine
 10
2137.911918539216
 20
840.1200960712305
 30
0.0
 11
2139.898754622511
 21
839.5410448533736
 31
0.0
  0
LINE
  5
923
330
8DE
100
AcDbEntity
  8
0
  6
Continuous
 62
     7
370
    15
100
AcDbLine
 10
2139.898754622511
 20
839.5410448533736
 30
0.0
 11
2138.678442046199
 21
838.2499024704326
 31
0.0
  0
LWPOLYLINE
  5
924
330
8DE
100
AcDbEntity
  8
0
  6
Continuous
 62
     7
370
    15
100
AcDbPolyline
 90
       20
 70
   128
 43
0.0
 10
2138.678442046199
 20
838.2499024704326
 10
2138.541538200286
 20
838.0729544204966
 10
2138.45594863016
 20
837.8869798051264
 10
2138.423994047487
 20
837.6970346198795
 10
2138.446546636826
 20
837.5083025544977
 10
2138.523004631643
 20
837.3259453518119
 10
2138.651262158512
 20
837.154915283013
 10
2138.827839242057
 20
836.9998976271629
 10
2139.047906059256
 20
836.865107288975
 10
2139.305472968757
 20
836.7542334159324
 10
2139.593501377468
 20
836.6702892988289
 10
2139.904136740328
 20
836.6155640967559
 10
2140.228914831451
 20
836.5915627206405
 10
2140.55896564935
 20
836.5989267749689
 10
2140.885298850814
 20
836.6374691579036
 10
2141.198993780215
 20
836.7061186784015
 10
2141.491514669285
 20
836.8030245066208
 10
2141.754869736603
 20
836.9255294366935
 10
2141.981871977265
 20
837.0702901946232
 10
2142.166346495274
 20
837.2333740632901
  0
LINE
  5
925
330
8DE
100
AcDbEntity
  8
0
  6
Continuous
 62
     7
370
    15
100
AcDbLine
 10
2142.166346495274
 20
837.2333740632901
 30
0.0
 11
2143.386659071586
 21
838.5245164462309
 31
0.0
  0
LINE
  5
926
330
8DE
100
AcDbEntity
  8
0
  6
Continuous
 62
     7
370
    15
100
AcDbLine
 10
2143.386659071586
 20
838.5245164462309
 30
0.0
 11
2143.921960285372
 21
838.3685061832963
 31
0.0
  0
LINE
  5
927
330
8DE
100
AcDbEntity
  8
0
  6
Continuous
 62
     7
370
    15
100
AcDbLine
 10
2145.759704564748
 20
837.8329068593112
 30
0.0
 11
2147.746540648044
 21
837.2538556414543
 31
0.0
  0
LINE
  5
928
330
8DE
100
AcDbEntity
  8
0
  6
Continuous
 62
     7
370
    15
100
AcDbLine
 10
2147.746540648044
 20
837.2538556414543
 30
0.0
 11
2146.526228071731
 21
835.9627132585133
 31
0.0
  0
LWPOLYLINE
  5
929
330
8DE
100
AcDbEntity
  8
0
  6
Continuous
 62
     7
370
    15
100
AcDbPolyline
 90
       20
 70
   128
 43
0.0
 10
2146.526228071731
 20
835.9627132585133
 10
2146.389323413727
 20
835.7857654452562
 10
2146.303734655692
 20
835.5997905932069
 10
2146.271780073019
 20
835.4098454079601
 10
2146.294331850268
 20
835.2211135792574
 10
2146.370790657176
 20
835.0387561398926
 10
2146.499047371953
 20
834.8677263077727
 10
2146.675624455498
 20
834.7127086519225
 10
2146.895691272697
 20
834.5779183137347
 10
2147.15325899429
 20
834.4670442040131
 10
2147.44128659091
 20
834.3831003235887
 10
2147.751921141679
 20
834.3283753581944
 10
2148.076700856983
 20
834.3043735087212
 10
2148.406751674882
 20
834.3117375630495
 10
2148.733084064255
 20
834.350280182663
 10
2149.046779805747
 20
834.4189294664822
 10
2149.339299882726
 20
834.5158355313806
 10
2149.602654950044
 20
834.6383404614533
 10
2149.829658002798
 20
834.7831009827039
 10
2150.014131708715
 20
834.9461850880498
  0
LINE
  5
92A
330
8DE
100
AcDbEntity
  8
0
  6
Continuous
 62
     7
370
    15
100
AcDbLine
 10
2150.014131708715
 20
834.9461850880498
 30
0.0
 11
2151.234444285028
 21
836.2373274709907
 31
0.0
  0
LINE
  5
92B
330
8DE
100
AcDbEntity
  8
0
  6
Continuous
 62
     7
370
    15
100
AcDbLine
 10
2151.234444285028
 20
836.2373274709907
 30
0.0
 11
2151.769747122996
 21
836.081316734698
 31
0.0
  0
LINE
  5
92C
330
8DE
100
AcDbEntity
  8
0
  6
Continuous
 62
     7
370
    15
100
AcDbLine
 10
2153.60748977819
 20
835.5457178840708
 30
0.0
 11
2155.594325861486
 21
834.9666666662139
 31
0.0
  0
LINE
  5
92D
330
8DE
100
AcDbEntity
  8
0
  6
Continuous
 62
     7
370
    15
100
AcDbLine
 10
2155.594325861486
 20
834.9666666662139
 30
0.0
 11
2154.374013285173
 21
833.675524283273
 31
0.0
  0
LWPOLYLINE
  5
92E
330
8DE
100
AcDbEntity
  8
0
  6
Continuous
 62
     7
370
    15
100
AcDbPolyline
 90
       20
 70
   128
 43
0.0
 10
2154.374013285173
 20
833.675524283273
 10
2154.237108627169
 20
833.4985764700158
 10
2154.151519869134
 20
833.3126016179665
 10
2154.119565286461
 20
833.1226564327199
 10
2154.142117063709
 20
832.933924604017
 10
2154.218575870618
 20
832.7515671646521
 10
2154.346834209577
 20
832.5805368591742
 10
2154.523409668939
 20
832.4255196766822
 10
2154.74347811032
 20
832.2907288651364
 10
2155.001044207732
 20
832.1798552287727
 10
2155.289073428534
 20
832.0959108749903
 10
2155.59970635512
 20
832.0411863829541
 10
2155.924486070424
 20
832.0171845334808
 10
2156.254536888324
 20
832.0245485878093
 10
2156.580869277696
 20
832.0630912074227
 10
2156.894565019188
 20
832.1317404912417
 10
2157.187085096167
 20
832.2286465561401
 10
2157.450440163486
 20
832.3511514862127
 10
2157.677443216239
 20
832.4959120074636
 10
2157.861916922156
 20
832.6589961128094
  0
LINE
  5
92F
330
8DE
100
AcDbEntity
  8
0
  6
Continuous
 62
     7
370
    15
100
AcDbLine
 10
2157.861916922156
 20
832.6589961128094
 30
0.0
 11
2159.082229498469
 21
833.9501384957504
 31
0.0
  0
LINE
  5
930
330
8DE
100
AcDbEntity
  8
0
  6
Continuous
 62
     7
370
    15
100
AcDbLine
 10
2159.082229498469
 20
833.9501384957504
 30
0.0
 11
2159.617530712255
 21
833.7941282328156
 31
0.0
  0
LINE
  5
931
330
8DE
100
AcDbEntity
  8
0
  6
Continuous
 62
     7
370
    15
100
AcDbLine
 10
2161.455276615813
 20
833.2585284354724
 30
0.0
 11
2163.442112699109
 21
832.6794772176155
 31
0.0
  0
LINE
  5
932
330
8DE
100
AcDbEntity
  8
0
  6
Continuous
 62
     7
370
    15
100
AcDbLine
 10
2163.442112699109
 20
832.6794772176155
 30
0.0
 11
2162.221800122796
 21
831.3883348346745
 31
0.0
  0
LWPOLYLINE
  5
933
330
8DE
100
AcDbEntity
  8
0
  6
Continuous
 62
     7
370
    15
100
AcDbPolyline
 90
       20
 70
   128
 43
0.0
 10
2162.221800122796
 20
831.3883348346745
 10
2162.084895464792
 20
831.2113870214174
 10
2161.999306706757
 20
831.0254121693683
 10
2161.967352124085
 20
830.8354669841214
 10
2161.989903901333
 20
830.6467351554186
 10
2162.066362708241
 20
830.4643777160539
 10
2162.194619423019
 20
830.2933478839339
 10
2162.371196506563
 20
830.1383302280838
 10
2162.59126169958
 20
830.003540363254
 10
2162.848829421173
 20
829.8926662535322
 10
2163.136858641975
 20
829.8087218997499
 10
2163.447491568561
 20
829.7539974077137
 10
2163.772271283866
 20
829.7299955582403
 10
2164.102322101765
 20
829.7373596125687
 10
2164.428654491138
 20
829.7759022321825
 10
2164.74235023263
 20
829.8445515160013
 10
2165.034870309609
 20
829.9414575808999
 10
2165.298225376927
 20
830.0639625109724
 10
2165.525228429681
 20
830.2087230322232
 10
2165.709702135598
 20
830.3718071375691
  0
LINE
  5
934
330
8DE
100
AcDbEntity
  8
0
  6
Continuous
 62
     7
370
    15
100
AcDbLine
 10
2165.709702135598
 20
830.3718071375691
 30
0.0
 11
2166.93001471191
 21
831.66294952051
 31
0.0
  0
LINE
  5
935
330
8DE
100
AcDbEntity
  8
0
  6
Continuous
 62
     7
370
    15
100
AcDbLine
 10
2166.93001471191
 20
831.66294952051
 30
0.0
 11
2167.465319174061
 21
831.5069383108593
 31
0.0
  0
LINE
  5
936
330
8DE
100
AcDbEntity
  8
0
  6
Continuous
 62
     7
370
    15
100
AcDbLine
 10
2169.303061829255
 20
830.9713394602322
 30
0.0
 11
2171.28989791255
 21
830.3922882423751
 31
0.0
  0
LINE
  5
937
330
8DE
100
AcDbEntity
  8
0
  6
Continuous
 62
     7
370
    15
100
AcDbLine
 10
2171.28989791255
 20
830.3922882423751
 30
0.0
 11
2170.069585336237
 21
829.1011458594342
 31
0.0
  0
LWPOLYLINE
  5
938
330
8DE
100
AcDbEntity
  8
0
  6
Continuous
 62
     7
370
    15
100
AcDbPolyline
 90
       20
 70
   128
 43
0.0
 10
2170.069585336237
 20
829.1011458594342
 10
2169.932680678234
 20
828.924198046177
 10
2169.847091920199
 20
828.7382231941279
 10
2169.815137337526
 20
828.5482780088811
 10
2169.837689114774
 20
828.3595461801782
 10
2169.914147921682
 20
828.1771887408135
 10
2170.042404636459
 20
828.0061589086935
 10
2170.218981720005
 20
827.8511412528434
 10
2170.439050161386
 20
827.7163504412976
 10
2170.696614634614
 20
827.6054772782918
 10
2170.984643855416
 20
827.5215329245096
 10
2171.295280030367
 20
827.4668074857574
 10
2171.620056497307
 20
827.4428065829999
 10
2171.950107315206
 20
827.4501706373284
 10
2172.276439704579
 20
827.4887132569421
 10
2172.590135446071
 20
827.5573625407609
 10
2172.88265552305
 20
827.6542686056595
 10
2173.146010590369
 20
827.776773535732
 10
2173.373013643122
 20
827.9215340569828
 10
2173.557487349039
 20
828.0846181623285
  0
LINE
  5
939
330
8DE
100
AcDbEntity
  8
0
  6
Continuous
 62
     7
370
    15
100
AcDbLine
 10
2173.557487349039
 20
828.0846181623285
 30
0.0
 11
2174.777799925352
 21
829.3757605452695
 31
0.0
  0
LINE
  5
93A
330
8DE
100
AcDbEntity
  8
0
  6
Continuous
 62
     7
370
    15
100
AcDbLine
 10
2174.777799925352
 20
829.3757605452695
 30
0.0
 11
2175.313104387502
 21
829.2197493356189
 31
0.0
  0
LINE
  5
93B
330
8DE
100
AcDbEntity
  8
0
  6
Continuous
 62
     7
370
    15
100
AcDbLine
 10
2177.150847042696
 20
828.6841504849919
 30
0.0
 11
2179.137683125992
 21
828.1050992671348
 31
0.0
  0
LINE
  5
93C
330
8DE
100
AcDbEntity
  8
0
  6
Continuous
 62
     7
370
    15
100
AcDbLine
 10
2179.137683125992
 20
828.1050992671348
 30
0.0
 11
2177.917370549679
 21
826.8139568841938
 31
0.0
  0
LWPOLYLINE
  5
93D
330
8DE
100
AcDbEntity
  8
0
  6
Continuous
 62
     7
370
    15
100
AcDbPolyline
 90
       20
 70
   128
 43
0.0
 10
2177.917370549679
 20
826.8139568841938
 10
2177.780465891675
 20
826.6370090709367
 10
2177.69487713364
 20
826.4510342188875
 10
2177.662922550967
 20
826.2610890336407
 10
2177.685474328216
 20
826.0723572049379
 10
2177.761933135124
 20
825.889999765573
 10
2177.890189849901
 20
825.7189699334531
 10
2178.066766933446
 20
825.5639522776032
 10
2178.286835374827
 20
825.4291614660573
 10
2178.544399848056
 20
825.3182883030515
 10
2178.832429068858
 20
825.234343949269
 10
2179.143065243808
 20
825.179618510517
 10
2179.467841710748
 20
825.1556176077595
 10
2179.797892528648
 20
825.162981662088
 10
2180.124224918021
 20
825.2015242817018
 10
2180.437920659512
 20
825.2701735655206
 10
2180.730443984856
 20
825.367078683703
 10
2180.99379580381
 20
825.4895845604917
 10
2181.220798856563
 20
825.6343450817425
 10
2181.405275810845
 20
825.7974282403724
  0
LINE
  5
93E
330
8DE
100
AcDbEntity
  8
0
  6
Continuous
 62
     7
370
    15
100
AcDbLine
 10
2181.405275810845
 20
825.7974282403724
 30
0.0
 11
2182.625588387158
 21
827.0885706233132
 31
0.0
  0
LINE
  5
93F
330
8DE
100
AcDbEntity
  8
0
  6
Continuous
 62
     7
370
    15
100
AcDbLine
 10
2182.625588387158
 20
827.0885706233132
 30
0.0
 11
2183.160889600944
 21
826.9325603603785
 31
0.0
  0
LINE
  5
940
330
8DE
100
AcDbEntity
  8
0
  6
Continuous
 62
     7
370
    15
100
AcDbLine
 10
2184.998629007773
 20
826.3969624564674
 30
0.0
 11
2186.985465091069
 21
825.8179112386104
 31
0.0
  0
LINE
  5
941
330
8DE
100
AcDbEntity
  8
0
  6
Continuous
 62
     7
370
    15
100
AcDbLine
 10
2186.985465091069
 20
825.8179112386104
 30
0.0
 11
2185.765152514756
 21
824.5267688556694
 31
0.0
  0
LWPOLYLINE
  5
942
330
8DE
100
AcDbEntity
  8
0
  6
Continuous
 62
     7
370
    15
100
AcDbPolyline
 90
       20
 70
   128
 43
0.0
 10
2185.765152514756
 20
824.5267688556694
 10
2185.628254353481
 20
824.3498191489804
 10
2185.542662347081
 20
824.1638452436472
 10
2185.510707764409
 20
823.9739000584004
 10
2185.533262790021
 20
823.7851672829815
 10
2185.6097151002
 20
823.6028117370487
 10
2185.737978311707
 20
823.4317800114968
 10
2185.914555395251
 20
823.2767623556467
 10
2186.134620588268
 20
823.1419724908169
 10
2186.392188309862
 20
823.0310983810952
 10
2186.680214282299
 20
822.9471549740287
 10
2186.99085045725
 20
822.8924295352767
 10
2187.31562692419
 20
822.8684286325192
 10
2187.645677742089
 20
822.8757926868476
 10
2187.972010131462
 20
822.9143353064612
 10
2188.285705872954
 20
822.9829845902804
 10
2188.578229198297
 20
823.0798897084628
 10
2188.841584265615
 20
823.2023946385353
 10
2189.068584070005
 20
823.3471561065021
 10
2189.253057775922
 20
823.5102402118478
  0
LINE
  5
943
330
8DE
100
AcDbEntity
  8
0
  6
Continuous
 62
     7
370
    15
100
AcDbLine
 10
2189.253057775922
 20
823.5102402118478
 30
0.0
 11
2190.473370352234
 21
824.8013825947888
 31
0.0
  0
LINE
  5
944
330
8DE
100
AcDbEntity
  8
0
  6
Continuous
 62
     7
370
    15
100
AcDbLine
 10
2190.473370352234
 20
824.8013825947888
 30
0.0
 11
2191.746456324782
 21
824.4303494788523
 31
0.0
  0
LINE
  5
945
330
8DE
100
AcDbEntity
  8
0
  6
Continuous
 62
     7
370
    15
100
AcDbLine
 10
2127.875377763722
 20
838.7635095679193
 30
0.0
 11
2127.897070992034
 21
838.287885311548
 31
0.0
  0
LINE
  5
946
330
8DE
100
AcDbEntity
  8
0
  6
Continuous
 62
     7
370
    15
100
AcDbLine
 10
2183.361711567203
 20
824.5726101778855
 30
0.0
 11
2183.052751638749
 21
824.5457345890006
 31
0.0
  0
LINE
  5
947
330
8DE
100
AcDbEntity
  8
0
  6
Continuous
 62
     7
370
    15
100
AcDbLine
 10
2183.052751638749
 20
824.5457345890006
 30
0.0
 11
2183.015454714126
 21
825.3634700492732
 31
0.0
  0
LINE
  5
948
330
8DE
100
AcDbEntity
  8
0
  6
Continuous
 62
     7
370
    15
100
AcDbLine
 10
2183.015454714126
 20
825.3634700492732
 30
0.0
 11
2184.753006520952
 21
829.0448429210723
 31
0.0
  0
LINE
  5
949
330
8DE
100
AcDbEntity
  8
0
  6
Continuous
 62
     7
370
    15
100
AcDbLine
 10
2184.753006520952
 20
829.0448429210723
 30
0.0
 11
2190.257156525856
 21
834.868466713322
 31
0.0
  0
LWPOLYLINE
  5
94A
330
8DE
100
AcDbEntity
  8
0
  6
Continuous
 62
     7
370
    15
100
AcDbPolyline
 90
        9
 70
   128
 43
0.0
 10
2190.257156525856
 20
834.868466713322
 10
2190.305128220991
 20
834.9109840793829
 10
2190.351969448357
 20
834.9361600283186
 10
2190.395879972694
 20
834.9430095059336
 10
2190.435192901965
 20
834.9313016547709
 10
2190.468364030446
 20
834.9014591261981
 10
2190.494150852139
 20
834.8546452985177
 10
2190.511527500194
 20
834.7926231864459
 10
2190.519864316092
 20
834.7178304740394
  0
LINE
  5
94B
330
8DE
100
AcDbEntity
  8
0
  6
Continuous
 62
     7
370
    15
100
AcDbLine
 10
2190.519864316092
 20
834.7178304740394
 30
0.0
 11
2190.5478371485
 21
834.104525832539
 31
0.0
  0
LINE
  5
94C
330
8DE
100
AcDbEntity
  8
0
  6
Continuous
 62
     7
370
    15
100
AcDbLine
 10
2190.5478371485
 20
834.104525832539
 30
0.0
 11
2189.327524572187
 21
832.8133834495982
 31
0.0
  0
LINE
  5
94D
330
8DE
100
AcDbEntity
  8
0
  6
Continuous
 62
     7
370
    15
100
AcDbLine
 10
2189.327524572187
 20
832.8133834495982
 30
0.0
 11
2189.411442513646
 21
830.9734817102803
 31
0.0
  0
ARC
  5
94E
330
8DE
100
AcDbEntity
  8
0
  6
Continuous
 62
     7
370
    15
100
AcDbCircle
 10
2185.898992936472
 20
824.5464550373133
 30
0.0
 40
2.038591677853119
100
AcDbArc
 50
112.5888435312899
 51
160.6420912025822
  0
LINE
  5
94F
330
8DE
100
AcDbEntity
  8
0
  6
Continuous
 62
     7
370
    15
100
AcDbLine
 10
2184.753006520952
 20
829.0448429210723
 30
0.0
 11
2184.229824954651
 21
829.1973209869148
 31
0.0
  0
LINE
  5
950
330
8DE
100
AcDbEntity
  8
0
  6
Continuous
 62
     7
370
    15
100
AcDbLine
 10
2183.015454714126
 20
825.3634700492732
 30
0.0
 11
2182.492273147826
 21
825.5159481151158
 31
0.0
  0
LINE
  5
951
330
8DE
100
AcDbEntity
  8
0
  6
Continuous
 62
     7
370
    15
100
AcDbLine
 10
2184.229824954651
 20
829.1973209869148
 30
0.0
 11
2182.492273147826
 21
825.5159481151158
 31
0.0
  0
LINE
  5
952
330
8DE
100
AcDbEntity
  8
0
  6
Continuous
 62
     7
370
    15
100
AcDbLine
 10
2182.529570072448
 20
824.6982126548433
 30
0.0
 11
2183.052751638749
 21
824.5457345890006
 31
0.0
  0
LINE
  5
953
330
8DE
100
AcDbEntity
  8
0
  6
Continuous
 62
     7
370
    15
100
AcDbLine
 10
2182.492273147826
 20
825.5159481151158
 30
0.0
 11
2182.529570072448
 21
824.6982126548433
 31
0.0
  0
LINE
  5
954
330
8DE
100
AcDbEntity
  8
0
  6
Continuous
 62
     7
370
    15
100
AcDbLine
 10
2190.522191001761
 20
824.8530369094199
 30
0.0
 11
2190.525236045644
 21
824.7862742905933
 31
0.0
  0
LINE
  5
955
330
8DE
100
AcDbEntity
  8
0
  6
Continuous
 62
     7
370
    15
100
AcDbLine
 10
2186.985465091069
 20
825.8179112386104
 30
0.0
 11
2187.060058940314
 21
824.182440318065
 31
0.0
  0
LINE
  5
956
330
8DE
100
AcDbEntity
  8
0
  6
Continuous
 62
     7
370
    15
100
AcDbLine
 10
2187.060058940314
 20
824.182440318065
 30
0.0
 11
2186.095982037643
 21
823.1624061287812
 31
0.0
  0
LINE
  5
957
330
8DE
100
AcDbEntity
  8
0
  6
Continuous
 62
     7
370
    15
100
AcDbLine
 10
2189.733974959555
 20
835.0209447791646
 30
0.0
 11
2190.257156525856
 21
834.868466713322
 31
0.0
  0
LINE
  5
958
330
8DE
100
AcDbEntity
  8
0
  6
Continuous
 62
     7
370
    15
100
AcDbLine
 10
2189.733974959555
 20
835.0209447791646
 30
0.0
 11
2184.229824954651
 21
829.1973209869148
 31
0.0
  0
LINE
  5
959
330
8DE
100
AcDbEntity
  8
0
  6
Continuous
 62
     7
370
    15
100
AcDbLine
 10
2175.513929602125
 20
826.85979820641
 30
0.0
 11
2175.204969673671
 21
826.832922617525
 31
0.0
  0
LINE
  5
95A
330
8DE
100
AcDbEntity
  8
0
  6
Continuous
 62
     7
370
    15
100
AcDbLine
 10
2175.204969673671
 20
826.832922617525
 30
0.0
 11
2175.167672749049
 21
827.6506580777978
 31
0.0
  0
LINE
  5
95B
330
8DE
100
AcDbEntity
  8
0
  6
Continuous
 62
     7
370
    15
100
AcDbLine
 10
2175.167672749049
 20
827.6506580777978
 30
0.0
 11
2176.905224555875
 21
831.3320309495967
 31
0.0
  0
LINE
  5
95C
330
8DE
100
AcDbEntity
  8
0
  6
Continuous
 62
     7
370
    15
100
AcDbLine
 10
2176.905224555875
 20
831.3320309495967
 30
0.0
 11
2182.409374560779
 21
837.1556547418466
 31
0.0
  0
LWPOLYLINE
  5
95D
330
8DE
100
AcDbEntity
  8
0
  6
Continuous
 62
     7
370
    15
100
AcDbPolyline
 90
        9
 70
   128
 43
0.0
 10
2182.409374560779
 20
837.1556547418466
 10
2182.457346255914
 20
837.1981721079075
 10
2182.50418748328
 20
837.2233480568432
 10
2182.548098007617
 20
837.230197534458
 10
2182.587410936888
 20
837.2184896832953
 10
2182.620582065369
 20
837.1886471547226
 10
2182.646368887062
 20
837.1418333270423
 10
2182.663745535117
 20
837.0798112149703
 10
2182.672082351015
 20
837.0050185025638
  0
LINE
  5
95E
330
8DE
100
AcDbEntity
  8
0
  6
Continuous
 62
     7
370
    15
100
AcDbLine
 10
2182.672082351015
 20
837.0050185025638
 30
0.0
 11
2182.700055183423
 21
836.3917138610634
 31
0.0
  0
LINE
  5
95F
330
8DE
100
AcDbEntity
  8
0
  6
Continuous
 62
     7
370
    15
100
AcDbLine
 10
2182.700055183423
 20
836.3917138610634
 30
0.0
 11
2181.479742607111
 21
835.1005714781225
 31
0.0
  0
LINE
  5
960
330
8DE
100
AcDbEntity
  8
0
  6
Continuous
 62
     7
370
    15
100
AcDbLine
 10
2181.479742607111
 20
835.1005714781225
 30
0.0
 11
2181.563660548569
 21
833.2606697388047
 31
0.0
  0
LINE
  5
961
330
8DE
100
AcDbEntity
  8
0
  6
Continuous
 62
     7
370
    15
100
AcDbLine
 10
2181.563660548569
 20
833.2606697388047
 30
0.0
 11
2177.268156206713
 21
828.7158442411962
 31
0.0
  0
ARC
  5
962
330
8DE
100
AcDbEntity
  8
0
  6
Continuous
 62
     7
370
    15
100
AcDbCircle
 10
2178.051210971394
 20
826.8336430658376
 30
0.0
 40
2.038591677853375
100
AcDbArc
 50
112.5888435312924
 51
160.6420912025822
  0
LINE
  5
963
330
8DE
100
AcDbEntity
  8
0
  6
Continuous
 62
     7
370
    15
100
AcDbLine
 10
2176.905224555875
 20
831.3320309495967
 30
0.0
 11
2176.382036492845
 21
831.4845109088711
 31
0.0
  0
LINE
  5
964
330
8DE
100
AcDbEntity
  8
0
  6
Continuous
 62
     7
370
    15
100
AcDbLine
 10
2175.167672749049
 20
827.6506580777978
 30
0.0
 11
2174.64448468602
 21
827.8031380370721
 31
0.0
  0
LINE
  5
965
330
8DE
100
AcDbEntity
  8
0
  6
Continuous
 62
     7
370
    15
100
AcDbLine
 10
2176.382036492845
 20
831.4845109088711
 30
0.0
 11
2174.64448468602
 21
827.8031380370721
 31
0.0
  0
LINE
  5
966
330
8DE
100
AcDbEntity
  8
0
  6
Continuous
 62
     7
370
    15
100
AcDbLine
 10
2190.184071355384
 20
827.4877777473641
 30
0.0
 11
2190.109477506139
 21
829.1232486679094
 31
0.0
  0
LINE
  5
967
330
8DE
100
AcDbEntity
  8
0
  6
Continuous
 62
     7
370
    15
100
AcDbLine
 10
2187.108879589839
 20
824.2340946326962
 30
0.0
 11
2187.034285740594
 21
825.8695655532415
 31
0.0
  0
LINE
  5
968
330
8DE
100
AcDbEntity
  8
0
  6
Continuous
 62
     7
370
    15
100
AcDbLine
 10
2190.184071355384
 20
827.4877777473641
 30
0.0
 11
2187.108879589839
 21
824.2340946326962
 31
0.0
  0
LINE
  5
969
330
8DE
100
AcDbEntity
  8
0
  6
Continuous
 62
     7
370
    15
100
AcDbLine
 10
2182.674409036684
 20
827.1402249379445
 30
0.0
 11
2182.677454080567
 21
827.0734623191179
 31
0.0
  0
LINE
  5
96A
330
8DE
100
AcDbEntity
  8
0
  6
Continuous
 62
     7
370
    15
100
AcDbLine
 10
2183.188228816854
 20
826.9904753073792
 30
0.0
 11
2182.674409036684
 21
827.1402249379445
 31
0.0
  0
LINE
  5
96B
330
8DE
100
AcDbEntity
  8
0
  6
Continuous
 62
     7
370
    15
100
AcDbLine
 10
2187.108879589839
 20
824.2340946326962
 30
0.0
 11
2187.05702270095
 21
824.24920800562
 31
0.0
  0
LINE
  5
96C
330
8DE
100
AcDbEntity
  8
0
  6
Continuous
 62
     7
370
    15
100
AcDbLine
 10
2174.681781610642
 20
826.9854025767994
 30
0.0
 11
2175.204969673671
 21
826.832922617525
 31
0.0
  0
LINE
  5
96D
330
8DE
100
AcDbEntity
  8
0
  6
Continuous
 62
     7
370
    15
100
AcDbLine
 10
2174.64448468602
 20
827.8031380370721
 30
0.0
 11
2174.681781610642
 21
826.9854025767994
 31
0.0
  0
LINE
  5
96E
330
8DE
100
AcDbEntity
  8
0
  6
Continuous
 62
     7
370
    15
100
AcDbLine
 10
2183.841958652379
 20
828.3755418741728
 30
0.0
 11
2182.674409036684
 21
827.1402249379445
 31
0.0
  0
LWPOLYLINE
  5
96F
330
8DE
100
AcDbEntity
  8
0
  6
Continuous
 62
     7
370
    15
100
AcDbPolyline
 90
       17
 70
   128
 43
0.0
 10
2182.261695541062
 20
831.4104366964338
 10
2182.446154699706
 20
831.5735054101482
 10
2182.673172299733
 20
831.7182813230303
 10
2182.936527367051
 20
831.840786253103
 10
2183.229047444029
 20
831.9376923180014
 10
2183.542743185522
 20
832.0063416018204
 10
2183.869075574895
 20
832.0448842214339
 10
2184.199126392794
 20
832.0522482757624
 10
2184.523906108098
 20
832.028246426289
 10
2184.834539034685
 20
831.9735219342529
 10
2185.122568255486
 20
831.8895775804705
 10
2185.38013597708
 20
831.7787034707489
 10
2185.600201170097
 20
831.6439136059189
 10
2185.776778253641
 20
831.4888959500688
 10
2185.905034968419
 20
831.3178661179488
 10
2185.981493775327
 20
831.1355086785841
 10
2185.996170751043
 20
831.0661925174949
  0
LINE
  5
970
330
8DE
100
AcDbEntity
  8
0
  6
Continuous
 62
     7
370
    15
100
AcDbLine
 10
2179.186503775517
 20
828.1567535817659
 30
0.0
 11
2182.261695541062
 21
831.4104366964338
 31
0.0
  0
LINE
  5
971
330
8DE
100
AcDbEntity
  8
0
  6
Continuous
 62
     7
370
    15
100
AcDbLine
 10
2179.186503775517
 20
828.1567535817659
 30
0.0
 11
2177.268156206713
 21
828.7158442411962
 31
0.0
  0
LINE
  5
972
330
8DE
100
AcDbEntity
  8
0
  6
Continuous
 62
     7
370
    15
100
AcDbLine
 10
2182.788712957098
 20
832.903635711156
 30
0.0
 11
2181.563660548569
 21
833.2606697388047
 31
0.0
  0
ARC
  5
973
330
8DE
100
AcDbEntity
  8
0
  6
Continuous
 62
     7
370
    15
100
AcDbCircle
 10
2184.164887628989
 20
827.6837081419538
 30
0.0
 40
5.398286816691953
100
AcDbArc
 50
57.20978256654487
 51
104.769321164226
  0
LINE
  5
974
330
8DE
100
AcDbEntity
  8
0
  6
Continuous
 62
     7
370
    15
100
AcDbLine
 10
2179.137683125992
 20
828.1050992671348
 30
0.0
 11
2179.212276975237
 21
826.4696283465893
 31
0.0
  0
LINE
  5
975
330
8DE
100
AcDbEntity
  8
0
  6
Continuous
 62
     7
370
    15
100
AcDbLine
 10
2179.212276975237
 20
826.4696283465893
 30
0.0
 11
2178.248200072566
 21
825.4495941573056
 31
0.0
  0
LINE
  5
976
330
8DE
100
AcDbEntity
  8
0
  6
Continuous
 62
     7
370
    15
100
AcDbLine
 10
2195.427075810799
 20
831.0357065678491
 30
0.0
 11
2196.652124970963
 21
830.6786734869161
 31
0.0
  0
LWPOLYLINE
  5
977
330
8DE
100
AcDbEntity
  8
0
  6
Continuous
 62
     7
370
    15
100
AcDbPolyline
 90
       15
 70
   128
 43
0.0
 10
2190.552580229081
 20
832.4563484752333
 10
2190.98618516112
 20
832.5387955891583
 10
2191.431087986963
 20
832.5911924776946
 10
2191.880863125863
 20
832.6127812367841
 10
2192.329034723552
 20
832.6032505038723
 10
2192.769144727158
 20
832.562754880579
 10
2193.194842285588
 20
832.4918692461586
 10
2193.599984308097
 20
832.3915987130115
 10
2193.97873107993
 20
832.2634096541246
 10
2194.325618007816
 20
832.1091302679077
 10
2194.635646292691
 20
831.9310026775609
 10
2194.904362725736
 20
831.7316007809749
 10
2195.127869574196
 20
831.5137881068784
 10
2195.302949573041
 20
831.2807010181264
 10
2195.427075810799
 20
831.0357065678491
  0
LINE
  5
978
330
8DE
100
AcDbEntity
  8
0
  6
Continuous
 62
     7
370
    15
100
AcDbLine
 10
2189.327524572187
 20
832.8133834495982
 30
0.0
 11
2190.552580229081
 21
832.4563484752333
 31
0.0
  0
LINE
  5
979
330
8DE
100
AcDbEntity
  8
0
  6
Continuous
 62
     7
370
    15
100
AcDbLine
 10
2197.000466104531
 20
832.2239466107387
 30
0.0
 11
2190.5478371485
 21
834.104525832539
 31
0.0
  0
LWPOLYLINE
  5
97A
330
8DE
100
AcDbEntity
  8
0
  6
Continuous
 62
     7
370
    15
100
AcDbPolyline
 90
        9
 70
   128
 43
0.0
 10
2197.384303788387
 20
831.4533496817018
 10
2197.462775176606
 20
831.5589864608769
 10
2197.50473474518
 20
831.6703369188285
 10
2197.508544551469
 20
831.7831080070554
 10
2197.474074040393
 20
831.8929796164233
 10
2197.402642846222
 20
831.9957194039588
 10
2197.296997350369
 20
832.0873859383896
 10
2197.1611934588
 20
832.1644413893293
 10
2197.000466104531
 20
832.2239466107387
  0
LINE
  5
97B
330
8DE
100
AcDbEntity
  8
0
  6
Continuous
 62
     7
370
    15
100
AcDbLine
 10
2195.510993752258
 20
829.1958048285314
 30
0.0
 11
2195.427075810799
 21
831.0357065678491
 31
0.0
  0
LINE
  5
97C
330
8DE
100
AcDbEntity
  8
0
  6
Continuous
 62
     7
370
    15
100
AcDbLine
 10
2181.886186497749
 20
837.3081347011209
 30
0.0
 11
2182.409374560779
 21
837.1556547418466
 31
0.0
  0
LINE
  5
97D
330
8DE
100
AcDbEntity
  8
0
  6
Continuous
 62
     7
370
    15
100
AcDbLine
 10
2181.886186497749
 20
837.3081347011209
 30
0.0
 11
2176.382036492845
 21
831.4845109088711
 31
0.0
  0
ARC
  5
97E
330
8DE
100
AcDbEntity
  8
0
  6
Continuous
 62
     7
370
    15
100
AcDbCircle
 10
2192.03062270912
 20
825.2289770005305
 30
0.0
 40
2.917521673592513
100
AcDbArc
 50
63.30839888401898
 51
129.2657209531393
  0
LINE
  5
97F
330
8DE
100
AcDbEntity
  8
0
  6
Continuous
 62
     7
370
    15
100
AcDbLine
 10
2190.636498170539
 20
830.6164467359156
 30
0.0
 11
2190.552580229081
 21
832.4563484752333
 31
0.0
  0
ARC
  5
980
330
8DE
100
AcDbEntity
  8
0
  6
Continuous
 62
     7
370
    15
100
AcDbCircle
 10
2197.186949654786
 20
829.9093969484042
 30
0.0
 40
0.4082888614362836
100
AcDbArc
 50
313.5434609526836
 51
0.5268948107992787
  0
LINE
  5
981
330
8DE
100
AcDbEntity
  8
0
  6
Continuous
 62
     7
370
    15
100
AcDbLine
 10
2167.357184460231
 20
829.1201115927655
 30
0.0
 11
2167.319887535608
 21
829.9378470530381
 31
0.0
  0
LINE
  5
982
330
8DE
100
AcDbEntity
  8
0
  6
Continuous
 62
     7
370
    15
100
AcDbLine
 10
2167.319887535608
 20
829.9378470530381
 30
0.0
 11
2169.057439342434
 21
833.6192199248371
 31
0.0
  0
LINE
  5
983
330
8DE
100
AcDbEntity
  8
0
  6
Continuous
 62
     7
370
    15
100
AcDbLine
 10
2169.057439342434
 20
833.6192199248371
 30
0.0
 11
2174.561589347338
 21
839.4428437170869
 31
0.0
  0
LWPOLYLINE
  5
984
330
8DE
100
AcDbEntity
  8
0
  6
Continuous
 62
     7
370
    15
100
AcDbPolyline
 90
        9
 70
   128
 43
0.0
 10
2174.561589347338
 20
839.4428437170869
 10
2174.609561042473
 20
839.4853610831479
 10
2174.656402269839
 20
839.5105370320836
 10
2174.700312794175
 20
839.5173865096985
 10
2174.739625723447
 20
839.5056786585357
 10
2174.772796851927
 20
839.4758361299629
 10
2174.79858367362
 20
839.4290223022826
 10
2174.815960321677
 20
839.3670001902107
 10
2174.824297137574
 20
839.2922074778041
  0
LINE
  5
985
330
8DE
100
AcDbEntity
  8
0
  6
Continuous
 62
     7
370
    15
100
AcDbLine
 10
2174.824297137574
 20
839.2922074778041
 30
0.0
 11
2174.852269969982
 21
838.6789028363038
 31
0.0
  0
LINE
  5
986
330
8DE
100
AcDbEntity
  8
0
  6
Continuous
 62
     7
370
    15
100
AcDbLine
 10
2174.852269969982
 20
838.6789028363038
 30
0.0
 11
2173.631957393669
 21
837.3877604533628
 31
0.0
  0
LINE
  5
987
330
8DE
100
AcDbEntity
  8
0
  6
Continuous
 62
     7
370
    15
100
AcDbLine
 10
2173.631957393669
 20
837.3877604533628
 30
0.0
 11
2173.715875335128
 21
835.5478587140453
 31
0.0
  0
LINE
  5
988
330
8DE
100
AcDbEntity
  8
0
  6
Continuous
 62
     7
370
    15
100
AcDbLine
 10
2173.715875335128
 20
835.5478587140453
 30
0.0
 11
2169.420370993271
 21
831.0030332164364
 31
0.0
  0
ARC
  5
989
330
8DE
100
AcDbEntity
  8
0
  6
Continuous
 62
     7
370
    15
100
AcDbCircle
 10
2170.203425757954
 20
829.1208320410781
 30
0.0
 40
2.038591677853327
100
AcDbArc
 50
112.5888435312924
 51
160.6420912025822
  0
LINE
  5
98A
330
8DE
100
AcDbEntity
  8
0
  6
Continuous
 62
     7
370
    15
100
AcDbLine
 10
2167.666144388684
 20
829.1469871816502
 30
0.0
 11
2167.357184460231
 21
829.1201115927655
 31
0.0
  0
LINE
  5
98B
330
8DE
100
AcDbEntity
  8
0
  6
Continuous
 62
     7
370
    15
100
AcDbLine
 10
2169.057439342434
 20
833.6192199248371
 30
0.0
 11
2168.534251279403
 21
833.7716998841115
 31
0.0
  0
LINE
  5
98C
330
8DE
100
AcDbEntity
  8
0
  6
Continuous
 62
     7
370
    15
100
AcDbLine
 10
2167.319887535608
 20
829.9378470530381
 30
0.0
 11
2166.796699472578
 21
830.0903270123125
 31
0.0
  0
LINE
  5
98D
330
8DE
100
AcDbEntity
  8
0
  6
Continuous
 62
     7
370
    15
100
AcDbLine
 10
2168.534251279403
 20
833.7716998841115
 30
0.0
 11
2166.796699472578
 21
830.0903270123125
 31
0.0
  0
LINE
  5
98E
330
8DE
100
AcDbEntity
  8
0
  6
Continuous
 62
     7
370
    15
100
AcDbLine
 10
2182.336289390306
 20
829.7749657758883
 30
0.0
 11
2182.261695541062
 21
831.4104366964338
 31
0.0
  0
LINE
  5
98F
330
8DE
100
AcDbEntity
  8
0
  6
Continuous
 62
     7
370
    15
100
AcDbLine
 10
2179.261097624762
 20
826.5212826612206
 30
0.0
 11
2179.186503775517
 21
828.1567535817659
 31
0.0
  0
LINE
  5
990
330
8DE
100
AcDbEntity
  8
0
  6
Continuous
 62
     7
370
    15
100
AcDbLine
 10
2182.336289390306
 20
829.7749657758883
 30
0.0
 11
2179.261097624762
 21
826.5212826612206
 31
0.0
  0
LINE
  5
991
330
8DE
100
AcDbEntity
  8
0
  6
Continuous
 62
     7
370
    15
100
AcDbLine
 10
2174.826620574878
 20
829.4274148599008
 30
0.0
 11
2174.829665618761
 21
829.360652241074
 31
0.0
  0
LINE
  5
992
330
8DE
100
AcDbEntity
  8
0
  6
Continuous
 62
     7
370
    15
100
AcDbLine
 10
2175.340443603413
 20
829.2776642826195
 30
0.0
 11
2174.826620574878
 21
829.4274148599008
 31
0.0
  0
LINE
  5
993
330
8DE
100
AcDbEntity
  8
0
  6
Continuous
 62
     7
370
    15
100
AcDbLine
 10
2179.261097624762
 20
826.5212826612206
 30
0.0
 11
2179.209240735874
 21
826.5363960341444
 31
0.0
  0
LINE
  5
994
330
8DE
100
AcDbEntity
  8
0
  6
Continuous
 62
     7
370
    15
100
AcDbLine
 10
2196.013299541641
 20
826.3596787091936
 30
0.0
 11
2196.29913611649
 21
826.2763733886561
 31
0.0
  0
LWPOLYLINE
  5
995
330
8DE
100
AcDbEntity
  8
0
  6
Continuous
 62
     7
370
    15
100
AcDbPolyline
 90
       10
 70
   128
 43
0.0
 10
2198.44447470035
 20
830.646364927063
 10
2198.535952063613
 20
830.7773441105391
 10
2198.571444173913
 20
830.9154916465651
 10
2198.548875498488
 20
831.0527550132722
 10
2198.469562799383
 20
831.1811727492097
 10
2198.338114721378
 20
831.2932767133865
 10
2198.162177012243
 20
831.3825589661714
 10
2197.951962360053
 20
831.4438247401248
 10
2197.719697608319
 20
831.4735105965294
 10
2197.52405947116
 20
831.4731260812918
  0
LINE
  5
996
330
8DE
100
AcDbEntity
  8
0
  6
Continuous
 62
     7
370
    15
100
AcDbLine
 10
2166.833996397201
 20
829.2725915520399
 30
0.0
 11
2167.357184460231
 21
829.1201115927655
 31
0.0
  0
LINE
  5
997
330
8DE
100
AcDbEntity
  8
0
  6
Continuous
 62
     7
370
    15
100
AcDbLine
 10
2166.796699472578
 20
830.0903270123125
 30
0.0
 11
2166.833996397201
 21
829.2725915520399
 31
0.0
  0
LINE
  5
998
330
8DE
100
AcDbEntity
  8
0
  6
Continuous
 62
     7
370
    15
100
AcDbLine
 10
2175.994170190574
 20
830.6627317961291
 30
0.0
 11
2174.826620574878
 21
829.4274148599008
 31
0.0
  0
LWPOLYLINE
  5
999
330
8DE
100
AcDbEntity
  8
0
  6
Continuous
 62
     7
370
    15
100
AcDbPolyline
 90
       17
 70
   128
 43
0.0
 10
2174.41391032762
 20
833.6976256716742
 10
2174.598369486265
 20
833.8606943853886
 10
2174.825387086291
 20
834.0054702982707
 10
2175.08874215361
 20
834.1279752283433
 10
2175.381262230589
 20
834.2248812932417
 10
2175.69495797208
 20
834.2935305770607
 10
2176.021290361453
 20
834.3320731966743
 10
2176.351341179353
 20
834.3394372510028
 10
2176.676120894657
 20
834.3154354015293
 10
2176.986753821243
 20
834.2607109094933
 10
2177.274783042046
 20
834.1767665557108
 10
2177.532350763639
 20
834.0658924459892
 10
2177.752415956655
 20
833.9311025811591
 10
2177.9289930402
 20
833.7760849253093
 10
2178.057249754977
 20
833.6050550931894
 10
2178.133708561885
 20
833.4226976538245
 10
2178.148385537602
 20
833.3533814927353
  0
LINE
  5
99A
330
8DE
100
AcDbEntity
  8
0
  6
Continuous
 62
     7
370
    15
100
AcDbLine
 10
2171.338718562076
 20
830.4439425570063
 30
0.0
 11
2174.41391032762
 21
833.6976256716742
 31
0.0
  0
LINE
  5
99B
330
8DE
100
AcDbEntity
  8
0
  6
Continuous
 62
     7
370
    15
100
AcDbLine
 10
2171.338718562076
 20
830.4439425570063
 30
0.0
 11
2169.420370993271
 21
831.0030332164364
 31
0.0
  0
LINE
  5
99C
330
8DE
100
AcDbEntity
  8
0
  6
Continuous
 62
     7
370
    15
100
AcDbLine
 10
2174.940927743657
 20
835.1908246863963
 30
0.0
 11
2173.715875335128
 21
835.5478587140453
 31
0.0
  0
ARC
  5
99D
330
8DE
100
AcDbEntity
  8
0
  6
Continuous
 62
     7
370
    15
100
AcDbCircle
 10
2176.317102415547
 20
829.9708971171941
 30
0.0
 40
5.398286816691975
100
AcDbArc
 50
57.20978256654134
 51
104.769321164226
  0
LINE
  5
99E
330
8DE
100
AcDbEntity
  8
0
  6
Continuous
 62
     7
370
    15
100
AcDbLine
 10
2171.28989791255
 20
830.3922882423751
 30
0.0
 11
2171.364491761795
 21
828.7568173218298
 31
0.0
  0
LINE
  5
99F
330
8DE
100
AcDbEntity
  8
0
  6
Continuous
 62
     7
370
    15
100
AcDbLine
 10
2171.364491761795
 20
828.7568173218298
 30
0.0
 11
2170.400414859125
 21
827.7367831325459
 31
0.0
  0
ARC
  5
9A0
330
8DE
100
AcDbEntity
  8
0
  6
Continuous
 62
     7
370
    15
100
AcDbCircle
 10
2198.32178540344
 20
827.6674028728054
 30
0.0
 40
0.3989509729791878
100
AcDbArc
 50
312.9592726261558
 51
1.111083137316189
  0
LINE
  5
9A1
330
8DE
100
AcDbEntity
  8
0
  6
Continuous
 62
     7
370
    15
100
AcDbLine
 10
2187.604600197372
 20
832.7679822995481
 30
0.0
 11
2187.579290597358
 21
833.3228955430895
 31
0.0
  0
LINE
  5
9A2
330
8DE
100
AcDbEntity
  8
0
  6
Continuous
 62
     7
370
    15
100
AcDbLine
 10
2187.579290597358
 20
833.3228955430895
 30
0.0
 11
2188.01033880488
 21
833.1972691808449
 31
0.0
  0
LWPOLYLINE
  5
9A3
330
8DE
100
AcDbEntity
  8
0
  6
Continuous
 62
     7
370
    15
100
AcDbPolyline
 90
       15
 70
   128
 43
0.0
 10
2182.70479501564
 20
834.7435374504737
 10
2183.138399947679
 20
834.8259845643987
 10
2183.583302773521
 20
834.8783814529351
 10
2184.033077912422
 20
834.8999702120247
 10
2184.481246261747
 20
834.8904404258286
 10
2184.921359513717
 20
834.8499438558194
 10
2185.347060320511
 20
834.7790572746831
 10
2185.752199094655
 20
834.6787876882519
 10
2186.130945866489
 20
834.550598629365
 10
2186.47782954601
 20
834.3963201898642
 10
2186.787861079249
 20
834.2181916528012
 10
2187.056574263931
 20
834.0187907029312
 10
2187.28008111239
 20
833.8009780288345
 10
2187.455161111235
 20
833.5678909400828
 10
2187.579290597358
 20
833.3228955430895
  0
LINE
  5
9A4
330
8DE
100
AcDbEntity
  8
0
  6
Continuous
 62
     7
370
    15
100
AcDbLine
 10
2181.479742607111
 20
835.1005714781225
 30
0.0
 11
2182.70479501564
 21
834.7435374504737
 31
0.0
  0
LINE
  5
9A5
330
8DE
100
AcDbEntity
  8
0
  6
Continuous
 62
     7
370
    15
100
AcDbLine
 10
2189.230651381192
 20
834.4884115637858
 30
0.0
 11
2182.700055183423
 21
836.3917138610634
 31
0.0
  0
LINE
  5
9A6
330
8DE
100
AcDbEntity
  8
0
  6
Continuous
 62
     7
370
    15
100
AcDbLine
 10
2174.038401284307
 20
839.5953236763613
 30
0.0
 11
2174.561589347338
 21
839.4428437170869
 31
0.0
  0
LINE
  5
9A7
330
8DE
100
AcDbEntity
  8
0
  6
Continuous
 62
     7
370
    15
100
AcDbLine
 10
2174.038401284307
 20
839.5953236763613
 30
0.0
 11
2168.534251279403
 21
833.7716998841115
 31
0.0
  0
ARC
  5
9A8
330
8DE
100
AcDbEntity
  8
0
  6
Continuous
 62
     7
370
    15
100
AcDbCircle
 10
2189.870396065523
 20
834.9292005488223
 30
0.0
 40
0.1644011008317994
100
AcDbArc
 50
82.26458626293384
 51
146.0788684345529
  0
ARC
  5
9A9
330
8DE
100
AcDbEntity
  8
0
  6
Continuous
 62
     7
370
    15
100
AcDbCircle
 10
2184.182161600667
 20
827.5361222047513
 30
0.0
 40
2.901665858262187
100
AcDbArc
 50
69.03007812687018
 51
129.504753631028
  0
LINE
  5
9AA
330
8DE
100
AcDbEntity
  8
0
  6
Continuous
 62
     7
370
    15
100
AcDbLine
 10
2182.788712957098
 20
832.903635711156
 30
0.0
 11
2182.70479501564
 21
834.7435374504737
 31
0.0
  0
LINE
  5
9AB
330
8DE
100
AcDbEntity
  8
0
  6
Continuous
 62
     7
370
    15
100
AcDbLine
 10
2198.105542631458
 20
826.8589844746321
 30
0.0
 11
2197.120982879463
 21
827.1459283892507
 31
0.0
  0
LINE
  5
9AC
330
8DE
100
AcDbEntity
  8
0
  6
Continuous
 62
     7
370
    15
100
AcDbLine
 10
2159.509399246789
 20
831.4073005680059
 30
0.0
 11
2159.472102322167
 21
832.2250360282785
 31
0.0
  0
LINE
  5
9AD
330
8DE
100
AcDbEntity
  8
0
  6
Continuous
 62
     7
370
    15
100
AcDbLine
 10
2159.472102322167
 20
832.2250360282785
 30
0.0
 11
2161.209654128992
 21
835.9064089000774
 31
0.0
  0
LINE
  5
9AE
330
8DE
100
AcDbEntity
  8
0
  6
Continuous
 62
     7
370
    15
100
AcDbLine
 10
2161.209654128992
 20
835.9064089000774
 30
0.0
 11
2166.713804133896
 21
841.7300326923273
 31
0.0
  0
LWPOLYLINE
  5
9AF
330
8DE
100
AcDbEntity
  8
0
  6
Continuous
 62
     7
370
    15
100
AcDbPolyline
 90
        9
 70
   128
 43
0.0
 10
2166.713804133896
 20
841.7300326923273
 10
2166.761775829032
 20
841.7725500583882
 10
2166.808617056398
 20
841.7977260073239
 10
2166.852527580735
 20
841.8045754849387
 10
2166.891840510005
 20
841.792867633776
 10
2166.925011638487
 20
841.7630251052033
 10
2166.950798460179
 20
841.716211277523
 10
2166.968175108235
 20
841.6541891654512
 10
2166.976511924132
 20
841.5793964530445
  0
LINE
  5
9B0
330
8DE
100
AcDbEntity
  8
0
  6
Continuous
 62
     7
370
    15
100
AcDbLine
 10
2167.004484756541
 20
840.9660918115442
 30
0.0
 11
2165.784172180228
 21
839.6749494286034
 31
0.0
  0
LINE
  5
9B1
330
8DE
100
AcDbEntity
  8
0
  6
Continuous
 62
     7
370
    15
100
AcDbLine
 10
2165.784172180228
 20
839.6749494286034
 30
0.0
 11
2165.868090121687
 21
837.8350476892856
 31
0.0
  0
LINE
  5
9B2
330
8DE
100
AcDbEntity
  8
0
  6
Continuous
 62
     7
370
    15
100
AcDbLine
 10
2165.868090121687
 20
837.8350476892856
 30
0.0
 11
2161.572585779829
 21
833.290222191677
 31
0.0
  0
ARC
  5
9B3
330
8DE
100
AcDbEntity
  8
0
  6
Continuous
 62
     7
370
    15
100
AcDbCircle
 10
2162.355640544511
 20
831.4080210163186
 30
0.0
 40
2.038591677852998
100
AcDbArc
 50
112.5888435312899
 51
160.6420912025884
  0
LINE
  5
9B4
330
8DE
100
AcDbEntity
  8
0
  6
Continuous
 62
     7
370
    15
100
AcDbLine
 10
2159.818359175242
 20
831.4341761568908
 30
0.0
 11
2159.509399246789
 21
831.4073005680059
 31
0.0
  0
LINE
  5
9B5
330
8DE
100
AcDbEntity
  8
0
  6
Continuous
 62
     7
370
    15
100
AcDbLine
 10
2166.976511924132
 20
841.5793964530445
 30
0.0
 11
2167.004484756541
 21
840.9660918115442
 31
0.0
  0
LINE
  5
9B6
330
8DE
100
AcDbEntity
  8
0
  6
Continuous
 62
     7
370
    15
100
AcDbLine
 10
2161.209654128992
 20
835.9064089000774
 30
0.0
 11
2160.686466065962
 21
836.0588888593518
 31
0.0
  0
LINE
  5
9B7
330
8DE
100
AcDbEntity
  8
0
  6
Continuous
 62
     7
370
    15
100
AcDbLine
 10
2159.472102322167
 20
832.2250360282785
 30
0.0
 11
2158.948914259137
 21
832.3775159875529
 31
0.0
  0
LINE
  5
9B8
330
8DE
100
AcDbEntity
  8
0
  6
Continuous
 62
     7
370
    15
100
AcDbLine
 10
2160.686466065962
 20
836.0588888593518
 30
0.0
 11
2158.948914259137
 21
832.3775159875529
 31
0.0
  0
LINE
  5
9B9
330
8DE
100
AcDbEntity
  8
0
  6
Continuous
 62
     7
370
    15
100
AcDbLine
 10
2166.978835361436
 20
831.7146038351411
 30
0.0
 11
2166.98188040532
 21
831.6478412163146
 31
0.0
  0
LINE
  5
9BA
330
8DE
100
AcDbEntity
  8
0
  6
Continuous
 62
     7
370
    15
100
AcDbLine
 10
2167.492655141607
 20
831.5648542045758
 30
0.0
 11
2166.978835361436
 21
831.7146038351411
 31
0.0
  0
LINE
  5
9BB
330
8DE
100
AcDbEntity
  8
0
  6
Continuous
 62
     7
370
    15
100
AcDbLine
 10
2171.413312411321
 20
828.8084716364609
 30
0.0
 11
2171.338718562076
 21
830.4439425570063
 31
0.0
  0
LINE
  5
9BC
330
8DE
100
AcDbEntity
  8
0
  6
Continuous
 62
     7
370
    15
100
AcDbLine
 10
2171.413312411321
 20
828.8084716364609
 30
0.0
 11
2171.361452274068
 21
828.8235859561007
 31
0.0
  0
LINE
  5
9BD
330
8DE
100
AcDbEntity
  8
0
  6
Continuous
 62
     7
370
    15
100
AcDbLine
 10
2174.488504176865
 20
832.0621547511288
 30
0.0
 11
2174.41391032762
 21
833.6976256716742
 31
0.0
  0
LINE
  5
9BE
330
8DE
100
AcDbEntity
  8
0
  6
Continuous
 62
     7
370
    15
100
AcDbLine
 10
2174.488504176865
 20
832.0621547511288
 30
0.0
 11
2171.413312411321
 21
828.8084716364609
 31
0.0
  0
LINE
  5
9BF
330
8DE
100
AcDbEntity
  8
0
  6
Continuous
 62
     7
370
    15
100
AcDbLine
 10
2158.986211183759
 20
831.5597805272803
 30
0.0
 11
2159.509399246789
 21
831.4073005680059
 31
0.0
  0
LINE
  5
9C0
330
8DE
100
AcDbEntity
  8
0
  6
Continuous
 62
     7
370
    15
100
AcDbLine
 10
2158.948914259137
 20
832.3775159875529
 30
0.0
 11
2158.986211183759
 21
831.5597805272803
 31
0.0
  0
LINE
  5
9C1
330
8DE
100
AcDbEntity
  8
0
  6
Continuous
 62
     7
370
    15
100
AcDbLine
 10
2168.146384977132
 20
832.9499207713695
 30
0.0
 11
2166.978835361436
 21
831.7146038351411
 31
0.0
  0
LWPOLYLINE
  5
9C2
330
8DE
100
AcDbEntity
  8
0
  6
Continuous
 62
     7
370
    15
100
AcDbPolyline
 90
       17
 70
   128
 43
0.0
 10
2166.566125114179
 20
835.9848146469145
 10
2166.750584272823
 20
836.1478833606291
 10
2166.97760187285
 20
836.2926592735112
 10
2167.240956940168
 20
836.4151642035837
 10
2167.533477017147
 20
836.5120702684821
 10
2167.847172758639
 20
836.5807195523011
 10
2168.173505148011
 20
836.6192621719147
 10
2168.503555965911
 20
836.6266262262431
 10
2168.828332432851
 20
836.6026253234856
 10
2169.138968607802
 20
836.5478998847336
 10
2169.426997828604
 20
836.4639555309514
 10
2169.684562301833
 20
836.3530823679454
 10
2169.904630743214
 20
836.2182915563996
 10
2170.081207826758
 20
836.0632739005497
 10
2170.209464541536
 20
835.8922440684297
 10
2170.285923348444
 20
835.7098866290648
 10
2170.300600324161
 20
835.6405704679756
  0
LINE
  5
9C3
330
8DE
100
AcDbEntity
  8
0
  6
Continuous
 62
     7
370
    15
100
AcDbLine
 10
2163.490933348635
 20
832.7311315322468
 30
0.0
 11
2166.566125114179
 21
835.9848146469145
 31
0.0
  0
LINE
  5
9C4
330
8DE
100
AcDbEntity
  8
0
  6
Continuous
 62
     7
370
    15
100
AcDbLine
 10
2163.490933348635
 20
832.7311315322468
 30
0.0
 11
2161.572585779829
 21
833.290222191677
 31
0.0
  0
LINE
  5
9C5
330
8DE
100
AcDbEntity
  8
0
  6
Continuous
 62
     7
370
    15
100
AcDbLine
 10
2167.093142530215
 20
837.4780136616367
 30
0.0
 11
2165.868090121687
 21
837.8350476892856
 31
0.0
  0
ARC
  5
9C6
330
8DE
100
AcDbEntity
  8
0
  6
Continuous
 62
     7
370
    15
100
AcDbCircle
 10
2168.469317202106
 20
832.2580860924349
 30
0.0
 40
5.39828681669173
100
AcDbArc
 50
57.20978256654134
 51
104.769321164226
  0
LINE
  5
9C7
330
8DE
100
AcDbEntity
  8
0
  6
Continuous
 62
     7
370
    15
100
AcDbLine
 10
2163.442112699109
 20
832.6794772176155
 30
0.0
 11
2163.516706548354
 21
831.0440062970702
 31
0.0
  0
LINE
  5
9C8
330
8DE
100
AcDbEntity
  8
0
  6
Continuous
 62
     7
370
    15
100
AcDbLine
 10
2163.516706548354
 20
831.0440062970702
 30
0.0
 11
2162.552629645683
 21
830.0239721077865
 31
0.0
  0
LINE
  5
9C9
330
8DE
100
AcDbEntity
  8
0
  6
Continuous
 62
     7
370
    15
100
AcDbLine
 10
2179.731502135553
 20
835.6100854650458
 30
0.0
 11
2180.162553591438
 21
835.4844581560852
 31
0.0
  0
LWPOLYLINE
  5
9CA
330
8DE
100
AcDbEntity
  8
0
  6
Continuous
 62
     7
370
    15
100
AcDbPolyline
 90
       15
 70
   128
 43
0.0
 10
2174.857009802198
 20
837.0307264257141
 10
2175.290614734237
 20
837.113173539639
 10
2175.73551756008
 20
837.1655704281755
 10
2176.18529269898
 20
837.187159187265
 10
2176.633461048306
 20
837.177629401069
 10
2177.073574300276
 20
837.1371328310598
 10
2177.49927510707
 20
837.0662462499236
 10
2177.904413881213
 20
836.9659766634923
 10
2178.283160653047
 20
836.8377876046054
 10
2178.630044332568
 20
836.6835091651044
 10
2178.940075865809
 20
836.5053806280416
 10
2179.208789050489
 20
836.3059796781715
 10
2179.432295898948
 20
836.0881670040749
 10
2179.607375897794
 20
835.8550799153231
 10
2179.731502135553
 20
835.6100854650458
  0
LINE
  5
9CB
330
8DE
100
AcDbEntity
  8
0
  6
Continuous
 62
     7
370
    15
100
AcDbLine
 10
2173.631957393669
 20
837.3877604533628
 30
0.0
 11
2174.857009802198
 21
837.0307264257141
 31
0.0
  0
LINE
  5
9CC
330
8DE
100
AcDbEntity
  8
0
  6
Continuous
 62
     7
370
    15
100
AcDbLine
 10
2181.382866167751
 20
836.7756005390262
 30
0.0
 11
2174.852269969982
 21
838.6789028363038
 31
0.0
  0
LINE
  5
9CD
330
8DE
100
AcDbEntity
  8
0
  6
Continuous
 62
     7
370
    15
100
AcDbLine
 10
2179.756811735566
 20
835.0551722215044
 30
0.0
 11
2179.731502135553
 21
835.6100854650458
 31
0.0
  0
LINE
  5
9CE
330
8DE
100
AcDbEntity
  8
0
  6
Continuous
 62
     7
370
    15
100
AcDbLine
 10
2166.190616070867
 20
841.8825126516017
 30
0.0
 11
2166.713804133896
 21
841.7300326923273
 31
0.0
  0
LINE
  5
9CF
330
8DE
100
AcDbEntity
  8
0
  6
Continuous
 62
     7
370
    15
100
AcDbLine
 10
2166.190616070867
 20
841.8825126516017
 30
0.0
 11
2160.686466065962
 21
836.0588888593518
 31
0.0
  0
ARC
  5
9D0
330
8DE
100
AcDbEntity
  8
0
  6
Continuous
 62
     7
370
    15
100
AcDbCircle
 10
2182.022607603718
 20
837.2163904707786
 30
0.0
 40
0.1644011008317795
100
AcDbArc
 50
82.26458626294762
 51
146.078868434571
  0
ARC
  5
9D1
330
8DE
100
AcDbEntity
  8
0
  6
Continuous
 62
     7
370
    15
100
AcDbCircle
 10
2176.334376387226
 20
829.8233111799913
 30
0.0
 40
2.901665858262553
100
AcDbArc
 50
69.03007812687018
 51
129.504753631028
  0
LINE
  5
9D2
330
8DE
100
AcDbEntity
  8
0
  6
Continuous
 62
     7
370
    15
100
AcDbLine
 10
2174.940927743657
 20
835.1908246863963
 30
0.0
 11
2174.857009802198
 21
837.0307264257141
 31
0.0
  0
ARC
  5
9D3
330
8DE
100
AcDbEntity
  8
0
  6
Continuous
 62
     7
370
    15
100
AcDbCircle
 10
2154.507853706888
 20
833.6952104649167
 30
0.0
 40
2.038591677853142
100
AcDbArc
 50
112.5888435312899
 51
160.6420912025822
  0
LINE
  5
9D4
330
8DE
100
AcDbEntity
  8
0
  6
Continuous
 62
     7
370
    15
100
AcDbLine
 10
2151.970572337619
 20
833.721365605489
 30
0.0
 11
2151.661612409165
 21
833.6944900166042
 31
0.0
  0
LINE
  5
9D5
330
8DE
100
AcDbEntity
  8
0
  6
Continuous
 62
     7
370
    15
100
AcDbLine
 10
2151.661612409165
 20
833.6944900166042
 30
0.0
 11
2151.624315484543
 21
834.5122254768769
 31
0.0
  0
LINE
  5
9D6
330
8DE
100
AcDbEntity
  8
0
  6
Continuous
 62
     7
370
    15
100
AcDbLine
 10
2151.624315484543
 20
834.5122254768769
 30
0.0
 11
2153.361867291369
 21
838.1935983486757
 31
0.0
  0
LINE
  5
9D7
330
8DE
100
AcDbEntity
  8
0
  6
Continuous
 62
     7
370
    15
100
AcDbLine
 10
2153.361867291369
 20
838.1935983486757
 30
0.0
 11
2158.866017296273
 21
844.0172221409257
 31
0.0
  0
LWPOLYLINE
  5
9D8
330
8DE
100
AcDbEntity
  8
0
  6
Continuous
 62
     7
370
    15
100
AcDbPolyline
 90
        9
 70
   128
 43
0.0
 10
2158.866017296273
 20
844.0172221409257
 10
2158.913988991408
 20
844.0597395069865
 10
2158.960830218774
 20
844.0849154559222
 10
2159.004740743111
 20
844.0917649335371
 10
2159.044053672381
 20
844.0800570823745
 10
2159.077224800863
 20
844.0502145538015
 10
2159.103011622556
 20
844.0034007261212
 10
2159.120388270611
 20
843.9413786140494
 10
2159.128725086508
 20
843.8665859016428
  0
LINE
  5
9D9
330
8DE
100
AcDbEntity
  8
0
  6
Continuous
 62
     7
370
    15
100
AcDbLine
 10
2159.156697918917
 20
843.2532812601426
 30
0.0
 11
2157.936385342605
 21
841.9621388772016
 31
0.0
  0
LINE
  5
9DA
330
8DE
100
AcDbEntity
  8
0
  6
Continuous
 62
     7
370
    15
100
AcDbLine
 10
2157.936385342605
 20
841.9621388772016
 30
0.0
 11
2158.020303284063
 21
840.1222371378839
 31
0.0
  0
LINE
  5
9DB
330
8DE
100
AcDbEntity
  8
0
  6
Continuous
 62
     7
370
    15
100
AcDbLine
 10
2158.020303284063
 20
840.1222371378839
 30
0.0
 11
2153.724798942206
 21
835.5774116402752
 31
0.0
  0
LINE
  5
9DC
330
8DE
100
AcDbEntity
  8
0
  6
Continuous
 62
     7
370
    15
100
AcDbLine
 10
2159.128725086508
 20
843.8665859016428
 30
0.0
 11
2159.156697918917
 21
843.2532812601426
 31
0.0
  0
LINE
  5
9DD
330
8DE
100
AcDbEntity
  8
0
  6
Continuous
 62
     7
370
    15
100
AcDbLine
 10
2153.361867291369
 20
838.1935983486757
 30
0.0
 11
2152.838680852521
 21
838.3460778345922
 31
0.0
  0
LINE
  5
9DE
330
8DE
100
AcDbEntity
  8
0
  6
Continuous
 62
     7
370
    15
100
AcDbLine
 10
2151.624315484543
 20
834.5122254768769
 30
0.0
 11
2151.101129045696
 21
834.6647049627931
 31
0.0
  0
LINE
  5
9DF
330
8DE
100
AcDbEntity
  8
0
  6
Continuous
 62
     7
370
    15
100
AcDbLine
 10
2152.838680852521
 20
838.3460778345922
 30
0.0
 11
2151.101129045696
 21
834.6647049627931
 31
0.0
  0
LINE
  5
9E0
330
8DE
100
AcDbEntity
  8
0
  6
Continuous
 62
     7
370
    15
100
AcDbLine
 10
2159.131050147995
 20
834.0017928103815
 30
0.0
 11
2159.134095191879
 21
833.9350301915549
 31
0.0
  0
LINE
  5
9E1
330
8DE
100
AcDbEntity
  8
0
  6
Continuous
 62
     7
370
    15
100
AcDbLine
 10
2159.644869928166
 20
833.8520431798162
 30
0.0
 11
2159.131050147995
 21
834.0017928103815
 31
0.0
  0
LINE
  5
9E2
330
8DE
100
AcDbEntity
  8
0
  6
Continuous
 62
     7
370
    15
100
AcDbLine
 10
2163.56552719788
 20
831.0956606117013
 30
0.0
 11
2163.490933348635
 21
832.7311315322468
 31
0.0
  0
LINE
  5
9E3
330
8DE
100
AcDbEntity
  8
0
  6
Continuous
 62
     7
370
    15
100
AcDbLine
 10
2163.56552719788
 20
831.0956606117013
 30
0.0
 11
2163.513667060626
 21
831.1107749313411
 31
0.0
  0
LINE
  5
9E4
330
8DE
100
AcDbEntity
  8
0
  6
Continuous
 62
     7
370
    15
100
AcDbLine
 10
2166.640718963424
 20
834.3493437263692
 30
0.0
 11
2166.566125114179
 21
835.9848146469145
 31
0.0
  0
LINE
  5
9E5
330
8DE
100
AcDbEntity
  8
0
  6
Continuous
 62
     7
370
    15
100
AcDbLine
 10
2166.640718963424
 20
834.3493437263692
 30
0.0
 11
2163.56552719788
 21
831.0956606117013
 31
0.0
  0
LINE
  5
9E6
330
8DE
100
AcDbEntity
  8
0
  6
Continuous
 62
     7
370
    15
100
AcDbLine
 10
2151.138425970318
 20
833.8469695025205
 30
0.0
 11
2151.661612409165
 21
833.6944900166042
 31
0.0
  0
LINE
  5
9E7
330
8DE
100
AcDbEntity
  8
0
  6
Continuous
 62
     7
370
    15
100
AcDbLine
 10
2151.101129045696
 20
834.6647049627931
 30
0.0
 11
2151.138425970318
 21
833.8469695025205
 31
0.0
  0
LINE
  5
9E8
330
8DE
100
AcDbEntity
  8
0
  6
Continuous
 62
     7
370
    15
100
AcDbLine
 10
2160.298599763691
 20
835.2371097466098
 30
0.0
 11
2159.131050147995
 21
834.0017928103815
 31
0.0
  0
LWPOLYLINE
  5
9E9
330
8DE
100
AcDbEntity
  8
0
  6
Continuous
 62
     7
370
    15
100
AcDbPolyline
 90
       17
 70
   128
 43
0.0
 10
2158.718338276555
 20
838.2720040955129
 10
2158.902797435199
 20
838.4350728092273
 10
2159.129815035226
 20
838.5798487221094
 10
2159.393170102545
 20
838.7023536521821
 10
2159.685690179523
 20
838.7992597170804
 10
2159.999385921016
 20
838.8679090008995
 10
2160.32571993457
 20
838.9064511471552
 10
2160.655769128287
 20
838.9138156748416
 10
2160.980548843591
 20
838.8898138253681
 10
2161.29118339436
 20
838.8350888599742
 10
2161.579212615162
 20
838.7511445061916
 10
2161.836777088391
 20
838.6402713431859
 10
2162.056845529772
 20
838.5054805316398
 10
2162.233422613317
 20
838.3504628757901
 10
2162.361679328094
 20
838.1794330436701
 10
2162.438138135003
 20
837.9970756043052
 10
2162.452815110719
 20
837.9277594432162
  0
LINE
  5
9EA
330
8DE
100
AcDbEntity
  8
0
  6
Continuous
 62
     7
370
    15
100
AcDbLine
 10
2155.643146511011
 20
835.018320980845
 30
0.0
 11
2158.718338276555
 21
838.2720040955129
 31
0.0
  0
LINE
  5
9EB
330
8DE
100
AcDbEntity
  8
0
  6
Continuous
 62
     7
370
    15
100
AcDbLine
 10
2155.643146511011
 20
835.018320980845
 30
0.0
 11
2153.724798942206
 21
835.5774116402752
 31
0.0
  0
LINE
  5
9EC
330
8DE
100
AcDbEntity
  8
0
  6
Continuous
 62
     7
370
    15
100
AcDbLine
 10
2159.245355692592
 20
839.7652031102351
 30
0.0
 11
2158.020303284063
 21
840.1222371378839
 31
0.0
  0
ARC
  5
9ED
330
8DE
100
AcDbEntity
  8
0
  6
Continuous
 62
     7
370
    15
100
AcDbCircle
 10
2160.621530550248
 20
834.5452728988838
 30
0.0
 40
5.398289418901339
100
AcDbArc
 50
57.20978219849225
 51
104.769315921814
  0
LINE
  5
9EE
330
8DE
100
AcDbEntity
  8
0
  6
Continuous
 62
     7
370
    15
100
AcDbLine
 10
2155.594325861486
 20
834.9666666662139
 30
0.0
 11
2155.66891971073
 21
833.3311957456684
 31
0.0
  0
LINE
  5
9EF
330
8DE
100
AcDbEntity
  8
0
  6
Continuous
 62
     7
370
    15
100
AcDbLine
 10
2155.66891971073
 20
833.3311957456684
 30
0.0
 11
2154.70484280806
 21
832.3111615563847
 31
0.0
  0
LINE
  5
9F0
330
8DE
100
AcDbEntity
  8
0
  6
Continuous
 62
     7
370
    15
100
AcDbLine
 10
2171.883716922111
 20
837.8972744402862
 30
0.0
 11
2172.314768377997
 21
837.7716471313258
 31
0.0
  0
LWPOLYLINE
  5
9F1
330
8DE
100
AcDbEntity
  8
0
  6
Continuous
 62
     7
370
    15
100
AcDbPolyline
 90
       15
 70
   128
 43
0.0
 10
2167.009224588756
 20
839.3179154009544
 10
2167.442829520796
 20
839.4003625148794
 10
2167.887732346638
 20
839.4527594034158
 10
2168.337507485539
 20
839.4743481625054
 10
2168.785675834865
 20
839.4648183763093
 10
2169.225789086834
 20
839.4243218063001
 10
2169.651489893629
 20
839.3534352251638
 10
2170.056625419408
 20
839.2531665854487
 10
2170.435375439606
 20
839.1249765798457
 10
2170.782259119127
 20
838.9706981403447
 10
2171.092290652367
 20
838.7925696032819
 10
2171.361003837048
 20
838.5931686534119
 10
2171.584510685507
 20
838.3753559793154
 10
2171.759590684352
 20
838.1422688905635
 10
2171.883716922111
 20
837.8972744402862
  0
LINE
  5
9F2
330
8DE
100
AcDbEntity
  8
0
  6
Continuous
 62
     7
370
    15
100
AcDbLine
 10
2165.784172180228
 20
839.6749494286034
 30
0.0
 11
2167.009224588756
 21
839.3179154009544
 31
0.0
  0
LINE
  5
9F3
330
8DE
100
AcDbEntity
  8
0
  6
Continuous
 62
     7
370
    15
100
AcDbLine
 10
2173.53508095431
 20
839.0627895142666
 30
0.0
 11
2167.004484756541
 21
840.9660918115442
 31
0.0
  0
LINE
  5
9F4
330
8DE
100
AcDbEntity
  8
0
  6
Continuous
 62
     7
370
    15
100
AcDbLine
 10
2171.909026522124
 20
837.3423611967448
 30
0.0
 11
2171.883716922111
 21
837.8972744402862
 31
0.0
  0
LINE
  5
9F5
330
8DE
100
AcDbEntity
  8
0
  6
Continuous
 62
     7
370
    15
100
AcDbLine
 10
2158.342830857425
 20
844.1697016268419
 30
0.0
 11
2158.866017296273
 21
844.0172221409257
 31
0.0
  0
LINE
  5
9F6
330
8DE
100
AcDbEntity
  8
0
  6
Continuous
 62
     7
370
    15
100
AcDbLine
 10
2158.342830857425
 20
844.1697016268419
 30
0.0
 11
2152.838680852521
 21
838.3460778345922
 31
0.0
  0
ARC
  5
9F7
330
8DE
100
AcDbEntity
  8
0
  6
Continuous
 62
     7
370
    15
100
AcDbCircle
 10
2174.174822390276
 20
839.503579446019
 30
0.0
 40
0.1644011008318707
100
AcDbArc
 50
82.26458626296052
 51
146.0788684345475
  0
ARC
  5
9F8
330
8DE
100
AcDbEntity
  8
0
  6
Continuous
 62
     7
370
    15
100
AcDbCircle
 10
2168.486590822315
 20
832.1105023092092
 30
0.0
 40
2.901663972729761
100
AcDbArc
 50
69.03005642517476
 51
129.5047753327259
  0
LINE
  5
9F9
330
8DE
100
AcDbEntity
  8
0
  6
Continuous
 62
     7
370
    15
100
AcDbLine
 10
2167.093142530215
 20
837.4780136616367
 30
0.0
 11
2167.009224588756
 21
839.3179154009544
 31
0.0
  0
LINE
  5
9FA
330
8DE
100
AcDbEntity
  8
0
  6
Continuous
 62
     7
370
    15
100
AcDbLine
 10
2144.122787124178
 20
836.0085545807294
 30
0.0
 11
2143.813827195724
 21
835.9816789918445
 31
0.0
  0
LINE
  5
9FB
330
8DE
100
AcDbEntity
  8
0
  6
Continuous
 62
     7
370
    15
100
AcDbLine
 10
2143.813827195724
 20
835.9816789918445
 30
0.0
 11
2143.776530271102
 21
836.7994144521171
 31
0.0
  0
LINE
  5
9FC
330
8DE
100
AcDbEntity
  8
0
  6
Continuous
 62
     7
370
    15
100
AcDbLine
 10
2143.776530271102
 20
836.7994144521171
 30
0.0
 11
2145.514082077927
 21
840.480787323916
 31
0.0
  0
LINE
  5
9FD
330
8DE
100
AcDbEntity
  8
0
  6
Continuous
 62
     7
370
    15
100
AcDbLine
 10
2145.514082077927
 20
840.480787323916
 30
0.0
 11
2151.018232082831
 21
846.3044111161659
 31
0.0
  0
LWPOLYLINE
  5
9FE
330
8DE
100
AcDbEntity
  8
0
  6
Continuous
 62
     7
370
    15
100
AcDbPolyline
 90
        9
 70
   128
 43
0.0
 10
2151.018232082831
 20
846.3044111161659
 10
2151.066203777967
 20
846.3469284822268
 10
2151.113045005333
 20
846.3721044311625
 10
2151.156955529669
 20
846.3789539087775
 10
2151.19626845894
 20
846.3672460576148
 10
2151.229439587421
 20
846.3374035290421
 10
2151.255226409114
 20
846.2905897013616
 10
2151.27260305717
 20
846.2285675892898
 10
2151.280939873067
 20
846.1537748768833
  0
LINE
  5
9FF
330
8DE
100
AcDbEntity
  8
0
  6
Continuous
 62
     7
370
    15
100
AcDbLine
 10
2151.308912705475
 20
845.5404702353828
 30
0.0
 11
2150.088600129163
 21
844.249327852442
 31
0.0
  0
LINE
  5
A00
330
8DE
100
AcDbEntity
  8
0
  6
Continuous
 62
     7
370
    15
100
AcDbLine
 10
2150.088600129163
 20
844.249327852442
 30
0.0
 11
2150.172518070622
 21
842.4094261131243
 31
0.0
  0
LINE
  5
A01
330
8DE
100
AcDbEntity
  8
0
  6
Continuous
 62
     7
370
    15
100
AcDbLine
 10
2150.172518070622
 20
842.4094261131243
 30
0.0
 11
2145.877013728765
 21
837.8646006155156
 31
0.0
  0
ARC
  5
A02
330
8DE
100
AcDbEntity
  8
0
  6
Continuous
 62
     7
370
    15
100
AcDbCircle
 10
2146.660068493447
 20
835.9823994401573
 30
0.0
 40
2.038591677853072
100
AcDbArc
 50
112.5888435312899
 51
160.6420912025822
  0
LINE
  5
A03
330
8DE
100
AcDbEntity
  8
0
  6
Continuous
 62
     7
370
    15
100
AcDbLine
 10
2151.280939873067
 20
846.1537748768833
 30
0.0
 11
2151.308912705475
 21
845.5404702353828
 31
0.0
  0
LINE
  5
A04
330
8DE
100
AcDbEntity
  8
0
  6
Continuous
 62
     7
370
    15
100
AcDbLine
 10
2145.514082077927
 20
840.480787323916
 30
0.0
 11
2144.990895639079
 21
840.6332668098325
 31
0.0
  0
LINE
  5
A05
330
8DE
100
AcDbEntity
  8
0
  6
Continuous
 62
     7
370
    15
100
AcDbLine
 10
2143.776530271102
 20
836.7994144521171
 30
0.0
 11
2143.253343832254
 21
836.9518939380336
 31
0.0
  0
LINE
  5
A06
330
8DE
100
AcDbEntity
  8
0
  6
Continuous
 62
     7
370
    15
100
AcDbLine
 10
2144.990895639079
 20
840.6332668098325
 30
0.0
 11
2143.253343832254
 21
836.9518939380336
 31
0.0
  0
LINE
  5
A07
330
8DE
100
AcDbEntity
  8
0
  6
Continuous
 62
     7
370
    15
100
AcDbLine
 10
2151.283264934553
 20
836.2889817856219
 30
0.0
 11
2151.286309978437
 21
836.2222191667951
 31
0.0
  0
LINE
  5
A08
330
8DE
100
AcDbEntity
  8
0
  6
Continuous
 62
     7
370
    15
100
AcDbLine
 10
2151.797086338907
 20
836.1392316816987
 30
0.0
 11
2151.283264934553
 21
836.2889817856219
 31
0.0
  0
LINE
  5
A09
330
8DE
100
AcDbEntity
  8
0
  6
Continuous
 62
     7
370
    15
100
AcDbLine
 10
2155.717740360255
 20
833.3828500602997
 30
0.0
 11
2155.643146511011
 21
835.018320980845
 31
0.0
  0
LINE
  5
A0A
330
8DE
100
AcDbEntity
  8
0
  6
Continuous
 62
     7
370
    15
100
AcDbLine
 10
2155.717740360255
 20
833.3828500602997
 30
0.0
 11
2155.665881847184
 21
833.3979639065814
 31
0.0
  0
LINE
  5
A0B
330
8DE
100
AcDbEntity
  8
0
  6
Continuous
 62
     7
370
    15
100
AcDbLine
 10
2158.7929321258
 20
836.6365331749674
 30
0.0
 11
2158.718338276555
 21
838.2720040955129
 31
0.0
  0
LINE
  5
A0C
330
8DE
100
AcDbEntity
  8
0
  6
Continuous
 62
     7
370
    15
100
AcDbLine
 10
2158.7929321258
 20
836.6365331749674
 30
0.0
 11
2155.717740360255
 21
833.3828500602997
 31
0.0
  0
LINE
  5
A0D
330
8DE
100
AcDbEntity
  8
0
  6
Continuous
 62
     7
370
    15
100
AcDbLine
 10
2143.290640756876
 20
836.134158477761
 30
0.0
 11
2143.813827195724
 21
835.9816789918445
 31
0.0
  0
LINE
  5
A0E
330
8DE
100
AcDbEntity
  8
0
  6
Continuous
 62
     7
370
    15
100
AcDbLine
 10
2143.253343832254
 20
836.9518939380336
 30
0.0
 11
2143.290640756876
 21
836.134158477761
 31
0.0
  0
LINE
  5
A0F
330
8DE
100
AcDbEntity
  8
0
  6
Continuous
 62
     7
370
    15
100
AcDbLine
 10
2152.450814550249
 20
837.5242987218502
 30
0.0
 11
2151.283264934553
 21
836.2889817856219
 31
0.0
  0
LWPOLYLINE
  5
A10
330
8DE
100
AcDbEntity
  8
0
  6
Continuous
 62
     7
370
    15
100
AcDbPolyline
 90
       17
 70
   128
 43
0.0
 10
2150.870553063114
 20
840.5591930707533
 10
2151.055012221758
 20
840.7222617844677
 10
2151.282029821785
 20
840.8670376973498
 10
2151.545384889103
 20
840.9895426274225
 10
2151.837904966082
 20
841.0864486923207
 10
2152.151600707574
 20
841.1550979761397
 10
2152.477933096947
 20
841.1936405957535
 10
2152.807983914847
 20
841.2010046500817
 10
2153.132762005968
 20
841.1770032739664
 10
2153.44339818092
 20
841.1222778352144
 10
2153.731425777539
 20
841.03833395479
 10
2153.98899187495
 20
840.9274603184263
 10
2154.209060316331
 20
840.7926695068804
 10
2154.385637399876
 20
840.6376518510304
 10
2154.513894114653
 20
840.4666220189104
 10
2154.590352921561
 20
840.2842645795455
 10
2154.605028273095
 20
840.2149488918144
  0
LINE
  5
A11
330
8DE
100
AcDbEntity
  8
0
  6
Continuous
 62
     7
370
    15
100
AcDbLine
 10
2147.795361297569
 20
837.3055099560854
 30
0.0
 11
2150.870553063114
 21
840.5591930707533
 31
0.0
  0
LINE
  5
A12
330
8DE
100
AcDbEntity
  8
0
  6
Continuous
 62
     7
370
    15
100
AcDbLine
 10
2147.795361297569
 20
837.3055099560854
 30
0.0
 11
2145.877013728765
 21
837.8646006155156
 31
0.0
  0
LINE
  5
A13
330
8DE
100
AcDbEntity
  8
0
  6
Continuous
 62
     7
370
    15
100
AcDbLine
 10
2151.39757047915
 20
842.0523920854755
 30
0.0
 11
2150.172518070622
 21
842.4094261131243
 31
0.0
  0
ARC
  5
A14
330
8DE
100
AcDbEntity
  8
0
  6
Continuous
 62
     7
370
    15
100
AcDbCircle
 10
2152.773745309767
 20
836.8324655172477
 30
0.0
 40
5.398285889253386
100
AcDbArc
 50
57.20977822916689
 51
104.7693255016083
  0
LINE
  5
A15
330
8DE
100
AcDbEntity
  8
0
  6
Continuous
 62
     7
370
    15
100
AcDbLine
 10
2147.746540648044
 20
837.2538556414543
 30
0.0
 11
2147.821134497289
 21
835.618384720909
 31
0.0
  0
LINE
  5
A16
330
8DE
100
AcDbEntity
  8
0
  6
Continuous
 62
     7
370
    15
100
AcDbLine
 10
2147.821134497289
 20
835.618384720909
 30
0.0
 11
2146.857057594619
 21
834.5983505316251
 31
0.0
  0
LINE
  5
A17
330
8DE
100
AcDbEntity
  8
0
  6
Continuous
 62
     7
370
    15
100
AcDbLine
 10
2164.035931708669
 20
840.1844634155265
 30
0.0
 11
2164.466983164555
 21
840.0588361065661
 31
0.0
  0
LWPOLYLINE
  5
A18
330
8DE
100
AcDbEntity
  8
0
  6
Continuous
 62
     7
370
    15
100
AcDbPolyline
 90
       15
 70
   128
 43
0.0
 10
2159.161437751133
 20
841.6051048495528
 10
2159.595044307355
 20
841.6875514901198
 10
2160.039945509015
 20
841.7399488520141
 10
2160.489722272098
 20
841.7615371377458
 10
2160.937890621423
 20
841.7520073515497
 10
2161.378002249211
 20
841.7115112548986
 10
2161.803703056005
 20
841.6406246737622
 10
2162.208840205966
 20
841.5403555606889
 10
2162.587590226165
 20
841.4121655550861
 10
2162.934473905686
 20
841.2578871155851
 10
2163.244505438925
 20
841.0797585785223
 10
2163.513218623606
 20
840.8803576286524
 10
2163.736725472066
 20
840.6625449545556
 10
2163.911805470911
 20
840.4294578658038
 10
2164.035931708669
 20
840.1844634155265
  0
LINE
  5
A19
330
8DE
100
AcDbEntity
  8
0
  6
Continuous
 62
     7
370
    15
100
AcDbLine
 10
2157.936385342605
 20
841.9621388772016
 30
0.0
 11
2159.161437751133
 21
841.6051048495528
 31
0.0
  0
LINE
  5
A1A
330
8DE
100
AcDbEntity
  8
0
  6
Continuous
 62
     7
370
    15
100
AcDbLine
 10
2165.687295740868
 20
841.3499784895069
 30
0.0
 11
2159.156697918917
 21
843.2532812601426
 31
0.0
  0
LINE
  5
A1B
330
8DE
100
AcDbEntity
  8
0
  6
Continuous
 62
     7
370
    15
100
AcDbLine
 10
2164.061241308683
 20
839.6295501719851
 30
0.0
 11
2164.035931708669
 21
840.1844634155265
 31
0.0
  0
LINE
  5
A1C
330
8DE
100
AcDbEntity
  8
0
  6
Continuous
 62
     7
370
    15
100
AcDbLine
 10
2150.495045643983
 20
846.4568906020824
 30
0.0
 11
2151.018232082831
 21
846.3044111161659
 31
0.0
  0
LINE
  5
A1D
330
8DE
100
AcDbEntity
  8
0
  6
Continuous
 62
     7
370
    15
100
AcDbLine
 10
2150.495045643983
 20
846.4568906020824
 30
0.0
 11
2144.990895639079
 21
840.6332668098325
 31
0.0
  0
ARC
  5
A1E
330
8DE
100
AcDbEntity
  8
0
  6
Continuous
 62
     7
370
    15
100
AcDbCircle
 10
2166.327037176834
 20
841.7907684212593
 30
0.0
 40
0.1644011008318783
100
AcDbArc
 50
82.26458626296052
 51
146.0788684345475
  0
ARC
  5
A1F
330
8DE
100
AcDbEntity
  8
0
  6
Continuous
 62
     7
370
    15
100
AcDbCircle
 10
2160.638804564196
 20
834.397689064861
 30
0.0
 40
2.901666419178441
100
AcDbArc
 50
69.03005284832087
 51
129.5047503351373
  0
LINE
  5
A20
330
8DE
100
AcDbEntity
  8
0
  6
Continuous
 62
     7
370
    15
100
AcDbLine
 10
2159.245355692592
 20
839.7652031102351
 30
0.0
 11
2159.161437751133
 21
841.6051048495528
 31
0.0
  0
LINE
  5
A21
330
8DE
100
AcDbEntity
  8
0
  6
Continuous
 62
     7
370
    15
100
AcDbLine
 10
2127.050779562217
 20
837.9498856428822
 30
0.0
 11
2126.527593833949
 21
838.1023649217045
 31
0.0
  0
LINE
  5
A22
330
8DE
100
AcDbEntity
  8
0
  6
Continuous
 62
     7
370
    15
100
AcDbLine
 10
2126.527593833949
 20
838.1023649217045
 30
0.0
 11
2134.825736809603
 21
846.8821515956602
 31
0.0
  0
LINE
  5
A23
330
8DE
100
AcDbEntity
  8
0
  6
Continuous
 62
     7
370
    15
100
AcDbLine
 10
2135.701998732619
 20
846.6267704205595
 30
0.0
 11
2134.825736809603
 21
846.8821515956602
 31
0.0
  0
ARC
  5
A24
330
8DE
100
AcDbEntity
  8
0
  6
Continuous
 62
     7
370
    15
100
AcDbCircle
 10
2137.078173442484
 20
841.4068399922445
 30
0.0
 40
5.398289591020271
100
AcDbArc
 50
57.20978535428625
 51
104.7693138179719
  0
LINE
  5
A25
330
8DE
100
AcDbEntity
  8
0
  6
Continuous
 62
     7
370
    15
100
AcDbLine
 10
2136.101514693887
 20
840.7136099871978
 30
0.0
 11
2135.587694101625
 21
840.8633598544421
 31
0.0
  0
LINE
  5
A26
330
8DE
100
AcDbEntity
  8
0
  6
Continuous
 62
     7
370
    15
100
AcDbLine
 10
2136.755243717321
 20
842.0986767906704
 30
0.0
 11
2135.587694101625
 21
840.8633598544421
 31
0.0
  0
LWPOLYLINE
  5
A27
330
8DE
100
AcDbEntity
  8
0
  6
Continuous
 62
     7
370
    15
100
AcDbPolyline
 90
       17
 70
   128
 43
0.0
 10
2135.174981418094
 20
845.1335713762524
 10
2135.359441185807
 20
845.2966399124576
 10
2135.586458582811
 20
845.4414158845095
 10
2135.849813244083
 20
845.5639209329216
 10
2136.142334336177
 20
845.6608267019712
 10
2136.4560294686
 20
845.7294761632995
 10
2136.782362467041
 20
845.7680186054039
 10
2137.112413284941
 20
845.7753826597324
 10
2137.437191579085
 20
845.7513812244471
 10
2137.747826129854
 20
845.6966562590531
 10
2138.035855350656
 20
845.6127119052707
 10
2138.293421448067
 20
845.501838268907
 10
2138.513488671311
 20
845.3670478123795
 10
2138.690065754856
 20
845.2120301565296
 10
2138.81832287568
 20
845.0410002060701
 10
2138.894781276542
 20
844.8586428850447
 10
2138.909457846213
 20
844.7893268422951
  0
LINE
  5
A28
330
8DE
100
AcDbEntity
  8
0
  6
Continuous
 62
     7
370
    15
100
AcDbLine
 10
2132.09978965255
 20
841.8798882615845
 30
0.0
 11
2135.174981418094
 21
845.1335713762524
 31
0.0
  0
LINE
  5
A29
330
8DE
100
AcDbEntity
  8
0
  6
Continuous
 62
     7
370
    15
100
AcDbLine
 10
2132.09978965255
 20
841.8798882615845
 30
0.0
 11
2131.053418196014
 21
842.184846819229
 31
0.0
  0
LINE
  5
A2A
330
8DE
100
AcDbEntity
  8
0
  6
Continuous
 62
     7
370
    15
100
AcDbLine
 10
2131.053418196014
 20
842.184846819229
 30
0.0
 11
2127.050779562217
 21
837.9498856428822
 31
0.0
  0
LINE
  5
A2B
330
8DE
100
AcDbEntity
  8
0
  6
Continuous
 62
     7
370
    15
100
AcDbLine
 10
2136.275001098645
 20
838.2957437926487
 30
0.0
 11
2135.966041170192
 21
838.268868203764
 31
0.0
  0
LINE
  5
A2C
330
8DE
100
AcDbEntity
  8
0
  6
Continuous
 62
     7
370
    15
100
AcDbLine
 10
2135.966041170192
 20
838.268868203764
 30
0.0
 11
2135.928744245569
 21
839.0866036640366
 31
0.0
  0
LINE
  5
A2D
330
8DE
100
AcDbEntity
  8
0
  6
Continuous
 62
     7
370
    15
100
AcDbLine
 10
2135.928744245569
 20
839.0866036640366
 30
0.0
 11
2137.666296052394
 21
842.7679765358355
 31
0.0
  0
LINE
  5
A2E
330
8DE
100
AcDbEntity
  8
0
  6
Continuous
 62
     7
370
    15
100
AcDbLine
 10
2137.666296052394
 20
842.7679765358355
 30
0.0
 11
2143.170446057299
 21
848.5916003280854
 31
0.0
  0
LWPOLYLINE
  5
A2F
330
8DE
100
AcDbEntity
  8
0
  6
Continuous
 62
     7
370
    15
100
AcDbPolyline
 90
        9
 70
   128
 43
0.0
 10
2143.170446057299
 20
848.5916003280854
 10
2143.218417752434
 20
848.6341176941461
 10
2143.2652589798
 20
848.6592936430819
 10
2143.309169504137
 20
848.6661431206968
 10
2143.348482433408
 20
848.6544352695341
 10
2143.381653561889
 20
848.6245927409614
 10
2143.407440383581
 20
848.5777789132809
 10
2143.424817031637
 20
848.5157568012091
 10
2143.433153847535
 20
848.4409640888024
  0
LINE
  5
A30
330
8DE
100
AcDbEntity
  8
0
  6
Continuous
 62
     7
370
    15
100
AcDbLine
 10
2143.461126679943
 20
847.8276594473022
 30
0.0
 11
2142.24081410363
 21
846.5365170643613
 31
0.0
  0
LINE
  5
A31
330
8DE
100
AcDbEntity
  8
0
  6
Continuous
 62
     7
370
    15
100
AcDbLine
 10
2142.24081410363
 20
846.5365170643613
 30
0.0
 11
2142.324732045089
 21
844.6966153250437
 31
0.0
  0
LINE
  5
A32
330
8DE
100
AcDbEntity
  8
0
  6
Continuous
 62
     7
370
    15
100
AcDbLine
 10
2142.324732045089
 20
844.6966153250437
 30
0.0
 11
2138.029227703232
 21
840.1517898274349
 31
0.0
  0
ARC
  5
A33
330
8DE
100
AcDbEntity
  8
0
  6
Continuous
 62
     7
370
    15
100
AcDbCircle
 10
2138.812282467914
 20
838.2695886520766
 30
0.0
 40
2.038591677853057
100
AcDbArc
 50
112.5888435312899
 51
160.6420912025884
  0
LINE
  5
A34
330
8DE
100
AcDbEntity
  8
0
  6
Continuous
 62
     7
370
    15
100
AcDbLine
 10
2143.433153847535
 20
848.4409640888024
 30
0.0
 11
2143.461126679943
 21
847.8276594473022
 31
0.0
  0
LINE
  5
A35
330
8DE
100
AcDbEntity
  8
0
  6
Continuous
 62
     7
370
    15
100
AcDbLine
 10
2137.666296052394
 20
842.7679765358355
 30
0.0
 11
2137.143110425638
 21
842.9204557850731
 31
0.0
  0
LINE
  5
A36
330
8DE
100
AcDbEntity
  8
0
  6
Continuous
 62
     7
370
    15
100
AcDbLine
 10
2135.405558618812
 20
839.239082913274
 30
0.0
 11
2135.928744245569
 21
839.0866036640366
 31
0.0
  0
LINE
  5
A37
330
8DE
100
AcDbEntity
  8
0
  6
Continuous
 62
     7
370
    15
100
AcDbLine
 10
2137.143110425638
 20
842.9204557850731
 30
0.0
 11
2135.405558618812
 21
839.239082913274
 31
0.0
  0
LINE
  5
A38
330
8DE
100
AcDbEntity
  8
0
  6
Continuous
 62
     7
370
    15
100
AcDbLine
 10
2143.435479721112
 20
838.5761707608621
 30
0.0
 11
2143.438524764996
 21
838.5094081420357
 31
0.0
  0
LINE
  5
A39
330
8DE
100
AcDbEntity
  8
0
  6
Continuous
 62
     7
370
    15
100
AcDbLine
 10
2143.949299501283
 20
838.4264211302971
 30
0.0
 11
2143.435479721112
 21
838.5761707608621
 31
0.0
  0
LINE
  5
A3A
330
8DE
100
AcDbEntity
  8
0
  6
Continuous
 62
     7
370
    15
100
AcDbLine
 10
2147.869955146815
 20
835.6700390355401
 30
0.0
 11
2147.795361297569
 21
837.3055099560854
 31
0.0
  0
LINE
  5
A3B
330
8DE
100
AcDbEntity
  8
0
  6
Continuous
 62
     7
370
    15
100
AcDbLine
 10
2147.869955146815
 20
835.6700390355401
 30
0.0
 11
2147.818096633743
 21
835.6851528818218
 31
0.0
  0
LINE
  5
A3C
330
8DE
100
AcDbEntity
  8
0
  6
Continuous
 62
     7
370
    15
100
AcDbLine
 10
2150.945146912359
 20
838.923722150208
 30
0.0
 11
2150.870553063114
 21
840.5591930707533
 31
0.0
  0
LINE
  5
A3D
330
8DE
100
AcDbEntity
  8
0
  6
Continuous
 62
     7
370
    15
100
AcDbLine
 10
2150.945146912359
 20
838.923722150208
 30
0.0
 11
2147.869955146815
 21
835.6700390355401
 31
0.0
  0
LINE
  5
A3E
330
8DE
100
AcDbEntity
  8
0
  6
Continuous
 62
     7
370
    15
100
AcDbLine
 10
2135.442855543435
 20
838.4213474530012
 30
0.0
 11
2135.966041170192
 21
838.268868203764
 31
0.0
  0
LINE
  5
A3F
330
8DE
100
AcDbEntity
  8
0
  6
Continuous
 62
     7
370
    15
100
AcDbLine
 10
2135.405558618812
 20
839.239082913274
 30
0.0
 11
2135.442855543435
 21
838.4213474530012
 31
0.0
  0
LINE
  5
A40
330
8DE
100
AcDbEntity
  8
0
  6
Continuous
 62
     7
370
    15
100
AcDbLine
 10
2144.603029336808
 20
839.8114876970906
 30
0.0
 11
2143.435479721112
 21
838.5761707608621
 31
0.0
  0
LWPOLYLINE
  5
A41
330
8DE
100
AcDbEntity
  8
0
  6
Continuous
 62
     7
370
    15
100
AcDbPolyline
 90
       17
 70
   128
 43
0.0
 10
2143.022767037582
 20
842.8463822826726
 10
2143.207227008316
 20
843.0094507597083
 10
2143.434243796253
 20
843.1542269092693
 10
2143.697598863571
 20
843.2767318393418
 10
2143.990119752641
 20
843.3736376675611
 10
2144.303814682041
 20
843.4422871880592
 10
2144.630147883505
 20
843.4808295709938
 10
2144.960198701405
 20
843.4881936253223
 10
2145.284976792527
 20
843.4641922492067
 10
2145.595612155387
 20
843.4094670471338
 10
2145.883640564098
 20
843.3255229300304
 10
2146.1412074736
 20
843.2146490569875
 10
2146.361274290799
 20
843.0798587187997
 10
2146.537851374343
 20
842.9248410629497
 10
2146.666108901212
 20
842.7538109941508
 10
2146.742566896028
 20
842.5714537914648
 10
2146.757243059654
 20
842.5021378670548
  0
LINE
  5
A42
330
8DE
100
AcDbEntity
  8
0
  6
Continuous
 62
     7
370
    15
100
AcDbLine
 10
2139.947575272037
 20
839.5926991680047
 30
0.0
 11
2143.022767037582
 21
842.8463822826726
 31
0.0
  0
LINE
  5
A43
330
8DE
100
AcDbEntity
  8
0
  6
Continuous
 62
     7
370
    15
100
AcDbLine
 10
2139.947575272037
 20
839.5926991680047
 30
0.0
 11
2138.029227703232
 21
840.1517898274349
 31
0.0
  0
LINE
  5
A44
330
8DE
100
AcDbEntity
  8
0
  6
Continuous
 62
     7
370
    15
100
AcDbLine
 10
2143.549784453618
 20
844.3395812973948
 30
0.0
 11
2142.324732045089
 21
844.6966153250437
 31
0.0
  0
ARC
  5
A45
330
8DE
100
AcDbEntity
  8
0
  6
Continuous
 62
     7
370
    15
100
AcDbCircle
 10
2144.925959377118
 20
839.1196534080933
 30
0.0
 40
5.398287190357423
100
AcDbArc
 50
57.20977804514235
 51
104.7693228804031
  0
ARC
  5
A46
330
8DE
100
AcDbEntity
  8
0
  6
Continuous
 62
     7
370
    15
100
AcDbCircle
 10
2127.838909764315
 20
837.3119460077823
 30
0.0
 40
1.013960646914634
100
AcDbArc
 50
141.0121035484548
 51
181.6472563657865
  0
LINE
  5
A47
330
8DE
100
AcDbEntity
  8
0
  6
Continuous
 62
     7
370
    15
100
AcDbLine
 10
2131.056463239898
 20
842.1180842004025
 30
0.0
 11
2131.053418196014
 21
842.184846819229
 31
0.0
  0
ARC
  5
A48
330
8DE
100
AcDbEntity
  8
0
  6
Continuous
 62
     7
370
    15
100
AcDbCircle
 10
2127.315724036048
 20
837.4644252866046
 30
0.0
 40
1.013960646914612
100
AcDbArc
 50
141.0121035484548
 51
181.6472563657865
  0
LINE
  5
A49
330
8DE
100
AcDbEntity
  8
0
  6
Continuous
 62
     7
370
    15
100
AcDbLine
 10
2139.898754622511
 20
839.5410448533736
 30
0.0
 11
2139.973348471756
 21
837.9055739328283
 31
0.0
  0
LINE
  5
A4A
330
8DE
100
AcDbEntity
  8
0
  6
Continuous
 62
     7
370
    15
100
AcDbLine
 10
2139.973348471756
 20
837.9055739328283
 30
0.0
 11
2139.009271569086
 21
836.8855397435446
 31
0.0
  0
LINE
  5
A4B
330
8DE
100
AcDbEntity
  8
0
  6
Continuous
 62
     7
370
    15
100
AcDbLine
 10
2156.188146495228
 20
842.4716523907669
 30
0.0
 11
2156.619197951114
 21
842.3460250818065
 31
0.0
  0
LWPOLYLINE
  5
A4C
330
8DE
100
AcDbEntity
  8
0
  6
Continuous
 62
     7
370
    15
100
AcDbPolyline
 90
       15
 70
   128
 43
0.0
 10
2151.313652537691
 20
843.892293824793
 10
2151.747259093913
 20
843.9747404653601
 10
2152.192160295574
 20
844.0271378272546
 10
2152.641937058656
 20
844.048726112986
 10
2153.090105407981
 20
844.03919632679
 10
2153.530217035769
 20
843.9987002301389
 10
2153.955917842564
 20
843.9278136490026
 10
2154.361054992525
 20
843.8275445359293
 10
2154.739805012723
 20
843.6993545303264
 10
2155.086688692244
 20
843.5450760908254
 10
2155.396718601302
 20
843.3669480271205
 10
2155.665431785982
 20
843.1675470772507
 10
2155.888940258624
 20
842.9497339297961
 10
2156.064018633288
 20
842.7166473144023
 10
2156.188146495228
 20
842.4716523907669
  0
LINE
  5
A4D
330
8DE
100
AcDbEntity
  8
0
  6
Continuous
 62
     7
370
    15
100
AcDbLine
 10
2150.088600129163
 20
844.249327852442
 30
0.0
 11
2151.313652537691
 21
843.892293824793
 31
0.0
  0
LINE
  5
A4E
330
8DE
100
AcDbEntity
  8
0
  6
Continuous
 62
     7
370
    15
100
AcDbLine
 10
2157.839510527427
 20
843.6371674647473
 30
0.0
 11
2151.308912705475
 21
845.5404702353828
 31
0.0
  0
LINE
  5
A4F
330
8DE
100
AcDbEntity
  8
0
  6
Continuous
 62
     7
370
    15
100
AcDbLine
 10
2156.213456095241
 20
841.9167391472255
 30
0.0
 11
2156.188146495228
 21
842.4716523907669
 31
0.0
  0
LINE
  5
A50
330
8DE
100
AcDbEntity
  8
0
  6
Continuous
 62
     7
370
    15
100
AcDbLine
 10
2142.647260430543
 20
848.7440795773228
 30
0.0
 11
2143.170446057299
 21
848.5916003280854
 31
0.0
  0
LINE
  5
A51
330
8DE
100
AcDbEntity
  8
0
  6
Continuous
 62
     7
370
    15
100
AcDbLine
 10
2142.647260430543
 20
848.7440795773228
 30
0.0
 11
2137.143110425638
 21
842.9204557850731
 31
0.0
  0
ARC
  5
A52
330
8DE
100
AcDbEntity
  8
0
  6
Continuous
 62
     7
370
    15
100
AcDbCircle
 10
2158.479251963393
 20
844.0779573964999
 30
0.0
 40
0.1644011008317795
100
AcDbArc
 50
82.26458626293384
 51
146.078868434571
  0
ARC
  5
A53
330
8DE
100
AcDbEntity
  8
0
  6
Continuous
 62
     7
370
    15
100
AcDbCircle
 10
2152.79101917502
 20
836.6848791170896
 30
0.0
 40
2.901665476412548
100
AcDbArc
 50
69.03004199748533
 51
129.5047611859841
  0
LINE
  5
A54
330
8DE
100
AcDbEntity
  8
0
  6
Continuous
 62
     7
370
    15
100
AcDbLine
 10
2151.39757047915
 20
842.0523920854755
 30
0.0
 11
2151.313652537691
 21
843.892293824793
 31
0.0
  0
LINE
  5
A55
330
8DE
100
AcDbEntity
  8
0
  6
Continuous
 62
     7
370
    15
100
AcDbLine
 10
2143.097360886827
 20
841.2109113621273
 30
0.0
 11
2143.022767037582
 21
842.8463822826726
 31
0.0
  0
LINE
  5
A56
330
8DE
100
AcDbEntity
  8
0
  6
Continuous
 62
     7
370
    15
100
AcDbLine
 10
2140.022169121282
 20
837.9572282474594
 30
0.0
 11
2139.947575272037
 21
839.5926991680047
 31
0.0
  0
LINE
  5
A57
330
8DE
100
AcDbEntity
  8
0
  6
Continuous
 62
     7
370
    15
100
AcDbLine
 10
2143.097360886827
 20
841.2109113621273
 30
0.0
 11
2140.022169121282
 21
837.9572282474594
 31
0.0
  0
LINE
  5
A58
330
8DE
100
AcDbEntity
  8
0
  6
Continuous
 62
     7
370
    15
100
AcDbLine
 10
2135.587694101625
 20
840.8633598544421
 30
0.0
 11
2135.590739145509
 21
840.7965972356155
 31
0.0
  0
LINE
  5
A59
330
8DE
100
AcDbEntity
  8
0
  6
Continuous
 62
     7
370
    15
100
AcDbLine
 10
2140.022169121282
 20
837.9572282474594
 30
0.0
 11
2139.970311420302
 21
837.9723418570621
 31
0.0
  0
LINE
  5
A5A
330
8DE
100
AcDbEntity
  8
0
  6
Continuous
 62
     7
370
    15
100
AcDbLine
 10
2132.050969003024
 20
841.8282339469534
 30
0.0
 11
2132.125562852269
 21
840.1927630264081
 31
0.0
  0
LINE
  5
A5B
330
8DE
100
AcDbEntity
  8
0
  6
Continuous
 62
     7
370
    15
100
AcDbLine
 10
2132.125562852269
 20
840.1927630264081
 30
0.0
 11
2131.161485949599
 21
839.1727288371244
 31
0.0
  0
LINE
  5
A5C
330
8DE
100
AcDbEntity
  8
0
  6
Continuous
 62
     7
370
    15
100
AcDbLine
 10
2148.340361281787
 20
844.7588413660072
 30
0.0
 11
2148.771412737673
 21
844.6332140570468
 31
0.0
  0
LWPOLYLINE
  5
A5D
330
8DE
100
AcDbEntity
  8
0
  6
Continuous
 62
     7
370
    15
100
AcDbPolyline
 90
       15
 70
   128
 43
0.0
 10
2143.465866512159
 20
846.1794830367125
 10
2143.899473068381
 20
846.2619296772796
 10
2144.344374270041
 20
846.3143270391739
 10
2144.794151033123
 20
846.3359153249054
 10
2145.242319382449
 20
846.3263855387094
 10
2145.682431010237
 20
846.2858894420582
 10
2146.108131817031
 20
846.2150028609219
 10
2146.513269779084
 20
846.1147335111698
 10
2146.892019799282
 20
845.986543505567
 10
2147.238903478803
 20
845.8322650660658
 10
2147.548933387861
 20
845.6541370023611
 10
2147.817646572542
 20
845.4547360524911
 10
2148.041154233091
 20
845.2369231417153
 10
2148.216233419846
 20
845.0038362896425
 10
2148.340361281787
 20
844.7588413660072
  0
LINE
  5
A5E
330
8DE
100
AcDbEntity
  8
0
  6
Continuous
 62
     7
370
    15
100
AcDbLine
 10
2142.24081410363
 20
846.5365170643613
 30
0.0
 11
2143.465866512159
 21
846.1794830367125
 31
0.0
  0
LINE
  5
A5F
330
8DE
100
AcDbEntity
  8
0
  6
Continuous
 62
     7
370
    15
100
AcDbLine
 10
2149.991725313986
 20
845.9243564399876
 30
0.0
 11
2143.461126679943
 21
847.8276594473022
 31
0.0
  0
LINE
  5
A60
330
8DE
100
AcDbEntity
  8
0
  6
Continuous
 62
     7
370
    15
100
AcDbLine
 10
2148.3656708818
 20
844.203928122466
 30
0.0
 11
2148.340361281787
 21
844.7588413660072
 31
0.0
  0
ARC
  5
A61
330
8DE
100
AcDbEntity
  8
0
  6
Continuous
 62
     7
370
    15
100
AcDbCircle
 10
2150.631466749952
 20
846.3651463717402
 30
0.0
 40
0.1644011008317795
100
AcDbArc
 50
82.26458626293384
 51
146.078868434571
  0
ARC
  5
A62
330
8DE
100
AcDbEntity
  8
0
  6
Continuous
 62
     7
370
    15
100
AcDbCircle
 10
2144.943233237355
 20
838.9720677905154
 30
0.0
 40
2.901665947794992
100
AcDbArc
 50
69.03004742289701
 51
129.5047557605628
  0
LINE
  5
A63
330
8DE
100
AcDbEntity
  8
0
  6
Continuous
 62
     7
370
    15
100
AcDbLine
 10
2143.549784453618
 20
844.3395812973948
 30
0.0
 11
2143.465866512159
 21
846.1794830367125
 31
0.0
  0
LINE
  5
A64
330
8DE
100
AcDbEntity
  8
0
  6
Continuous
 62
     7
370
    15
100
AcDbLine
 10
2135.249575267339
 20
843.4981004557071
 30
0.0
 11
2135.174981418094
 21
845.1335713762524
 31
0.0
  0
LINE
  5
A65
330
8DE
100
AcDbEntity
  8
0
  6
Continuous
 62
     7
370
    15
100
AcDbLine
 10
2132.174383501795
 20
840.2444173410392
 30
0.0
 11
2132.09978965255
 21
841.8798882615845
 31
0.0
  0
LINE
  5
A66
330
8DE
100
AcDbEntity
  8
0
  6
Continuous
 62
     7
370
    15
100
AcDbLine
 10
2135.249575267339
 20
843.4981004557071
 30
0.0
 11
2132.174383501795
 21
840.2444173410392
 31
0.0
  0
LINE
  5
A67
330
8DE
100
AcDbEntity
  8
0
  6
Continuous
 62
     7
370
    15
100
AcDbLine
 10
2132.174383501795
 20
840.2444173410392
 30
0.0
 11
2132.122526003838
 21
840.2595308914722
 31
0.0
  0
LINE
  5
A68
330
8DE
100
AcDbEntity
  8
0
  6
Continuous
 62
     7
370
    15
100
AcDbLine
 10
2140.517885262313
 20
846.4911172160459
 30
0.0
 11
2140.4925756623
 21
847.0460304595871
 31
0.0
  0
LINE
  5
A69
330
8DE
100
AcDbEntity
  8
0
  6
Continuous
 62
     7
370
    15
100
AcDbLine
 10
2140.4925756623
 20
847.0460304595871
 30
0.0
 11
2140.92362671214
 21
846.9204032689662
 31
0.0
  0
ARC
  5
A6A
330
8DE
100
AcDbEntity
  8
0
  6
Continuous
 62
     7
370
    15
100
AcDbCircle
 10
2136.396146331263
 20
848.3727259261161
 30
0.0
 40
1.453871461226951
100
AcDbArc
 50
72.46802892344653
 51
129.3659439894587
  0
LWPOLYLINE
  5
A6B
330
8DE
100
AcDbEntity
  8
0
  6
Continuous
 62
     7
370
    15
100
AcDbPolyline
 90
       15
 70
   128
 43
0.0
 10
2135.618080791161
 20
848.4666721598772
 10
2136.051687753428
 20
848.5491186821047
 10
2136.4965890566
 20
848.6015160144143
 10
2136.94636561666
 20
848.6231043593157
 10
2137.394533965985
 20
848.6135745731196
 10
2137.834645593773
 20
848.5730784764683
 10
2138.260346197544
 20
848.5021919545017
 10
2138.665484565642
 20
848.4019224864102
 10
2139.044234179795
 20
848.2737325991468
 10
2139.391117859316
 20
848.1194541596458
 10
2139.701147362329
 20
847.9413262142804
 10
2139.969860547009
 20
847.7419252644104
 10
2140.19336901965
 20
847.5241121169558
 10
2140.368447394314
 20
847.2910255015619
 10
2140.4925756623
 20
847.0460304595871
  0
LINE
  5
A6C
330
8DE
100
AcDbEntity
  8
0
  6
Continuous
 62
     7
370
    15
100
AcDbLine
 10
2134.741818868144
 20
848.722053334978
 30
0.0
 11
2135.618080791161
 21
848.4666721598772
 31
0.0
  0
LINE
  5
A6D
330
8DE
100
AcDbEntity
  8
0
  6
Continuous
 62
     7
370
    15
100
AcDbLine
 10
2135.473997685568
 20
849.4967295297637
 30
0.0
 11
2134.741818868144
 21
848.722053334978
 31
0.0
  0
LINE
  5
A6E
330
8DE
100
AcDbEntity
  8
0
  6
Continuous
 62
     7
370
    15
100
AcDbLine
 10
2142.143939288454
 20
848.2115456519069
 30
0.0
 11
2136.834107556726
 21
849.7590636161332
 31
0.0
  0
ARC
  5
A6F
330
8DE
100
AcDbEntity
  8
0
  6
Continuous
 62
     7
370
    15
100
AcDbCircle
 10
2142.78368153651
 20
848.6523353469806
 30
0.0
 40
0.1644011008317394
100
AcDbArc
 50
82.26458626292092
 51
146.078868434571
  0
ARC
  5
A70
330
8DE
100
AcDbEntity
  8
0
  6
Continuous
 62
     7
370
    15
100
AcDbCircle
 10
2137.095447875387
 20
841.2592550912505
 30
0.0
 40
2.901667494922816
100
AcDbArc
 50
69.03007316329968
 51
129.5047371637769
  0
LINE
  5
A71
330
8DE
100
AcDbEntity
  8
0
  6
Continuous
 62
     7
370
    15
100
AcDbLine
 10
2135.701998732619
 20
846.6267704205595
 30
0.0
 11
2135.618080791161
 21
848.4666721598772
 31
0.0
  0
LINE
  5
A72
330
8DE
100
AcDbEntity
  8
0
  6
Continuous
 62
     7
370
    15
100
AcDbLine
 10
2134.825736809603
 20
846.8821515956602
 30
0.0
 11
2134.741818868144
 21
848.722053334978
 31
0.0
  0
LINE
  5
A73
330
8DE
100
AcDbEntity
  8
0
  6
Continuous
 62
     8
370
    15
100
AcDbLine
 10
2185.765152514756
 20
824.5267688556694
 30
0.0
 11
2185.81866058832
 21
823.353603786243
 31
0.0
  0
LINE
  5
A74
330
8DE
100
AcDbEntity
  8
0
  6
Continuous
 62
     8
370
    15
100
AcDbLine
 10
2177.917370549679
 20
826.8139568841938
 30
0.0
 11
2177.970878623243
 21
825.6407918147676
 31
0.0
  0
LINE
  5
A75
330
8DE
100
AcDbEntity
  8
0
  6
Continuous
 62
     8
370
    15
100
AcDbLine
 10
2170.069585336237
 20
829.1011458594342
 30
0.0
 11
2170.123093409801
 21
827.927980790008
 31
0.0
  0
LINE
  5
A76
330
8DE
100
AcDbEntity
  8
0
  6
Continuous
 62
     8
370
    15
100
AcDbLine
 10
2162.221800122796
 20
831.3883348346745
 30
0.0
 11
2162.27530819636
 21
830.2151697652483
 31
0.0
  0
LINE
  5
A77
330
8DE
100
AcDbEntity
  8
0
  6
Continuous
 62
     8
370
    15
100
AcDbLine
 10
2154.374013285173
 20
833.675524283273
 30
0.0
 11
2154.427521358736
 21
832.5023592138466
 31
0.0
  0
LINE
  5
A78
330
8DE
100
AcDbEntity
  8
0
  6
Continuous
 62
     8
370
    15
100
AcDbLine
 10
2146.526228071731
 20
835.9627132585133
 30
0.0
 11
2146.579736145295
 21
834.7895481890869
 31
0.0
  0
LINE
  5
A79
330
8DE
100
AcDbEntity
  8
0
  6
Continuous
 62
     8
370
    15
100
AcDbLine
 10
2138.678442046199
 20
838.2499024704326
 30
0.0
 11
2138.731950119763
 21
837.0767374010062
 31
0.0
  0
LINE
  5
A7A
330
8DE
100
AcDbEntity
  8
0
  6
Continuous
 62
     8
370
    15
100
AcDbLine
 10
2130.830656426712
 20
840.5370915640126
 30
0.0
 11
2130.884164500276
 21
839.3639264945861
 31
0.0
  0
ENDBLK
  5
8E0
330
8DE
100
AcDbEntity
  8
0
100
AcDbBlockEnd
  0
ENDSEC
  0
SECTION
  2
ENTITIES
  0
INSERT
  5
86A
330
1F
100
AcDbEntity
  8
0
100
AcDbBlockReference
  2
1
 10
0.0
 20
0.0
 30
0.0
  0
INSERT
  5
892
330
1F
100
AcDbEntity
  8
0
100
AcDbBlockReference
  2
2
 10
0.0
 20
0.0
 30
0.0
  0
INSERT
  5
8DD
330
1F
100
AcDbEntity
  8
0
100
AcDbBlockReference
  2
3
 10
0.0
 20
0.0
 30
0.0
  0
INSERT
  5
A7B
330
1F
100
AcDbEntity
  8
0
100
AcDbBlockReference
  2
4
 10
0.0
 20
0.0
 30
0.0
  0
ENDSEC
  0
SECTION
  2
OBJECTS
  0
DICTIONARY
  5
C
330
0
100
AcDbDictionary
281
     1
  3
ACAD_COLOR
350
6B
  3
ACAD_GROUP
350
D
  3
ACAD_LAYOUT
350
1A
  3
ACAD_MATERIAL
350
6A
  3
ACAD_MLEADERSTYLE
350
12D
  3
ACAD_MLINESTYLE
350
17
  3
ACAD_PLOTSETTINGS
350
19
  3
ACAD_PLOTSTYLENAME
350
E
  3
ACAD_SCALELIST
350
10C
  3
ACAD_TABLESTYLE
350
7E
  3
ACAD_VISUALSTYLE
350
EF
  3
ACDB_RECOMPOSE_DATA
350
15D
  3
AcDbVariableDictionary
350
5E
  3
DWGPROPS
350
A89
  0
DICTIONARY
  5
13C
330
10
100
AcDbDictionary
280
     1
281
     1
  3
ADSK_XREC_LAYER_RECONCILED
360
A7C
  0
DICTIONARY
  5
6B
102
{ACAD_REACTORS
330
C
102
}
330
C
100
AcDbDictionary
281
     1
  0
DICTIONARY
  5
D
102
{ACAD_REACTORS
330
C
102
}
330
C
100
AcDbDictionary
281
     1
  0
DICTIONARY
  5
1A
102
{ACAD_REACTORS
330
C
102
}
330
C
100
AcDbDictionary
281
     1
  3
Layout1
350
D3
  3
Layout2
350
D7
  3
Model
350
22
  0
DICTIONARY
  5
6A
102
{ACAD_REACTORS
330
C
102
}
330
C
100
AcDbDictionary
281
     1
  3
ByBlock
350
ED
  3
ByLayer
350
EC
  3
Global
350
EE
  0
DICTIONARY
  5
12D
102
{ACAD_REACTORS
330
C
102
}
330
C
100
AcDbDictionary
281
     1
  3
Annotative
350
13B
  3
Standard
350
12E
  0
DICTIONARY
  5
17
102
{ACAD_REACTORS
330
C
102
}
330
C
100
AcDbDictionary
281
     1
  3
Standard
350
18
  0
DICTIONARY
  5
19
102
{ACAD_REACTORS
330
C
102
}
330
C
100
AcDbDictionary
281
     1
  0
ACDBDICTIONARYWDFLT
  5
E
102
{ACAD_REACTORS
330
C
102
}
330
C
100
AcDbDictionary
281
     1
  3
Normal
350
F
100
AcDbDictionaryWithDefault
340
F
  0
DICTIONARY
  5
10C
102
{ACAD_REACTORS
330
C
102
}
330
C
100
AcDbDictionary
281
     1
  3
A0
350
10D
  3
A1
350
188
  3
A2
350
189
  3
A3
350
18A
  3
A4
350
18B
  3
A5
350
18C
  3
A6
350
18D
  3
A7
350
18E
  3
A8
350
18F
  3
A9
350
190
  3
B0
350
191
  3
B1
350
192
  3
B2
350
193
  3
B3
350
194
  3
B4
350
195
  3
B5
350
196
  3
B6
350
197
  3
B7
350
198
  3
B8
350
199
  3
B9
350
19A
  3
C0
350
19B
  3
C1
350
19C
  3
C2
350
19D
  3
C3
350
19E
  3
C4
350
19F
  3
C5
350
1A0
  3
C6
350
1A1
  3
C7
350
1A2
  3
C8
350
1A3
  3
C9
350
1A4
  3
D0
350
1A5
  3
D1
350
1A6
  3
D2
350
1A7
  0
DICTIONARY
  5
7E
102
{ACAD_REACTORS
330
C
102
}
330
C
100
AcDbDictionary
281
     1
  3
Standard
350
7F
  0
DICTIONARY
  5
EF
102
{ACAD_REACTORS
330
C
102
}
330
C
100
AcDbDictionary
281
     1
  3
2dWireframe
350
F5
  3
3D Hidden
350
F7
  3
3dWireframe
350
F6
  3
Basic
350
F4
  3
Brighten
350
FB
  3
ColorChange
350
FF
  3
Conceptual
350
F8
  3
Dim
350
FA
  3
Facepattern
350
FE
  3
Flat
350
F0
  3
FlatWithEdges
350
F1
  3
Gouraud
350
F2
  3
GouraudWithEdges
350
F3
  3
Linepattern
350
FD
  3
Realistic
350
F9
  3
Thicken
350
FC
  0
XRECORD
  5
15D
102
{ACAD_REACTORS
330
C
102
}
330
C
100
AcDbXrecord
280
     1
 90
        1
330
7F
  0
DICTIONARY
  5
5E
102
{ACAD_REACTORS
330
C
102
}
330
C
100
AcDbDictionary
281
     1
  3
CANNOSCALE
350
146
  3
CMLEADERSTYLE
350
145
  3
CTABLESTYLE
350
84
  3
DIMASSOC
350
5F
  3
HIDETEXT
350
63
  3
INDEXCTL
350
A85
  3
LIGHTINGUNITS
350
A83
  3
MSLTSCALE
350
A82
  3
PSOLHEIGHT
350
A87
  3
PSOLWIDTH
350
A86
  3
SORTENTS
350
A84
  0
XRECORD
  5
A89
102
{ACAD_REACTORS
330
C
102
}
330
C
100
AcDbXrecord
280
     1
  1
DWGPROPS COOKIE
  2

  3

  4

  6

  7

  8
orhan kara
  9

300
=
301
=
302
=
303
=
304
=
305
=
306
=
307
=
308
=
309
=
 40
0.0005147916666667
 41
2458445.579726702
 42
2458956.432514144
  1

 90
        0
  0
XRECORD
  5
A7C
102
{ACAD_REACTORS
330
13C
102
}
330
13C
100
AcDbXrecord
280
     1
290
     1
  0
LAYOUT
  5
D3
102
{ACAD_XDICTIONARY
360
A8D
102
}
102
{ACAD_REACTORS
330
1A
102
}
330
1A
100
AcDbPlotSettings
  1

  2
C:\Documents and Settings\basas\Application Data\Autodesk\AutoCAD 2005\R16.1\enu\plotters\Default Windows System Printer.pc3
  4

  6

 40
0.0
 41
0.0
 42
0.0
 43
0.0
 44
0.0
 45
0.0
 46
0.0
 47
0.0
 48
0.0
 49
0.0
140
0.0
141
0.0
142
1.0
143
1.0
 70
   688
 72
     0
 73
     0
 74
     5
  7

 75
    16
147
1.0
148
0.0
149
0.0
100
AcDbLayout
  1
Layout1
 70
     1
 71
     1
 10
0.0
 20
0.0
 11
12.0
 21
9.0
 12
0.0
 22
0.0
 32
0.0
 14
0.0
 24
0.0
 34
0.0
 15
0.0
 25
0.0
 35
0.0
146
0.0
 13
0.0
 23
0.0
 33
0.0
 16
1.0
 26
0.0
 36
0.0
 17
0.0
 27
1.0
 37
0.0
 76
     0
330
D2
  0
LAYOUT
  5
D7
102
{ACAD_XDICTIONARY
360
A8F
102
}
102
{ACAD_REACTORS
330
1A
102
}
330
1A
100
AcDbPlotSettings
  1

  2
C:\Documents and Settings\basas\Application Data\Autodesk\AutoCAD 2005\R16.1\enu\plotters\Default Windows System Printer.pc3
  4

  6

 40
0.0
 41
0.0
 42
0.0
 43
0.0
 44
0.0
 45
0.0
 46
0.0
 47
0.0
 48
0.0
 49
0.0
140
0.0
141
0.0
142
1.0
143
1.0
 70
   688
 72
     0
 73
     0
 74
     5
  7

 75
    16
147
1.0
148
0.0
149
0.0
100
AcDbLayout
  1
Layout2
 70
     1
 71
     2
 10
0.0
 20
0.0
 11
12.0
 21
9.0
 12
0.0
 22
0.0
 32
0.0
 14
0.0
 24
0.0
 34
0.0
 15
0.0
 25
0.0
 35
0.0
146
0.0
 13
0.0
 23
0.0
 33
0.0
 16
1.0
 26
0.0
 36
0.0
 17
0.0
 27
1.0
 37
0.0
 76
     0
330
D6
  0
LAYOUT
  5
22
102
{ACAD_XDICTIONARY
360
A8A
102
}
102
{ACAD_REACTORS
330
1A
102
}
330
1A
100
AcDbPlotSettings
  1

  2
none_device
  4
ISO_A4_(210.00_x_297.00_MM)
  6

 40
7.5
 41
20.0
 42
7.5
 43
20.0
 44
210.0
 45
297.0
 46
11.54999923706054
 47
-13.65000009536743
 48
0.0
 49
0.0
140
0.0
141
0.0
142
1.0
143
8.704084754739808
 70
 11952
 72
     1
 73
     0
 74
     0
  7

 75
     0
147
0.1148885871608098
148
0.0
149
0.0
100
AcDbLayout
  1
Model
 70
     1
 71
     0
 10
0.0
 20
0.0
 11
12.0
 21
9.0
 12
0.0
 22
0.0
 32
0.0
 14
0.0
 24
0.0
 34
0.0
 15
0.0
 25
0.0
 35
0.0
146
0.0
 13
0.0
 23
0.0
 33
0.0
 16
1.0
 26
0.0
 36
0.0
 17
0.0
 27
1.0
 37
0.0
 76
     0
330
1F
331
EA
1001
ACAD_PSEXT
1000
None
1000
None
1000
Not applicable
1000
The layout will not be plotted unless a new plotter configuration name is selected.
1070
     0
  0
MATERIAL
  5
ED
102
{ACAD_XDICTIONARY
360
A93
102
}
102
{ACAD_REACTORS
330
6A
102
}
330
6A
100
AcDbMaterial
  1
ByBlock
  0
MATERIAL
  5
EC
102
{ACAD_XDICTIONARY
360
A91
102
}
102
{ACAD_REACTORS
330
6A
102
}
330
6A
100
AcDbMaterial
  1
ByLayer
  0
MATERIAL
  5
EE
102
{ACAD_XDICTIONARY
360
173
102
}
102
{ACAD_REACTORS
330
6A
102
}
330
6A
100
AcDbMaterial
  1
Global
 43
0.0007999999797903
 43
0.0
 43
0.0
 43
0.0
 43
0.0
 43
0.0007999999797903
 43
0.0
 43
0.0
 43
0.0
 43
0.0
 43
1.0
 43
0.0
 43
0.0
 43
0.0
 43
0.0
 43
1.0
 49
0.0007999999797903
 49
0.0
 49
0.0
 49
0.0
 49
0.0
 49
0.0007999999797903
 49
0.0
 49
0.0
 49
0.0
 49
0.0
 49
1.0
 49
0.0
 49
0.0
 49
0.0
 49
0.0
 49
1.0
142
0.0007999999797903
142
0.0
142
0.0
142
0.0
142
0.0
142
0.0007999999797903
142
0.0
142
0.0
142
0.0
142
0.0
142
1.0
142
0.0
142
0.0
142
0.0
142
0.0
142
1.0
144
0.0007999999797903
144
0.0
144
0.0
144
0.0
144
0.0
144
0.0007999999797903
144
0.0
144
0.0
144
0.0
144
0.0
144
1.0
144
0.0
144
0.0
144
0.0
144
0.0
144
1.0
1001
ACAD
1070
    -1
1070
     3
1070
     0
1000

1071
        0
1070
     0
  0
MLEADERSTYLE
  5
13B
102
{ACAD_REACTORS
330
12D
102
}
330
12D
100
AcDbMLeaderStyle
170
     2
171
     1
172
     0
 90
        2
 40
0.0
 41
0.0
173
     1
 91
-1056964608
340
14
 92
       -2
290
     1
 42
2.0
291
     1
 43
8.0
  3
Standard
 44
4.0
300

342
11
174
     1
178
     1
175
     1
176
     0
 93
-1056964608
 45
4.0
292
     0
297
     0
 46
4.0
 94
-1056964608
 47
1.0
 49
1.0
140
1.0
293
     1
141
0.0
294
     1
177
     0
142
1.0
295
     0
296
     1
143
3.75
1001
ACAD_MLEADERVER
1070
     2
  0
MLEADERSTYLE
  5
12E
102
{ACAD_REACTORS
330
12D
102
}
330
12D
100
AcDbMLeaderStyle
170
     2
171
     1
172
     0
 90
        2
 40
0.0
 41
0.0
173
     1
 91
-1056964608
340
14
 92
       -2
290
     1
 42
2.0
291
     1
 43
8.0
  3
Standard
 44
4.0
300

342
11
174
     1
178
     1
175
     1
176
     0
 93
-1056964608
 45
4.0
292
     0
297
     0
 46
4.0
 94
-1056964608
 47
1.0
 49
1.0
140
1.0
293
     1
141
0.0
294
     1
177
     0
142
1.0
295
     0
296
     0
143
3.75
1001
ACAD_MLEADERVER
1070
     2
  0
MLINESTYLE
  5
18
102
{ACAD_REACTORS
330
17
102
}
330
17
100
AcDbMlineStyle
  2
STANDARD
 70
     0
  3

 62
   256
 51
90.0
 52
90.0
 71
     2
 49
0.5
 62
   256
  6
BYLAYER
 49
-0.5
 62
   256
  6
BYLAYER
  0
ACDBPLACEHOLDER
  5
F
102
{ACAD_REACTORS
330
E
102
}
330
E
  0
SCALE
  5
10D
102
{ACAD_REACTORS
330
10C
102
}
330
10C
100
AcDbScale
 70
     0
300
1:1
140
1.0
141
1.0
290
     1
  0
SCALE
  5
188
102
{ACAD_REACTORS
330
10C
102
}
330
10C
100
AcDbScale
 70
     0
300
1:2
140
1.0
141
2.0
290
     0
  0
SCALE
  5
189
102
{ACAD_REACTORS
330
10C
102
}
330
10C
100
AcDbScale
 70
     0
300
1:4
140
1.0
141
4.0
290
     0
  0
SCALE
  5
18A
102
{ACAD_REACTORS
330
10C
102
}
330
10C
100
AcDbScale
 70
     0
300
1:5
140
1.0
141
5.0
290
     0
  0
SCALE
  5
18B
102
{ACAD_REACTORS
330
10C
102
}
330
10C
100
AcDbScale
 70
     0
300
1:8
140
1.0
141
8.0
290
     0
  0
SCALE
  5
18C
102
{ACAD_REACTORS
330
10C
102
}
330
10C
100
AcDbScale
 70
     0
300
1:10
140
1.0
141
10.0
290
     0
  0
SCALE
  5
18D
102
{ACAD_REACTORS
330
10C
102
}
330
10C
100
AcDbScale
 70
     0
300
1:16
140
1.0
141
16.0
290
     0
  0
SCALE
  5
18E
102
{ACAD_REACTORS
330
10C
102
}
330
10C
100
AcDbScale
 70
     0
300
1:20
140
1.0
141
20.0
290
     0
  0
SCALE
  5
18F
102
{ACAD_REACTORS
330
10C
102
}
330
10C
100
AcDbScale
 70
     0
300
1:30
140
1.0
141
30.0
290
     0
  0
SCALE
  5
190
102
{ACAD_REACTORS
330
10C
102
}
330
10C
100
AcDbScale
 70
     0
300
1:40
140
1.0
141
40.0
290
     0
  0
SCALE
  5
191
102
{ACAD_REACTORS
330
10C
102
}
330
10C
100
AcDbScale
 70
     0
300
1:50
140
1.0
141
50.0
290
     0
  0
SCALE
  5
192
102
{ACAD_REACTORS
330
10C
102
}
330
10C
100
AcDbScale
 70
     0
300
1:100
140
1.0
141
100.0
290
     0
  0
SCALE
  5
193
102
{ACAD_REACTORS
330
10C
102
}
330
10C
100
AcDbScale
 70
     0
300
2:1
140
2.0
141
1.0
290
     0
  0
SCALE
  5
194
102
{ACAD_REACTORS
330
10C
102
}
330
10C
100
AcDbScale
 70
     0
300
4:1
140
4.0
141
1.0
290
     0
  0
SCALE
  5
195
102
{ACAD_REACTORS
330
10C
102
}
330
10C
100
AcDbScale
 70
     0
300
8:1
140
8.0
141
1.0
290
     0
  0
SCALE
  5
196
102
{ACAD_REACTORS
330
10C
102
}
330
10C
100
AcDbScale
 70
     0
300
10:1
140
10.0
141
1.0
290
     0
  0
SCALE
  5
197
102
{ACAD_REACTORS
330
10C
102
}
330
10C
100
AcDbScale
 70
     0
300
100:1
140
100.0
141
1.0
290
     0
  0
SCALE
  5
198
102
{ACAD_REACTORS
330
10C
102
}
330
10C
100
AcDbScale
 70
     0
300
1/128" = 1'-0"
140
0.0078125
141
12.0
290
     0
  0
SCALE
  5
199
102
{ACAD_REACTORS
330
10C
102
}
330
10C
100
AcDbScale
 70
     0
300
1/64" = 1'-0"
140
0.015625
141
12.0
290
     0
  0
SCALE
  5
19A
102
{ACAD_REACTORS
330
10C
102
}
330
10C
100
AcDbScale
 70
     0
300
1/32" = 1'-0"
140
0.03125
141
12.0
290
     0
  0
SCALE
  5
19B
102
{ACAD_REACTORS
330
10C
102
}
330
10C
100
AcDbScale
 70
     0
300
1/16" = 1'-0"
140
0.0625
141
12.0
290
     0
  0
SCALE
  5
19C
102
{ACAD_REACTORS
330
10C
102
}
330
10C
100
AcDbScale
 70
     0
300
3/32" = 1'-0"
140
0.09375
141
12.0
290
     0
  0
SCALE
  5
19D
102
{ACAD_REACTORS
330
10C
102
}
330
10C
100
AcDbScale
 70
     0
300
1/8" = 1'-0"
140
0.125
141
12.0
290
     0
  0
SCALE
  5
19E
102
{ACAD_REACTORS
330
10C
102
}
330
10C
100
AcDbScale
 70
     0
300
3/16" = 1'-0"
140
0.1875
141
12.0
290
     0
  0
SCALE
  5
19F
102
{ACAD_REACTORS
330
10C
102
}
330
10C
100
AcDbScale
 70
     0
300
1/4" = 1'-0"
140
0.25
141
12.0
290
     0
  0
SCALE
  5
1A0
102
{ACAD_REACTORS
330
10C
102
}
330
10C
100
AcDbScale
 70
     0
300
3/8" = 1'-0"
140
0.375
141
12.0
290
     0
  0
SCALE
  5
1A1
102
{ACAD_REACTORS
330
10C
102
}
330
10C
100
AcDbScale
 70
     0
300
1/2" = 1'-0"
140
0.5
141
12.0
290
     0
  0
SCALE
  5
1A2
102
{ACAD_REACTORS
330
10C
102
}
330
10C
100
AcDbScale
 70
     0
300
3/4" = 1'-0"
140
0.75
141
12.0
290
     0
  0
SCALE
  5
1A3
102
{ACAD_REACTORS
330
10C
102
}
330
10C
100
AcDbScale
 70
     0
300
1" = 1'-0"
140
1.0
141
12.0
290
     0
  0
SCALE
  5
1A4
102
{ACAD_REACTORS
330
10C
102
}
330
10C
100
AcDbScale
 70
     0
300
1-1/2" = 1'-0"
140
1.5
141
12.0
290
     0
  0
SCALE
  5
1A5
102
{ACAD_REACTORS
330
10C
102
}
330
10C
100
AcDbScale
 70
     0
300
3" = 1'-0"
140
3.0
141
12.0
290
     0
  0
SCALE
  5
1A6
102
{ACAD_REACTORS
330
10C
102
}
330
10C
100
AcDbScale
 70
     0
300
6" = 1'-0"
140
6.0
141
12.0
290
     0
  0
SCALE
  5
1A7
102
{ACAD_REACTORS
330
10C
102
}
330
10C
100
AcDbScale
 70
     0
300
1'-0" = 1'-0"
140
12.0
141
12.0
290
     0
  0
TABLESTYLE
  5
7F
102
{ACAD_XDICTIONARY
360
162
102
}
102
{ACAD_REACTORS
330
7E
102
}
330
7E
100
AcDbTableStyle
  3
Standard
 70
     0
 71
     0
 40
1.5
 41
1.5
280
     0
281
     0
  7
Standard
140
4.5
170
     2
 62
     0
 63
     7
283
     0
274
    -2
284
     1
 64
     0
275
    -2
285
     1
 65
     0
276
    -2
286
     1
 66
     0
277
    -2
287
     1
 67
     0
278
    -2
288
     1
 68
     0
279
    -2
289
     1
 69
     0
  7
Standard
140
6.0
170
     5
 62
     0
 63
     7
283
     0
274
    -2
284
     1
 64
     0
275
    -2
285
     1
 65
     0
276
    -2
286
     1
 66
     0
277
    -2
287
     1
 67
     0
278
    -2
288
     1
 68
     0
279
    -2
289
     1
 69
     0
  7
Standard
140
4.5
170
     5
 62
     0
 63
     7
283
     0
274
    -2
284
     1
 64
     0
275
    -2
285
     1
 65
     0
276
    -2
286
     1
 66
     0
277
    -2
287
     1
 67
     0
278
    -2
288
     1
 68
     0
279
    -2
289
     1
 69
     0
  0
VISUALSTYLE
  5
F5
102
{ACAD_REACTORS
330
EF
102
}
330
EF
100
AcDbVisualStyle
  2
2dWireframe
 70
     4
 71
     0
 72
     2
 73
     1
 90
        0
 40
-0.6
 41
-30.0
 62
     5
 63
     7
 74
     1
 91
        4
 64
     7
 65
   257
 75
     1
175
     1
 42
1.0
 92
        0
 66
   257
 43
1.0
 76
     1
 77
     6
 78
     2
 67
     7
 79
     5
170
     0
171
     0
290
     0
174
     0
 93
        1
 44
0.0
173
     0
291
     0
 45
0.0
1001
ACAD
1000
AcDbSavedByObjectVersion
1070
     0
  0
VISUALSTYLE
  5
F7
102
{ACAD_REACTORS
330
EF
102
}
330
EF
100
AcDbVisualStyle
  2
3D Hidden
 70
     6
 71
     1
 72
     2
 73
     2
 90
        0
 40
-0.6
 41
-30.0
 62
     5
 63
     7
 74
     2
 91
        2
 64
     7
 65
   257
 75
     2
175
     1
 42
40.0
 92
        0
 66
   257
 43
1.0
 76
     1
 77
     6
 78
     2
 67
     7
 79
     3
170
     0
171
     0
290
     0
174
     0
 93
        1
 44
0.0
173
     0
291
     0
 45
0.0
1001
ACAD
1000
AcDbSavedByObjectVersion
1070
     0
  0
VISUALSTYLE
  5
F6
102
{ACAD_REACTORS
330
EF
102
}
330
EF
100
AcDbVisualStyle
  2
3dWireframe
 70
     5
 71
     0
 72
     2
 73
     1
 90
        0
 40
-0.6
 41
-30.0
 62
     5
 63
     7
 74
     1
 91
        4
 64
     7
 65
   257
 75
     1
175
     1
 42
1.0
 92
        0
 66
   257
 43
1.0
 76
     1
 77
     6
 78
     2
 67
     7
 79
     5
170
     0
171
     0
290
     0
174
     0
 93
        1
 44
0.0
173
     0
291
     0
 45
0.0
1001
ACAD
1000
AcDbSavedByObjectVersion
1070
     0
  0
VISUALSTYLE
  5
F4
102
{ACAD_REACTORS
330
EF
102
}
330
EF
100
AcDbVisualStyle
  2
Basic
 70
     7
 71
     1
 72
     0
 73
     1
 90
        0
 40
-0.6
 41
-30.0
 62
     5
 63
     7
 74
     0
 91
        4
 64
     7
 65
   257
 75
     1
175
     1
 42
1.0
 92
        8
 66
     7
 43
1.0
 76
     1
 77
     6
 78
     2
 67
     7
 79
     5
170
     0
171
     0
290
     0
174
     0
 93
        1
 44
0.0
173
     0
291
     1
 45
0.0
1001
ACAD
1000
AcDbSavedByObjectVersion
1070
     0
  0
VISUALSTYLE
  5
FB
102
{ACAD_REACTORS
330
EF
102
}
330
EF
100
AcDbVisualStyle
  2
Brighten
 70
    12
 71
     2
 72
     2
 73
     1
 90
        0
 40
-0.6
 41
-30.0
 62
     5
 63
     7
 74
     1
 91
        4
 64
     7
 65
   257
 75
     1
175
     1
 42
1.0
 92
        8
 66
     7
 43
1.0
 76
     1
 77
     6
 78
     2
 67
     7
 79
     5
170
     0
171
     0
290
     0
174
     0
 93
        1
 44
50.0
173
     0
291
     1
 45
0.0
1001
ACAD
1000
AcDbSavedByObjectVersion
1070
     0
  0
VISUALSTYLE
  5
FF
102
{ACAD_REACTORS
330
EF
102
}
330
EF
100
AcDbVisualStyle
  2
ColorChange
 70
    16
 71
     2
 72
     2
 73
     3
 90
        0
 40
-0.6
 41
-30.0
 62
     5
 63
     8
 74
     1
 91
        4
 64
     7
 65
   257
 75
     1
175
     1
 42
1.0
 92
        8
 66
     8
 43
1.0
 76
     1
 77
     6
 78
     2
 67
     7
 79
     5
170
     0
171
     0
290
     0
174
     0
 93
        1
 44
0.0
173
     0
291
     1
 45
0.0
1001
ACAD
1000
AcDbSavedByObjectVersion
1070
     0
  0
VISUALSTYLE
  5
F8
102
{ACAD_REACTORS
330
EF
102
}
330
EF
100
AcDbVisualStyle
  2
Conceptual
 70
     9
 71
     3
 72
     2
 73
     1
 90
        0
 40
-0.6
 41
-30.0
 62
     5
 63
     7
 74
     2
 91
        2
 64
     7
 65
   257
 75
     1
175
     1
 42
40.0
 92
        8
 66
     7
 43
1.0
 76
     1
 77
     6
 78
     2
 67
     7
 79
     3
170
     0
171
     0
290
     0
174
     0
 93
        1
 44
0.0
173
     0
291
     0
 45
0.0
1001
ACAD
1000
AcDbSavedByObjectVersion
1070
     0
  0
VISUALSTYLE
  5
FA
102
{ACAD_REACTORS
330
EF
102
}
330
EF
100
AcDbVisualStyle
  2
Dim
 70
    11
 71
     2
 72
     2
 73
     1
 90
        0
 40
-0.6
 41
-30.0
 62
     5
 63
     7
 74
     1
 91
        4
 64
     7
 65
   257
 75
     1
175
     1
 42
1.0
 92
        8
 66
     7
 43
1.0
 76
     1
 77
     6
 78
     2
 67
     7
 79
     5
170
     0
171
     0
290
     0
174
     0
 93
        1
 44
-50.0
173
     0
291
     1
 45
0.0
1001
ACAD
1000
AcDbSavedByObjectVersion
1070
     0
  0
VISUALSTYLE
  5
FE
102
{ACAD_REACTORS
330
EF
102
}
330
EF
100
AcDbVisualStyle
  2
Facepattern
 70
    15
 71
     2
 72
     2
 73
     1
 90
        0
 40
-0.6
 41
-30.0
 62
     5
 63
     7
 74
     1
 91
        4
 64
     7
 65
   257
 75
     1
175
     1
 42
1.0
 92
        8
 66
     7
 43
1.0
 76
     1
 77
     6
 78
     2
 67
     7
 79
     5
170
     0
171
     0
290
     0
174
     0
 93
        1
 44
0.0
173
     0
291
     1
 45
0.0
1001
ACAD
1000
AcDbSavedByObjectVersion
1070
     0
  0
VISUALSTYLE
  5
F0
102
{ACAD_REACTORS
330
EF
102
}
330
EF
100
AcDbVisualStyle
  2
Flat
 70
     0
 71
     2
 72
     1
 73
     1
 90
        2
 40
-0.6
 41
30.0
 62
     5
 63
     7
 74
     0
 91
        4
 64
     7
 65
   257
 75
     1
175
     1
 42
1.0
 92
        8
 66
     7
 43
1.0
 76
     1
 77
     6
 78
     2
 67
     7
 79
     5
170
     0
171
     0
290
     0
174
     0
 93
        1
 44
0.0
173
     0
291
     1
 45
0.0
1001
ACAD
1000
AcDbSavedByObjectVersion
1070
     0
  0
VISUALSTYLE
  5
F1
102
{ACAD_REACTORS
330
EF
102
}
330
EF
100
AcDbVisualStyle
  2
FlatWithEdges
 70
     1
 71
     2
 72
     1
 73
     1
 90
        2
 40
-0.6
 41
30.0
 62
     5
 63
     7
 74
     1
 91
        4
 64
     7
 65
   257
 75
     1
175
     1
 42
1.0
 92
        0
 66
   257
 43
1.0
 76
     1
 77
     6
 78
     2
 67
     7
 79
     5
170
     0
171
     0
290
     0
174
     0
 93
        1
 44
0.0
173
     0
291
     1
 45
0.0
1001
ACAD
1000
AcDbSavedByObjectVersion
1070
     0
  0
VISUALSTYLE
  5
F2
102
{ACAD_REACTORS
330
EF
102
}
330
EF
100
AcDbVisualStyle
  2
Gouraud
 70
     2
 71
     2
 72
     2
 73
     1
 90
        2
 40
-0.6
 41
30.0
 62
     5
 63
     7
 74
     0
 91
        4
 64
     7
 65
   257
 75
     1
175
     1
 42
1.0
 92
        0
 66
     7
 43
1.0
 76
     1
 77
     6
 78
     2
 67
     7
 79
     5
170
     0
171
     0
290
     0
174
     0
 93
        1
 44
0.0
173
     0
291
     1
 45
0.0
1001
ACAD
1000
AcDbSavedByObjectVersion
1070
     0
  0
VISUALSTYLE
  5
F3
102
{ACAD_REACTORS
330
EF
102
}
330
EF
100
AcDbVisualStyle
  2
GouraudWithEdges
 70
     3
 71
     2
 72
     2
 73
     1
 90
        2
 40
-0.6
 41
30.0
 62
     5
 63
     7
 74
     1
 91
        4
 64
     7
 65
   257
 75
     1
175
     1
 42
1.0
 92
        0
 66
   257
 43
1.0
 76
     1
 77
     6
 78
     2
 67
     7
 79
     5
170
     0
171
     0
290
     0
174
     0
 93
        1
 44
0.0
173
     0
291
     1
 45
0.0
1001
ACAD
1000
AcDbSavedByObjectVersion
1070
     0
  0
VISUALSTYLE
  5
FD
102
{ACAD_REACTORS
330
EF
102
}
330
EF
100
AcDbVisualStyle
  2
Linepattern
 70
    14
 71
     2
 72
     2
 73
     1
 90
        0
 40
-0.6
 41
-30.0
 62
     5
 63
     7
 74
     1
 91
        4
 64
     7
 65
   257
 75
     7
175
     7
 42
1.0
 92
        8
 66
     7
 43
1.0
 76
     1
 77
     6
 78
     2
 67
     7
 79
     5
170
     0
171
     0
290
     0
174
     0
 93
        1
 44
0.0
173
     0
291
     1
 45
0.0
1001
ACAD
1000
AcDbSavedByObjectVersion
1070
     0
  0
VISUALSTYLE
  5
F9
102
{ACAD_REACTORS
330
EF
102
}
330
EF
100
AcDbVisualStyle
  2
Realistic
 70
     8
 71
     2
 72
     2
 73
     1
 90
        0
 40
-0.6
 41
-30.0
 62
     5
 63
     7
 74
     1
 91
        0
 64
     7
 65
   257
 75
     1
175
     1
 42
1.0
 92
        8
 66
     8
 43
1.0
 76
     1
 77
     6
 78
     2
 67
     7
 79
     5
170
     0
171
     0
290
     0
174
     0
 93
       13
 44
0.0
173
     0
291
     0
 45
0.0
1001
ACAD
1000
AcDbSavedByObjectVersion
1070
     0
  0
VISUALSTYLE
  5
FC
102
{ACAD_REACTORS
330
EF
102
}
330
EF
100
AcDbVisualStyle
  2
Thicken
 70
    13
 71
     2
 72
     2
 73
     1
 90
        0
 40
-0.6
 41
-30.0
 62
     5
 63
     7
 74
     1
 91
        4
 64
     7
 65
   257
 75
     1
175
     1
 42
1.0
 92
       12
 66
     7
 43
1.0
 76
     1
 77
     6
 78
     2
 67
     7
 79
     5
170
     0
171
     0
290
     0
174
     0
 93
        1
 44
0.0
173
     0
291
     1
 45
0.0
1001
ACAD
1000
AcDbSavedByObjectVersion
1070
     0
  0
DICTIONARYVAR
  5
146
102
{ACAD_REACTORS
330
5E
102
}
330
5E
100
DictionaryVariables
280
     0
  1
1:1
  0
DICTIONARYVAR
  5
145
102
{ACAD_REACTORS
330
5E
102
}
330
5E
100
DictionaryVariables
280
     0
  1
STANDARD
  0
DICTIONARYVAR
  5
84
102
{ACAD_REACTORS
330
5E
102
}
330
5E
100
DictionaryVariables
280
     0
  1
STANDARD
  0
DICTIONARYVAR
  5
5F
102
{ACAD_REACTORS
330
5E
102
}
330
5E
100
DictionaryVariables
280
     0
  1
2
  0
DICTIONARYVAR
  5
63
102
{ACAD_REACTORS
330
5E
102
}
330
5E
100
DictionaryVariables
280
     0
  1
1
  0
DICTIONARYVAR
  5
A85
102
{ACAD_REACTORS
330
5E
102
}
330
5E
100
DictionaryVariables
280
     0
  1
0
  0
DICTIONARYVAR
  5
A83
102
{ACAD_REACTORS
330
5E
102
}
330
5E
100
DictionaryVariables
280
     0
  1
2
  0
DICTIONARYVAR
  5
A82
102
{ACAD_REACTORS
330
5E
102
}
330
5E
100
DictionaryVariables
280
     0
  1
1
  0
DICTIONARYVAR
  5
A87
102
{ACAD_REACTORS
330
5E
102
}
330
5E
100
DictionaryVariables
280
     0
  1
80.000000
  0
DICTIONARYVAR
  5
A86
102
{ACAD_REACTORS
330
5E
102
}
330
5E
100
DictionaryVariables
280
     0
  1
5.000000
  0
DICTIONARYVAR
  5
A84
102
{ACAD_REACTORS
330
5E
102
}
330
5E
100
DictionaryVariables
280
     0
  1
127
  0
DICTIONARY
  5
A8D
330
D3
100
AcDbDictionary
280
     1
281
     1
  3
ACAD_XREC_ROUNDTRIP
360
A8E
  0
DICTIONARY
  5
A8F
330
D7
100
AcDbDictionary
280
     1
281
     1
  3
ACAD_XREC_ROUNDTRIP
360
A90
  0
DICTIONARY
  5
A8A
330
22
100
AcDbDictionary
280
     1
281
     1
  3
ACAD_XREC_ROUNDTRIP
360
A8B
  0
DICTIONARY
  5
A93
330
ED
100
AcDbDictionary
280
     1
281
     1
  3
ACAD_XREC_ROUNDTRIP
360
A94
  0
DICTIONARY
  5
A91
330
EC
100
AcDbDictionary
280
     1
281
     1
  3
ACAD_XREC_ROUNDTRIP
360
A92
  0
DICTIONARY
  5
173
330
EE
100
AcDbDictionary
280
     1
281
     1
  3
ACAD_XREC_ROUNDTRIP
360
A95
  3
BUMPTILE
360
175
  3
DIFFUSETILE
360
174
  3
OPACITYTILE
360
176
  3
REFLECTIONTILE
360
177
  0
DICTIONARY
  5
162
330
7F
100
AcDbDictionary
280
     1
281
     1
  3
ACAD_ROUNDTRIP_2008_TABLESTYLE_CELLSTYLEMAP
360
A88
  3
ACAD_XREC_ROUNDTRIP
360
A8C
  0
XRECORD
  5
A8E
102
{ACAD_REACTORS
330
A8D
102
}
330
A8D
100
AcDbXrecord
280
     1
102
SHADEPLOT
 70
     0
102
SHADEPLOTRESLEVEL
 70
     2
102
SHADEPLOTCUSTOMDPI
 70
   300
  0
XRECORD
  5
A90
102
{ACAD_REACTORS
330
A8F
102
}
330
A8F
100
AcDbXrecord
280
     1
102
SHADEPLOT
 70
     0
102
SHADEPLOTRESLEVEL
 70
     2
102
SHADEPLOTCUSTOMDPI
 70
   300
  0
XRECORD
  5
A8B
102
{ACAD_REACTORS
330
A8A
102
}
330
A8A
100
AcDbXrecord
280
     1
102
SHADEPLOT
 70
     0
102
SHADEPLOTRESLEVEL
 70
     2
102
SHADEPLOTCUSTOMDPI
 70
   300
  0
XRECORD
  5
A94
102
{ACAD_REACTORS
330
A93
102
}
330
A93
100
AcDbXrecord
280
     1
102
MATERIAL
148
0.0
149
0.0
149
0.0
 93
        0
 94
       63
282
     0
 72
     1
 77
     1
171
     1
175
     1
179
     1
273
     0
  0
XRECORD
  5
A92
102
{ACAD_REACTORS
330
A91
102
}
330
A91
100
AcDbXrecord
280
     1
102
MATERIAL
148
0.0
149
0.0
149
0.0
 93
        0
 94
       63
282
     0
 72
     1
 77
     1
171
     1
175
     1
179
     1
273
     0
  0
XRECORD
  5
A95
102
{ACAD_REACTORS
330
173
102
}
330
173
100
AcDbXrecord
280
     1
102
MATERIAL
148
0.0
149
0.0
149
0.0
 93
        0
 94
       63
282
     0
 72
     1
 77
     1
171
     1
175
     1
179
     1
273
     0
  0
XRECORD
  5
175
102
{ACAD_REACTORS
330
173
102
}
330
173
100
AcDbXrecord
280
     1
270
     1
271
     1
  0
XRECORD
  5
174
102
{ACAD_REACTORS
330
173
102
}
330
173
100
AcDbXrecord
280
     1
270
     1
271
     1
  0
XRECORD
  5
176
102
{ACAD_REACTORS
330
173
102
}
330
173
100
AcDbXrecord
280
     1
270
     1
271
     1
  0
XRECORD
  5
177
102
{ACAD_REACTORS
330
173
102
}
330
173
100
AcDbXrecord
280
     1
270
     1
271
     1
  0
CELLSTYLEMAP
  5
A88
102
{ACAD_REACTORS
330
162
102
}
330
162
100
AcDbCellStyleMap
 90
        3
300
CELLSTYLE
  1
TABLEFORMAT_BEGIN
 90
        5
170
     1
 91
        0
 92
    32768
 62
   257
 93
        1
300
CONTENTFORMAT
  1
CONTENTFORMAT_BEGIN
 90
        0
 91
        0
 92
      512
 93
        0
300

 40
0.0
140
1.0
 94
        5
 62
     0
340
11
144
6.0
309
CONTENTFORMAT_END
171
     1
301
MARGIN
  1
CELLMARGIN_BEGIN
 40
1.5
 40
1.5
 40
1.5
 40
1.5
 40
4.5
 40
4.5
309
CELLMARGIN_END
 94
        6
 95
        1
302
GRIDFORMAT
  1
GRIDFORMAT_BEGIN
 90
        0
 91
        1
 62
     0
 92
       -2
340
14
 93
        0
 40
1.125
309
GRIDFORMAT_END
 95
        2
302
GRIDFORMAT
  1
GRIDFORMAT_BEGIN
 90
        0
 91
        1
 62
     0
 92
       -2
340
14
 93
        0
 40
1.125
309
GRIDFORMAT_END
 95
        4
302
GRIDFORMAT
  1
GRIDFORMAT_BEGIN
 90
        0
 91
        1
 62
     0
 92
       -2
340
14
 93
        0
 40
1.125
309
GRIDFORMAT_END
 95
        8
302
GRIDFORMAT
  1
GRIDFORMAT_BEGIN
 90
        0
 91
        1
 62
     0
 92
       -2
340
14
 93
        0
 40
1.125
309
GRIDFORMAT_END
 95
       16
302
GRIDFORMAT
  1
GRIDFORMAT_BEGIN
 90
        0
 91
        1
 62
     0
 92
       -2
340
14
 93
        0
 40
1.125
309
GRIDFORMAT_END
 95
       32
302
GRIDFORMAT
  1
GRIDFORMAT_BEGIN
 90
        0
 91
        1
 62
     0
 92
       -2
340
14
 93
        0
 40
1.125
309
GRIDFORMAT_END
309
TABLEFORMAT_END
  1
CELLSTYLE_BEGIN
 90
        1
 91
        1
300
_TITLE
309
CELLSTYLE_END
300
CELLSTYLE
  1
TABLEFORMAT_BEGIN
 90
        5
170
     1
 91
        0
 92
        0
 62
   257
 93
        1
300
CONTENTFORMAT
  1
CONTENTFORMAT_BEGIN
 90
        0
 91
        0
 92
      512
 93
        0
300

 40
0.0
140
1.0
 94
        5
 62
     0
340
11
144
4.5
309
CONTENTFORMAT_END
171
     1
301
MARGIN
  1
CELLMARGIN_BEGIN
 40
1.5
 40
1.5
 40
1.5
 40
1.5
 40
4.5
 40
4.5
309
CELLMARGIN_END
 94
        6
 95
        1
302
GRIDFORMAT
  1
GRIDFORMAT_BEGIN
 90
        0
 91
        1
 62
     0
 92
       -2
340
14
 93
        0
 40
1.125
309
GRIDFORMAT_END
 95
        2
302
GRIDFORMAT
  1
GRIDFORMAT_BEGIN
 90
        0
 91
        1
 62
     0
 92
       -2
340
14
 93
        0
 40
1.125
309
GRIDFORMAT_END
 95
        4
302
GRIDFORMAT
  1
GRIDFORMAT_BEGIN
 90
        0
 91
        1
 62
     0
 92
       -2
340
14
 93
        0
 40
1.125
309
GRIDFORMAT_END
 95
        8
302
GRIDFORMAT
  1
GRIDFORMAT_BEGIN
 90
        0
 91
        1
 62
     0
 92
       -2
340
14
 93
        0
 40
1.125
309
GRIDFORMAT_END
 95
       16
302
GRIDFORMAT
  1
GRIDFORMAT_BEGIN
 90
        0
 91
        1
 62
     0
 92
       -2
340
14
 93
        0
 40
1.125
309
GRIDFORMAT_END
 95
       32
302
GRIDFORMAT
  1
GRIDFORMAT_BEGIN
 90
        0
 91
        1
 62
     0
 92
       -2
340
14
 93
        0
 40
1.125
309
GRIDFORMAT_END
309
TABLEFORMAT_END
  1
CELLSTYLE_BEGIN
 90
        2
 91
        1
300
_HEADER
309
CELLSTYLE_END
300
CELLSTYLE
  1
TABLEFORMAT_BEGIN
 90
        5
170
     1
 91
        0
 92
        0
 62
   257
 93
        1
300
CONTENTFORMAT
  1
CONTENTFORMAT_BEGIN
 90
        0
 91
        0
 92
      512
 93
        0
300

 40
0.0
140
1.0
 94
        2
 62
     0
340
11
144
4.5
309
CONTENTFORMAT_END
171
     1
301
MARGIN
  1
CELLMARGIN_BEGIN
 40
1.5
 40
1.5
 40
1.5
 40
1.5
 40
4.5
 40
4.5
309
CELLMARGIN_END
 94
        6
 95
        1
302
GRIDFORMAT
  1
GRIDFORMAT_BEGIN
 90
        0
 91
        1
 62
     0
 92
       -2
340
14
 93
        0
 40
1.125
309
GRIDFORMAT_END
 95
        2
302
GRIDFORMAT
  1
GRIDFORMAT_BEGIN
 90
        0
 91
        1
 62
     0
 92
       -2
340
14
 93
        0
 40
1.125
309
GRIDFORMAT_END
 95
        4
302
GRIDFORMAT
  1
GRIDFORMAT_BEGIN
 90
        0
 91
        1
 62
     0
 92
       -2
340
14
 93
        0
 40
1.125
309
GRIDFORMAT_END
 95
        8
302
GRIDFORMAT
  1
GRIDFORMAT_BEGIN
 90
        0
 91
        1
 62
     0
 92
       -2
340
14
 93
        0
 40
1.125
309
GRIDFORMAT_END
 95
       16
302
GRIDFORMAT
  1
GRIDFORMAT_BEGIN
 90
        0
 91
        1
 62
     0
 92
       -2
340
14
 93
        0
 40
1.125
309
GRIDFORMAT_END
 95
       32
302
GRIDFORMAT
  1
GRIDFORMAT_BEGIN
 90
        0
 91
        1
 62
     0
 92
       -2
340
14
 93
        0
 40
1.125
309
GRIDFORMAT_END
309
TABLEFORMAT_END
  1
CELLSTYLE_BEGIN
 90
        3
 91
        2
300
_DATA
309
CELLSTYLE_END
  0
XRECORD
  5
A8C
102
{ACAD_REACTORS
330
162
102
}
330
162
100
AcDbXrecord
280
     1
102
ACAD_ROUNDTRIP_PRE2007_TABLESTYLE
 90
      512
 91
        0
  1

 92
      512
 93
        0
  2

 94
      512
 95
        0
  3

  0
ENDSEC
  0
EOF
