  0
SECTION
  2
HEADER
  9
$ACADVER
  1
AC1015
  9
$ACADMAINTVER
 70
    20
  9
$DWGCODEPAGE
  3
ANSI_1254
  9
$INSBASE
 10
0.0
 20
0.0
 30
0.0
  9
$EXTMIN
 10
1769.693690043261
 20
696.0968504017442
 30
0.0
  9
$EXTMAX
 10
1948.072272073818
 20
802.7109917483143
 30
0.0
  9
$LIMMIN
 10
0.0
 20
0.0
  9
$LIMMAX
 10
420.0
 20
297.0
  9
$ORTHOMODE
 70
     1
  9
$REGENMODE
 70
     1
  9
$FILLMODE
 70
     1
  9
$QTEXTMODE
 70
     0
  9
$MIRRTEXT
 70
     0
  9
$LTSCALE
 40
1.0
  9
$ATTMODE
 70
     1
  9
$TEXTSIZE
 40
2.5
  9
$TRACEWID
 40
1.0
  9
$TEXTSTYLE
  7
Standard
  9
$CLAYER
  8
0
  9
$CELTYPE
  6
ByLayer
  9
$CECOLOR
 62
   256
  9
$CELTSCALE
 40
1.0
  9
$DISPSILH
 70
     0
  9
$DIMSCALE
 40
1.0
  9
$DIMASZ
 40
2.5
  9
$DIMEXO
 40
0.625
  9
$DIMDLI
 40
3.75
  9
$DIMRND
 40
0.0
  9
$DIMDLE
 40
0.0
  9
$DIMEXE
 40
1.25
  9
$DIMTP
 40
0.0
  9
$DIMTM
 40
0.0
  9
$DIMTXT
 40
2.5
  9
$DIMCEN
 40
2.5
  9
$DIMTSZ
 40
0.0
  9
$DIMTOL
 70
     0
  9
$DIMLIM
 70
     0
  9
$DIMTIH
 70
     0
  9
$DIMTOH
 70
     0
  9
$DIMSE1
 70
     0
  9
$DIMSE2
 70
     0
  9
$DIMTAD
 70
     1
  9
$DIMZIN
 70
     8
  9
$DIMBLK
  1

  9
$DIMASO
 70
     1
  9
$DIMSHO
 70
     1
  9
$DIMPOST
  1

  9
$DIMAPOST
  1

  9
$DIMALT
 70
     0
  9
$DIMALTD
 70
     3
  9
$DIMALTF
 40
0.03937007874016
  9
$DIMLFAC
 40
1.0
  9
$DIMTOFL
 70
     1
  9
$DIMTVP
 40
0.0
  9
$DIMTIX
 70
     0
  9
$DIMSOXD
 70
     0
  9
$DIMSAH
 70
     0
  9
$DIMBLK1
  1

  9
$DIMBLK2
  1

  9
$DIMSTYLE
  2
ISO-25
  9
$DIMCLRD
 70
     0
  9
$DIMCLRE
 70
     0
  9
$DIMCLRT
 70
     0
  9
$DIMTFAC
 40
1.0
  9
$DIMGAP
 40
0.625
  9
$DIMJUST
 70
     0
  9
$DIMSD1
 70
     0
  9
$DIMSD2
 70
     0
  9
$DIMTOLJ
 70
     0
  9
$DIMTZIN
 70
     8
  9
$DIMALTZ
 70
     0
  9
$DIMALTTZ
 70
     0
  9
$DIMUPT
 70
     0
  9
$DIMDEC
 70
     2
  9
$DIMTDEC
 70
     2
  9
$DIMALTU
 70
     2
  9
$DIMALTTD
 70
     3
  9
$DIMTXSTY
  7
Standard
  9
$DIMAUNIT
 70
     0
  9
$DIMADEC
 70
     0
  9
$DIMALTRND
 40
0.0
  9
$DIMAZIN
 70
     0
  9
$DIMDSEP
 70
    44
  9
$DIMATFIT
 70
     3
  9
$DIMFRAC
 70
     0
  9
$DIMLDRBLK
  1

  9
$DIMLUNIT
 70
     2
  9
$DIMLWD
 70
    -2
  9
$DIMLWE
 70
    -2
  9
$DIMTMOVE
 70
     0
  9
$LUNITS
 70
     2
  9
$LUPREC
 70
     4
  9
$SKETCHINC
 40
1.0
  9
$FILLETRAD
 40
0.0
  9
$AUNITS
 70
     0
  9
$AUPREC
 70
     0
  9
$MENU
  1
.
  9
$ELEVATION
 40
0.0
  9
$PELEVATION
 40
0.0
  9
$THICKNESS
 40
0.0
  9
$LIMCHECK
 70
     0
  9
$CHAMFERA
 40
0.0
  9
$CHAMFERB
 40
0.0
  9
$CHAMFERC
 40
0.0
  9
$CHAMFERD
 40
0.0
  9
$SKPOLY
 70
     0
  9
$TDCREATE
 40
2458450.666657546
  9
$TDUCREATE
 40
2458450.541657546
  9
$TDUPDATE
 40
2458956.401509178
  9
$TDUUPDATE
 40
2458956.276509178
  9
$TDINDWG
 40
0.0015561921
  9
$TDUSRTIMER
 40
0.0015560185
  9
$USRTIMER
 70
     1
  9
$ANGBASE
 50
0.0
  9
$ANGDIR
 70
     0
  9
$PDMODE
 70
     0
  9
$PDSIZE
 40
0.0
  9
$PLINEWID
 40
0.0
  9
$SPLFRAME
 70
     0
  9
$SPLINETYPE
 70
     6
  9
$SPLINESEGS
 70
     8
  9
$HANDSEED
  5
D48
  9
$SURFTAB1
 70
     6
  9
$SURFTAB2
 70
     6
  9
$SURFTYPE
 70
     6
  9
$SURFU
 70
     6
  9
$SURFV
 70
     6
  9
$UCSBASE
  2

  9
$UCSNAME
  2

  9
$UCSORG
 10
0.0
 20
0.0
 30
0.0
  9
$UCSXDIR
 10
1.0
 20
0.0
 30
0.0
  9
$UCSYDIR
 10
0.0
 20
1.0
 30
0.0
  9
$UCSORTHOREF
  2

  9
$UCSORTHOVIEW
 70
     0
  9
$UCSORGTOP
 10
0.0
 20
0.0
 30
0.0
  9
$UCSORGBOTTOM
 10
0.0
 20
0.0
 30
0.0
  9
$UCSORGLEFT
 10
0.0
 20
0.0
 30
0.0
  9
$UCSORGRIGHT
 10
0.0
 20
0.0
 30
0.0
  9
$UCSORGFRONT
 10
0.0
 20
0.0
 30
0.0
  9
$UCSORGBACK
 10
0.0
 20
0.0
 30
0.0
  9
$PUCSBASE
  2

  9
$PUCSNAME
  2

  9
$PUCSORG
 10
0.0
 20
0.0
 30
0.0
  9
$PUCSXDIR
 10
1.0
 20
0.0
 30
0.0
  9
$PUCSYDIR
 10
0.0
 20
1.0
 30
0.0
  9
$PUCSORTHOREF
  2

  9
$PUCSORTHOVIEW
 70
     0
  9
$PUCSORGTOP
 10
0.0
 20
0.0
 30
0.0
  9
$PUCSORGBOTTOM
 10
0.0
 20
0.0
 30
0.0
  9
$PUCSORGLEFT
 10
0.0
 20
0.0
 30
0.0
  9
$PUCSORGRIGHT
 10
0.0
 20
0.0
 30
0.0
  9
$PUCSORGFRONT
 10
0.0
 20
0.0
 30
0.0
  9
$PUCSORGBACK
 10
0.0
 20
0.0
 30
0.0
  9
$USERI1
 70
     0
  9
$USERI2
 70
     0
  9
$USERI3
 70
     0
  9
$USERI4
 70
     0
  9
$USERI5
 70
     0
  9
$USERR1
 40
0.0
  9
$USERR2
 40
0.0
  9
$USERR3
 40
0.0
  9
$USERR4
 40
0.0
  9
$USERR5
 40
0.0
  9
$WORLDVIEW
 70
     1
  9
$SHADEDGE
 70
     3
  9
$SHADEDIF
 70
    70
  9
$TILEMODE
 70
     1
  9
$MAXACTVP
 70
    64
  9
$PINSBASE
 10
0.0
 20
0.0
 30
0.0
  9
$PLIMCHECK
 70
     0
  9
$PEXTMIN
 10
0.0
 20
0.0
 30
0.0
  9
$PEXTMAX
 10
0.0
 20
0.0
 30
0.0
  9
$PLIMMIN
 10
0.0
 20
0.0
  9
$PLIMMAX
 10
12.0
 20
9.0
  9
$UNITMODE
 70
     0
  9
$VISRETAIN
 70
     1
  9
$PLINEGEN
 70
     0
  9
$PSLTSCALE
 70
     1
  9
$TREEDEPTH
 70
  3020
  9
$CMLSTYLE
  2
Standard
  9
$CMLJUST
 70
     0
  9
$CMLSCALE
 40
20.0
  9
$PROXYGRAPHICS
 70
     1
  9
$MEASUREMENT
 70
     1
  9
$CELWEIGHT
370
    -1
  9
$ENDCAPS
280
     0
  9
$JOINSTYLE
280
     0
  9
$LWDISPLAY
290
     0
  9
$INSUNITS
 70
     4
  9
$HYPERLINKBASE
  1

  9
$STYLESHEET
  1

  9
$XEDIT
290
     1
  9
$CEPSNTYPE
380
     0
  9
$PSTYLEMODE
290
     1
  9
$FINGERPRINTGUID
  2
{3723E681-E228-482B-9BD5-8A2D44346115}
  9
$VERSIONGUID
  2
{C36592FA-CA8E-4365-AB6D-24472D0607CA}
  9
$EXTNAMES
290
     1
  9
$PSVPSCALE
 40
0.0
  9
$OLESTARTUP
290
     0
  0
ENDSEC
  0
SECTION
  2
CLASSES
  0
CLASS
  1
ACDBDICTIONARYWDFLT
  2
AcDbDictionaryWithDefault
  3
ObjectDBX Classes
 90
        0
280
     0
281
     0
  0
CLASS
  1
DICTIONARYVAR
  2
AcDbDictionaryVar
  3
ObjectDBX Classes
 90
        0
280
     0
281
     0
  0
CLASS
  1
TABLESTYLE
  2
AcDbTableStyle
  3
ObjectDBX Classes
 90
     4095
280
     0
281
     0
  0
CLASS
  1
MATERIAL
  2
AcDbMaterial
  3
ObjectDBX Classes
 90
     1153
280
     0
281
     0
  0
CLASS
  1
VISUALSTYLE
  2
AcDbVisualStyle
  3
ObjectDBX Classes
 90
     4095
280
     0
281
     0
  0
CLASS
  1
SCALE
  2
AcDbScale
  3
ObjectDBX Classes
 90
     1153
280
     0
281
     0
  0
CLASS
  1
MLEADERSTYLE
  2
AcDbMLeaderStyle
  3
ACDB_MLEADERSTYLE_CLASS
 90
     4095
280
     0
281
     0
  0
CLASS
  1
CELLSTYLEMAP
  2
AcDbCellStyleMap
  3
ObjectDBX Classes
 90
     1152
280
     0
281
     0
  0
CLASS
  1
ACAD_EVALUATION_GRAPH
  2
AcDbEvalGraph
  3
ObjectDBX Classes
 90
    33921
280
     0
281
     0
  0
CLASS
  1
ACAECUSTOBJ
  2
AcAeEditorObj
  3
AcAeEditorObj
 90
    33792
280
     0
281
     0
  0
CLASS
  1
SORTENTSTABLE
  2
AcDbSortentsTable
  3
ObjectDBX Classes
 90
        0
280
     0
281
     0
  0
CLASS
  1
ACDB_DYNAMICBLOCKPURGEPREVENTER_VERSION
  2
AcDbDynamicBlockPurgePreventer
  3
ObjectDBX Classes
 90
    33921
280
     0
281
     0
  0
CLASS
  1
ACDBPLACEHOLDER
  2
AcDbPlaceHolder
  3
ObjectDBX Classes
 90
        0
280
     0
281
     0
  0
CLASS
  1
LAYOUT
  2
AcDbLayout
  3
ObjectDBX Classes
 90
        0
280
     0
281
     0
  0
ENDSEC
  0
SECTION
  2
TABLES
  0
TABLE
  2
VPORT
  5
8
330
0
100
AcDbSymbolTable
 70
     1
  0
VPORT
  5
EA
330
8
100
AcDbSymbolTableRecord
100
AcDbViewportTableRecord
  2
*Active
 70
     0
 10
0.0
 20
0.0
 11
1.0
 21
1.0
 12
1860.246563569913
 22
757.0755125658324
 13
0.0
 23
0.0
 14
10.0
 24
10.0
 15
10.0
 25
10.0
 16
0.0
 26
0.0
 36
1.0
 17
0.0
 27
0.0
 37
0.0
 40
150.5190657120539
 41
1.90311004784689
 42
50.0
 43
0.0
 44
0.0
 50
0.0
 51
0.0
 71
     0
 72
  1000
 73
     1
 74
     3
 75
     0
 76
     0
 77
     0
 78
     0
281
     0
 65
     1
110
0.0
120
0.0
130
0.0
111
1.0
121
0.0
131
0.0
112
0.0
122
1.0
132
0.0
 79
     0
146
0.0
  0
ENDTAB
  0
TABLE
  2
LTYPE
  5
5
330
0
100
AcDbSymbolTable
 70
     1
  0
LTYPE
  5
14
330
5
100
AcDbSymbolTableRecord
100
AcDbLinetypeTableRecord
  2
ByBlock
 70
     0
  3

 72
    65
 73
     0
 40
0.0
  0
LTYPE
  5
15
330
5
100
AcDbSymbolTableRecord
100
AcDbLinetypeTableRecord
  2
ByLayer
 70
     0
  3

 72
    65
 73
     0
 40
0.0
  0
LTYPE
  5
16
330
5
100
AcDbSymbolTableRecord
100
AcDbLinetypeTableRecord
  2
Continuous
 70
     0
  3
Solid line
 72
    65
 73
     0
 40
0.0
  0
ENDTAB
  0
TABLE
  2
LAYER
  5
2
330
0
100
AcDbSymbolTable
 70
     1
  0
LAYER
  5
10
102
{ACAD_XDICTIONARY
360
13C
102
}
330
2
100
AcDbSymbolTableRecord
100
AcDbLayerTableRecord
  2
0
 70
     0
 62
     7
  6
Continuous
370
    -3
390
F
  0
ENDTAB
  0
TABLE
  2
STYLE
  5
3
330
0
100
AcDbSymbolTable
 70
     2
  0
STYLE
  5
11
330
3
100
AcDbSymbolTableRecord
100
AcDbTextStyleTableRecord
  2
Standard
 70
     0
 40
0.0
 41
1.0
 50
0.0
 71
     0
 42
2.5
  3
txt
  4

  0
STYLE
  5
132
330
3
100
AcDbSymbolTableRecord
100
AcDbTextStyleTableRecord
  2
Annotative
 70
     0
 40
0.0
 41
1.0
 50
0.0
 71
     0
 42
2.5
  3
txt.shx
  4

1001
AcadAnnotative
1000
AnnotativeData
1002
{
1070
     1
1070
     1
1002
}
  0
ENDTAB
  0
TABLE
  2
VIEW
  5
6
330
0
100
AcDbSymbolTable
 70
     0
  0
ENDTAB
  0
TABLE
  2
UCS
  5
7
330
0
100
AcDbSymbolTable
 70
     0
  0
ENDTAB
  0
TABLE
  2
APPID
  5
9
330
0
100
AcDbSymbolTable
 70
    12
  0
APPID
  5
12
330
9
100
AcDbSymbolTableRecord
100
AcDbRegAppTableRecord
  2
ACAD
 70
     0
  0
APPID
  5
9E
330
9
100
AcDbSymbolTableRecord
100
AcDbRegAppTableRecord
  2
ACAD_PSEXT
 70
     0
  0
APPID
  5
133
330
9
100
AcDbSymbolTableRecord
100
AcDbRegAppTableRecord
  2
AcadAnnoPO
 70
     0
  0
APPID
  5
134
330
9
100
AcDbSymbolTableRecord
100
AcDbRegAppTableRecord
  2
AcadAnnotative
 70
     0
  0
APPID
  5
135
330
9
100
AcDbSymbolTableRecord
100
AcDbRegAppTableRecord
  2
ACAD_DSTYLE_DIMJAG
 70
     0
  0
APPID
  5
136
330
9
100
AcDbSymbolTableRecord
100
AcDbRegAppTableRecord
  2
ACAD_DSTYLE_DIMTALN
 70
     0
  0
APPID
  5
165
330
9
100
AcDbSymbolTableRecord
100
AcDbRegAppTableRecord
  2
ACAD_MLEADERVER
 70
     0
  0
APPID
  5
C85
330
9
100
AcDbSymbolTableRecord
100
AcDbRegAppTableRecord
  2
ACAUTHENVIRON
 70
     0
  0
APPID
  5
C8C
330
9
100
AcDbSymbolTableRecord
100
AcDbRegAppTableRecord
  2
ACAD_EXEMPT_FROM_CAD_STANDARDS
 70
     0
  0
APPID
  5
C92
330
9
100
AcDbSymbolTableRecord
100
AcDbRegAppTableRecord
  2
AcDbDynamicBlockTrueName
 70
     0
  0
APPID
  5
C93
330
9
100
AcDbSymbolTableRecord
100
AcDbRegAppTableRecord
  2
AcDbDynamicBlockGUID
 70
     0
  0
APPID
  5
C95
330
9
100
AcDbSymbolTableRecord
100
AcDbRegAppTableRecord
  2
AcDbBlockRepETag
 70
     0
  0
ENDTAB
  0
TABLE
  2
DIMSTYLE
  5
A
330
0
100
AcDbSymbolTable
 70
     2
100
AcDbDimStyleTable
 71
     2
340
27
340
137
  0
DIMSTYLE
105
27
330
A
100
AcDbSymbolTableRecord
100
AcDbDimStyleTableRecord
  2
ISO-25
 70
     0
 41
2.5
 42
0.625
 43
3.75
 44
1.25
 73
     0
 74
     0
 77
     1
 78
     8
140
2.5
141
2.5
143
0.03937007874016
147
0.625
171
     3
172
     1
271
     2
272
     2
274
     3
278
    44
283
     0
284
     8
340
11
  0
DIMSTYLE
105
137
330
A
100
AcDbSymbolTableRecord
100
AcDbDimStyleTableRecord
  2
Annotative
 70
     0
 40
0.0
 41
2.5
 42
0.625
 43
3.75
 44
1.25
 73
     0
 74
     0
 77
     1
 78
     8
140
2.5
141
2.5
143
0.03937007874016
147
0.625
171
     3
172
     1
271
     2
272
     2
274
     3
278
    44
283
     0
284
     8
340
11
1001
AcadAnnotative
1000
AnnotativeData
1002
{
1070
     1
1070
     1
1002
}
1001
ACAD_DSTYLE_DIMJAG
1070
   388
1040
1.5
1001
ACAD_DSTYLE_DIMTALN
1070
   392
1070
     0
  0
ENDTAB
  0
TABLE
  2
BLOCK_RECORD
  5
1
330
0
100
AcDbSymbolTable
 70
     5
  0
BLOCK_RECORD
  5
1F
330
1
100
AcDbSymbolTableRecord
100
AcDbBlockTableRecord
  2
*Model_Space
340
22
  0
BLOCK_RECORD
  5
D2
330
1
100
AcDbSymbolTableRecord
100
AcDbBlockTableRecord
  2
*Paper_Space
340
D3
  0
BLOCK_RECORD
  5
D6
330
1
100
AcDbSymbolTableRecord
100
AcDbBlockTableRecord
  2
*Paper_Space0
340
D7
  0
BLOCK_RECORD
  5
87D
102
{ACAD_XDICTIONARY
360
D26
102
}
330
1
100
AcDbSymbolTableRecord
100
AcDbBlockTableRecord
  2
1
340
0
310
2800000020000000200000000100080000000000000400000000000000000000000000000000000000000000000080000080000000808000800000008000800080800000C0C0C000C0DCC000F0CAA6000020400000206000002080000020A0000020C0000020E00000400000004020000040400000406000004080000040A0
310
000040C0000040E00000600000006020000060400000606000006080000060A0000060C0000060E00000800000008020000080400000806000008080000080A0000080C0000080E00000A0000000A0200000A0400000A0600000A0800000A0A00000A0C00000A0E00000C0000000C0200000C0400000C0600000C0800000C0
310
A00000C0C00000C0E00000E0000000E0200000E0400000E0600000E0800000E0A00000E0C00000E0E00040000000400020004000400040006000400080004000A0004000C0004000E00040200000402020004020400040206000402080004020A0004020C0004020E000404000004040200040404000404060004040800040
310
40A0004040C0004040E00040600000406020004060400040606000406080004060A0004060C0004060E00040800000408020004080400040806000408080004080A0004080C0004080E00040A0000040A0200040A0400040A0600040A0800040A0A00040A0C00040A0E00040C0000040C0200040C0400040C0600040C08000
310
40C0A00040C0C00040C0E00040E0000040E0200040E0400040E0600040E0800040E0A00040E0C00040E0E00080000000800020008000400080006000800080008000A0008000C0008000E00080200000802020008020400080206000802080008020A0008020C0008020E00080400000804020008040400080406000804080
310
008040A0008040C0008040E00080600000806020008060400080606000806080008060A0008060C0008060E00080800000808020008080400080806000808080008080A0008080C0008080E00080A0000080A0200080A0400080A0600080A0800080A0A00080A0C00080A0E00080C0000080C0200080C0400080C0600080C0
310
800080C0A00080C0C00080C0E00080E0000080E0200080E0400080E0600080E0800080E0A00080E0C00080E0E000C0000000C0002000C0004000C0006000C0008000C000A000C000C000C000E000C0200000C0202000C0204000C0206000C0208000C020A000C020C000C020E000C0400000C0402000C0404000C0406000C0
310
408000C040A000C040C000C040E000C0600000C0602000C0604000C0606000C0608000C060A000C060C000C060E000C0800000C0802000C0804000C0806000C0808000C080A000C080C000C080E000C0A00000C0A02000C0A04000C0A06000C0A08000C0A0A000C0A0C000C0A0E000C0C00000C0C02000C0C04000C0C06000
310
C0C08000C0C0A000F0FBFF00A4A0A000808080000000FF0000FF000000FFFF00FF000000FF00FF00FFFF0000FFFFFF000000000000000000000000000000000000000000000000000000000000000000000000FFFFFFFFFF0000000000000000000000000000000000FFFFFFFFFF00000000FFFFFFFFFFFFFF000000000000
310
0000000000000000FFFF00000000FF00000000FFFFFFFFFF00FF000000000000FFFFFF0000000000FFFF00000000FF000000000000FF00FF00FFFFFFFFFFFFFFFFFFFFFFFFFFFFFFFFFF00000000FF0000000000FFFF00FF00000000000000000000000000000000000000000000FF0000000000FF0000FF00000000000000
310
000000000000000000000000000000FF0000000000FFFFFFFF00000000000000000000000000000000000000000000FF0000000000FFFFFFFFFFFFFFFFFFFFFFFFFFFFFFFFFFFFFFFFFFFFFFFFFFFFFF0000000000FF00000000000000000000000000000000000000000000000000FF0000000000FF000000000000000000
310
00000000000000000000000000000000FF0000000000FF00000000000000000000000000000000000000000000000000FF0000000000FF00000000000000000000000000000000000000000000000000FF0000000000FF00000000000000000000000000000000000000000000000000FF0000000000FF0000000000000000
310
0000000000000000000000000000000000FF0000000000FF00000000000000000000000000000000000000000000000000FF0000000000FF00000000000000000000000000000000000000000000000000FF0000000000FF00000000000000000000000000000000000000000000000000FF0000000000FF00000000000000
310
000000000000000000000000000000000000FF0000000000FF00000000000000000000000000000000000000000000000000FF0000000000FF00000000000000000000000000000000000000000000000000FF0000000000FF00000000000000000000000000000000000000000000000000FF0000000000FF000000000000
310
00000000000000000000000000000000000000FF0000000000FF00000000000000000000000000000000000000000000000000FF0000000000FF00000000000000000000FFFFFFFFFF00000000000000000000FF0000000000FF00FF0000000000000000FF000000FF0000000000000000FF00FF000000000000FFFFFF0000
310
0000000000FF000000FF00000000000000FFFFFF000000000000000000FF00000000000000FF000000FF000000000000FFFF0000000000000000000000FF00000000000000FF000000FF00000000000000FF000000000000000000000000FFFFFFFFFFFFFFFF000000FFFFFFFFFFFFFFFF0000000000000000000000000000
310
00FFFFFFFF000000000000FFFFFFFFFF00000000000000000000000000000000000000000000000000000000000000000000000000000000
102
{BLKREFS
331
908
102
}
1001
AcDbDynamicBlockGUID
1000
{00964CB3-BA98-4C18-8253-CA676657B508}
1001
AcDbBlockRepETag
1070
     1
1071
      136
1001
ACAD
1000
DesignCenter Data
1002
{
1070
     1
1070
     4
1002
}
  0
BLOCK_RECORD
  5
909
330
1
100
AcDbSymbolTableRecord
100
AcDbBlockTableRecord
  2
2
340
0
310
2800000020000000200000000100080000000000000400000000000000000000000000000000000000000000000080000080000000808000800000008000800080800000C0C0C000C0DCC000F0CAA6000020400000206000002080000020A0000020C0000020E00000400000004020000040400000406000004080000040A0
310
000040C0000040E00000600000006020000060400000606000006080000060A0000060C0000060E00000800000008020000080400000806000008080000080A0000080C0000080E00000A0000000A0200000A0400000A0600000A0800000A0A00000A0C00000A0E00000C0000000C0200000C0400000C0600000C0800000C0
310
A00000C0C00000C0E00000E0000000E0200000E0400000E0600000E0800000E0A00000E0C00000E0E00040000000400020004000400040006000400080004000A0004000C0004000E00040200000402020004020400040206000402080004020A0004020C0004020E000404000004040200040404000404060004040800040
310
40A0004040C0004040E00040600000406020004060400040606000406080004060A0004060C0004060E00040800000408020004080400040806000408080004080A0004080C0004080E00040A0000040A0200040A0400040A0600040A0800040A0A00040A0C00040A0E00040C0000040C0200040C0400040C0600040C08000
310
40C0A00040C0C00040C0E00040E0000040E0200040E0400040E0600040E0800040E0A00040E0C00040E0E00080000000800020008000400080006000800080008000A0008000C0008000E00080200000802020008020400080206000802080008020A0008020C0008020E00080400000804020008040400080406000804080
310
008040A0008040C0008040E00080600000806020008060400080606000806080008060A0008060C0008060E00080800000808020008080400080806000808080008080A0008080C0008080E00080A0000080A0200080A0400080A0600080A0800080A0A00080A0C00080A0E00080C0000080C0200080C0400080C0600080C0
310
800080C0A00080C0C00080C0E00080E0000080E0200080E0400080E0600080E0800080E0A00080E0C00080E0E000C0000000C0002000C0004000C0006000C0008000C000A000C000C000C000E000C0200000C0202000C0204000C0206000C0208000C020A000C020C000C020E000C0400000C0402000C0404000C0406000C0
310
408000C040A000C040C000C040E000C0600000C0602000C0604000C0606000C0608000C060A000C060C000C060E000C0800000C0802000C0804000C0806000C0808000C080A000C080C000C080E000C0A00000C0A02000C0A04000C0A06000C0A08000C0A0A000C0A0C000C0A0E000C0C00000C0C02000C0C04000C0C06000
310
C0C08000C0C0A000F0FBFF00A4A0A000808080000000FF0000FF000000FFFF00FF000000FF00FF00FFFF0000FFFFFF000000000000000000000000000000000000000000000000000000000000000000000000000000000000000000FFFFFFFFFFFFFFFF000000000000000000000000000000000000000000000000FFFFFF
310
FFFFFFFFFF000000000000000000000000000000000000000000000000FF000000000000FF000000000000000000000000000000000000000000000000FF000000000000FF000000000000000000000000000000000000000000000000FF000000000000FF000000000000000000000000000000000000000000000000FF00
310
0000000000FF000000000000000000000000000000000000000000000000FF000000000000FF000000000000000000000000000000000000000000000000FF000000000000FF000000000000000000000000000000000000000000000000FF000000000000FF000000000000000000000000000000000000000000000000FF
310
000000000000FF000000000000000000000000000000000000000000000000FF000000000000FF000000000000000000000000000000000000000000000000FFFFFFFFFFFFFFFF000000000000000000000000000000000000000000000000FFFF00000000FFFF000000000000000000000000000000000000000000000000
310
FFFFFFFFFFFFFFFF000000000000000000000000000000000000000000000000FFFFFFFFFFFFFFFF000000000000000000000000000000000000000000000000FFFFFFFFFFFFFFFF000000000000000000000000000000000000000000000000FFFFFF0000FFFFFF0000000000000000000000000000000000000000000000
310
00FFFFFFFFFFFFFFFF000000000000000000000000000000000000000000000000FFFFFFFFFFFFFFFF000000000000000000000000000000000000000000000000FFFFFFFFFFFFFFFF000000000000000000000000000000000000000000000000FF000000000000FF00000000000000000000000000000000000000000000
310
0000FF000000000000FF000000000000000000000000000000000000000000000000FF000000000000FF000000000000000000000000000000000000000000000000FFFFFFFFFFFFFFFF000000000000000000000000000000000000000000000000FFFFFFFFFFFFFFFF000000000000000000000000000000000000000000
310
000000FFFFFFFFFFFFFFFF000000000000000000000000000000000000000000000000FFFFFFFFFFFFFFFF000000000000000000000000000000000000000000000000FFFFFFFFFFFFFFFF000000000000000000000000000000000000000000000000FFFFFFFFFFFFFFFF0000000000000000000000000000000000000000
310
000000000000FFFFFFFF00000000000000000000000000000000000000000000000000000000000000000000000000000000000000000000
102
{BLKREFS
331
9DC
102
}
1001
ACAD
1000
DesignCenter Data
1002
{
1070
     1
1070
     4
1002
}
  0
BLOCK_RECORD
  5
9DD
330
1
100
AcDbSymbolTableRecord
100
AcDbBlockTableRecord
  2
3
340
0
310
2800000020000000200000000100080000000000000400000000000000000000000000000000000000000000000080000080000000808000800000008000800080800000C0C0C000C0DCC000F0CAA6000020400000206000002080000020A0000020C0000020E00000400000004020000040400000406000004080000040A0
310
000040C0000040E00000600000006020000060400000606000006080000060A0000060C0000060E00000800000008020000080400000806000008080000080A0000080C0000080E00000A0000000A0200000A0400000A0600000A0800000A0A00000A0C00000A0E00000C0000000C0200000C0400000C0600000C0800000C0
310
A00000C0C00000C0E00000E0000000E0200000E0400000E0600000E0800000E0A00000E0C00000E0E00040000000400020004000400040006000400080004000A0004000C0004000E00040200000402020004020400040206000402080004020A0004020C0004020E000404000004040200040404000404060004040800040
310
40A0004040C0004040E00040600000406020004060400040606000406080004060A0004060C0004060E00040800000408020004080400040806000408080004080A0004080C0004080E00040A0000040A0200040A0400040A0600040A0800040A0A00040A0C00040A0E00040C0000040C0200040C0400040C0600040C08000
310
40C0A00040C0C00040C0E00040E0000040E0200040E0400040E0600040E0800040E0A00040E0C00040E0E00080000000800020008000400080006000800080008000A0008000C0008000E00080200000802020008020400080206000802080008020A0008020C0008020E00080400000804020008040400080406000804080
310
008040A0008040C0008040E00080600000806020008060400080606000806080008060A0008060C0008060E00080800000808020008080400080806000808080008080A0008080C0008080E00080A0000080A0200080A0400080A0600080A0800080A0A00080A0C00080A0E00080C0000080C0200080C0400080C0600080C0
310
800080C0A00080C0C00080C0E00080E0000080E0200080E0400080E0600080E0800080E0A00080E0C00080E0E000C0000000C0002000C0004000C0006000C0008000C000A000C000C000C000E000C0200000C0202000C0204000C0206000C0208000C020A000C020C000C020E000C0400000C0402000C0404000C0406000C0
310
408000C040A000C040C000C040E000C0600000C0602000C0604000C0606000C0608000C060A000C060C000C060E000C0800000C0802000C0804000C0806000C0808000C080A000C080C000C080E000C0A00000C0A02000C0A04000C0A06000C0A08000C0A0A000C0A0C000C0A0E000C0C00000C0C02000C0C04000C0C06000
310
C0C08000C0C0A000F0FBFF00A4A0A000808080000000FF0000FF000000FFFF00FF000000FF00FF00FFFF0000FFFFFF0000000000000000000000000000000000000000000000000000000000000000000000000000000000000000000000000000000000000000000000000000000000000000000000000000000000000000
310
00000000000000000000000000000000000000000000000000000000000000000000000000000000000000000000000000000000000000000000000000000000000000000000000000000000000000000000000000000000000000000000000000000000000000000000000000000000000000000000000000000000000000
310
00000000000000000000000000000000000000000000000000000000000000000000000000000000000000000000000000000000000000000000000000000000000000000000000000000000000000000000000000000000000000000000000000000000000000000000000000000000000000000000000000000000000000
310
00000000000000000000000000000000000000000000000000000000000000000000000000000000000000000000000000000000FFFFFFFFFFFFFFFFFFFFFFFFFFFFFFFFFFFFFFFFFFFFFFFFFFFFFFFFFFFF0000FFFFFFFFFFFFFF0000FF000000FF000000FF000000FF0000FFFFFFFFFFFF0000FFFFFFFFFFFFFF00FFFFFF
310
0000FF000000FF0000FFFFFF00FFFFFFFFFFFF0000FFFFFFFFFFFFFF00FFFFFF0000FF000000FF0000FFFFFF00FFFFFFFFFFFF0000FFFFFFFFFFFFFFFF00FF00FF00FFFFFFFFFF00FFFFFFFFFFFFFFFFFFFFFF0000FFFFFFFFFFFFFF00FFFFFF0000FF000000FF0000FFFFFF00FFFFFFFFFFFF0000FFFFFFFFFFFFFF0000FF
310
000000FF000000FF000000FF0000FFFFFFFFFFFF0000FFFFFFFFFFFFFFFFFFFFFFFFFFFFFFFFFFFFFFFFFFFFFFFFFFFFFFFFFFFF000000000000000000000000000000000000000000000000000000000000000000000000000000000000000000000000000000000000000000000000000000000000000000000000000000
310
00000000000000000000000000000000000000000000000000000000000000000000000000000000000000000000000000000000000000000000000000000000000000000000000000000000000000000000000000000000000000000000000000000000000000000000000000000000000000000000000000000000000000
310
00000000000000000000000000000000000000000000000000000000000000000000000000000000000000000000000000000000000000000000000000000000000000000000000000000000000000000000000000000000000000000000000000000000000000000000000000000000000000000000000000000000000000
310
0000000000000000000000000000000000000000000000000000000000000000000000000000000000000000000000000000000000000000
102
{BLKREFS
331
A9B
102
}
1001
ACAD
1000
DesignCenter Data
1002
{
1070
     1
1070
     4
1002
}
  0
BLOCK_RECORD
  5
A9C
330
1
100
AcDbSymbolTableRecord
100
AcDbBlockTableRecord
  2
4
340
0
310
2800000020000000200000000100080000000000000400000000000000000000000000000000000000000000000080000080000000808000800000008000800080800000C0C0C000C0DCC000F0CAA6000020400000206000002080000020A0000020C0000020E00000400000004020000040400000406000004080000040A0
310
000040C0000040E00000600000006020000060400000606000006080000060A0000060C0000060E00000800000008020000080400000806000008080000080A0000080C0000080E00000A0000000A0200000A0400000A0600000A0800000A0A00000A0C00000A0E00000C0000000C0200000C0400000C0600000C0800000C0
310
A00000C0C00000C0E00000E0000000E0200000E0400000E0600000E0800000E0A00000E0C00000E0E00040000000400020004000400040006000400080004000A0004000C0004000E00040200000402020004020400040206000402080004020A0004020C0004020E000404000004040200040404000404060004040800040
310
40A0004040C0004040E00040600000406020004060400040606000406080004060A0004060C0004060E00040800000408020004080400040806000408080004080A0004080C0004080E00040A0000040A0200040A0400040A0600040A0800040A0A00040A0C00040A0E00040C0000040C0200040C0400040C0600040C08000
310
40C0A00040C0C00040C0E00040E0000040E0200040E0400040E0600040E0800040E0A00040E0C00040E0E00080000000800020008000400080006000800080008000A0008000C0008000E00080200000802020008020400080206000802080008020A0008020C0008020E00080400000804020008040400080406000804080
310
008040A0008040C0008040E00080600000806020008060400080606000806080008060A0008060C0008060E00080800000808020008080400080806000808080008080A0008080C0008080E00080A0000080A0200080A0400080A0600080A0800080A0A00080A0C00080A0E00080C0000080C0200080C0400080C0600080C0
310
800080C0A00080C0C00080C0E00080E0000080E0200080E0400080E0600080E0800080E0A00080E0C00080E0E000C0000000C0002000C0004000C0006000C0008000C000A000C000C000C000E000C0200000C0202000C0204000C0206000C0208000C020A000C020C000C020E000C0400000C0402000C0404000C0406000C0
310
408000C040A000C040C000C040E000C0600000C0602000C0604000C0606000C0608000C060A000C060C000C060E000C0800000C0802000C0804000C0806000C0808000C080A000C080C000C080E000C0A00000C0A02000C0A04000C0A06000C0A08000C0A0A000C0A0C000C0A0E000C0C00000C0C02000C0C04000C0C06000
310
C0C08000C0C0A000F0FBFF00A4A0A000808080000000FF0000FF000000FFFF00FF000000FF00FF00FFFF0000FFFFFF00000000000000000000000000000000000000000000000000000000000000000000000000000000000000FFFFFF0000000000000000000000000000000000000000000000000000FFFFFFFFFFFFFFFF
310
000000000000000000000000000000000000000000000000FFFFFFFFFFFFFFFF000000000000000000000000000000000000000000000000FFFFFFFF00FFFFFF00000000000000000000000000000000000000000000000000FF000000FFFFFFFFFFFF000000000000000000000000000000000000000000FF0000FFFFFFFF
310
0000FFFFFF0000FFFF00000000000000000000000000000000FFFFFFFFFFFFFF0000000000FFFFFFFFFFFF0000000000000000000000000000FF00000000FF00FFFF0000000000FFFF00FF0000000000000000000000000000FF00000000FF000000FFFFFF0000000000FF0000000000000000000000000000FF00000000FF
310
000000000000FFFF000000FF0000000000000000000000000000FFFFFFFFFFFF0000000000000000FFFF00FF0000000000000000000000000000FFFFA4A4FFFF00000000000000000000FFFF0000000000000000000000000000FFFFFF00FFFF0000000000000000000000FF0000000000000000000000000000FFFFFFFFFF
310
FF0000000000000000000000FF0000000000000000000000000000FFFFFFFFFFFF0000000000000000000000FF0000000000000000000000000000FFFFFFFFFFFF0000000000000000000000FF0000000000000000000000000000FFFFFFFFFFFF0000000000000000000000FF0000000000000000000000000000FFFFFF00
310
00FF0000000000000000000000FF0000000000000000000000000000FF00000000FF0000000000000000000000FF0000000000000000000000000000FF0000FFFFFF0000000000000000000000FF0000000000000000000000000000FFFFFFFFFFFFFF00000000000000000000FF000000000000000000000000000000FFFF
310
FFFFFFFF00000000000000000000FF000000000000000000000000000000FFFFFFFFFFFF000000FFFFFF00000000FF000000000000000000000000000000FFFFFFFFFFFF000000FFFFFF00000000FF000000000000000000000000000000FFFFFFFFFFFFFFFF00FF00FF00000000FF00000000000000000000000000000000
310
FFFFFFFFFFFFFFFFFF00FF000000FFFF0000000000000000000000000000000000FFFFFFFFFFFFFFFFFFFF0000FFFFFF000000000000000000000000000000000000000000FFFFFFFFFFFFFFFF00FF0000000000000000000000000000000000000000000000FFFFFFFFFFFFFFFF0000000000000000000000000000000000
310
000000000000000000FFFFFF0000000000000000000000000000000000000000000000000000000000000000000000000000000000000000
102
{BLKREFS
331
BF2
102
}
1001
ACAD
1000
DesignCenter Data
1002
{
1070
     1
1070
     4
1002
}
  0
ENDTAB
  0
ENDSEC
  0
SECTION
  2
BLOCKS
  0
BLOCK
  5
20
330
1F
100
AcDbEntity
  8
0
100
AcDbBlockBegin
  2
*Model_Space
 70
     0
 10
0.0
 20
0.0
 30
0.0
  3
*Model_Space
  1

  0
ENDBLK
  5
21
330
1F
100
AcDbEntity
  8
0
100
AcDbBlockEnd
  0
BLOCK
  5
D4
330
D2
100
AcDbEntity
 67
     1
  8
0
100
AcDbBlockBegin
  2
*Paper_Space
 70
     0
 10
0.0
 20
0.0
 30
0.0
  3
*Paper_Space
  1

  0
ENDBLK
  5
D5
330
D2
100
AcDbEntity
 67
     1
  8
0
100
AcDbBlockEnd
  0
BLOCK
  5
D8
330
D6
100
AcDbEntity
 67
     1
  8
0
100
AcDbBlockBegin
  2
*Paper_Space0
 70
     0
 10
0.0
 20
0.0
 30
0.0
  3
*Paper_Space0
  1

  0
ENDBLK
  5
D9
330
D6
100
AcDbEntity
 67
     1
  8
0
100
AcDbBlockEnd
  0
BLOCK
  5
87E
330
87D
100
AcDbEntity
  8
0
100
AcDbBlockBegin
  2
1
 70
     0
 10
0.0
 20
0.0
 30
0.0
  3
1
  1

  0
LINE
  5
C9E
330
87D
100
AcDbEntity
  8
0
  6
Continuous
 62
     7
370
    15
100
AcDbLine
 10
1817.083056715884
 20
801.721935608529
 30
0.0
 11
1817.083056715884
 21
799.62193560853
 31
0.0
1001
AcDbBlockRepETag
1070
     1
1071
        0
1005
C9E
  0
LINE
  5
C9F
330
87D
100
AcDbEntity
  8
0
  6
Continuous
 62
     7
370
    15
100
AcDbLine
 10
1825.583056715884
 20
799.6219356085304
 30
0.0
 11
1825.583056715884
 21
801.7219356085291
 31
0.0
1001
AcDbBlockRepETag
1070
     1
1071
        1
1005
C9F
  0
LINE
  5
CA0
330
87D
100
AcDbEntity
  8
0
  6
Continuous
 62
     7
370
    15
100
AcDbLine
 10
1841.123056715884
 20
801.7219356085298
 30
0.0
 11
1841.123056715884
 21
799.6219356085298
 31
0.0
1001
AcDbBlockRepETag
1070
     1
1071
        2
1005
CA0
  0
LINE
  5
CA1
330
87D
100
AcDbEntity
  8
0
  6
Continuous
 62
     7
370
    15
100
AcDbLine
 10
1849.623056715884
 20
799.62193560853
 30
0.0
 11
1849.623056715884
 21
801.7219356085302
 31
0.0
1001
AcDbBlockRepETag
1070
     1
1071
        3
1005
CA1
  0
LINE
  5
CA2
330
87D
100
AcDbEntity
  8
0
  6
Continuous
 62
     7
370
    15
100
AcDbLine
 10
1855.718868277265
 20
797.0993118101646
 30
0.0
 11
1853.48945683144
 21
799.3289987082127
 31
0.0
1001
AcDbBlockRepETag
1070
     1
1071
        4
1005
CA2
  0
ARC
  5
CA3
330
87D
100
AcDbEntity
  8
0
  6
Continuous
 62
     7
370
    15
100
AcDbCircle
 10
1855.159856055922
 20
796.540368648365
 30
0.0
 40
0.7905138339921827
100
AcDbArc
 50
317.502038035236
 51
44.99646066343977
1001
AcDbBlockRepETag
1070
     1
1071
        5
1005
CA3
  0
LINE
  5
CA4
330
87D
100
AcDbEntity
  8
0
  6
Continuous
 62
     7
370
    15
100
AcDbLine
 10
1855.309425722681
 20
795.5334530454344
 30
0.0
 11
1855.742702986653
 21
796.0063259749106
 31
0.0
1001
AcDbBlockRepETag
1070
     1
1071
        6
1005
CA4
  0
ARC
  5
CA5
330
87D
100
AcDbEntity
  8
0
  6
Continuous
 62
     7
370
    15
100
AcDbCircle
 10
1855.163713989998
 20
795.6669637137982
 30
0.0
 40
0.1976284584979952
100
AcDbArc
 50
225.0034775102863
 51
317.5020380351392
1001
AcDbBlockRepETag
1070
     1
1071
        7
1005
CA5
  0
LINE
  5
CA6
330
87D
100
AcDbEntity
  8
0
  6
Continuous
 62
     7
370
    15
100
AcDbLine
 10
1854.996909639694
 20
795.5542759327177
 30
0.0
 11
1855.023978048745
 21
795.5272108092474
 31
0.0
1001
AcDbBlockRepETag
1070
     1
1071
        8
1005
CA6
  0
ARC
  5
CA7
330
87D
100
AcDbEntity
  8
0
  6
Continuous
 62
     7
370
    15
100
AcDbCircle
 10
1854.892101322325
 20
795.4494676153483
 30
0.0
 40
0.1482213438733749
100
AcDbArc
 50
44.99999999990328
 51
135.0000000055041
1001
AcDbBlockRepETag
1070
     1
1071
        9
1005
CA7
  0
LINE
  5
CA8
330
87D
100
AcDbEntity
  8
0
  6
Continuous
 62
     7
370
    15
100
AcDbLine
 10
1854.718574969871
 20
795.4855578976331
 30
0.0
 11
1854.787293004945
 21
795.5542759327077
 31
0.0
1001
AcDbBlockRepETag
1070
     1
1071
       10
1005
CA8
  0
ARC
  5
CA9
330
87D
100
AcDbEntity
  8
0
  6
Continuous
 62
     7
370
    15
100
AcDbCircle
 10
1854.82338328724
 20
795.3807495802642
 30
0.0
 40
0.1482213438732909
100
AcDbArc
 50
135.0000000000414
 51
239.0020422531804
1001
AcDbBlockRepETag
1070
     1
1071
       11
1005
CA9
  0
ARC
  5
CAA
330
87D
100
AcDbEntity
  8
0
  6
Continuous
 62
     7
370
    15
100
AcDbCircle
 10
1849.658041049065
 20
786.7834823562747
 30
0.0
 40
9.881422924901189
100
AcDbArc
 50
30.9979758098078
 51
59.00204225299945
1001
AcDbBlockRepETag
1070
     1
1071
       12
1005
CAA
  0
ARC
  5
CAB
330
87D
100
AcDbEntity
  8
0
  6
Continuous
 62
     7
370
    15
100
AcDbCircle
 10
1858.25530664465
 20
791.9488273047858
 30
0.0
 40
0.1482213438736078
100
AcDbArc
 50
210.9979758098078
 51
314.9999999998802
1001
AcDbBlockRepETag
1070
     1
1071
       13
1005
CAB
  0
LINE
  5
CAC
330
87D
100
AcDbEntity
  8
0
  6
Continuous
 62
     7
370
    15
100
AcDbLine
 10
1858.42882859035
 20
791.9127326157451
 30
0.0
 11
1858.36011496202
 21
791.8440189874161
 31
0.0
1001
AcDbBlockRepETag
1070
     1
1071
       14
1005
CAC
  0
ARC
  5
CAD
330
87D
100
AcDbEntity
  8
0
  6
Continuous
 62
     7
370
    15
100
AcDbCircle
 10
1858.324020272981
 20
792.0175409331156
 30
0.0
 40
0.148221343873817
100
AcDbArc
 50
314.9999999997513
 51
44.99999999989866
1001
AcDbBlockRepETag
1070
     1
1071
       15
1005
CAD
  0
LINE
  5
CAE
330
87D
100
AcDbEntity
  8
0
  6
Continuous
 62
     7
370
    15
100
AcDbLine
 10
1858.401812037909
 20
792.1493658029252
 30
0.0
 11
1858.42882859035
 21
792.1223492504847
 31
0.0
1001
AcDbBlockRepETag
1070
     1
1071
       16
1005
CAE
  0
ARC
  5
CAF
330
87D
100
AcDbEntity
  8
0
  6
Continuous
 62
     7
370
    15
100
AcDbCircle
 10
1858.541556461069
 20
792.2891102260848
 30
0.0
 40
0.1976284584982083
100
AcDbArc
 50
132.5040716712567
 51
225.0000000000276
1001
AcDbBlockRepETag
1070
     1
1071
       17
1005
CAF
  0
LINE
  5
CB0
330
87D
100
AcDbEntity
  8
0
  6
Continuous
 62
     7
370
    15
100
AcDbLine
 10
1858.880539613919
 20
792.867844553197
 30
0.0
 11
1858.408030255567
 21
792.4348077210964
 31
0.0
1001
AcDbBlockRepETag
1070
     1
1071
       18
1005
CB0
  0
ARC
  5
CB1
330
87D
100
AcDbEntity
  8
0
  6
Continuous
 62
     7
370
    15
100
AcDbCircle
 10
1859.414644435926
 20
792.2850545731511
 30
0.0
 40
0.7905138339921827
100
AcDbArc
 50
44.99646066343977
 51
132.5040716713304
1001
AcDbBlockRepETag
1070
     1
1071
       19
1005
CB1
  0
LINE
  5
CB2
330
87D
100
AcDbEntity
  8
0
  6
Continuous
 62
     7
370
    15
100
AcDbLine
 10
1862.247104597071
 20
790.5702689020472
 30
0.0
 11
1859.973656657269
 21
792.8439977349506
 31
0.0
1001
AcDbBlockRepETag
1070
     1
1071
       20
1005
CB2
  0
ARC
  5
CB3
330
87D
100
AcDbEntity
  8
0
  6
Continuous
 62
     7
370
    15
100
AcDbCircle
 10
1861.752099275072
 20
790.0753247322739
 30
0.0
 40
0.7000000000000455
100
AcDbArc
 50
359.9999999999805
 51
44.99646066343977
1001
AcDbBlockRepETag
1070
     1
1071
       21
1005
CB3
  0
LINE
  5
CB4
330
87D
100
AcDbEntity
  8
0
  6
Continuous
 62
     7
370
    15
100
AcDbLine
 10
1862.452099275072
 20
790.0753247322739
 30
0.0
 11
1862.452099275118
 21
752.2183973313677
 31
0.0
1001
AcDbBlockRepETag
1070
     1
1071
       22
1005
CB4
  0
LINE
  5
CB5
330
87D
100
AcDbEntity
  8
0
  6
Continuous
 62
     7
370
    15
100
AcDbLine
 10
1862.452099275118
 20
752.2183973313677
 30
0.0
 11
1804.254014156638
 21
752.2183973313677
 31
0.0
1001
AcDbBlockRepETag
1070
     1
1071
       23
1005
CB5
  0
LINE
  5
CB6
330
87D
100
AcDbEntity
  8
0
  6
Continuous
 62
     7
370
    15
100
AcDbLine
 10
1804.254014156638
 20
752.2183973313677
 30
0.0
 11
1804.254014156617
 21
790.0753247322681
 31
0.0
1001
AcDbBlockRepETag
1070
     1
1071
       24
1005
CB6
  0
ARC
  5
CB7
330
87D
100
AcDbEntity
  8
0
  6
Continuous
 62
     7
370
    15
100
AcDbCircle
 10
1804.954014156617
 20
790.0753247322684
 30
0.0
 40
0.6999999999999888
100
AcDbArc
 50
135.0035393365602
 51
180.000000000026
1001
AcDbBlockRepETag
1070
     1
1071
       25
1005
CB7
  0
LINE
  5
CB8
330
87D
100
AcDbEntity
  8
0
  6
Continuous
 62
     7
370
    15
100
AcDbLine
 10
1806.73245677442
 20
792.8439977349449
 30
0.0
 11
1804.459008834618
 21
790.5702689020414
 31
0.0
1001
AcDbBlockRepETag
1070
     1
1071
       26
1005
CB8
  0
ARC
  5
CB9
330
87D
100
AcDbEntity
  8
0
  6
Continuous
 62
     7
370
    15
100
AcDbCircle
 10
1807.291468995763
 20
792.2850545731454
 30
0.0
 40
0.7905138339922028
100
AcDbArc
 50
47.49592832866953
 51
135.0035393365602
1001
AcDbBlockRepETag
1070
     1
1071
       27
1005
CB9
  0
LINE
  5
CBA
330
87D
100
AcDbEntity
  8
0
  6
Continuous
 62
     7
370
    15
100
AcDbLine
 10
1808.298083176124
 20
792.434807721091
 30
0.0
 11
1807.82557381777
 21
792.8678445531914
 31
0.0
1001
AcDbBlockRepETag
1070
     1
1071
       28
1005
CBA
  0
ARC
  5
CBB
330
87D
100
AcDbEntity
  8
0
  6
Continuous
 62
     7
370
    15
100
AcDbCircle
 10
1808.164556970623
 20
792.2891102260794
 30
0.0
 40
0.1976284584982083
100
AcDbArc
 50
314.9999999999768
 51
47.49592832874316
1001
AcDbBlockRepETag
1070
     1
1071
       29
1005
CBB
  0
LINE
  5
CBC
330
87D
100
AcDbEntity
  8
0
  6
Continuous
 62
     7
370
    15
100
AcDbLine
 10
1808.304301393782
 20
792.1493658029199
 30
0.0
 11
1808.277284841341
 21
792.1223492504792
 31
0.0
1001
AcDbBlockRepETag
1070
     1
1071
       30
1005
CBC
  0
ARC
  5
CBD
330
87D
100
AcDbEntity
  8
0
  6
Continuous
 62
     7
370
    15
100
AcDbCircle
 10
1808.382093158711
 20
792.0175409331099
 30
0.0
 40
0.1482213438737969
100
AcDbArc
 50
135.0000000000967
 51
225.0000000002441
1001
AcDbBlockRepETag
1070
     1
1071
       31
1005
CBD
  0
LINE
  5
CBE
330
87D
100
AcDbEntity
  8
0
  6
Continuous
 62
     7
370
    15
100
AcDbLine
 10
1808.277284841342
 20
791.9127326157397
 30
0.0
 11
1808.345998469668
 21
791.8440189874104
 31
0.0
1001
AcDbBlockRepETag
1070
     1
1071
       32
1005
CBE
  0
ARC
  5
CBF
330
87D
100
AcDbEntity
  8
0
  6
Continuous
 62
     7
370
    15
100
AcDbCircle
 10
1808.450806787038
 20
791.9488273047802
 30
0.0
 40
0.1482213438736175
100
AcDbArc
 50
225.0000000001382
 51
329.0020241902034
1001
AcDbBlockRepETag
1070
     1
1071
       33
1005
CBF
  0
ARC
  5
CC0
330
87D
100
AcDbEntity
  8
0
  6
Continuous
 62
     7
370
    15
100
AcDbCircle
 10
1817.048072382627
 20
786.7834823562692
 30
0.0
 40
9.88142292490307
100
AcDbArc
 50
120.997957747015
 51
149.0020241901978
1001
AcDbBlockRepETag
1070
     1
1071
       34
1005
CC0
  0
ARC
  5
CC1
330
87D
100
AcDbEntity
  8
0
  6
Continuous
 62
     7
370
    15
100
AcDbCircle
 10
1811.882730144449
 20
795.3807495802586
 30
0.0
 40
0.1482213438733056
100
AcDbArc
 50
300.9979577468341
 51
44.99999999995854
1001
AcDbBlockRepETag
1070
     1
1071
       35
1005
CC1
  0
LINE
  5
CC2
330
87D
100
AcDbEntity
  8
0
  6
Continuous
 62
     7
370
    15
100
AcDbLine
 10
1811.918820426746
 20
795.5542759327021
 30
0.0
 11
1811.987538461818
 21
795.4855578976276
 31
0.0
1001
AcDbBlockRepETag
1070
     1
1071
       36
1005
CC2
  0
ARC
  5
CC3
330
87D
100
AcDbEntity
  8
0
  6
Continuous
 62
     7
370
    15
100
AcDbCircle
 10
1811.814012109367
 20
795.4494676153427
 30
0.0
 40
0.148221343873395
100
AcDbArc
 50
44.9999999945005
 51
135.0000000001013
1001
AcDbBlockRepETag
1070
     1
1071
       37
1005
CC3
  0
LINE
  5
CC4
330
87D
100
AcDbEntity
  8
0
  6
Continuous
 62
     7
370
    15
100
AcDbLine
 10
1811.682135382947
 20
795.527210809242
 30
0.0
 11
1811.709203791997
 21
795.5542759327122
 31
0.0
1001
AcDbBlockRepETag
1070
     1
1071
       38
1005
CC4
  0
ARC
  5
CC5
330
87D
100
AcDbEntity
  8
0
  6
Continuous
 62
     7
370
    15
100
AcDbCircle
 10
1811.542399441693
 20
795.6669637137926
 30
0.0
 40
0.1976284584979952
100
AcDbArc
 50
222.4979619648608
 51
314.9965224897138
1001
AcDbBlockRepETag
1070
     1
1071
       39
1005
CC5
  0
LINE
  5
CC6
330
87D
100
AcDbEntity
  8
0
  6
Continuous
 62
     7
370
    15
100
AcDbLine
 10
1810.963410445036
 20
796.0063259749049
 30
0.0
 11
1811.396687709011
 21
795.5334530454288
 31
0.0
1001
AcDbBlockRepETag
1070
     1
1071
       40
1005
CC6
  0
ARC
  5
CC7
330
87D
100
AcDbEntity
  8
0
  6
Continuous
 62
     7
370
    15
100
AcDbCircle
 10
1811.546257375766
 20
796.5403686483597
 30
0.0
 40
0.7905138339922028
100
AcDbArc
 50
135.0035393365602
 51
222.4979619647688
1001
AcDbBlockRepETag
1070
     1
1071
       41
1005
CC7
  0
LINE
  5
CC8
330
87D
100
AcDbEntity
  8
0
  6
Continuous
 62
     7
370
    15
100
AcDbLine
 10
1813.216656600249
 20
799.328998708207
 30
0.0
 11
1810.987245154423
 21
797.0993118101589
 31
0.0
1001
AcDbBlockRepETag
1070
     1
1071
       42
1005
CC8
  0
ARC
  5
CC9
330
87D
100
AcDbEntity
  8
0
  6
Continuous
 62
     7
370
    15
100
AcDbCircle
 10
1813.923807060248
 20
798.6219356085308
 30
0.0
 40
1.000000000000199
100
AcDbArc
 50
89.99999999998697
 51
135.003539336574
1001
AcDbBlockRepETag
1070
     1
1071
       43
1005
CC9
  0
LINE
  5
CCA
330
87D
100
AcDbEntity
  8
0
  6
Continuous
 62
     7
370
    15
100
AcDbLine
 10
1813.923807060248
 20
799.6219356085304
 30
0.0
 11
1828.603056715883
 21
799.6219356085304
 31
0.0
1001
AcDbBlockRepETag
1070
     1
1071
       44
1005
CCA
  0
ARC
  5
CCB
330
87D
100
AcDbEntity
  8
0
  6
Continuous
 62
     7
370
    15
100
AcDbCircle
 10
1828.603056715883
 20
798.6219356085302
 30
0.0
 40
1.000000000000055
100
AcDbArc
 50
0.0000000000065138
 51
90.0
1001
AcDbBlockRepETag
1070
     1
1071
       45
1005
CCB
  0
LINE
  5
CCC
330
87D
100
AcDbEntity
  8
0
  6
Continuous
 62
     7
370
    15
100
AcDbLine
 10
1829.603056715883
 20
798.6219356085302
 30
0.0
 11
1829.603056715883
 21
789.3419356085303
 31
0.0
1001
AcDbBlockRepETag
1070
     1
1071
       46
1005
CCC
  0
LINE
  5
CCD
330
87D
100
AcDbEntity
  8
0
  6
Continuous
 62
     7
370
    15
100
AcDbLine
 10
1829.603056715883
 20
789.3419356085303
 30
0.0
 11
1837.103056715885
 21
789.3419356085303
 31
0.0
1001
AcDbBlockRepETag
1070
     1
1071
       47
1005
CCD
  0
LINE
  5
CCE
330
87D
100
AcDbEntity
  8
0
  6
Continuous
 62
     7
370
    15
100
AcDbLine
 10
1837.103056715885
 20
789.3419356085303
 30
0.0
 11
1837.103056715885
 21
798.6219356085302
 31
0.0
1001
AcDbBlockRepETag
1070
     1
1071
       48
1005
CCE
  0
ARC
  5
CCF
330
87D
100
AcDbEntity
  8
0
  6
Continuous
 62
     7
370
    15
100
AcDbCircle
 10
1838.103056715884
 20
798.6219356085302
 30
0.0
 40
1.000000000000027
100
AcDbArc
 50
90.0
 51
180.0
1001
AcDbBlockRepETag
1070
     1
1071
       49
1005
CCF
  0
LINE
  5
CD0
330
87D
100
AcDbEntity
  8
0
  6
Continuous
 62
     7
370
    15
100
AcDbLine
 10
1838.103056715884
 20
799.6219356085303
 30
0.0
 11
1852.782306371441
 21
799.6219356085361
 31
0.0
1001
AcDbBlockRepETag
1070
     1
1071
       50
1005
CD0
  0
ARC
  5
CD1
330
87D
100
AcDbEntity
  8
0
  6
Continuous
 62
     7
370
    15
100
AcDbCircle
 10
1852.782306371441
 20
798.6219356085364
 30
0.0
 40
1.000000000000179
100
AcDbArc
 50
44.99646066342596
 51
90.00000000001303
1001
AcDbBlockRepETag
1070
     1
1071
       51
1005
CD1
  0
ARC
  5
CD2
330
87D
100
AcDbEntity
  8
0
  6
Continuous
 62
     7
370
    15
100
AcDbCircle
 10
1805.552562548369
 20
750.5183973313676
 30
0.0
 40
0.500000000000119
100
AcDbArc
 50
90.00000000001303
 51
194.9988916899468
1001
AcDbBlockRepETag
1070
     1
1071
       52
1005
CD2
  0
LINE
  5
CD3
330
87D
100
AcDbEntity
  8
0
  6
Continuous
 62
     7
370
    15
100
AcDbLine
 10
1807.940990712033
 20
739.6719812011907
 30
0.0
 11
1805.06959713206
 21
750.3889971511107
 31
0.0
1001
AcDbBlockRepETag
1070
     1
1071
       53
1005
CD3
  0
ARC
  5
CD4
330
87D
100
AcDbEntity
  8
0
  6
Continuous
 62
     7
370
    15
100
AcDbCircle
 10
1808.423956128341
 20
739.8013813814476
 30
0.0
 40
0.5000000000000568
100
AcDbArc
 50
194.9988916899405
 51
270.0000150402957
1001
AcDbBlockRepETag
1070
     1
1071
       54
1005
CD4
  0
LINE
  5
CD5
330
87D
100
AcDbEntity
  8
0
  6
Continuous
 62
     7
370
    15
100
AcDbLine
 10
1811.283049415743
 20
739.301382780379
 30
0.0
 11
1808.423956259592
 21
739.3013820809134
 31
0.0
1001
AcDbBlockRepETag
1070
     1
1071
       55
1005
CD5
  0
LINE
  5
CD6
330
87D
100
AcDbEntity
  8
0
  6
Continuous
 62
     7
370
    15
100
AcDbLine
 10
1804.19185151091
 20
738.2183973808907
 30
0.0
 11
1811.283049415743
 21
738.2183973808907
 31
0.0
1001
AcDbBlockRepETag
1070
     1
1071
       56
1005
CD6
  0
ARC
  5
CD7
330
87D
100
AcDbEntity
  8
0
  6
Continuous
 62
     7
370
    15
100
AcDbCircle
 10
1804.191851534837
 20
739.7183973808909
 30
0.0
 40
1.500000000000112
100
AcDbArc
 50
180.0000003447546
 51
269.9999990860521
1001
AcDbBlockRepETag
1070
     1
1071
       57
1005
CD7
  0
LINE
  5
CD8
330
87D
100
AcDbEntity
  8
0
  6
Continuous
 62
     7
370
    15
100
AcDbLine
 10
1802.69185153484
 20
741.8013834073112
 30
0.0
 11
1802.691851534839
 21
739.7183973718652
 31
0.0
1001
AcDbBlockRepETag
1070
     1
1071
       58
1005
CD8
  0
ARC
  5
CD9
330
87D
100
AcDbEntity
  8
0
  6
Continuous
 62
     7
370
    15
100
AcDbCircle
 10
1803.191854998757
 20
741.8013837454889
 30
0.0
 40
0.5000034639181763
100
AcDbArc
 50
90.00000034476114
 51
180.0000387520427
1001
AcDbBlockRepETag
1070
     1
1071
       59
1005
CD9
  0
LINE
  5
CDA
330
87D
100
AcDbEntity
  8
0
  6
Continuous
 62
     7
370
    15
100
AcDbLine
 10
1803.834217837007
 20
742.3013872094066
 30
0.0
 11
1803.191854995748
 21
742.301387209407
 31
0.0
1001
AcDbBlockRepETag
1070
     1
1071
       60
1005
CDA
  0
ARC
  5
CDB
330
87D
100
AcDbEntity
  8
0
  6
Continuous
 62
     7
370
    15
100
AcDbCircle
 10
1803.834217840015
 20
741.8013872094064
 30
0.0
 40
0.4999999999999933
100
AcDbArc
 50
29.99891374532183
 51
90.00000034469598
1001
AcDbBlockRepETag
1070
     1
1071
       61
1005
CDB
  0
LINE
  5
CDC
330
87D
100
AcDbEntity
  8
0
  6
Continuous
 62
     7
370
    15
100
AcDbLine
 10
1804.267235281509
 20
742.0513789999947
 30
0.0
 11
1804.815689269988
 21
741.1013872330284
 31
0.0
1001
AcDbBlockRepETag
1070
     1
1071
       62
1005
CDC
  0
ARC
  5
CDD
330
87D
100
AcDbEntity
  8
0
  6
Continuous
 62
     7
370
    15
100
AcDbCircle
 10
1804.815689288039
 20
740.3513872330287
 30
0.0
 40
0.7499999999995453
100
AcDbArc
 50
90.00000137900542
 51
270.000000344696
1001
AcDbBlockRepETag
1070
     1
1071
       63
1005
CDD
  0
LINE
  5
CDE
330
87D
100
AcDbEntity
  8
0
  6
Continuous
 62
     7
370
    15
100
AcDbLine
 10
1804.815689292551
 20
739.6013872330292
 30
0.0
 11
1806.065982686526
 21
739.6013872330271
 31
0.0
1001
AcDbBlockRepETag
1070
     1
1071
       64
1005
CDE
  0
ARC
  5
CDF
330
87D
100
AcDbEntity
  8
0
  6
Continuous
 62
     7
370
    15
100
AcDbCircle
 10
1806.065982683519
 20
740.1013872330278
 30
0.0
 40
0.5000000000004832
100
AcDbArc
 50
270.0000003445006
 51
14.99888247648214
1001
AcDbBlockRepETag
1070
     1
1071
       65
1005
CDF
  0
LINE
  5
CE0
330
87D
100
AcDbEntity
  8
0
  6
Continuous
 62
     7
370
    15
100
AcDbLine
 10
1803.828350986987
 20
750.3849862700543
 30
0.0
 11
1806.548948120636
 21
740.2307873356211
 31
0.0
1001
AcDbBlockRepETag
1070
     1
1071
       66
1005
CE0
  0
ARC
  5
CE1
330
87D
100
AcDbEntity
  8
0
  6
Continuous
 62
     7
370
    15
100
AcDbCircle
 10
1805.760210128783
 20
750.9025850569652
 30
0.0
 40
1.999997061986181
100
AcDbArc
 50
138.8595487234608
 51
194.9988568782212
1001
AcDbBlockRepETag
1070
     1
1071
       67
1005
CE1
  0
ARC
  5
CE2
330
87D
100
AcDbEntity
  8
0
  6
Continuous
 62
     7
370
    15
100
AcDbCircle
 10
1810.283049415742
 20
751.2183973313677
 30
0.0
 40
1.000000000000283
100
AcDbArc
 50
0.0
 51
90.0
1001
AcDbBlockRepETag
1070
     1
1071
       68
1005
CE2
  0
LINE
  5
CE3
330
87D
100
AcDbEntity
  8
0
  6
Continuous
 62
     7
370
    15
100
AcDbLine
 10
1811.283049415743
 20
741.153520408121
 30
0.0
 11
1811.283049415743
 21
751.2183973313677
 31
0.0
1001
AcDbBlockRepETag
1070
     1
1071
       69
1005
CE3
  0
LINE
  5
CE4
330
87D
100
AcDbEntity
  8
0
  6
Continuous
 62
     7
370
    15
100
AcDbLine
 10
1810.583049415747
 20
741.153520408121
 30
0.0
 11
1811.283049415743
 21
741.153520408121
 31
0.0
1001
AcDbBlockRepETag
1070
     1
1071
       70
1005
CE4
  0
ARC
  5
CE5
330
87D
100
AcDbEntity
  8
0
  6
Continuous
 62
     7
370
    15
100
AcDbCircle
 10
1810.583049415747
 20
741.653520408121
 30
0.0
 40
0.500000000000057
100
AcDbArc
 50
180.0000000000065
 51
270.0
1001
AcDbBlockRepETag
1070
     1
1071
       71
1005
CE5
  0
LINE
  5
CE6
330
87D
100
AcDbEntity
  8
0
  6
Continuous
 62
     7
370
    15
100
AcDbLine
 10
1810.083049415747
 20
750.5183973313676
 30
0.0
 11
1810.083049415747
 21
741.653520408121
 31
0.0
1001
AcDbBlockRepETag
1070
     1
1071
       72
1005
CE6
  0
ARC
  5
CE7
330
87D
100
AcDbEntity
  8
0
  6
Continuous
 62
     7
370
    15
100
AcDbCircle
 10
1809.583049415747
 20
750.5183973313676
 30
0.0
 40
0.5
100
AcDbArc
 50
359.9999999999935
 51
90.0
1001
AcDbBlockRepETag
1070
     1
1071
       73
1005
CE7
  0
LINE
  5
CE8
330
87D
100
AcDbEntity
  8
0
  6
Continuous
 62
     7
370
    15
100
AcDbLine
 10
1805.552562548369
 20
751.0183973313676
 30
0.0
 11
1809.583049415747
 21
751.0183973313676
 31
0.0
1001
AcDbBlockRepETag
1070
     1
1071
       74
1005
CE8
  0
LINE
  5
CE9
330
87D
100
AcDbEntity
  8
0
  6
Continuous
 62
     7
370
    15
100
AcDbLine
 10
1811.283049415743
 20
738.2183968895514
 30
0.0
 11
1811.283049415743
 21
739.301382780379
 31
0.0
1001
AcDbBlockRepETag
1070
     1
1071
       75
1005
CE9
  0
ARC
  5
CEA
330
87D
100
AcDbEntity
  8
0
  6
Continuous
 62
     7
370
    15
100
AcDbCircle
 10
1850.873060357183
 20
743.0402845392032
 30
0.0
 40
1.00000000342817
100
AcDbArc
 50
359.9999999996482
 51
90.00000163685978
1001
AcDbBlockRepETag
1070
     1
1071
       76
1005
CEA
  0
LINE
  5
CEB
330
87D
100
AcDbEntity
  8
0
  6
Continuous
 62
     7
370
    15
100
AcDbLine
 10
1850.873060328614
 20
744.0402845426316
 30
0.0
 11
1815.833052615555
 21
744.0402825405584
 31
0.0
1001
AcDbBlockRepETag
1070
     1
1071
       77
1005
CEB
  0
ARC
  5
CEC
330
87D
100
AcDbEntity
  8
0
  6
Continuous
 62
     7
370
    15
100
AcDbCircle
 10
1815.833052629839
 20
743.5402805396282
 30
0.0
 40
0.5000020009302377
100
AcDbArc
 50
90.00000163683376
 51
179.9999643486188
1001
AcDbBlockRepETag
1070
     1
1071
       78
1005
CEC
  0
LINE
  5
CED
330
87D
100
AcDbEntity
  8
0
  6
Continuous
 62
     7
370
    15
100
AcDbLine
 10
1815.33305262984
 20
743.5402808507452
 30
0.0
 11
1815.33304991422
 21
741.3581510267422
 31
0.0
1001
AcDbBlockRepETag
1070
     1
1071
       79
1005
CED
  0
ARC
  5
CEE
330
87D
100
AcDbEntity
  8
0
  6
Continuous
 62
     7
370
    15
100
AcDbCircle
 10
1814.8330471986
 20
741.3581510239501
 30
0.0
 40
0.5000027156204965
100
AcDbArc
 50
330.0000031036991
 51
0.000000319943649
1001
AcDbBlockRepETag
1070
     1
1071
       80
1005
CEE
  0
LINE
  5
CEF
330
87D
100
AcDbEntity
  8
0
  6
Continuous
 62
     7
370
    15
100
AcDbLine
 10
1815.266059914034
 20
741.1081510474066
 30
0.0
 11
1814.030673418192
 21
738.9683986019409
 31
0.0
1001
AcDbBlockRepETag
1070
     1
1071
       81
1005
CEF
  0
ARC
  5
CF0
330
87D
100
AcDbEntity
  8
0
  6
Continuous
 62
     7
370
    15
100
AcDbCircle
 10
1813.164647987323
 20
739.4683985550283
 30
0.0
 40
0.9999999999996303
100
AcDbArc
 50
270.0000003195398
 51
330.0000031036991
1001
AcDbBlockRepETag
1070
     1
1071
       82
1005
CF0
  0
LINE
  5
CF1
330
87D
100
AcDbEntity
  8
0
  6
Continuous
 62
     7
370
    15
100
AcDbLine
 10
1813.1646479929
 20
738.4683985550286
 30
0.0
 11
1811.333046500864
 21
738.4683985550286
 31
0.0
1001
AcDbBlockRepETag
1070
     1
1071
       83
1005
CF1
  0
LINE
  5
CF2
330
87D
100
AcDbEntity
  8
0
  6
Continuous
 62
     7
370
    15
100
AcDbLine
 10
1811.333046500864
 20
738.4683985550286
 30
0.0
 11
1811.333047958304
 21
751.2183973313677
 31
0.0
1001
AcDbBlockRepETag
1070
     1
1071
       84
1005
CF2
  0
ARC
  5
CF3
330
87D
100
AcDbEntity
  8
0
  6
Continuous
 62
     7
370
    15
100
AcDbCircle
 10
1810.283049415742
 20
751.2183973313677
 30
0.0
 40
1.050000000000077
100
AcDbArc
 50
0.0
 51
72.24720983803263
1001
AcDbBlockRepETag
1070
     1
1071
       85
1005
CF3
  0
ARC
  5
CF4
330
87D
100
AcDbEntity
  8
0
  6
Continuous
 62
     7
370
    15
100
AcDbCircle
 10
1861.952097771589
 20
738.7184032173196
 30
0.0
 40
0.5000007517647021
100
AcDbArc
 50
270.0000197701308
 51
0.000000041290826
1001
AcDbBlockRepETag
1070
     1
1071
       86
1005
CF4
  0
LINE
  5
CF5
330
87D
100
AcDbEntity
  8
0
  6
Continuous
 62
     7
370
    15
100
AcDbLine
 10
1861.952097944116
 20
738.2184032173199
 30
0.0
 11
1852.873060357171
 21
738.2184007472825
 31
0.0
1001
AcDbBlockRepETag
1070
     1
1071
       87
1005
CF5
  0
ARC
  5
CF6
330
87D
100
AcDbEntity
  8
0
  6
Continuous
 62
     7
370
    15
100
AcDbCircle
 10
1852.873060357177
 20
739.2183982772452
 30
0.0
 40
1.000000000000055
100
AcDbArc
 50
179.9999999996481
 51
269.9999999996874
1001
AcDbBlockRepETag
1070
     1
1071
       88
1005
CF6
  0
LINE
  5
CF7
330
87D
100
AcDbEntity
  8
0
  6
Continuous
 62
     7
370
    15
100
AcDbLine
 10
1851.873060357177
 20
739.2183982772515
 30
0.0
 11
1851.87306035718
 21
743.0402845391973
 31
0.0
1001
AcDbBlockRepETag
1070
     1
1071
       89
1005
CF7
  0
LINE
  5
CF8
330
87D
100
AcDbEntity
  8
0
  6
Continuous
 62
     7
370
    15
100
AcDbLine
 10
1862.452099275119
 20
752.2183973313677
 30
0.0
 11
1862.452098523354
 21
738.7184032176799
 31
0.0
1001
AcDbBlockRepETag
1070
     1
1071
       90
1005
CF8
  0
LINE
  5
CF9
330
87D
100
AcDbEntity
  8
0
  6
Continuous
 62
     7
370
    15
100
AcDbLine
 10
1825.583056715884
 20
801.7219356085291
 30
0.0
 11
1817.083056715884
 21
801.721935608529
 31
0.0
1001
AcDbBlockRepETag
1070
     1
1071
       91
1005
CF9
  0
LINE
  5
CFA
330
87D
100
AcDbEntity
  8
0
  6
Continuous
 62
     7
370
    15
100
AcDbLine
 10
1849.623056715884
 20
801.7219356085302
 30
0.0
 11
1841.123056715884
 21
801.7219356085298
 31
0.0
1001
AcDbBlockRepETag
1070
     1
1071
       92
1005
CFA
  0
LWPOLYLINE
  5
CFB
330
87D
100
AcDbEntity
  8
0
  6
Continuous
 62
     7
370
    15
100
AcDbPolyline
 90
        3
 70
   128
 43
0.0
 10
1811.283049415743
 20
744.5172515106587
 10
1811.299055288779
 20
744.7851512249382
 10
1811.333046500864
 20
744.9889370257968
1001
AcDbBlockRepETag
1070
     1
1071
       93
1005
CFB
  0
LINE
  5
D00
330
87D
100
AcDbEntity
  8
0
  6
Continuous
 62
     7
370
    15
100
AcDbLine
 10
1816.503043977683
 20
744.0402825788397
 30
0.0
 11
1816.50304177272
 21
741.3581616440823
 31
0.0
1001
AcDbBlockRepETag
1070
     1
1071
       98
1005
D00
  0
ARC
  5
D01
330
87D
100
AcDbEntity
  8
0
  6
Continuous
 62
     7
370
    15
100
AcDbCircle
 10
1815.503039937759
 20
741.3581616440823
 30
0.0
 40
1.00000183496047
100
AcDbArc
 50
329.9999105604598
 51
0.0
1001
AcDbBlockRepETag
1070
     1
1071
       99
1005
D01
  0
LINE
  5
D02
330
87D
100
AcDbEntity
  8
0
  6
Continuous
 62
     7
370
    15
100
AcDbLine
 10
1816.369064561035
 20
740.8581602922048
 30
0.0
 11
1815.422350456579
 21
739.2184094686999
 31
0.0
1001
AcDbBlockRepETag
1070
     1
1071
      100
1005
D02
  0
ARC
  5
D03
330
87D
100
AcDbEntity
  8
0
  6
Continuous
 62
     7
370
    15
100
AcDbCircle
 10
1814.123313560154
 20
739.9684115631802
 30
0.0
 40
1.5
100
AcDbArc
 50
269.9999722898237
 51
329.9999076201576
1001
AcDbBlockRepETag
1070
     1
1071
      101
1005
D03
  0
LINE
  5
D04
330
87D
100
AcDbEntity
  8
0
  6
Continuous
 62
     7
370
    15
100
AcDbLine
 10
1814.123313560147
 20
738.4684115631784
 30
0.0
 11
1813.169748589167
 21
738.4684115631829
 31
0.0
1001
AcDbBlockRepETag
1070
     1
1071
      102
1005
D04
  0
LINE
  5
D05
330
87D
100
AcDbEntity
  8
0
  6
Continuous
 62
     7
370
    15
100
AcDbLine
 10
1851.904827569374
 20
738.9683477450999
 30
0.0
 11
1850.864395674481
 21
738.968349040216
 31
0.0
1001
AcDbBlockRepETag
1070
     1
1071
      103
1005
D05
  0
ARC
  5
D06
330
87D
100
AcDbEntity
  8
0
  6
Continuous
 62
     7
370
    15
100
AcDbCircle
 10
1850.864396085529
 20
739.9683503353315
 30
0.0
 40
1.000001295115708
100
AcDbArc
 50
239.9999208036978
 51
269.9999764487394
1001
AcDbBlockRepETag
1070
     1
1071
      104
1005
D06
  0
LINE
  5
D07
330
87D
100
AcDbEntity
  8
0
  6
Continuous
 62
     7
370
    15
100
AcDbLine
 10
1850.364394888478
 20
739.102325622666
 30
0.0
 11
1849.173037529851
 21
739.7901583100218
 31
0.0
1001
AcDbBlockRepETag
1070
     1
1071
      105
1005
D07
  0
ARC
  5
D08
330
87D
100
AcDbEntity
  8
0
  6
Continuous
 62
     7
370
    15
100
AcDbCircle
 10
1849.673038783617
 20
740.6561829899425
 30
0.0
 40
1.000000000000009
100
AcDbArc
 50
184.4361810388882
 51
239.9999170514448
1001
AcDbBlockRepETag
1070
     1
1071
      106
1005
D08
  0
ARC
  5
D09
330
87D
100
AcDbEntity
  8
0
  6
Continuous
 62
     7
370
    15
100
AcDbCircle
 10
1849.67303852926
 20
740.5014824515635
 30
0.0
 40
1.00000000000021
100
AcDbArc
 50
119.9998923036624
 51
175.5636305503122
1001
AcDbBlockRepETag
1070
     1
1071
      107
1005
D09
  0
LINE
  5
D0A
330
87D
100
AcDbEntity
  8
0
  6
Continuous
 62
     7
370
    15
100
AcDbLine
 10
1849.17304015709
 20
741.3675087951745
 30
0.0
 11
1849.905091599967
 21
741.7901569815001
 31
0.0
1001
AcDbBlockRepETag
1070
     1
1071
      108
1005
D0A
  0
LINE
  5
D0B
330
87D
100
AcDbEntity
  8
0
  6
Continuous
 62
     7
370
    15
100
AcDbLine
 10
1849.905091599967
 20
741.7901569815001
 30
0.0
 11
1851.003040848018
 21
741.9837502334505
 31
0.0
1001
AcDbBlockRepETag
1070
     1
1071
      109
1005
D0B
  0
LINE
  5
D0C
330
87D
100
AcDbEntity
  8
0
  6
Continuous
 62
     7
370
    15
100
AcDbLine
 10
1851.003040848018
 20
741.9837502334505
 30
0.0
 11
1851.003040848018
 21
744.0318010942132
 31
0.0
1001
AcDbBlockRepETag
1070
     1
1071
      110
1005
D0C
  0
LINE
  5
D11
330
87D
100
AcDbEntity
  8
0
  6
Continuous
 62
     7
370
    15
100
AcDbLine
 10
1835.720144193925
 20
744.0402836768428
 30
0.0
 11
1836.219069291395
 21
743.75222681273
 31
0.0
1001
AcDbBlockRepETag
1070
     1
1071
      115
1005
D11
  0
ARC
  5
D12
330
87D
100
AcDbEntity
  8
0
  6
Continuous
 62
     7
370
    15
100
AcDbCircle
 10
1836.1190686861
 20
743.5790220814423
 30
0.0
 40
0.1999999999999947
100
AcDbArc
 50
329.9999025630258
 51
59.99979976957998
1001
AcDbBlockRepETag
1070
     1
1071
      116
1005
D12
  0
LINE
  5
D13
330
87D
100
AcDbEntity
  8
0
  6
Continuous
 62
     7
370
    15
100
AcDbLine
 10
1836.292273596797
 20
743.4790217868906
 30
0.0
 11
1835.854151827832
 21
742.7201756034061
 31
0.0
1001
AcDbBlockRepETag
1070
     1
1071
      117
1005
D13
  0
ARC
  5
D14
330
87D
100
AcDbEntity
  8
0
  6
Continuous
 62
     7
370
    15
100
AcDbCircle
 10
1834.988127274347
 20
743.2201770761645
 30
0.0
 40
1.000000000000012
100
AcDbArc
 50
269.9999764486743
 51
329.9999025630258
1001
AcDbBlockRepETag
1070
     1
1071
      118
1005
D14
  0
LINE
  5
D15
330
87D
100
AcDbEntity
  8
0
  6
Continuous
 62
     7
370
    15
100
AcDbLine
 10
1834.988126863299
 20
742.2201770761652
 30
0.0
 11
1832.191014732453
 21
742.2201793756613
 31
0.0
1001
AcDbBlockRepETag
1070
     1
1071
      119
1005
D15
  0
ARC
  5
D16
330
87D
100
AcDbEntity
  8
0
  6
Continuous
 62
     7
370
    15
100
AcDbCircle
 10
1832.1910151435
 20
743.2201816751566
 30
0.0
 40
1.000002299495546
100
AcDbArc
 50
224.9999057946652
 51
269.9999764487785
1001
AcDbBlockRepETag
1070
     1
1071
      120
1005
D16
  0
LINE
  5
D17
330
87D
100
AcDbEntity
  8
0
  6
Continuous
 62
     7
370
    15
100
AcDbLine
 10
1831.483907199694
 20
742.5130760565914
 30
0.0
 11
1830.741262667235
 21
743.2557230311573
 31
0.0
1001
AcDbBlockRepETag
1070
     1
1071
      121
1005
D17
  0
ARC
  5
D18
330
87D
100
AcDbEntity
  8
0
  6
Continuous
 62
     7
370
    15
100
AcDbCircle
 10
1827.205722948206
 20
739.7201949383306
 30
0.0
 40
5.000000000000166
100
AcDbArc
 50
44.99990579466515
 51
59.77072563942095
1001
AcDbBlockRepETag
1070
     1
1071
      122
1005
D18
  0
LINE
  5
D1C
330
87D
100
AcDbEntity
  8
0
  6
Continuous
 62
     7
370
    15
100
AcDbLine
 10
1846.810323102937
 20
744.0402843104999
 30
0.0
 11
1850.636868335196
 21
741.9191857486552
 31
0.0
1001
AcDbBlockRepETag
1070
     1
1071
      126
1005
D1C
  0
LINE
  5
D1D
330
87D
100
AcDbEntity
  8
0
  6
Continuous
 62
     7
370
    15
100
AcDbLine
 10
1816.503042117317
 20
741.7773304795993
 30
0.0
 11
1817.047660063742
 21
741.6813027059624
 31
0.0
1001
AcDbBlockRepETag
1070
     1
1071
      127
1005
D1D
  0
ARC
  5
D1E
330
87D
100
AcDbEntity
  8
0
  6
Continuous
 62
     7
370
    15
100
AcDbCircle
 10
1816.995566916813
 20
741.3858605969647
 30
0.0
 40
0.2999995595445297
100
AcDbArc
 50
330.0000786869512
 51
80.00023851489856
1001
AcDbBlockRepETag
1070
     1
1071
      128
1005
D1E
  0
LINE
  5
D1F
330
87D
100
AcDbEntity
  8
0
  6
Continuous
 62
     7
370
    15
100
AcDbLine
 10
1817.255374362504
 20
741.2358611739978
 30
0.0
 11
1816.379267302745
 21
739.7183978428586
 31
0.0
1001
AcDbBlockRepETag
1070
     1
1071
      129
1005
D1F
  0
ARC
  5
D20
330
87D
100
AcDbEntity
  8
0
  6
Continuous
 62
     7
370
    15
100
AcDbCircle
 10
1813.781190496103
 20
741.2183968117877
 30
0.0
 40
3.000000000000047
100
AcDbArc
 50
269.9999934440799
 51
330.0000227383643
1001
AcDbBlockRepETag
1070
     1
1071
      130
1005
D20
  0
LINE
  5
D21
330
87D
100
AcDbEntity
  8
0
  6
Continuous
 62
     7
370
    15
100
AcDbLine
 10
1811.333046596083
 20
739.3013828048422
 30
0.0
 11
1811.283049415743
 21
739.301382780379
 31
0.0
1001
AcDbBlockRepETag
1070
     1
1071
      131
1005
D21
  0
LINE
  5
D22
330
87D
100
AcDbEntity
  8
0
  6
Continuous
 62
     7
370
    15
100
AcDbLine
 10
1813.781190496103
 20
738.2183968117876
 30
0.0
 11
1811.283049415743
 21
738.2183969284332
 31
0.0
1001
AcDbBlockRepETag
1070
     1
1071
      132
1005
D22
  0
LINE
  5
D23
330
87D
100
AcDbEntity
  8
0
  6
Continuous
 62
     7
370
    15
100
AcDbLine
 10
1811.333046807799
 20
741.153520408121
 30
0.0
 11
1811.283049415743
 21
741.153520408121
 31
0.0
1001
AcDbBlockRepETag
1070
     1
1071
      133
1005
D23
  0
LINE
  5
D24
330
87D
100
AcDbEntity
  8
0
  6
Continuous
 62
     7
370
    15
100
AcDbLine
 10
1803.834217837007
 20
742.3013872094066
 30
0.0
 11
1805.994175841904
 21
742.301387209403
 31
0.0
1001
AcDbBlockRepETag
1070
     1
1071
      134
1005
D24
  0
LINE
  5
D25
330
87D
100
AcDbEntity
  8
0
  6
Continuous
 62
     7
370
    15
100
AcDbLine
 10
1851.003040848018
 20
742.0592187167994
 30
0.0
 11
1847.429120440189
 21
744.0402843458559
 31
0.0
1001
AcDbBlockRepETag
1070
     1
1071
      135
1005
D25
  0
ENDBLK
  5
87F
330
87D
100
AcDbEntity
  8
0
100
AcDbBlockEnd
  0
BLOCK
  5
90A
330
909
100
AcDbEntity
  8
0
100
AcDbBlockBegin
  2
2
 70
     0
 10
0.0
 20
0.0
 30
0.0
  3
2
  1

  0
LINE
  5
90C
330
909
100
AcDbEntity
  8
0
  6
Continuous
 62
     7
370
    15
100
AcDbLine
 10
1784.589447618996
 20
793.0755684071433
 30
0.0
 11
1780.639592546566
 21
793.0755684071433
 31
0.0
  0
LINE
  5
90D
330
909
100
AcDbEntity
  8
0
  6
Continuous
 62
     7
370
    15
100
AcDbLine
 10
1773.643545115695
 20
793.0755684071433
 30
0.0
 11
1769.693690043262
 21
793.0755684071433
 31
0.0
  0
LINE
  5
90E
330
909
100
AcDbEntity
  8
0
  6
Continuous
 62
     7
370
    15
100
AcDbLine
 10
1780.639592546566
 20
792.8943787231397
 30
0.0
 11
1773.643545115696
 21
792.8943787231397
 31
0.0
  0
LINE
  5
90F
330
909
100
AcDbEntity
  8
0
  6
Continuous
 62
     7
370
    15
100
AcDbLine
 10
1769.693690043262
 20
795.4693352553001
 30
0.0
 11
1784.589447618996
 21
795.4693352553002
 31
0.0
  0
LINE
  5
910
330
909
100
AcDbEntity
  8
0
  6
Continuous
 62
     7
370
    15
100
AcDbLine
 10
1780.639592546572
 20
797.3537898930543
 30
0.0
 11
1773.643545115699
 21
797.3537898930542
 31
0.0
  0
LINE
  5
911
330
909
100
AcDbEntity
  8
0
  6
Continuous
 62
     7
370
    15
100
AcDbLine
 10
1773.643545115701
 20
797.7003176699809
 30
0.0
 11
1780.639592546573
 21
797.7003176699809
 31
0.0
  0
LINE
  5
912
330
909
100
AcDbEntity
  8
0
  6
Continuous
 62
     7
370
    15
100
AcDbLine
 10
1772.893690043258
 20
801.72193560853
 30
0.0
 11
1772.893690043258
 21
799.6219356085298
 31
0.0
  0
LINE
  5
913
330
909
100
AcDbEntity
  8
0
  6
Continuous
 62
     7
370
    15
100
AcDbLine
 10
1781.393690043258
 20
799.6219356085299
 30
0.0
 11
1781.393690043258
 21
801.72193560853
 31
0.0
  0
SPLINE
  5
914
330
909
100
AcDbEntity
  8
0
  6
Continuous
 62
     7
370
    15
100
AcDbSpline
210
0.0
220
0.0
230
1.0
 70
     8
 71
     3
 72
    10
 73
     6
 74
     0
 42
0.0000000001
 43
0.0000000001
 40
0.0
 40
0.0
 40
0.0
 40
0.0
 40
0.5
 40
0.5
 40
1.0
 40
1.0
 40
1.0
 40
1.0
 10
1771.851541235113
 20
772.5782013318937
 30
0.0
 10
1771.871195823102
 20
772.258157166822
 30
0.0
 10
1771.921227299591
 20
771.914012125374
 30
0.0
 10
1772.112341912308
 20
771.1893165109062
 30
0.0
 10
1772.253669535376
 20
770.808833634538
 30
0.0
 10
1772.456260835178
 20
770.4257007569188
 30
0.0
  0
ARC
  5
915
330
909
100
AcDbEntity
  8
0
  6
Continuous
 62
     7
370
    15
100
AcDbCircle
 10
1770.133949190812
 20
769.2034435138785
 30
0.0
 40
2.624317843123091
100
AcDbArc
 50
356.5764519637899
 51
27.75830789013677
  0
SPLINE
  5
916
330
909
100
AcDbEntity
  8
0
  6
Continuous
 62
     7
370
    15
100
AcDbSpline
210
0.0
220
0.0
230
1.0
 70
     8
 71
     3
 72
    20
 73
    16
 74
     0
 42
0.0000000001
 43
0.0000000001
 40
0.0
 40
0.0
 40
0.0
 40
0.0
 40
0.09602243285533
 40
0.1881256335519769
 40
0.2763422374548239
 40
0.3607093903533902
 40
0.4412695630862092
 40
0.518071542434058
 40
0.5911716401852002
 40
0.6715928545907052
 40
0.7468605863208826
 40
0.8171260342421239
 40
0.8825750748902308
 40
0.9434377292059775
 40
0.9999999999999998
 40
0.9999999999999998
 40
0.9999999999999998
 40
0.9999999999999998
 10
1772.7535835956
 20
769.0467280807407
 30
0.0
 10
1772.724227266142
 20
769.1031352088257
 30
0.0
 10
1772.666712809218
 20
769.2136471630873
 30
0.0
 10
1772.582874693995
 20
769.3868235195567
 30
0.0
 10
1772.503119489423
 20
769.5611925422785
 30
0.0
 10
1772.427485878732
 20
769.7374451246218
 30
0.0
 10
1772.355963389756
 20
769.9154085009362
 30
0.0
 10
1772.288553363199
 20
770.0951284705107
 30
0.0
 10
1772.22209344224
 20
770.2856573456602
 30
0.0
 10
1772.157213670074
 20
770.4876559175651
 30
0.0
 10
1772.094638690503
 20
770.7023978187106
 30
0.0
 10
1772.037903470257
 20
770.9185965876457
 30
0.0
 10
1771.987114597143
 20
771.1368847844935
 30
0.0
 10
1771.941897585289
 20
771.3552964721347
 30
0.0
 10
1771.915375809422
 20
771.5109107220996
 30
0.0
 10
1771.902600567137
 20
771.5858683628023
 30
0.0
  0
SPLINE
  5
917
330
909
100
AcDbEntity
  8
0
  6
Continuous
 62
     7
370
    15
100
AcDbSpline
210
0.0
220
0.0
230
1.0
 70
     8
 71
     3
 72
    14
 73
    10
 74
     0
 42
0.0000000001
 43
0.0000000001
 40
0.0
 40
0.0
 40
0.0
 40
0.0
 40
0.000387973554629
 40
0.000387973554629
 40
0.000387973554629
 40
0.0006907775753033
 40
0.0006907775753033
 40
0.0006907775753033
 40
0.0009939117623701
 40
0.0009939117623701
 40
0.0009939117623701
 40
0.0009939117623701
 10
1771.851541227077
 20
772.5782014626611
 30
0.0
 10
1771.859468784646
 20
772.4491201516934
 30
0.0
 10
1771.869783013188
 20
772.3201962842439
 30
0.0
 10
1771.878616310638
 20
772.1911737905992
 30
0.0
 10
1771.885510046265
 20
772.0904812727622
 30
0.0
 10
1771.891587424606
 20
771.9897181675195
 30
0.0
 10
1771.895852390263
 20
771.8888800953086
 30
0.0
 10
1771.900121612478
 20
771.7879413838069
 30
0.0
 10
1771.902592224382
 20
771.6868973174069
 30
0.0
 10
1771.902600545894
 20
771.585868362801
 30
0.0
  0
SPLINE
  5
918
330
909
100
AcDbEntity
  8
0
  6
Continuous
 62
     7
370
    15
100
AcDbSpline
210
0.0
220
0.0
230
1.0
 70
     8
 71
     3
 72
    10
 73
     6
 74
     0
 42
0.0000000001
 43
0.0000000001
 40
0.0
 40
0.0
 40
0.0
 40
0.0
 40
0.5
 40
0.5
 40
1.0
 40
1.0
 40
1.0
 40
1.0
 10
1782.431596427147
 20
773.2281528488893
 30
0.0
 10
1782.411941839159
 20
773.5481970139642
 30
0.0
 10
1782.361910362672
 20
773.8923420554017
 30
0.0
 10
1782.17079574995
 20
774.6170376698842
 30
0.0
 10
1782.029468126857
 20
774.9975205462933
 30
0.0
 10
1781.826876827081
 20
775.3806534238646
 30
0.0
  0
ARC
  5
919
330
909
100
AcDbEntity
  8
0
  6
Continuous
 62
     7
370
    15
100
AcDbCircle
 10
1784.149188465252
 20
776.6029106661375
 30
0.0
 40
2.624317836985509
100
AcDbArc
 50
176.5764519389865
 51
207.758311322179
  0
SPLINE
  5
91A
330
909
100
AcDbEntity
  8
0
  6
Continuous
 62
     7
370
    15
100
AcDbSpline
210
0.0
220
0.0
230
1.0
 70
     8
 71
     3
 72
    20
 73
    16
 74
     0
 42
0.0000000001
 43
0.0000000001
 40
0.0
 40
0.0
 40
0.0
 40
0.0
 40
0.0960224328609607
 40
0.1881256335613586
 40
0.2763422374660755
 40
0.3607093903646427
 40
0.4412695630955913
 40
0.5180715424397058
 40
0.5911716401852739
 40
0.671592854593635
 40
0.7468605863255601
 40
0.8171260342474118
 40
0.8825750748949536
 40
0.9434377292089454
 40
1.0
 40
1.0
 40
1.0
 40
1.0
 10
1781.529554066658
 20
776.7596261000426
 30
0.0
 10
1781.558910396119
 20
776.7032189719547
 30
0.0
 10
1781.616424853045
 20
776.5927070176874
 30
0.0
 10
1781.700262968272
 20
776.4195306612117
 30
0.0
 10
1781.780018172846
 20
776.2451616384869
 30
0.0
 10
1781.855651783537
 20
776.0689090561436
 30
0.0
 10
1781.927174272512
 20
775.8909456798326
 30
0.0
 10
1781.994584299065
 20
775.7112257102652
 30
0.0
 10
1782.061044220022
 20
775.5206968351163
 30
0.0
 10
1782.125923992188
 20
775.3186982632069
 30
0.0
 10
1782.188498971761
 20
775.1039563620544
 30
0.0
 10
1782.245234192007
 20
774.8877575931169
 30
0.0
 10
1782.296023065121
 20
774.6694693962718
 30
0.0
 10
1782.341240076974
 20
774.4510577086384
 30
0.0
 10
1782.36776185284
 20
774.2954434586802
 30
0.0
 10
1782.380537095123
 20
774.2204858179817
 30
0.0
  0
SPLINE
  5
91B
330
909
100
AcDbEntity
  8
0
  6
Continuous
 62
     7
370
    15
100
AcDbSpline
210
0.0
220
0.0
230
1.0
 70
     8
 71
     3
 72
    14
 73
    10
 74
     0
 42
0.0000000001
 43
0.0000000001
 40
0.0
 40
0.0
 40
0.0
 40
0.0
 40
0.000387973554629
 40
0.000387973554629
 40
0.000387973554629
 40
0.0006907775753037
 40
0.0006907775753037
 40
0.0006907775753037
 40
0.0009939117623709
 40
0.0009939117623709
 40
0.0009939117623709
 40
0.0009939117623709
 10
1782.431596435183
 20
773.2281527181221
 30
0.0
 10
1782.423668877615
 20
773.3572340290898
 30
0.0
 10
1782.413354649073
 20
773.4861578965393
 30
0.0
 10
1782.404521351623
 20
773.615180390184
 30
0.0
 10
1782.397627615996
 20
773.7158729080212
 30
0.0
 10
1782.391550237656
 20
773.8166360132639
 30
0.0
 10
1782.387285271999
 20
773.9174740854751
 30
0.0
 10
1782.383016049784
 20
774.0184127969769
 30
0.0
 10
1782.38054543788
 20
774.1194568633772
 30
0.0
 10
1782.380537116367
 20
774.220485817983
 30
0.0
  0
SPLINE
  5
91C
330
909
100
AcDbEntity
  8
0
  6
Continuous
 62
     7
370
    15
100
AcDbSpline
210
0.0
220
0.0
230
1.0
 70
     8
 71
     3
 72
    20
 73
    16
 74
     0
 42
0.0000000001
 43
0.0000000001
 40
0.0
 40
0.0
 40
0.0
 40
0.0
 40
0.0334246388580432
 40
0.0683550738282677
 40
0.1048616021539701
 40
0.1430058081667883
 40
0.1828416816110661
 40
0.2244166222911855
 40
0.2677723265388443
 40
0.3129455598505287
 40
0.3599688247692963
 40
0.4088709351345634
 40
0.5850738722106798
 40
0.7819351979624823
 40
1.0
 40
1.0
 40
1.0
 40
1.0
 10
1771.902600567137
 20
774.2204858179815
 30
0.0
 10
1771.910066928526
 20
774.2652170539869
 30
0.0
 10
1771.925336014491
 20
774.3566946897682
 30
0.0
 10
1771.950205153852
 20
774.4886256986483
 30
0.0
 10
1771.977097569194
 20
774.6205058210208
 30
0.0
 10
1772.006136159503
 20
774.7516786388902
 30
0.0
 10
1772.037286076471
 20
774.8823378193279
 30
0.0
 10
1772.070557673651
 20
775.0124326328674
 30
0.0
 10
1772.105948419344
 20
775.141981095654
 30
0.0
 10
1772.143459409563
 20
775.2709812340579
 30
0.0
 10
1772.183090893589
 20
775.3994341868676
 30
0.0
 10
1772.260523230356
 20
775.6366611855297
 30
0.0
 10
1772.383704659767
 20
775.9698695464749
 30
0.0
 10
1772.560416622174
 20
776.3813158296978
 30
0.0
 10
1772.687037748203
 20
776.6292985545375
 30
0.0
 10
1772.7535835956
 20
776.7596261000432
 30
0.0
  0
ARC
  5
91D
330
909
100
AcDbEntity
  8
0
  6
Continuous
 62
     7
370
    15
100
AcDbCircle
 10
1770.133949190868
 20
776.6029106668972
 30
0.0
 40
2.624317843067355
100
AcDbArc
 50
332.241692079497
 51
3.42354803644497
  0
SPLINE
  5
91E
330
909
100
AcDbEntity
  8
0
  6
Continuous
 62
     7
370
    15
100
AcDbSpline
210
0.0
220
0.0
230
1.0
 70
     8
 71
     3
 72
    10
 73
     6
 74
     0
 42
0.0000000001
 43
0.0000000001
 40
0.0
 40
0.0
 40
0.0
 40
0.0
 40
0.5
 40
0.5
 40
1.0
 40
1.0
 40
1.0
 40
1.0
 10
1772.456260835177
 20
775.3806534238645
 30
0.0
 10
1772.25366953541
 20
774.9975205463098
 30
0.0
 10
1772.112341912309
 20
774.6170376698829
 30
0.0
 10
1771.921227299589
 20
773.8923420554034
 30
0.0
 10
1771.8711958231
 20
773.5481970139606
 30
0.0
 10
1771.851541235113
 20
773.2281528488893
 30
0.0
  0
SPLINE
  5
91F
330
909
100
AcDbEntity
  8
0
  6
Continuous
 62
     7
370
    15
100
AcDbSpline
210
0.0
220
0.0
230
1.0
 70
     8
 71
     3
 72
    10
 73
     6
 74
     0
 42
0.0000000001
 43
0.0000000001
 40
0.0
 40
0.0
 40
0.0
 40
0.0
 40
0.5
 40
0.5
 40
1.0
 40
1.0
 40
1.0
 40
1.0
 10
1771.902600545894
 20
774.2204858179827
 30
0.0
 10
1771.902586899392
 20
774.0548077587033
 30
0.0
 10
1771.895848913026
 20
773.8892778210836
 30
0.0
 10
1771.875557373664
 20
773.5585987089051
 30
0.0
 10
1771.86169621611
 20
773.3935024220986
 30
0.0
 10
1771.851541227077
 20
773.2281527181219
 30
0.0
  0
SPLINE
  5
920
330
909
100
AcDbEntity
  8
0
  6
Continuous
 62
     7
370
    15
100
AcDbSpline
210
0.0
220
0.0
230
1.0
 70
     8
 71
     3
 72
    20
 73
    16
 74
     0
 42
0.0000000001
 43
0.0000000001
 40
0.0
 40
0.0
 40
0.0
 40
0.0
 40
0.0334246388592179
 40
0.0683550738303574
 40
0.1048616021567096
 40
0.1430058081699157
 40
0.1828416816143248
 40
0.2244166222943229
 40
0.2677723265416037
 40
0.3129455598526644
 40
0.3599688247705645
 40
0.4088709351347199
 40
0.5850738722168521
 40
0.7819351979686137
 40
0.9999999999999998
 40
0.9999999999999998
 40
0.9999999999999998
 40
0.9999999999999998
 10
1782.380537095123
 20
771.5858683628024
 30
0.0
 10
1782.373070733734
 20
771.5411371267955
 30
0.0
 10
1782.357801647769
 20
771.4496594910114
 30
0.0
 10
1782.332932508407
 20
771.3177284821275
 30
0.0
 10
1782.306040093065
 20
771.1858483597522
 30
0.0
 10
1782.277001502755
 20
771.0546755418812
 30
0.0
 10
1782.245851585788
 20
770.9240163614431
 30
0.0
 10
1782.212579988607
 20
770.7939215479037
 30
0.0
 10
1782.177189242914
 20
770.6643730851192
 30
0.0
 10
1782.139678252695
 20
770.5353729467177
 30
0.0
 10
1782.100046768669
 20
770.4069199939113
 30
0.0
 10
1782.022614431902
 20
770.1696929952498
 30
0.0
 10
1781.899433002489
 20
769.8364846343032
 30
0.0
 10
1781.722721040081
 20
769.4250383510792
 30
0.0
 10
1781.596099914054
 20
769.177055626243
 30
0.0
 10
1781.529554066658
 20
769.0467280807411
 30
0.0
  0
ARC
  5
921
330
909
100
AcDbEntity
  8
0
  6
Continuous
 62
     7
370
    15
100
AcDbCircle
 10
1784.14918847139
 20
769.2034435138862
 30
0.0
 40
2.624317843067421
100
AcDbArc
 50
152.2416920795028
 51
183.4235480364515
  0
SPLINE
  5
922
330
909
100
AcDbEntity
  8
0
  6
Continuous
 62
     7
370
    15
100
AcDbSpline
210
0.0
220
0.0
230
1.0
 70
     8
 71
     3
 72
    10
 73
     6
 74
     0
 42
0.0000000001
 43
0.0000000001
 40
0.0
 40
0.0
 40
0.0
 40
0.0
 40
0.5
 40
0.5
 40
1.0
 40
1.0
 40
1.0
 40
1.0
 10
1781.826876827081
 20
770.4257007569191
 30
0.0
 10
1782.029468126866
 20
770.8088336345056
 30
0.0
 10
1782.170795749953
 20
771.189316510908
 30
0.0
 10
1782.361910362669
 20
771.9140121253729
 30
0.0
 10
1782.41194183916
 20
772.2581571668317
 30
0.0
 10
1782.431596427147
 20
772.5782013318945
 30
0.0
  0
SPLINE
  5
923
330
909
100
AcDbEntity
  8
0
  6
Continuous
 62
     7
370
    15
100
AcDbSpline
210
0.0
220
0.0
230
1.0
 70
     8
 71
     3
 72
    10
 73
     6
 74
     0
 42
0.0000000001
 43
0.0000000001
 40
0.0
 40
0.0
 40
0.0
 40
0.0
 40
0.5
 40
0.5
 40
1.0
 40
1.0
 40
1.0
 40
1.0
 10
1782.380537116367
 20
771.5858683628011
 30
0.0
 10
1782.380550762873
 20
771.7515464220805
 30
0.0
 10
1782.387288749242
 20
771.9170763596999
 30
0.0
 10
1782.407580288604
 20
772.2477554718782
 30
0.0
 10
1782.421441446151
 20
772.4128517586852
 30
0.0
 10
1782.431596435183
 20
772.5782014626616
 30
0.0
  0
LINE
  5
924
330
909
100
AcDbEntity
  8
0
  6
Continuous
 62
     7
370
    15
100
AcDbLine
 10
1782.38053709513
 20
780.8446600590963
 30
0.0
 11
1782.380537103384
 21
774.2204858179817
 31
0.0
  0
LINE
  5
925
330
909
100
AcDbEntity
  8
0
  6
Continuous
 62
     7
370
    15
100
AcDbLine
 10
1771.902600562982
 20
780.8446600590963
 30
0.0
 11
1782.38053709513
 21
780.8446600590963
 31
0.0
  0
LINE
  5
926
330
909
100
AcDbEntity
  8
0
  6
Continuous
 62
     7
370
    15
100
AcDbLine
 10
1771.902600558878
 20
774.2204858179815
 30
0.0
 11
1771.902600562982
 21
780.8446600590963
 31
0.0
  0
ARC
  5
927
330
909
100
AcDbEntity
  8
0
  6
Continuous
 62
     7
370
    15
100
AcDbCircle
 10
1777.141568831147
 20
772.9031770903916
 30
0.0
 40
5.300000000000022
100
AcDbArc
 50
176.4846387006604
 51
183.5153612993526
  0
LINE
  5
928
330
909
100
AcDbEntity
  8
0
  6
Continuous
 62
     7
370
    15
100
AcDbLine
 10
1771.902600567086
 20
763.1143798156266
 30
0.0
 11
1771.902600558878
 21
771.5858683628023
 31
0.0
  0
LINE
  5
929
330
909
100
AcDbEntity
  8
0
  6
Continuous
 62
     7
370
    15
100
AcDbLine
 10
1782.380537099249
 20
763.1143798156271
 30
0.0
 11
1771.902600567086
 21
763.1143798156266
 31
0.0
  0
LINE
  5
92A
330
909
100
AcDbEntity
  8
0
  6
Continuous
 62
     7
370
    15
100
AcDbLine
 10
1782.380537103384
 20
771.5858683628026
 30
0.0
 11
1782.380537099249
 21
763.1143798156271
 31
0.0
  0
ARC
  5
92B
330
909
100
AcDbEntity
  8
0
  6
Continuous
 62
     7
370
    15
100
AcDbCircle
 10
1777.141568831113
 20
772.9031770903916
 30
0.0
 40
5.299999999999981
100
AcDbArc
 50
356.4846387006538
 51
3.515361299346088
  0
LINE
  5
92C
330
909
100
AcDbEntity
  8
0
  6
Continuous
 62
     7
370
    15
100
AcDbLine
 10
1784.589447618989
 20
752.2183973313677
 30
0.0
 11
1784.489447618989
 21
752.2183973313677
 31
0.0
  0
LINE
  5
92D
330
909
100
AcDbEntity
  8
0
  6
Continuous
 62
     7
370
    15
100
AcDbLine
 10
1784.489447618989
 20
738.7184032176799
 30
0.0
 11
1784.489447618989
 21
752.2183973313677
 31
0.0
  0
LINE
  5
92E
330
909
100
AcDbEntity
  8
0
  6
Continuous
 62
     7
370
    15
100
AcDbLine
 10
1769.793690043262
 20
738.7184032176799
 30
0.0
 11
1784.489447618989
 21
738.7184032176799
 31
0.0
  0
LINE
  5
92F
330
909
100
AcDbEntity
  8
0
  6
Continuous
 62
     7
370
    15
100
AcDbLine
 10
1769.793690043255
 20
752.2183973313677
 30
0.0
 11
1769.793690043262
 21
738.7184032176799
 31
0.0
  0
LINE
  5
930
330
909
100
AcDbEntity
  8
0
  6
Continuous
 62
     7
370
    15
100
AcDbLine
 10
1769.693690043261
 20
752.2183973313677
 30
0.0
 11
1769.793690043255
 21
752.2183973313677
 31
0.0
  0
LINE
  5
931
330
909
100
AcDbEntity
  8
0
  6
Continuous
 62
     7
370
    15
100
AcDbLine
 10
1769.693690043262
 20
790.0753247322739
 30
0.0
 11
1769.693690043261
 21
752.2183973313677
 31
0.0
  0
LINE
  5
932
330
909
100
AcDbEntity
  8
0
  6
Continuous
 62
     7
370
    15
100
AcDbLine
 10
1769.693690043262
 20
790.0753247322739
 30
0.0
 11
1784.589447618996
 21
790.0753247322739
 31
0.0
  0
LINE
  5
933
330
909
100
AcDbEntity
  8
0
  6
Continuous
 62
     7
370
    15
100
AcDbLine
 10
1784.589447618989
 20
752.2183973313677
 30
0.0
 11
1784.589447618996
 21
790.0753247322739
 31
0.0
  0
SPLINE
  5
934
330
909
100
AcDbEntity
  8
0
  6
Continuous
 62
     7
370
    15
100
AcDbSpline
210
0.0
220
0.0
230
1.0
 70
     8
 71
     3
 72
    20
 73
    16
 74
     0
 42
0.0000000001
 43
0.0000000001
 40
0.0
 40
0.0
 40
0.0
 40
0.0
 40
0.0429160637895155
 40
0.0852294472169336
 40
0.1270342615767428
 40
0.1684280870937704
 40
0.2095114326111861
 40
0.2503870973466427
 40
0.3765345168177092
 40
0.5004817269621124
 40
0.6255032801775126
 40
0.7501151685781784
 40
0.832939716359426
 40
0.9158328780711142
 40
1.0
 40
1.0
 40
1.0
 40
1.0
 10
1773.373460541313
 20
770.5134333217563
 30
0.0
 10
1773.36803447713
 20
770.4624419251754
 30
0.0
 10
1773.357258548259
 20
770.3611752161708
 30
0.0
 10
1773.339684156893
 20
770.2158552168761
 30
0.0
 10
1773.321229678159
 20
770.0769129405974
 30
0.0
 10
1773.301789550074
 20
769.9447170703202
 30
0.0
 10
1773.281388924493
 20
769.8191688600815
 30
0.0
 10
1773.245174840022
 20
769.6176440394154
 30
0.0
 10
1773.189441049431
 20
769.3665668308937
 30
0.0
 10
1773.109046730874
 20
769.1186697925517
 30
0.0
 10
1773.02271471512
 20
768.9553609269574
 30
0.0
 10
1772.942483507449
 20
768.8941297463957
 30
0.0
 10
1772.87213673728
 20
768.9019595621336
 30
0.0
 10
1772.811998588105
 20
768.9485599137501
 30
0.0
 10
1772.773153999496
 20
769.0138394233032
 30
0.0
 10
1772.7535835956
 20
769.0467280807407
 30
0.0
  0
LINE
  5
935
330
909
100
AcDbEntity
  8
0
  6
Continuous
 62
     7
370
    15
100
AcDbLine
 10
1773.373460541313
 20
770.5134333217563
 30
0.0
 11
1773.37809517745
 21
770.5586878676057
 31
0.0
  0
LINE
  5
936
330
909
100
AcDbEntity
  8
0
  6
Continuous
 62
     7
370
    15
100
AcDbLine
 10
1773.378095177458
 20
768.9402832689321
 30
0.0
 11
1773.37809517745
 21
770.5586878676057
 31
0.0
  0
LINE
  5
937
330
909
100
AcDbEntity
  8
0
  6
Continuous
 62
     7
370
    15
100
AcDbLine
 10
1773.290799608477
 20
768.3502725543092
 30
0.0
 11
1773.378095177458
 21
768.9402832689321
 31
0.0
  0
ELLIPSE
  5
938
330
909
100
AcDbEntity
  8
0
  6
Continuous
 62
     7
370
    15
100
AcDbEllipse
 10
1773.020651001021
 20
769.6358477736735
 30
0.0
 11
-0.0000000000001137
 21
1.999999999999914
 31
0.0
210
0.0
220
0.0
230
1.0
 40
0.1763269807082186
 41
3.490658503925621
 42
4.014257279534823
  0
LINE
  5
939
330
909
100
AcDbEntity
  8
0
  6
Continuous
 62
     7
370
    15
100
AcDbLine
 10
1772.248113486899
 20
765.9128374637345
 30
0.0
 11
1773.141265759425
 21
767.7564625321017
 31
0.0
  0
ELLIPSE
  5
93A
330
909
100
AcDbEntity
  8
0
  6
Continuous
 62
     7
370
    15
100
AcDbEllipse
 10
1772.427712265115
 20
763.1143798156266
 30
0.0
 11
-0.0000000000001137
 21
2.978056426332669
 31
0.0
210
0.0
220
0.0
230
1.0
 40
0.176326980708211
 41
0.3490658503859332
 42
1.570796326794804
  0
LINE
  5
93B
330
909
100
AcDbEntity
  8
0
  6
Continuous
 62
     7
370
    15
100
AcDbLine
 10
1780.909677120944
 20
775.2929208590273
 30
0.0
 11
1780.905042484807
 21
775.247666313178
 31
0.0
  0
LINE
  5
93C
330
909
100
AcDbEntity
  8
0
  6
Continuous
 62
     7
370
    15
100
AcDbLine
 10
1780.905042484553
 20
776.8660709101864
 30
0.0
 11
1780.905042484806
 21
775.2476663131777
 31
0.0
  0
LINE
  5
93D
330
909
100
AcDbEntity
  8
0
  6
Continuous
 62
     7
370
    15
100
AcDbLine
 10
1780.947373844982
 20
777.1521788487541
 30
0.0
 11
1780.905042484553
 21
776.8660709101864
 31
0.0
  0
ELLIPSE
  5
93E
330
909
100
AcDbEntity
  8
0
  6
Continuous
 62
     7
370
    15
100
AcDbEllipse
 10
1781.21752245133
 20
775.8666036327638
 30
0.0
 11
0.0
 21
1.99999998947345
 31
0.0
210
0.0
220
0.0
230
1.0
 40
0.1763269807087259
 41
6.283185307179585
 42
7.155849932393013
  0
LINE
  5
93F
330
909
100
AcDbEntity
  8
0
  6
Continuous
 62
     7
370
    15
100
AcDbLine
 10
1781.855425397116
 20
777.8666036327643
 30
0.0
 11
1781.217522451354
 21
777.8666036248689
 31
0.0
  0
ELLIPSE
  5
940
330
909
100
AcDbEntity
  8
0
  6
Continuous
 62
     7
370
    15
100
AcDbEllipse
 10
1781.855425397085
 20
780.8446600590965
 30
0.0
 11
0.0
 21
2.978056426332273
 31
0.0
210
0.0
220
0.0
230
1.0
 40
0.1763269807086736
 41
3.141592653647894
 42
4.712388980384671
  0
SPLINE
  5
941
330
909
100
AcDbEntity
  8
0
  6
Continuous
 62
     7
370
    15
100
AcDbSpline
210
0.0
220
0.0
230
1.0
 70
     8
 71
     3
 72
    20
 73
    16
 74
     0
 42
0.0000000001
 43
0.0000000001
 40
0.0
 40
0.0
 40
0.0
 40
0.0
 40
0.0428722659856151
 40
0.0851433138623742
 40
0.1269069688499012
 40
0.1682605099158549
 40
0.2093041322088486
 40
0.250140312179867
 40
0.3759729637464106
 40
0.4996126667671685
 40
0.6246810090780932
 40
0.7493319215862817
 40
0.8324165808714749
 40
0.915566956362093
 40
1.0
 40
1.0
 40
1.0
 40
1.0
 10
1780.909677120944
 20
775.2929208590273
 30
0.0
 10
1780.915097507776
 20
775.3438607403686
 30
0.0
 10
1780.925862268785
 20
775.4450261489481
 30
0.0
 10
1780.94341717537
 20
775.5902079827974
 30
0.0
 10
1780.961850541738
 20
775.7290260840822
 30
0.0
 10
1780.981267728263
 20
775.8611125039532
 30
0.0
 10
1781.001643624047
 20
775.9865657688599
 30
0.0
 10
1781.03777930383
 20
776.1877681013037
 30
0.0
 10
1781.093362464503
 20
776.4384321303491
 30
0.0
 10
1781.173587984552
 20
776.6864049234579
 30
0.0
 10
1781.259834469548
 20
776.8502267365825
 30
0.0
 10
1781.340136700743
 20
776.9120684037353
 30
0.0
 10
1781.410620531157
 20
776.9046132399632
 30
0.0
 10
1781.470953356197
 20
776.8580686758857
 30
0.0
 10
1781.509921078046
 20
776.7926073037734
 30
0.0
 10
1781.529554066658
 20
776.7596261000426
 30
0.0
  0
SPLINE
  5
942
330
909
100
AcDbEntity
  8
0
  6
Continuous
 62
     7
370
    15
100
AcDbSpline
210
0.0
220
0.0
230
1.0
 70
     8
 71
     3
 72
    20
 73
    16
 74
     0
 42
0.0000000001
 43
0.0000000001
 40
0.0
 40
0.0
 40
0.0
 40
0.0
 40
0.0423930841905941
 40
0.084347103927908
 40
0.1260098835405009
 40
0.1675323580088559
 40
0.2090669919292699
 40
0.2507661165223588
 40
0.3751581543329804
 40
0.5004760552941892
 40
0.6238578530615598
 40
0.749939235266819
 40
0.8316752579959118
 40
0.9147646211194139
 40
1.0
 40
1.0
 40
1.0
 40
1.0
 10
1772.7535835956
 20
776.7596261000432
 30
0.0
 10
1772.763384775236
 20
776.7770938923542
 30
0.0
 10
1772.782885623858
 20
776.8118485633477
 30
0.0
 10
1772.812624419115
 20
776.8512184645625
 30
0.0
 10
1772.842479152956
 20
776.8807431598424
 30
0.0
 10
1772.872496894531
 20
776.8995644645595
 30
0.0
 10
1772.902666600821
 20
776.9078938324345
 30
0.0
 10
1772.952915412663
 20
776.904305158229
 30
0.0
 10
1773.023244920931
 20
776.8503388435012
 30
0.0
 10
1773.109436172924
 20
776.6866816209162
 30
0.0
 10
1773.189722697245
 20
776.4386108515947
 30
0.0
 10
1773.253149217299
 20
776.1527973706752
 30
0.0
 10
1773.302502858823
 20
775.8631688960572
 30
0.0
 10
1773.340723717861
 20
775.5920061699247
 30
0.0
 10
1773.362455910377
 20
775.3934597359738
 30
0.0
 10
1773.373460541313
 20
775.2929208590285
 30
0.0
  0
ELLIPSE
  5
943
330
909
100
AcDbEntity
  8
0
  6
Continuous
 62
     7
370
    15
100
AcDbEllipse
 10
1772.427712265115
 20
780.8446600590962
 30
0.0
 11
-0.0000000000001137
 21
2.978056426332301
 31
0.0
210
0.0
220
0.0
230
1.0
 40
0.1763269807082329
 41
1.570796326794823
 42
3.141592653642482
  0
LINE
  5
944
330
909
100
AcDbEntity
  8
0
  6
Continuous
 62
     7
370
    15
100
AcDbLine
 10
1773.065615210844
 20
777.8666036222371
 30
0.0
 11
1772.427712265143
 21
777.8666036301323
 31
0.0
  0
ELLIPSE
  5
945
330
909
100
AcDbEntity
  8
0
  6
Continuous
 62
     7
370
    15
100
AcDbEllipse
 10
1773.06561521087
 20
775.8666036327634
 30
0.0
 11
-0.0000000000001137
 21
1.999999989473423
 31
0.0
210
0.0
220
0.0
230
1.0
 40
0.1763269807082452
 41
5.410520681807738
 42
6.283185307179585
  0
LINE
  5
946
330
909
100
AcDbEntity
  8
0
  6
Continuous
 62
     7
370
    15
100
AcDbLine
 10
1773.378095177698
 20
776.866070910228
 30
0.0
 11
1773.335763817302
 21
777.1521788487514
 31
0.0
  0
LINE
  5
947
330
909
100
AcDbEntity
  8
0
  6
Continuous
 62
     7
370
    15
100
AcDbLine
 10
1773.37809517745
 20
775.2476663131776
 30
0.0
 11
1773.378095177698
 21
776.866070910228
 31
0.0
  0
LINE
  5
948
330
909
100
AcDbEntity
  8
0
  6
Continuous
 62
     7
370
    15
100
AcDbLine
 10
1773.37809517745
 20
775.2476663131776
 30
0.0
 11
1773.373460541312
 21
775.2929208590273
 31
0.0
  0
ELLIPSE
  5
949
330
909
100
AcDbEntity
  8
0
  6
Continuous
 62
     7
370
    15
100
AcDbEllipse
 10
1781.855425397085
 20
763.1143798156268
 30
0.0
 11
0.0
 21
2.978056426332669
 31
0.0
210
0.0
220
0.0
230
1.0
 40
0.1763269807087073
 41
4.71238898038473
 42
5.934119456774294
  0
LINE
  5
94A
330
909
100
AcDbEntity
  8
0
  6
Continuous
 62
     7
370
    15
100
AcDbLine
 10
1781.14187190279
 20
767.7564625321007
 30
0.0
 11
1782.035024175312
 21
765.9128374637356
 31
0.0
  0
ELLIPSE
  5
94B
330
909
100
AcDbEntity
  8
0
  6
Continuous
 62
     7
370
    15
100
AcDbEllipse
 10
1781.262486661178
 20
769.6358477736737
 30
0.0
 11
0.0
 21
1.999999999999914
 31
0.0
210
0.0
220
0.0
230
1.0
 40
0.1763269807087018
 41
2.268928027650074
 42
2.792526803296663
  0
LINE
  5
94C
330
909
100
AcDbEntity
  8
0
  6
Continuous
 62
     7
370
    15
100
AcDbLine
 10
1780.905042484817
 20
768.9402832688514
 30
0.0
 11
1780.992338053723
 21
768.3502725543022
 31
0.0
  0
LINE
  5
94D
330
909
100
AcDbEntity
  8
0
  6
Continuous
 62
     7
370
    15
100
AcDbLine
 10
1780.905042484807
 20
770.5586878676058
 30
0.0
 11
1780.905042484817
 21
768.9402832688514
 31
0.0
  0
LINE
  5
94E
330
909
100
AcDbEntity
  8
0
  6
Continuous
 62
     7
370
    15
100
AcDbLine
 10
1780.905042484807
 20
770.5586878676057
 30
0.0
 11
1780.909677120944
 21
770.5134333217564
 31
0.0
  0
SPLINE
  5
94F
330
909
100
AcDbEntity
  8
0
  6
Continuous
 62
     7
370
    15
100
AcDbSpline
210
0.0
220
0.0
230
1.0
 70
     8
 71
     3
 72
    20
 73
    16
 74
     0
 42
0.0000000001
 43
0.0000000001
 40
0.0
 40
0.0
 40
0.0
 40
0.0
 40
0.0422586069182456
 40
0.0840815680921607
 40
0.1256153171137729
 40
0.1670093569984757
 40
0.208414704140037
 40
0.249982251693404
 40
0.3743373594022876
 40
0.4996066606351845
 40
0.6232929852401589
 40
0.749692266073465
 40
0.8315042288148765
 40
0.9146750562183363
 40
1.0
 40
1.0
 40
1.0
 40
1.0
 10
1781.529554066658
 20
769.0467280807411
 30
0.0
 10
1781.519784190941
 20
769.0293124799048
 30
0.0
 10
1781.500345157563
 20
768.9946608163887
 30
0.0
 10
1781.470701664
 20
768.9553653853378
 30
0.0
 10
1781.440942167285
 20
768.9258523419051
 30
0.0
 10
1781.411019874354
 20
768.9069747064064
 30
0.0
 10
1781.380945740886
 20
768.8985220669364
 30
0.0
 10
1781.33076864952
 20
768.901802540376
 30
0.0
 10
1781.260480837165
 20
768.9552507241416
 30
0.0
 10
1781.174204667187
 20
769.1183924430902
 30
0.0
 10
1781.093750236947
 20
769.3663903736838
 30
0.0
 10
1781.030162306805
 20
769.6526210497401
 30
0.0
 10
1780.980714484418
 20
769.9426461594415
 30
0.0
 10
1780.942448857709
 20
770.2140455111958
 30
0.0
 10
1780.920693741859
 20
770.4127904403891
 30
0.0
 10
1780.909677120944
 20
770.5134333217564
 30
0.0
  0
LINE
  5
950
330
909
100
AcDbEntity
  8
0
  6
Continuous
 62
     7
370
    15
100
AcDbLine
 10
1782.035024175312
 20
765.9128374637356
 30
0.0
 11
1772.248113486899
 21
765.9128374637345
 31
0.0
  0
LINE
  5
951
330
909
100
AcDbEntity
  8
0
  6
Continuous
 62
     7
370
    15
100
AcDbLine
 10
1772.427712265143
 20
777.8666036301323
 30
0.0
 11
1781.855425397116
 21
777.8666036327643
 31
0.0
  0
LINE
  5
952
330
909
100
AcDbEntity
  8
0
  6
Continuous
 62
     7
370
    15
100
AcDbLine
 10
1769.693690043262
 20
790.5702689020472
 30
0.0
 11
1784.589447618996
 21
790.5702689020472
 31
0.0
  0
LINE
  5
953
330
909
100
AcDbEntity
  8
0
  6
Continuous
 62
     7
370
    15
100
AcDbLine
 10
1784.589447618996
 20
790.0753247322739
 30
0.0
 11
1784.589447618996
 21
790.5702689020472
 31
0.0
  0
LINE
  5
954
330
909
100
AcDbEntity
  8
0
  6
Continuous
 62
     7
370
    15
100
AcDbLine
 10
1769.693690043262
 20
790.0753247322739
 30
0.0
 11
1769.693690043262
 21
790.5702689020472
 31
0.0
  0
LINE
  5
955
330
909
100
AcDbEntity
  8
0
  6
Continuous
 62
     7
370
    15
100
AcDbLine
 10
1769.793690043262
 20
738.2184032173199
 30
0.0
 11
1784.489447618989
 21
738.2184007472825
 31
0.0
  0
LINE
  5
956
330
909
100
AcDbEntity
  8
0
  6
Continuous
 62
     7
370
    15
100
AcDbLine
 10
1769.793690043262
 20
738.7184032176799
 30
0.0
 11
1769.793690043262
 21
738.2184032173199
 31
0.0
  0
LINE
  5
957
330
909
100
AcDbEntity
  8
0
  6
Continuous
 62
     7
370
    15
100
AcDbLine
 10
1784.489447618989
 20
738.2184007472825
 30
0.0
 11
1784.489447618989
 21
738.7184032176799
 31
0.0
  0
LINE
  5
958
330
909
100
AcDbEntity
  8
0
  6
Continuous
 62
     7
370
    15
100
AcDbLine
 10
1773.643545115695
 20
792.8439977349507
 30
0.0
 11
1773.643545115693
 21
790.718829619387
 31
0.0
  0
LINE
  5
959
330
909
100
AcDbEntity
  8
0
  6
Continuous
 62
     7
370
    15
100
AcDbLine
 10
1773.643545115693
 20
790.718829619387
 30
0.0
 11
1780.639592546562
 21
790.718829619387
 31
0.0
  0
LINE
  5
95A
330
909
100
AcDbEntity
  8
0
  6
Continuous
 62
     7
370
    15
100
AcDbLine
 10
1780.639592546565
 20
792.8439977349507
 30
0.0
 11
1780.639592546562
 21
790.718829619387
 31
0.0
  0
LINE
  5
95B
330
909
100
AcDbEntity
  8
0
  6
Continuous
 62
     7
370
    15
100
AcDbLine
 10
1784.589447618996
 20
792.8439977349507
 30
0.0
 11
1780.639592546565
 21
792.8439977349507
 31
0.0
  0
LINE
  5
95C
330
909
100
AcDbEntity
  8
0
  6
Continuous
 62
     7
370
    15
100
AcDbLine
 10
1769.693690043262
 20
792.8439977349506
 30
0.0
 11
1773.643545115695
 21
792.8439977349507
 31
0.0
  0
LINE
  5
95D
330
909
100
AcDbEntity
  8
0
  6
Continuous
 62
     7
370
    15
100
AcDbLine
 10
1784.589447618996
 20
792.8439977349507
 30
0.0
 11
1784.589447618996
 21
790.5702689020472
 31
0.0
  0
LINE
  5
95E
330
909
100
AcDbEntity
  8
0
  6
Continuous
 62
     7
370
    15
100
AcDbLine
 10
1769.693690043262
 20
790.5702689020472
 30
0.0
 11
1769.693690043262
 21
792.8439977349506
 31
0.0
  0
LINE
  5
95F
330
909
100
AcDbEntity
  8
0
  6
Continuous
 62
     7
370
    15
100
AcDbLine
 10
1781.341568831122
 20
738.2183992294561
 30
0.0
 11
1784.489447618989
 21
738.2183982772452
 31
0.0
  0
LINE
  5
960
330
909
100
AcDbEntity
  8
0
  6
Continuous
 62
     7
370
    15
100
AcDbLine
 10
1781.341568831122
 20
738.2184001816672
 30
0.0
 11
1781.341568831122
 21
738.2183992294561
 31
0.0
  0
LINE
  5
961
330
909
100
AcDbEntity
  8
0
  6
Continuous
 62
     7
370
    15
100
AcDbLine
 10
1772.941568831127
 20
738.2184011338781
 30
0.0
 11
1781.341568831122
 21
738.2184011338781
 31
0.0
  0
LINE
  5
962
330
909
100
AcDbEntity
  8
0
  6
Continuous
 62
     7
370
    15
100
AcDbLine
 10
1769.79369004326
 20
738.2184007472825
 30
0.0
 11
1772.941568831127
 21
738.2183982772452
 31
0.0
  0
LINE
  5
963
330
909
100
AcDbEntity
  8
0
  6
Continuous
 62
     7
370
    15
100
AcDbLine
 10
1769.793690043262
 20
738.2184032173199
 30
0.0
 11
1769.79369004326
 21
738.2184007472825
 31
0.0
  0
LINE
  5
964
330
909
100
AcDbEntity
  8
0
  6
Continuous
 62
     7
370
    15
100
AcDbLine
 10
1784.489447618989
 20
738.2183982772452
 30
0.0
 11
1784.489447618989
 21
738.2184007472825
 31
0.0
  0
LINE
  5
965
330
909
100
AcDbEntity
  8
0
  6
Continuous
 62
     7
370
    15
100
AcDbLine
 10
1773.643545115695
 20
791.5615027908836
 30
0.0
 11
1780.639592546565
 21
791.5615027908836
 31
0.0
  0
LINE
  5
966
330
909
100
AcDbEntity
  8
0
  6
Continuous
 62
     7
370
    15
100
AcDbLine
 10
1773.141265759425
 20
767.7564625321017
 30
0.0
 11
1781.14187190279
 21
767.7564625321007
 31
0.0
  0
LINE
  5
967
330
909
100
AcDbEntity
  8
0
  6
Continuous
 62
     7
370
    15
100
AcDbLine
 10
1773.643545115695
 20
791.7927131456938
 30
0.0
 11
1780.639592546565
 21
791.7927131456938
 31
0.0
  0
LINE
  5
968
330
909
100
AcDbEntity
  8
0
  6
Continuous
 62
     7
370
    15
100
AcDbLine
 10
1773.643545115695
 20
792.8364946878007
 30
0.0
 11
1780.639592546566
 21
792.8364946878007
 31
0.0
  0
LINE
  5
969
330
909
100
AcDbEntity
  8
0
  6
Continuous
 62
     7
370
    15
100
AcDbLine
 10
1780.639592546565
 20
792.8439977349507
 30
0.0
 11
1780.639592546566
 21
793.0755684071433
 31
0.0
  0
LINE
  5
96A
330
909
100
AcDbEntity
  8
0
  6
Continuous
 62
     7
370
    15
100
AcDbLine
 10
1784.589447618996
 20
793.0755684071433
 30
0.0
 11
1784.589447618996
 21
792.8439977349507
 31
0.0
  0
LINE
  5
96B
330
909
100
AcDbEntity
  8
0
  6
Continuous
 62
     7
370
    15
100
AcDbLine
 10
1773.643545115695
 20
792.8439977349507
 30
0.0
 11
1773.643545115695
 21
793.0755684071433
 31
0.0
  0
LINE
  5
96C
330
909
100
AcDbEntity
  8
0
  6
Continuous
 62
     7
370
    15
100
AcDbLine
 10
1769.693690043262
 20
792.8439977349506
 30
0.0
 11
1769.693690043262
 21
793.0755684071433
 31
0.0
  0
LINE
  5
96D
330
909
100
AcDbEntity
  8
0
  6
Continuous
 62
     7
370
    15
100
AcDbLine
 10
1773.643545115698
 20
794.3675739582777
 30
0.0
 11
1773.643545115699
 21
795.2536963700573
 31
0.0
  0
LINE
  5
96E
330
909
100
AcDbEntity
  8
0
  6
Continuous
 62
     7
370
    15
100
AcDbLine
 10
1773.643545115698
 20
794.3675739582777
 30
0.0
 11
1780.63959254657
 21
794.3675739582777
 31
0.0
  0
LINE
  5
96F
330
909
100
AcDbEntity
  8
0
  6
Continuous
 62
     7
370
    15
100
AcDbLine
 10
1780.63959254657
 20
794.3675739582777
 30
0.0
 11
1780.639592546571
 21
795.2536963700574
 31
0.0
  0
LINE
  5
970
330
909
100
AcDbEntity
  8
0
  6
Continuous
 62
     7
370
    15
100
AcDbLine
 10
1784.589447618996
 20
795.2536963700574
 30
0.0
 11
1780.639592546571
 21
795.2536963700574
 31
0.0
  0
LINE
  5
971
330
909
100
AcDbEntity
  8
0
  6
Continuous
 62
     7
370
    15
100
AcDbLine
 10
1773.643545115697
 20
793.1178389607572
 30
0.0
 11
1780.639592546569
 21
793.1178389607572
 31
0.0
  0
LINE
  5
972
330
909
100
AcDbEntity
  8
0
  6
Continuous
 62
     7
370
    15
100
AcDbLine
 10
1769.693690043262
 20
795.2536963700573
 30
0.0
 11
1773.643545115699
 21
795.2536963700573
 31
0.0
  0
LINE
  5
973
330
909
100
AcDbEntity
  8
0
  6
Continuous
 62
     7
370
    15
100
AcDbLine
 10
1773.643545115704
 20
793.0755684071433
 30
0.0
 11
1773.643545115697
 21
793.1178389607572
 31
0.0
  0
LINE
  5
974
330
909
100
AcDbEntity
  8
0
  6
Continuous
 62
     7
370
    15
100
AcDbLine
 10
1780.639592546577
 20
793.0755684071433
 30
0.0
 11
1780.639592546569
 21
793.1178389607572
 31
0.0
  0
LINE
  5
975
330
909
100
AcDbEntity
  8
0
  6
Continuous
 62
     7
370
    15
100
AcDbLine
 10
1784.589447618996
 20
793.0755684071375
 30
0.0
 11
1784.589447618996
 21
795.2536963700574
 31
0.0
  0
LINE
  5
976
330
909
100
AcDbEntity
  8
0
  6
Continuous
 62
     7
370
    15
100
AcDbLine
 10
1769.693690043262
 20
793.0755684071377
 30
0.0
 11
1769.693690043262
 21
795.2536963700573
 31
0.0
  0
SPLINE
  5
977
330
909
100
AcDbEntity
  8
0
  6
Continuous
 62
     7
370
    15
100
AcDbSpline
210
0.0
220
0.0
230
1.0
 70
     8
 71
     3
 72
    14
 73
    10
 74
     0
 42
0.0000000001
 43
0.0000000001
 40
0.0
 40
0.0
 40
0.0
 40
0.0
 40
0.25
 40
0.25
 40
0.5
 40
0.5
 40
0.75
 40
0.75
 40
1.0
 40
1.0
 40
1.0
 40
1.0
 10
1781.826876827081
 20
775.3806534238645
 30
0.0
 10
1781.789627796262
 20
775.4510973589192
 30
0.0
 10
1781.754257438423
 20
775.4848875062146
 30
0.0
 10
1781.69116426301
 20
775.4742399010173
 30
0.0
 10
1781.664253235871
 20
775.4298545718528
 30
0.0
 10
1781.621897409605
 20
775.2669706361707
 30
0.0
 10
1781.607064437731
 20
775.1514800341615
 30
0.0
 10
1781.588295107081
 20
774.8588130761147
 30
0.0
 10
1781.584707012295
 20
774.6878589052212
 30
0.0
 10
1781.58442338221
 20
774.4941887399571
 30
0.0
  0
ARC
  5
978
330
909
100
AcDbEntity
  8
0
  6
Continuous
 62
     7
370
    15
100
AcDbCircle
 10
1782.371544686229
 20
775.8434958341402
 30
0.0
 40
1.562110617611041
100
AcDbArc
 50
200.6375976652511
 51
239.7427549730712
  0
SPLINE
  5
979
330
909
100
AcDbEntity
  8
0
  6
Continuous
 62
     7
370
    15
100
AcDbSpline
210
0.0
220
0.0
230
1.0
 70
     8
 71
     3
 72
    14
 73
    10
 74
     0
 42
0.0000000001
 43
0.0000000001
 40
0.0
 40
0.0
 40
0.0
 40
0.0
 40
0.25
 40
0.25
 40
0.5
 40
0.5
 40
0.75
 40
0.75
 40
1.0
 40
1.0
 40
1.0
 40
1.0
 10
1772.456260835178
 20
770.4257007569188
 30
0.0
 10
1772.493435161899
 20
770.3553980993802
 30
0.0
 10
1772.528519088451
 20
770.3215928757072
 30
0.0
 10
1772.591893687315
 20
770.3319149789357
 30
0.0
 10
1772.618610733497
 20
770.3757817533645
 30
0.0
 10
1772.661155446345
 20
770.5387255627162
 30
0.0
 10
1772.676087579334
 20
770.6552081469728
 30
0.0
 10
1772.694801340166
 20
770.9467884357597
 30
0.0
 10
1772.698430198711
 20
771.1181859517576
 30
0.0
 10
1772.698714280048
 20
771.3121654408264
 30
0.0
  0
ARC
  5
97A
330
909
100
AcDbEntity
  8
0
  6
Continuous
 62
     7
370
    15
100
AcDbCircle
 10
1771.911592976032
 20
769.9628583466472
 30
0.0
 40
1.562110617606083
100
AcDbArc
 50
20.63759766504528
 51
59.74275497310028
  0
ARC
  5
97B
330
909
100
AcDbEntity
  8
0
  6
Continuous
 62
     7
370
    15
100
AcDbCircle
 10
1771.911592976036
 20
775.84349583413
 30
0.0
 40
1.562110617598414
100
AcDbArc
 50
300.2572450268496
 51
339.3624023353467
  0
SPLINE
  5
97C
330
909
100
AcDbEntity
  8
0
  6
Continuous
 62
     7
370
    15
100
AcDbSpline
210
0.0
220
0.0
230
1.0
 70
     8
 71
     3
 72
    14
 73
    10
 74
     0
 42
0.0000000001
 43
0.0000000001
 40
0.0
 40
0.0
 40
0.0
 40
0.0
 40
0.25
 40
0.25
 40
0.5
 40
0.5
 40
0.75
 40
0.75
 40
1.0
 40
1.0
 40
1.0
 40
1.0
 10
1772.698714280047
 20
774.4941887399569
 30
0.0
 10
1772.698430649995
 20
774.6878589052366
 30
0.0
 10
1772.694842555178
 20
774.8588130761151
 30
0.0
 10
1772.676073224525
 20
775.1514800341607
 30
0.0
 10
1772.661240252653
 20
775.2669706361715
 30
0.0
 10
1772.618884426387
 20
775.4298545718516
 30
0.0
 10
1772.591973399248
 20
775.4742399010171
 30
0.0
 10
1772.528880223836
 20
775.4848875062146
 30
0.0
 10
1772.493509865997
 20
775.4510973589215
 30
0.0
 10
1772.456260835177
 20
775.3806534238642
 30
0.0
  0
ARC
  5
97D
330
909
100
AcDbEntity
  8
0
  6
Continuous
 62
     7
370
    15
100
AcDbCircle
 10
1782.371544686227
 20
769.9628583466457
 30
0.0
 40
1.562110617608354
100
AcDbArc
 50
120.2572450268997
 51
159.3624023349013
  0
SPLINE
  5
97E
330
909
100
AcDbEntity
  8
0
  6
Continuous
 62
     7
370
    15
100
AcDbSpline
210
0.0
220
0.0
230
1.0
 70
     8
 71
     3
 72
    14
 73
    10
 74
     0
 42
0.0000000001
 43
0.0000000001
 40
0.0
 40
0.0
 40
0.0
 40
0.0
 40
0.25
 40
0.25
 40
0.5
 40
0.5
 40
0.75
 40
0.75
 40
1.0
 40
1.0
 40
1.0
 40
1.0
 10
1781.58442338221
 20
771.3121654408265
 30
0.0
 10
1781.584707463539
 20
771.1181859517538
 30
0.0
 10
1781.588336322092
 20
770.9467884357612
 30
0.0
 10
1781.607050082924
 20
770.6552081469716
 30
0.0
 10
1781.621982215915
 20
770.5387255627185
 30
0.0
 10
1781.66452692876
 20
770.3757817533627
 30
0.0
 10
1781.691243974943
 20
770.3319149789357
 30
0.0
 10
1781.754618573807
 20
770.3215928757074
 30
0.0
 10
1781.789702500359
 20
770.3553980993797
 30
0.0
 10
1781.826876827081
 20
770.4257007569191
 30
0.0
  0
ARC
  5
97F
330
909
100
AcDbEntity
  8
0
  6
Continuous
 62
     7
370
    15
100
AcDbCircle
 10
1777.141568831113
 20
772.9031770903916
 30
0.0
 40
4.719139183252829
100
AcDbArc
 50
340.2972633666851
 51
0.0
  0
ARC
  5
980
330
909
100
AcDbEntity
  8
0
  6
Continuous
 62
     7
370
    15
100
AcDbCircle
 10
1777.141568831113
 20
772.9031770903916
 30
0.0
 40
4.719139183252822
100
AcDbArc
 50
0.0
 51
19.702736633321
  0
ARC
  5
981
330
909
100
AcDbEntity
  8
0
  6
Continuous
 62
     7
370
    15
100
AcDbCircle
 10
1777.141568831145
 20
772.9031770903916
 30
0.0
 40
4.719139183289738
100
AcDbArc
 50
160.2972633666895
 51
199.702736633321
  0
LINE
  5
982
330
909
100
AcDbEntity
  8
0
  6
Continuous
 62
     7
370
    15
100
AcDbLine
 10
1773.643545115699
 20
794.5973058623924
 30
0.0
 11
1780.63959254657
 21
794.5973058623924
 31
0.0
  0
LINE
  5
983
330
909
100
AcDbEntity
  8
0
  6
Continuous
 62
     7
370
    15
100
AcDbLine
 10
1784.589447618996
 20
796.0063259749107
 30
0.0
 11
1780.63959254657
 21
796.0063259749107
 31
0.0
  0
LINE
  5
984
330
909
100
AcDbEntity
  8
0
  6
Continuous
 62
     7
370
    15
100
AcDbLine
 10
1780.63959254657
 20
796.0063259749107
 30
0.0
 11
1780.63959254657
 21
797.0993118101642
 31
0.0
  0
LINE
  5
985
330
909
100
AcDbEntity
  8
0
  6
Continuous
 62
     7
370
    15
100
AcDbLine
 10
1784.589447618996
 20
797.0993118101647
 30
0.0
 11
1780.63959254657
 21
797.0993118101642
 31
0.0
  0
LINE
  5
986
330
909
100
AcDbEntity
  8
0
  6
Continuous
 62
     7
370
    15
100
AcDbLine
 10
1784.589447618996
 20
797.0993118101647
 30
0.0
 11
1784.589447618996
 21
796.0063259749107
 31
0.0
  0
LINE
  5
987
330
909
100
AcDbEntity
  8
0
  6
Continuous
 62
     7
370
    15
100
AcDbLine
 10
1769.693690043262
 20
796.0063259749106
 30
0.0
 11
1773.643545115699
 21
796.0063259749107
 31
0.0
  0
LINE
  5
988
330
909
100
AcDbEntity
  8
0
  6
Continuous
 62
     7
370
    15
100
AcDbLine
 10
1769.693690043262
 20
797.0993118101646
 30
0.0
 11
1773.643545115699
 21
797.0993118101642
 31
0.0
  0
LINE
  5
989
330
909
100
AcDbEntity
  8
0
  6
Continuous
 62
     7
370
    15
100
AcDbLine
 10
1773.643545115699
 20
796.0063259749107
 30
0.0
 11
1773.643545115699
 21
797.0993118101642
 31
0.0
  0
LINE
  5
98A
330
909
100
AcDbEntity
  8
0
  6
Continuous
 62
     7
370
    15
100
AcDbLine
 10
1769.693690043262
 20
796.0063259749106
 30
0.0
 11
1769.693690043262
 21
797.0993118101646
 31
0.0
  0
LINE
  5
98B
330
909
100
AcDbEntity
  8
0
  6
Continuous
 62
     7
370
    15
100
AcDbLine
 10
1780.947373844982
 20
777.1521788487541
 30
0.0
 11
1773.335763817302
 21
777.1521788487514
 31
0.0
  0
LINE
  5
98C
330
909
100
AcDbEntity
  8
0
  6
Continuous
 62
     7
370
    15
100
AcDbLine
 10
1773.643545115699
 20
796.251549534434
 30
0.0
 11
1780.63959254657
 21
796.251549534434
 31
0.0
  0
LINE
  5
98D
330
909
100
AcDbEntity
  8
0
  6
Continuous
 62
     7
370
    15
100
AcDbLine
 10
1773.643545115699
 20
795.9782944429107
 30
0.0
 11
1780.63959254657
 21
795.9782944429107
 31
0.0
  0
LINE
  5
98E
330
909
100
AcDbEntity
  8
0
  6
Continuous
 62
     7
370
    15
100
AcDbLine
 10
1769.693690043262
 20
795.5334530454344
 30
0.0
 11
1784.589447618996
 21
795.5334530454345
 31
0.0
  0
LINE
  5
98F
330
909
100
AcDbEntity
  8
0
  6
Continuous
 62
     7
370
    15
100
AcDbLine
 10
1773.643545115699
 20
795.9782944429107
 30
0.0
 11
1773.643545115699
 21
796.0063259749107
 31
0.0
  0
LINE
  5
990
330
909
100
AcDbEntity
  8
0
  6
Continuous
 62
     7
370
    15
100
AcDbLine
 10
1780.63959254657
 20
795.9782944429107
 30
0.0
 11
1780.63959254657
 21
796.0063259749107
 31
0.0
  0
LINE
  5
991
330
909
100
AcDbEntity
  8
0
  6
Continuous
 62
     7
370
    15
100
AcDbLine
 10
1784.589447618996
 20
796.0063259749107
 30
0.0
 11
1784.589447618996
 21
795.5334530454345
 31
0.0
  0
LINE
  5
992
330
909
100
AcDbEntity
  8
0
  6
Continuous
 62
     7
370
    15
100
AcDbLine
 10
1769.693690043262
 20
795.5334530454344
 30
0.0
 11
1769.693690043262
 21
796.0063259749106
 31
0.0
  0
LINE
  5
993
330
909
100
AcDbEntity
  8
0
  6
Continuous
 62
     7
370
    15
100
AcDbLine
 10
1780.639592546572
 20
799.2315717535618
 30
0.0
 11
1773.643545115701
 21
799.2315717535618
 31
0.0
  0
LINE
  5
994
330
909
100
AcDbEntity
  8
0
  6
Continuous
 62
     7
370
    15
100
AcDbLine
 10
1769.693690043262
 20
799.3289987082127
 30
0.0
 11
1784.589447618996
 21
799.3289987082127
 31
0.0
  0
LINE
  5
995
330
909
100
AcDbEntity
  8
0
  6
Continuous
 62
     7
370
    15
100
AcDbLine
 10
1773.643545115701
 20
799.2315717535618
 30
0.0
 11
1773.643545115699
 21
797.0993118101642
 31
0.0
  0
LINE
  5
996
330
909
100
AcDbEntity
  8
0
  6
Continuous
 62
     7
370
    15
100
AcDbLine
 10
1780.639592546572
 20
799.2315717535618
 30
0.0
 11
1780.63959254657
 21
797.0993118101642
 31
0.0
  0
LINE
  5
997
330
909
100
AcDbEntity
  8
0
  6
Continuous
 62
     7
370
    15
100
AcDbLine
 10
1784.589447618996
 20
799.3289987082127
 30
0.0
 11
1784.589447618996
 21
797.0993118101647
 31
0.0
  0
LINE
  5
998
330
909
100
AcDbEntity
  8
0
  6
Continuous
 62
     7
370
    15
100
AcDbLine
 10
1769.693690043262
 20
797.0993118101646
 30
0.0
 11
1769.693690043262
 21
799.3289987082127
 31
0.0
  0
LINE
  5
999
330
909
100
AcDbEntity
  8
0
  6
Continuous
 62
     7
370
    15
100
AcDbLine
 10
1773.643545115699
 20
797.2953270173599
 30
0.0
 11
1780.639592546571
 21
797.29532701736
 31
0.0
  0
LINE
  5
99A
330
909
100
AcDbEntity
  8
0
  6
Continuous
 62
     7
370
    15
100
AcDbLine
 10
1773.290799608477
 20
768.3502725543092
 30
0.0
 11
1780.992338053723
 21
768.3502725543022
 31
0.0
  0
SPLINE
  5
99B
330
909
100
AcDbEntity
  8
0
  6
Continuous
 62
     7
370
    15
100
AcDbSpline
210
0.0
220
0.0
230
1.0
 70
     8
 71
     3
 72
    12
 73
     8
 74
     0
 42
0.0000000001
 43
0.0000000001
 40
0.0
 40
0.0
 40
0.0
 40
0.0
 40
0.5000000000000087
 40
0.5000000000000087
 40
0.7500000000000045
 40
0.7500000000000045
 40
1.0
 40
1.0
 40
1.0
 40
1.0
 10
1772.707949406614
 20
771.3444558774377
 30
0.0
 10
1772.782562795448
 20
771.6066432845751
 30
0.0
 10
1772.87002657792
 20
771.8626693425566
 30
0.0
 10
1772.995707460723
 20
772.2461839189
 30
0.0
 10
1773.036808907373
 20
772.3750283534581
 30
0.0
 10
1773.099943585608
 20
772.6350250642732
 30
0.0
 10
1773.121289128742
 20
772.7688872698142
 30
0.0
 10
1773.121307641378
 20
772.9031770904481
 30
0.0
  0
SPLINE
  5
99C
330
909
100
AcDbEntity
  8
0
  6
Continuous
 62
     7
370
    15
100
AcDbSpline
210
0.0
220
0.0
230
1.0
 70
     8
 71
     3
 72
     8
 73
     4
 74
     0
 42
0.0000000001
 43
0.0000000001
 40
0.0
 40
0.0
 40
0.0
 40
0.0
 40
1.0
 40
1.0
 40
1.0
 40
1.0
 10
1772.698714280048
 20
771.3121654408264
 30
0.0
 10
1772.701804270667
 20
771.3229181746663
 30
0.0
 10
1772.704882648899
 20
771.3336815859944
 30
0.0
 10
1772.707948900034
 20
771.3444562135062
 30
0.0
  0
SPLINE
  5
99D
330
909
100
AcDbEntity
  8
0
  6
Continuous
 62
     7
370
    15
100
AcDbSpline
210
0.0
220
0.0
230
1.0
 70
     8
 71
     3
 72
     8
 73
     4
 74
     0
 42
0.0000000001
 43
0.0000000001
 40
0.0
 40
0.0
 40
0.0
 40
0.0
 40
1.0
 40
1.0
 40
1.0
 40
1.0
 10
1772.707948900034
 20
774.4618979672769
 30
0.0
 10
1772.704882648898
 20
774.4726725947888
 30
0.0
 10
1772.701804270666
 20
774.4834360061169
 30
0.0
 10
1772.698714280048
 20
774.4941887399569
 30
0.0
  0
SPLINE
  5
99E
330
909
100
AcDbEntity
  8
0
  6
Continuous
 62
     7
370
    15
100
AcDbSpline
210
0.0
220
0.0
230
1.0
 70
     8
 71
     3
 72
    10
 73
     6
 74
     0
 42
0.0000000001
 43
0.0000000001
 40
0.0
 40
0.0
 40
0.0
 40
0.0
 40
0.5
 40
0.5
 40
1.0
 40
1.0
 40
1.0
 40
1.0
 10
1773.121307453844
 20
772.903177090531
 30
0.0
 10
1773.121344658594
 20
773.1730585682052
 30
0.0
 10
1773.03763528955
 20
773.4323027047033
 30
0.0
 10
1772.870116883811
 20
773.9433320348979
 30
0.0
 10
1772.78262427956
 20
774.1994930336627
 30
0.0
 10
1772.707948900034
 20
774.4618979672769
 30
0.0
  0
SPLINE
  5
99F
330
909
100
AcDbEntity
  8
0
  6
Continuous
 62
     7
370
    15
100
AcDbSpline
210
0.0
220
0.0
230
1.0
 70
     8
 71
     3
 72
    10
 73
     6
 74
     0
 42
0.0000000001
 43
0.0000000001
 40
0.0
 40
0.0
 40
0.0
 40
0.0
 40
0.5
 40
0.5
 40
1.0
 40
1.0
 40
1.0
 40
1.0
 10
1781.575188255643
 20
774.4618983033458
 30
0.0
 10
1781.500512953142
 20
774.1994933351914
 30
0.0
 10
1781.413020421798
 20
773.9433322923185
 30
0.0
 10
1781.245502136186
 20
773.4323028502586
 30
0.0
 10
1781.161792816127
 20
773.1730586437024
 30
0.0
 10
1781.161830020879
 20
772.9031770904201
 30
0.0
  0
SPLINE
  5
9A0
330
909
100
AcDbEntity
  8
0
  6
Continuous
 62
     7
370
    15
100
AcDbSpline
210
0.0
220
0.0
230
1.0
 70
     8
 71
     3
 72
     8
 73
     4
 74
     0
 42
0.0000000001
 43
0.0000000001
 40
0.0
 40
0.0
 40
0.0
 40
0.0
 40
1.0
 40
1.0
 40
1.0
 40
1.0
 10
1781.58442338221
 20
774.4941887399569
 30
0.0
 10
1781.581333391591
 20
774.4834360061172
 30
0.0
 10
1781.578255013363
 20
774.4726725947854
 30
0.0
 10
1781.575188762224
 20
774.4618979672772
 30
0.0
  0
LINE
  5
9A1
330
909
100
AcDbEntity
  8
0
  6
Continuous
 62
     7
370
    15
100
AcDbLine
 10
1781.860708014366
 20
772.9031770903916
 30
0.0
 11
1781.161830058553
 21
772.9031770903916
 31
0.0
  0
SPLINE
  5
9A2
330
909
100
AcDbEntity
  8
0
  6
Continuous
 62
     7
370
    15
100
AcDbSpline
210
0.0
220
0.0
230
1.0
 70
     8
 71
     3
 72
     8
 73
     4
 74
     0
 42
0.0000000001
 43
0.0000000001
 40
0.0
 40
0.0
 40
0.0
 40
0.0
 40
1.0
 40
1.0
 40
1.0
 40
1.0
 10
1781.575188762224
 20
771.3444562135064
 30
0.0
 10
1781.578255013362
 20
771.3336815859975
 30
0.0
 10
1781.581333391591
 20
771.3229181746667
 30
0.0
 10
1781.58442338221
 20
771.3121654408265
 30
0.0
  0
SPLINE
  5
9A3
330
909
100
AcDbEntity
  8
0
  6
Continuous
 62
     7
370
    15
100
AcDbSpline
210
0.0
220
0.0
230
1.0
 70
     8
 71
     3
 72
    12
 73
     8
 74
     0
 42
0.0000000001
 43
0.0000000001
 40
0.0
 40
0.0
 40
0.0
 40
0.0
 40
0.2500000000000018
 40
0.2500000000000018
 40
0.5000000000000036
 40
0.5000000000000036
 40
1.0
 40
1.0
 40
1.0
 40
1.0
 10
1781.161830208412
 20
772.9031770905029
 30
0.0
 10
1781.161848721051
 20
772.7688873074729
 30
0.0
 10
1781.183194276621
 20
772.635025139237
 30
0.0
 10
1781.246328994466
 20
772.3750284959938
 30
0.0
 10
1781.287430468085
 20
772.2461840925411
 30
0.0
 10
1781.413111441044
 20
771.8626696000986
 30
0.0
 10
1781.500575296302
 20
771.6066435860271
 30
0.0
 10
1781.575188762224
 20
771.3444562135066
 30
0.0
  0
LINE
  5
9A4
330
909
100
AcDbEntity
  8
0
  6
Continuous
 62
     7
370
    15
100
AcDbLine
 10
1773.643545115699
 20
794.9148508677772
 30
0.0
 11
1780.639592546572
 21
794.9148508677772
 31
0.0
  0
ARC
  5
9A5
330
909
100
AcDbEntity
  8
0
  6
Continuous
 62
     7
370
    15
100
AcDbCircle
 10
1782.348883811039
 20
770.0059538093504
 30
0.0
 40
1.546024810439253
100
AcDbArc
 50
120.0292168583801
 51
159.0520604186145
  0
ARC
  5
9A6
330
909
100
AcDbEntity
  8
0
  6
Continuous
 62
     7
370
    15
100
AcDbCircle
 10
1771.934253851219
 20
775.8004003714314
 30
0.0
 40
1.546024810437359
100
AcDbArc
 50
300.0292168583833
 51
339.0520604186558
  0
ARC
  5
9A7
330
909
100
AcDbEntity
  8
0
  6
Continuous
 62
     7
370
    15
100
AcDbCircle
 10
1771.934253851219
 20
770.0059538093519
 30
0.0
 40
1.54602481043739
100
AcDbArc
 50
20.94793958134427
 51
59.97078314161665
  0
ARC
  5
9A8
330
909
100
AcDbEntity
  8
0
  6
Continuous
 62
     7
370
    15
100
AcDbCircle
 10
1782.348883427263
 20
775.8004001178004
 30
0.0
 40
1.54602436134994
100
AcDbArc
 50
200.9479358879241
 51
239.9707682645239
  0
SPLINE
  5
9A9
330
909
100
AcDbEntity
  8
0
  6
Continuous
 62
     7
370
    15
100
AcDbSpline
210
0.0
220
0.0
230
1.0
 70
     8
 71
     3
 72
    18
 73
    14
 74
     0
 42
0.0000000001
 43
0.0000000001
 40
0.0
 40
0.0
 40
0.0
 40
0.0
 40
0.2500000000000081
 40
0.2500000000000081
 40
0.3750000000000122
 40
0.3750000000000122
 40
0.4375000000000142
 40
0.4375000000000142
 40
0.5000000000000162
 40
0.5000000000000162
 40
0.7500000000000081
 40
0.7500000000000081
 40
1.0
 40
1.0
 40
1.0
 40
1.0
 10
1780.905042484807
 20
770.5586878676058
 30
0.0
 10
1780.895520203409
 20
770.9288807678225
 30
0.0
 10
1780.881513293008
 20
771.2991536227336
 30
0.0
 10
1780.858805949434
 20
771.8775297070934
 30
0.0
 10
1780.850947052924
 20
772.0756333568437
 30
0.0
 10
1780.841674437029
 20
772.3806358590117
 30
0.0
 10
1780.839029269735
 20
772.4837006182548
 30
0.0
 10
1780.835332234629
 20
772.6939320213078
 30
0.0
 10
1780.834306758752
 20
772.8024724755544
 30
0.0
 10
1780.834502149292
 20
773.3370235996934
 30
0.0
 10
1780.851531217523
 20
773.7435729242641
 30
0.0
 10
1780.881634334454
 20
774.5102406850551
 30
0.0
 10
1780.895559202708
 20
774.8789895687945
 30
0.0
 10
1780.905042484806
 20
775.2476663131777
 30
0.0
  0
SPLINE
  5
9AA
330
909
100
AcDbEntity
  8
0
  6
Continuous
 62
     7
370
    15
100
AcDbSpline
210
0.0
220
0.0
230
1.0
 70
     8
 71
     3
 72
    18
 73
    14
 74
     0
 42
0.0000000001
 43
0.0000000001
 40
0.0
 40
0.0
 40
0.0
 40
0.0
 40
0.2500000000000144
 40
0.2500000000000144
 40
0.5000000000000288
 40
0.5000000000000288
 40
0.5625000000000263
 40
0.5625000000000263
 40
0.6250000000000239
 40
0.6250000000000239
 40
0.7500000000000189
 40
0.7500000000000189
 40
1.0
 40
1.0
 40
1.0
 40
1.0
 10
1773.37809517745
 20
775.2476663131776
 30
0.0
 10
1773.387578459546
 20
774.8789895687917
 30
0.0
 10
1773.401503327802
 20
774.5102406850548
 30
0.0
 10
1773.431606444734
 20
773.7435729242636
 30
0.0
 10
1773.448635512965
 20
773.3370235996902
 30
0.0
 10
1773.448830903505
 20
772.8024724755548
 30
0.0
 10
1773.447805427627
 20
772.6939320213077
 30
0.0
 10
1773.444108392522
 20
772.4837006182547
 30
0.0
 10
1773.441463225228
 20
772.3806358590105
 30
0.0
 10
1773.432190609332
 20
772.075633356845
 30
0.0
 10
1773.424331712823
 20
771.8775297070963
 30
0.0
 10
1773.401624369248
 20
771.2991536227272
 30
0.0
 10
1773.387617458842
 20
770.9288807678317
 30
0.0
 10
1773.37809517745
 20
770.5586878676057
 30
0.0
  0
LINE
  5
9AB
330
909
100
AcDbEntity
  8
0
  6
Continuous
 62
     7
370
    15
100
AcDbLine
 10
1784.589447618996
 20
795.4693352553002
 30
0.0
 11
1784.589447618996
 21
795.5334530454345
 31
0.0
  0
LINE
  5
9AC
330
909
100
AcDbEntity
  8
0
  6
Continuous
 62
     7
370
    15
100
AcDbLine
 10
1769.693690043262
 20
795.5334530454344
 30
0.0
 11
1769.693690043262
 21
795.4693352553001
 31
0.0
  0
LINE
  5
9AD
330
909
100
AcDbEntity
  8
0
  6
Continuous
 62
     7
370
    15
100
AcDbLine
 10
1773.6435451157
 20
795.2342608091916
 30
0.0
 11
1780.639592546572
 21
795.2342608091917
 31
0.0
  0
LINE
  5
9AE
330
909
100
AcDbEntity
  8
0
  6
Continuous
 62
     7
370
    15
100
AcDbLine
 10
1780.639592546571
 20
795.2536963700574
 30
0.0
 11
1780.639592546571
 21
795.4693352553002
 31
0.0
  0
LINE
  5
9AF
330
909
100
AcDbEntity
  8
0
  6
Continuous
 62
     7
370
    15
100
AcDbLine
 10
1784.589447618996
 20
795.4693352552943
 30
0.0
 11
1784.589447618996
 21
795.2536963700574
 31
0.0
  0
LINE
  5
9B0
330
909
100
AcDbEntity
  8
0
  6
Continuous
 62
     7
370
    15
100
AcDbLine
 10
1773.643545115699
 20
795.2536963700573
 30
0.0
 11
1773.643545115699
 21
795.4693352553001
 31
0.0
  0
LINE
  5
9B1
330
909
100
AcDbEntity
  8
0
  6
Continuous
 62
     7
370
    15
100
AcDbLine
 10
1769.693690043262
 20
795.2536963700573
 30
0.0
 11
1769.693690043262
 21
795.4693352553001
 31
0.0
  0
ELLIPSE
  5
9B2
330
909
100
AcDbEntity
  8
0
  6
Continuous
 62
     7
370
    15
100
AcDbEllipse
 10
1774.362902930463
 20
768.7333374293016
 30
0.0
 11
-0.0000000000001137
 21
1.191753592594095
 31
0.0
210
0.0
220
0.0
230
1.0
 40
0.8390996311773598
 41
1.385668500953007
 42
1.396263401553863
  0
LINE
  5
9B3
330
909
100
AcDbEntity
  8
0
  6
Continuous
 62
     7
370
    15
100
AcDbLine
 10
1773.379990200992
 20
768.9527061071527
 30
0.0
 11
1780.903147461268
 21
768.9527061071527
 31
0.0
  0
ELLIPSE
  5
9B4
330
909
100
AcDbEntity
  8
0
  6
Continuous
 62
     7
370
    15
100
AcDbEllipse
 10
1779.920234731795
 20
768.733337429303
 30
0.0
 11
-0.0000000000002274
 21
1.191753592594067
 31
0.0
210
0.0
220
0.0
230
1.0
 40
0.8390996311773797
 41
4.886921905554721
 42
4.897516806224619
  0
LINE
  5
9B5
330
909
100
AcDbEntity
  8
0
  6
Continuous
 62
     7
370
    15
100
AcDbLine
 10
1773.6435451157
 20
794.9547719628731
 30
0.0
 11
1780.639592546572
 21
794.9547719628731
 31
0.0
  0
ELLIPSE
  5
9B6
330
909
100
AcDbEntity
  8
0
  6
Continuous
 62
     7
370
    15
100
AcDbEllipse
 10
1779.920234731794
 20
777.073016751482
 30
0.0
 11
0.0000000000001705
 21
1.191753592594864
 31
0.0
210
0.0
220
0.0
230
1.0
 40
0.8390996311768194
 41
4.204510114818573
 42
4.537856053725559
  0
ELLIPSE
  5
9B7
330
909
100
AcDbEntity
  8
0
  6
Continuous
 62
     7
370
    15
100
AcDbEllipse
 10
1782.541568831114
 20
775.3342782623814
 30
0.0
 11
0.0000000000002842
 21
2.383507185189728
 31
0.0
210
0.0
220
0.0
230
1.0
 40
0.8390996311768194
 41
1.062917461227219
 42
1.226308606363221
  0
LINE
  5
9B8
330
909
100
AcDbEntity
  8
0
  6
Continuous
 62
     7
370
    15
100
AcDbLine
 10
1780.659071670441
 20
776.1392232930035
 30
0.0
 11
1773.62406599193
 21
776.1392232930034
 31
0.0
  0
ELLIPSE
  5
9B9
330
909
100
AcDbEntity
  8
0
  6
Continuous
 62
     7
370
    15
100
AcDbEllipse
 10
1771.741568831142
 20
775.3342782623832
 30
0.0
 11
0.0000000000005116
 21
2.383507185189755
 31
0.0
210
0.0
220
0.0
230
1.0
 40
0.8390996311768093
 41
5.056876700796553
 42
5.220267845951879
  0
ELLIPSE
  5
9BA
330
909
100
AcDbEntity
  8
0
  6
Continuous
 62
     7
370
    15
100
AcDbEllipse
 10
1774.362902930463
 20
777.0730167514829
 30
0.0
 11
0.0000000000002842
 21
1.191753592594892
 31
0.0
210
0.0
220
0.0
230
1.0
 40
0.8390996311767992
 41
1.745329253419773
 42
2.078675192361976
  0
LINE
  5
9BB
330
909
100
AcDbEntity
  8
0
  6
Continuous
 62
     7
370
    15
100
AcDbLine
 10
1773.489124897356
 20
776.4934372551164
 30
0.0
 11
1773.489124897355
 21
769.2443129047967
 31
0.0
  0
SPLINE
  5
9BC
330
909
100
AcDbEntity
  8
0
  6
Continuous
 62
     7
370
    15
100
AcDbSpline
210
0.0
220
0.0
230
1.0
 70
     8
 71
     3
 72
     8
 73
     4
 74
     0
 42
0.0000000001
 43
0.0000000001
 40
0.0
 40
0.0
 40
0.0
 40
0.0
 40
1.0
 40
1.0
 40
1.0
 40
1.0
 10
1773.489124897355
 20
769.2443129047957
 30
0.0
 10
1773.429951513509
 20
769.1614106367762
 30
0.0
 10
1773.397528702107
 20
769.0643167877222
 30
0.0
 10
1773.379990200983
 20
768.9527061071536
 30
0.0
  0
SPLINE
  5
9BD
330
909
100
AcDbEntity
  8
0
  6
Continuous
 62
     7
370
    15
100
AcDbSpline
210
0.0
220
0.0
230
1.0
 70
     8
 71
     3
 72
     8
 73
     4
 74
     0
 42
0.0000000001
 43
0.0000000001
 40
0.0
 40
0.0
 40
0.0
 40
0.0
 40
1.0
 40
1.0
 40
1.0
 40
1.0
 10
1780.903147461266
 20
768.9527061071588
 30
0.0
 10
1780.885608960143
 20
769.0643167877284
 30
0.0
 10
1780.853186148748
 20
769.1614106367762
 30
0.0
 10
1780.794012764903
 20
769.2443129047963
 30
0.0
  0
LINE
  5
9BE
330
909
100
AcDbEntity
  8
0
  6
Continuous
 62
     7
370
    15
100
AcDbLine
 10
1780.794012764903
 20
769.2443129047963
 30
0.0
 11
1780.794012764902
 21
776.493437255116
 31
0.0
  0
SPLINE
  5
9BF
330
909
100
AcDbEntity
  8
0
  6
Continuous
 62
     7
370
    15
100
AcDbSpline
210
0.0
220
0.0
230
1.0
 70
     8
 71
     3
 72
    10
 73
     6
 74
     0
 42
0.0000000001
 43
0.0000000001
 40
0.0
 40
0.0
 40
0.0
 40
0.0
 40
0.5
 40
0.5
 40
1.0
 40
1.0
 40
1.0
 40
1.0
 10
1773.489124897355
 20
769.2443129047957
 30
0.0
 10
1773.563638927928
 20
769.3487075114987
 30
0.0
 10
1773.626290644676
 20
769.4373269656302
 30
0.0
 10
1773.716459279648
 20
769.5781585338046
 30
0.0
 10
1773.741568831142
 20
769.6266011447825
 30
0.0
 10
1773.741568831142
 20
769.6505257650004
 30
0.0
  0
LINE
  5
9C0
330
909
100
AcDbEntity
  8
0
  6
Continuous
 62
     7
370
    15
100
AcDbLine
 10
1780.541568831124
 20
769.6671308877803
 30
0.0
 11
1773.741568831132
 21
769.66713088778
 31
0.0
  0
SPLINE
  5
9C1
330
909
100
AcDbEntity
  8
0
  6
Continuous
 62
     7
370
    15
100
AcDbSpline
210
0.0
220
0.0
230
1.0
 70
     8
 71
     3
 72
    10
 73
     6
 74
     0
 42
0.0000000001
 43
0.0000000001
 40
0.0
 40
0.0
 40
0.0
 40
0.0
 40
0.5
 40
0.5
 40
1.0
 40
1.0
 40
1.0
 40
1.0
 10
1780.541568831115
 20
769.650525765001
 30
0.0
 10
1780.541568831115
 20
769.626596455702
 30
0.0
 10
1780.566577639439
 20
769.5783345195866
 30
0.0
 10
1780.656679573447
 20
769.4375699085646
 30
0.0
 10
1780.719483490334
 20
769.3487288684292
 30
0.0
 10
1780.794012764903
 20
769.2443129047963
 30
0.0
  0
LINE
  5
9C2
330
909
100
AcDbEntity
  8
0
  6
Continuous
 62
     7
370
    15
100
AcDbLine
 10
1780.541568831114
 20
776.1392232930035
 30
0.0
 11
1780.541568831121
 21
769.650525765001
 31
0.0
  0
LINE
  5
9C3
330
909
100
AcDbEntity
  8
0
  6
Continuous
 62
     7
370
    15
100
AcDbLine
 10
1773.741568831136
 20
769.6505257650004
 30
0.0
 11
1773.741568831142
 21
776.1392232930034
 31
0.0
  0
LINE
  5
9C4
330
909
100
AcDbEntity
  8
0
  6
Continuous
 62
     7
370
    15
100
AcDbLine
 10
1773.643545115701
 20
798.9406787119215
 30
0.0
 11
1780.639592546573
 21
798.9406787119215
 31
0.0
  0
LINE
  5
9C5
330
909
100
AcDbEntity
  8
0
  6
Continuous
 62
     7
370
    15
100
AcDbLine
 10
1773.643545115701
 20
798.4829770436657
 30
0.0
 11
1780.639592546573
 21
798.4829770436657
 31
0.0
  0
LINE
  5
9C6
330
909
100
AcDbEntity
  8
0
  6
Continuous
 62
     7
370
    15
100
AcDbLine
 10
1773.643545115701
 20
798.2069841664552
 30
0.0
 11
1780.639592546573
 21
798.2069841664552
 31
0.0
  0
LINE
  5
9C7
330
909
100
AcDbEntity
  8
0
  6
Continuous
 62
     7
370
    15
100
AcDbLine
 10
1769.693690043262
 20
799.6219356085361
 30
0.0
 11
1784.589447618996
 21
799.6219356085361
 31
0.0
  0
LINE
  5
9C8
330
909
100
AcDbEntity
  8
0
  6
Continuous
 62
     7
370
    15
100
AcDbLine
 10
1784.589447618996
 20
799.6219356085361
 30
0.0
 11
1784.589447618996
 21
799.3289987082127
 31
0.0
  0
LINE
  5
9C9
330
909
100
AcDbEntity
  8
0
  6
Continuous
 62
     7
370
    15
100
AcDbLine
 10
1769.693690043262
 20
799.3289987082127
 30
0.0
 11
1769.693690043262
 21
799.6219356085361
 31
0.0
  0
LINE
  5
9CA
330
909
100
AcDbEntity
  8
0
  6
Continuous
 62
     7
370
    15
100
AcDbLine
 10
1773.643545115701
 20
797.7650714032403
 30
0.0
 11
1780.639592546573
 21
797.7650714032403
 31
0.0
  0
LINE
  5
9CB
330
909
100
AcDbEntity
  8
0
  6
Continuous
 62
     7
370
    15
100
AcDbLine
 10
1773.643545115701
 20
798.6620778282992
 30
0.0
 11
1780.639592546573
 21
798.6620778282992
 31
0.0
  0
LINE
  5
9CC
330
909
100
AcDbEntity
  8
0
  6
Continuous
 62
     7
370
    15
100
AcDbLine
 10
1773.741568831141
 20
775.7807896265837
 30
0.0
 11
1780.541568831114
 21
775.7807896265837
 31
0.0
  0
LINE
  5
9CD
330
909
100
AcDbEntity
  8
0
  6
Continuous
 62
     7
370
    15
100
AcDbLine
 10
1773.741568831141
 20
770.7701833963948
 30
0.0
 11
1780.541568831117
 21
770.7701833963948
 31
0.0
  0
LINE
  5
9CE
330
909
100
AcDbEntity
  8
0
  6
Continuous
 62
     7
370
    15
100
AcDbLine
 10
1777.143690043258
 20
801.7219356085302
 30
0.0
 11
1772.893690043258
 21
801.72193560853
 31
0.0
  0
LINE
  5
9CF
330
909
100
AcDbEntity
  8
0
  6
Continuous
 62
     7
370
    15
100
AcDbLine
 10
1781.393690043258
 20
801.72193560853
 30
0.0
 11
1777.143690043258
 21
801.7219356085302
 31
0.0
  0
LINE
  5
9D0
330
909
100
AcDbEntity
  8
0
  6
Continuous
 62
     7
370
    15
100
AcDbLine
 10
1774.541568831122
 20
738.2183968117876
 30
0.0
 11
1784.489447618989
 21
738.2183970963392
 31
0.0
  0
LINE
  5
9D1
330
909
100
AcDbEntity
  8
0
  6
Continuous
 62
     7
370
    15
100
AcDbLine
 10
1769.791568831121
 20
738.2183968895514
 30
0.0
 11
1769.791568831121
 21
739.301382780379
 31
0.0
  0
LINE
  5
9D2
330
909
100
AcDbEntity
  8
0
  6
Continuous
 62
     7
370
    15
100
AcDbLine
 10
1772.941568831127
 20
738.2183969284332
 30
0.0
 11
1769.791568831121
 21
738.2183969284332
 31
0.0
  0
LINE
  5
9D3
330
909
100
AcDbEntity
  8
0
  6
Continuous
 62
     7
370
    15
100
AcDbLine
 10
1769.793690043252
 20
739.301382780379
 30
0.0
 11
1769.791568831121
 21
739.301382780379
 31
0.0
  0
LINE
  5
9D4
330
909
100
AcDbEntity
  8
0
  6
Continuous
 62
     7
370
    15
100
AcDbLine
 10
1769.791568831121
 20
741.153520408121
 30
0.0
 11
1769.79156883112
 21
751.2183973313677
 31
0.0
  0
LINE
  5
9D5
330
909
100
AcDbEntity
  8
0
  6
Continuous
 62
     7
370
    15
100
AcDbLine
 10
1769.793690043252
 20
741.1535204081209
 30
0.0
 11
1769.791568831121
 21
741.1535204081209
 31
0.0
  0
LINE
  5
9D6
330
909
100
AcDbEntity
  8
0
  6
Continuous
 62
     7
370
    15
100
AcDbLine
 10
1769.79156883112
 20
752.2183973313677
 30
0.0
 11
1769.79156883112
 21
751.2183973313677
 31
0.0
  0
LINE
  5
9D7
330
909
100
AcDbEntity
  8
0
  6
Continuous
 62
     7
370
    15
100
AcDbLine
 10
1769.79156883112
 20
739.3013820809134
 30
0.0
 11
1769.79156883112
 21
739.6719812011907
 31
0.0
  0
LINE
  5
9D8
330
909
100
AcDbEntity
  8
0
  6
Continuous
 62
     7
370
    15
100
AcDbLine
 10
1769.79156883112
 20
739.3013820809134
 30
0.0
 11
1769.793690043252
 21
739.301382080982
 31
0.0
  0
LINE
  5
9D9
330
909
100
AcDbEntity
  8
0
  6
Continuous
 62
     7
370
    15
100
AcDbLine
 10
1769.79156883112
 20
739.6719812011907
 30
0.0
 11
1769.79156883112
 21
741.153520408121
 31
0.0
  0
LINE
  5
9DA
330
909
100
AcDbEntity
  8
0
  6
Continuous
 62
     8
370
    15
100
AcDbLine
 10
1769.79156883112
 20
751.2183973313677
 30
0.0
 11
1769.793690043256
 21
751.2183973313677
 31
0.0
  0
LINE
  5
9DB
330
909
100
AcDbEntity
  8
0
  6
Continuous
 62
     8
370
    15
100
AcDbLine
 10
1769.793690043252
 20
739.6719812011907
 30
0.0
 11
1769.79156883112
 21
739.6719812011907
 31
0.0
  0
ENDBLK
  5
90B
330
909
100
AcDbEntity
  8
0
100
AcDbBlockEnd
  0
BLOCK
  5
9DE
330
9DD
100
AcDbEntity
  8
0
100
AcDbBlockBegin
  2
3
 70
     0
 10
0.0
 20
0.0
 30
0.0
  3
3
  1

  0
LINE
  5
9E0
330
9DD
100
AcDbEntity
  8
0
  6
Continuous
 62
     7
370
    15
100
AcDbLine
 10
1855.950369889925
 20
707.0427529050602
 30
0.0
 11
1855.95036988993
 21
710.9926079774866
 31
0.0
  0
LINE
  5
9E1
330
9DD
100
AcDbEntity
  8
0
  6
Continuous
 62
     7
370
    15
100
AcDbLine
 10
1855.950369889914
 20
696.0968504017521
 30
0.0
 11
1855.950369889918
 21
700.0467054741887
 31
0.0
  0
LINE
  5
9E2
330
9DD
100
AcDbEntity
  8
0
  6
Continuous
 62
     7
370
    15
100
AcDbLine
 10
1810.755743541775
 20
700.0467054741847
 30
0.0
 11
1810.755743541774
 21
696.0968504017523
 31
0.0
  0
LINE
  5
9E3
330
9DD
100
AcDbEntity
  8
0
  6
Continuous
 62
     7
370
    15
100
AcDbLine
 10
1810.755743541774
 20
710.992607977489
 30
0.0
 11
1810.755743541775
 21
707.0427529050562
 31
0.0
  0
LINE
  5
9E4
330
9DD
100
AcDbEntity
  8
0
  6
Continuous
 62
     7
370
    15
100
AcDbLine
 10
1853.88461448815
 20
707.0427529050625
 30
0.0
 11
1853.884614488144
 21
700.0467054741903
 31
0.0
  0
LINE
  5
9E5
330
9DD
100
AcDbEntity
  8
0
  6
Continuous
 62
     7
370
    15
100
AcDbLine
 10
1812.82149894355
 20
700.0467054741846
 30
0.0
 11
1812.821498943549
 21
707.0427529050568
 31
0.0
  0
LINE
  5
9E6
330
9DD
100
AcDbEntity
  8
0
  6
Continuous
 62
     7
370
    15
100
AcDbLine
 10
1855.768935380101
 20
700.0467054741887
 30
0.0
 11
1855.768935380107
 21
707.0427529050604
 31
0.0
  0
LINE
  5
9E7
330
9DD
100
AcDbEntity
  8
0
  6
Continuous
 62
     7
370
    15
100
AcDbLine
 10
1810.937178051591
 20
707.0427529050562
 30
0.0
 11
1810.937178051592
 21
700.0467054741847
 31
0.0
  0
LINE
  5
9E8
330
9DD
100
AcDbEntity
  8
0
  6
Continuous
 62
     7
370
    15
100
AcDbLine
 10
1858.343928002583
 20
710.9926079774866
 30
0.0
 11
1858.343928002571
 21
696.0968504017523
 31
0.0
  0
LINE
  5
9E9
330
9DD
100
AcDbEntity
  8
0
  6
Continuous
 62
     7
370
    15
100
AcDbLine
 10
1808.362185429121
 20
696.0968504017521
 30
0.0
 11
1808.362185429118
 21
710.992607977489
 31
0.0
  0
LINE
  5
9EA
330
9DD
100
AcDbEntity
  8
0
  6
Continuous
 62
     7
370
    15
100
AcDbLine
 10
1860.228342877615
 20
700.0467054741851
 30
0.0
 11
1860.22834287762
 21
707.0427529050549
 31
0.0
  0
LINE
  5
9EB
330
9DD
100
AcDbEntity
  8
0
  6
Continuous
 62
     7
370
    15
100
AcDbLine
 10
1806.477770554078
 20
707.0427529050554
 30
0.0
 11
1806.47777055408
 21
700.0467054741855
 31
0.0
  0
LINE
  5
9EC
330
9DD
100
AcDbEntity
  8
0
  6
Continuous
 62
     7
370
    15
100
AcDbLine
 10
1803.760213066794
 20
710.8926079774795
 30
0.0
 11
1803.760213066794
 21
696.19472918961
 31
0.0
  0
CIRCLE
  5
9ED
330
9DD
100
AcDbEntity
  8
0
  6
Continuous
 62
     7
370
    15
100
AcDbCircle
 10
1845.373056715884
 20
703.5468504017483
 30
0.0
 40
2.799999999999982
  0
CIRCLE
  5
9EE
330
9DD
100
AcDbEntity
  8
0
  6
Continuous
 62
     7
370
    15
100
AcDbCircle
 10
1845.373056715884
 20
703.5468504017483
 30
0.0
 40
4.25
  0
CIRCLE
  5
9EF
330
9DD
100
AcDbEntity
  8
0
  6
Continuous
 62
     7
370
    15
100
AcDbCircle
 10
1821.333056715884
 20
703.5468504017481
 30
0.0
 40
2.799999999999982
  0
CIRCLE
  5
9F0
330
9DD
100
AcDbEntity
  8
0
  6
Continuous
 62
     7
370
    15
100
AcDbCircle
 10
1821.333056715884
 20
703.5468504017481
 30
0.0
 40
4.249999999999971
  0
LINE
  5
9F1
330
9DD
100
AcDbEntity
  8
0
  6
Continuous
 62
     7
370
    15
100
AcDbLine
 10
1852.782306371456
 20
710.9926079774866
 30
0.0
 11
1853.489456831455
 21
710.9926079774866
 31
0.0
  0
LINE
  5
9F2
330
9DD
100
AcDbEntity
  8
0
  6
Continuous
 62
     7
370
    15
100
AcDbLine
 10
1853.48945683144
 20
696.0968504017521
 30
0.0
 11
1853.489456831455
 21
710.9926079774866
 31
0.0
  0
LINE
  5
9F3
330
9DD
100
AcDbEntity
  8
0
  6
Continuous
 62
     7
370
    15
100
AcDbLine
 10
1853.48945683144
 20
696.0968504017521
 30
0.0
 11
1852.782306371441
 21
696.096850401752
 31
0.0
  0
LINE
  5
9F4
330
9DD
100
AcDbEntity
  8
0
  6
Continuous
 62
     7
370
    15
100
AcDbLine
 10
1852.782306371441
 20
696.096850401752
 30
0.0
 11
1852.782306371456
 21
710.9926079774866
 31
0.0
  0
LINE
  5
9F5
330
9DD
100
AcDbEntity
  8
0
  6
Continuous
 62
     7
370
    15
100
AcDbLine
 10
1838.103056715884
 20
710.9926079774794
 30
0.0
 11
1838.103056715884
 21
696.096850401746
 31
0.0
  0
LINE
  5
9F6
330
9DD
100
AcDbEntity
  8
0
  6
Continuous
 62
     7
370
    15
100
AcDbLine
 10
1838.103056715884
 20
696.096850401746
 30
0.0
 11
1852.782306371441
 21
696.096850401752
 31
0.0
  0
LINE
  5
9F7
330
9DD
100
AcDbEntity
  8
0
  6
Continuous
 62
     7
370
    15
100
AcDbLine
 10
1852.782306371456
 20
710.9926079774866
 30
0.0
 11
1838.103056715884
 21
710.9926079774794
 31
0.0
  0
LINE
  5
9F8
330
9DD
100
AcDbEntity
  8
0
  6
Continuous
 62
     7
370
    15
100
AcDbLine
 10
1813.216656600249
 20
710.992607977489
 30
0.0
 11
1813.216656600249
 21
696.0968504017523
 31
0.0
  0
LINE
  5
9F9
330
9DD
100
AcDbEntity
  8
0
  6
Continuous
 62
     7
370
    15
100
AcDbLine
 10
1813.923807060248
 20
710.992607977489
 30
0.0
 11
1813.923807060248
 21
696.0968504017523
 31
0.0
  0
LINE
  5
9FA
330
9DD
100
AcDbEntity
  8
0
  6
Continuous
 62
     7
370
    15
100
AcDbLine
 10
1813.923807060248
 20
696.0968504017523
 30
0.0
 11
1813.216656600249
 21
696.0968504017523
 31
0.0
  0
LINE
  5
9FB
330
9DD
100
AcDbEntity
  8
0
  6
Continuous
 62
     7
370
    15
100
AcDbLine
 10
1813.216656600249
 20
710.992607977489
 30
0.0
 11
1813.923807060248
 21
710.992607977489
 31
0.0
  0
LINE
  5
9FC
330
9DD
100
AcDbEntity
  8
0
  6
Continuous
 62
     7
370
    15
100
AcDbLine
 10
1828.603056715883
 20
696.0968504017442
 30
0.0
 11
1828.603056715883
 21
710.9926079774794
 31
0.0
  0
LINE
  5
9FD
330
9DD
100
AcDbEntity
  8
0
  6
Continuous
 62
     7
370
    15
100
AcDbLine
 10
1813.923807060248
 20
696.0968504017523
 30
0.0
 11
1828.603056715883
 21
696.0968504017442
 31
0.0
  0
LINE
  5
9FE
330
9DD
100
AcDbEntity
  8
0
  6
Continuous
 62
     7
370
    15
100
AcDbLine
 10
1828.603056715883
 20
710.9926079774794
 30
0.0
 11
1813.923807060248
 21
710.992607977489
 31
0.0
  0
LINE
  5
9FF
330
9DD
100
AcDbEntity
  8
0
  6
Continuous
 62
     7
370
    15
100
AcDbLine
 10
1829.603056715883
 20
710.9926079774794
 30
0.0
 11
1829.603056715883
 21
696.0968504017442
 31
0.0
  0
LINE
  5
A00
330
9DD
100
AcDbEntity
  8
0
  6
Continuous
 62
     7
370
    15
100
AcDbLine
 10
1828.603056715883
 20
696.0968504017442
 30
0.0
 11
1829.603056715883
 21
696.0968504017442
 31
0.0
  0
LINE
  5
A01
330
9DD
100
AcDbEntity
  8
0
  6
Continuous
 62
     7
370
    15
100
AcDbLine
 10
1828.603056715883
 20
710.9926079774794
 30
0.0
 11
1829.603056715883
 21
710.9926079774794
 31
0.0
  0
LINE
  5
A02
330
9DD
100
AcDbEntity
  8
0
  6
Continuous
 62
     7
370
    15
100
AcDbLine
 10
1837.103056715885
 20
696.096850401746
 30
0.0
 11
1837.103056715885
 21
710.9926079774794
 31
0.0
  0
LINE
  5
A03
330
9DD
100
AcDbEntity
  8
0
  6
Continuous
 62
     7
370
    15
100
AcDbLine
 10
1837.103056715885
 20
696.096850401746
 30
0.0
 11
1838.103056715884
 21
696.096850401746
 31
0.0
  0
LINE
  5
A04
330
9DD
100
AcDbEntity
  8
0
  6
Continuous
 62
     7
370
    15
100
AcDbLine
 10
1837.103056715885
 20
710.9926079774794
 30
0.0
 11
1838.103056715884
 21
710.9926079774794
 31
0.0
  0
LINE
  5
A05
330
9DD
100
AcDbEntity
  8
0
  6
Continuous
 62
     7
370
    15
100
AcDbLine
 10
1855.71886827728
 20
710.9926079774866
 30
0.0
 11
1855.718868277276
 21
707.0427529050604
 31
0.0
  0
LINE
  5
A06
330
9DD
100
AcDbEntity
  8
0
  6
Continuous
 62
     7
370
    15
100
AcDbLine
 10
1853.58687175012
 20
707.0427529050629
 30
0.0
 11
1855.718868277276
 21
707.0427529050604
 31
0.0
  0
LINE
  5
A07
330
9DD
100
AcDbEntity
  8
0
  6
Continuous
 62
     7
370
    15
100
AcDbLine
 10
1853.58687175012
 20
707.0427529050629
 30
0.0
 11
1853.586871750113
 21
700.0467054741907
 31
0.0
  0
LINE
  5
A08
330
9DD
100
AcDbEntity
  8
0
  6
Continuous
 62
     7
370
    15
100
AcDbLine
 10
1853.586871750113
 20
700.0467054741907
 30
0.0
 11
1855.718868277268
 21
700.0467054741887
 31
0.0
  0
LINE
  5
A09
330
9DD
100
AcDbEntity
  8
0
  6
Continuous
 62
     7
370
    15
100
AcDbLine
 10
1855.718868277265
 20
696.0968504017521
 30
0.0
 11
1855.718868277268
 21
700.0467054741887
 31
0.0
  0
LINE
  5
A0A
330
9DD
100
AcDbEntity
  8
0
  6
Continuous
 62
     7
370
    15
100
AcDbLine
 10
1855.718868277265
 20
696.0968504017521
 30
0.0
 11
1853.48945683144
 21
696.0968504017521
 31
0.0
  0
LINE
  5
A0B
330
9DD
100
AcDbEntity
  8
0
  6
Continuous
 62
     7
370
    15
100
AcDbLine
 10
1853.489456831455
 20
710.9926079774866
 30
0.0
 11
1855.71886827728
 21
710.9926079774866
 31
0.0
  0
LINE
  5
A0C
330
9DD
100
AcDbEntity
  8
0
  6
Continuous
 62
     7
370
    15
100
AcDbLine
 10
1810.987245154423
 20
696.0968504017523
 30
0.0
 11
1810.987245154424
 21
700.0467054741847
 31
0.0
  0
LINE
  5
A0D
330
9DD
100
AcDbEntity
  8
0
  6
Continuous
 62
     7
370
    15
100
AcDbLine
 10
1813.11924168158
 20
700.0467054741846
 30
0.0
 11
1810.987245154424
 21
700.0467054741847
 31
0.0
  0
LINE
  5
A0E
330
9DD
100
AcDbEntity
  8
0
  6
Continuous
 62
     7
370
    15
100
AcDbLine
 10
1813.11924168158
 20
700.0467054741846
 30
0.0
 11
1813.11924168158
 21
707.0427529050568
 31
0.0
  0
LINE
  5
A0F
330
9DD
100
AcDbEntity
  8
0
  6
Continuous
 62
     7
370
    15
100
AcDbLine
 10
1813.11924168158
 20
707.0427529050568
 30
0.0
 11
1810.987245154424
 21
707.0427529050562
 31
0.0
  0
LINE
  5
A10
330
9DD
100
AcDbEntity
  8
0
  6
Continuous
 62
     7
370
    15
100
AcDbLine
 10
1810.987245154423
 20
710.992607977489
 30
0.0
 11
1810.987245154424
 21
707.0427529050562
 31
0.0
  0
LINE
  5
A11
330
9DD
100
AcDbEntity
  8
0
  6
Continuous
 62
     7
370
    15
100
AcDbLine
 10
1813.216656600249
 20
696.0968504017523
 30
0.0
 11
1810.987245154423
 21
696.0968504017523
 31
0.0
  0
LINE
  5
A12
330
9DD
100
AcDbEntity
  8
0
  6
Continuous
 62
     7
370
    15
100
AcDbLine
 10
1810.987245154423
 20
710.992607977489
 30
0.0
 11
1813.216656600249
 21
710.992607977489
 31
0.0
  0
LINE
  5
A13
330
9DD
100
AcDbEntity
  8
0
  6
Continuous
 62
     7
370
    15
100
AcDbLine
 10
1854.391280984625
 20
700.04670547419
 30
0.0
 11
1854.391280984632
 21
707.0427529050619
 31
0.0
  0
LINE
  5
A14
330
9DD
100
AcDbEntity
  8
0
  6
Continuous
 62
     7
370
    15
100
AcDbLine
 10
1854.667273861837
 20
700.0467054741896
 30
0.0
 11
1854.667273861844
 21
707.0427529050617
 31
0.0
  0
LINE
  5
A15
330
9DD
100
AcDbEntity
  8
0
  6
Continuous
 62
     7
370
    15
100
AcDbLine
 10
1812.314832447068
 20
707.0427529050566
 30
0.0
 11
1812.314832447068
 21
700.0467054741846
 31
0.0
  0
LINE
  5
A16
330
9DD
100
AcDbEntity
  8
0
  6
Continuous
 62
     7
370
    15
100
AcDbLine
 10
1812.038839569855
 20
707.0427529050566
 30
0.0
 11
1812.038839569856
 21
700.0467054741847
 31
0.0
  0
LINE
  5
A17
330
9DD
100
AcDbEntity
  8
0
  6
Continuous
 62
     7
370
    15
100
AcDbLine
 10
1853.949368221408
 20
700.0467054741902
 30
0.0
 11
1853.949368221416
 21
707.0427529050625
 31
0.0
  0
LINE
  5
A18
330
9DD
100
AcDbEntity
  8
0
  6
Continuous
 62
     7
370
    15
100
AcDbLine
 10
1812.756745210284
 20
707.0427529050568
 30
0.0
 11
1812.756745210285
 21
700.0467054741846
 31
0.0
  0
LINE
  5
A19
330
9DD
100
AcDbEntity
  8
0
  6
Continuous
 62
     7
370
    15
100
AcDbLine
 10
1855.711051344763
 20
700.0467054741887
 30
0.0
 11
1855.71105134477
 21
707.0427529050604
 31
0.0
  0
LINE
  5
A1A
330
9DD
100
AcDbEntity
  8
0
  6
Continuous
 62
     7
370
    15
100
AcDbLine
 10
1810.99506208693
 20
707.0427529050562
 30
0.0
 11
1810.99506208693
 21
700.0467054741847
 31
0.0
  0
LINE
  5
A1B
330
9DD
100
AcDbEntity
  8
0
  6
Continuous
 62
     7
370
    15
100
AcDbLine
 10
1821.816962173474
 20
706.3047183297164
 30
0.0
 11
1821.816962173474
 21
700.7889824737802
 31
0.0
  0
LINE
  5
A1C
330
9DD
100
AcDbEntity
  8
0
  6
Continuous
 62
     7
370
    15
100
AcDbLine
 10
1845.873056715888
 20
706.2976034402701
 30
0.0
 11
1845.873056715888
 21
700.7918549389578
 31
0.0
  0
ARC
  5
A1D
330
9DD
100
AcDbEntity
  8
0
  6
Continuous
 62
     7
370
    15
100
AcDbCircle
 10
1845.373056715884
 20
703.5426079774789
 30
0.0
 40
2.800000000000633
100
AcDbArc
 50
0.0434059036955365
 51
79.71343938845156
  0
LINE
  5
A1E
330
9DD
100
AcDbEntity
  8
0
  6
Continuous
 62
     7
370
    15
100
AcDbLine
 10
1844.873056715888
 20
700.7918549389565
 30
0.0
 11
1844.873056715888
 21
706.3018458645403
 31
0.0
  0
LINE
  5
A1F
330
9DD
100
AcDbEntity
  8
0
  6
Continuous
 62
     7
370
    15
100
AcDbLine
 10
1820.816962173475
 20
700.7948245255446
 30
0.0
 11
1820.816962173474
 21
706.298876277952
 31
0.0
  0
LINE
  5
A20
330
9DD
100
AcDbEntity
  8
0
  6
Continuous
 62
     7
370
    15
100
AcDbLine
 10
1855.950369889925
 20
707.0427529050602
 30
0.0
 11
1855.718868277276
 21
707.0427529050604
 31
0.0
  0
LINE
  5
A21
330
9DD
100
AcDbEntity
  8
0
  6
Continuous
 62
     7
370
    15
100
AcDbLine
 10
1855.71886827728
 20
710.9926079774866
 30
0.0
 11
1855.95036988993
 21
710.9926079774866
 31
0.0
  0
LINE
  5
A22
330
9DD
100
AcDbEntity
  8
0
  6
Continuous
 62
     7
370
    15
100
AcDbLine
 10
1855.950369889918
 20
700.0467054741887
 30
0.0
 11
1855.718868277268
 21
700.0467054741887
 31
0.0
  0
LINE
  5
A23
330
9DD
100
AcDbEntity
  8
0
  6
Continuous
 62
     7
370
    15
100
AcDbLine
 10
1855.950369889914
 20
696.0968504017521
 30
0.0
 11
1855.718868277265
 21
696.0968504017521
 31
0.0
  0
LINE
  5
A24
330
9DD
100
AcDbEntity
  8
0
  6
Continuous
 62
     7
370
    15
100
AcDbLine
 10
1810.755743541775
 20
700.0467054741847
 30
0.0
 11
1810.987245154424
 21
700.0467054741847
 31
0.0
  0
LINE
  5
A25
330
9DD
100
AcDbEntity
  8
0
  6
Continuous
 62
     7
370
    15
100
AcDbLine
 10
1810.987245154423
 20
696.0968504017523
 30
0.0
 11
1810.755743541774
 21
696.0968504017523
 31
0.0
  0
LINE
  5
A26
330
9DD
100
AcDbEntity
  8
0
  6
Continuous
 62
     7
370
    15
100
AcDbLine
 10
1810.755743541775
 20
707.0427529050562
 30
0.0
 11
1810.987245154424
 21
707.0427529050562
 31
0.0
  0
LINE
  5
A27
330
9DD
100
AcDbEntity
  8
0
  6
Continuous
 62
     7
370
    15
100
AcDbLine
 10
1810.755743541774
 20
710.992607977489
 30
0.0
 11
1810.987245154423
 21
710.992607977489
 31
0.0
  0
LINE
  5
A28
330
9DD
100
AcDbEntity
  8
0
  6
Continuous
 62
     7
370
    15
100
AcDbLine
 10
1853.650023246512
 20
700.0467054741907
 30
0.0
 11
1853.650023246519
 21
707.0427529050629
 31
0.0
  0
LINE
  5
A29
330
9DD
100
AcDbEntity
  8
0
  6
Continuous
 62
     7
370
    15
100
AcDbLine
 10
1813.056090185181
 20
707.0427529050568
 30
0.0
 11
1813.056090185181
 21
700.0467054741846
 31
0.0
  0
LINE
  5
A2A
330
9DD
100
AcDbEntity
  8
0
  6
Continuous
 62
     7
370
    15
100
AcDbLine
 10
1845.873056715888
 20
706.2976034402701
 30
0.0
 11
1845.873056715888
 21
706.3018458645391
 31
0.0
  0
LINE
  5
A2B
330
9DD
100
AcDbEntity
  8
0
  6
Continuous
 62
     7
370
    15
100
AcDbLine
 10
1855.992397653585
 20
700.0467054741887
 30
0.0
 11
1855.992397653592
 21
707.0427529050601
 31
0.0
  0
LINE
  5
A2C
330
9DD
100
AcDbEntity
  8
0
  6
Continuous
 62
     7
370
    15
100
AcDbLine
 10
1858.128253458524
 20
710.9926079774866
 30
0.0
 11
1858.12825345852
 21
707.0427529050577
 31
0.0
  0
LINE
  5
A2D
330
9DD
100
AcDbEntity
  8
0
  6
Continuous
 62
     7
370
    15
100
AcDbLine
 10
1858.12825345852
 20
707.0427529050577
 30
0.0
 11
1857.242132651107
 21
707.0427529050586
 31
0.0
  0
LINE
  5
A2E
330
9DD
100
AcDbEntity
  8
0
  6
Continuous
 62
     7
370
    15
100
AcDbLine
 10
1857.2421326511
 20
700.0467054741876
 30
0.0
 11
1857.242132651107
 21
707.0427529050586
 31
0.0
  0
LINE
  5
A2F
330
9DD
100
AcDbEntity
  8
0
  6
Continuous
 62
     7
370
    15
100
AcDbLine
 10
1858.128253458513
 20
700.0467054741867
 30
0.0
 11
1857.2421326511
 21
700.0467054741876
 31
0.0
  0
LINE
  5
A30
330
9DD
100
AcDbEntity
  8
0
  6
Continuous
 62
     7
370
    15
100
AcDbLine
 10
1858.128253458509
 20
696.0968504017521
 30
0.0
 11
1858.128253458513
 21
700.0467054741867
 31
0.0
  0
LINE
  5
A31
330
9DD
100
AcDbEntity
  8
0
  6
Continuous
 62
     7
370
    15
100
AcDbLine
 10
1855.992397653585
 20
700.0467054741887
 30
0.0
 11
1855.950369889918
 21
700.0467054741887
 31
0.0
  0
LINE
  5
A32
330
9DD
100
AcDbEntity
  8
0
  6
Continuous
 62
     7
370
    15
100
AcDbLine
 10
1855.992397653592
 20
707.0427529050601
 30
0.0
 11
1855.950369889925
 21
707.0427529050602
 31
0.0
  0
LINE
  5
A33
330
9DD
100
AcDbEntity
  8
0
  6
Continuous
 62
     7
370
    15
100
AcDbLine
 10
1858.128253458509
 20
696.0968504017521
 30
0.0
 11
1855.950369889914
 21
696.096850401752
 31
0.0
  0
LINE
  5
A34
330
9DD
100
AcDbEntity
  8
0
  6
Continuous
 62
     7
370
    15
100
AcDbLine
 10
1858.128253458524
 20
710.9926079774866
 30
0.0
 11
1855.95036988993
 21
710.9926079774866
 31
0.0
  0
LINE
  5
A35
330
9DD
100
AcDbEntity
  8
0
  6
Continuous
 62
     7
370
    15
100
AcDbLine
 10
1810.713715778106
 20
707.0427529050562
 30
0.0
 11
1810.713715778106
 21
700.0467054741847
 31
0.0
  0
LINE
  5
A36
330
9DD
100
AcDbEntity
  8
0
  6
Continuous
 62
     7
370
    15
100
AcDbLine
 10
1808.57785997318
 20
696.0968504017521
 30
0.0
 11
1808.57785997318
 21
700.0467054741851
 31
0.0
  0
LINE
  5
A37
330
9DD
100
AcDbEntity
  8
0
  6
Continuous
 62
     7
370
    15
100
AcDbLine
 10
1808.57785997318
 20
700.0467054741851
 30
0.0
 11
1809.463980780593
 21
700.046705474185
 31
0.0
  0
LINE
  5
A38
330
9DD
100
AcDbEntity
  8
0
  6
Continuous
 62
     7
370
    15
100
AcDbLine
 10
1809.463980780593
 20
707.0427529050562
 30
0.0
 11
1809.463980780593
 21
700.046705474185
 31
0.0
  0
LINE
  5
A39
330
9DD
100
AcDbEntity
  8
0
  6
Continuous
 62
     7
370
    15
100
AcDbLine
 10
1808.57785997318
 20
707.0427529050557
 30
0.0
 11
1809.463980780593
 21
707.0427529050562
 31
0.0
  0
LINE
  5
A3A
330
9DD
100
AcDbEntity
  8
0
  6
Continuous
 62
     7
370
    15
100
AcDbLine
 10
1808.577859973179
 20
710.992607977489
 30
0.0
 11
1808.57785997318
 21
707.0427529050557
 31
0.0
  0
LINE
  5
A3B
330
9DD
100
AcDbEntity
  8
0
  6
Continuous
 62
     7
370
    15
100
AcDbLine
 10
1810.713715778106
 20
707.0427529050562
 30
0.0
 11
1810.755743541775
 21
707.0427529050562
 31
0.0
  0
LINE
  5
A3C
330
9DD
100
AcDbEntity
  8
0
  6
Continuous
 62
     7
370
    15
100
AcDbLine
 10
1810.713715778106
 20
700.0467054741847
 30
0.0
 11
1810.755743541775
 21
700.0467054741847
 31
0.0
  0
LINE
  5
A3D
330
9DD
100
AcDbEntity
  8
0
  6
Continuous
 62
     7
370
    15
100
AcDbLine
 10
1808.57785997318
 20
696.0968504017521
 30
0.0
 11
1810.755743541774
 21
696.0968504017523
 31
0.0
  0
LINE
  5
A3E
330
9DD
100
AcDbEntity
  8
0
  6
Continuous
 62
     7
370
    15
100
AcDbLine
 10
1808.577859973179
 20
710.992607977489
 30
0.0
 11
1810.755743541774
 21
710.992607977489
 31
0.0
  0
LINE
  5
A3F
330
9DD
100
AcDbEntity
  8
0
  6
Continuous
 62
     7
370
    15
100
AcDbLine
 10
1857.471864555214
 20
700.0467054741873
 30
0.0
 11
1857.471864555222
 21
707.0427529050585
 31
0.0
  0
LINE
  5
A40
330
9DD
100
AcDbEntity
  8
0
  6
Continuous
 62
     7
370
    15
100
AcDbLine
 10
1809.234248876478
 20
707.042752905056
 30
0.0
 11
1809.234248876478
 21
700.046705474185
 31
0.0
  0
LINE
  5
A41
330
9DD
100
AcDbEntity
  8
0
  6
Continuous
 62
     7
370
    15
100
AcDbLine
 10
1859.973656657284
 20
710.9926079774866
 30
0.0
 11
1859.973656657279
 21
707.0427529050554
 31
0.0
  0
LINE
  5
A42
330
9DD
100
AcDbEntity
  8
0
  6
Continuous
 62
     7
370
    15
100
AcDbLine
 10
1859.973656657279
 20
707.0427529050554
 30
0.0
 11
1858.880539613929
 21
707.0427529050566
 31
0.0
  0
LINE
  5
A43
330
9DD
100
AcDbEntity
  8
0
  6
Continuous
 62
     7
370
    15
100
AcDbLine
 10
1858.880539613934
 20
710.9926079774866
 30
0.0
 11
1858.880539613929
 21
707.0427529050566
 31
0.0
  0
LINE
  5
A44
330
9DD
100
AcDbEntity
  8
0
  6
Continuous
 62
     7
370
    15
100
AcDbLine
 10
1858.880539613934
 20
710.9926079774866
 30
0.0
 11
1859.973656657284
 21
710.9926079774866
 31
0.0
  0
LINE
  5
A45
330
9DD
100
AcDbEntity
  8
0
  6
Continuous
 62
     7
370
    15
100
AcDbLine
 10
1859.973656657272
 20
700.0467054741851
 30
0.0
 11
1858.880539613922
 21
700.0467054741863
 31
0.0
  0
LINE
  5
A46
330
9DD
100
AcDbEntity
  8
0
  6
Continuous
 62
     7
370
    15
100
AcDbLine
 10
1859.973656657269
 20
696.0968504017523
 30
0.0
 11
1859.973656657272
 21
700.0467054741851
 31
0.0
  0
LINE
  5
A47
330
9DD
100
AcDbEntity
  8
0
  6
Continuous
 62
     7
370
    15
100
AcDbLine
 10
1858.880539613919
 20
696.0968504017523
 30
0.0
 11
1858.880539613922
 21
700.0467054741863
 31
0.0
  0
LINE
  5
A48
330
9DD
100
AcDbEntity
  8
0
  6
Continuous
 62
     7
370
    15
100
AcDbLine
 10
1859.973656657269
 20
696.0968504017523
 30
0.0
 11
1858.880539613919
 21
696.0968504017523
 31
0.0
  0
LINE
  5
A49
330
9DD
100
AcDbEntity
  8
0
  6
Continuous
 62
     7
370
    15
100
AcDbLine
 10
1806.73245677442
 20
696.096850401752
 30
0.0
 11
1806.732456774421
 21
700.0467054741855
 31
0.0
  0
LINE
  5
A4A
330
9DD
100
AcDbEntity
  8
0
  6
Continuous
 62
     7
370
    15
100
AcDbLine
 10
1806.732456774421
 20
700.0467054741855
 30
0.0
 11
1807.82557381777
 21
700.0467054741851
 31
0.0
  0
LINE
  5
A4B
330
9DD
100
AcDbEntity
  8
0
  6
Continuous
 62
     7
370
    15
100
AcDbLine
 10
1807.82557381777
 20
696.0968504017521
 30
0.0
 11
1807.82557381777
 21
700.0467054741851
 31
0.0
  0
LINE
  5
A4C
330
9DD
100
AcDbEntity
  8
0
  6
Continuous
 62
     7
370
    15
100
AcDbLine
 10
1807.82557381777
 20
696.0968504017521
 30
0.0
 11
1806.73245677442
 21
696.096850401752
 31
0.0
  0
LINE
  5
A4D
330
9DD
100
AcDbEntity
  8
0
  6
Continuous
 62
     7
370
    15
100
AcDbLine
 10
1806.732456774421
 20
707.0427529050554
 30
0.0
 11
1807.82557381777
 21
707.0427529050557
 31
0.0
  0
LINE
  5
A4E
330
9DD
100
AcDbEntity
  8
0
  6
Continuous
 62
     7
370
    15
100
AcDbLine
 10
1806.73245677442
 20
710.992607977489
 30
0.0
 11
1806.732456774421
 21
707.0427529050554
 31
0.0
  0
LINE
  5
A4F
330
9DD
100
AcDbEntity
  8
0
  6
Continuous
 62
     7
370
    15
100
AcDbLine
 10
1807.82557381777
 20
710.992607977489
 30
0.0
 11
1807.82557381777
 21
707.0427529050557
 31
0.0
  0
LINE
  5
A50
330
9DD
100
AcDbEntity
  8
0
  6
Continuous
 62
     7
370
    15
100
AcDbLine
 10
1806.73245677442
 20
710.992607977489
 30
0.0
 11
1807.82557381777
 21
710.992607977489
 31
0.0
  0
LINE
  5
A51
330
9DD
100
AcDbEntity
  8
0
  6
Continuous
 62
     7
370
    15
100
AcDbLine
 10
1858.852827831155
 20
700.0467054741863
 30
0.0
 11
1858.852827831162
 21
707.0427529050568
 31
0.0
  0
LINE
  5
A52
330
9DD
100
AcDbEntity
  8
0
  6
Continuous
 62
     7
370
    15
100
AcDbLine
 10
1859.126098459816
 20
700.0467054741861
 30
0.0
 11
1859.126098459823
 21
707.0427529050562
 31
0.0
  0
LINE
  5
A53
330
9DD
100
AcDbEntity
  8
0
  6
Continuous
 62
     7
370
    15
100
AcDbLine
 10
1807.853285600538
 20
707.0427529050557
 30
0.0
 11
1807.853285600538
 21
700.0467054741851
 31
0.0
  0
LINE
  5
A54
330
9DD
100
AcDbEntity
  8
0
  6
Continuous
 62
     7
370
    15
100
AcDbLine
 10
1807.580014971877
 20
707.0427529050557
 30
0.0
 11
1807.580014971877
 21
700.0467054741851
 31
0.0
  0
LINE
  5
A55
330
9DD
100
AcDbEntity
  8
0
  6
Continuous
 62
     7
370
    15
100
AcDbLine
 10
1858.408030255567
 20
696.0968504017523
 30
0.0
 11
1858.40803025558
 21
710.9926079774866
 31
0.0
  0
LINE
  5
A56
330
9DD
100
AcDbEntity
  8
0
  6
Continuous
 62
     7
370
    15
100
AcDbLine
 10
1858.880539613922
 20
700.0467054741863
 30
0.0
 11
1858.852827831155
 21
700.0467054741863
 31
0.0
  0
LINE
  5
A57
330
9DD
100
AcDbEntity
  8
0
  6
Continuous
 62
     7
370
    15
100
AcDbLine
 10
1858.880539613929
 20
707.0427529050566
 30
0.0
 11
1858.852827831162
 21
707.0427529050568
 31
0.0
  0
LINE
  5
A58
330
9DD
100
AcDbEntity
  8
0
  6
Continuous
 62
     7
370
    15
100
AcDbLine
 10
1858.880539613919
 20
696.0968504017523
 30
0.0
 11
1858.408030255567
 21
696.0968504017523
 31
0.0
  0
LINE
  5
A59
330
9DD
100
AcDbEntity
  8
0
  6
Continuous
 62
     7
370
    15
100
AcDbLine
 10
1858.40803025558
 20
710.9926079774866
 30
0.0
 11
1858.880539613934
 21
710.9926079774866
 31
0.0
  0
LINE
  5
A5A
330
9DD
100
AcDbEntity
  8
0
  6
Continuous
 62
     7
370
    15
100
AcDbLine
 10
1808.298083176121
 20
710.992607977489
 30
0.0
 11
1808.298083176124
 21
696.0968504017521
 31
0.0
  0
LINE
  5
A5B
330
9DD
100
AcDbEntity
  8
0
  6
Continuous
 62
     7
370
    15
100
AcDbLine
 10
1807.82557381777
 20
707.0427529050557
 30
0.0
 11
1807.853285600538
 21
707.0427529050557
 31
0.0
  0
LINE
  5
A5C
330
9DD
100
AcDbEntity
  8
0
  6
Continuous
 62
     7
370
    15
100
AcDbLine
 10
1807.82557381777
 20
700.0467054741851
 30
0.0
 11
1807.853285600538
 21
700.0467054741851
 31
0.0
  0
LINE
  5
A5D
330
9DD
100
AcDbEntity
  8
0
  6
Continuous
 62
     7
370
    15
100
AcDbLine
 10
1808.298083176124
 20
696.0968504017521
 30
0.0
 11
1807.82557381777
 21
696.0968504017521
 31
0.0
  0
LINE
  5
A5E
330
9DD
100
AcDbEntity
  8
0
  6
Continuous
 62
     7
370
    15
100
AcDbLine
 10
1807.82557381777
 20
710.992607977489
 30
0.0
 11
1808.298083176121
 21
710.992607977489
 31
0.0
  0
LINE
  5
A5F
330
9DD
100
AcDbEntity
  8
0
  6
Continuous
 62
     7
370
    15
100
AcDbLine
 10
1862.098562232707
 20
700.0467054741834
 30
0.0
 11
1862.098562232714
 21
707.0427529050528
 31
0.0
  0
LINE
  5
A60
330
9DD
100
AcDbEntity
  8
0
  6
Continuous
 62
     7
370
    15
100
AcDbLine
 10
1862.247104597071
 20
696.0968504017523
 30
0.0
 11
1862.247104597086
 21
710.9926079774866
 31
0.0
  0
LINE
  5
A61
330
9DD
100
AcDbEntity
  8
0
  6
Continuous
 62
     7
370
    15
100
AcDbLine
 10
1859.973656657272
 20
700.0467054741851
 30
0.0
 11
1862.098562232707
 21
700.0467054741834
 31
0.0
  0
LINE
  5
A62
330
9DD
100
AcDbEntity
  8
0
  6
Continuous
 62
     7
370
    15
100
AcDbLine
 10
1859.973656657279
 20
707.0427529050554
 30
0.0
 11
1862.098562232714
 21
707.0427529050528
 31
0.0
  0
LINE
  5
A63
330
9DD
100
AcDbEntity
  8
0
  6
Continuous
 62
     7
370
    15
100
AcDbLine
 10
1862.247104597071
 20
696.0968504017523
 30
0.0
 11
1859.973656657269
 21
696.0968504017523
 31
0.0
  0
LINE
  5
A64
330
9DD
100
AcDbEntity
  8
0
  6
Continuous
 62
     7
370
    15
100
AcDbLine
 10
1859.973656657284
 20
710.9926079774866
 30
0.0
 11
1862.247104597086
 21
710.9926079774866
 31
0.0
  0
LINE
  5
A65
330
9DD
100
AcDbEntity
  8
0
  6
Continuous
 62
     7
370
    15
100
AcDbLine
 10
1804.607551198986
 20
707.0427529050549
 30
0.0
 11
1804.607551198986
 21
700.0467054741858
 31
0.0
  0
LINE
  5
A66
330
9DD
100
AcDbEntity
  8
0
  6
Continuous
 62
     7
370
    15
100
AcDbLine
 10
1804.459008834618
 20
710.992607977489
 30
0.0
 11
1804.459008834618
 21
696.0968504017519
 31
0.0
  0
LINE
  5
A67
330
9DD
100
AcDbEntity
  8
0
  6
Continuous
 62
     7
370
    15
100
AcDbLine
 10
1806.732456774421
 20
707.0427529050554
 30
0.0
 11
1804.607551198986
 21
707.0427529050549
 31
0.0
  0
LINE
  5
A68
330
9DD
100
AcDbEntity
  8
0
  6
Continuous
 62
     7
370
    15
100
AcDbLine
 10
1806.732456774421
 20
700.0467054741855
 30
0.0
 11
1804.607551198986
 21
700.0467054741858
 31
0.0
  0
LINE
  5
A69
330
9DD
100
AcDbEntity
  8
0
  6
Continuous
 62
     7
370
    15
100
AcDbLine
 10
1806.73245677442
 20
696.096850401752
 30
0.0
 11
1804.459008834618
 21
696.0968504017519
 31
0.0
  0
LINE
  5
A6A
330
9DD
100
AcDbEntity
  8
0
  6
Continuous
 62
     7
370
    15
100
AcDbLine
 10
1804.459008834618
 20
710.992607977489
 30
0.0
 11
1806.73245677442
 21
710.992607977489
 31
0.0
  0
LINE
  5
A6B
330
9DD
100
AcDbEntity
  8
0
  6
Continuous
 62
     7
370
    15
100
AcDbLine
 10
1860.169880001923
 20
700.0467054741851
 30
0.0
 11
1860.16988000193
 21
707.0427529050552
 31
0.0
  0
LINE
  5
A6C
330
9DD
100
AcDbEntity
  8
0
  6
Continuous
 62
     7
370
    15
100
AcDbLine
 10
1806.53623342977
 20
707.0427529050554
 30
0.0
 11
1806.53623342977
 21
700.0467054741855
 31
0.0
  0
LINE
  5
A6D
330
9DD
100
AcDbEntity
  8
0
  6
Continuous
 62
     7
370
    15
100
AcDbLine
 10
1857.789422069217
 20
700.0467054741871
 30
0.0
 11
1857.789422069224
 21
707.042752905058
 31
0.0
  0
LINE
  5
A6E
330
9DD
100
AcDbEntity
  8
0
  6
Continuous
 62
     7
370
    15
100
AcDbLine
 10
1808.916691362476
 20
707.042752905056
 30
0.0
 11
1808.916691362476
 21
700.046705474185
 31
0.0
  0
LINE
  5
A6F
330
9DD
100
AcDbEntity
  8
0
  6
Continuous
 62
     7
370
    15
100
AcDbLine
 10
1858.343928002571
 20
696.0968504017523
 30
0.0
 11
1858.408030255567
 21
696.0968504017523
 31
0.0
  0
LINE
  5
A70
330
9DD
100
AcDbEntity
  8
0
  6
Continuous
 62
     7
370
    15
100
AcDbLine
 10
1858.343928002583
 20
710.9926079774866
 30
0.0
 11
1858.40803025558
 21
710.9926079774866
 31
0.0
  0
LINE
  5
A71
330
9DD
100
AcDbEntity
  8
0
  6
Continuous
 62
     7
370
    15
100
AcDbLine
 10
1808.362185429121
 20
696.0968504017521
 30
0.0
 11
1808.298083176124
 21
696.0968504017521
 31
0.0
  0
LINE
  5
A72
330
9DD
100
AcDbEntity
  8
0
  6
Continuous
 62
     7
370
    15
100
AcDbLine
 10
1808.362185429118
 20
710.992607977489
 30
0.0
 11
1808.298083176121
 21
710.992607977489
 31
0.0
  0
LINE
  5
A73
330
9DD
100
AcDbEntity
  8
0
  6
Continuous
 62
     7
370
    15
100
AcDbLine
 10
1858.108813466841
 20
700.046705474187
 30
0.0
 11
1858.108813466849
 21
707.0427529050577
 31
0.0
  0
LINE
  5
A74
330
9DD
100
AcDbEntity
  8
0
  6
Continuous
 62
     7
370
    15
100
AcDbLine
 10
1808.597299964851
 20
707.0427529050557
 30
0.0
 11
1808.597299964851
 21
700.0467054741851
 31
0.0
  0
LINE
  5
A75
330
9DD
100
AcDbEntity
  8
0
  6
Continuous
 62
     7
370
    15
100
AcDbLine
 10
1858.34392800258
 20
707.0427529050572
 30
0.0
 11
1858.12825345852
 21
707.0427529050577
 31
0.0
  0
LINE
  5
A76
330
9DD
100
AcDbEntity
  8
0
  6
Continuous
 62
     7
370
    15
100
AcDbLine
 10
1858.343928002583
 20
710.9926079774866
 30
0.0
 11
1858.128253458524
 21
710.9926079774866
 31
0.0
  0
LINE
  5
A77
330
9DD
100
AcDbEntity
  8
0
  6
Continuous
 62
     7
370
    15
100
AcDbLine
 10
1858.343928002574
 20
700.0467054741867
 30
0.0
 11
1858.128253458513
 21
700.0467054741867
 31
0.0
  0
LINE
  5
A78
330
9DD
100
AcDbEntity
  8
0
  6
Continuous
 62
     7
370
    15
100
AcDbLine
 10
1858.343928002571
 20
696.0968504017521
 30
0.0
 11
1858.128253458509
 21
696.0968504017521
 31
0.0
  0
LINE
  5
A79
330
9DD
100
AcDbEntity
  8
0
  6
Continuous
 62
     7
370
    15
100
AcDbLine
 10
1808.36218542912
 20
700.0467054741851
 30
0.0
 11
1808.57785997318
 21
700.0467054741851
 31
0.0
  0
LINE
  5
A7A
330
9DD
100
AcDbEntity
  8
0
  6
Continuous
 62
     7
370
    15
100
AcDbLine
 10
1808.362185429121
 20
696.0968504017521
 30
0.0
 11
1808.57785997318
 21
696.0968504017521
 31
0.0
  0
LINE
  5
A7B
330
9DD
100
AcDbEntity
  8
0
  6
Continuous
 62
     7
370
    15
100
AcDbLine
 10
1808.362185429119
 20
707.0427529050557
 30
0.0
 11
1808.57785997318
 21
707.0427529050557
 31
0.0
  0
LINE
  5
A7C
330
9DD
100
AcDbEntity
  8
0
  6
Continuous
 62
     7
370
    15
100
AcDbLine
 10
1808.362185429118
 20
710.992607977489
 30
0.0
 11
1808.577859973179
 21
710.992607977489
 31
0.0
  0
LINE
  5
A7D
330
9DD
100
AcDbEntity
  8
0
  6
Continuous
 62
     7
370
    15
100
AcDbLine
 10
1857.829312217093
 20
700.0467054741871
 30
0.0
 11
1857.829312217101
 21
707.0427529050577
 31
0.0
  0
LINE
  5
A7E
330
9DD
100
AcDbEntity
  8
0
  6
Continuous
 62
     7
370
    15
100
AcDbLine
 10
1808.876801214599
 20
707.042752905056
 30
0.0
 11
1808.876801214599
 21
700.0467054741851
 31
0.0
  0
LINE
  5
A7F
330
9DD
100
AcDbEntity
  8
0
  6
Continuous
 62
     7
370
    15
100
AcDbLine
 10
1861.07842653047
 20
707.042752905054
 30
0.0
 11
1861.078426530463
 21
700.0467054741846
 31
0.0
  0
LINE
  5
A80
330
9DD
100
AcDbEntity
  8
0
  6
Continuous
 62
     7
370
    15
100
AcDbLine
 10
1805.62768690123
 20
700.0467054741855
 30
0.0
 11
1805.62768690123
 21
707.0427529050552
 31
0.0
  0
LINE
  5
A81
330
9DD
100
AcDbEntity
  8
0
  6
Continuous
 62
     7
370
    15
100
AcDbLine
 10
1861.813608936298
 20
700.0467054741838
 30
0.0
 11
1861.813608936305
 21
707.0427529050531
 31
0.0
  0
LINE
  5
A82
330
9DD
100
AcDbEntity
  8
0
  6
Continuous
 62
     7
370
    15
100
AcDbLine
 10
1804.892504495395
 20
707.0427529050549
 30
0.0
 11
1804.892504495395
 21
700.0467054741858
 31
0.0
  0
LINE
  5
A83
330
9DD
100
AcDbEntity
  8
0
  6
Continuous
 62
     7
370
    15
100
AcDbLine
 10
1861.081537151033
 20
700.0467054741846
 30
0.0
 11
1861.081537151041
 21
707.042752905054
 31
0.0
  0
LINE
  5
A84
330
9DD
100
AcDbEntity
  8
0
  6
Continuous
 62
     7
370
    15
100
AcDbLine
 10
1861.357530028245
 20
700.0467054741842
 30
0.0
 11
1861.357530028252
 21
707.0427529050537
 31
0.0
  0
LINE
  5
A85
330
9DD
100
AcDbEntity
  8
0
  6
Continuous
 62
     7
370
    15
100
AcDbLine
 10
1805.62457628066
 20
707.0427529050552
 30
0.0
 11
1805.62457628066
 21
700.0467054741855
 31
0.0
  0
LINE
  5
A86
330
9DD
100
AcDbEntity
  8
0
  6
Continuous
 62
     7
370
    15
100
AcDbLine
 10
1805.348583403448
 20
707.0427529050552
 30
0.0
 11
1805.348583403448
 21
700.0467054741858
 31
0.0
  0
LINE
  5
A87
330
9DD
100
AcDbEntity
  8
0
  6
Continuous
 62
     7
370
    15
100
AcDbLine
 10
1861.53323773406
 20
700.0467054741841
 30
0.0
 11
1861.533237734067
 21
707.0427529050533
 31
0.0
  0
LINE
  5
A88
330
9DD
100
AcDbEntity
  8
0
  6
Continuous
 62
     7
370
    15
100
AcDbLine
 10
1805.172875697633
 20
707.0427529050552
 30
0.0
 11
1805.172875697633
 21
700.0467054741858
 31
0.0
  0
LINE
  5
A89
330
9DD
100
AcDbEntity
  8
0
  6
Continuous
 62
     7
370
    15
100
AcDbLine
 10
1862.452099275072
 20
696.0968504017523
 30
0.0
 11
1862.452099275088
 21
710.9926079774866
 31
0.0
  0
LINE
  5
A8A
330
9DD
100
AcDbEntity
  8
0
  6
Continuous
 62
     7
370
    15
100
AcDbLine
 10
1862.452099275072
 20
696.0968504017523
 30
0.0
 11
1862.247104597071
 21
696.0968504017523
 31
0.0
  0
LINE
  5
A8B
330
9DD
100
AcDbEntity
  8
0
  6
Continuous
 62
     7
370
    15
100
AcDbLine
 10
1862.452099275088
 20
710.9926079774866
 30
0.0
 11
1862.247104597086
 21
710.9926079774866
 31
0.0
  0
LINE
  5
A8C
330
9DD
100
AcDbEntity
  8
0
  6
Continuous
 62
     7
370
    15
100
AcDbLine
 10
1804.254014156617
 20
710.992607977489
 30
0.0
 11
1804.254014156617
 21
696.0968504017519
 31
0.0
  0
LINE
  5
A8D
330
9DD
100
AcDbEntity
  8
0
  6
Continuous
 62
     7
370
    15
100
AcDbLine
 10
1804.254014156617
 20
696.0968504017519
 30
0.0
 11
1804.459008834618
 21
696.0968504017519
 31
0.0
  0
LINE
  5
A8E
330
9DD
100
AcDbEntity
  8
0
  6
Continuous
 62
     7
370
    15
100
AcDbLine
 10
1804.254014156617
 20
710.992607977489
 30
0.0
 11
1804.459008834618
 21
710.992607977489
 31
0.0
  0
ARC
  5
A8F
330
9DD
100
AcDbEntity
  8
0
  6
Continuous
 62
     7
370
    15
100
AcDbCircle
 10
1833.353056715884
 20
703.546850401746
 30
0.0
 40
3.250000000000028
100
AcDbArc
 50
180.0373958496399
 51
359.9626041503732
  0
ARC
  5
A90
330
9DD
100
AcDbEntity
  8
0
  6
Continuous
 62
     7
370
    15
100
AcDbCircle
 10
1833.353056715884
 20
703.5426079774794
 30
0.0
 40
3.250000000000028
100
AcDbArc
 50
0.0373958496399294
 51
179.9626041503666
  0
LINE
  5
A91
330
9DD
100
AcDbEntity
  8
0
  6
Continuous
 62
     7
370
    15
100
AcDbLine
 10
1829.603056715883
 20
696.0968504017444
 30
0.0
 11
1837.103056715885
 21
696.096850401746
 31
0.0
  0
LINE
  5
A92
330
9DD
100
AcDbEntity
  8
0
  6
Continuous
 62
     7
370
    15
100
AcDbLine
 10
1837.103056715885
 20
710.9926079774794
 30
0.0
 11
1829.603056715883
 21
710.9926079774794
 31
0.0
  0
LINE
  5
A93
330
9DD
100
AcDbEntity
  8
0
  6
Continuous
 62
     7
370
    15
100
AcDbLine
 10
1803.760213066794
 20
696.19472918961
 30
0.0
 11
1804.254014156645
 21
696.1947291896101
 31
0.0
  0
LINE
  5
A94
330
9DD
100
AcDbEntity
  8
0
  6
Continuous
 62
     7
370
    15
100
AcDbLine
 10
1804.254014156645
 20
710.8926079774795
 30
0.0
 11
1803.760213066794
 21
710.8926079774795
 31
0.0
  0
LINE
  5
A95
330
9DD
100
AcDbEntity
  8
0
  6
Continuous
 62
     7
370
    15
100
AcDbLine
 10
1803.191854995748
 20
710.8926079774795
 30
0.0
 11
1803.191854995748
 21
696.19472918961
 31
0.0
  0
LINE
  5
A96
330
9DD
100
AcDbEntity
  8
0
  6
Continuous
 62
     7
370
    15
100
AcDbLine
 10
1803.760213066794
 20
696.1947291896101
 30
0.0
 11
1803.191854995748
 21
696.19472918961
 31
0.0
  0
LINE
  5
A97
330
9DD
100
AcDbEntity
  8
0
  6
Continuous
 62
     7
370
    15
100
AcDbLine
 10
1803.760213066794
 20
710.8926079774795
 30
0.0
 11
1803.191854995748
 21
710.8926079774795
 31
0.0
  0
LINE
  5
A98
330
9DD
100
AcDbEntity
  8
0
  6
Continuous
 62
     7
370
    15
100
AcDbLine
 10
1802.69185153484
 20
696.19472918961
 30
0.0
 11
1802.69185153484
 21
710.8926079774795
 31
0.0
  0
LINE
  5
A99
330
9DD
100
AcDbEntity
  8
0
  6
Continuous
 62
     7
370
    15
100
AcDbLine
 10
1802.69185153484
 20
696.19472918961
 30
0.0
 11
1803.191854995748
 21
696.19472918961
 31
0.0
  0
LINE
  5
A9A
330
9DD
100
AcDbEntity
  8
0
  6
Continuous
 62
     7
370
    15
100
AcDbLine
 10
1803.191854995748
 20
710.8926079774795
 30
0.0
 11
1802.69185153484
 21
710.8926079774795
 31
0.0
  0
ENDBLK
  5
9DF
330
9DD
100
AcDbEntity
  8
0
100
AcDbBlockEnd
  0
BLOCK
  5
A9D
330
A9C
100
AcDbEntity
  8
0
100
AcDbBlockBegin
  2
4
 70
     0
 10
0.0
 20
0.0
 30
0.0
  3
4
  1

  0
LINE
  5
A9F
330
A9C
100
AcDbEntity
  8
0
  6
Continuous
 62
     7
370
    15
100
AcDbLine
 10
1917.579344549764
 20
782.2305322750693
 30
0.0
 11
1914.285326167532
 21
782.8767083523022
 31
0.0
  0
LINE
  5
AA0
330
A9C
100
AcDbEntity
  8
0
  6
Continuous
 62
     7
370
    15
100
AcDbLine
 10
1912.777520135078
 20
780.1805904468515
 30
0.0
 11
1907.352374879167
 21
781.244822237054
 31
0.0
  0
LINE
  5
AA1
330
A9C
100
AcDbEntity
  8
0
  6
Continuous
 62
     7
370
    15
100
AcDbLine
 10
1914.124533911896
 20
782.851944493733
 30
0.0
 11
1908.570968291697
 21
783.9413680581165
 31
0.0
  0
LINE
  5
AA2
330
A9C
100
AcDbEntity
  8
0
  6
Continuous
 62
     7
370
    15
100
AcDbLine
 10
1906.581349480699
 20
769.6384788983903
 30
0.0
 11
1913.978798650563
 21
768.1873471403235
 31
0.0
  0
LINE
  5
AA3
330
A9C
100
AcDbEntity
  8
0
  6
Continuous
 62
     7
370
    15
100
AcDbLine
 10
1907.294812694483
 20
788.0086639048745
 30
0.0
 11
1919.717283364755
 21
785.5717912357496
 31
0.0
  0
LINE
  5
AA4
330
A9C
100
AcDbEntity
  8
0
  6
Continuous
 62
     7
370
    15
100
AcDbLine
 10
1916.4342378626
 20
788.2683153573903
 30
0.0
 11
1911.009421921539
 21
789.3324825470496
 31
0.0
  0
LINE
  5
AA5
330
A9C
100
AcDbEntity
  8
0
  6
Continuous
 62
     7
370
    15
100
AcDbLine
 10
1908.450898475212
 20
784.0212276480831
 30
0.0
 11
1905.156873879492
 21
784.6674049441942
 31
0.0
  0
LINE
  5
AA6
330
A9C
100
AcDbEntity
  8
0
  6
Continuous
 62
     7
370
    15
100
AcDbLine
 10
1911.807504029839
 20
790.0591910029585
 30
0.0
 11
1916.801054214923
 21
789.0796237098713
 31
0.0
  0
LINE
  5
AA7
330
A9C
100
AcDbEntity
  8
0
  6
Continuous
 62
     7
370
    15
100
AcDbLine
 10
1914.663522812382
 20
795.2381207453377
 30
0.0
 11
1914.674395729847
 21
793.2374884017572
 31
0.0
  0
LINE
  5
AA8
330
A9C
100
AcDbEntity
  8
0
  6
Continuous
 62
     7
370
    15
100
AcDbLine
 10
1923.174271581109
 20
793.2836824708082
 30
0.0
 11
1923.163398663644
 21
795.2843148143887
 31
0.0
  0
LINE
  5
AA9
330
A9C
100
AcDbEntity
  8
0
  6
Continuous
 62
     7
370
    15
100
AcDbLine
 10
1903.361150205801
 20
731.529931716701
 30
0.0
 11
1915.6185968556
 21
729.1254312331028
 31
0.0
  0
LINE
  5
AAA
330
A9C
100
AcDbEntity
  8
0
  6
Continuous
 62
     7
370
    15
100
AcDbLine
 10
1915.795464339005
 20
732.9808360557573
 30
0.0
 11
1905.331031414872
 21
735.0336073013145
 31
0.0
  0
LINE
  5
AAB
330
A9C
100
AcDbEntity
  8
0
  6
Continuous
 62
     7
370
    15
100
AcDbLine
 10
1919.401424026835
 20
744.0950155640297
 30
0.0
 11
1919.387418825504
 21
744.0977629154428
 31
0.0
  0
LINE
  5
AAC
330
A9C
100
AcDbEntity
  8
0
  6
Continuous
 62
     7
370
    15
100
AcDbLine
 10
1929.346600259306
 20
793.9329005249452
 30
0.0
 11
1923.164155119541
 21
795.1456891874705
 31
0.0
  0
LINE
  5
AAD
330
A9C
100
AcDbEntity
  8
0
  6
Continuous
 62
     7
370
    15
100
AcDbLine
 10
1917.557250209419
 20
733.9349465566583
 30
0.0
 11
1919.327740042083
 21
733.5876357520126
 31
0.0
  0
LINE
  5
AAE
330
A9C
100
AcDbEntity
  8
0
  6
Continuous
 62
     7
370
    15
100
AcDbLine
 10
1927.928801883102
 20
801.3968693483775
 30
0.0
 11
1927.939674800567
 21
799.396237004797
 31
0.0
  0
LINE
  5
AAF
330
A9C
100
AcDbEntity
  8
0
  6
Continuous
 62
     7
370
    15
100
AcDbLine
 10
1936.439551021197
 20
799.442431245337
 30
0.0
 11
1936.428678103732
 21
801.4430635889175
 31
0.0
  0
LINE
  5
AB0
330
A9C
100
AcDbEntity
  8
0
  6
Continuous
 62
     7
370
    15
100
AcDbLine
 10
1942.68871760872
 20
800.1273232844845
 30
0.0
 11
1936.429156872808
 21
801.3552394440756
 31
0.0
  0
LINE
  5
AB1
330
A9C
100
AcDbEntity
  8
0
  6
Continuous
 62
     7
370
    15
100
AcDbLine
 10
1930.266675669102
 20
802.5641118510151
 30
0.0
 11
1930.266246938449
 21
802.5641959536095
 31
0.0
  0
LINE
  5
AB2
330
A9C
100
AcDbEntity
  8
0
  6
Continuous
 62
     7
370
    15
100
AcDbLine
 10
1927.35799195939
 20
739.793030875054
 30
0.0
 11
1928.358748719263
 21
739.5967159179647
 31
0.0
  0
LINE
  5
AB3
330
A9C
100
AcDbEntity
  8
0
  6
Continuous
 62
     7
370
    15
100
AcDbLine
 10
1943.641272295822
 20
796.7757212591851
 30
0.0
 11
1943.787537796856
 21
796.7470288668772
 31
0.0
  0
LINE
  5
AB4
330
A9C
100
AcDbEntity
  8
0
  6
Continuous
 62
     7
370
    15
100
AcDbLine
 10
1946.340927519813
 20
795.5838404108172
 30
0.0
 11
1944.19400596034
 21
796.0049945121149
 31
0.0
  0
LINE
  5
AB5
330
A9C
100
AcDbEntity
  8
0
  6
Continuous
 62
     7
370
    15
100
AcDbLine
 10
1939.952764991401
 20
742.1265829804338
 30
0.0
 11
1942.577969768463
 21
741.611605731392
 31
0.0
  0
LINE
  5
AB6
330
A9C
100
AcDbEntity
  8
0
  6
Continuous
 62
     7
370
    15
100
AcDbLine
 10
1937.672955009544
 20
742.555488914429
 30
0.0
 11
1938.673711769417
 21
742.3591739573399
 31
0.0
  0
LINE
  5
AB7
330
A9C
100
AcDbEntity
  8
0
  6
Continuous
 62
     7
370
    15
100
AcDbLine
 10
1944.124498874064
 20
798.4477574778154
 30
0.0
 11
1942.882764744307
 21
800.0007944835282
 31
0.0
  0
ARC
  5
AB8
330
A9C
100
AcDbEntity
  8
0
  6
Continuous
 62
     7
370
    15
100
AcDbCircle
 10
1943.129586144406
 20
797.9119256103928
 30
0.0
 40
1.130029703052412
100
AcDbArc
 50
333.7765237428234
 51
28.30564984372313
  0
LINE
  5
AB9
330
A9C
100
AcDbEntity
  8
0
  6
Continuous
 62
     7
370
    15
100
AcDbLine
 10
1943.906676021502
 20
796.8510967991961
 30
0.0
 11
1944.143310244029
 21
797.4125954794943
 31
0.0
  0
LWPOLYLINE
  5
ABA
330
A9C
100
AcDbEntity
  8
0
  6
Continuous
 62
     7
370
    15
100
AcDbPolyline
 90
        9
 70
   128
 43
0.0
 10
1943.906676021502
 20
796.8510967991961
 10
1943.890415032685
 20
796.8182428960069
 10
1943.871523172978
 20
796.7903655356479
 10
1943.850766541225
 20
796.7686031538279
 10
1943.828987867173
 20
796.7538344521977
 10
1943.807071052083
 20
796.7466619354151
 10
1943.78590531118
 20
796.7473739154983
 10
1943.766349617829
 20
796.7559457939914
 10
1943.749198271958
 20
796.772024076217
  0
LINE
  5
ABB
330
A9C
100
AcDbEntity
  8
0
  6
Continuous
 62
     7
370
    15
100
AcDbLine
 10
1943.734121522705
 20
796.7908729948849
 30
0.0
 11
1943.749198271958
 21
796.772024076217
 31
0.0
  0
LWPOLYLINE
  5
ABC
330
A9C
100
AcDbEntity
  8
0
  6
Continuous
 62
     7
370
    15
100
AcDbPolyline
 90
        9
 70
   128
 43
0.0
 10
1943.734121522705
 20
796.7908729948849
 10
1943.721632261114
 20
796.8026793932531
 10
1943.707421268532
 20
796.8091642471629
 10
1943.692034480461
 20
796.8100757888139
 10
1943.676063536835
 20
796.8053791585004
 10
1943.660122065278
 20
796.7952596254009
 10
1943.644822613286
 20
796.7801012038229
 10
1943.630753464679
 20
796.7604865635657
 10
1943.618455077168
 20
796.7371718585519
  0
LINE
  5
ABD
330
A9C
100
AcDbEntity
  8
0
  6
Continuous
 62
     7
370
    15
100
AcDbLine
 10
1943.580891956965
 20
796.6540982426097
 30
0.0
 11
1943.618455077168
 21
796.7371718585519
 31
0.0
  0
ARC
  5
ABE
330
A9C
100
AcDbEntity
  8
0
  6
Continuous
 62
     7
370
    15
100
AcDbCircle
 10
1943.739026504434
 20
796.5591531464532
 30
0.0
 40
0.1844481129950399
100
AcDbArc
 50
149.0190981007563
 51
220.0352456515975
  0
ARC
  5
ABF
330
A9C
100
AcDbEntity
  8
0
  6
Continuous
 62
     7
370
    15
100
AcDbCircle
 10
1941.03153280465
 20
792.4577871956494
 30
0.0
 40
4.737910016209138
100
AcDbArc
 50
20.09352648424711
 51
57.20422310763257
  0
LWPOLYLINE
  5
AC0
330
A9C
100
AcDbEntity
  8
0
  6
Continuous
 62
     7
370
    15
100
AcDbPolyline
 90
        9
 70
   128
 43
0.0
 10
1945.609149285315
 20
794.1177844149957
 10
1945.594765357553
 20
794.0911531804593
 10
1945.578126454232
 20
794.0696303121748
 10
1945.56008490123
 20
794.0543195614996
 10
1945.541566405174
 20
794.045999393218
 10
1945.523519652272
 20
794.0451067014427
 10
1945.506870269115
 20
794.0516762970012
 10
1945.492471140697
 20
794.0653818848459
 10
1945.481060803476
 20
794.0855131889828
  0
LINE
  5
AC1
330
A9C
100
AcDbEntity
  8
0
  6
Continuous
 62
     7
370
    15
100
AcDbLine
 10
1945.646709341382
 20
794.2008530503584
 30
0.0
 11
1945.609149285315
 21
794.1177844149957
 31
0.0
  0
ARC
  5
AC2
330
A9C
100
AcDbEntity
  8
0
  6
Continuous
 62
     7
370
    15
100
AcDbCircle
 10
1945.45677660255
 20
794.2996718972175
 30
0.0
 40
0.2141018677519566
100
AcDbArc
 50
332.5127893655826
 51
28.10997988072023
  0
LINE
  5
AC3
330
A9C
100
AcDbEntity
  8
0
  6
Continuous
 62
     7
370
    15
100
AcDbLine
 10
1945.630576838039
 20
794.4193656972542
 30
0.0
 11
1945.645624044015
 21
794.4005493160333
 31
0.0
  0
ARC
  5
AC4
330
A9C
100
AcDbEntity
  8
0
  6
Continuous
 62
     7
370
    15
100
AcDbCircle
 10
1945.885149051745
 20
794.5543198084335
 30
0.0
 40
0.2881312619546723
100
AcDbArc
 50
151.2528561853154
 51
207.9290079726749
  0
LINE
  5
AC5
330
A9C
100
AcDbEntity
  8
0
  6
Continuous
 62
     7
370
    15
100
AcDbLine
 10
1945.891018968417
 20
795.2264915544839
 30
0.0
 11
1945.632529756963
 21
794.6928951165497
 31
0.0
  0
LWPOLYLINE
  5
AC6
330
A9C
100
AcDbEntity
  8
0
  6
Continuous
 62
     7
370
    15
100
AcDbPolyline
 90
        9
 70
   128
 43
0.0
 10
1946.49432500401
 20
795.4838173732032
 10
1946.429699314924
 20
795.5454239699403
 10
1946.356317583725
 20
795.5802405608832
 10
1946.276848217614
 20
795.5870012085579
 10
1946.194177701142
 20
795.5654556231384
 10
1946.111309485253
 20
795.5163933785719
 10
1946.031256067429
 20
795.4415938079972
 10
1945.956925913503
 20
795.3437770622514
 10
1945.891018968417
 20
795.2264915544839
  0
LINE
  5
AC7
330
A9C
100
AcDbEntity
  8
0
  6
Continuous
 62
     7
370
    15
100
AcDbLine
 10
1947.760586596773
 20
793.9001054943646
 30
0.0
 11
1946.49432500401
 21
795.4838173732032
 31
0.0
  0
ARC
  5
AC8
330
A9C
100
AcDbEntity
  8
0
  6
Continuous
 62
     7
370
    15
100
AcDbCircle
 10
1947.18523338264
 20
793.5157921861407
 30
0.0
 40
0.6919017559532756
100
AcDbArc
 50
357.1256243479441
 51
33.741364510905
  0
LINE
  5
AC9
330
A9C
100
AcDbEntity
  8
0
  6
Continuous
 62
     7
370
    15
100
AcDbLine
 10
1947.876264645886
 20
793.4810958879695
 30
0.0
 11
1948.072272073818
 21
757.4154491854616
 31
0.0
  0
LINE
  5
ACA
330
A9C
100
AcDbEntity
  8
0
  6
Continuous
 62
     7
370
    15
100
AcDbLine
 10
1948.072272073818
 20
757.4154491854616
 30
0.0
 11
1915.958551414554
 21
742.5058245032927
 31
0.0
  0
LINE
  5
ACB
330
A9C
100
AcDbEntity
  8
0
  6
Continuous
 62
     7
370
    15
100
AcDbLine
 10
1915.958551414554
 20
742.5058245032927
 30
0.0
 11
1915.762543986622
 21
778.5714712058006
 31
0.0
  0
ARC
  5
ACC
330
A9C
100
AcDbEntity
  8
0
  6
Continuous
 62
     7
370
    15
100
AcDbCircle
 10
1917.047253921605
 20
778.5741280828648
 30
0.0
 40
1.284712682291083
100
AcDbArc
 50
156.0562756135998
 51
180.1184918255095
  0
LINE
  5
ACD
330
A9C
100
AcDbEntity
  8
0
  6
Continuous
 62
     7
370
    15
100
AcDbLine
 10
1917.115814582515
 20
781.8440847258028
 30
0.0
 11
1915.873097816744
 21
779.0955148082979
 31
0.0
  0
LWPOLYLINE
  5
ACE
330
A9C
100
AcDbEntity
  8
0
  6
Continuous
 62
     7
370
    15
100
AcDbPolyline
 90
        9
 70
   128
 43
0.0
 10
1917.718872665282
 20
782.1468446232674
 10
1917.652026882181
 20
782.2024962464467
 10
1917.577009317564
 20
782.2309744544931
 10
1917.496547881319
 20
782.2312508561244
 10
1917.413566918851
 20
782.2033133338504
 10
1917.331077916234
 20
782.148179344566
 10
1917.252080849914
 20
782.067846560628
 10
1917.179447016586
 20
781.9652384705952
 10
1917.115814582515
 20
781.8440847258028
  0
LINE
  5
ACF
330
A9C
100
AcDbEntity
  8
0
  6
Continuous
 62
     7
370
    15
100
AcDbLine
 10
1917.981847056691
 20
781.8553511383537
 30
0.0
 11
1917.718872665282
 21
782.1468446232674
 31
0.0
  0
ARC
  5
AD0
330
A9C
100
AcDbEntity
  8
0
  6
Continuous
 62
     7
370
    15
100
AcDbCircle
 10
1917.740719371042
 20
781.7157564702679
 30
0.0
 40
0.278620229244667
100
AcDbArc
 50
332.0128601970357
 51
30.06759137100577
  0
LINE
  5
AD1
330
A9C
100
AcDbEntity
  8
0
  6
Continuous
 62
     7
370
    15
100
AcDbLine
 10
1917.986755784962
 20
781.5850074160838
 30
0.0
 11
1917.971988332185
 21
781.5523488090818
 31
0.0
  0
ARC
  5
AD2
330
A9C
100
AcDbEntity
  8
0
  6
Continuous
 62
     7
370
    15
100
AcDbCircle
 10
1918.161921071017
 20
781.4535299622224
 30
0.0
 40
0.2141018677520531
100
AcDbArc
 50
152.5127893655826
 51
208.1099798807026
  0
LINE
  5
AD3
330
A9C
100
AcDbEntity
  8
0
  6
Continuous
 62
     7
370
    15
100
AcDbLine
 10
1917.973073629552
 20
781.352652543407
 30
0.0
 11
1918.011345258635
 21
781.3047907274782
 31
0.0
  0
LWPOLYLINE
  5
AD4
330
A9C
100
AcDbEntity
  8
0
  6
Continuous
 62
     7
370
    15
100
AcDbPolyline
 90
        9
 70
   128
 43
0.0
 10
1918.011345258635
 20
781.3047907274782
 10
1918.025945520642
 20
781.291616152037
 10
1918.042734535619
 20
781.2856130586486
 10
1918.060851273258
 20
781.2870897287877
 10
1918.079366760386
 20
781.2959635442124
 10
1918.097331321561
 20
781.3117900355831
 10
1918.113826181653
 20
781.3337477025659
 10
1918.128004230978
 20
781.3607209836548
 10
1918.139139379385
 20
781.391319612103
  0
ARC
  5
AD5
330
A9C
100
AcDbEntity
  8
0
  6
Continuous
 62
     7
370
    15
100
AcDbCircle
 10
1932.845126472791
 20
777.2032032124644
 30
0.0
 40
15.29072841196054
100
AcDbArc
 50
147.2336924738302
 51
164.1035829082973
  0
ARC
  5
AD6
330
A9C
100
AcDbEntity
  8
0
  6
Continuous
 62
     7
370
    15
100
AcDbCircle
 10
1919.80483715106
 20
785.604918656492
 30
0.0
 40
0.2218997578305325
100
AcDbArc
 50
325.350602349977
 51
27.37155330352446
  0
LINE
  5
AD7
330
A9C
100
AcDbEntity
  8
0
  6
Continuous
 62
     7
370
    15
100
AcDbLine
 10
1919.963619114466
 20
785.7548029868709
 30
0.0
 11
1920.001893846261
 21
785.7069390534814
 31
0.0
  0
LWPOLYLINE
  5
AD8
330
A9C
100
AcDbEntity
  8
0
  6
Continuous
 62
     7
370
    15
100
AcDbPolyline
 90
        9
 70
   128
 43
0.0
 10
1919.847952668929
 20
785.7011018505382
 10
1919.860251570344
 20
785.7244167941451
 10
1919.874320205046
 20
785.744031195809
 10
1919.889619657038
 20
785.7591896173873
 10
1919.905560614691
 20
785.7693089118932
 10
1919.921532072222
 20
785.7740057808
 10
1919.936918860292
 20
785.773094239149
 10
1919.95112933897
 20
785.7666091466461
 10
1919.963619114466
 20
785.7548029868709
  0
LINE
  5
AD9
330
A9C
100
AcDbEntity
  8
0
  6
Continuous
 62
     7
370
    15
100
AcDbLine
 10
1919.833156688268
 20
785.6683837450519
 30
0.0
 11
1919.847952668929
 21
785.7011018505382
 31
0.0
  0
LWPOLYLINE
  5
ADA
330
A9C
100
AcDbEntity
  8
0
  6
Continuous
 62
     7
370
    15
100
AcDbPolyline
 90
        9
 70
   128
 43
0.0
 10
1919.833156688268
 20
785.6683837450519
 10
1919.816265486569
 20
785.6365003304074
 10
1919.796901682689
 20
785.6098590695872
 10
1919.775849690014
 20
785.589546415722
 10
1919.753965433074
 20
785.5763831529301
 10
1919.732136263029
 20
785.5709057860467
 10
1919.711248164246
 20
785.573333525554
 10
1919.692148637479
 20
785.5835724029887
 10
1919.675613810009
 20
785.6012000009747
  0
LINE
  5
ADB
330
A9C
100
AcDbEntity
  8
0
  6
Continuous
 62
     7
370
    15
100
AcDbLine
 10
1919.43408290352
 20
785.9406981636314
 30
0.0
 11
1919.675613810009
 21
785.6012000009747
 31
0.0
  0
ARC
  5
ADC
330
A9C
100
AcDbEntity
  8
0
  6
Continuous
 62
     7
370
    15
100
AcDbCircle
 10
1920.482764761688
 20
786.4569099983238
 30
0.0
 40
1.168849133946276
100
AcDbArc
 50
152.9715999204526
 51
206.2086376867419
  0
LINE
  5
ADD
330
A9C
100
AcDbEntity
  8
0
  6
Continuous
 62
     7
370
    15
100
AcDbLine
 10
1920.660221061892
 20
789.6834043155243
 30
0.0
 11
1919.441575713578
 21
786.9880725572677
 31
0.0
  0
ARC
  5
ADE
330
A9C
100
AcDbEntity
  8
0
  6
Continuous
 62
     7
370
    15
100
AcDbCircle
 10
1921.506079661599
 20
789.3632979099507
 30
0.0
 40
0.9044030526196403
100
AcDbArc
 50
120.3640522604639
 51
159.271371849082
  0
LINE
  5
ADF
330
A9C
100
AcDbEntity
  8
0
  6
Continuous
 62
     7
370
    15
100
AcDbLine
 10
1921.048910685287
 20
790.1436448896242
 30
0.0
 11
1929.148924861129
 21
793.9042857871226
 31
0.0
  0
LWPOLYLINE
  5
AE0
330
A9C
100
AcDbEntity
  8
0
  6
Continuous
 62
     7
370
    15
100
AcDbPolyline
 90
        9
 70
   128
 43
0.0
 10
1929.148924861129
 20
793.9042857871226
 10
1929.256675432346
 20
793.9359597386696
 10
1929.36048371788
 20
793.9298037901347
 10
1929.456361272758
 20
793.8860582922317
 10
1929.540623009945
 20
793.8064030983484
 10
1929.61003127395
 20
793.6938963673378
 10
1929.661918028725
 20
793.5528640675774
 10
1929.694289862142
 20
793.3887281335557
 10
1929.705902843726
 20
793.2077886042758
  0
LINE
  5
AE1
330
A9C
100
AcDbEntity
  8
0
  6
Continuous
 62
     7
370
    15
100
AcDbLine
 10
1929.705902843726
 20
793.2077886042758
 30
0.0
 11
1929.753950822152
 21
784.366891945547
 31
0.0
  0
LINE
  5
AE2
330
A9C
100
AcDbEntity
  8
0
  6
Continuous
 62
     7
370
    15
100
AcDbLine
 10
1929.753950822152
 20
784.366891945547
 30
0.0
 11
1933.892453219413
 21
786.2882986285069
 31
0.0
  0
LINE
  5
AE3
330
A9C
100
AcDbEntity
  8
0
  6
Continuous
 62
     7
370
    15
100
AcDbLine
 10
1933.892453219413
 20
786.2882986285069
 30
0.0
 11
1933.844405240987
 21
795.129195287236
 31
0.0
  0
ARC
  5
AE4
330
A9C
100
AcDbEntity
  8
0
  6
Continuous
 62
     7
370
    15
100
AcDbCircle
 10
1935.221822003757
 20
795.2343818394794
 30
0.0
 40
1.381427214562545
100
AcDbArc
 50
126.9704336162984
 51
184.3669216505723
  0
LINE
  5
AE5
330
A9C
100
AcDbEntity
  8
0
  6
Continuous
 62
     7
370
    15
100
AcDbLine
 10
1934.391027777749
 20
796.3380675298667
 30
0.0
 11
1942.491042210544
 21
800.0987085466617
 31
0.0
  0
ARC
  5
AE6
330
A9C
100
AcDbEntity
  8
0
  6
Continuous
 62
     7
370
    15
100
AcDbCircle
 10
1942.630042374489
 20
799.8222686122084
 30
0.0
 40
0.3094189440500703
100
AcDbArc
 50
35.23780549283806
 51
116.6942698311743
  0
LINE
  5
AE7
330
A9C
100
AcDbEntity
  8
0
  6
Continuous
 62
     7
370
    15
100
AcDbLine
 10
1907.987368507964
 20
783.6347800988167
 30
0.0
 11
1906.825848200087
 21
781.0657962242073
 31
0.0
  0
LINE
  5
AE8
330
A9C
100
AcDbEntity
  8
0
  6
Continuous
 62
     7
370
    15
100
AcDbLine
 10
1906.825848200087
 20
781.0657962242073
 30
0.0
 11
1912.660275892406
 21
779.9212769284261
 31
0.0
  0
LINE
  5
AE9
330
A9C
100
AcDbEntity
  8
0
  6
Continuous
 62
     7
370
    15
100
AcDbLine
 10
1913.821796200283
 20
782.4902608030357
 30
0.0
 11
1912.660275892406
 21
779.9212769284261
 31
0.0
  0
LINE
  5
AEA
330
A9C
100
AcDbEntity
  8
0
  6
Continuous
 62
     7
370
    15
100
AcDbLine
 10
1917.115814582515
 20
781.8440847258028
 30
0.0
 11
1913.821796200283
 21
782.4902608030357
 31
0.0
  0
LINE
  5
AEB
330
A9C
100
AcDbEntity
  8
0
  6
Continuous
 62
     7
370
    15
100
AcDbLine
 10
1903.450627146472
 20
781.5323874774228
 30
0.0
 11
1915.873097816744
 21
779.0955148082979
 31
0.0
  0
LINE
  5
AEC
330
A9C
100
AcDbEntity
  8
0
  6
Continuous
 62
     7
370
    15
100
AcDbLine
 10
1903.450627146472
 20
781.5323874774228
 30
0.0
 11
1904.693343912244
 21
784.2809573949278
 31
0.0
  0
LINE
  5
AED
330
A9C
100
AcDbEntity
  8
0
  6
Continuous
 62
     7
370
    15
100
AcDbLine
 10
1904.693343912244
 20
784.2809573949278
 30
0.0
 11
1907.987368507964
 21
783.6347800988167
 31
0.0
  0
LINE
  5
AEE
330
A9C
100
AcDbEntity
  8
0
  6
Continuous
 62
     7
370
    15
100
AcDbLine
 10
1903.340073316351
 20
781.0083438749257
 30
0.0
 11
1915.762543986622
 21
778.5714712058006
 31
0.0
  0
ARC
  5
AEF
330
A9C
100
AcDbEntity
  8
0
  6
Continuous
 62
     7
370
    15
100
AcDbCircle
 10
1904.624783251332
 20
781.0110007519901
 30
0.0
 40
1.284712682289742
100
AcDbArc
 50
156.0562756135827
 51
180.118491825529
  0
LINE
  5
AF0
330
A9C
100
AcDbEntity
  8
0
  6
Continuous
 62
     7
370
    15
100
AcDbLine
 10
1905.230009636852
 20
771.85307998222
 30
0.0
 11
1913.968192760919
 21
770.1389411286819
 31
0.0
  0
LINE
  5
AF1
330
A9C
100
AcDbEntity
  8
0
  6
Continuous
 62
     7
370
    15
100
AcDbLine
 10
1905.264306831288
 20
765.5423472182194
 30
0.0
 11
1905.230009636852
 21
771.85307998222
 31
0.0
  0
SPLINE
  5
AF2
330
A9C
100
AcDbEntity
  8
0
  6
Continuous
 62
     7
370
    15
100
AcDbSpline
210
0.0
220
0.0
230
1.0
 70
     8
 71
     3
 72
    10
 73
     6
 74
     0
 42
0.0000000001
 43
0.0000000001
 40
0.0
 40
0.0
 40
0.0
 40
0.0
 40
0.5
 40
0.5
 40
1.0
 40
1.0
 40
1.0
 40
1.0
 10
1905.264309836215
 20
765.5423440002001
 30
0.0
 10
1905.265156267634
 20
765.3845075883755
 30
0.0
 10
1905.260394100288
 20
765.2279123582966
 30
0.0
 10
1905.24518388282
 20
764.9161996376029
 30
0.0
 10
1905.234479028909
 20
764.7611828548273
 30
0.0
 10
1905.226866284143
 20
764.6053183350026
 30
0.0
  0
ARC
  5
AF3
330
A9C
100
AcDbEntity
  8
0
  6
Continuous
 62
     7
370
    15
100
AcDbCircle
 10
1910.996683904873
 20
764.3270688595142
 30
0.0
 40
5.776525643422777
100
AcDbArc
 50
177.2390414968619
 51
183.3837277494387
  0
SPLINE
  5
AF4
330
A9C
100
AcDbEntity
  8
0
  6
Continuous
 62
     7
370
    15
100
AcDbSpline
210
0.0
220
0.0
230
1.0
 70
     8
 71
     3
 72
    14
 73
    10
 74
     0
 42
0.0000000001
 43
0.0000000001
 40
0.0
 40
0.0
 40
0.0
 40
0.0
 40
0.000387973554629
 40
0.000387973554629
 40
0.000387973554629
 40
0.0006907775753037
 40
0.0006907775753037
 40
0.0006907775753037
 40
0.0009939117623708
 40
0.0009939117623708
 40
0.0009939117623708
 40
0.0009939117623708
 10
1905.230231461331
 20
763.9861209259727
 30
0.0
 10
1905.237511058192
 20
763.861850466573
 30
0.0
 10
1905.246780228486
 20
763.7373395533319
 30
0.0
 10
1905.254814871832
 20
763.6129769536166
 30
0.0
 10
1905.261085316974
 20
763.5159211384919
 30
0.0
 10
1905.2666753181
 20
763.4189316279758
 30
0.0
 10
1905.270754227319
 20
763.3221671994768
 30
0.0
 10
1905.274837207407
 20
763.2253061973003
 30
0.0
 10
1905.277420763555
 20
763.1286390690807
 30
0.0
 10
1905.27795078926
 20
763.0323891561524
 30
0.0
  0
LINE
  5
AF5
330
A9C
100
AcDbEntity
  8
0
  6
Continuous
 62
     7
370
    15
100
AcDbLine
 10
1905.321809653892
 20
754.9617457261943
 30
0.0
 11
1905.277947808675
 21
763.032387895192
 31
0.0
  0
LINE
  5
AF6
330
A9C
100
AcDbEntity
  8
0
  6
Continuous
 62
     7
370
    15
100
AcDbLine
 10
1914.059992777959
 20
753.2476068726562
 30
0.0
 11
1905.321809653892
 21
754.9617457261943
 31
0.0
  0
LINE
  5
AF7
330
A9C
100
AcDbEntity
  8
0
  6
Continuous
 62
     7
370
    15
100
AcDbLine
 10
1914.016130932743
 20
761.3182490416542
 30
0.0
 11
1914.059992777959
 21
753.2476068726562
 31
0.0
  0
SPLINE
  5
AF8
330
A9C
100
AcDbEntity
  8
0
  6
Continuous
 62
     7
370
    15
100
AcDbSpline
210
0.0
220
0.0
230
1.0
 70
     8
 71
     3
 72
    10
 73
     6
 74
     0
 42
0.0000000001
 43
0.0000000001
 40
0.0
 40
0.0
 40
0.0
 40
0.0
 40
0.5
 40
0.5
 40
1.0
 40
1.0
 40
1.0
 40
1.0
 10
1914.016132923028
 20
761.3182504968778
 30
0.0
 10
1914.015286491607
 20
761.4760869087025
 30
0.0
 10
1914.020048658953
 20
761.6326821387819
 30
0.0
 10
1914.03525887642
 20
761.9443948594756
 30
0.0
 10
1914.045963730334
 20
762.0994116422505
 30
0.0
 10
1914.053576475099
 20
762.255276162075
 30
0.0
  0
ARC
  5
AF9
330
A9C
100
AcDbEntity
  8
0
  6
Continuous
 62
     7
370
    15
100
AcDbCircle
 10
1908.289027902905
 20
762.5335560634185
 30
0.0
 40
5.771259109427089
100
AcDbArc
 50
357.2362351513536
 51
3.386534094944439
  0
SPLINE
  5
AFA
330
A9C
100
AcDbEntity
  8
0
  6
Continuous
 62
     7
370
    15
100
AcDbSpline
210
0.0
220
0.0
230
1.0
 70
     8
 71
     3
 72
    14
 73
    10
 74
     0
 42
0.0000000001
 43
0.0000000001
 40
0.0
 40
0.0
 40
0.0
 40
0.0
 40
0.000387973554629
 40
0.000387973554629
 40
0.000387973554629
 40
0.000690777575304
 40
0.000690777575304
 40
0.000690777575304
 40
0.0009939117623717
 40
0.0009939117623717
 40
0.0009939117623717
 40
0.0009939117623717
 10
1914.050211297912
 20
762.8744735711047
 30
0.0
 10
1914.04293170105
 20
762.9987440305045
 30
0.0
 10
1914.033662530751
 20
763.1232549437465
 30
0.0
 10
1914.025627887403
 20
763.2476175434619
 30
0.0
 10
1914.01935744226
 20
763.3446733585867
 30
0.0
 10
1914.013767441135
 20
763.4416628691029
 30
0.0
 10
1914.009688531917
 20
763.5384272976017
 30
0.0
 10
1914.005605551832
 20
763.6352882997782
 30
0.0
 10
1914.003021995686
 20
763.7319554279975
 30
0.0
 10
1914.002491969984
 20
763.8282053409255
 30
0.0
  0
LINE
  5
AFB
330
A9C
100
AcDbEntity
  8
0
  6
Continuous
 62
     7
370
    15
100
AcDbLine
 10
1913.968192760919
 20
770.1389411286819
 30
0.0
 11
1914.002489955356
 21
763.8282083646815
 31
0.0
  0
LINE
  5
AFC
330
A9C
100
AcDbEntity
  8
0
  6
Continuous
 62
     7
370
    15
100
AcDbLine
 10
1915.876924826318
 20
742.5218369059157
 30
0.0
 11
1915.958551414554
 21
742.5058245032927
 31
0.0
  0
LINE
  5
AFD
330
A9C
100
AcDbEntity
  8
0
  6
Continuous
 62
     7
370
    15
100
AcDbLine
 10
1903.619478176519
 20
744.9263373895138
 30
0.0
 11
1915.876924826318
 21
742.5218369059157
 31
0.0
  0
LINE
  5
AFE
330
A9C
100
AcDbEntity
  8
0
  6
Continuous
 62
     7
370
    15
100
AcDbLine
 10
1903.619478176519
 20
744.9263373895138
 30
0.0
 11
1903.536080744282
 21
744.9426971724177
 31
0.0
  0
LINE
  5
AFF
330
A9C
100
AcDbEntity
  8
0
  6
Continuous
 62
     7
370
    15
100
AcDbLine
 10
1903.340073316351
 20
781.0083438749257
 30
0.0
 11
1903.536080744282
 21
744.9426971724177
 31
0.0
  0
LWPOLYLINE
  5
B00
330
A9C
100
AcDbEntity
  8
0
  6
Continuous
 62
     7
370
    15
100
AcDbPolyline
 90
        8
 70
   128
 43
0.0
 10
1913.821796200283
 20
782.4902608030357
 10
1913.885428634353
 20
782.6114145478282
 10
1913.958062467682
 20
782.714022637861
 10
1914.037059534001
 20
782.794355421799
 10
1914.119548536619
 20
782.8494894110835
 10
1914.202529499086
 20
782.8774269333576
 10
1914.282990935332
 20
782.8771505317261
 10
1914.285326167532
 20
782.8767083523022
  0
ARC
  5
B01
330
A9C
100
AcDbEntity
  8
0
  6
Continuous
 62
     7
370
    15
100
AcDbCircle
 10
1921.601186823589
 20
780.1839271938941
 30
0.0
 40
12.8685902352174
100
AcDbArc
 50
146.5913921728914
 51
152.5991739601436
  0
LINE
  5
B02
330
A9C
100
AcDbEntity
  8
0
  6
Continuous
 62
     7
370
    15
100
AcDbLine
 10
1910.176339808856
 20
786.106214364564
 30
0.0
 11
1916.010767501175
 21
784.9616950687832
 31
0.0
  0
ARC
  5
B03
330
A9C
100
AcDbEntity
  8
0
  6
Continuous
 62
     7
370
    15
100
AcDbCircle
 10
1927.435614515908
 20
779.0394078981129
 30
0.0
 40
12.86859023521815
100
AcDbArc
 50
146.5913921728914
 51
152.5991739601436
  0
LINE
  5
B04
330
A9C
100
AcDbEntity
  8
0
  6
Continuous
 62
     7
370
    15
100
AcDbLine
 10
1919.987382209139
 20
785.4787568385899
 30
0.0
 11
1916.693363826906
 21
786.1249329158227
 31
0.0
  0
ARC
  5
B05
330
A9C
100
AcDbEntity
  8
0
  6
Continuous
 62
     7
370
    15
100
AcDbCircle
 10
1931.287763151335
 20
777.221119217363
 30
0.0
 40
17.13289912528945
100
AcDbArc
 50
158.677520280449
 51
161.2644854185934
  0
LINE
  5
B06
330
A9C
100
AcDbEntity
  8
0
  6
Continuous
 62
     7
370
    15
100
AcDbLine
 10
1909.493206647589
 20
784.5954475599772
 30
0.0
 11
1915.327634339908
 21
783.4509282641963
 31
0.0
  0
ARC
  5
B07
330
A9C
100
AcDbEntity
  8
0
  6
Continuous
 62
     7
370
    15
100
AcDbCircle
 10
1925.46963565187
 20
778.3594869541775
 30
0.0
 40
17.15032035869651
100
AcDbArc
 50
158.6781769036606
 51
161.4487024717974
  0
ARC
  5
B08
330
A9C
100
AcDbEntity
  8
0
  6
Continuous
 62
     7
370
    15
100
AcDbCircle
 10
1919.882120756602
 20
779.9182049699418
 30
0.0
 40
14.68579048437078
100
AcDbArc
 50
147.0047923895517
 51
161.7596910641226
  0
LINE
  5
B09
330
A9C
100
AcDbEntity
  8
0
  6
Continuous
 62
     7
370
    15
100
AcDbLine
 10
1907.564911538867
 20
787.9156295077146
 30
0.0
 11
1910.858936134587
 21
787.2694522116037
 31
0.0
  0
LINE
  5
B0A
330
A9C
100
AcDbEntity
  8
0
  6
Continuous
 62
     7
370
    15
100
AcDbLine
 10
1919.441575713578
 20
786.9880725572677
 30
0.0
 11
1916.147557331346
 21
787.6342486345007
 31
0.0
  0
LINE
  5
B0B
330
A9C
100
AcDbEntity
  8
0
  6
Continuous
 62
     7
370
    15
100
AcDbLine
 10
1917.312953780482
 20
790.2118064924492
 30
0.0
 11
1916.147557331346
 21
787.6342486345007
 31
0.0
  0
LINE
  5
B0C
330
A9C
100
AcDbEntity
  8
0
  6
Continuous
 62
     7
370
    15
100
AcDbLine
 10
1917.312953780482
 20
790.2118064924492
 30
0.0
 11
1911.478526088163
 21
791.3563257882302
 31
0.0
  0
LINE
  5
B0D
330
A9C
100
AcDbEntity
  8
0
  6
Continuous
 62
     7
370
    15
100
AcDbLine
 10
1911.478526088163
 20
791.3563257882302
 30
0.0
 11
1910.313129639027
 21
788.7787679302816
 31
0.0
  0
LINE
  5
B0E
330
A9C
100
AcDbEntity
  8
0
  6
Continuous
 62
     7
370
    15
100
AcDbLine
 10
1907.019105043306
 20
789.4249452263928
 30
0.0
 11
1910.313129639027
 21
788.7787679302816
 31
0.0
  0
LINE
  5
B0F
330
A9C
100
AcDbEntity
  8
0
  6
Continuous
 62
     7
370
    15
100
AcDbLine
 10
1907.019105043306
 20
789.4249452263928
 30
0.0
 11
1908.23775039162
 21
792.1202769846495
 31
0.0
  0
LINE
  5
B10
330
A9C
100
AcDbEntity
  8
0
  6
Continuous
 62
     7
370
    15
100
AcDbLine
 10
1908.23775039162
 20
792.1202769846495
 30
0.0
 11
1920.660221061892
 21
789.6834043155243
 31
0.0
  0
LINE
  5
B11
330
A9C
100
AcDbEntity
  8
0
  6
Continuous
 62
     7
370
    15
100
AcDbLine
 10
1907.168143632643
 20
780.9986491021799
 30
0.0
 11
1907.235338374351
 21
781.1472556178106
 31
0.0
  0
LINE
  5
B12
330
A9C
100
AcDbEntity
  8
0
  6
Continuous
 62
     7
370
    15
100
AcDbLine
 10
1907.865323039633
 20
782.3532239219677
 30
0.0
 11
1907.395468932707
 21
781.2363695221853
 31
0.0
  0
LINE
  5
B13
330
A9C
100
AcDbEntity
  8
0
  6
Continuous
 62
     7
370
    15
100
AcDbLine
 10
1907.865323039633
 20
782.3532239219677
 30
0.0
 11
1913.279625759464
 21
781.2911190741857
 31
0.0
  0
LWPOLYLINE
  5
B14
330
A9C
100
AcDbEntity
  8
0
  6
Continuous
 62
     7
370
    15
100
AcDbPolyline
 90
        8
 70
   128
 43
0.0
 10
1907.235338374351
 20
781.1472556178106
 10
1907.251405091892
 20
781.1778418447777
 10
1907.269745579072
 20
781.2037482721937
 10
1907.289689027012
 20
781.2240301401328
 10
1907.310516113223
 20
781.2379478753811
 10
1907.331467050486
 20
781.245002850107
 10
1907.351782814898
 20
781.2449351752032
 10
1907.352374879167
 20
781.244822237054
  0
LINE
  5
B15
330
A9C
100
AcDbEntity
  8
0
  6
Continuous
 62
     7
370
    15
100
AcDbLine
 10
1919.43408290352
 20
785.9406981636314
 30
0.0
 11
1916.140064521287
 21
786.5868742408642
 31
0.0
  0
ARC
  5
B16
330
A9C
100
AcDbEntity
  8
0
  6
Continuous
 62
     7
370
    15
100
AcDbCircle
 10
1917.188746379455
 20
787.1030860755569
 30
0.0
 40
1.168849133946187
100
AcDbArc
 50
152.9715999204585
 51
206.2086376867478
  0
LINE
  5
B17
330
A9C
100
AcDbEntity
  8
0
  6
Continuous
 62
     7
370
    15
100
AcDbLine
 10
1907.884536143911
 20
782.5829698268117
 30
0.0
 11
1908.455090895528
 21
783.8447665420276
 31
0.0
  0
ARC
  5
B18
330
A9C
100
AcDbEntity
  8
0
  6
Continuous
 62
     7
370
    15
100
AcDbCircle
 10
1908.186090830908
 20
782.4420751991001
 30
0.0
 40
0.3328460986214524
100
AcDbArc
 50
154.9567276006724
 51
195.4824991163659
  0
LINE
  5
B19
330
A9C
100
AcDbEntity
  8
0
  6
Continuous
 62
     7
370
    15
100
AcDbLine
 10
1910.319955445552
 20
787.7112675617682
 30
0.0
 11
1910.305636828968
 21
787.7313935366452
 31
0.0
  0
LINE
  5
B1A
330
A9C
100
AcDbEntity
  8
0
  6
Continuous
 62
     7
370
    15
100
AcDbLine
 10
1910.319955445552
 20
787.7112675617682
 30
0.0
 11
1916.154383137871
 21
786.5667482659871
 31
0.0
  0
LINE
  5
B1B
330
A9C
100
AcDbEntity
  8
0
  6
Continuous
 62
     7
370
    15
100
AcDbLine
 10
1916.154383137871
 20
786.5667482659871
 30
0.0
 11
1916.140064521287
 21
786.5868742408642
 31
0.0
  0
LINE
  5
B1C
330
A9C
100
AcDbEntity
  8
0
  6
Continuous
 62
     7
370
    15
100
AcDbLine
 10
1907.253143139737
 20
788.0380726700998
 30
0.0
 11
1919.675613810009
 21
785.6012000009747
 31
0.0
  0
LINE
  5
B1D
330
A9C
100
AcDbEntity
  8
0
  6
Continuous
 62
     7
370
    15
100
AcDbLine
 10
1907.253143139737
 20
788.0380726700998
 30
0.0
 11
1907.011612233248
 21
788.3775708327562
 31
0.0
  0
LINE
  5
B1E
330
A9C
100
AcDbEntity
  8
0
  6
Continuous
 62
     7
370
    15
100
AcDbLine
 10
1907.011612233248
 20
788.3775708327562
 30
0.0
 11
1910.305636828968
 21
787.7313935366452
 31
0.0
  0
LWPOLYLINE
  5
B1F
330
A9C
100
AcDbEntity
  8
0
  6
Continuous
 62
     7
370
    15
100
AcDbPolyline
 90
        8
 70
   128
 43
0.0
 10
1908.455090895528
 20
783.8447665420276
 10
1908.470998509429
 20
783.8750511906122
 10
1908.489156972583
 20
783.9007023258655
 10
1908.508905734903
 20
783.9207835087466
 10
1908.529527471653
 20
783.9345667674746
 10
1908.550270675942
 20
783.9415466446499
 10
1908.570386544085
 20
783.9414786700903
 10
1908.570968291697
 20
783.9413680581165
  0
ELLIPSE
  5
B20
330
A9C
100
AcDbEntity
  8
0
  6
Continuous
 62
     7
370
    15
100
AcDbEllipse
 10
1907.311227317822
 20
772.5301164295127
 30
0.0
 11
0.8524756399286271
 21
2.861432479984613
 31
0.0
210
0.0
220
0.0
230
1.0
 40
0.6635410289970763
 41
2.000213462272299
 42
3.205295473349686
  0
ARC
  5
B21
330
A9C
100
AcDbEntity
  8
0
  6
Continuous
 62
     7
370
    15
100
AcDbCircle
 10
1907.309191777146
 20
788.0732631354129
 30
0.0
 40
0.0661801979777598
100
AcDbArc
 50
212.1228977143879
 51
257.4511641264796
  0
ARC
  5
B22
330
A9C
100
AcDbEntity
  8
0
  6
Continuous
 62
     7
370
    15
100
AcDbCircle
 10
1909.083608991327
 20
791.8001705790758
 30
0.0
 40
0.9044030526195363
100
AcDbArc
 50
120.3640522604639
 51
159.2713718490881
  0
LINE
  5
B23
330
A9C
100
AcDbEntity
  8
0
  6
Continuous
 62
     7
370
    15
100
AcDbLine
 10
1908.626440015015
 20
792.5805175587492
 30
0.0
 11
1921.048910685287
 21
790.1436448896242
 31
0.0
  0
LWPOLYLINE
  5
B24
330
A9C
100
AcDbEntity
  8
0
  6
Continuous
 62
     7
370
    15
100
AcDbPolyline
 90
        3
 70
   128
 43
0.0
 10
1916.693363826906
 20
786.1249329158227
 10
1916.70794956045
 20
786.1512130970202
 10
1916.712337004792
 20
786.1612626413631
  0
LWPOLYLINE
  5
B25
330
A9C
100
AcDbEntity
  8
0
  6
Continuous
 62
     7
370
    15
100
AcDbPolyline
 90
       28
 70
   128
 43
0.0
 10
1923.174271581109
 20
793.2836824708082
 10
1923.152531663522
 20
793.1509351448826
 10
1923.069942969682
 20
792.9965810121886
 10
1922.926904873473
 20
792.8460757716561
 10
1922.72549702844
 20
792.7016160513118
 10
1922.468662904593
 20
792.5653070902463
 10
1922.160143962047
 20
792.439136280678
 10
1921.804442789841
 20
792.3249437432472
 10
1921.406738685758
 20
792.2243954437143
 10
1920.972839395978
 20
792.1389566831987
 10
1920.509064553012
 20
792.0698749140788
 10
1920.022183960566
 20
792.0181551907996
 10
1919.519289539034
 20
791.9845540647092
 10
1919.007724266817
 20
791.9695589041855
 10
1918.494938522127
 20
791.9733909596608
 10
1917.988418931035
 20
791.9959928477427
 10
1917.495543634828
 20
792.0370352210519
 10
1917.023501654587
 20
792.0959203676475
 10
1916.57918226277
 20
792.1717883000325
 10
1916.169060103649
 20
792.2635331814035
 10
1915.799112362352
 20
792.3698182166954
 10
1915.474746258627
 20
792.4890912334912
 10
1915.200671600386
 20
792.6196157920209
 10
1914.980905782828
 20
792.7594858170857
 10
1914.818636951792
 20
792.9066646593684
 10
1914.716244466648
 20
793.0590028031587
 10
1914.675208501563
 20
793.2142820730675
 10
1914.674395729847
 20
793.2374884017572
  0
LINE
  5
B26
330
A9C
100
AcDbEntity
  8
0
  6
Continuous
 62
     7
370
    15
100
AcDbLine
 10
1914.69532542424
 20
795.3981544389695
 30
0.0
 11
1908.626440015015
 21
792.5805175587492
 31
0.0
  0
LWPOLYLINE
  5
B27
330
A9C
100
AcDbEntity
  8
0
  6
Continuous
 62
     7
370
    15
100
AcDbPolyline
 90
        3
 70
   128
 43
0.0
 10
1909.369728638458
 20
783.9316450574211
 10
1909.367559155872
 20
783.8200630688572
 10
1909.365748251216
 20
783.7854571258591
  0
ARC
  5
B28
330
A9C
100
AcDbEntity
  8
0
  6
Continuous
 62
     7
370
    15
100
AcDbCircle
 10
1911.196564655799
 20
783.9352096961937
 30
0.0
 40
1.826839495114603
100
AcDbArc
 50
158.8131924396758
 51
180.1117990317781
  0
LWPOLYLINE
  5
B29
330
A9C
100
AcDbEntity
  8
0
  6
Continuous
 62
     7
370
    15
100
AcDbPolyline
 90
        9
 70
   128
 43
0.0
 10
1907.987368507964
 20
783.6347800988167
 10
1908.051000942034
 20
783.7559338436091
 10
1908.123634775362
 20
783.8585419336419
 10
1908.202631841682
 20
783.9388747175798
 10
1908.285120844299
 20
783.9940087068643
 10
1908.368101806767
 20
784.0219462291383
 10
1908.448563243013
 20
784.0216698275069
 10
1908.52358080763
 20
783.9931916194607
 10
1908.59042659073
 20
783.9375399962813
  0
LINE
  5
B2A
330
A9C
100
AcDbEntity
  8
0
  6
Continuous
 62
     7
370
    15
100
AcDbLine
 10
1910.321833729243
 20
787.97312419317
 30
0.0
 11
1910.892385416723
 21
789.2349159278063
 31
0.0
  0
ARC
  5
B2B
330
A9C
100
AcDbEntity
  8
0
  6
Continuous
 62
     7
370
    15
100
AcDbCircle
 10
1910.582126022761
 20
787.8403220782757
 30
0.0
 40
0.2922130725775498
100
AcDbArc
 50
152.9691529574499
 51
206.208901980196
  0
ARC
  5
B2C
330
A9C
100
AcDbEntity
  8
0
  6
Continuous
 62
     7
370
    15
100
AcDbCircle
 10
1910.932270942846
 20
785.7649246023014
 30
0.0
 40
0.8294037503902517
100
AcDbArc
 50
119.366155406626
 51
155.701651591081
  0
LWPOLYLINE
  5
B2D
330
A9C
100
AcDbEntity
  8
0
  6
Continuous
 62
     7
370
    15
100
AcDbPolyline
 90
        8
 70
   128
 43
0.0
 10
1910.892385416723
 20
789.2349159278063
 10
1910.908452134263
 20
789.2655021547732
 10
1910.926790565827
 20
789.2914076278161
 10
1910.946736069384
 20
789.3116904501286
 10
1910.967562127787
 20
789.32560770819
 10
1910.988513065049
 20
789.3326626829161
 10
1911.008828829462
 20
789.3325950080122
 10
1911.009421921539
 20
789.3324825470496
  0
ARC
  5
B2E
330
A9C
100
AcDbEntity
  8
0
  6
Continuous
 62
     7
370
    15
100
AcDbCircle
 10
1909.981222015908
 20
787.4469854642817
 30
0.0
 40
1.10290955427862
100
AcDbArc
 50
299.5728314744402
 51
336.5499502579833
  0
LINE
  5
B2F
330
A9C
100
AcDbEntity
  8
0
  6
Continuous
 62
     7
370
    15
100
AcDbLine
 10
1910.99303935166
 20
787.0080832382788
 30
0.0
 11
1916.558385744585
 21
785.9163486808702
 31
0.0
  0
LINE
  5
B30
330
A9C
100
AcDbEntity
  8
0
  6
Continuous
 62
     7
370
    15
100
AcDbLine
 10
1911.638526394436
 20
791.1527820212698
 30
0.0
 11
1911.478526088163
 21
791.3563257882302
 31
0.0
  0
LINE
  5
B31
330
A9C
100
AcDbEntity
  8
0
  6
Continuous
 62
     7
370
    15
100
AcDbLine
 10
1911.541582158475
 20
790.670629659621
 30
0.0
 11
1911.639482713793
 21
790.8871392912876
 31
0.0
  0
ARC
  5
B32
330
A9C
100
AcDbEntity
  8
0
  6
Continuous
 62
     7
370
    15
100
AcDbCircle
 10
1911.804475769736
 20
790.5365012837659
 30
0.0
 40
0.295132973507102
100
AcDbArc
 50
152.9693157200113
 51
206.2096539170405
  0
ARC
  5
B33
330
A9C
100
AcDbEntity
  8
0
  6
Continuous
 62
     7
370
    15
100
AcDbCircle
 10
1911.385197661545
 20
791.0190469461825
 30
0.0
 40
0.286462069420418
100
AcDbArc
 50
332.5824551461453
 51
27.83007506935901
  0
LINE
  5
B34
330
A9C
100
AcDbEntity
  8
0
  6
Continuous
 62
     7
370
    15
100
AcDbLine
 10
1911.765420728666
 20
790.0888915603267
 30
0.0
 11
1911.539687197934
 21
790.4061537318357
 31
0.0
  0
LWPOLYLINE
  5
B35
330
A9C
100
AcDbEntity
  8
0
  6
Continuous
 62
     7
370
    15
100
AcDbPolyline
 90
        8
 70
   128
 43
0.0
 10
1904.693343912244
 20
784.2809573949278
 10
1904.756976346314
 20
784.4021111397203
 10
1904.829610179642
 20
784.5047192297529
 10
1904.908607245962
 20
784.5850520136909
 10
1904.991096248579
 20
784.6401860029755
 10
1905.074077211047
 20
784.6681235252495
 10
1905.154538647292
 20
784.6678471236181
 10
1905.156873879492
 20
784.6674049441942
  0
ARC
  5
B36
330
A9C
100
AcDbEntity
  8
0
  6
Continuous
 62
     7
370
    15
100
AcDbCircle
 10
1910.711736209423
 20
787.1970357462986
 30
0.0
 40
0.3341837000734852
100
AcDbArc
 50
335.1024922064139
 51
13.42338487237342
  0
LINE
  5
B37
330
A9C
100
AcDbEntity
  8
0
  6
Continuous
 62
     7
370
    15
100
AcDbLine
 10
1911.014861654162
 20
787.0563456253012
 30
0.0
 11
1910.99303935166
 21
787.0080832382788
 31
0.0
  0
LINE
  5
B38
330
A9C
100
AcDbEntity
  8
0
  6
Continuous
 62
     7
370
    15
100
AcDbLine
 10
1911.898574247102
 20
790.0413251356175
 30
0.0
 11
1911.791892973342
 21
789.1789868594119
 31
0.0
  0
ARC
  5
B39
330
A9C
100
AcDbEntity
  8
0
  6
Continuous
 62
     7
370
    15
100
AcDbCircle
 10
1911.822572953563
 20
790.1252070613073
 30
0.0
 40
0.0677140489271444
100
AcDbArc
 50
212.4325749180762
 51
257.1418761375468
  0
ARC
  5
B3A
330
A9C
100
AcDbEntity
  8
0
  6
Continuous
 62
     7
370
    15
100
AcDbCircle
 10
1911.354318687136
 20
788.2476053713377
 30
0.0
 40
1.168849133946149
100
AcDbArc
 50
152.9715999204526
 51
206.2086376867478
  0
LWPOLYLINE
  5
B3B
330
A9C
100
AcDbEntity
  8
0
  6
Continuous
 62
     7
370
    15
100
AcDbPolyline
 90
       53
 70
   128
 43
0.0
 10
1921.258612130722
 20
796.3500149161134
 10
1921.668734289843
 20
796.2582700347422
 10
1922.03868203114
 20
796.1519849994504
 10
1922.363054348353
 20
796.0327107637765
 10
1922.637122793106
 20
795.9021874241249
 10
1922.856894824152
 20
795.7623161801819
 10
1923.019158469507
 20
795.6151390339639
 10
1923.121556140331
 20
795.4627991941086
 10
1923.162586919737
 20
795.3075216202647
 10
1923.141658746057
 20
795.1515674884631
 10
1923.059070052218
 20
794.997213355769
 10
1922.916031956009
 20
794.8467081152366
 10
1922.714624110976
 20
794.7022483948921
 10
1922.457789987129
 20
794.5659394338265
 10
1922.149271044582
 20
794.4397686242584
 10
1921.793569872376
 20
794.3255760868277
 10
1921.395865768293
 20
794.2250277872947
 10
1920.961966478514
 20
794.1395890267791
 10
1920.498191635546
 20
794.0705072576593
 10
1920.011311043101
 20
794.0187875343797
 10
1919.508416621569
 20
793.9851864082897
 10
1918.996851349352
 20
793.9701912477658
 10
1918.484065604663
 20
793.9740233032413
 10
1917.977546013571
 20
793.9966251913232
 10
1917.484670717363
 20
794.0376675646324
 10
1917.012628737122
 20
794.096552711228
 10
1916.568309345305
 20
794.1724206436128
 10
1916.158187186184
 20
794.2641655249839
 10
1915.788239444887
 20
794.3704505602759
 10
1915.463873341162
 20
794.4897235770716
 10
1915.189798682921
 20
794.6202481356014
 10
1914.970032865363
 20
794.7601181606662
 10
1914.807764034328
 20
794.9072970029487
 10
1914.705371549184
 20
795.0596351467392
 10
1914.664335584098
 20
795.2149144166479
 10
1914.685268943457
 20
795.3708668523851
 10
1914.767851423809
 20
795.5252222039574
 10
1914.910889520018
 20
795.6757274444895
 10
1915.112297365051
 20
795.8201871648342
 10
1915.369132516706
 20
795.956496603086
 10
1915.677650431445
 20
796.0826669354677
 10
1916.033351603651
 20
796.1968594728987
 10
1916.431055707734
 20
796.2974077724314
 10
1916.864961211001
 20
796.3828453140687
 10
1917.328730868288
 20
796.4519287792534
 10
1917.815616646414
 20
796.5036468064681
 10
1918.318505882266
 20
796.537249628623
 10
1918.830076340162
 20
796.5522430930823
 10
1919.342855871364
 20
796.5484122564848
 10
1919.849381675944
 20
796.5258091495249
 10
1920.342250758664
 20
796.4847679950938
 10
1920.814292738905
 20
796.4258828484982
 10
1921.258612130722
 20
796.3500149161134
  0
LWPOLYLINE
  5
B3C
330
A9C
100
AcDbEntity
  8
0
  6
Continuous
 62
     7
370
    15
100
AcDbPolyline
 90
       43
 70
   128
 43
0.0
 10
1920.458501516506
 20
795.9785428874202
 10
1920.789274492124
 20
795.9022591217067
 10
1921.078139811562
 20
795.8116564139807
 10
1921.318653682328
 20
795.7087577278742
 10
1921.505435481801
 20
795.5958621376322
 10
1921.634322346441
 20
795.4754893869882
 10
1921.702425512935
 20
795.3503321812858
 10
1921.708229312494
 20
795.2231831422802
 10
1921.651597944006
 20
795.0968846052933
 10
1921.533806259889
 20
794.9742567356817
 10
1921.357482581947
 20
794.8580381504182
 10
1921.126559786324
 20
794.7508262751632
 10
1920.846198497731
 20
794.655017063297
 10
1920.522664780275
 20
794.5727482107257
 10
1920.163188020098
 20
794.5058577961296
 10
1919.775790917287
 20
794.4558422831646
 10
1919.369132885925
 20
794.4238166440928
 10
1918.952290151536
 20
794.4104984410004
 10
1918.534585556441
 20
794.4161821559872
 10
1918.125342588887
 20
794.4407439987005
 10
1917.733706732745
 20
794.4836328290182
 10
1917.368419959521
 20
794.5438926723059
 10
1917.03765319739
 20
794.6201752191414
 10
1916.748781664465
 20
794.7107791457457
 10
1916.508267793699
 20
794.8136778318519
 10
1916.321487022035
 20
794.9265738992806
 10
1916.192605343074
 20
795.04694495386
 10
1916.124496990899
 20
795.1721038556268
 10
1916.118692163532
 20
795.2992524174459
 10
1916.175323532021
 20
795.4255509544333
 10
1916.293116243946
 20
795.5481793012308
 10
1916.46943889408
 20
795.6643974093082
 10
1916.700361689703
 20
795.7716092845629
 10
1916.980724006103
 20
795.8674189736157
 10
1917.304256695752
 20
795.9496873490004
 10
1917.663733455929
 20
796.0165777635966
 10
1918.051131586548
 20
796.0665937537481
 10
1918.45779480359
 20
796.0986176967552
 10
1918.874632352299
 20
796.1119375959123
 10
1919.292335919586
 20
796.1062534037388
 10
1919.701578887139
 20
796.0816915610256
 10
1920.09322095677
 20
796.0388015118296
 10
1920.458501516506
 20
795.9785428874202
  0
ELLIPSE
  5
B3D
330
A9C
100
AcDbEntity
  8
0
  6
Continuous
 62
     7
370
    15
100
AcDbEllipse
 10
1907.403027332203
 20
755.638782662671
 30
0.0
 11
0.8524756399287131
 21
2.861432479984983
 31
0.0
210
0.0
220
0.0
230
1.0
 40
0.6635410289970796
 41
0.7784829858838517
 42
2.000213462272895
  0
SPLINE
  5
B3E
330
A9C
100
AcDbEntity
  8
0
  6
Continuous
 62
     7
370
    15
100
AcDbSpline
210
0.0
220
0.0
230
1.0
 70
     8
 71
     3
 72
    20
 73
    16
 74
     0
 42
0.0000000001
 43
0.0000000001
 40
0.0
 40
0.0
 40
0.0
 40
0.0
 40
0.0334246388551162
 40
0.0683550738231122
 40
0.1048616021472707
 40
0.1430058081592233
 40
0.1828416816032992
 40
0.2244166222838681
 40
0.2677723265326076
 40
0.3129455598459998
 40
0.3599688247670834
 40
0.4088709351352599
 40
0.5850738721928428
 40
0.7819351979443633
 40
1.0
 40
1.0
 40
1.0
 40
1.0
 10
1905.264309853927
 20
765.5423439967205
 30
0.0
 10
1905.293670245775
 20
765.5945851823322
 30
0.0
 10
1905.353713729296
 20
765.7014210441818
 30
0.0
 10
1905.451596375652
 20
765.8591736498387
 30
0.0
 10
1905.557498287327
 20
766.0194864203496
 30
0.0
 10
1905.671909957774
 20
766.1818924532706
 30
0.0
 10
1905.794692267347
 20
766.3465313213918
 30
0.0
 10
1905.925886513718
 20
766.5133680446311
 30
0.0
 10
1906.065482569534
 20
766.6824165224983
 30
0.0
 10
1906.213484788919
 20
766.8536762878566
 30
0.0
 10
1906.369894153983
 20
767.0271487470159
 30
0.0
 10
1906.675559294616
 20
767.3529856447726
 30
0.0
 10
1907.162048302983
 20
767.8292474096183
 30
0.0
 10
1907.86029381498
 20
768.4490629118777
 30
0.0
 10
1908.360856894549
 20
768.8485665339214
 30
0.0
 10
1908.623928274121
 20
769.058526024113
 30
0.0
  0
LINE
  5
B3F
330
A9C
100
AcDbEntity
  8
0
  6
Continuous
 62
     7
370
    15
100
AcDbLine
 10
1911.106930531088
 20
768.4232980058807
 30
0.0
 11
1911.088328030286
 21
768.4604360662635
 31
0.0
  0
ARC
  5
B40
330
A9C
100
AcDbEntity
  8
0
  6
Continuous
 62
     7
370
    15
100
AcDbCircle
 10
1908.060294091416
 20
788.8937826674487
 30
0.0
 40
1.168849133946366
100
AcDbArc
 50
152.9715999204585
 51
206.2086376867361
  0
LWPOLYLINE
  5
B41
330
A9C
100
AcDbEntity
  8
0
  6
Continuous
 62
     7
370
    15
100
AcDbPolyline
 90
        3
 70
   128
 43
0.0
 10
1910.858936134587
 20
787.2694522116037
 10
1910.873521868131
 20
787.295732392801
 10
1910.877909312473
 20
787.305781937144
  0
LINE
  5
B42
330
A9C
100
AcDbEntity
  8
0
  6
Continuous
 62
     7
370
    15
100
AcDbLine
 10
1906.676718841414
 20
758.0732668890544
 30
0.0
 11
1910.207071681374
 21
760.9812116531758
 31
0.0
  0
ARC
  5
B43
330
A9C
100
AcDbEntity
  8
0
  6
Continuous
 62
     7
370
    15
100
AcDbCircle
 10
1906.457644174328
 20
768.4108734879348
 30
0.0
 40
2.261023848449283
100
AcDbArc
 50
347.5825936991492
 51
16.64504544895538
  0
SPLINE
  5
B44
330
A9C
100
AcDbEntity
  8
0
  6
Continuous
 62
     7
370
    15
100
AcDbSpline
210
0.0
220
0.0
230
1.0
 70
     8
 71
     3
 72
    10
 73
     6
 74
     0
 42
0.0000000001
 43
0.0000000001
 40
0.0
 40
0.0
 40
0.0
 40
0.0
 40
0.5
 40
0.5
 40
1.0
 40
1.0
 40
1.0
 40
1.0
 10
1908.665779063175
 20
767.9246781283525
 30
0.0
 10
1907.511934954351
 20
767.1346348501116
 30
0.0
 10
1906.707599840801
 20
766.4756481661912
 30
0.0
 10
1905.621001211526
 20
765.3842821630203
 30
0.0
 10
1905.337342486196
 20
764.9514543968649
 30
0.0
 10
1905.226865822367
 20
764.6053182410772
 30
0.0
  0
LWPOLYLINE
  5
B45
330
A9C
100
AcDbEntity
  8
0
  6
Continuous
 62
     7
370
    15
100
AcDbPolyline
 90
        3
 70
   128
 43
0.0
 10
1907.564911538867
 20
787.9156295077146
 10
1907.579497272411
 20
787.9419096889122
 10
1907.583884716753
 20
787.9519592332551
  0
ARC
  5
B46
330
A9C
100
AcDbEntity
  8
0
  6
Continuous
 62
     7
370
    15
100
AcDbCircle
 10
1917.048205707688
 20
741.1384892210654
 30
0.0
 40
0.727516045347672
100
AcDbArc
 50
128.0623531183804
 51
191.9427645359852
  0
LINE
  5
B47
330
A9C
100
AcDbEntity
  8
0
  6
Continuous
 62
     7
370
    15
100
AcDbLine
 10
1917.976359213182
 20
731.5136421115099
 30
0.0
 11
1916.336436888661
 21
740.9879410742834
 31
0.0
  0
LWPOLYLINE
  5
B48
330
A9C
100
AcDbEntity
  8
0
  6
Continuous
 62
     7
370
    15
100
AcDbPolyline
 90
        9
 70
   128
 43
0.0
 10
1918.244780452599
 20
731.2843091292435
 10
1918.199801893807
 20
731.2698025623939
 10
1918.155955573976
 20
731.2684097826509
 10
1918.114413877675
 20
731.2801698673817
 10
1918.076285184248
 20
731.3047648441653
 10
1918.042589046113
 20
731.3415366304766
 10
1918.014225161639
 20
731.3895082082931
 10
1917.991950686219
 20
731.4473873220734
 10
1917.976359213182
 20
731.5136421115099
  0
LINE
  5
B49
330
A9C
100
AcDbEntity
  8
0
  6
Continuous
 62
     7
370
    15
100
AcDbLine
 10
1919.822428958486
 20
732.0167732168759
 30
0.0
 11
1918.244780452599
 21
731.2843091292435
 31
0.0
  0
LINE
  5
B4A
330
A9C
100
AcDbEntity
  8
0
  6
Continuous
 62
     7
370
    15
100
AcDbLine
 10
1919.828036212487
 20
730.985030471677
 30
0.0
 11
1919.822428958486
 21
732.0167732168759
 31
0.0
  0
LINE
  5
B4B
330
A9C
100
AcDbEntity
  8
0
  6
Continuous
 62
     7
370
    15
100
AcDbLine
 10
1915.915110980671
 20
729.1683538170233
 30
0.0
 11
1919.828036212487
 21
730.985030471677
 31
0.0
  0
LWPOLYLINE
  5
B4C
330
A9C
100
AcDbEntity
  8
0
  6
Continuous
 62
     7
370
    15
100
AcDbPolyline
 90
        9
 70
   128
 43
0.0
 10
1915.079642465066
 20
730.2130988755134
 10
1915.097061918153
 20
729.9416931306141
 10
1915.145621248568
 20
729.6954828473211
 10
1915.223451351798
 20
729.4839397212107
 10
1915.327563253189
 20
729.3151758370812
 10
1915.453954564565
 20
729.1956942242833
 10
1915.597771943978
 20
729.1300729055949
 10
1915.753484847607
 20
729.1208463194266
 10
1915.915110980671
 20
729.1683538170233
  0
LINE
  5
B4D
330
A9C
100
AcDbEntity
  8
0
  6
Continuous
 62
     7
370
    15
100
AcDbLine
 10
1915.0688576552
 20
732.1975192950588
 30
0.0
 11
1915.079642465066
 21
730.2130988755134
 31
0.0
  0
ARC
  5
B4E
330
A9C
100
AcDbEntity
  8
0
  6
Continuous
 62
     7
370
    15
100
AcDbCircle
 10
1915.757584097779
 20
732.250110200733
 30
0.0
 40
0.6907314355577763
100
AcDbArc
 50
126.9709194912319
 51
184.366611518698
  0
LINE
  5
B4F
330
A9C
100
AcDbEntity
  8
0
  6
Continuous
 62
     7
370
    15
100
AcDbLine
 10
1915.696627667725
 20
732.9665291640324
 30
0.0
 11
1915.342171583002
 21
732.8019637670292
 31
0.0
  0
ARC
  5
B50
330
A9C
100
AcDbEntity
  8
0
  6
Continuous
 62
     7
370
    15
100
AcDbCircle
 10
1915.764153526045
 20
732.8036186064056
 30
0.0
 40
0.1763507621986962
100
AcDbArc
 50
11.66698089113084
 51
112.5138363936228
  0
LINE
  5
B51
330
A9C
100
AcDbEntity
  8
0
  6
Continuous
 62
     7
370
    15
100
AcDbLine
 10
1915.936860795568
 20
732.8392807765871
 30
0.0
 11
1916.244417576993
 21
732.074745613449
 31
0.0
  0
LWPOLYLINE
  5
B52
330
A9C
100
AcDbEntity
  8
0
  6
Continuous
 62
     7
370
    15
100
AcDbPolyline
 90
       12
 70
   128
 43
0.0
 10
1916.252183930078
 20
730.6457255529087
 10
1916.135430043789
 20
730.6205312730851
 10
1916.027821874168
 20
730.6552725548554
 10
1915.938075497638
 20
730.747122054039
 10
1915.873462707311
 20
730.8886396441928
 10
1915.839214289222
 20
731.068363518107
 10
1915.838109009483
 20
731.2717365686547
 10
1915.870236441584
 20
731.48227714627
 10
1915.932989598365
 20
731.6829347846435
 10
1916.02128841025
 20
731.85743924755
 10
1916.127978239461
 20
731.9916739130555
 10
1916.244417576993
 20
732.074745613449
  0
LINE
  5
B53
330
A9C
100
AcDbEntity
  8
0
  6
Continuous
 62
     7
370
    15
100
AcDbLine
 10
1916.252183930078
 20
730.6457255529087
 30
0.0
 11
1916.942096038103
 21
730.9660350774104
 31
0.0
  0
ARC
  5
B54
330
A9C
100
AcDbEntity
  8
0
  6
Continuous
 62
     7
370
    15
100
AcDbCircle
 10
1916.493576478662
 20
731.5388335356939
 30
0.0
 40
0.7275079855323287
100
AcDbArc
 50
308.0620829228454
 51
11.94266797749786
  0
LINE
  5
B55
330
A9C
100
AcDbEntity
  8
0
  6
Continuous
 62
     7
370
    15
100
AcDbLine
 10
1915.651536570894
 20
740.6661300217115
 30
0.0
 11
1917.205337666039
 21
731.6893788151173
 31
0.0
  0
ARC
  5
B56
330
A9C
100
AcDbEntity
  8
0
  6
Continuous
 62
     7
370
    15
100
AcDbCircle
 10
1919.147927279711
 20
741.1830104401148
 30
0.0
 40
3.534390096697138
100
AcDbArc
 50
157.7406371194341
 51
188.4092751466224
  0
LWPOLYLINE
  5
B57
330
A9C
100
AcDbEntity
  8
0
  6
Continuous
 62
     7
370
    15
100
AcDbPolyline
 90
        8
 70
   128
 43
0.0
 10
1919.386805725338
 20
744.0974793750661
 10
1919.415307960738
 20
744.091926165853
 10
1919.511185554191
 20
744.0481735699099
 10
1919.595447785994
 20
743.9685221636397
 10
1919.664855022191
 20
743.8560149554423
 10
1919.716741796254
 20
743.7149791066619
 10
1919.74911465748
 20
743.5508436498268
 10
1919.760727600487
 20
743.3699112185871
  0
LINE
  5
B58
330
A9C
100
AcDbEntity
  8
0
  6
Continuous
 62
     7
370
    15
100
AcDbLine
 10
1919.81283934903
 20
733.7812750539447
 30
0.0
 11
1919.760727600487
 21
743.3699112185871
 31
0.0
  0
LINE
  5
B59
330
A9C
100
AcDbEntity
  8
0
  6
Continuous
 62
     7
370
    15
100
AcDbLine
 10
1919.426578768979
 20
733.6019435981103
 30
0.0
 11
1919.81283934903
 21
733.7812750539447
 31
0.0
  0
LWPOLYLINE
  5
B5A
330
A9C
100
AcDbEntity
  8
0
  6
Continuous
 62
     7
370
    15
100
AcDbPolyline
 90
        9
 70
   128
 43
0.0
 10
1919.426578768979
 20
733.6019435981103
 10
1919.372702731803
 20
733.5861027154269
 10
1919.32079910294
 20
733.5891809282875
 10
1919.272859316981
 20
733.6110496510322
 10
1919.230728181791
 20
733.6508789031873
 10
1919.196025572213
 20
733.7071365334927
 10
1919.170082204469
 20
733.7776509088627
 10
1919.153895773857
 20
733.8597186372805
 10
1919.148089302353
 20
733.9501848529002
  0
LINE
  5
B5B
330
A9C
100
AcDbEntity
  8
0
  6
Continuous
 62
     7
370
    15
100
AcDbLine
 10
1919.102190643993
 20
742.3956035495025
 30
0.0
 11
1919.148089302353
 21
733.9501848529002
 31
0.0
  0
LWPOLYLINE
  5
B5C
330
A9C
100
AcDbEntity
  8
0
  6
Continuous
 62
     7
370
    15
100
AcDbPolyline
 90
        9
 70
   128
 43
0.0
 10
1918.823701138791
 20
742.7438519023326
 10
1918.877577175967
 20
742.7596927850162
 10
1918.92948080483
 20
742.7566145721556
 10
1918.977420629365
 20
742.7347387513705
 10
1919.019551764555
 20
742.6949094992152
 10
1919.054254335557
 20
742.6386589669501
 10
1919.0801977033
 20
742.5681445915802
 10
1919.096384172489
 20
742.4860697651222
 10
1919.102190643993
 20
742.3956035495025
  0
LINE
  5
B5D
330
A9C
100
AcDbEntity
  8
0
  6
Continuous
 62
     7
370
    15
100
AcDbLine
 10
1916.599678478021
 20
741.7112919100308
 30
0.0
 11
1918.823701138791
 21
742.7438519023326
 31
0.0
  0
ARC
  5
B5E
330
A9C
100
AcDbEntity
  8
0
  6
Continuous
 62
     7
370
    15
100
AcDbCircle
 10
1913.818779064234
 20
765.5923654605174
 30
0.0
 40
5.656247632365287
100
AcDbArc
 50
155.6478811764031
 51
204.9748880698955
  0
SPLINE
  5
B5F
330
A9C
100
AcDbEntity
  8
0
  6
Continuous
 62
     7
370
    15
100
AcDbSpline
210
0.0
220
0.0
230
1.0
 70
     8
 71
     3
 72
    10
 73
     6
 74
     0
 42
0.0000000001
 43
0.0000000001
 40
0.0
 40
0.0
 40
0.0
 40
0.0
 40
0.5
 40
0.5
 40
1.0
 40
1.0
 40
1.0
 40
1.0
 10
1905.230231000908
 20
763.9861205828916
 30
0.0
 10
1905.344021775812
 20
763.7224555693835
 30
0.0
 10
1905.631244180813
 20
763.4995611834173
 30
0.0
 10
1906.725347154853
 20
763.2101170318422
 30
0.0
 10
1907.533622232466
 20
763.1441446998929
 30
0.0
 10
1908.691433746566
 20
763.2041797410184
 30
0.0
  0
ARC
  5
B60
330
A9C
100
AcDbEntity
  8
0
  6
Continuous
 62
     7
370
    15
100
AcDbCircle
 10
1904.907068965503
 20
762.5269833159165
 30
0.0
 40
3.844474840555341
100
AcDbArc
 50
347.7395137207177
 51
10.14545734309354
  0
SPLINE
  5
B61
330
A9C
100
AcDbEntity
  8
0
  6
Continuous
 62
     7
370
    15
100
AcDbSpline
210
0.0
220
0.0
230
1.0
 70
     8
 71
     3
 72
    20
 73
    16
 74
     0
 42
0.0000000001
 43
0.0000000001
 40
0.0
 40
0.0
 40
0.0
 40
0.0
 40
0.0960224328455691
 40
0.1881256335356602
 40
0.2763422374351505
 40
0.3607093903335603
 40
0.4412695630694114
 40
0.5180715424234559
 40
0.5911716401839433
 40
0.6715928545837824
 40
0.7468605863106004
 40
0.8171260342308269
 40
0.8825750748802942
 40
0.9434377291998135
 40
1.0
 40
1.0
 40
1.0
 40
1.0
 10
1908.663862451098
 20
761.7105804211876
 30
0.0
 10
1908.547220250277
 20
761.726468917823
 30
0.0
 10
1908.318696693061
 20
761.7575974094355
 30
0.0
 10
1907.98551815112
 20
761.8144856690115
 30
0.0
 10
1907.668515540866
 20
761.8777743262376
 30
0.0
 10
1907.367838601291
 20
761.9481714583059
 30
0.0
 10
1907.083446721779
 20
762.0254989724066
 30
0.0
 10
1906.815344978922
 20
762.1098022293307
 30
0.0
 10
1906.55095289702
 20
762.2056279321599
 30
0.0
 10
1906.292764152349
 20
762.3144179305419
 30
0.0
 10
1906.043644185852
 20
762.4383198876699
 30
0.0
 10
1905.817661833589
 20
762.5711390770951
 30
0.0
 10
1905.615236267894
 20
762.7136155534348
 30
0.0
 10
1905.434893439555
 20
762.8633935712314
 30
0.0
 10
1905.328971984923
 20
762.9774496280099
 30
0.0
 10
1905.277950806972
 20
763.0323891526751
 30
0.0
  0
ARC
  5
B62
330
A9C
100
AcDbEntity
  8
0
  6
Continuous
 62
     7
370
    15
100
AcDbCircle
 10
1906.890480629912
 20
743.5875109237128
 30
0.0
 40
3.534390096697118
100
AcDbArc
 50
157.7406371194341
 51
188.4092751466224
  0
LINE
  5
B63
330
A9C
100
AcDbEntity
  8
0
  6
Continuous
 62
     7
370
    15
100
AcDbLine
 10
1903.394089921095
 20
743.0706305053097
 30
0.0
 11
1915.651536570894
 21
740.6661300217115
 31
0.0
  0
SPLINE
  5
B64
330
A9C
100
AcDbEntity
  8
0
  6
Continuous
 62
     7
370
    15
100
AcDbSpline
210
0.0
220
0.0
230
1.0
 70
     8
 71
     3
 72
    20
 73
    16
 74
     0
 42
0.0000000001
 43
0.0000000001
 40
0.0
 40
0.0
 40
0.0
 40
0.0
 40
0.0429160637858854
 40
0.085229447211114
 40
0.1270342615701776
 40
0.1684280870878856
 40
0.2095114326073784
 40
0.2503870973462787
 40
0.3765345168120724
 40
0.5004817269620804
 40
0.6255032801784428
 40
0.7501151685782813
 40
0.8329397163600853
 40
0.9158328780717468
 40
1.0
 40
1.0
 40
1.0
 40
1.0
 10
1911.113073376381
 20
763.9071030492812
 30
0.0
 10
1911.091831860395
 20
763.8515285054077
 30
0.0
 10
1911.049647128019
 20
763.7411598640299
 30
0.0
 10
1910.980745627591
 20
763.5800570375006
 30
0.0
 10
1910.908322989515
 20
763.4238954468927
 30
0.0
 10
1910.831958923159
 20
763.2728902273314
 30
0.0
 10
1910.751753626025
 20
763.1269797339382
 30
0.0
 10
1910.609267033359
 20
762.8882990704575
 30
0.0
 10
1910.389673083152
 20
762.5772436138069
 30
0.0
 10
1910.072323742344
 20
762.2374226196742
 30
0.0
 10
1909.731003117337
 20
761.9705317540385
 30
0.0
 10
1909.413333768024
 20
761.8087544213383
 30
0.0
 10
1909.134482584082
 20
761.7255144853943
 30
0.0
 10
1908.895891257727
 20
761.6923727194902
 30
0.0
 10
1908.74159758837
 20
761.7044804105404
 30
0.0
 10
1908.663862451098
 20
761.7105804211876
 30
0.0
  0
LINE
  5
B65
330
A9C
100
AcDbEntity
  8
0
  6
Continuous
 62
     7
370
    15
100
AcDbLine
 10
1911.113074229849
 20
763.9071000009959
 30
0.0
 11
1911.131208109324
 21
763.9561889341234
 31
0.0
  0
LINE
  5
B66
330
A9C
100
AcDbEntity
  8
0
  6
Continuous
 62
     7
370
    15
100
AcDbLine
 10
1911.139587512305
 20
762.4143668172064
 30
0.0
 11
1911.131208109324
 21
763.9561889341234
 31
0.0
  0
LINE
  5
B67
330
A9C
100
AcDbEntity
  8
0
  6
Continuous
 62
     7
370
    15
100
AcDbLine
 10
1910.796654699545
 20
761.7397217723497
 30
0.0
 11
1911.139587512305
 21
762.4143668172064
 31
0.0
  0
ELLIPSE
  5
B68
330
A9C
100
AcDbEntity
  8
0
  6
Continuous
 62
     7
370
    15
100
AcDbEllipse
 10
1909.719300566327
 20
762.6161591158473
 30
0.0
 11
0.5725046929204613
 21
1.921677812873781
 31
0.0
210
0.0
220
0.0
230
1.0
 40
0.6635410289970828
 41
3.920075639465404
 42
4.443674415066756
  0
LINE
  5
B69
330
A9C
100
AcDbEntity
  8
0
  6
Continuous
 62
     7
370
    15
100
AcDbLine
 10
1906.424059572409
 20
735.5726544559205
 30
0.0
 11
1906.559062532457
 21
734.7927049414111
 31
0.0
  0
LINE
  5
B6A
330
A9C
100
AcDbEntity
  8
0
  6
Continuous
 62
     7
370
    15
100
AcDbLine
 10
1906.424059572409
 20
735.5726544559205
 30
0.0
 11
1904.631045846744
 21
735.9243836939612
 31
0.0
  0
LINE
  5
B6B
330
A9C
100
AcDbEntity
  8
0
  6
Continuous
 62
     7
370
    15
100
AcDbLine
 10
1903.394089921095
 20
743.0706305053097
 30
0.0
 11
1904.631045846744
 21
735.9243836939612
 31
0.0
  0
ARC
  5
B6C
330
A9C
100
AcDbEntity
  8
0
  6
Continuous
 62
     7
370
    15
100
AcDbCircle
 10
1903.500137447981
 20
734.6546106843312
 30
0.0
 40
0.6907314355576454
100
AcDbArc
 50
126.9709194912215
 51
184.3666115187111
  0
LINE
  5
B6D
330
A9C
100
AcDbEntity
  8
0
  6
Continuous
 62
     7
370
    15
100
AcDbLine
 10
1903.084724933203
 20
735.2064642506274
 30
0.0
 11
1915.342171583002
 21
732.8019637670292
 31
0.0
  0
LINE
  5
B6E
330
A9C
100
AcDbEntity
  8
0
  6
Continuous
 62
     7
370
    15
100
AcDbLine
 10
1915.0688576552
 20
732.1975192950588
 30
0.0
 11
1902.811411005401
 21
734.6020197786571
 31
0.0
  0
LINE
  5
B6F
330
A9C
100
AcDbEntity
  8
0
  6
Continuous
 62
     7
370
    15
100
AcDbLine
 10
1902.811411005401
 20
734.6020197786571
 30
0.0
 11
1902.822195815267
 21
732.6175993591116
 31
0.0
  0
LINE
  5
B70
330
A9C
100
AcDbEntity
  8
0
  6
Continuous
 62
     7
370
    15
100
AcDbLine
 10
1915.079642465066
 20
730.2130988755134
 30
0.0
 11
1902.822195815267
 21
732.6175993591116
 31
0.0
  0
LINE
  5
B71
330
A9C
100
AcDbEntity
  8
0
  6
Continuous
 62
     7
370
    15
100
AcDbLine
 10
1904.631045846744
 20
735.9243836939612
 30
0.0
 11
1903.084724933203
 21
735.2064642506274
 31
0.0
  0
LINE
  5
B72
330
A9C
100
AcDbEntity
  8
0
  6
Continuous
 62
     7
370
    15
100
AcDbLine
 10
1905.232194743592
 20
735.0193004095897
 30
0.0
 11
1906.424059572409
 21
735.5726544559205
 31
0.0
  0
LINE
  5
B73
330
A9C
100
AcDbEntity
  8
0
  6
Continuous
 62
     7
370
    15
100
AcDbLine
 10
1915.696627667725
 20
732.9665291640324
 30
0.0
 11
1905.232194743592
 21
735.0193004095897
 31
0.0
  0
ARC
  5
B74
330
A9C
100
AcDbEntity
  8
0
  6
Continuous
 62
     7
370
    15
100
AcDbCircle
 10
1907.845893287201
 20
771.3413220531274
 30
0.0
 40
4.337382520884316
100
AcDbArc
 50
297.4079648520984
 51
318.3790807448667
  0
SPLINE
  5
B75
330
A9C
100
AcDbEntity
  8
0
  6
Continuous
 62
     7
370
    15
100
AcDbSpline
210
0.0
220
0.0
230
1.0
 70
     8
 71
     3
 72
    14
 73
    10
 74
     0
 42
0.0000000001
 43
0.0000000001
 40
0.0
 40
0.0
 40
0.0
 40
0.0
 40
0.25
 40
0.25
 40
0.5
 40
0.5
 40
0.75
 40
0.75
 40
1.0
 40
1.0
 40
1.0
 40
1.0
 10
1909.842491438094
 20
767.4908075069467
 30
0.0
 10
1909.792492400146
 20
767.6527221730565
 30
0.0
 10
1909.729978496956
 20
767.7889507879597
 30
0.0
 10
1909.572345075365
 20
768.0056255299605
 30
0.0
 10
1909.480365204285
 20
768.0813947756192
 30
0.0
 10
1909.269537491933
 20
768.1624096912361
 30
0.0
 10
1909.153853280075
 20
768.1659142690699
 30
0.0
 10
1908.911159770648
 20
768.0981575469917
 30
0.0
 10
1908.787203387216
 20
768.0278164524683
 30
0.0
 10
1908.665779063175
 20
767.924678128352
 30
0.0
  0
LWPOLYLINE
  5
B76
330
A9C
100
AcDbEntity
  8
0
  6
Continuous
 62
     7
370
    15
100
AcDbPolyline
 90
        8
 70
   128
 43
0.0
 10
1902.822195815267
 20
732.6175993591116
 10
1902.839615268355
 20
732.3461936142122
 10
1902.888174598769
 20
732.0999833309191
 10
1902.966004701999
 20
731.8884402048088
 10
1903.070116603391
 20
731.7196763206793
 10
1903.196507914767
 20
731.6001947078813
 10
1903.340325294179
 20
731.5345733891929
 10
1903.361150205801
 20
731.529931716701
  0
ARC
  5
B77
330
A9C
100
AcDbEntity
  8
0
  6
Continuous
 62
     7
370
    15
100
AcDbCircle
 10
1905.303259673375
 20
734.8769121275354
 30
0.0
 40
0.1591371958764443
100
AcDbArc
 50
79.94959618570589
 51
116.5234413155186
  0
ELLIPSE
  5
B78
330
A9C
100
AcDbEntity
  8
0
  6
Continuous
 62
     7
370
    15
100
AcDbEllipse
 10
1911.866130134016
 20
762.011615565827
 30
0.0
 11
0.6612207507293988
 21
1.352911717429662
 31
0.0
210
0.0
220
0.0
230
1.0
 40
0.5511420325209732
 41
1.531762071667293
 42
1.542356972322211
  0
ARC
  5
B79
330
A9C
100
AcDbEntity
  8
0
  6
Continuous
 62
     7
370
    15
100
AcDbCircle
 10
1914.71680665188
 20
766.001520785358
 30
0.0
 40
5.096755700813663
100
AcDbArc
 50
163.01014807866
 51
197.6126211676471
  0
SPLINE
  5
B7A
330
A9C
100
AcDbEntity
  8
0
  6
Continuous
 62
     7
370
    15
100
AcDbSpline
210
0.0
220
0.0
230
1.0
 70
     8
 71
     3
 72
    14
 73
    10
 74
     0
 42
0.0000000001
 43
0.0000000001
 40
0.0
 40
0.0
 40
0.0
 40
0.0
 40
0.25
 40
0.25
 40
0.5
 40
0.5
 40
0.75
 40
0.75
 40
1.0
 40
1.0
 40
1.0
 40
1.0
 10
1908.691433746566
 20
763.2041797410182
 30
0.0
 10
1908.813342546773
 20
763.1731589472458
 30
0.0
 10
1908.936559878623
 20
763.1787552415816
 30
0.0
 10
1909.180116394372
 20
763.2667855224569
 30
0.0
 10
1909.294449337518
 20
763.3470488321927
 30
0.0
 10
1909.504325672253
 20
763.5766819151095
 30
0.0
 10
1909.595774483697
 20
763.7221659928077
 30
0.0
 10
1909.749860377272
 20
764.0618815829136
 30
0.0
 10
1909.810896428919
 20
764.2519199174795
 30
0.0
 10
1909.85896663085
 20
764.4593485079117
 30
0.0
  0
SPLINE
  5
B7B
330
A9C
100
AcDbEntity
  8
0
  6
Continuous
 62
     7
370
    15
100
AcDbSpline
210
0.0
220
0.0
230
1.0
 70
     8
 71
     3
 72
     8
 73
     4
 74
     0
 42
0.0000000001
 43
0.0000000001
 40
0.0
 40
0.0
 40
0.0
 40
0.0
 40
1.0
 40
1.0
 40
1.0
 40
1.0
 10
1911.403142655271
 20
762.765949297511
 30
0.0
 10
1911.295558122718
 20
762.6694132194512
 30
0.0
 10
1911.212581319635
 20
762.5560139750413
 30
0.0
 10
1911.146855314462
 20
762.4285610074456
 30
0.0
  0
SPLINE
  5
B7C
330
A9C
100
AcDbEntity
  8
0
  6
Continuous
 62
     7
370
    15
100
AcDbSpline
210
0.0
220
0.0
230
1.0
 70
     8
 71
     3
 72
    10
 73
     6
 74
     0
 42
0.0000000001
 43
0.0000000001
 40
0.0
 40
0.0
 40
0.0
 40
0.0
 40
0.5
 40
0.5
 40
1.0
 40
1.0
 40
1.0
 40
1.0
 10
1911.403142655271
 20
762.765949297511
 30
0.0
 10
1911.538618381466
 20
762.8875122672873
 30
0.0
 10
1911.672021729714
 20
762.9995800006041
 30
0.0
 10
1911.929306353168
 20
763.2038740705366
 30
0.0
 10
1912.046590483083
 20
763.2907632456387
 30
0.0
 10
1912.148276144102
 20
763.3608235273031
 30
0.0
  0
ARC
  5
B7D
330
A9C
100
AcDbEntity
  8
0
  6
Continuous
 62
     7
370
    15
100
AcDbCircle
 10
1912.703359909401
 20
762.561273969304
 30
0.0
 40
0.9733417471912966
100
AcDbArc
 50
115.1234652521622
 51
124.7699862338716
  0
ARC
  5
B7E
330
A9C
100
AcDbEntity
  8
0
  6
Continuous
 62
     7
370
    15
100
AcDbCircle
 10
1902.92841341135
 20
747.0204569009458
 30
0.0
 40
18.76559052900643
100
AcDbArc
 50
64.14134264772124
 51
68.32616620923609
  0
LINE
  5
B7F
330
A9C
100
AcDbEntity
  8
0
  6
Continuous
 62
     7
370
    15
100
AcDbLine
 10
1914.00166677963
 20
763.979652427933
 30
0.0
 11
1912.939228727116
 21
764.1880671886942
 31
0.0
  0
LINE
  5
B80
330
A9C
100
AcDbEntity
  8
0
  6
Continuous
 62
     7
370
    15
100
AcDbLine
 10
1912.91636098619
 20
768.3957641817706
 30
0.0
 11
1912.939228727116
 21
764.1880671886942
 31
0.0
  0
ARC
  5
B81
330
A9C
100
AcDbEntity
  8
0
  6
Continuous
 62
     7
370
    15
100
AcDbCircle
 10
1907.877746920074
 20
771.3256932848659
 30
0.0
 40
4.341834306963198
100
AcDbArc
 50
297.236665545851
 51
318.050746772574
  0
SPLINE
  5
B82
330
A9C
100
AcDbEntity
  8
0
  6
Continuous
 62
     7
370
    15
100
AcDbSpline
210
0.0
220
0.0
230
1.0
 70
     8
 71
     3
 72
    18
 73
    14
 74
     0
 42
0.0000000001
 43
0.0000000001
 40
0.0
 40
0.0
 40
0.0
 40
0.0
 40
0.25
 40
0.25
 40
0.5
 40
0.5
 40
0.5625
 40
0.5625
 40
0.625
 40
0.625
 40
0.75
 40
0.75
 40
1.0
 40
1.0
 40
1.0
 40
1.0
 10
1911.106930289576
 20
768.4233011027814
 30
0.0
 10
1911.146424949446
 20
768.0842960484357
 30
0.0
 10
1911.188441854173
 20
767.7439467635723
 30
0.0
 10
1911.266161483689
 20
767.0312156781013
 30
0.0
 10
1911.303372104522
 20
766.6508225151785
 30
0.0
 10
1911.30654580634
 20
766.1416457180527
 30
0.0
 10
1911.304987495823
 20
766.0378215055482
 30
0.0
 10
1911.298304736168
 20
765.8359659139952
 30
0.0
 10
1911.293234816681
 20
765.73663320749
 30
0.0
 10
1911.274668548777
 20
765.4418167098692
 30
0.0
 10
1911.257974600139
 20
765.2491885016257
 30
0.0
 10
1911.20541498905
 20
764.6848938667318
 30
0.0
 10
1911.167031538213
 20
764.3211454532846
 30
0.0
 10
1911.131207869108
 20
763.9561917924901
 30
0.0
  0
ARC
  5
B83
330
A9C
100
AcDbEntity
  8
0
  6
Continuous
 62
     7
370
    15
100
AcDbCircle
 10
1902.667701234207
 20
746.0494703709708
 30
0.0
 40
19.80609800857086
100
AcDbArc
 50
64.7025113012722
 51
68.64189117558041
  0
SPLINE
  5
B84
330
A9C
100
AcDbEntity
  8
0
  6
Continuous
 62
     7
370
    15
100
AcDbSpline
210
0.0
220
0.0
230
1.0
 70
     8
 71
     3
 72
    12
 73
     8
 74
     0
 42
0.0000000001
 43
0.0000000001
 40
0.0
 40
0.0
 40
0.0
 40
0.0
 40
0.4999999999999913
 40
0.4999999999999913
 40
0.7499999999999957
 40
0.7499999999999957
 40
1.0
 40
1.0
 40
1.0
 40
1.0
 10
1909.881005144819
 20
764.4953340757163
 30
0.0
 10
1910.058897733961
 20
764.7872412456294
 30
0.0
 10
1910.243692511533
 20
765.0693905386305
 30
0.0
 10
1910.490930836233
 20
765.4812441311559
 30
0.0
 10
1910.568621351453
 20
765.6177335991623
 30
0.0
 10
1910.68547089175
 20
765.8855299257724
 30
0.0
 10
1910.72359531106
 20
766.0193234260908
 30
0.0
 10
1910.722932151794
 20
766.1472637582797
 30
0.0
  0
SPLINE
  5
B85
330
A9C
100
AcDbEntity
  8
0
  6
Continuous
 62
     7
370
    15
100
AcDbSpline
210
0.0
220
0.0
230
1.0
 70
     8
 71
     3
 72
    10
 73
     6
 74
     0
 42
0.0000000001
 43
0.0000000001
 40
0.0
 40
0.0
 40
0.0
 40
0.0
 40
0.5
 40
0.5
 40
1.0
 40
1.0
 40
1.0
 40
1.0
 10
1910.722931855925
 20
766.1472637242836
 30
0.0
 10
1910.721599108588
 20
766.4043846716658
 30
0.0
 10
1910.567917802568
 20
766.6267404396692
 30
0.0
 10
1910.233113373224
 20
767.0516423612305
 30
0.0
 10
1910.045621174728
 20
767.2574396251746
 30
0.0
 10
1909.864863631693
 20
767.4652676211044
 30
0.0
  0
SPLINE
  5
B86
330
A9C
100
AcDbEntity
  8
0
  6
Continuous
 62
     7
370
    15
100
AcDbSpline
210
0.0
220
0.0
230
1.0
 70
     8
 71
     3
 72
     8
 73
     4
 74
     0
 42
0.0000000001
 43
0.0000000001
 40
0.0
 40
0.0
 40
0.0
 40
0.0
 40
1.0
 40
1.0
 40
1.0
 40
1.0
 10
1909.864863631693
 20
767.4652676211044
 30
0.0
 10
1909.85744153329
 20
767.4738012611036
 30
0.0
 10
1909.849983774495
 20
767.4823143118117
 30
0.0
 10
1909.842491438094
 20
767.4908075069467
 30
0.0
  0
LINE
  5
B87
330
A9C
100
AcDbEntity
  8
0
  6
Continuous
 62
     7
370
    15
100
AcDbLine
 10
1912.600118528532
 20
763.5864631360947
 30
0.0
 11
1912.290107951547
 21
763.4425327145967
 31
0.0
  0
LINE
  5
B88
330
A9C
100
AcDbEntity
  8
0
  6
Continuous
 62
     7
370
    15
100
AcDbLine
 10
1912.600118528532
 20
763.5864631360947
 30
0.0
 11
1914.022348587729
 21
763.3074692344417
 31
0.0
  0
SPLINE
  5
B89
330
A9C
100
AcDbEntity
  8
0
  6
Continuous
 62
     7
370
    15
100
AcDbSpline
210
0.0
220
0.0
230
1.0
 70
     8
 71
     3
 72
     8
 73
     4
 74
     0
 42
0.0000000001
 43
0.0000000001
 40
0.0
 40
0.0
 40
0.0
 40
0.0
 40
1.0
 40
1.0
 40
1.0
 40
1.0
 10
1909.85896663085
 20
764.4593485079117
 30
0.0
 10
1909.866347620886
 20
764.4713432028383
 30
0.0
 10
1909.873693922751
 20
764.4833383867137
 30
0.0
 10
1909.881004448076
 20
764.4953343522256
 30
0.0
  0
LINE
  5
B8A
330
A9C
100
AcDbEntity
  8
0
  6
Continuous
 62
     7
370
    15
100
AcDbLine
 10
1912.939228727116
 20
764.1880671886942
 30
0.0
 11
1912.600118528532
 21
763.5864631360947
 31
0.0
  0
LWPOLYLINE
  5
B8B
330
A9C
100
AcDbEntity
  8
0
  6
Continuous
 62
     7
370
    15
100
AcDbPolyline
 90
        9
 70
   128
 43
0.0
 10
1941.641901060272
 20
746.6742610751103
 10
1941.749651117584
 20
746.7059347880641
 10
1941.853459917022
 20
746.6997790781227
 10
1941.9493374719
 20
746.6560335802196
 10
1942.033599228375
 20
746.5763748373159
 10
1942.103006978476
 20
746.4638678677122
 10
1942.154894227867
 20
746.3228393555652
 10
1942.18726609986
 20
746.1586963235032
 10
1942.198878528964
 20
745.9777636536705
  0
LINE
  5
B8C
330
A9C
100
AcDbEntity
  8
0
  6
Continuous
 62
     7
370
    15
100
AcDbLine
 10
1941.641901060272
 20
746.6742610751103
 30
0.0
 11
1922.306813791722
 21
737.6974400474437
 31
0.0
  0
ARC
  5
B8D
330
A9C
100
AcDbEntity
  8
0
  6
Continuous
 62
     7
370
    15
100
AcDbCircle
 10
1922.722202509433
 20
737.1456014531282
 30
0.0
 40
0.6907051621190519
100
AcDbArc
 50
126.9700892888156
 51
184.3673139089526
  0
LINE
  5
B8E
330
A9C
100
AcDbEntity
  8
0
  6
Continuous
 62
     7
370
    15
100
AcDbLine
 10
1922.033502908769
 20
737.0930041050732
 30
0.0
 11
1922.044798993937
 21
735.0141291089421
 31
0.0
  0
ARC
  5
B8F
330
A9C
100
AcDbEntity
  8
0
  6
Continuous
 62
     7
370
    15
100
AcDbCircle
 10
1921.120611300656
 20
735.0130756119304
 30
0.0
 40
0.9241882937298106
100
AcDbArc
 50
344.0295385669315
 51
0.0653123892307336
  0
LINE
  5
B90
330
A9C
100
AcDbEntity
  8
0
  6
Continuous
 62
     7
370
    15
100
AcDbLine
 10
1922.009129319605
 20
734.7587928318005
 30
0.0
 11
1921.338520452838
 21
732.4038013650566
 31
0.0
  0
ARC
  5
B91
330
A9C
100
AcDbEntity
  8
0
  6
Continuous
 62
     7
370
    15
100
AcDbCircle
 10
1920.271434591853
 20
732.619317141221
 30
0.0
 40
1.088631840655269
100
AcDbArc
 50
302.9304355369762
 51
348.5817607374666
  0
LINE
  5
B92
330
A9C
100
AcDbEntity
  8
0
  6
Continuous
 62
     7
370
    15
100
AcDbLine
 10
1920.863237046363
 20
731.7055944593719
 30
0.0
 11
1919.852559376893
 21
731.2363612339128
 31
0.0
  0
LINE
  5
B93
330
A9C
100
AcDbEntity
  8
0
  6
Continuous
 62
     7
370
    15
100
AcDbLine
 10
1919.852559376893
 20
731.2363612339128
 30
0.0
 11
1919.786545182791
 21
743.3830672387061
 31
0.0
  0
ARC
  5
B94
330
A9C
100
AcDbEntity
  8
0
  6
Continuous
 62
     7
370
    15
100
AcDbCircle
 10
1919.05455712134
 20
743.50712190901
 30
0.0
 40
0.7424258099847153
100
AcDbArc
 50
350.3811169982508
 51
57.0980589302286
  0
LINE
  5
B95
330
A9C
100
AcDbEntity
  8
0
  6
Continuous
 62
     7
370
    15
100
AcDbLine
 10
1947.989173219871
 20
757.3768701364778
 30
0.0
 11
1948.058771973649
 21
744.5706000313423
 31
0.0
  0
ARC
  5
B96
330
A9C
100
AcDbEntity
  8
0
  6
Continuous
 62
     7
370
    15
100
AcDbCircle
 10
1947.37007351924
 20
744.5180024356585
 30
0.0
 40
0.6907040380494323
100
AcDbArc
 50
306.9699337506146
 51
4.367341631517076
  0
LINE
  5
B97
330
A9C
100
AcDbEntity
  8
0
  6
Continuous
 62
     7
370
    15
100
AcDbLine
 10
1947.785460062888
 20
743.9661636117854
 30
0.0
 11
1942.775644614159
 21
741.6402273286617
 31
0.0
  0
LWPOLYLINE
  5
B98
330
A9C
100
AcDbEntity
  8
0
  6
Continuous
 62
     7
370
    15
100
AcDbPolyline
 90
        9
 70
   128
 43
0.0
 10
1942.775644614159
 20
741.6402273286617
 10
1942.667894595422
 20
741.6085465176677
 10
1942.564086309888
 20
741.6147024662024
 10
1942.468209268915
 20
741.6584482026989
 10
1942.38394751244
 20
741.7381069456022
 10
1942.314539762339
 20
741.8506139152063
 10
1942.262653026852
 20
741.9916426659465
 10
1942.230281193435
 20
742.1557785999681
 10
1942.218666670139
 20
742.3367174134681
  0
LINE
  5
B99
330
A9C
100
AcDbEntity
  8
0
  6
Continuous
 62
     7
370
    15
100
AcDbLine
 10
1942.218666670139
 20
742.3367174134681
 30
0.0
 11
1942.198878528964
 21
745.9777636536705
 31
0.0
  0
LINE
  5
B9A
330
A9C
100
AcDbEntity
  8
0
  6
Continuous
 62
     7
370
    15
100
AcDbLine
 10
1919.826642919594
 20
731.2414451747928
 30
0.0
 11
1919.852559376893
 21
731.2363612339128
 31
0.0
  0
LINE
  5
B9B
330
A9C
100
AcDbEntity
  8
0
  6
Continuous
 62
     7
370
    15
100
AcDbLine
 10
1917.82132552893
 20
732.4093226850947
 30
0.0
 11
1919.822428958486
 21
732.0167732168759
 31
0.0
  0
LINE
  5
B9C
330
A9C
100
AcDbEntity
  8
0
  6
Continuous
 62
     7
370
    15
100
AcDbLine
 10
1939.599193020318
 20
742.7256913698712
 30
0.0
 11
1938.871386653689
 21
742.3877884565691
 31
0.0
  0
ARC
  5
B9D
330
A9C
100
AcDbEntity
  8
0
  6
Continuous
 62
     7
370
    15
100
AcDbCircle
 10
1938.73264421288
 20
742.6569998020701
 30
0.0
 40
0.3028600558476739
100
AcDbArc
 50
242.9243121350015
 51
297.2650504731229
  0
LINE
  5
B9E
330
A9C
100
AcDbEntity
  8
0
  6
Continuous
 62
     7
370
    15
100
AcDbLine
 10
1938.594792271958
 20
742.3873313838002
 30
0.0
 11
1937.933839743195
 21
742.7374044991592
 31
0.0
  0
ARC
  5
B9F
330
A9C
100
AcDbEntity
  8
0
  6
Continuous
 62
     7
370
    15
100
AcDbCircle
 10
1938.386068061717
 20
743.3131930321891
 30
0.0
 40
0.7321494976038895
100
AcDbArc
 50
176.2214707798352
 51
231.8536624646805
  0
ARC
  5
BA0
330
A9C
100
AcDbEntity
  8
0
  6
Continuous
 62
     7
370
    15
100
AcDbCircle
 10
1939.386499724876
 20
743.3100969306792
 30
0.0
 40
1.731750966984168
100
AcDbArc
 50
147.5173304835021
 51
178.3009865568444
  0
LINE
  5
BA1
330
A9C
100
AcDbEntity
  8
0
  6
Continuous
 62
     7
370
    15
100
AcDbLine
 10
1937.925674397147
 20
744.2401242278679
 30
0.0
 11
1938.327432170878
 21
744.8303171635276
 31
0.0
  0
LINE
  5
BA2
330
A9C
100
AcDbEntity
  8
0
  6
Continuous
 62
     7
370
    15
100
AcDbLine
 10
1938.327432170878
 20
744.8303171635276
 30
0.0
 11
1939.301373084879
 21
745.5802186414894
 31
0.0
  0
LINE
  5
BA3
330
A9C
100
AcDbEntity
  8
0
  6
Continuous
 62
     7
370
    15
100
AcDbLine
 10
1939.301373084879
 20
745.5802186414894
 30
0.0
 11
1939.301333042984
 21
745.5875864073163
 31
0.0
  0
LINE
  5
BA4
330
A9C
100
AcDbEntity
  8
0
  6
Continuous
 62
     7
370
    15
100
AcDbLine
 10
1930.737950835077
 20
741.6118149268156
 30
0.0
 11
1930.575154981401
 21
741.0401158126286
 31
0.0
  0
ARC
  5
BA5
330
A9C
100
AcDbEntity
  8
0
  6
Continuous
 62
     7
370
    15
100
AcDbCircle
 10
1929.508040104481
 20
741.2556608475163
 30
0.0
 40
1.088666074886919
100
AcDbArc
 50
302.9310372505519
 51
348.5805536638299
  0
LINE
  5
BA6
330
A9C
100
AcDbEntity
  8
0
  6
Continuous
 62
     7
370
    15
100
AcDbLine
 10
1930.099870765494
 20
740.3419156470945
 30
0.0
 11
1928.556423603535
 21
739.6253304171941
 31
0.0
  0
ARC
  5
BA7
330
A9C
100
AcDbEntity
  8
0
  6
Continuous
 62
     7
370
    15
100
AcDbCircle
 10
1928.417422660007
 20
739.9017568418733
 30
0.0
 40
0.3094072244831731
100
AcDbArc
 50
215.242638465098
 51
296.6955226579758
  0
LINE
  5
BA8
330
A9C
100
AcDbEntity
  8
0
  6
Continuous
 62
     7
370
    15
100
AcDbLine
 10
1928.164724921528
 20
739.7232164163953
 30
0.0
 11
1927.760058905616
 21
740.2292516454256
 31
0.0
  0
LINE
  5
BA9
330
A9C
100
AcDbEntity
  8
0
  6
Continuous
 62
     7
370
    15
100
AcDbLine
 10
1929.73908463094
 20
787.1030504332565
 30
0.0
 11
1933.892453219413
 21
786.2882986285069
 31
0.0
  0
LINE
  5
BAA
330
A9C
100
AcDbEntity
  8
0
  6
Continuous
 62
     7
370
    15
100
AcDbLine
 10
1933.844405240987
 20
795.129195287236
 30
0.0
 11
1921.421934570715
 21
797.5660679563609
 31
0.0
  0
LINE
  5
BAB
330
A9C
100
AcDbEntity
  8
0
  6
Continuous
 62
     7
370
    15
100
AcDbLine
 10
1921.968557107478
 20
798.7749401989916
 30
0.0
 11
1934.391027777749
 21
796.3380675298667
 31
0.0
  0
ARC
  5
BAC
330
A9C
100
AcDbEntity
  8
0
  6
Continuous
 62
     7
370
    15
100
AcDbCircle
 10
1922.799351333486
 20
797.6712545086042
 30
0.0
 40
1.381427214562541
100
AcDbArc
 50
126.9704336162984
 51
184.3669216505723
  0
LINE
  5
BAD
330
A9C
100
AcDbEntity
  8
0
  6
Continuous
 62
     7
370
    15
100
AcDbLine
 10
1921.421934570715
 20
797.5660679563609
 30
0.0
 11
1921.428734884157
 21
796.3148005699219
 31
0.0
  0
LWPOLYLINE
  5
BAE
330
A9C
100
AcDbEntity
  8
0
  6
Continuous
 62
     7
370
    15
100
AcDbPolyline
 90
       28
 70
   128
 43
0.0
 10
1936.439551021197
 20
799.442431245337
 10
1936.417810846658
 20
799.3096838001147
 10
1936.335222152819
 20
799.1553296674206
 10
1936.192184570513
 20
799.0048246654817
 10
1935.990776468528
 20
798.8603648258404
 10
1935.733941702302
 20
798.7240555665334
 10
1935.425423016707
 20
798.597884876262
 10
1935.069721651787
 20
798.4836922493586
 10
1934.67201799737
 20
798.3831441585948
 10
1934.238118675471
 20
798.2977053831672
 10
1933.774343190124
 20
798.2286233158058
 10
1933.287462846601
 20
798.1769037080947
 10
1932.784568304623
 20
798.1433025260844
 10
1932.273003610548
 20
798.128307633978
 10
1931.760218090692
 20
798.1321397938378
 10
1931.253697857219
 20
798.1547413836782
 10
1930.760823139154
 20
798.1957840254048
 10
1930.288781223151
 20
798.2546692018247
 10
1929.84446163862
 20
798.3305370447371
 10
1929.434339672213
 20
798.4222820155808
 10
1929.064391866678
 20
798.5285670210483
 10
1928.740025184811
 20
798.6478397694266
 10
1928.46595116895
 20
798.7783646261982
 10
1928.246185126559
 20
798.9182345468782
 10
1928.083915717382
 20
799.0654131207435
 10
1927.981523352684
 20
799.2177513204542
 10
1927.940487138676
 20
799.3730304747942
 10
1927.939674800567
 20
799.396237004797
  0
LINE
  5
BAF
330
A9C
100
AcDbEntity
  8
0
  6
Continuous
 62
     7
370
    15
100
AcDbLine
 10
1930.068571540273
 20
802.5355812157867
 30
0.0
 11
1930.051693902677
 21
802.5277453363893
 31
0.0
  0
LINE
  5
BB0
330
A9C
100
AcDbEntity
  8
0
  6
Continuous
 62
     7
370
    15
100
AcDbLine
 10
1927.960604607376
 20
801.5569030942018
 30
0.0
 11
1921.968557107478
 21
798.7749401989916
 31
0.0
  0
LWPOLYLINE
  5
BB1
330
A9C
100
AcDbEntity
  8
0
  6
Continuous
 62
     7
370
    15
100
AcDbPolyline
 90
       43
 70
   128
 43
0.0
 10
1933.723780956594
 20
802.1372916619494
 10
1934.054553932213
 20
802.0610078962356
 10
1934.343419508602
 20
801.9704053078061
 10
1934.583932608512
 20
801.8675062638097
 10
1934.770714151033
 20
801.7546105542713
 10
1934.899602043481
 20
801.6342382808137
 10
1934.967704182167
 20
801.5090805979248
 10
1934.973508238678
 20
801.3819316782159
 10
1934.916877384094
 20
801.2556333798221
 10
1934.799085057598
 20
801.133005211969
 10
1934.622761508131
 20
801.016786686354
 10
1934.391839354888
 20
800.9095751093404
 10
1934.111477166964
 20
800.8137654799361
 10
1933.787943834935
 20
800.7314968063097
 10
1933.428467524424
 20
800.6646066004828
 10
1933.041069779233
 20
800.614590789276
 10
1932.634411812109
 20
800.5825651800284
 10
1932.217568933185
 20
800.5692469098317
 10
1931.799865205302
 20
800.5749310274447
 10
1931.390621471912
 20
800.599492514598
 10
1930.998985883762
 20
800.6423814693384
 10
1930.633699178791
 20
800.7026413443142
 10
1930.302932348407
 20
800.7789238594615
 10
1930.014060547489
 20
800.8695276616432
 10
1929.773547442561
 20
800.9724267033092
 10
1929.586765803683
 20
801.0853223681117
 10
1929.457884269258
 20
801.2056934897955
 10
1929.389775852846
 20
801.3308523617384
 10
1929.383971667858
 20
801.458001221799
 10
1929.440602586681
 20
801.5842995500168
 10
1929.558394913177
 20
801.70692771787
 10
1929.734718462644
 20
801.8231462434851
 10
1929.965640615887
 20
801.9303578204985
 10
1930.246002803812
 20
802.0261674499032
 10
1930.56953613584
 20
802.1084361235292
 10
1930.929012382113
 20
802.1753262995321
 10
1931.31641025578
 20
802.2253421703872
 10
1931.72307450063
 20
802.2573665905806
 10
1932.139911021531
 20
802.2706860125515
 10
1932.55761484577
 20
802.2650019396746
 10
1932.96685858418
 20
802.2404404548511
 10
1933.358500396858
 20
802.1975502863586
 10
1933.723780956594
 20
802.1372916619494
  0
LWPOLYLINE
  5
BB2
330
A9C
100
AcDbEntity
  8
0
  6
Continuous
 62
     7
370
    15
100
AcDbPolyline
 90
       53
 70
   128
 43
0.0
 10
1934.523891313858
 20
802.5087635713456
 10
1934.934013216027
 20
802.4170185706779
 10
1935.303960957324
 20
802.3107335353859
 10
1935.628334045393
 20
802.1914596576019
 10
1935.90240171929
 20
802.0609359600603
 10
1936.122174007287
 20
801.9210648354142
 10
1936.284437138739
 20
801.7738874506028
 10
1936.386835837371
 20
801.6215480879344
 10
1936.427865845921
 20
801.4662701562004
 10
1936.406937929194
 20
801.3103161436951
 10
1936.324349235354
 20
801.1559620110011
 10
1936.181311653049
 20
801.0054570090622
 10
1935.979903551064
 20
800.8609971694209
 10
1935.723068784837
 20
800.724687910114
 10
1935.414550099243
 20
800.5985172198423
 10
1935.058848734323
 20
800.4843245929391
 10
1934.661145079905
 20
800.3837765021753
 10
1934.227245758007
 20
800.2983377267478
 10
1933.76347027266
 20
800.2292556593863
 10
1933.276589929136
 20
800.1775360516754
 10
1932.773695387158
 20
800.1439348696649
 10
1932.262130693082
 20
800.1289399775583
 10
1931.749345173227
 20
800.1327721374185
 10
1931.242824939755
 20
800.1553737272589
 10
1930.749950221689
 20
800.1964163689853
 10
1930.277908305686
 20
800.2553015454052
 10
1929.833588721155
 20
800.3311693883174
 10
1929.423466754748
 20
800.422914359161
 10
1929.053518949213
 20
800.5291993646292
 10
1928.729152267346
 20
800.6484721130071
 10
1928.455078251485
 20
800.7789969697784
 10
1928.235312209094
 20
800.9188668904586
 10
1928.073042799917
 20
801.0660454643241
 10
1927.970650435219
 20
801.2183836640346
 10
1927.929614221211
 20
801.3736628183748
 10
1927.95054822295
 20
801.5296155523536
 10
1928.033130735421
 20
801.6839709188378
 10
1928.176168381964
 20
801.834475950601
 10
1928.377576419712
 20
801.9789357604182
 10
1928.634411314414
 20
802.1152450793735
 10
1928.942929871533
 20
802.2414157099966
 10
1929.298631300691
 20
802.3556083667241
 10
1929.69633489087
 20
802.4561564276636
 10
1930.130240394137
 20
802.541593969301
 10
1930.594009794472
 20
802.6106773151891
 10
1931.080896343454
 20
802.6623957002936
 10
1931.583784551498
 20
802.695998045262
 10
1932.095355523298
 20
802.7109917483143
 10
1932.608134797548
 20
802.7071607924206
 10
1933.114661372984
 20
802.6845580433501
 10
1933.607529684848
 20
802.6435165310294
 10
1934.079571665089
 20
802.5846313844336
 10
1934.523891313858
 20
802.5087635713456
  0
ARC
  5
BB3
330
A9C
100
AcDbEntity
  8
0
  6
Continuous
 62
     7
370
    15
100
AcDbCircle
 10
1930.210761849592
 20
802.2504014972195
 30
0.0
 40
0.3186621344723115
100
AcDbArc
 50
79.97261447402927
 51
116.500795966351
  0
LINE
  5
BB4
330
A9C
100
AcDbEntity
  8
0
  6
Continuous
 62
     7
370
    15
100
AcDbLine
 10
1928.164724921528
 20
739.7232164163953
 30
0.0
 11
1927.163968161655
 21
739.9195313734844
 31
0.0
  0
LINE
  5
BB5
330
A9C
100
AcDbEntity
  8
0
  6
Continuous
 62
     7
370
    15
100
AcDbLine
 10
1927.163968161655
 20
739.9195313734844
 30
0.0
 11
1927.144741070612
 21
739.943572896904
 31
0.0
  0
ARC
  5
BB6
330
A9C
100
AcDbEntity
  8
0
  6
Continuous
 62
     7
370
    15
100
AcDbCircle
 10
1927.430830019947
 20
740.1167934114274
 30
0.0
 40
0.3318547318102171
100
AcDbArc
 50
216.4714998446942
 51
257.3210499721234
  0
LINE
  5
BB7
330
A9C
100
AcDbEntity
  8
0
  6
Continuous
 62
     7
370
    15
100
AcDbLine
 10
1936.654753326338
 20
743.5577566293264
 30
0.0
 11
1937.655510086212
 21
743.3614416722369
 31
0.0
  0
LINE
  5
BB8
330
A9C
100
AcDbEntity
  8
0
  6
Continuous
 62
     7
370
    15
100
AcDbLine
 10
1936.924917637274
 20
744.436439184957
 30
0.0
 11
1937.925674397147
 21
744.2401242278679
 31
0.0
  0
ARC
  5
BB9
330
A9C
100
AcDbEntity
  8
0
  6
Continuous
 62
     7
370
    15
100
AcDbCircle
 10
1938.385742965003
 20
743.5064118877685
 30
0.0
 40
1.731750966984298
100
AcDbArc
 50
147.5173304835021
 51
178.3009865568444
  0
LINE
  5
BBA
330
A9C
100
AcDbEntity
  8
0
  6
Continuous
 62
     7
370
    15
100
AcDbLine
 10
1936.933082983322
 20
742.9337194562484
 30
0.0
 11
1937.933839743195
 21
742.7374044991592
 31
0.0
  0
ARC
  5
BBB
330
A9C
100
AcDbEntity
  8
0
  6
Continuous
 62
     7
370
    15
100
AcDbCircle
 10
1937.385311301843
 20
743.5095079892784
 30
0.0
 40
0.7321494976040395
100
AcDbArc
 50
176.2214707798417
 51
231.8536624646662
  0
LINE
  5
BBC
330
A9C
100
AcDbEntity
  8
0
  6
Continuous
 62
     7
370
    15
100
AcDbLine
 10
1939.593462406981
 20
742.851694901103
 30
0.0
 11
1942.218666670139
 21
742.3367174134681
 31
0.0
  0
LINE
  5
BBD
330
A9C
100
AcDbEntity
  8
0
  6
Continuous
 62
     7
370
    15
100
AcDbLine
 10
1939.577895715349
 20
745.7159883956839
 30
0.0
 11
1939.593462406981
 21
742.851694901103
 31
0.0
  0
LINE
  5
BBE
330
A9C
100
AcDbEntity
  8
0
  6
Continuous
 62
     7
370
    15
100
AcDbLine
 10
1938.327432170878
 20
744.8303171635276
 30
0.0
 11
1937.86544693159
 21
744.9209431938112
 31
0.0
  0
LINE
  5
BBF
330
A9C
100
AcDbEntity
  8
0
  6
Continuous
 62
     7
370
    15
100
AcDbLine
 10
1936.924917637274
 20
744.436439184957
 30
0.0
 11
1936.972530806414
 21
744.5063782463924
 31
0.0
  0
LINE
  5
BC0
330
A9C
100
AcDbEntity
  8
0
  6
Continuous
 62
     7
370
    15
100
AcDbLine
 10
1939.290188806975
 20
745.5824126222096
 30
0.0
 11
1939.301373084879
 21
745.5802186414894
 31
0.0
  0
LINE
  5
BC1
330
A9C
100
AcDbEntity
  8
0
  6
Continuous
 62
     7
370
    15
100
AcDbLine
 10
1937.594035512085
 20
742.5836463408894
 30
0.0
 11
1938.594792271958
 21
742.3873313838002
 31
0.0
  0
LINE
  5
BC2
330
A9C
100
AcDbEntity
  8
0
  6
Continuous
 62
     7
370
    15
100
AcDbLine
 10
1937.594035512085
 20
742.5836463408894
 30
0.0
 11
1936.933082983322
 21
742.9337194562484
 31
0.0
  0
LWPOLYLINE
  5
BC3
330
A9C
100
AcDbEntity
  8
0
  6
Continuous
 62
     7
370
    15
100
AcDbPolyline
 90
        8
 70
   128
 43
0.0
 10
1939.593462406981
 20
742.851694901103
 10
1939.605074874661
 20
742.6707551332301
 10
1939.637446708078
 20
742.5066191992083
 10
1939.689333957469
 20
742.3655906870615
 10
1939.75874170757
 20
742.2530837174575
 10
1939.843003464044
 20
742.173424974554
 10
1939.938881018922
 20
742.1296794766508
 10
1939.952764991401
 20
742.1265829804338
  0
ARC
  5
BC4
330
A9C
100
AcDbEntity
  8
0
  6
Continuous
 62
     7
370
    15
100
AcDbCircle
 10
1937.728103467652
 20
742.8347350480407
 30
0.0
 40
0.2846396942957359
100
AcDbArc
 50
241.9001648243187
 51
258.828387711542
  0
LINE
  5
BC5
330
A9C
100
AcDbEntity
  8
0
  6
Continuous
 62
     8
370
    15
100
AcDbLine
 10
1918.139139379385
 20
781.391319612103
 30
0.0
 11
1917.948988014554
 21
781.4286209409814
 31
0.0
  0
LINE
  5
BC6
330
A9C
100
AcDbEntity
  8
0
  6
Continuous
 62
     8
370
    15
100
AcDbLine
 10
1907.235338374351
 20
781.1472556178106
 30
0.0
 11
1912.727465027931
 21
780.0698843208504
 31
0.0
  0
LINE
  5
BC7
330
A9C
100
AcDbEntity
  8
0
  6
Continuous
 62
     8
370
    15
100
AcDbLine
 10
1908.455090895528
 20
783.8447665420276
 30
0.0
 11
1913.997323114118
 21
782.7575662114407
 31
0.0
  0
LINE
  5
BC8
330
A9C
100
AcDbEntity
  8
0
  6
Continuous
 62
     8
370
    15
100
AcDbLine
 10
1907.884536143911
 20
782.5829698268117
 30
0.0
 11
1913.376600662614
 21
781.5056107186334
 31
0.0
  0
LINE
  5
BC9
330
A9C
100
AcDbEntity
  8
0
  6
Continuous
 62
     8
370
    15
100
AcDbLine
 10
1919.901148708884
 20
785.7670575880714
 30
0.0
 11
1919.963619114466
 21
785.7548029868709
 31
0.0
  0
LINE
  5
BCA
330
A9C
100
AcDbEntity
  8
0
  6
Continuous
 62
     8
370
    15
100
AcDbLine
 10
1920.001893846261
 20
785.7069390534814
 30
0.0
 11
1919.866253409237
 21
785.7335471641049
 31
0.0
  0
LINE
  5
BCB
330
A9C
100
AcDbEntity
  8
0
  6
Continuous
 62
     8
370
    15
100
AcDbLine
 10
1929.148924861129
 20
793.9042857871226
 30
0.0
 11
1923.164516002118
 21
795.0782263643616
 31
0.0
  0
LINE
  5
BCC
330
A9C
100
AcDbEntity
  8
0
  6
Continuous
 62
     8
370
    15
100
AcDbLine
 10
1909.369728638458
 20
783.9316450574211
 30
0.0
 11
1915.09178540528
 21
782.8091691734877
 31
0.0
  0
LINE
  5
BCD
330
A9C
100
AcDbEntity
  8
0
  6
Continuous
 62
     8
370
    15
100
AcDbLine
 10
1910.892385416723
 20
789.2349159278063
 30
0.0
 11
1916.384182755453
 21
788.1576092313893
 31
0.0
  0
LINE
  5
BCE
330
A9C
100
AcDbEntity
  8
0
  6
Continuous
 62
     8
370
    15
100
AcDbLine
 10
1910.321833729243
 20
787.97312419317
 30
0.0
 11
1916.039124750981
 21
786.8515831887988
 31
0.0
  0
LINE
  5
BCF
330
A9C
100
AcDbEntity
  8
0
  6
Continuous
 62
     8
370
    15
100
AcDbLine
 10
1910.525540431962
 20
786.4877529862747
 30
0.0
 11
1916.231199804679
 21
785.3684937218526
 31
0.0
  0
LINE
  5
BD0
330
A9C
100
AcDbEntity
  8
0
  6
Continuous
 62
     8
370
    15
100
AcDbLine
 10
1911.638526394436
 20
791.1527820212698
 30
0.0
 11
1917.241451961118
 21
790.0536756886411
 31
0.0
  0
LINE
  5
BD1
330
A9C
100
AcDbEntity
  8
0
  6
Continuous
 62
     8
370
    15
100
AcDbLine
 10
1911.639482713793
 20
790.8871392912876
 30
0.0
 11
1917.131211704159
 21
789.8098460025307
 31
0.0
  0
LINE
  5
BD2
330
A9C
100
AcDbEntity
  8
0
  6
Continuous
 62
     8
370
    15
100
AcDbLine
 10
1911.541582158475
 20
790.670629659621
 30
0.0
 11
1917.033317362328
 21
789.5933351519857
 31
0.0
  0
LINE
  5
BD3
330
A9C
100
AcDbEntity
  8
0
  6
Continuous
 62
     8
370
    15
100
AcDbLine
 10
1911.539687197934
 20
790.4061537318357
 30
0.0
 11
1916.923326355845
 21
789.3500640478614
 31
0.0
  0
LINE
  5
BD4
330
A9C
100
AcDbEntity
  8
0
  6
Continuous
 62
     8
370
    15
100
AcDbLine
 10
1911.765420728666
 20
790.0888915603267
 30
0.0
 11
1916.809958794016
 21
789.0993221529115
 31
0.0
  0
LINE
  5
BD5
330
A9C
100
AcDbEntity
  8
0
  6
Continuous
 62
     8
370
    15
100
AcDbLine
 10
1911.014861654162
 20
787.0563456253012
 30
0.0
 11
1916.588080536033
 21
785.9630667492411
 31
0.0
  0
LINE
  5
BD6
330
A9C
100
AcDbEntity
  8
0
  6
Continuous
 62
     8
370
    15
100
AcDbLine
 10
1914.041621762578
 20
756.6285196148835
 30
0.0
 11
1906.676718841414
 21
758.0732668890544
 31
0.0
  0
LINE
  5
BD7
330
A9C
100
AcDbEntity
  8
0
  6
Continuous
 62
     8
370
    15
100
AcDbLine
 10
1911.106930531088
 20
768.4232980058807
 30
0.0
 11
1911.105149245413
 21
768.7510571145675
 31
0.0
  0
LINE
  5
BD8
330
A9C
100
AcDbEntity
  8
0
  6
Continuous
 62
     8
370
    15
100
AcDbLine
 10
1908.623925861183
 20
769.0585250118686
 30
0.0
 11
1908.83604712518
 21
769.1961824210007
 31
0.0
  0
LINE
  5
BD9
330
A9C
100
AcDbEntity
  8
0
  6
Continuous
 62
     8
370
    15
100
AcDbLine
 10
1910.886757681834
 20
768.7939037838686
 30
0.0
 11
1911.088328030286
 21
768.4604360662635
 31
0.0
  0
LINE
  5
BDA
330
A9C
100
AcDbEntity
  8
0
  6
Continuous
 62
     8
370
    15
100
AcDbLine
 10
1910.207071681374
 20
760.9812116531758
 30
0.0
 11
1914.022035087911
 21
760.2328436106294
 31
0.0
  0
LINE
  5
BDB
330
A9C
100
AcDbEntity
  8
0
  6
Continuous
 62
     8
370
    15
100
AcDbLine
 10
1916.060222945865
 20
731.9140119689137
 30
0.0
 11
1917.205337666039
 21
731.6893788151173
 31
0.0
  0
LINE
  5
BDC
330
A9C
100
AcDbEntity
  8
0
  6
Continuous
 62
     8
370
    15
100
AcDbLine
 10
1910.796654699545
 20
761.7397217723497
 30
0.0
 11
1914.017273151289
 21
761.1079443030322
 31
0.0
  0
LINE
  5
BDD
330
A9C
100
AcDbEntity
  8
0
  6
Continuous
 62
     8
370
    15
100
AcDbLine
 10
1911.146853046379
 20
762.428559990935
 30
0.0
 11
1914.032042576807
 21
761.8625824411735
 31
0.0
  0
LINE
  5
BDE
330
A9C
100
AcDbEntity
  8
0
  6
Continuous
 62
     8
370
    15
100
AcDbLine
 10
1914.035339956611
 20
763.100176649744
 30
0.0
 11
1912.290107951547
 21
763.4425327145967
 31
0.0
  0
LINE
  5
BDF
330
A9C
100
AcDbEntity
  8
0
  6
Continuous
 62
     8
370
    15
100
AcDbLine
 10
1915.974764130157
 20
730.7001460257957
 30
0.0
 11
1916.252183930078
 21
730.6457255529087
 31
0.0
  0
LINE
  5
BE0
330
A9C
100
AcDbEntity
  8
0
  6
Continuous
 62
     8
370
    15
100
AcDbLine
 10
1916.942096038103
 20
730.9660350774104
 30
0.0
 11
1915.834461075882
 21
731.1833159580377
 31
0.0
  0
LINE
  5
BE1
330
A9C
100
AcDbEntity
  8
0
  6
Continuous
 62
     8
370
    15
100
AcDbLine
 10
1918.3791270775
 20
742.5374444030651
 30
0.0
 11
1919.102190643993
 21
742.3956035495025
 31
0.0
  0
LINE
  5
BE2
330
A9C
100
AcDbEntity
  8
0
  6
Continuous
 62
     8
370
    15
100
AcDbLine
 10
1911.370897626265
 20
768.6989317493867
 30
0.0
 11
1911.403141844212
 21
762.7659495918748
 31
0.0
  0
LINE
  5
BE3
330
A9C
100
AcDbEntity
  8
0
  6
Continuous
 62
     8
370
    15
100
AcDbLine
 10
1919.786545182791
 20
743.3830672387061
 30
0.0
 11
1919.760523096201
 21
743.388171900515
 31
0.0
  0
LINE
  5
BE4
330
A9C
100
AcDbEntity
  8
0
  6
Continuous
 62
     8
370
    15
100
AcDbLine
 10
1919.148089302353
 20
733.9501848529002
 30
0.0
 11
1917.498607143122
 21
734.2737580050314
 31
0.0
  0
LINE
  5
BE5
330
A9C
100
AcDbEntity
  8
0
  6
Continuous
 62
     8
370
    15
100
AcDbLine
 10
1912.148279327448
 20
763.3608236577937
 30
0.0
 11
1912.120066803669
 21
768.5519683298979
 31
0.0
  0
LINE
  5
BE6
330
A9C
100
AcDbEntity
  8
0
  6
Continuous
 62
     8
370
    15
100
AcDbLine
 10
1918.244780452599
 20
731.2843091292435
 30
0.0
 11
1918.05983599048
 21
731.3205890382088
 31
0.0
  0
LINE
  5
BE7
330
A9C
100
AcDbEntity
  8
0
  6
Continuous
 62
     8
370
    15
100
AcDbLine
 10
1942.491042210544
 20
800.0987085466617
 30
0.0
 11
1936.429523968872
 21
801.2877754020886
 31
0.0
  0
LINE
  5
BE8
330
A9C
100
AcDbEntity
  8
0
  6
Continuous
 62
     8
370
    15
100
AcDbLine
 10
1930.081408605911
 20
802.5330630134712
 30
0.0
 11
1930.068571540273
 21
802.5355812157867
 31
0.0
  0
LINE
  5
BE9
330
A9C
100
AcDbEntity
  8
0
  6
Continuous
 62
     8
370
    15
100
AcDbLine
 10
1943.734121522705
 20
796.7908729948849
 30
0.0
 11
1943.671651117124
 21
796.8031275960854
 31
0.0
  0
LINE
  5
BEA
330
A9C
100
AcDbEntity
  8
0
  6
Continuous
 62
     8
370
    15
100
AcDbLine
 10
1943.749198271958
 20
796.772024076217
 30
0.0
 11
1943.654722191108
 21
796.7905571189119
 31
0.0
  0
LINE
  5
BEB
330
A9C
100
AcDbEntity
  8
0
  6
Continuous
 62
     8
370
    15
100
AcDbLine
 10
1945.891018968417
 20
795.2264915544839
 30
0.0
 11
1944.694512491273
 21
795.4612060496899
 31
0.0
  0
LINE
  5
BEC
330
A9C
100
AcDbEntity
  8
0
  6
Continuous
 62
     8
370
    15
100
AcDbLine
 10
1945.632529756963
 20
794.6928951165497
 30
0.0
 11
1945.137538470884
 21
794.7899958277139
 31
0.0
  0
LINE
  5
BED
330
A9C
100
AcDbEntity
  8
0
  6
Continuous
 62
     8
370
    15
100
AcDbLine
 10
1945.646709341382
 20
794.2008530503584
 30
0.0
 11
1945.410696223657
 21
794.2471509190677
 31
0.0
  0
LINE
  5
BEE
330
A9C
100
AcDbEntity
  8
0
  6
Continuous
 62
     8
370
    15
100
AcDbLine
 10
1945.609149285315
 20
794.1177844149957
 30
0.0
 11
1945.454327811685
 21
794.1481552025544
 31
0.0
  0
LINE
  5
BEF
330
A9C
100
AcDbEntity
  8
0
  6
Continuous
 62
     8
370
    15
100
AcDbLine
 10
1945.630576838039
 20
794.4193656972542
 30
0.0
 11
1945.298782807042
 21
794.484452573076
 31
0.0
  0
LINE
  5
BF0
330
A9C
100
AcDbEntity
  8
0
  6
Continuous
 62
     8
370
    15
100
AcDbLine
 10
1945.645624044015
 20
794.4005493160333
 30
0.0
 11
1945.307436334149
 21
794.4668904175
 31
0.0
  0
LINE
  5
BF1
330
A9C
100
AcDbEntity
  8
0
  6
Continuous
 62
     8
370
    15
100
AcDbLine
 10
1942.198878528964
 20
745.9777636536705
 30
0.0
 11
1940.752739521483
 21
746.2614409391047
 31
0.0
  0
ENDBLK
  5
A9E
330
A9C
100
AcDbEntity
  8
0
100
AcDbBlockEnd
  0
ENDSEC
  0
SECTION
  2
ENTITIES
  0
INSERT
  5
908
330
1F
100
AcDbEntity
  8
0
100
AcDbBlockReference
  2
1
 10
0.0
 20
0.0
 30
0.0
  0
INSERT
  5
9DC
330
1F
100
AcDbEntity
  8
0
100
AcDbBlockReference
  2
2
 10
0.0
 20
0.0
 30
0.0
  0
INSERT
  5
A9B
330
1F
100
AcDbEntity
  8
0
100
AcDbBlockReference
  2
3
 10
0.0
 20
0.0
 30
0.0
  0
INSERT
  5
BF2
330
1F
100
AcDbEntity
  8
0
100
AcDbBlockReference
  2
4
 10
0.0
 20
0.0
 30
0.0
  0
ENDSEC
  0
SECTION
  2
OBJECTS
  0
DICTIONARY
  5
C
330
0
100
AcDbDictionary
281
     1
  3
ACAD_COLOR
350
6B
  3
ACAD_GROUP
350
D
  3
ACAD_LAYOUT
350
1A
  3
ACAD_MATERIAL
350
6A
  3
ACAD_MLEADERSTYLE
350
12D
  3
ACAD_MLINESTYLE
350
17
  3
ACAD_PLOTSETTINGS
350
19
  3
ACAD_PLOTSTYLENAME
350
E
  3
ACAD_SCALELIST
350
10C
  3
ACAD_TABLESTYLE
350
7E
  3
ACAD_VISUALSTYLE
350
EF
  3
ACDB_RECOMPOSE_DATA
350
15D
  3
AcDbVariableDictionary
350
5E
  3
DWGPROPS
350
D3B
  0
DICTIONARY
  5
13C
330
10
100
AcDbDictionary
280
     1
281
     1
  3
ADSK_XREC_LAYER_RECONCILED
360
BF3
  0
DICTIONARY
  5
D26
330
87D
100
AcDbDictionary
280
     1
281
     1
  3
ACAD_SORTENTS
360
D27
  0
DICTIONARY
  5
6B
102
{ACAD_REACTORS
330
C
102
}
330
C
100
AcDbDictionary
281
     1
  0
DICTIONARY
  5
D
102
{ACAD_REACTORS
330
C
102
}
330
C
100
AcDbDictionary
281
     1
  0
DICTIONARY
  5
1A
102
{ACAD_REACTORS
330
C
102
}
330
C
100
AcDbDictionary
281
     1
  3
Layout1
350
D3
  3
Layout2
350
D7
  3
Model
350
22
  0
DICTIONARY
  5
6A
102
{ACAD_REACTORS
330
C
102
}
330
C
100
AcDbDictionary
281
     1
  3
ByBlock
350
ED
  3
ByLayer
350
EC
  3
Global
350
EE
  0
DICTIONARY
  5
12D
102
{ACAD_REACTORS
330
C
102
}
330
C
100
AcDbDictionary
281
     1
  3
Annotative
350
13B
  3
Standard
350
12E
  0
DICTIONARY
  5
17
102
{ACAD_REACTORS
330
C
102
}
330
C
100
AcDbDictionary
281
     1
  3
Standard
350
18
  0
DICTIONARY
  5
19
102
{ACAD_REACTORS
330
C
102
}
330
C
100
AcDbDictionary
281
     1
  0
ACDBDICTIONARYWDFLT
  5
E
102
{ACAD_REACTORS
330
C
102
}
330
C
100
AcDbDictionary
281
     1
  3
Normal
350
F
100
AcDbDictionaryWithDefault
340
F
  0
DICTIONARY
  5
10C
102
{ACAD_REACTORS
330
C
102
}
330
C
100
AcDbDictionary
281
     1
  3
A0
350
10D
  3
A1
350
188
  3
A2
350
189
  3
A3
350
18A
  3
A4
350
18B
  3
A5
350
18C
  3
A6
350
18D
  3
A7
350
18E
  3
A8
350
18F
  3
A9
350
190
  3
B0
350
191
  3
B1
350
192
  3
B2
350
193
  3
B3
350
194
  3
B4
350
195
  3
B5
350
196
  3
B6
350
197
  3
B7
350
198
  3
B8
350
199
  3
B9
350
19A
  3
C0
350
19B
  3
C1
350
19C
  3
C2
350
19D
  3
C3
350
19E
  3
C4
350
19F
  3
C5
350
1A0
  3
C6
350
1A1
  3
C7
350
1A2
  3
C8
350
1A3
  3
C9
350
1A4
  3
D0
350
1A5
  3
D1
350
1A6
  3
D2
350
1A7
  0
DICTIONARY
  5
7E
102
{ACAD_REACTORS
330
C
102
}
330
C
100
AcDbDictionary
281
     1
  3
Standard
350
7F
  0
DICTIONARY
  5
EF
102
{ACAD_REACTORS
330
C
102
}
330
C
100
AcDbDictionary
281
     1
  3
2dWireframe
350
F5
  3
3D Hidden
350
F7
  3
3dWireframe
350
F6
  3
Basic
350
F4
  3
Brighten
350
FB
  3
ColorChange
350
FF
  3
Conceptual
350
F8
  3
Dim
350
FA
  3
Facepattern
350
FE
  3
Flat
350
F0
  3
FlatWithEdges
350
F1
  3
Gouraud
350
F2
  3
GouraudWithEdges
350
F3
  3
Linepattern
350
FD
  3
Realistic
350
F9
  3
Thicken
350
FC
  0
XRECORD
  5
15D
102
{ACAD_REACTORS
330
C
102
}
330
C
100
AcDbXrecord
280
     1
 90
        1
330
7F
  0
DICTIONARY
  5
5E
102
{ACAD_REACTORS
330
C
102
}
330
C
100
AcDbDictionary
281
     1
  3
CANNOSCALE
350
146
  3
CMLEADERSTYLE
350
145
  3
CTABLESTYLE
350
84
  3
DIMASSOC
350
5F
  3
HIDETEXT
350
63
  3
INDEXCTL
350
D34
  3
LIGHTINGUNITS
350
D32
  3
LOFTANG1
350
D37
  3
LOFTANG2
350
D38
  3
LONGITUDE
350
D39
  3
MSLTSCALE
350
D31
  3
PSOLHEIGHT
350
D36
  3
PSOLWIDTH
350
D35
  3
SORTENTS
350
D33
  0
XRECORD
  5
D3B
102
{ACAD_REACTORS
330
C
102
}
330
C
100
AcDbXrecord
280
     1
  1
DWGPROPS COOKIE
  2

  3

  4

  6

  7

  8
orhan kara
  9

300
=
301
=
302
=
303
=
304
=
305
=
306
=
307
=
308
=
309
=
 40
0.0015560069444444
 41
2458450.666657546
 42
2458956.401509178
  1

 90
        0
  0
XRECORD
  5
BF3
102
{ACAD_REACTORS
330
13C
102
}
330
13C
100
AcDbXrecord
280
     1
290
     1
  0
SORTENTSTABLE
  5
D27
102
{ACAD_REACTORS
330
D26
102
}
330
D26
100
AcDbSortentsTable
330
87D
331
D1F
  5
D20
331
D1D
  5
D1E
331
D24
  5
D25
331
D22
  5
D23
331
D20
  5
D21
331
D1E
  5
D1F
331
D25
  5
D1D
331
D23
  5
D24
331
D21
  5
D22
  0
LAYOUT
  5
D3
102
{ACAD_XDICTIONARY
360
D3F
102
}
102
{ACAD_REACTORS
330
1A
102
}
330
1A
100
AcDbPlotSettings
  1

  2
C:\Documents and Settings\basas\Application Data\Autodesk\AutoCAD 2005\R16.1\enu\plotters\Default Windows System Printer.pc3
  4

  6

 40
0.0
 41
0.0
 42
0.0
 43
0.0
 44
0.0
 45
0.0
 46
0.0
 47
0.0
 48
0.0
 49
0.0
140
0.0
141
0.0
142
1.0
143
1.0
 70
   688
 72
     0
 73
     0
 74
     5
  7

 75
    16
147
1.0
148
0.0
149
0.0
100
AcDbLayout
  1
Layout1
 70
     1
 71
     1
 10
0.0
 20
0.0
 11
12.0
 21
9.0
 12
0.0
 22
0.0
 32
0.0
 14
0.0
 24
0.0
 34
0.0
 15
0.0
 25
0.0
 35
0.0
146
0.0
 13
0.0
 23
0.0
 33
0.0
 16
1.0
 26
0.0
 36
0.0
 17
0.0
 27
1.0
 37
0.0
 76
     0
330
D2
  0
LAYOUT
  5
D7
102
{ACAD_XDICTIONARY
360
D41
102
}
102
{ACAD_REACTORS
330
1A
102
}
330
1A
100
AcDbPlotSettings
  1

  2
C:\Documents and Settings\basas\Application Data\Autodesk\AutoCAD 2005\R16.1\enu\plotters\Default Windows System Printer.pc3
  4

  6

 40
0.0
 41
0.0
 42
0.0
 43
0.0
 44
0.0
 45
0.0
 46
0.0
 47
0.0
 48
0.0
 49
0.0
140
0.0
141
0.0
142
1.0
143
1.0
 70
   688
 72
     0
 73
     0
 74
     5
  7

 75
    16
147
1.0
148
0.0
149
0.0
100
AcDbLayout
  1
Layout2
 70
     1
 71
     2
 10
0.0
 20
0.0
 11
12.0
 21
9.0
 12
0.0
 22
0.0
 32
0.0
 14
0.0
 24
0.0
 34
0.0
 15
0.0
 25
0.0
 35
0.0
146
0.0
 13
0.0
 23
0.0
 33
0.0
 16
1.0
 26
0.0
 36
0.0
 17
0.0
 27
1.0
 37
0.0
 76
     0
330
D6
  0
LAYOUT
  5
22
102
{ACAD_XDICTIONARY
360
D3C
102
}
102
{ACAD_REACTORS
330
1A
102
}
330
1A
100
AcDbPlotSettings
  1

  2
none_device
  4
ISO_A4_(210.00_x_297.00_MM)
  6

 40
7.5
 41
20.0
 42
7.5
 43
20.0
 44
210.0
 45
297.0
 46
11.54999923706054
 47
-13.65000009536743
 48
0.0
 49
0.0
140
0.0
141
0.0
142
1.0
143
8.704084754739808
 70
 11952
 72
     1
 73
     0
 74
     0
  7

 75
     0
147
0.1148885871608098
148
0.0
149
0.0
100
AcDbLayout
  1
Model
 70
     1
 71
     0
 10
0.0
 20
0.0
 11
12.0
 21
9.0
 12
0.0
 22
0.0
 32
0.0
 14
0.0
 24
0.0
 34
0.0
 15
0.0
 25
0.0
 35
0.0
146
0.0
 13
0.0
 23
0.0
 33
0.0
 16
1.0
 26
0.0
 36
0.0
 17
0.0
 27
1.0
 37
0.0
 76
     0
330
1F
331
EA
1001
ACAD_PSEXT
1000
None
1000
None
1000
Not applicable
1000
The layout will not be plotted unless a new plotter configuration name is selected.
1070
     0
  0
MATERIAL
  5
ED
102
{ACAD_XDICTIONARY
360
D45
102
}
102
{ACAD_REACTORS
330
6A
102
}
330
6A
100
AcDbMaterial
  1
ByBlock
  0
MATERIAL
  5
EC
102
{ACAD_XDICTIONARY
360
D43
102
}
102
{ACAD_REACTORS
330
6A
102
}
330
6A
100
AcDbMaterial
  1
ByLayer
  0
MATERIAL
  5
EE
102
{ACAD_XDICTIONARY
360
173
102
}
102
{ACAD_REACTORS
330
6A
102
}
330
6A
100
AcDbMaterial
  1
Global
 43
0.0007999999797903
 43
0.0
 43
0.0
 43
0.0
 43
0.0
 43
0.0007999999797903
 43
0.0
 43
0.0
 43
0.0
 43
0.0
 43
1.0
 43
0.0
 43
0.0
 43
0.0
 43
0.0
 43
1.0
 49
0.0007999999797903
 49
0.0
 49
0.0
 49
0.0
 49
0.0
 49
0.0007999999797903
 49
0.0
 49
0.0
 49
0.0
 49
0.0
 49
1.0
 49
0.0
 49
0.0
 49
0.0
 49
0.0
 49
1.0
142
0.0007999999797903
142
0.0
142
0.0
142
0.0
142
0.0
142
0.0007999999797903
142
0.0
142
0.0
142
0.0
142
0.0
142
1.0
142
0.0
142
0.0
142
0.0
142
0.0
142
1.0
144
0.0007999999797903
144
0.0
144
0.0
144
0.0
144
0.0
144
0.0007999999797903
144
0.0
144
0.0
144
0.0
144
0.0
144
1.0
144
0.0
144
0.0
144
0.0
144
0.0
144
1.0
1001
ACAD
1070
    -1
1070
     3
1070
     0
1000

1071
        0
1070
     0
  0
MLEADERSTYLE
  5
13B
102
{ACAD_REACTORS
330
12D
102
}
330
12D
100
AcDbMLeaderStyle
170
     2
171
     1
172
     0
 90
        2
 40
0.0
 41
0.0
173
     1
 91
-1056964608
340
14
 92
       -2
290
     1
 42
2.0
291
     1
 43
8.0
  3
Standard
 44
4.0
300

342
11
174
     1
178
     1
175
     1
176
     0
 93
-1056964608
 45
4.0
292
     0
297
     0
 46
4.0
 94
-1056964608
 47
1.0
 49
1.0
140
1.0
293
     1
141
0.0
294
     1
177
     0
142
1.0
295
     0
296
     1
143
3.75
1001
ACAD_MLEADERVER
1070
     2
  0
MLEADERSTYLE
  5
12E
102
{ACAD_REACTORS
330
12D
102
}
330
12D
100
AcDbMLeaderStyle
170
     2
171
     1
172
     0
 90
        2
 40
0.0
 41
0.0
173
     1
 91
-1056964608
340
14
 92
       -2
290
     1
 42
2.0
291
     1
 43
8.0
  3
Standard
 44
4.0
300

342
11
174
     1
178
     1
175
     1
176
     0
 93
-1056964608
 45
4.0
292
     0
297
     0
 46
4.0
 94
-1056964608
 47
1.0
 49
1.0
140
1.0
293
     1
141
0.0
294
     1
177
     0
142
1.0
295
     0
296
     0
143
3.75
1001
ACAD_MLEADERVER
1070
     2
  0
MLINESTYLE
  5
18
102
{ACAD_REACTORS
330
17
102
}
330
17
100
AcDbMlineStyle
  2
STANDARD
 70
     0
  3

 62
   256
 51
90.0
 52
90.0
 71
     2
 49
0.5
 62
   256
  6
BYLAYER
 49
-0.5
 62
   256
  6
BYLAYER
  0
ACDBPLACEHOLDER
  5
F
102
{ACAD_REACTORS
330
E
102
}
330
E
  0
SCALE
  5
10D
102
{ACAD_REACTORS
330
10C
102
}
330
10C
100
AcDbScale
 70
     0
300
1:1
140
1.0
141
1.0
290
     1
  0
SCALE
  5
188
102
{ACAD_REACTORS
330
10C
102
}
330
10C
100
AcDbScale
 70
     0
300
1:2
140
1.0
141
2.0
290
     0
  0
SCALE
  5
189
102
{ACAD_REACTORS
330
10C
102
}
330
10C
100
AcDbScale
 70
     0
300
1:4
140
1.0
141
4.0
290
     0
  0
SCALE
  5
18A
102
{ACAD_REACTORS
330
10C
102
}
330
10C
100
AcDbScale
 70
     0
300
1:5
140
1.0
141
5.0
290
     0
  0
SCALE
  5
18B
102
{ACAD_REACTORS
330
10C
102
}
330
10C
100
AcDbScale
 70
     0
300
1:8
140
1.0
141
8.0
290
     0
  0
SCALE
  5
18C
102
{ACAD_REACTORS
330
10C
102
}
330
10C
100
AcDbScale
 70
     0
300
1:10
140
1.0
141
10.0
290
     0
  0
SCALE
  5
18D
102
{ACAD_REACTORS
330
10C
102
}
330
10C
100
AcDbScale
 70
     0
300
1:16
140
1.0
141
16.0
290
     0
  0
SCALE
  5
18E
102
{ACAD_REACTORS
330
10C
102
}
330
10C
100
AcDbScale
 70
     0
300
1:20
140
1.0
141
20.0
290
     0
  0
SCALE
  5
18F
102
{ACAD_REACTORS
330
10C
102
}
330
10C
100
AcDbScale
 70
     0
300
1:30
140
1.0
141
30.0
290
     0
  0
SCALE
  5
190
102
{ACAD_REACTORS
330
10C
102
}
330
10C
100
AcDbScale
 70
     0
300
1:40
140
1.0
141
40.0
290
     0
  0
SCALE
  5
191
102
{ACAD_REACTORS
330
10C
102
}
330
10C
100
AcDbScale
 70
     0
300
1:50
140
1.0
141
50.0
290
     0
  0
SCALE
  5
192
102
{ACAD_REACTORS
330
10C
102
}
330
10C
100
AcDbScale
 70
     0
300
1:100
140
1.0
141
100.0
290
     0
  0
SCALE
  5
193
102
{ACAD_REACTORS
330
10C
102
}
330
10C
100
AcDbScale
 70
     0
300
2:1
140
2.0
141
1.0
290
     0
  0
SCALE
  5
194
102
{ACAD_REACTORS
330
10C
102
}
330
10C
100
AcDbScale
 70
     0
300
4:1
140
4.0
141
1.0
290
     0
  0
SCALE
  5
195
102
{ACAD_REACTORS
330
10C
102
}
330
10C
100
AcDbScale
 70
     0
300
8:1
140
8.0
141
1.0
290
     0
  0
SCALE
  5
196
102
{ACAD_REACTORS
330
10C
102
}
330
10C
100
AcDbScale
 70
     0
300
10:1
140
10.0
141
1.0
290
     0
  0
SCALE
  5
197
102
{ACAD_REACTORS
330
10C
102
}
330
10C
100
AcDbScale
 70
     0
300
100:1
140
100.0
141
1.0
290
     0
  0
SCALE
  5
198
102
{ACAD_REACTORS
330
10C
102
}
330
10C
100
AcDbScale
 70
     0
300
1/128" = 1'-0"
140
0.0078125
141
12.0
290
     0
  0
SCALE
  5
199
102
{ACAD_REACTORS
330
10C
102
}
330
10C
100
AcDbScale
 70
     0
300
1/64" = 1'-0"
140
0.015625
141
12.0
290
     0
  0
SCALE
  5
19A
102
{ACAD_REACTORS
330
10C
102
}
330
10C
100
AcDbScale
 70
     0
300
1/32" = 1'-0"
140
0.03125
141
12.0
290
     0
  0
SCALE
  5
19B
102
{ACAD_REACTORS
330
10C
102
}
330
10C
100
AcDbScale
 70
     0
300
1/16" = 1'-0"
140
0.0625
141
12.0
290
     0
  0
SCALE
  5
19C
102
{ACAD_REACTORS
330
10C
102
}
330
10C
100
AcDbScale
 70
     0
300
3/32" = 1'-0"
140
0.09375
141
12.0
290
     0
  0
SCALE
  5
19D
102
{ACAD_REACTORS
330
10C
102
}
330
10C
100
AcDbScale
 70
     0
300
1/8" = 1'-0"
140
0.125
141
12.0
290
     0
  0
SCALE
  5
19E
102
{ACAD_REACTORS
330
10C
102
}
330
10C
100
AcDbScale
 70
     0
300
3/16" = 1'-0"
140
0.1875
141
12.0
290
     0
  0
SCALE
  5
19F
102
{ACAD_REACTORS
330
10C
102
}
330
10C
100
AcDbScale
 70
     0
300
1/4" = 1'-0"
140
0.25
141
12.0
290
     0
  0
SCALE
  5
1A0
102
{ACAD_REACTORS
330
10C
102
}
330
10C
100
AcDbScale
 70
     0
300
3/8" = 1'-0"
140
0.375
141
12.0
290
     0
  0
SCALE
  5
1A1
102
{ACAD_REACTORS
330
10C
102
}
330
10C
100
AcDbScale
 70
     0
300
1/2" = 1'-0"
140
0.5
141
12.0
290
     0
  0
SCALE
  5
1A2
102
{ACAD_REACTORS
330
10C
102
}
330
10C
100
AcDbScale
 70
     0
300
3/4" = 1'-0"
140
0.75
141
12.0
290
     0
  0
SCALE
  5
1A3
102
{ACAD_REACTORS
330
10C
102
}
330
10C
100
AcDbScale
 70
     0
300
1" = 1'-0"
140
1.0
141
12.0
290
     0
  0
SCALE
  5
1A4
102
{ACAD_REACTORS
330
10C
102
}
330
10C
100
AcDbScale
 70
     0
300
1-1/2" = 1'-0"
140
1.5
141
12.0
290
     0
  0
SCALE
  5
1A5
102
{ACAD_REACTORS
330
10C
102
}
330
10C
100
AcDbScale
 70
     0
300
3" = 1'-0"
140
3.0
141
12.0
290
     0
  0
SCALE
  5
1A6
102
{ACAD_REACTORS
330
10C
102
}
330
10C
100
AcDbScale
 70
     0
300
6" = 1'-0"
140
6.0
141
12.0
290
     0
  0
SCALE
  5
1A7
102
{ACAD_REACTORS
330
10C
102
}
330
10C
100
AcDbScale
 70
     0
300
1'-0" = 1'-0"
140
12.0
141
12.0
290
     0
  0
TABLESTYLE
  5
7F
102
{ACAD_XDICTIONARY
360
162
102
}
102
{ACAD_REACTORS
330
7E
102
}
330
7E
100
AcDbTableStyle
  3
Standard
 70
     0
 71
     0
 40
1.5
 41
1.5
280
     0
281
     0
  7
Standard
140
4.5
170
     2
 62
     0
 63
     7
283
     0
274
    -2
284
     1
 64
     0
275
    -2
285
     1
 65
     0
276
    -2
286
     1
 66
     0
277
    -2
287
     1
 67
     0
278
    -2
288
     1
 68
     0
279
    -2
289
     1
 69
     0
  7
Standard
140
6.0
170
     5
 62
     0
 63
     7
283
     0
274
    -2
284
     1
 64
     0
275
    -2
285
     1
 65
     0
276
    -2
286
     1
 66
     0
277
    -2
287
     1
 67
     0
278
    -2
288
     1
 68
     0
279
    -2
289
     1
 69
     0
  7
Standard
140
4.5
170
     5
 62
     0
 63
     7
283
     0
274
    -2
284
     1
 64
     0
275
    -2
285
     1
 65
     0
276
    -2
286
     1
 66
     0
277
    -2
287
     1
 67
     0
278
    -2
288
     1
 68
     0
279
    -2
289
     1
 69
     0
  0
VISUALSTYLE
  5
F5
102
{ACAD_REACTORS
330
EF
102
}
330
EF
100
AcDbVisualStyle
  2
2dWireframe
 70
     4
 71
     0
 72
     2
 73
     1
 90
        0
 40
-0.6
 41
-30.0
 62
     5
 63
     7
 74
     1
 91
        4
 64
     7
 65
   257
 75
     1
175
     1
 42
1.0
 92
        0
 66
   257
 43
1.0
 76
     1
 77
     6
 78
     2
 67
     7
 79
     5
170
     0
171
     0
290
     0
174
     0
 93
        1
 44
0.0
173
     0
291
     0
 45
0.0
1001
ACAD
1000
AcDbSavedByObjectVersion
1070
     0
  0
VISUALSTYLE
  5
F7
102
{ACAD_REACTORS
330
EF
102
}
330
EF
100
AcDbVisualStyle
  2
3D Hidden
 70
     6
 71
     1
 72
     2
 73
     2
 90
        0
 40
-0.6
 41
-30.0
 62
     5
 63
     7
 74
     2
 91
        2
 64
     7
 65
   257
 75
     2
175
     1
 42
40.0
 92
        0
 66
   257
 43
1.0
 76
     1
 77
     6
 78
     2
 67
     7
 79
     3
170
     0
171
     0
290
     0
174
     0
 93
        1
 44
0.0
173
     0
291
     0
 45
0.0
1001
ACAD
1000
AcDbSavedByObjectVersion
1070
     0
  0
VISUALSTYLE
  5
F6
102
{ACAD_REACTORS
330
EF
102
}
330
EF
100
AcDbVisualStyle
  2
3dWireframe
 70
     5
 71
     0
 72
     2
 73
     1
 90
        0
 40
-0.6
 41
-30.0
 62
     5
 63
     7
 74
     1
 91
        4
 64
     7
 65
   257
 75
     1
175
     1
 42
1.0
 92
        0
 66
   257
 43
1.0
 76
     1
 77
     6
 78
     2
 67
     7
 79
     5
170
     0
171
     0
290
     0
174
     0
 93
        1
 44
0.0
173
     0
291
     0
 45
0.0
1001
ACAD
1000
AcDbSavedByObjectVersion
1070
     0
  0
VISUALSTYLE
  5
F4
102
{ACAD_REACTORS
330
EF
102
}
330
EF
100
AcDbVisualStyle
  2
Basic
 70
     7
 71
     1
 72
     0
 73
     1
 90
        0
 40
-0.6
 41
-30.0
 62
     5
 63
     7
 74
     0
 91
        4
 64
     7
 65
   257
 75
     1
175
     1
 42
1.0
 92
        8
 66
     7
 43
1.0
 76
     1
 77
     6
 78
     2
 67
     7
 79
     5
170
     0
171
     0
290
     0
174
     0
 93
        1
 44
0.0
173
     0
291
     1
 45
0.0
1001
ACAD
1000
AcDbSavedByObjectVersion
1070
     0
  0
VISUALSTYLE
  5
FB
102
{ACAD_REACTORS
330
EF
102
}
330
EF
100
AcDbVisualStyle
  2
Brighten
 70
    12
 71
     2
 72
     2
 73
     1
 90
        0
 40
-0.6
 41
-30.0
 62
     5
 63
     7
 74
     1
 91
        4
 64
     7
 65
   257
 75
     1
175
     1
 42
1.0
 92
        8
 66
     7
 43
1.0
 76
     1
 77
     6
 78
     2
 67
     7
 79
     5
170
     0
171
     0
290
     0
174
     0
 93
        1
 44
50.0
173
     0
291
     1
 45
0.0
1001
ACAD
1000
AcDbSavedByObjectVersion
1070
     0
  0
VISUALSTYLE
  5
FF
102
{ACAD_REACTORS
330
EF
102
}
330
EF
100
AcDbVisualStyle
  2
ColorChange
 70
    16
 71
     2
 72
     2
 73
     3
 90
        0
 40
-0.6
 41
-30.0
 62
     5
 63
     8
 74
     1
 91
        4
 64
     7
 65
   257
 75
     1
175
     1
 42
1.0
 92
        8
 66
     8
 43
1.0
 76
     1
 77
     6
 78
     2
 67
     7
 79
     5
170
     0
171
     0
290
     0
174
     0
 93
        1
 44
0.0
173
     0
291
     1
 45
0.0
1001
ACAD
1000
AcDbSavedByObjectVersion
1070
     0
  0
VISUALSTYLE
  5
F8
102
{ACAD_REACTORS
330
EF
102
}
330
EF
100
AcDbVisualStyle
  2
Conceptual
 70
     9
 71
     3
 72
     2
 73
     1
 90
        0
 40
-0.6
 41
-30.0
 62
     5
 63
     7
 74
     2
 91
        2
 64
     7
 65
   257
 75
     1
175
     1
 42
40.0
 92
        8
 66
     7
 43
1.0
 76
     1
 77
     6
 78
     2
 67
     7
 79
     3
170
     0
171
     0
290
     0
174
     0
 93
        1
 44
0.0
173
     0
291
     0
 45
0.0
1001
ACAD
1000
AcDbSavedByObjectVersion
1070
     0
  0
VISUALSTYLE
  5
FA
102
{ACAD_REACTORS
330
EF
102
}
330
EF
100
AcDbVisualStyle
  2
Dim
 70
    11
 71
     2
 72
     2
 73
     1
 90
        0
 40
-0.6
 41
-30.0
 62
     5
 63
     7
 74
     1
 91
        4
 64
     7
 65
   257
 75
     1
175
     1
 42
1.0
 92
        8
 66
     7
 43
1.0
 76
     1
 77
     6
 78
     2
 67
     7
 79
     5
170
     0
171
     0
290
     0
174
     0
 93
        1
 44
-50.0
173
     0
291
     1
 45
0.0
1001
ACAD
1000
AcDbSavedByObjectVersion
1070
     0
  0
VISUALSTYLE
  5
FE
102
{ACAD_REACTORS
330
EF
102
}
330
EF
100
AcDbVisualStyle
  2
Facepattern
 70
    15
 71
     2
 72
     2
 73
     1
 90
        0
 40
-0.6
 41
-30.0
 62
     5
 63
     7
 74
     1
 91
        4
 64
     7
 65
   257
 75
     1
175
     1
 42
1.0
 92
        8
 66
     7
 43
1.0
 76
     1
 77
     6
 78
     2
 67
     7
 79
     5
170
     0
171
     0
290
     0
174
     0
 93
        1
 44
0.0
173
     0
291
     1
 45
0.0
1001
ACAD
1000
AcDbSavedByObjectVersion
1070
     0
  0
VISUALSTYLE
  5
F0
102
{ACAD_REACTORS
330
EF
102
}
330
EF
100
AcDbVisualStyle
  2
Flat
 70
     0
 71
     2
 72
     1
 73
     1
 90
        2
 40
-0.6
 41
30.0
 62
     5
 63
     7
 74
     0
 91
        4
 64
     7
 65
   257
 75
     1
175
     1
 42
1.0
 92
        8
 66
     7
 43
1.0
 76
     1
 77
     6
 78
     2
 67
     7
 79
     5
170
     0
171
     0
290
     0
174
     0
 93
        1
 44
0.0
173
     0
291
     1
 45
0.0
1001
ACAD
1000
AcDbSavedByObjectVersion
1070
     0
  0
VISUALSTYLE
  5
F1
102
{ACAD_REACTORS
330
EF
102
}
330
EF
100
AcDbVisualStyle
  2
FlatWithEdges
 70
     1
 71
     2
 72
     1
 73
     1
 90
        2
 40
-0.6
 41
30.0
 62
     5
 63
     7
 74
     1
 91
        4
 64
     7
 65
   257
 75
     1
175
     1
 42
1.0
 92
        0
 66
   257
 43
1.0
 76
     1
 77
     6
 78
     2
 67
     7
 79
     5
170
     0
171
     0
290
     0
174
     0
 93
        1
 44
0.0
173
     0
291
     1
 45
0.0
1001
ACAD
1000
AcDbSavedByObjectVersion
1070
     0
  0
VISUALSTYLE
  5
F2
102
{ACAD_REACTORS
330
EF
102
}
330
EF
100
AcDbVisualStyle
  2
Gouraud
 70
     2
 71
     2
 72
     2
 73
     1
 90
        2
 40
-0.6
 41
30.0
 62
     5
 63
     7
 74
     0
 91
        4
 64
     7
 65
   257
 75
     1
175
     1
 42
1.0
 92
        0
 66
     7
 43
1.0
 76
     1
 77
     6
 78
     2
 67
     7
 79
     5
170
     0
171
     0
290
     0
174
     0
 93
        1
 44
0.0
173
     0
291
     1
 45
0.0
1001
ACAD
1000
AcDbSavedByObjectVersion
1070
     0
  0
VISUALSTYLE
  5
F3
102
{ACAD_REACTORS
330
EF
102
}
330
EF
100
AcDbVisualStyle
  2
GouraudWithEdges
 70
     3
 71
     2
 72
     2
 73
     1
 90
        2
 40
-0.6
 41
30.0
 62
     5
 63
     7
 74
     1
 91
        4
 64
     7
 65
   257
 75
     1
175
     1
 42
1.0
 92
        0
 66
   257
 43
1.0
 76
     1
 77
     6
 78
     2
 67
     7
 79
     5
170
     0
171
     0
290
     0
174
     0
 93
        1
 44
0.0
173
     0
291
     1
 45
0.0
1001
ACAD
1000
AcDbSavedByObjectVersion
1070
     0
  0
VISUALSTYLE
  5
FD
102
{ACAD_REACTORS
330
EF
102
}
330
EF
100
AcDbVisualStyle
  2
Linepattern
 70
    14
 71
     2
 72
     2
 73
     1
 90
        0
 40
-0.6
 41
-30.0
 62
     5
 63
     7
 74
     1
 91
        4
 64
     7
 65
   257
 75
     7
175
     7
 42
1.0
 92
        8
 66
     7
 43
1.0
 76
     1
 77
     6
 78
     2
 67
     7
 79
     5
170
     0
171
     0
290
     0
174
     0
 93
        1
 44
0.0
173
     0
291
     1
 45
0.0
1001
ACAD
1000
AcDbSavedByObjectVersion
1070
     0
  0
VISUALSTYLE
  5
F9
102
{ACAD_REACTORS
330
EF
102
}
330
EF
100
AcDbVisualStyle
  2
Realistic
 70
     8
 71
     2
 72
     2
 73
     1
 90
        0
 40
-0.6
 41
-30.0
 62
     5
 63
     7
 74
     1
 91
        0
 64
     7
 65
   257
 75
     1
175
     1
 42
1.0
 92
        8
 66
     8
 43
1.0
 76
     1
 77
     6
 78
     2
 67
     7
 79
     5
170
     0
171
     0
290
     0
174
     0
 93
       13
 44
0.0
173
     0
291
     0
 45
0.0
1001
ACAD
1000
AcDbSavedByObjectVersion
1070
     0
  0
VISUALSTYLE
  5
FC
102
{ACAD_REACTORS
330
EF
102
}
330
EF
100
AcDbVisualStyle
  2
Thicken
 70
    13
 71
     2
 72
     2
 73
     1
 90
        0
 40
-0.6
 41
-30.0
 62
     5
 63
     7
 74
     1
 91
        4
 64
     7
 65
   257
 75
     1
175
     1
 42
1.0
 92
       12
 66
     7
 43
1.0
 76
     1
 77
     6
 78
     2
 67
     7
 79
     5
170
     0
171
     0
290
     0
174
     0
 93
        1
 44
0.0
173
     0
291
     1
 45
0.0
1001
ACAD
1000
AcDbSavedByObjectVersion
1070
     0
  0
DICTIONARYVAR
  5
146
102
{ACAD_REACTORS
330
5E
102
}
330
5E
100
DictionaryVariables
280
     0
  1
1:1
  0
DICTIONARYVAR
  5
145
102
{ACAD_REACTORS
330
5E
102
}
330
5E
100
DictionaryVariables
280
     0
  1
STANDARD
  0
DICTIONARYVAR
  5
84
102
{ACAD_REACTORS
330
5E
102
}
330
5E
100
DictionaryVariables
280
     0
  1
STANDARD
  0
DICTIONARYVAR
  5
5F
102
{ACAD_REACTORS
330
5E
102
}
330
5E
100
DictionaryVariables
280
     0
  1
2
  0
DICTIONARYVAR
  5
63
102
{ACAD_REACTORS
330
5E
102
}
330
5E
100
DictionaryVariables
280
     0
  1
1
  0
DICTIONARYVAR
  5
D34
102
{ACAD_REACTORS
330
5E
102
}
330
5E
100
DictionaryVariables
280
     0
  1
0
  0
DICTIONARYVAR
  5
D32
102
{ACAD_REACTORS
330
5E
102
}
330
5E
100
DictionaryVariables
280
     0
  1
2
  0
DICTIONARYVAR
  5
D37
102
{ACAD_REACTORS
330
5E
102
}
330
5E
100
DictionaryVariables
280
     0
  1
1.570796
  0
DICTIONARYVAR
  5
D38
102
{ACAD_REACTORS
330
5E
102
}
330
5E
100
DictionaryVariables
280
     0
  1
1.570796
  0
DICTIONARYVAR
  5
D39
102
{ACAD_REACTORS
330
5E
102
}
330
5E
100
DictionaryVariables
280
     0
  1
-122.394000
  0
DICTIONARYVAR
  5
D31
102
{ACAD_REACTORS
330
5E
102
}
330
5E
100
DictionaryVariables
280
     0
  1
1
  0
DICTIONARYVAR
  5
D36
102
{ACAD_REACTORS
330
5E
102
}
330
5E
100
DictionaryVariables
280
     0
  1
80.000000
  0
DICTIONARYVAR
  5
D35
102
{ACAD_REACTORS
330
5E
102
}
330
5E
100
DictionaryVariables
280
     0
  1
5.000000
  0
DICTIONARYVAR
  5
D33
102
{ACAD_REACTORS
330
5E
102
}
330
5E
100
DictionaryVariables
280
     0
  1
127
  0
DICTIONARY
  5
D3F
330
D3
100
AcDbDictionary
280
     1
281
     1
  3
ACAD_XREC_ROUNDTRIP
360
D40
  0
DICTIONARY
  5
D41
330
D7
100
AcDbDictionary
280
     1
281
     1
  3
ACAD_XREC_ROUNDTRIP
360
D42
  0
DICTIONARY
  5
D3C
330
22
100
AcDbDictionary
280
     1
281
     1
  3
ACAD_XREC_ROUNDTRIP
360
D3D
  0
DICTIONARY
  5
D45
330
ED
100
AcDbDictionary
280
     1
281
     1
  3
ACAD_XREC_ROUNDTRIP
360
D46
  0
DICTIONARY
  5
D43
330
EC
100
AcDbDictionary
280
     1
281
     1
  3
ACAD_XREC_ROUNDTRIP
360
D44
  0
DICTIONARY
  5
173
330
EE
100
AcDbDictionary
280
     1
281
     1
  3
ACAD_XREC_ROUNDTRIP
360
D47
  3
BUMPTILE
360
175
  3
DIFFUSETILE
360
174
  3
OPACITYTILE
360
176
  3
REFLECTIONTILE
360
177
  0
DICTIONARY
  5
162
330
7F
100
AcDbDictionary
280
     1
281
     1
  3
ACAD_ROUNDTRIP_2008_TABLESTYLE_CELLSTYLEMAP
360
D3A
  3
ACAD_XREC_ROUNDTRIP
360
D3E
  0
XRECORD
  5
D40
102
{ACAD_REACTORS
330
D3F
102
}
330
D3F
100
AcDbXrecord
280
     1
102
SHADEPLOT
 70
     0
102
SHADEPLOTRESLEVEL
 70
     2
102
SHADEPLOTCUSTOMDPI
 70
   300
  0
XRECORD
  5
D42
102
{ACAD_REACTORS
330
D41
102
}
330
D41
100
AcDbXrecord
280
     1
102
SHADEPLOT
 70
     0
102
SHADEPLOTRESLEVEL
 70
     2
102
SHADEPLOTCUSTOMDPI
 70
   300
  0
XRECORD
  5
D3D
102
{ACAD_REACTORS
330
D3C
102
}
330
D3C
100
AcDbXrecord
280
     1
102
SHADEPLOT
 70
     0
102
SHADEPLOTRESLEVEL
 70
     2
102
SHADEPLOTCUSTOMDPI
 70
   300
  0
XRECORD
  5
D46
102
{ACAD_REACTORS
330
D45
102
}
330
D45
100
AcDbXrecord
280
     1
102
MATERIAL
148
0.0
149
0.0
149
0.0
 93
        0
 94
       63
282
     0
 72
     1
 77
     1
171
     1
175
     1
179
     1
273
     0
  0
XRECORD
  5
D44
102
{ACAD_REACTORS
330
D43
102
}
330
D43
100
AcDbXrecord
280
     1
102
MATERIAL
148
0.0
149
0.0
149
0.0
 93
        0
 94
       63
282
     0
 72
     1
 77
     1
171
     1
175
     1
179
     1
273
     0
  0
XRECORD
  5
D47
102
{ACAD_REACTORS
330
173
102
}
330
173
100
AcDbXrecord
280
     1
102
MATERIAL
148
0.0
149
0.0
149
0.0
 93
        0
 94
       63
282
     0
 72
     1
 77
     1
171
     1
175
     1
179
     1
273
     0
  0
XRECORD
  5
175
102
{ACAD_REACTORS
330
173
102
}
330
173
100
AcDbXrecord
280
     1
270
     1
271
     1
  0
XRECORD
  5
174
102
{ACAD_REACTORS
330
173
102
}
330
173
100
AcDbXrecord
280
     1
270
     1
271
     1
  0
XRECORD
  5
176
102
{ACAD_REACTORS
330
173
102
}
330
173
100
AcDbXrecord
280
     1
270
     1
271
     1
  0
XRECORD
  5
177
102
{ACAD_REACTORS
330
173
102
}
330
173
100
AcDbXrecord
280
     1
270
     1
271
     1
  0
CELLSTYLEMAP
  5
D3A
102
{ACAD_REACTORS
330
162
102
}
330
162
100
AcDbCellStyleMap
 90
        3
300
CELLSTYLE
  1
TABLEFORMAT_BEGIN
 90
        5
170
     1
 91
        0
 92
    32768
 62
   257
 93
        1
300
CONTENTFORMAT
  1
CONTENTFORMAT_BEGIN
 90
        0
 91
        0
 92
      512
 93
        0
300

 40
0.0
140
1.0
 94
        5
 62
     0
340
11
144
6.0
309
CONTENTFORMAT_END
171
     1
301
MARGIN
  1
CELLMARGIN_BEGIN
 40
1.5
 40
1.5
 40
1.5
 40
1.5
 40
0.18
 40
0.18
309
CELLMARGIN_END
 94
        6
 95
        1
302
GRIDFORMAT
  1
GRIDFORMAT_BEGIN
 90
        0
 91
        1
 62
     0
 92
       -2
340
14
 93
        0
 40
1.125
309
GRIDFORMAT_END
 95
        2
302
GRIDFORMAT
  1
GRIDFORMAT_BEGIN
 90
        0
 91
        1
 62
     0
 92
       -2
340
14
 93
        0
 40
1.125
309
GRIDFORMAT_END
 95
        4
302
GRIDFORMAT
  1
GRIDFORMAT_BEGIN
 90
        0
 91
        1
 62
     0
 92
       -2
340
14
 93
        0
 40
1.125
309
GRIDFORMAT_END
 95
        8
302
GRIDFORMAT
  1
GRIDFORMAT_BEGIN
 90
        0
 91
        1
 62
     0
 92
       -2
340
14
 93
        0
 40
1.125
309
GRIDFORMAT_END
 95
       16
302
GRIDFORMAT
  1
GRIDFORMAT_BEGIN
 90
        0
 91
        1
 62
     0
 92
       -2
340
14
 93
        0
 40
1.125
309
GRIDFORMAT_END
 95
       32
302
GRIDFORMAT
  1
GRIDFORMAT_BEGIN
 90
        0
 91
        1
 62
     0
 92
       -2
340
14
 93
        0
 40
1.125
309
GRIDFORMAT_END
309
TABLEFORMAT_END
  1
CELLSTYLE_BEGIN
 90
        1
 91
        1
300
_TITLE
309
CELLSTYLE_END
300
CELLSTYLE
  1
TABLEFORMAT_BEGIN
 90
        5
170
     1
 91
        0
 92
        0
 62
   257
 93
        1
300
CONTENTFORMAT
  1
CONTENTFORMAT_BEGIN
 90
        0
 91
        0
 92
      512
 93
        0
300

 40
0.0
140
1.0
 94
        5
 62
     0
340
11
144
4.5
309
CONTENTFORMAT_END
171
     1
301
MARGIN
  1
CELLMARGIN_BEGIN
 40
1.5
 40
1.5
 40
1.5
 40
1.5
 40
0.18
 40
0.18
309
CELLMARGIN_END
 94
        6
 95
        1
302
GRIDFORMAT
  1
GRIDFORMAT_BEGIN
 90
        0
 91
        1
 62
     0
 92
       -2
340
14
 93
        0
 40
1.125
309
GRIDFORMAT_END
 95
        2
302
GRIDFORMAT
  1
GRIDFORMAT_BEGIN
 90
        0
 91
        1
 62
     0
 92
       -2
340
14
 93
        0
 40
1.125
309
GRIDFORMAT_END
 95
        4
302
GRIDFORMAT
  1
GRIDFORMAT_BEGIN
 90
        0
 91
        1
 62
     0
 92
       -2
340
14
 93
        0
 40
1.125
309
GRIDFORMAT_END
 95
        8
302
GRIDFORMAT
  1
GRIDFORMAT_BEGIN
 90
        0
 91
        1
 62
     0
 92
       -2
340
14
 93
        0
 40
1.125
309
GRIDFORMAT_END
 95
       16
302
GRIDFORMAT
  1
GRIDFORMAT_BEGIN
 90
        0
 91
        1
 62
     0
 92
       -2
340
14
 93
        0
 40
1.125
309
GRIDFORMAT_END
 95
       32
302
GRIDFORMAT
  1
GRIDFORMAT_BEGIN
 90
        0
 91
        1
 62
     0
 92
       -2
340
14
 93
        0
 40
1.125
309
GRIDFORMAT_END
309
TABLEFORMAT_END
  1
CELLSTYLE_BEGIN
 90
        2
 91
        1
300
_HEADER
309
CELLSTYLE_END
300
CELLSTYLE
  1
TABLEFORMAT_BEGIN
 90
        5
170
     1
 91
        0
 92
        0
 62
   257
 93
        1
300
CONTENTFORMAT
  1
CONTENTFORMAT_BEGIN
 90
        0
 91
        0
 92
      512
 93
        0
300

 40
0.0
140
1.0
 94
        2
 62
     0
340
11
144
4.5
309
CONTENTFORMAT_END
171
     1
301
MARGIN
  1
CELLMARGIN_BEGIN
 40
1.5
 40
1.5
 40
1.5
 40
1.5
 40
0.18
 40
0.18
309
CELLMARGIN_END
 94
        6
 95
        1
302
GRIDFORMAT
  1
GRIDFORMAT_BEGIN
 90
        0
 91
        1
 62
     0
 92
       -2
340
14
 93
        0
 40
1.125
309
GRIDFORMAT_END
 95
        2
302
GRIDFORMAT
  1
GRIDFORMAT_BEGIN
 90
        0
 91
        1
 62
     0
 92
       -2
340
14
 93
        0
 40
1.125
309
GRIDFORMAT_END
 95
        4
302
GRIDFORMAT
  1
GRIDFORMAT_BEGIN
 90
        0
 91
        1
 62
     0
 92
       -2
340
14
 93
        0
 40
1.125
309
GRIDFORMAT_END
 95
        8
302
GRIDFORMAT
  1
GRIDFORMAT_BEGIN
 90
        0
 91
        1
 62
     0
 92
       -2
340
14
 93
        0
 40
1.125
309
GRIDFORMAT_END
 95
       16
302
GRIDFORMAT
  1
GRIDFORMAT_BEGIN
 90
        0
 91
        1
 62
     0
 92
       -2
340
14
 93
        0
 40
1.125
309
GRIDFORMAT_END
 95
       32
302
GRIDFORMAT
  1
GRIDFORMAT_BEGIN
 90
        0
 91
        1
 62
     0
 92
       -2
340
14
 93
        0
 40
1.125
309
GRIDFORMAT_END
309
TABLEFORMAT_END
  1
CELLSTYLE_BEGIN
 90
        3
 91
        2
300
_DATA
309
CELLSTYLE_END
  0
XRECORD
  5
D3E
102
{ACAD_REACTORS
330
162
102
}
330
162
100
AcDbXrecord
280
     1
102
ACAD_ROUNDTRIP_PRE2007_TABLESTYLE
 90
      512
 91
        0
  1

 92
      512
 93
        0
  2

 94
      512
 95
        0
  3

  0
ENDSEC
  0
EOF
