  0
SECTION
  2
HEADER
  9
$ACADVER
  1
AC1015
  9
$ACADMAINTVER
 70
    20
  9
$DWGCODEPAGE
  3
ANSI_1254
  9
$INSBASE
 10
0.0
 20
0.0
 30
0.0
  9
$EXTMIN
 10
1935.715256082338
 20
900.4776185206502
 30
0.0
  9
$EXTMAX
 10
2121.851804583059
 20
1005.853675421791
 30
0.0
  9
$LIMMIN
 10
0.0
 20
0.0
  9
$LIMMAX
 10
420.0
 20
297.0
  9
$ORTHOMODE
 70
     1
  9
$REGENMODE
 70
     1
  9
$FILLMODE
 70
     1
  9
$QTEXTMODE
 70
     0
  9
$MIRRTEXT
 70
     0
  9
$LTSCALE
 40
1.0
  9
$ATTMODE
 70
     1
  9
$TEXTSIZE
 40
2.5
  9
$TRACEWID
 40
1.0
  9
$TEXTSTYLE
  7
Standard
  9
$CLAYER
  8
0
  9
$CELTYPE
  6
ByLayer
  9
$CECOLOR
 62
   256
  9
$CELTSCALE
 40
1.0
  9
$DISPSILH
 70
     0
  9
$DIMSCALE
 40
1.0
  9
$DIMASZ
 40
2.5
  9
$DIMEXO
 40
0.625
  9
$DIMDLI
 40
3.75
  9
$DIMRND
 40
0.0
  9
$DIMDLE
 40
0.0
  9
$DIMEXE
 40
1.25
  9
$DIMTP
 40
0.0
  9
$DIMTM
 40
0.0
  9
$DIMTXT
 40
2.5
  9
$DIMCEN
 40
2.5
  9
$DIMTSZ
 40
0.0
  9
$DIMTOL
 70
     0
  9
$DIMLIM
 70
     0
  9
$DIMTIH
 70
     0
  9
$DIMTOH
 70
     0
  9
$DIMSE1
 70
     0
  9
$DIMSE2
 70
     0
  9
$DIMTAD
 70
     1
  9
$DIMZIN
 70
     8
  9
$DIMBLK
  1

  9
$DIMASO
 70
     1
  9
$DIMSHO
 70
     1
  9
$DIMPOST
  1

  9
$DIMAPOST
  1

  9
$DIMALT
 70
     0
  9
$DIMALTD
 70
     3
  9
$DIMALTF
 40
0.03937007874016
  9
$DIMLFAC
 40
1.0
  9
$DIMTOFL
 70
     1
  9
$DIMTVP
 40
0.0
  9
$DIMTIX
 70
     0
  9
$DIMSOXD
 70
     0
  9
$DIMSAH
 70
     0
  9
$DIMBLK1
  1

  9
$DIMBLK2
  1

  9
$DIMSTYLE
  2
ISO-25
  9
$DIMCLRD
 70
     0
  9
$DIMCLRE
 70
     0
  9
$DIMCLRT
 70
     0
  9
$DIMTFAC
 40
1.0
  9
$DIMGAP
 40
0.625
  9
$DIMJUST
 70
     0
  9
$DIMSD1
 70
     0
  9
$DIMSD2
 70
     0
  9
$DIMTOLJ
 70
     0
  9
$DIMTZIN
 70
     8
  9
$DIMALTZ
 70
     0
  9
$DIMALTTZ
 70
     0
  9
$DIMUPT
 70
     0
  9
$DIMDEC
 70
     2
  9
$DIMTDEC
 70
     2
  9
$DIMALTU
 70
     2
  9
$DIMALTTD
 70
     3
  9
$DIMTXSTY
  7
Standard
  9
$DIMAUNIT
 70
     0
  9
$DIMADEC
 70
     0
  9
$DIMALTRND
 40
0.0
  9
$DIMAZIN
 70
     0
  9
$DIMDSEP
 70
    44
  9
$DIMATFIT
 70
     3
  9
$DIMFRAC
 70
     0
  9
$DIMLDRBLK
  1

  9
$DIMLUNIT
 70
     2
  9
$DIMLWD
 70
    -2
  9
$DIMLWE
 70
    -2
  9
$DIMTMOVE
 70
     0
  9
$LUNITS
 70
     2
  9
$LUPREC
 70
     4
  9
$SKETCHINC
 40
1.0
  9
$FILLETRAD
 40
0.0
  9
$AUNITS
 70
     0
  9
$AUPREC
 70
     0
  9
$MENU
  1
.
  9
$ELEVATION
 40
0.0
  9
$PELEVATION
 40
0.0
  9
$THICKNESS
 40
0.0
  9
$LIMCHECK
 70
     0
  9
$CHAMFERA
 40
0.0
  9
$CHAMFERB
 40
0.0
  9
$CHAMFERC
 40
0.0
  9
$CHAMFERD
 40
0.0
  9
$SKPOLY
 70
     0
  9
$TDCREATE
 40
2458450.661657257
  9
$TDUCREATE
 40
2458450.536657257
  9
$TDUPDATE
 40
2458956.401271863
  9
$TDUUPDATE
 40
2458956.276271863
  9
$TDINDWG
 40
0.0038077315
  9
$TDUSRTIMER
 40
0.0038075579
  9
$USRTIMER
 70
     1
  9
$ANGBASE
 50
0.0
  9
$ANGDIR
 70
     0
  9
$PDMODE
 70
     0
  9
$PDSIZE
 40
0.0
  9
$PLINEWID
 40
0.0
  9
$SPLFRAME
 70
     0
  9
$SPLINETYPE
 70
     6
  9
$SPLINESEGS
 70
     8
  9
$HANDSEED
  5
EBF
  9
$SURFTAB1
 70
     6
  9
$SURFTAB2
 70
     6
  9
$SURFTYPE
 70
     6
  9
$SURFU
 70
     6
  9
$SURFV
 70
     6
  9
$UCSBASE
  2

  9
$UCSNAME
  2

  9
$UCSORG
 10
0.0
 20
0.0
 30
0.0
  9
$UCSXDIR
 10
1.0
 20
0.0
 30
0.0
  9
$UCSYDIR
 10
0.0
 20
1.0
 30
0.0
  9
$UCSORTHOREF
  2

  9
$UCSORTHOVIEW
 70
     0
  9
$UCSORGTOP
 10
0.0
 20
0.0
 30
0.0
  9
$UCSORGBOTTOM
 10
0.0
 20
0.0
 30
0.0
  9
$UCSORGLEFT
 10
0.0
 20
0.0
 30
0.0
  9
$UCSORGRIGHT
 10
0.0
 20
0.0
 30
0.0
  9
$UCSORGFRONT
 10
0.0
 20
0.0
 30
0.0
  9
$UCSORGBACK
 10
0.0
 20
0.0
 30
0.0
  9
$PUCSBASE
  2

  9
$PUCSNAME
  2

  9
$PUCSORG
 10
0.0
 20
0.0
 30
0.0
  9
$PUCSXDIR
 10
1.0
 20
0.0
 30
0.0
  9
$PUCSYDIR
 10
0.0
 20
1.0
 30
0.0
  9
$PUCSORTHOREF
  2

  9
$PUCSORTHOVIEW
 70
     0
  9
$PUCSORGTOP
 10
0.0
 20
0.0
 30
0.0
  9
$PUCSORGBOTTOM
 10
0.0
 20
0.0
 30
0.0
  9
$PUCSORGLEFT
 10
0.0
 20
0.0
 30
0.0
  9
$PUCSORGRIGHT
 10
0.0
 20
0.0
 30
0.0
  9
$PUCSORGFRONT
 10
0.0
 20
0.0
 30
0.0
  9
$PUCSORGBACK
 10
0.0
 20
0.0
 30
0.0
  9
$USERI1
 70
     0
  9
$USERI2
 70
     0
  9
$USERI3
 70
     0
  9
$USERI4
 70
     0
  9
$USERI5
 70
     0
  9
$USERR1
 40
0.0
  9
$USERR2
 40
0.0
  9
$USERR3
 40
0.0
  9
$USERR4
 40
0.0
  9
$USERR5
 40
0.0
  9
$WORLDVIEW
 70
     1
  9
$SHADEDGE
 70
     3
  9
$SHADEDIF
 70
    70
  9
$TILEMODE
 70
     1
  9
$MAXACTVP
 70
    64
  9
$PINSBASE
 10
0.0
 20
0.0
 30
0.0
  9
$PLIMCHECK
 70
     0
  9
$PEXTMIN
 10
0.0
 20
0.0
 30
0.0
  9
$PEXTMAX
 10
0.0
 20
0.0
 30
0.0
  9
$PLIMMIN
 10
0.0
 20
0.0
  9
$PLIMMAX
 10
12.0
 20
9.0
  9
$UNITMODE
 70
     0
  9
$VISRETAIN
 70
     1
  9
$PLINEGEN
 70
     0
  9
$PSLTSCALE
 70
     1
  9
$TREEDEPTH
 70
  3020
  9
$CMLSTYLE
  2
Standard
  9
$CMLJUST
 70
     0
  9
$CMLSCALE
 40
20.0
  9
$PROXYGRAPHICS
 70
     1
  9
$MEASUREMENT
 70
     1
  9
$CELWEIGHT
370
    -1
  9
$ENDCAPS
280
     0
  9
$JOINSTYLE
280
     0
  9
$LWDISPLAY
290
     0
  9
$INSUNITS
 70
     4
  9
$HYPERLINKBASE
  1

  9
$STYLESHEET
  1

  9
$XEDIT
290
     1
  9
$CEPSNTYPE
380
     0
  9
$PSTYLEMODE
290
     1
  9
$FINGERPRINTGUID
  2
{71E61EF3-AB9E-4D36-8ED3-8390440D70B5}
  9
$VERSIONGUID
  2
{4FF58B04-55E6-405E-A353-603E2116FB9B}
  9
$EXTNAMES
290
     1
  9
$PSVPSCALE
 40
0.0
  9
$OLESTARTUP
290
     0
  0
ENDSEC
  0
SECTION
  2
CLASSES
  0
CLASS
  1
ACDBDICTIONARYWDFLT
  2
AcDbDictionaryWithDefault
  3
ObjectDBX Classes
 90
        0
280
     0
281
     0
  0
CLASS
  1
ACDBPLACEHOLDER
  2
AcDbPlaceHolder
  3
ObjectDBX Classes
 90
        0
280
     0
281
     0
  0
CLASS
  1
LAYOUT
  2
AcDbLayout
  3
ObjectDBX Classes
 90
        0
280
     0
281
     0
  0
CLASS
  1
DICTIONARYVAR
  2
AcDbDictionaryVar
  3
ObjectDBX Classes
 90
        0
280
     0
281
     0
  0
CLASS
  1
TABLESTYLE
  2
AcDbTableStyle
  3
ObjectDBX Classes
 90
     4095
280
     0
281
     0
  0
CLASS
  1
MATERIAL
  2
AcDbMaterial
  3
ObjectDBX Classes
 90
     1153
280
     0
281
     0
  0
CLASS
  1
VISUALSTYLE
  2
AcDbVisualStyle
  3
ObjectDBX Classes
 90
     4095
280
     0
281
     0
  0
CLASS
  1
SCALE
  2
AcDbScale
  3
ObjectDBX Classes
 90
     1153
280
     0
281
     0
  0
CLASS
  1
MLEADERSTYLE
  2
AcDbMLeaderStyle
  3
ACDB_MLEADERSTYLE_CLASS
 90
     4095
280
     0
281
     0
  0
CLASS
  1
CELLSTYLEMAP
  2
AcDbCellStyleMap
  3
ObjectDBX Classes
 90
     1152
280
     0
281
     0
  0
CLASS
  1
ACAD_EVALUATION_GRAPH
  2
AcDbEvalGraph
  3
ObjectDBX Classes
 90
    33921
280
     0
281
     0
  0
CLASS
  1
ACAECUSTOBJ
  2
AcAeEditorObj
  3
AcAeEditorObj
 90
    33792
280
     0
281
     0
  0
CLASS
  1
ACDB_DYNAMICBLOCKPURGEPREVENTER_VERSION
  2
AcDbDynamicBlockPurgePreventer
  3
ObjectDBX Classes
 90
    33921
280
     0
281
     0
  0
CLASS
  1
ACDB_BLOCKREPRESENTATION_DATA
  2
AcDbBlockRepresentationData
  3
ObjectDBX Classes
 90
    33921
280
     0
281
     0
  0
ENDSEC
  0
SECTION
  2
TABLES
  0
TABLE
  2
VPORT
  5
8
330
0
100
AcDbSymbolTable
 70
     1
  0
VPORT
  5
EA
330
8
100
AcDbSymbolTableRecord
100
AcDbViewportTableRecord
  2
*Active
 70
     0
 10
0.0
 20
0.0
 11
1.0
 21
1.0
 12
2056.383134546639
 22
968.3431759497109
 13
0.0
 23
0.0
 14
10.0
 24
10.0
 15
10.0
 25
10.0
 16
0.0
 26
0.0
 36
1.0
 17
0.0
 27
0.0
 37
0.0
 40
189.2964722742026
 41
1.903110047846889
 42
50.0
 43
0.0
 44
0.0
 50
0.0
 51
0.0
 71
     0
 72
  1000
 73
     1
 74
     3
 75
     0
 76
     0
 77
     0
 78
     0
281
     0
 65
     1
110
0.0
120
0.0
130
0.0
111
1.0
121
0.0
131
0.0
112
0.0
122
1.0
132
0.0
 79
     0
146
0.0
  0
ENDTAB
  0
TABLE
  2
LTYPE
  5
5
330
0
100
AcDbSymbolTable
 70
     1
  0
LTYPE
  5
14
330
5
100
AcDbSymbolTableRecord
100
AcDbLinetypeTableRecord
  2
ByBlock
 70
     0
  3

 72
    65
 73
     0
 40
0.0
  0
LTYPE
  5
15
330
5
100
AcDbSymbolTableRecord
100
AcDbLinetypeTableRecord
  2
ByLayer
 70
     0
  3

 72
    65
 73
     0
 40
0.0
  0
LTYPE
  5
16
330
5
100
AcDbSymbolTableRecord
100
AcDbLinetypeTableRecord
  2
Continuous
 70
     0
  3
Solid line
 72
    65
 73
     0
 40
0.0
  0
ENDTAB
  0
TABLE
  2
LAYER
  5
2
330
0
100
AcDbSymbolTable
 70
     1
  0
LAYER
  5
10
102
{ACAD_XDICTIONARY
360
13C
102
}
330
2
100
AcDbSymbolTableRecord
100
AcDbLayerTableRecord
  2
0
 70
     0
 62
     7
  6
Continuous
370
    -3
390
F
  0
ENDTAB
  0
TABLE
  2
STYLE
  5
3
330
0
100
AcDbSymbolTable
 70
     2
  0
STYLE
  5
11
330
3
100
AcDbSymbolTableRecord
100
AcDbTextStyleTableRecord
  2
Standard
 70
     0
 40
0.0
 41
1.0
 50
0.0
 71
     0
 42
2.5
  3
txt
  4

  0
STYLE
  5
132
330
3
100
AcDbSymbolTableRecord
100
AcDbTextStyleTableRecord
  2
Annotative
 70
     0
 40
0.0
 41
1.0
 50
0.0
 71
     0
 42
2.5
  3
txt.shx
  4

1001
AcadAnnotative
1000
AnnotativeData
1002
{
1070
     1
1070
     1
1002
}
  0
ENDTAB
  0
TABLE
  2
VIEW
  5
6
330
0
100
AcDbSymbolTable
 70
     0
  0
ENDTAB
  0
TABLE
  2
UCS
  5
7
330
0
100
AcDbSymbolTable
 70
     0
  0
ENDTAB
  0
TABLE
  2
APPID
  5
9
330
0
100
AcDbSymbolTable
 70
    13
  0
APPID
  5
12
330
9
100
AcDbSymbolTableRecord
100
AcDbRegAppTableRecord
  2
ACAD
 70
     0
  0
APPID
  5
9E
330
9
100
AcDbSymbolTableRecord
100
AcDbRegAppTableRecord
  2
ACAD_PSEXT
 70
     0
  0
APPID
  5
133
330
9
100
AcDbSymbolTableRecord
100
AcDbRegAppTableRecord
  2
AcadAnnoPO
 70
     0
  0
APPID
  5
134
330
9
100
AcDbSymbolTableRecord
100
AcDbRegAppTableRecord
  2
AcadAnnotative
 70
     0
  0
APPID
  5
135
330
9
100
AcDbSymbolTableRecord
100
AcDbRegAppTableRecord
  2
ACAD_DSTYLE_DIMJAG
 70
     0
  0
APPID
  5
136
330
9
100
AcDbSymbolTableRecord
100
AcDbRegAppTableRecord
  2
ACAD_DSTYLE_DIMTALN
 70
     0
  0
APPID
  5
165
330
9
100
AcDbSymbolTableRecord
100
AcDbRegAppTableRecord
  2
ACAD_MLEADERVER
 70
     0
  0
APPID
  5
CD0
330
9
100
AcDbSymbolTableRecord
100
AcDbRegAppTableRecord
  2
ACAUTHENVIRON
 70
     0
  0
APPID
  5
CD5
330
9
100
AcDbSymbolTableRecord
100
AcDbRegAppTableRecord
  2
ACAD_EXEMPT_FROM_CAD_STANDARDS
 70
     0
  0
APPID
  5
CDB
330
9
100
AcDbSymbolTableRecord
100
AcDbRegAppTableRecord
  2
AcDbDynamicBlockTrueName
 70
     0
  0
APPID
  5
CDC
330
9
100
AcDbSymbolTableRecord
100
AcDbRegAppTableRecord
  2
AcDbDynamicBlockGUID
 70
     0
  0
APPID
  5
CDE
330
9
100
AcDbSymbolTableRecord
100
AcDbRegAppTableRecord
  2
AcDbBlockRepETag
 70
     0
  0
APPID
  5
D72
330
9
100
AcDbSymbolTableRecord
100
AcDbRegAppTableRecord
  2
AcDbBlockRepBTag
 70
     0
  0
ENDTAB
  0
TABLE
  2
DIMSTYLE
  5
A
330
0
100
AcDbSymbolTable
 70
     2
100
AcDbDimStyleTable
 71
     2
340
27
340
137
  0
DIMSTYLE
105
27
330
A
100
AcDbSymbolTableRecord
100
AcDbDimStyleTableRecord
  2
ISO-25
 70
     0
 41
2.5
 42
0.625
 43
3.75
 44
1.25
 73
     0
 74
     0
 77
     1
 78
     8
140
2.5
141
2.5
143
0.03937007874016
147
0.625
171
     3
172
     1
271
     2
272
     2
274
     3
278
    44
283
     0
284
     8
340
11
  0
DIMSTYLE
105
137
330
A
100
AcDbSymbolTableRecord
100
AcDbDimStyleTableRecord
  2
Annotative
 70
     0
 40
0.0
 41
2.5
 42
0.625
 43
3.75
 44
1.25
 73
     0
 74
     0
 77
     1
 78
     8
140
2.5
141
2.5
143
0.03937007874016
147
0.625
171
     3
172
     1
271
     2
272
     2
274
     3
278
    44
283
     0
284
     8
340
11
1001
AcadAnnotative
1000
AnnotativeData
1002
{
1070
     1
1070
     1
1002
}
1001
ACAD_DSTYLE_DIMJAG
1070
   388
1040
1.5
1001
ACAD_DSTYLE_DIMTALN
1070
   392
1070
     0
  0
ENDTAB
  0
TABLE
  2
BLOCK_RECORD
  5
1
330
0
100
AcDbSymbolTable
 70
     5
  0
BLOCK_RECORD
  5
1F
330
1
100
AcDbSymbolTableRecord
100
AcDbBlockTableRecord
  2
*Model_Space
340
22
  0
BLOCK_RECORD
  5
D2
330
1
100
AcDbSymbolTableRecord
100
AcDbBlockTableRecord
  2
*Paper_Space
340
D3
  0
BLOCK_RECORD
  5
D6
330
1
100
AcDbSymbolTableRecord
100
AcDbBlockTableRecord
  2
*Paper_Space0
340
D7
  0
BLOCK_RECORD
  5
8AD
102
{ACAD_XDICTIONARY
360
E9B
102
}
330
1
100
AcDbSymbolTableRecord
100
AcDbBlockTableRecord
  2
1
340
0
310
2800000020000000200000000100080000000000000400000000000000000000000000000000000000000000000080000080000000808000800000008000800080800000C0C0C000C0DCC000F0CAA6000020400000206000002080000020A0000020C0000020E00000400000004020000040400000406000004080000040A0
310
000040C0000040E00000600000006020000060400000606000006080000060A0000060C0000060E00000800000008020000080400000806000008080000080A0000080C0000080E00000A0000000A0200000A0400000A0600000A0800000A0A00000A0C00000A0E00000C0000000C0200000C0400000C0600000C0800000C0
310
A00000C0C00000C0E00000E0000000E0200000E0400000E0600000E0800000E0A00000E0C00000E0E00040000000400020004000400040006000400080004000A0004000C0004000E00040200000402020004020400040206000402080004020A0004020C0004020E000404000004040200040404000404060004040800040
310
40A0004040C0004040E00040600000406020004060400040606000406080004060A0004060C0004060E00040800000408020004080400040806000408080004080A0004080C0004080E00040A0000040A0200040A0400040A0600040A0800040A0A00040A0C00040A0E00040C0000040C0200040C0400040C0600040C08000
310
40C0A00040C0C00040C0E00040E0000040E0200040E0400040E0600040E0800040E0A00040E0C00040E0E00080000000800020008000400080006000800080008000A0008000C0008000E00080200000802020008020400080206000802080008020A0008020C0008020E00080400000804020008040400080406000804080
310
008040A0008040C0008040E00080600000806020008060400080606000806080008060A0008060C0008060E00080800000808020008080400080806000808080008080A0008080C0008080E00080A0000080A0200080A0400080A0600080A0800080A0A00080A0C00080A0E00080C0000080C0200080C0400080C0600080C0
310
800080C0A00080C0C00080C0E00080E0000080E0200080E0400080E0600080E0800080E0A00080E0C00080E0E000C0000000C0002000C0004000C0006000C0008000C000A000C000C000C000E000C0200000C0202000C0204000C0206000C0208000C020A000C020C000C020E000C0400000C0402000C0404000C0406000C0
310
408000C040A000C040C000C040E000C0600000C0602000C0604000C0606000C0608000C060A000C060C000C060E000C0800000C0802000C0804000C0806000C0808000C080A000C080C000C080E000C0A00000C0A02000C0A04000C0A06000C0A08000C0A0A000C0A0C000C0A0E000C0C00000C0C02000C0C04000C0C06000
310
C0C08000C0C0A000F0FBFF00A4A0A000808080000000FF0000FF000000FFFF00FF000000FF00FF00FFFF0000FFFFFF000000000000000000000000000000000000000000000000000000000000000000000000FFFFFFFFFF0000000000000000000000000000000000FFFFFFFFFF00000000FFFFFFFFFFFFFF000000000000
310
0000000000000000FFFF00000000FF00000000FFFFFFFFFF00FF000000000000FFFFFF0000000000FFFF00000000FF000000000000FF00FF00FFFFFFFFFFFFFFFFFFFFFFFFFFFFFFFFFF00000000FF0000000000FFFF00FF00000000000000000000000000000000000000000000FF0000000000FF0000FF00000000000000
310
000000000000000000000000000000FF0000000000FFFFFFFF00000000000000000000000000000000000000000000FF0000000000FFFFFFFFFFFFFFFFFFFFFFFFFFFFFFFFFFFFFFFFFFFFFFFFFFFFFF0000000000FF00000000000000000000000000000000000000000000000000FF0000000000FF000000000000000000
310
00000000000000000000000000000000FF0000000000FF00000000000000000000000000000000000000000000000000FF0000000000FF00000000000000000000000000000000000000000000000000FF0000000000FF00000000000000000000000000000000000000000000000000FF0000000000FF0000000000000000
310
0000000000000000000000000000000000FF0000000000FF00000000000000000000000000000000000000000000000000FF0000000000FF00000000000000000000000000000000000000000000000000FF0000000000FF00000000000000000000000000000000000000000000000000FF0000000000FF00000000000000
310
000000000000000000000000000000000000FF0000000000FF00000000000000000000000000000000000000000000000000FF0000000000FF00000000000000000000000000000000000000000000000000FF0000000000FF00000000000000000000000000000000000000000000000000FF0000000000FF000000000000
310
00000000000000000000000000000000000000FF0000000000FF00000000000000000000000000000000000000000000000000FF0000000000FF00000000000000000000FFFFFFFFFF00000000000000000000FF0000000000FF00FF0000000000000000FF000000FF0000000000000000FF00FF000000000000FFFFFF0000
310
0000000000FF000000FF00000000000000FFFFFF000000000000000000FF00000000000000FF000000FF000000000000FFFF0000000000000000000000FF00000000000000FF000000FF00000000000000FF000000000000000000000000FFFFFFFFFFFFFFFF000000FFFFFFFFFFFFFFFF0000000000000000000000000000
310
00FFFFFFFF000000000000FFFFFFFFFF00000000000000000000000000000000000000000000000000000000000000000000000000000000
102
{BLKREFS
331
93C
102
}
1001
AcDbDynamicBlockGUID
1000
{8AB5BB1D-080B-4AA6-A4F8-8C57D7279CD8}
1001
AcDbBlockRepETag
1070
     1
1071
      140
1001
ACAD
1000
DesignCenter Data
1002
{
1070
     1
1070
     4
1002
}
  0
BLOCK_RECORD
  5
93D
330
1
100
AcDbSymbolTableRecord
100
AcDbBlockTableRecord
  2
2
340
0
310
2800000020000000200000000100080000000000000400000000000000000000000000000000000000000000000080000080000000808000800000008000800080800000C0C0C000C0DCC000F0CAA6000020400000206000002080000020A0000020C0000020E00000400000004020000040400000406000004080000040A0
310
000040C0000040E00000600000006020000060400000606000006080000060A0000060C0000060E00000800000008020000080400000806000008080000080A0000080C0000080E00000A0000000A0200000A0400000A0600000A0800000A0A00000A0C00000A0E00000C0000000C0200000C0400000C0600000C0800000C0
310
A00000C0C00000C0E00000E0000000E0200000E0400000E0600000E0800000E0A00000E0C00000E0E00040000000400020004000400040006000400080004000A0004000C0004000E00040200000402020004020400040206000402080004020A0004020C0004020E000404000004040200040404000404060004040800040
310
40A0004040C0004040E00040600000406020004060400040606000406080004060A0004060C0004060E00040800000408020004080400040806000408080004080A0004080C0004080E00040A0000040A0200040A0400040A0600040A0800040A0A00040A0C00040A0E00040C0000040C0200040C0400040C0600040C08000
310
40C0A00040C0C00040C0E00040E0000040E0200040E0400040E0600040E0800040E0A00040E0C00040E0E00080000000800020008000400080006000800080008000A0008000C0008000E00080200000802020008020400080206000802080008020A0008020C0008020E00080400000804020008040400080406000804080
310
008040A0008040C0008040E00080600000806020008060400080606000806080008060A0008060C0008060E00080800000808020008080400080806000808080008080A0008080C0008080E00080A0000080A0200080A0400080A0600080A0800080A0A00080A0C00080A0E00080C0000080C0200080C0400080C0600080C0
310
800080C0A00080C0C00080C0E00080E0000080E0200080E0400080E0600080E0800080E0A00080E0C00080E0E000C0000000C0002000C0004000C0006000C0008000C000A000C000C000C000E000C0200000C0202000C0204000C0206000C0208000C020A000C020C000C020E000C0400000C0402000C0404000C0406000C0
310
408000C040A000C040C000C040E000C0600000C0602000C0604000C0606000C0608000C060A000C060C000C060E000C0800000C0802000C0804000C0806000C0808000C080A000C080C000C080E000C0A00000C0A02000C0A04000C0A06000C0A08000C0A0A000C0A0C000C0A0E000C0C00000C0C02000C0C04000C0C06000
310
C0C08000C0C0A000F0FBFF00A4A0A000808080000000FF0000FF000000FFFF00FF000000FF00FF00FFFF0000FFFFFF00000000000000000000000000000000000000000000000000000000000000000000000000000000000000000000FFFFFFFFFFFF0000000000000000000000000000000000000000000000000000FFFF
310
FFFFFFFF0000000000000000000000000000000000000000000000000000FF00000000FF0000000000000000000000000000000000000000000000000000FF00000000FF0000000000000000000000000000000000000000000000000000FF00000000FF0000000000000000000000000000000000000000000000000000FF
310
00000000FF0000000000000000000000000000000000000000000000000000FF00000000FF0000000000000000000000000000000000000000000000000000FF00000000FF0000000000000000000000000000000000000000000000000000FF00000000FF0000000000000000000000000000000000000000000000000000
310
FF00000000FF0000000000000000000000000000000000000000000000000000FF00000000FF0000000000000000000000000000000000000000000000000000FFFFFFFFFFFF0000000000000000000000000000000000000000000000000000FF00000000FF00000000000000000000000000000000000000000000000000
310
00FFFFFFFFFFFF0000000000000000000000000000000000000000000000000000FFFFFFFFFFFF0000000000000000000000000000000000000000000000000000FFFFFFFFFFFF0000000000000000000000000000000000000000000000000000FFFF0000FFFF000000000000000000000000000000000000000000000000
310
0000FFFFFFFFFFFF0000000000000000000000000000000000000000000000000000FFFFFFFFFFFF0000000000000000000000000000000000000000000000000000FFFFFFFFFFFF0000000000000000000000000000000000000000000000000000FF00000000FF0000000000000000000000000000000000000000000000
310
000000FF00000000FF0000000000000000000000000000000000000000000000000000FF00000000FF0000000000000000000000000000000000000000000000000000FFFFFFFFFFFF0000000000000000000000000000000000000000000000000000FFFFFFFFFFFF00000000000000000000000000000000000000000000
310
00000000FFFFFFFFFFFF0000000000000000000000000000000000000000000000000000FFFFFFFFFFFF0000000000000000000000000000000000000000000000000000FFFFFFFFFFFF0000000000000000000000000000000000000000000000000000FFFFFFFFFFFF000000000000000000000000000000000000000000
310
000000000000FFFFFFFF00000000000000000000000000000000000000000000000000000000000000000000000000000000000000000000
102
{BLKREFS
331
A14
102
}
1001
ACAD
1000
DesignCenter Data
1002
{
1070
     1
1070
     4
1002
}
  0
BLOCK_RECORD
  5
A15
330
1
100
AcDbSymbolTableRecord
100
AcDbBlockTableRecord
  2
3
340
0
310
2800000020000000200000000100080000000000000400000000000000000000000000000000000000000000000080000080000000808000800000008000800080800000C0C0C000C0DCC000F0CAA6000020400000206000002080000020A0000020C0000020E00000400000004020000040400000406000004080000040A0
310
000040C0000040E00000600000006020000060400000606000006080000060A0000060C0000060E00000800000008020000080400000806000008080000080A0000080C0000080E00000A0000000A0200000A0400000A0600000A0800000A0A00000A0C00000A0E00000C0000000C0200000C0400000C0600000C0800000C0
310
A00000C0C00000C0E00000E0000000E0200000E0400000E0600000E0800000E0A00000E0C00000E0E00040000000400020004000400040006000400080004000A0004000C0004000E00040200000402020004020400040206000402080004020A0004020C0004020E000404000004040200040404000404060004040800040
310
40A0004040C0004040E00040600000406020004060400040606000406080004060A0004060C0004060E00040800000408020004080400040806000408080004080A0004080C0004080E00040A0000040A0200040A0400040A0600040A0800040A0A00040A0C00040A0E00040C0000040C0200040C0400040C0600040C08000
310
40C0A00040C0C00040C0E00040E0000040E0200040E0400040E0600040E0800040E0A00040E0C00040E0E00080000000800020008000400080006000800080008000A0008000C0008000E00080200000802020008020400080206000802080008020A0008020C0008020E00080400000804020008040400080406000804080
310
008040A0008040C0008040E00080600000806020008060400080606000806080008060A0008060C0008060E00080800000808020008080400080806000808080008080A0008080C0008080E00080A0000080A0200080A0400080A0600080A0800080A0A00080A0C00080A0E00080C0000080C0200080C0400080C0600080C0
310
800080C0A00080C0C00080C0E00080E0000080E0200080E0400080E0600080E0800080E0A00080E0C00080E0E000C0000000C0002000C0004000C0006000C0008000C000A000C000C000C000E000C0200000C0202000C0204000C0206000C0208000C020A000C020C000C020E000C0400000C0402000C0404000C0406000C0
310
408000C040A000C040C000C040E000C0600000C0602000C0604000C0606000C0608000C060A000C060C000C060E000C0800000C0802000C0804000C0806000C0808000C080A000C080C000C080E000C0A00000C0A02000C0A04000C0A06000C0A08000C0A0A000C0A0C000C0A0E000C0C00000C0C02000C0C04000C0C06000
310
C0C08000C0C0A000F0FBFF00A4A0A000808080000000FF0000FF000000FFFF00FF000000FF00FF00FFFF0000FFFFFF0000000000000000000000000000000000000000000000000000000000000000000000000000000000000000000000000000000000000000000000000000000000000000000000000000000000000000
310
00000000000000000000000000000000000000000000000000000000000000000000000000000000000000000000000000000000000000000000000000000000000000000000000000000000000000000000000000000000000000000000000000000000000000000000000000000000000000000000000000000000000000
310
00000000000000000000000000000000000000000000000000000000000000000000000000000000000000000000000000000000000000000000000000000000000000000000000000000000000000000000000000000000000000000000000000000000000000000000000000000000000000000000000000000000000000
310
000000000000000000000000000000000000000000000000000000000000000000000000000000000000000000000000000000000000000000000000000000000000000000000000000000000000000000000000FFFFFFFFFFFFFFFFFFFFFFFFFFFFFFFFFFFFFFFFFFFFFFFFFFFFFFFFFFFF0000FFFFFFFFFFFFFF00FFFFFF
310
0000FF000000FF0000FFFFFF00FFFFFFFFFFFF0000FFFFFFFFFFFFFF00FFFFFF0000FF000000FF0000FFFFFF00FFFFFFFFFFFF0000FFFFFFFFFFFFFFFF00FF00FF00FFFFFFFFFF00FFFFFFFFFFFFFFFFFFFFFF0000FFFFFFFFFFFFFF00FFFFFF0000FF000000FF0000FFFFFF00FFFFFFFFFFFF0000FFFFFFFFFFFFFFFFFFFF
310
FFFFFFFFFFFFFFFFFFFFFFFFFFFFFFFFFFFFFFFF0000000000000000000000000000000000000000000000000000000000000000000000000000000000000000000000000000000000000000000000000000000000000000000000000000000000000000000000000000000000000000000000000000000000000000000000
310
00000000000000000000000000000000000000000000000000000000000000000000000000000000000000000000000000000000000000000000000000000000000000000000000000000000000000000000000000000000000000000000000000000000000000000000000000000000000000000000000000000000000000
310
00000000000000000000000000000000000000000000000000000000000000000000000000000000000000000000000000000000000000000000000000000000000000000000000000000000000000000000000000000000000000000000000000000000000000000000000000000000000000000000000000000000000000
310
0000000000000000000000000000000000000000000000000000000000000000000000000000000000000000000000000000000000000000
102
{BLKREFS
331
AD3
102
}
1001
ACAD
1000
DesignCenter Data
1002
{
1070
     1
1070
     4
1002
}
  0
BLOCK_RECORD
  5
AD4
330
1
100
AcDbSymbolTableRecord
100
AcDbBlockTableRecord
  2
4
340
0
310
2800000020000000200000000100080000000000000400000000000000000000000000000000000000000000000080000080000000808000800000008000800080800000C0C0C000C0DCC000F0CAA6000020400000206000002080000020A0000020C0000020E00000400000004020000040400000406000004080000040A0
310
000040C0000040E00000600000006020000060400000606000006080000060A0000060C0000060E00000800000008020000080400000806000008080000080A0000080C0000080E00000A0000000A0200000A0400000A0600000A0800000A0A00000A0C00000A0E00000C0000000C0200000C0400000C0600000C0800000C0
310
A00000C0C00000C0E00000E0000000E0200000E0400000E0600000E0800000E0A00000E0C00000E0E00040000000400020004000400040006000400080004000A0004000C0004000E00040200000402020004020400040206000402080004020A0004020C0004020E000404000004040200040404000404060004040800040
310
40A0004040C0004040E00040600000406020004060400040606000406080004060A0004060C0004060E00040800000408020004080400040806000408080004080A0004080C0004080E00040A0000040A0200040A0400040A0600040A0800040A0A00040A0C00040A0E00040C0000040C0200040C0400040C0600040C08000
310
40C0A00040C0C00040C0E00040E0000040E0200040E0400040E0600040E0800040E0A00040E0C00040E0E00080000000800020008000400080006000800080008000A0008000C0008000E00080200000802020008020400080206000802080008020A0008020C0008020E00080400000804020008040400080406000804080
310
008040A0008040C0008040E00080600000806020008060400080606000806080008060A0008060C0008060E00080800000808020008080400080806000808080008080A0008080C0008080E00080A0000080A0200080A0400080A0600080A0800080A0A00080A0C00080A0E00080C0000080C0200080C0400080C0600080C0
310
800080C0A00080C0C00080C0E00080E0000080E0200080E0400080E0600080E0800080E0A00080E0C00080E0E000C0000000C0002000C0004000C0006000C0008000C000A000C000C000C000E000C0200000C0202000C0204000C0206000C0208000C020A000C020C000C020E000C0400000C0402000C0404000C0406000C0
310
408000C040A000C040C000C040E000C0600000C0602000C0604000C0606000C0608000C060A000C060C000C060E000C0800000C0802000C0804000C0806000C0808000C080A000C080C000C080E000C0A00000C0A02000C0A04000C0A06000C0A08000C0A0A000C0A0C000C0A0E000C0C00000C0C02000C0C04000C0C06000
310
C0C08000C0C0A000F0FBFF00A4A0A000808080000000FF0000FF000000FFFF00FF000000FF00FF00FFFF0000FFFFFF0000000000000000000000000000000000000000000000000000000000000000000000000000000000000000FF0000000000000000000000000000000000000000000000000000000000FFFFFFFF0000
310
000000000000000000000000000000000000000000000000FFFFFFFFFFFFFF00000000000000000000000000000000000000000000000000FFFFFF00FFFFFF0000000000000000000000000000000000000000000000000000FF0000FFFFFF00000000000000000000000000000000000000000000000000FF00FFFFFFFF00
310
FFFFFFFF000000000000000000000000000000000000000000FFFFFF00FFFFFF0000FFFFFF0000000000000000000000000000000000000000FF000000FF0000FFFF0000FF00FFFFFF00000000000000000000000000000000FF000000FF00000000FF0000FFFFFFFFFFFF0000000000000000000000000000FF0000FFFF00
310
00000000FFFF0000FFFF00FF0000000000000000000000000000FFFFFFA4FF00000000000000FF00000000FF0000000000000000000000000000FFFFA400FF0000000000000000FFFF0000FF0000000000000000000000000000FFFFFFFFFF00000000000000000000FFFFFF0000000000000000000000000000FFFFFFFFFF
310
000000000000000000000000FF0000000000000000000000000000FFFFFFFFFF000000000000000000000000FF0000000000000000000000000000FFFFFFFFFF000000000000000000000000FF0000000000000000000000000000FFFFFF00FF000000000000000000000000FF0000000000000000000000000000FF000000
310
FF000000000000000000000000FF0000000000000000000000000000FF0000FFFF000000000000000000000000FF0000000000000000000000000000FFFFFFFFFFFF0000000000000000000000FF000000000000000000000000000000FFFFFFFFFF0000000000000000000000FF00000000000000000000000000000000FF
310
FFFFFF000000FF00000000000000FF00000000000000000000000000000000FFFFFFFFFF0000FFFFFF0000000000FF00000000000000000000000000000000FFFFFFFFFFFFFFFF00FF0000000000FF0000000000000000000000000000000000FFFFFFFFFFFFFF00FF0000000000FF00000000000000000000000000000000
310
0000FFFFFFFFFF00FFFF0000000000FF00000000000000000000000000000000000000000000FFFFFFFFFFFF00FFFFFF00000000000000000000000000000000000000000000FF00FFFFFFFFFFFF00000000000000000000000000000000000000000000000000FFFFFFFFFFFF000000000000000000000000000000000000
310
00000000000000000000FFFF0000000000000000000000000000000000000000000000000000000000000000000000000000000000000000
102
{BLKREFS
331
C3A
102
}
1001
ACAD
1000
DesignCenter Data
1002
{
1070
     1
1070
     4
1002
}
  0
ENDTAB
  0
ENDSEC
  0
SECTION
  2
BLOCKS
  0
BLOCK
  5
20
330
1F
100
AcDbEntity
  8
0
100
AcDbBlockBegin
  2
*Model_Space
 70
     0
 10
0.0
 20
0.0
 30
0.0
  3
*Model_Space
  1

  0
ENDBLK
  5
21
330
1F
100
AcDbEntity
  8
0
100
AcDbBlockEnd
  0
BLOCK
  5
D4
330
D2
100
AcDbEntity
 67
     1
  8
0
100
AcDbBlockBegin
  2
*Paper_Space
 70
     0
 10
0.0
 20
0.0
 30
0.0
  3
*Paper_Space
  1

  0
ENDBLK
  5
D5
330
D2
100
AcDbEntity
 67
     1
  8
0
100
AcDbBlockEnd
  0
BLOCK
  5
D8
330
D6
100
AcDbEntity
 67
     1
  8
0
100
AcDbBlockBegin
  2
*Paper_Space0
 70
     0
 10
0.0
 20
0.0
 30
0.0
  3
*Paper_Space0
  1

  0
ENDBLK
  5
D9
330
D6
100
AcDbEntity
 67
     1
  8
0
100
AcDbBlockEnd
  0
BLOCK
  5
8AE
330
8AD
100
AcDbEntity
  8
0
100
AcDbBlockBegin
  2
1
 70
     0
 10
0.0
 20
0.0
 30
0.0
  3
1
  1

  0
LINE
  5
E0F
330
8AD
100
AcDbEntity
  8
0
  6
Continuous
 62
     7
370
    15
100
AcDbLine
 10
1999.967846409456
 20
1005.85367542179
 30
0.0
 11
1999.967846409456
 21
1003.753675421791
 31
0.0
1001
AcDbBlockRepETag
1070
     1
1071
        0
1005
E0F
  0
LINE
  5
E10
330
8AD
100
AcDbEntity
  8
0
  6
Continuous
 62
     7
370
    15
100
AcDbLine
 10
2008.467846409456
 20
1003.753675421791
 30
0.0
 11
2008.467846409456
 21
1005.85367542179
 31
0.0
1001
AcDbBlockRepETag
1070
     1
1071
        1
1005
E10
  0
LINE
  5
E11
330
8AD
100
AcDbEntity
  8
0
  6
Continuous
 62
     7
370
    15
100
AcDbLine
 10
2024.007846409456
 20
1005.853675421791
 30
0.0
 11
2024.007846409456
 21
1003.753675421791
 31
0.0
1001
AcDbBlockRepETag
1070
     1
1071
        2
1005
E11
  0
LINE
  5
E12
330
8AD
100
AcDbEntity
  8
0
  6
Continuous
 62
     7
370
    15
100
AcDbLine
 10
2032.507846409457
 20
1003.753675421791
 30
0.0
 11
2032.507846409457
 21
1005.853675421791
 31
0.0
1001
AcDbBlockRepETag
1070
     1
1071
        3
1005
E12
  0
LINE
  5
E13
330
8AD
100
AcDbEntity
  8
0
  6
Continuous
 62
     7
370
    15
100
AcDbLine
 10
1987.138803850234
 20
991.7536816077641
 30
0.0
 11
1987.138803850233
 21
994.207064545529
 31
0.0
1001
AcDbBlockRepETag
1070
     1
1071
        4
1005
E13
  0
ARC
  5
E14
330
8AD
100
AcDbEntity
  8
0
  6
Continuous
 62
     7
370
    15
100
AcDbCircle
 10
1987.838803850233
 20
994.2070645455292
 30
0.0
 40
0.6999999999996632
100
AcDbArc
 50
135.0035393365694
 51
180.000000000026
1001
AcDbBlockRepETag
1070
     1
1071
        5
1005
E14
  0
LINE
  5
E15
330
8AD
100
AcDbEntity
  8
0
  6
Continuous
 62
     7
370
    15
100
AcDbLine
 10
1989.617246468037
 20
996.9757375482057
 30
0.0
 11
1987.343798528234
 21
994.7020087153022
 31
0.0
1001
AcDbBlockRepETag
1070
     1
1071
        6
1005
E15
  0
ARC
  5
E16
330
8AD
100
AcDbEntity
  8
0
  6
Continuous
 62
     7
370
    15
100
AcDbCircle
 10
1990.176258689379
 20
996.4167943864064
 30
0.0
 40
0.7905138339927902
100
AcDbArc
 50
47.49592832866954
 51
135.0035393365602
1001
AcDbBlockRepETag
1070
     1
1071
        7
1005
E16
  0
LINE
  5
E17
330
8AD
100
AcDbEntity
  8
0
  6
Continuous
 62
     7
370
    15
100
AcDbLine
 10
1991.18287286974
 20
996.5665475343518
 30
0.0
 11
1990.710363511387
 21
996.9995843664529
 31
0.0
1001
AcDbBlockRepETag
1070
     1
1071
        8
1005
E17
  0
ARC
  5
E18
330
8AD
100
AcDbEntity
  8
0
  6
Continuous
 62
     7
370
    15
100
AcDbCircle
 10
1991.049346664239
 20
996.4208500393402
 30
0.0
 40
0.1976284584982485
100
AcDbArc
 50
314.9999999999908
 51
47.49592832874757
1001
AcDbBlockRepETag
1070
     1
1071
        9
1005
E18
  0
LINE
  5
E19
330
8AD
100
AcDbEntity
  8
0
  6
Continuous
 62
     7
370
    15
100
AcDbLine
 10
1991.189091087398
 20
996.2811056161806
 30
0.0
 11
1991.162074534957
 21
996.25408906374
 31
0.0
1001
AcDbBlockRepETag
1070
     1
1071
       10
1005
E19
  0
ARC
  5
E1A
330
8AD
100
AcDbEntity
  8
0
  6
Continuous
 62
     7
370
    15
100
AcDbCircle
 10
1991.266882852327
 20
996.1492807463708
 30
0.0
 40
0.1482213438737567
100
AcDbArc
 50
135.0000000000829
 51
225.0000000002533
1001
AcDbBlockRepETag
1070
     1
1071
       11
1005
E1A
  0
LINE
  5
E1B
330
8AD
100
AcDbEntity
  8
0
  6
Continuous
 62
     7
370
    15
100
AcDbLine
 10
1991.162074534958
 20
996.0444724290004
 30
0.0
 11
1991.230788163285
 21
995.9757588006718
 31
0.0
1001
AcDbBlockRepETag
1070
     1
1071
       12
1005
E1B
  0
ARC
  5
E1C
330
8AD
100
AcDbEntity
  8
0
  6
Continuous
 62
     7
370
    15
100
AcDbCircle
 10
1991.335596480654
 20
996.0805671180409
 30
0.0
 40
0.1482213438735834
100
AcDbArc
 50
225.0000000001197
 51
329.0020241901867
1001
AcDbBlockRepETag
1070
     1
1071
       13
1005
E1C
  0
ARC
  5
E1D
330
8AD
100
AcDbEntity
  8
0
  6
Continuous
 62
     7
370
    15
100
AcDbCircle
 10
1999.932862076242
 20
990.91522216953
 30
0.0
 40
9.881422924902597
100
AcDbArc
 50
120.997957747015
 51
149.0020241901978
1001
AcDbBlockRepETag
1070
     1
1071
       14
1005
E1D
  0
ARC
  5
E1E
330
8AD
100
AcDbEntity
  8
0
  6
Continuous
 62
     7
370
    15
100
AcDbCircle
 10
1994.767519838065
 20
999.5124893935194
 30
0.0
 40
0.1482213438743051
100
AcDbArc
 50
300.997957746986
 51
44.99999999997236
1001
AcDbBlockRepETag
1070
     1
1071
       15
1005
E1E
  0
LINE
  5
E1F
330
8AD
100
AcDbEntity
  8
0
  6
Continuous
 62
     7
370
    15
100
AcDbLine
 10
1994.803610120362
 20
999.6860157459629
 30
0.0
 11
1994.872328155435
 21
999.6172977108892
 31
0.0
1001
AcDbBlockRepETag
1070
     1
1071
       16
1005
E1F
  0
ARC
  5
E20
330
8AD
100
AcDbEntity
  8
0
  6
Continuous
 62
     7
370
    15
100
AcDbCircle
 10
1994.698801802982
 20
999.5812074286037
 30
0.0
 40
0.148221343873395
100
AcDbArc
 50
44.99999999447749
 51
135.0000000001013
1001
AcDbBlockRepETag
1070
     1
1071
       17
1005
E20
  0
LINE
  5
E21
330
8AD
100
AcDbEntity
  8
0
  6
Continuous
 62
     7
370
    15
100
AcDbLine
 10
1994.566925076562
 20
999.658950622503
 30
0.0
 11
1994.593993485613
 21
999.686015745973
 31
0.0
1001
AcDbBlockRepETag
1070
     1
1071
       18
1005
E21
  0
ARC
  5
E22
330
8AD
100
AcDbEntity
  8
0
  6
Continuous
 62
     7
370
    15
100
AcDbCircle
 10
1994.427189135309
 20
999.7987035270535
 30
0.0
 40
0.1976284584980399
100
AcDbArc
 50
222.4979619647872
 51
314.9965224897138
1001
AcDbBlockRepETag
1070
     1
1071
       19
1005
E22
  0
LINE
  5
E23
330
8AD
100
AcDbEntity
  8
0
  6
Continuous
 62
     7
370
    15
100
AcDbLine
 10
1993.848200138652
 20
1000.138065788166
 30
0.0
 11
1994.281477402626
 21
999.6651928586897
 31
0.0
1001
AcDbBlockRepETag
1070
     1
1071
       20
1005
E23
  0
ARC
  5
E24
330
8AD
100
AcDbEntity
  8
0
  6
Continuous
 62
     7
370
    15
100
AcDbCircle
 10
1994.431047069383
 20
1000.67210846162
 30
0.0
 40
0.7905138339919678
100
AcDbArc
 50
135.0035393365602
 51
222.4979619647688
1001
AcDbBlockRepETag
1070
     1
1071
       21
1005
E24
  0
LINE
  5
E25
330
8AD
100
AcDbEntity
  8
0
  6
Continuous
 62
     7
370
    15
100
AcDbLine
 10
1996.101446293865
 20
1003.460738521468
 30
0.0
 11
1993.87203484804
 21
1001.231051623419
 31
0.0
1001
AcDbBlockRepETag
1070
     1
1071
       22
1005
E25
  0
ARC
  5
E26
330
8AD
100
AcDbEntity
  8
0
  6
Continuous
 62
     7
370
    15
100
AcDbCircle
 10
1996.808596753863
 20
1002.753675421791
 30
0.0
 40
1.000000000000158
100
AcDbArc
 50
89.99999999998697
 51
135.003539336574
1001
AcDbBlockRepETag
1070
     1
1071
       23
1005
E26
  0
LINE
  5
E27
330
8AD
100
AcDbEntity
  8
0
  6
Continuous
 62
     7
370
    15
100
AcDbLine
 10
2011.487846409455
 20
1003.753675421791
 30
0.0
 11
1996.808596753863
 21
1003.753675421791
 31
0.0
1001
AcDbBlockRepETag
1070
     1
1071
       24
1005
E27
  0
ARC
  5
E28
330
8AD
100
AcDbEntity
  8
0
  6
Continuous
 62
     7
370
    15
100
AcDbCircle
 10
2011.487846409455
 20
1002.753675421791
 30
0.0
 40
1.000000000000056
100
AcDbArc
 50
0.0000000000065138
 51
90.0
1001
AcDbBlockRepETag
1070
     1
1071
       25
1005
E28
  0
LINE
  5
E29
330
8AD
100
AcDbEntity
  8
0
  6
Continuous
 62
     7
370
    15
100
AcDbLine
 10
2012.487846409455
 20
1002.753675421791
 30
0.0
 11
2012.487846409455
 21
993.473675421791
 31
0.0
1001
AcDbBlockRepETag
1070
     1
1071
       26
1005
E29
  0
LINE
  5
E2A
330
8AD
100
AcDbEntity
  8
0
  6
Continuous
 62
     7
370
    15
100
AcDbLine
 10
2012.487846409455
 20
993.473675421791
 30
0.0
 11
2019.987846409457
 21
993.473675421791
 31
0.0
1001
AcDbBlockRepETag
1070
     1
1071
       27
1005
E2A
  0
LINE
  5
E2B
330
8AD
100
AcDbEntity
  8
0
  6
Continuous
 62
     7
370
    15
100
AcDbLine
 10
2019.987846409457
 20
993.473675421791
 30
0.0
 11
2019.987846409457
 21
1002.753675421791
 31
0.0
1001
AcDbBlockRepETag
1070
     1
1071
       28
1005
E2B
  0
ARC
  5
E2C
330
8AD
100
AcDbEntity
  8
0
  6
Continuous
 62
     7
370
    15
100
AcDbCircle
 10
2020.987846409457
 20
1002.753675421791
 30
0.0
 40
1.000000000000028
100
AcDbArc
 50
90.0
 51
180.0
1001
AcDbBlockRepETag
1070
     1
1071
       29
1005
E2C
  0
LINE
  5
E2D
330
8AD
100
AcDbEntity
  8
0
  6
Continuous
 62
     7
370
    15
100
AcDbLine
 10
2020.987846409457
 20
1003.753675421791
 30
0.0
 11
2035.667096065048
 21
1003.753675421791
 31
0.0
1001
AcDbBlockRepETag
1070
     1
1071
       30
1005
E2D
  0
ARC
  5
E2E
330
8AD
100
AcDbEntity
  8
0
  6
Continuous
 62
     7
370
    15
100
AcDbCircle
 10
2035.667096065048
 20
1002.753675421792
 30
0.0
 40
1.000000000000199
100
AcDbArc
 50
44.99646066342596
 51
90.00000000001303
1001
AcDbBlockRepETag
1070
     1
1071
       31
1005
E2E
  0
LINE
  5
E2F
330
8AD
100
AcDbEntity
  8
0
  6
Continuous
 62
     7
370
    15
100
AcDbLine
 10
2038.603657970872
 20
1001.23105162342
 30
0.0
 11
2036.374246525047
 21
1003.460738521468
 31
0.0
1001
AcDbBlockRepETag
1070
     1
1071
       32
1005
E2F
  0
ARC
  5
E30
330
8AD
100
AcDbEntity
  8
0
  6
Continuous
 62
     7
370
    15
100
AcDbCircle
 10
2038.04464574953
 20
1000.67210846162
 30
0.0
 40
0.7905138339922028
100
AcDbArc
 50
317.502038035236
 51
44.99646066343978
1001
AcDbBlockRepETag
1070
     1
1071
       33
1005
E30
  0
LINE
  5
E31
330
8AD
100
AcDbEntity
  8
0
  6
Continuous
 62
     7
370
    15
100
AcDbLine
 10
2038.194215416288
 20
999.6651928586897
 30
0.0
 11
2038.62749268026
 21
1000.138065788166
 31
0.0
1001
AcDbBlockRepETag
1070
     1
1071
       34
1005
E31
  0
ARC
  5
E32
330
8AD
100
AcDbEntity
  8
0
  6
Continuous
 62
     7
370
    15
100
AcDbCircle
 10
2038.048503683605
 20
999.7987035270536
 30
0.0
 40
0.1976284584979952
100
AcDbArc
 50
225.0034775102863
 51
317.5020380351392
1001
AcDbBlockRepETag
1070
     1
1071
       35
1005
E32
  0
LINE
  5
E33
330
8AD
100
AcDbEntity
  8
0
  6
Continuous
 62
     7
370
    15
100
AcDbLine
 10
2037.881692971679
 20
999.6860221068235
 30
0.0
 11
2037.908767742352
 21
999.658950622503
 31
0.0
1001
AcDbBlockRepETag
1070
     1
1071
       36
1005
E33
  0
ARC
  5
E34
330
8AD
100
AcDbEntity
  8
0
  6
Continuous
 62
     7
370
    15
100
AcDbCircle
 10
2037.776891015932
 20
999.5812074286039
 30
0.0
 40
0.1482213438731136
100
AcDbArc
 50
45.00347751018952
 51
135.0000000055041
1001
AcDbBlockRepETag
1070
     1
1071
       37
1005
E34
  0
LINE
  5
E35
330
8AD
100
AcDbEntity
  8
0
  6
Continuous
 62
     7
370
    15
100
AcDbLine
 10
2037.603364663478
 20
999.6172977108887
 30
0.0
 11
2037.672082698552
 21
999.686015745963
 31
0.0
1001
AcDbBlockRepETag
1070
     1
1071
       38
1005
E35
  0
ARC
  5
E36
330
8AD
100
AcDbEntity
  8
0
  6
Continuous
 62
     7
370
    15
100
AcDbCircle
 10
2037.708172980847
 20
999.5124893935196
 30
0.0
 40
0.1482213438732909
100
AcDbArc
 50
135.0000000000276
 51
239.0020422531804
1001
AcDbBlockRepETag
1070
     1
1071
       39
1005
E36
  0
ARC
  5
E37
330
8AD
100
AcDbEntity
  8
0
  6
Continuous
 62
     7
370
    15
100
AcDbCircle
 10
2032.542830742672
 20
990.9152221695302
 30
0.0
 40
9.881422924901199
100
AcDbArc
 50
30.9979758098078
 51
59.00204225299945
1001
AcDbBlockRepETag
1070
     1
1071
       40
1005
E37
  0
ARC
  5
E38
330
8AD
100
AcDbEntity
  8
0
  6
Continuous
 62
     7
370
    15
100
AcDbCircle
 10
2041.140096338258
 20
996.0805671180413
 30
0.0
 40
0.1482213438736078
100
AcDbArc
 50
210.9979758098078
 51
314.9999999998848
1001
AcDbBlockRepETag
1070
     1
1071
       41
1005
E38
  0
LINE
  5
E39
330
8AD
100
AcDbEntity
  8
0
  6
Continuous
 62
     7
370
    15
100
AcDbLine
 10
2041.313618283957
 20
996.0444724290008
 30
0.0
 11
2041.244904655627
 21
995.9757588006716
 31
0.0
1001
AcDbBlockRepETag
1070
     1
1071
       42
1005
E39
  0
ARC
  5
E3A
330
8AD
100
AcDbEntity
  8
0
  6
Continuous
 62
     7
370
    15
100
AcDbCircle
 10
2041.208809966588
 20
996.1492807463709
 30
0.0
 40
0.1482213438737567
100
AcDbArc
 50
314.9999999997559
 51
44.99999999991709
1001
AcDbBlockRepETag
1070
     1
1071
       43
1005
E3A
  0
LINE
  5
E3B
330
8AD
100
AcDbEntity
  8
0
  6
Continuous
 62
     7
370
    15
100
AcDbLine
 10
2041.286601731516
 20
996.2811056161809
 30
0.0
 11
2041.313618283957
 21
996.2540890637402
 31
0.0
1001
AcDbBlockRepETag
1070
     1
1071
       44
1005
E3B
  0
ARC
  5
E3C
330
8AD
100
AcDbEntity
  8
0
  6
Continuous
 62
     7
370
    15
100
AcDbCircle
 10
2041.426346154676
 20
996.4208500393404
 30
0.0
 40
0.1976284584981882
100
AcDbArc
 50
132.5040716712524
 51
225.0000000000138
1001
AcDbBlockRepETag
1070
     1
1071
       45
1005
E3C
  0
LINE
  5
E3D
330
8AD
100
AcDbEntity
  8
0
  6
Continuous
 62
     7
370
    15
100
AcDbLine
 10
2041.765329307526
 20
996.9995843664525
 30
0.0
 11
2041.292819949175
 21
996.5665475343522
 31
0.0
1001
AcDbBlockRepETag
1070
     1
1071
       46
1005
E3D
  0
ARC
  5
E3E
330
8AD
100
AcDbEntity
  8
0
  6
Continuous
 62
     7
370
    15
100
AcDbCircle
 10
2042.299434129533
 20
996.4167943864065
 30
0.0
 40
0.7905138339921827
100
AcDbArc
 50
44.99646066343978
 51
132.5040716713304
1001
AcDbBlockRepETag
1070
     1
1071
       47
1005
E3E
  0
LINE
  5
E3F
330
8AD
100
AcDbEntity
  8
0
  6
Continuous
 62
     7
370
    15
100
AcDbLine
 10
2045.131894290678
 20
994.7020087153028
 30
0.0
 11
2042.858446350876
 21
996.975737548206
 31
0.0
1001
AcDbBlockRepETag
1070
     1
1071
       48
1005
E3F
  0
ARC
  5
E40
330
8AD
100
AcDbEntity
  8
0
  6
Continuous
 62
     7
370
    15
100
AcDbCircle
 10
2044.63688896868
 20
994.2070645455297
 30
0.0
 40
0.7000000000000455
100
AcDbArc
 50
359.9999999999349
 51
44.99646066343978
1001
AcDbBlockRepETag
1070
     1
1071
       49
1005
E40
  0
LINE
  5
E41
330
8AD
100
AcDbEntity
  8
0
  6
Continuous
 62
     7
370
    15
100
AcDbLine
 10
2045.33688896869
 20
991.7536816077642
 30
0.0
 11
2045.33688896868
 21
994.2070645455293
 31
0.0
1001
AcDbBlockRepETag
1070
     1
1071
       50
1005
E41
  0
LINE
  5
E42
330
8AD
100
AcDbEntity
  8
0
  6
Continuous
 62
     7
370
    15
100
AcDbLine
 10
2045.336889210964
 20
991.2492736312085
 30
0.0
 11
2045.33688896869
 21
991.7536816077642
 31
0.0
1001
AcDbBlockRepETag
1070
     1
1071
       51
1005
E42
  0
LINE
  5
E43
330
8AD
100
AcDbEntity
  8
0
  6
Continuous
 62
     7
370
    15
100
AcDbLine
 10
2045.336888968691
 20
991.2492736312083
 30
0.0
 11
2045.336888968691
 21
956.3501371446285
 31
0.0
1001
AcDbBlockRepETag
1070
     1
1071
       52
1005
E43
  0
LINE
  5
E44
330
8AD
100
AcDbEntity
  8
0
  6
Continuous
 62
     7
370
    15
100
AcDbLine
 10
2045.336888968691
 20
956.3501371446285
 30
0.0
 11
1987.138803850211
 21
956.3501371446285
 31
0.0
1001
AcDbBlockRepETag
1070
     1
1071
       53
1005
E44
  0
LINE
  5
E45
330
8AD
100
AcDbEntity
  8
0
  6
Continuous
 62
     7
370
    15
100
AcDbLine
 10
1987.138803850211
 20
956.3501371446285
 30
0.0
 11
1987.138803850211
 21
991.2492736312083
 31
0.0
1001
AcDbBlockRepETag
1070
     1
1071
       54
1005
E45
  0
LINE
  5
E46
330
8AD
100
AcDbEntity
  8
0
  6
Continuous
 62
     7
370
    15
100
AcDbLine
 10
1987.13880360796
 20
991.2492736312083
 30
0.0
 11
1987.138803850234
 21
991.7536816077641
 31
0.0
1001
AcDbBlockRepETag
1070
     1
1071
       55
1005
E46
  0
ARC
  5
E47
330
8AD
100
AcDbEntity
  8
0
  6
Continuous
 62
     7
370
    15
100
AcDbCircle
 10
1988.437352241941
 20
954.6501371446284
 30
0.0
 40
0.5000000000001665
100
AcDbArc
 50
90.00000000001303
 51
194.9988916899405
1001
AcDbBlockRepETag
1070
     1
1071
       56
1005
E47
  0
LINE
  5
E48
330
8AD
100
AcDbEntity
  8
0
  6
Continuous
 62
     7
370
    15
100
AcDbLine
 10
1990.825780405605
 20
943.8037210144516
 30
0.0
 11
1987.954386825633
 21
954.5207369643716
 31
0.0
1001
AcDbBlockRepETag
1070
     1
1071
       57
1005
E48
  0
ARC
  5
E49
330
8AD
100
AcDbEntity
  8
0
  6
Continuous
 62
     7
370
    15
100
AcDbCircle
 10
1991.308745821913
 20
943.9331211947084
 30
0.0
 40
0.5000000000001115
100
AcDbArc
 50
194.9988916899405
 51
270.0000150402827
1001
AcDbBlockRepETag
1070
     1
1071
       58
1005
E49
  0
LINE
  5
E4A
330
8AD
100
AcDbEntity
  8
0
  6
Continuous
 62
     7
370
    15
100
AcDbLine
 10
1994.167839109315
 20
943.43312259364
 30
0.0
 11
1991.308745953164
 21
943.4331218941743
 31
0.0
1001
AcDbBlockRepETag
1070
     1
1071
       59
1005
E4A
  0
ARC
  5
E4B
330
8AD
100
AcDbEntity
  8
0
  6
Continuous
 62
     7
370
    15
100
AcDbCircle
 10
1987.076641228409
 20
943.8501371941518
 30
0.0
 40
1.500000000000028
100
AcDbArc
 50
180.0000003447546
 51
269.9999990860521
1001
AcDbBlockRepETag
1070
     1
1071
       60
1005
E4B
  0
LINE
  5
E4C
330
8AD
100
AcDbEntity
  8
0
  6
Continuous
 62
     7
370
    15
100
AcDbLine
 10
1985.576641228412
 20
945.933123220572
 30
0.0
 11
1985.57664122841
 21
943.8501371851261
 31
0.0
1001
AcDbBlockRepETag
1070
     1
1071
       61
1005
E4C
  0
ARC
  5
E4D
330
8AD
100
AcDbEntity
  8
0
  6
Continuous
 62
     7
370
    15
100
AcDbCircle
 10
1986.076644692329
 20
945.9331235587498
 30
0.0
 40
0.5000034639181479
100
AcDbArc
 50
90.0000003447481
 51
180.0000387520427
1001
AcDbBlockRepETag
1070
     1
1071
       62
1005
E4D
  0
LINE
  5
E4E
330
8AD
100
AcDbEntity
  8
0
  6
Continuous
 62
     7
370
    15
100
AcDbLine
 10
1986.719007530579
 20
946.4331270226674
 30
0.0
 11
1986.076644689321
 21
946.4331270226679
 31
0.0
1001
AcDbBlockRepETag
1070
     1
1071
       63
1005
E4E
  0
ARC
  5
E4F
330
8AD
100
AcDbEntity
  8
0
  6
Continuous
 62
     7
370
    15
100
AcDbCircle
 10
1986.719007533587
 20
945.9331270226675
 30
0.0
 40
0.4999999999999791
100
AcDbArc
 50
29.99891374532183
 51
90.00000034470902
1001
AcDbBlockRepETag
1070
     1
1071
       64
1005
E4F
  0
LINE
  5
E50
330
8AD
100
AcDbEntity
  8
0
  6
Continuous
 62
     7
370
    15
100
AcDbLine
 10
1987.152024975081
 20
946.1831188132558
 30
0.0
 11
1987.70047896356
 21
945.2331270462892
 31
0.0
1001
AcDbBlockRepETag
1070
     1
1071
       65
1005
E50
  0
ARC
  5
E51
330
8AD
100
AcDbEntity
  8
0
  6
Continuous
 62
     7
370
    15
100
AcDbCircle
 10
1987.700478981611
 20
944.4831270462897
 30
0.0
 40
0.749999999999517
100
AcDbArc
 50
90.00000137900544
 51
270.000000344696
1001
AcDbBlockRepETag
1070
     1
1071
       66
1005
E51
  0
LINE
  5
E52
330
8AD
100
AcDbEntity
  8
0
  6
Continuous
 62
     7
370
    15
100
AcDbLine
 10
1987.700478986123
 20
943.7331270462902
 30
0.0
 11
1988.950772380098
 21
943.733127046288
 31
0.0
1001
AcDbBlockRepETag
1070
     1
1071
       67
1005
E52
  0
ARC
  5
E53
330
8AD
100
AcDbEntity
  8
0
  6
Continuous
 62
     7
370
    15
100
AcDbCircle
 10
1988.950772377091
 20
944.2331270462885
 30
0.0
 40
0.5000000000004548
100
AcDbArc
 50
270.0000003444876
 51
14.99888247648214
1001
AcDbBlockRepETag
1070
     1
1071
       68
1005
E53
  0
LINE
  5
E54
330
8AD
100
AcDbEntity
  8
0
  6
Continuous
 62
     7
370
    15
100
AcDbLine
 10
1986.713140680558
 20
954.5167260833151
 30
0.0
 11
1989.433737814208
 21
944.3625271488821
 31
0.0
1001
AcDbBlockRepETag
1070
     1
1071
       69
1005
E54
  0
ARC
  5
E55
330
8AD
100
AcDbEntity
  8
0
  6
Continuous
 62
     7
370
    15
100
AcDbCircle
 10
1988.644999822355
 20
955.0343248702262
 30
0.0
 40
1.999997061986244
100
AcDbArc
 50
138.8595487234608
 51
194.9988568782212
1001
AcDbBlockRepETag
1070
     1
1071
       70
1005
E55
  0
ARC
  5
E56
330
8AD
100
AcDbEntity
  8
0
  6
Continuous
 62
     7
370
    15
100
AcDbCircle
 10
1993.167839109315
 20
955.3501371446285
 30
0.0
 40
1.00000000000017
100
AcDbArc
 50
0.0
 51
90.0
1001
AcDbBlockRepETag
1070
     1
1071
       71
1005
E56
  0
LINE
  5
E57
330
8AD
100
AcDbEntity
  8
0
  6
Continuous
 62
     7
370
    15
100
AcDbLine
 10
1994.167839109315
 20
945.2852602213818
 30
0.0
 11
1994.167839109315
 21
955.3501371446285
 31
0.0
1001
AcDbBlockRepETag
1070
     1
1071
       72
1005
E57
  0
LINE
  5
E58
330
8AD
100
AcDbEntity
  8
0
  6
Continuous
 62
     7
370
    15
100
AcDbLine
 10
1993.467839109319
 20
945.2852602213818
 30
0.0
 11
1994.167839109315
 21
945.2852602213818
 31
0.0
1001
AcDbBlockRepETag
1070
     1
1071
       73
1005
E58
  0
ARC
  5
E59
330
8AD
100
AcDbEntity
  8
0
  6
Continuous
 62
     7
370
    15
100
AcDbCircle
 10
1993.467839109319
 20
945.7852602213817
 30
0.0
 40
0.5000000000001137
100
AcDbArc
 50
179.9999999999935
 51
270.0
1001
AcDbBlockRepETag
1070
     1
1071
       74
1005
E59
  0
LINE
  5
E5A
330
8AD
100
AcDbEntity
  8
0
  6
Continuous
 62
     7
370
    15
100
AcDbLine
 10
1992.967839109319
 20
954.6501371446284
 30
0.0
 11
1992.967839109319
 21
945.7852602213819
 31
0.0
1001
AcDbBlockRepETag
1070
     1
1071
       75
1005
E5A
  0
ARC
  5
E5B
330
8AD
100
AcDbEntity
  8
0
  6
Continuous
 62
     7
370
    15
100
AcDbCircle
 10
1992.467839109319
 20
954.6501371446284
 30
0.0
 40
0.5
100
AcDbArc
 50
0.0
 51
90.0
1001
AcDbBlockRepETag
1070
     1
1071
       76
1005
E5B
  0
LINE
  5
E5C
330
8AD
100
AcDbEntity
  8
0
  6
Continuous
 62
     7
370
    15
100
AcDbLine
 10
1988.437352241941
 20
955.1501371446285
 30
0.0
 11
1992.467839109319
 21
955.1501371446285
 31
0.0
1001
AcDbBlockRepETag
1070
     1
1071
       77
1005
E5C
  0
LINE
  5
E5D
330
8AD
100
AcDbEntity
  8
0
  6
Continuous
 62
     7
370
    15
100
AcDbLine
 10
1987.076641204482
 20
942.3501371941517
 30
0.0
 11
1994.167839109315
 21
942.3501371941517
 31
0.0
1001
AcDbBlockRepETag
1070
     1
1071
       78
1005
E5D
  0
LINE
  5
E5E
330
8AD
100
AcDbEntity
  8
0
  6
Continuous
 62
     7
370
    15
100
AcDbLine
 10
1994.167839109315
 20
942.3501367028123
 30
0.0
 11
1994.167839109315
 21
943.43312259364
 31
0.0
1001
AcDbBlockRepETag
1070
     1
1071
       79
1005
E5E
  0
LINE
  5
E5F
330
8AD
100
AcDbEntity
  8
0
  6
Continuous
 62
     7
370
    15
100
AcDbLine
 10
2033.757850022187
 20
948.1720243558925
 30
0.0
 11
1998.717842309127
 21
948.1720223538195
 31
0.0
1001
AcDbBlockRepETag
1070
     1
1071
       80
1005
E5F
  0
ARC
  5
E60
330
8AD
100
AcDbEntity
  8
0
  6
Continuous
 62
     7
370
    15
100
AcDbCircle
 10
1998.717842323411
 20
947.6720203528891
 30
0.0
 40
0.5000020009302661
100
AcDbArc
 50
90.00000163683376
 51
179.9999643486254
1001
AcDbBlockRepETag
1070
     1
1071
       81
1005
E60
  0
LINE
  5
E61
330
8AD
100
AcDbEntity
  8
0
  6
Continuous
 62
     7
370
    15
100
AcDbLine
 10
1998.217842323412
 20
947.6720206640061
 30
0.0
 11
1998.217839607792
 21
945.489890840003
 31
0.0
1001
AcDbBlockRepETag
1070
     1
1071
       82
1005
E61
  0
ARC
  5
E62
330
8AD
100
AcDbEntity
  8
0
  6
Continuous
 62
     7
370
    15
100
AcDbCircle
 10
1997.717836892172
 20
945.4898908372111
 30
0.0
 40
0.5000027156204397
100
AcDbArc
 50
330.0000031036935
 51
0.000000319943649
1001
AcDbBlockRepETag
1070
     1
1071
       83
1005
E62
  0
LINE
  5
E63
330
8AD
100
AcDbEntity
  8
0
  6
Continuous
 62
     7
370
    15
100
AcDbLine
 10
1998.150849607606
 20
945.2398908606674
 30
0.0
 11
1996.915463111764
 21
943.1001384152018
 31
0.0
1001
AcDbBlockRepETag
1070
     1
1071
       84
1005
E63
  0
ARC
  5
E64
330
8AD
100
AcDbEntity
  8
0
  6
Continuous
 62
     7
370
    15
100
AcDbCircle
 10
1996.049437680895
 20
943.6001383682892
 30
0.0
 40
0.999999999999602
100
AcDbArc
 50
270.0000003195398
 51
330.0000031036935
1001
AcDbBlockRepETag
1070
     1
1071
       85
1005
E64
  0
LINE
  5
E65
330
8AD
100
AcDbEntity
  8
0
  6
Continuous
 62
     7
370
    15
100
AcDbLine
 10
1996.049437686472
 20
942.6001383682896
 30
0.0
 11
1994.217836194437
 21
942.6001383682896
 31
0.0
1001
AcDbBlockRepETag
1070
     1
1071
       86
1005
E65
  0
LINE
  5
E66
330
8AD
100
AcDbEntity
  8
0
  6
Continuous
 62
     7
370
    15
100
AcDbLine
 10
1994.217836194437
 20
942.6001383682896
 30
0.0
 11
1994.217837651876
 21
955.3501371446285
 31
0.0
1001
AcDbBlockRepETag
1070
     1
1071
       87
1005
E66
  0
ARC
  5
E67
330
8AD
100
AcDbEntity
  8
0
  6
Continuous
 62
     7
370
    15
100
AcDbCircle
 10
1993.167839109314
 20
955.3501371446285
 30
0.0
 40
1.050000000000131
100
AcDbArc
 50
0.0
 51
72.24720983803262
1001
AcDbBlockRepETag
1070
     1
1071
       88
1005
E67
  0
ARC
  5
E68
330
8AD
100
AcDbEntity
  8
0
  6
Continuous
 62
     7
370
    15
100
AcDbCircle
 10
2044.836887465161
 20
942.8501430305805
 30
0.0
 40
0.5000007517647305
100
AcDbArc
 50
270.00001977017
 51
359.9999999996417
1001
AcDbBlockRepETag
1070
     1
1071
       89
1005
E68
  0
LINE
  5
E69
330
8AD
100
AcDbEntity
  8
0
  6
Continuous
 62
     7
370
    15
100
AcDbLine
 10
2044.836887637689
 20
942.3501430305806
 30
0.0
 11
2035.757850050743
 21
942.3501405605433
 31
0.0
1001
AcDbBlockRepETag
1070
     1
1071
       90
1005
E69
  0
ARC
  5
E6A
330
8AD
100
AcDbEntity
  8
0
  6
Continuous
 62
     7
370
    15
100
AcDbCircle
 10
2035.757850050749
 20
943.3501380905061
 30
0.0
 40
1.000000000000028
100
AcDbArc
 50
179.9999999996547
 51
269.9999999996874
1001
AcDbBlockRepETag
1070
     1
1071
       91
1005
E6A
  0
LINE
  5
E6B
330
8AD
100
AcDbEntity
  8
0
  6
Continuous
 62
     7
370
    15
100
AcDbLine
 10
2034.757850050749
 20
943.3501380905122
 30
0.0
 11
2034.757850050752
 21
947.1720243524643
 31
0.0
1001
AcDbBlockRepETag
1070
     1
1071
       92
1005
E6B
  0
ARC
  5
E6C
330
8AD
100
AcDbEntity
  8
0
  6
Continuous
 62
     7
370
    15
100
AcDbCircle
 10
2033.757850050755
 20
947.1720243524643
 30
0.0
 40
1.00000000342817
100
AcDbArc
 50
0.0000000000065138
 51
90.00000163684676
1001
AcDbBlockRepETag
1070
     1
1071
       93
1005
E6C
  0
LINE
  5
E6D
330
8AD
100
AcDbEntity
  8
0
  6
Continuous
 62
     7
370
    15
100
AcDbLine
 10
2045.336888968691
 20
956.3501371446285
 30
0.0
 11
2045.336888216926
 21
942.8501430305805
 31
0.0
1001
AcDbBlockRepETag
1070
     1
1071
       94
1005
E6D
  0
LINE
  5
E6E
330
8AD
100
AcDbEntity
  8
0
  6
Continuous
 62
     7
370
    15
100
AcDbLine
 10
2008.467846409456
 20
1005.85367542179
 30
0.0
 11
1999.967846409456
 21
1005.85367542179
 31
0.0
1001
AcDbBlockRepETag
1070
     1
1071
       95
1005
E6E
  0
LINE
  5
E6F
330
8AD
100
AcDbEntity
  8
0
  6
Continuous
 62
     7
370
    15
100
AcDbLine
 10
2032.507846409457
 20
1005.853675421791
 30
0.0
 11
2024.007846409456
 21
1005.853675421791
 31
0.0
1001
AcDbBlockRepETag
1070
     1
1071
       96
1005
E6F
  0
LWPOLYLINE
  5
E70
330
8AD
100
AcDbEntity
  8
0
  6
Continuous
 62
     7
370
    15
100
AcDbPolyline
 90
        3
 70
   128
 43
0.0
 10
1994.167839109315
 20
948.6489913239196
 10
1994.183844982351
 20
948.9168910381991
 10
1994.217836194437
 20
949.1206768390576
1001
AcDbBlockRepETag
1070
     1
1071
       97
1005
E70
  0
LINE
  5
E75
330
8AD
100
AcDbEntity
  8
0
  6
Continuous
 62
     7
370
    15
100
AcDbLine
 10
1999.387832742286
 20
948.1720223921005
 30
0.0
 11
1999.387831810889
 21
947.03907029286
 31
0.0
1001
AcDbBlockRepETag
1070
     1
1071
      102
1005
E75
  0
LINE
  5
E77
330
8AD
100
AcDbEntity
  8
0
  6
Continuous
 62
     7
370
    15
100
AcDbLine
 10
1999.253854254607
 20
944.9899001054658
 30
0.0
 11
1998.307140150152
 21
943.3501492819607
 31
0.0
1001
AcDbBlockRepETag
1070
     1
1071
      104
1005
E77
  0
ARC
  5
E78
330
8AD
100
AcDbEntity
  8
0
  6
Continuous
 62
     7
370
    15
100
AcDbCircle
 10
1997.008103253726
 20
944.100151376441
 30
0.0
 40
1.5
100
AcDbArc
 50
269.9999722898237
 51
329.9999076201576
1001
AcDbBlockRepETag
1070
     1
1071
      105
1005
E78
  0
LINE
  5
E79
330
8AD
100
AcDbEntity
  8
0
  6
Continuous
 62
     7
370
    15
100
AcDbLine
 10
1997.008102528275
 20
942.6001513764413
 30
0.0
 11
1996.054538282739
 21
942.6001513764438
 31
0.0
1001
AcDbBlockRepETag
1070
     1
1071
      106
1005
E79
  0
LINE
  5
E7A
330
8AD
100
AcDbEntity
  8
0
  6
Continuous
 62
     7
370
    15
100
AcDbLine
 10
2034.789617262946
 20
943.1000875583608
 30
0.0
 11
2033.749185368054
 21
943.1000888534768
 31
0.0
1001
AcDbBlockRepETag
1070
     1
1071
      107
1005
E7A
  0
ARC
  5
E7B
330
8AD
100
AcDbEntity
  8
0
  6
Continuous
 62
     7
370
    15
100
AcDbCircle
 10
2033.749185779101
 20
944.1000901485924
 30
0.0
 40
1.000001295115708
100
AcDbArc
 50
239.9999208036978
 51
269.9999764487394
1001
AcDbBlockRepETag
1070
     1
1071
      108
1005
E7B
  0
LINE
  5
E7C
330
8AD
100
AcDbEntity
  8
0
  6
Continuous
 62
     7
370
    15
100
AcDbLine
 10
2033.24918458205
 20
943.2340654359268
 30
0.0
 11
2032.057827223423
 21
943.9218981232826
 31
0.0
1001
AcDbBlockRepETag
1070
     1
1071
      109
1005
E7C
  0
ARC
  5
E7D
330
8AD
100
AcDbEntity
  8
0
  6
Continuous
 62
     7
370
    15
100
AcDbCircle
 10
2032.55782847719
 20
944.7879228032032
 30
0.0
 40
1.000000000000035
100
AcDbArc
 50
184.4361810388882
 51
239.9999170514448
1001
AcDbBlockRepETag
1070
     1
1071
      110
1005
E7D
  0
ARC
  5
E7E
330
8AD
100
AcDbEntity
  8
0
  6
Continuous
 62
     7
370
    15
100
AcDbCircle
 10
2032.557828222832
 20
944.6332222648244
 30
0.0
 40
1.000000000000244
100
AcDbArc
 50
119.9998923036624
 51
175.5636305503057
1001
AcDbBlockRepETag
1070
     1
1071
      111
1005
E7E
  0
LINE
  5
E7F
330
8AD
100
AcDbEntity
  8
0
  6
Continuous
 62
     7
370
    15
100
AcDbLine
 10
2032.057829850662
 20
945.4992486084353
 30
0.0
 11
2032.789881293539
 21
945.9218967947609
 31
0.0
1001
AcDbBlockRepETag
1070
     1
1071
      112
1005
E7F
  0
LINE
  5
E80
330
8AD
100
AcDbEntity
  8
0
  6
Continuous
 62
     7
370
    15
100
AcDbLine
 10
2032.789881293539
 20
945.9218967947609
 30
0.0
 11
2033.88783054159
 21
946.1154900467114
 31
0.0
1001
AcDbBlockRepETag
1070
     1
1071
      113
1005
E80
  0
LINE
  5
E81
330
8AD
100
AcDbEntity
  8
0
  6
Continuous
 62
     7
370
    15
100
AcDbLine
 10
2033.887830541591
 20
946.1154900467114
 30
0.0
 11
2033.88783054159
 21
948.1635409074741
 31
0.0
1001
AcDbBlockRepETag
1070
     1
1071
      114
1005
E81
  0
LINE
  5
E86
330
8AD
100
AcDbEntity
  8
0
  6
Continuous
 62
     7
370
    15
100
AcDbLine
 10
2018.604933887497
 20
948.1720234901036
 30
0.0
 11
2019.103858984968
 21
947.883966625991
 31
0.0
1001
AcDbBlockRepETag
1070
     1
1071
      119
1005
E86
  0
ARC
  5
E87
330
8AD
100
AcDbEntity
  8
0
  6
Continuous
 62
     7
370
    15
100
AcDbCircle
 10
2019.003858379672
 20
947.710761894703
 30
0.0
 40
0.1999999999999947
100
AcDbArc
 50
329.9999025630314
 51
59.99979976957998
1001
AcDbBlockRepETag
1070
     1
1071
      120
1005
E87
  0
LINE
  5
E88
330
8AD
100
AcDbEntity
  8
0
  6
Continuous
 62
     7
370
    15
100
AcDbLine
 10
2019.177063290369
 20
947.6107616001515
 30
0.0
 11
2018.738941521405
 21
946.8519154166669
 31
0.0
1001
AcDbBlockRepETag
1070
     1
1071
      121
1005
E88
  0
ARC
  5
E89
330
8AD
100
AcDbEntity
  8
0
  6
Continuous
 62
     7
370
    15
100
AcDbCircle
 10
2017.872916967919
 20
947.3519168894254
 30
0.0
 40
0.9999999999999504
100
AcDbArc
 50
269.9999764486743
 51
329.9999025630258
1001
AcDbBlockRepETag
1070
     1
1071
      122
1005
E89
  0
LINE
  5
E8A
330
8AD
100
AcDbEntity
  8
0
  6
Continuous
 62
     7
370
    15
100
AcDbLine
 10
2017.872916556871
 20
946.3519168894261
 30
0.0
 11
2015.075804426025
 21
946.3519191889222
 31
0.0
1001
AcDbBlockRepETag
1070
     1
1071
      123
1005
E8A
  0
ARC
  5
E8B
330
8AD
100
AcDbEntity
  8
0
  6
Continuous
 62
     7
370
    15
100
AcDbCircle
 10
2015.075804837072
 20
947.3519214884177
 30
0.0
 40
1.000002299495547
100
AcDbArc
 50
224.9999057946652
 51
269.9999764487785
1001
AcDbBlockRepETag
1070
     1
1071
      124
1005
E8B
  0
LINE
  5
E8C
330
8AD
100
AcDbEntity
  8
0
  6
Continuous
 62
     7
370
    15
100
AcDbLine
 10
2014.368696893267
 20
946.6448158698524
 30
0.0
 11
2013.626052360807
 21
947.3874628444184
 31
0.0
1001
AcDbBlockRepETag
1070
     1
1071
      125
1005
E8C
  0
ARC
  5
E8D
330
8AD
100
AcDbEntity
  8
0
  6
Continuous
 62
     7
370
    15
100
AcDbCircle
 10
2010.090512641778
 20
943.8519347515914
 30
0.0
 40
5.000000000000126
100
AcDbArc
 50
44.99990579466515
 51
59.77072563941739
1001
AcDbBlockRepETag
1070
     1
1071
      126
1005
E8D
  0
LINE
  5
E91
330
8AD
100
AcDbEntity
  8
0
  6
Continuous
 62
     7
370
    15
100
AcDbLine
 10
2029.695112796511
 20
948.1720241237608
 30
0.0
 11
2033.521658028769
 21
946.0509255619161
 31
0.0
1001
AcDbBlockRepETag
1070
     1
1071
      130
1005
E91
  0
LINE
  5
E92
330
8AD
100
AcDbEntity
  8
0
  6
Continuous
 62
     7
370
    15
100
AcDbLine
 10
2033.887830541591
 20
946.1909585300601
 30
0.0
 11
2030.313910133762
 21
948.1720241591169
 31
0.0
1001
AcDbBlockRepETag
1070
     1
1071
      131
1005
E92
  0
LINE
  5
E93
330
8AD
100
AcDbEntity
  8
0
  6
Continuous
 62
     7
370
    15
100
AcDbLine
 10
1999.387831810889
 20
947.0390702928602
 30
0.0
 11
1999.932449757314
 21
946.9430425192232
 31
0.0
1001
AcDbBlockRepETag
1070
     1
1071
      132
1005
E93
  0
ARC
  5
E94
330
8AD
100
AcDbEntity
  8
0
  6
Continuous
 62
     7
370
    15
100
AcDbCircle
 10
1999.880356610385
 20
946.6476004102254
 30
0.0
 40
0.2999995595446035
100
AcDbArc
 50
330.0000786869568
 51
80.00023851488574
1001
AcDbBlockRepETag
1070
     1
1071
      133
1005
E94
  0
LINE
  5
E95
330
8AD
100
AcDbEntity
  8
0
  6
Continuous
 62
     7
370
    15
100
AcDbLine
 10
2000.140164056077
 20
946.4976009872586
 30
0.0
 11
1999.264056996317
 21
944.9801376561195
 31
0.0
1001
AcDbBlockRepETag
1070
     1
1071
      134
1005
E95
  0
ARC
  5
E96
330
8AD
100
AcDbEntity
  8
0
  6
Continuous
 62
     7
370
    15
100
AcDbCircle
 10
1997.008408952037
 20
944.0721751544307
 30
0.0
 40
1.755754649448037
100
AcDbArc
 50
258.7533816034077
 51
2.197487232299804
1001
AcDbBlockRepETag
1070
     1
1071
      135
1005
E96
  0
LINE
  5
E97
330
8AD
100
AcDbEntity
  8
0
  6
Continuous
 62
     7
370
    15
100
AcDbLine
 10
1994.217836289655
 20
943.4331226181031
 30
0.0
 11
1994.167839109315
 21
943.43312259364
 31
0.0
1001
AcDbBlockRepETag
1070
     1
1071
      136
1005
E97
  0
LINE
  5
E98
330
8AD
100
AcDbEntity
  8
0
  6
Continuous
 62
     7
370
    15
100
AcDbLine
 10
1996.665979846408
 20
942.3501366250487
 30
0.0
 11
1994.167839109315
 21
942.3501367416941
 31
0.0
1001
AcDbBlockRepETag
1070
     1
1071
      137
1005
E98
  0
LINE
  5
E99
330
8AD
100
AcDbEntity
  8
0
  6
Continuous
 62
     7
370
    15
100
AcDbLine
 10
1994.217836501371
 20
945.2852602213818
 30
0.0
 11
1994.167839109315
 21
945.2852602213818
 31
0.0
1001
AcDbBlockRepETag
1070
     1
1071
      138
1005
E99
  0
LINE
  5
E9A
330
8AD
100
AcDbEntity
  8
0
  6
Continuous
 62
     7
370
    15
100
AcDbLine
 10
1986.719007530579
 20
946.4331270226674
 30
0.0
 11
1988.878965535477
 21
946.4331270226638
 31
0.0
1001
AcDbBlockRepETag
1070
     1
1071
      139
1005
E9A
  0
ENDBLK
  5
8AF
330
8AD
100
AcDbEntity
  8
0
100
AcDbBlockEnd
  0
BLOCK
  5
93E
330
93D
100
AcDbEntity
  8
0
100
AcDbBlockBegin
  2
2
 70
     0
 10
0.0
 20
0.0
 30
0.0
  3
2
  1

  0
LINE
  5
940
330
93D
100
AcDbEntity
  8
0
  6
Continuous
 62
     7
370
    15
100
AcDbLine
 10
1947.311013658078
 20
997.2073082203989
 30
0.0
 11
1945.011158585645
 21
997.2073082203989
 31
0.0
  0
LINE
  5
941
330
93D
100
AcDbEntity
  8
0
  6
Continuous
 62
     7
370
    15
100
AcDbLine
 10
1938.015111154775
 20
997.2073082203989
 30
0.0
 11
1935.715256082341
 21
997.2073082203989
 31
0.0
  0
LINE
  5
942
330
93D
100
AcDbEntity
  8
0
  6
Continuous
 62
     7
370
    15
100
AcDbLine
 10
1945.011158585645
 20
997.0261185363952
 30
0.0
 11
1938.015111154775
 21
997.0261185363952
 31
0.0
  0
LINE
  5
943
330
93D
100
AcDbEntity
  8
0
  6
Continuous
 62
     7
370
    15
100
AcDbLine
 10
1935.715256082346
 20
999.6010750685556
 30
0.0
 11
1947.311013658082
 21
999.6010750685556
 31
0.0
  0
LINE
  5
944
330
93D
100
AcDbEntity
  8
0
  6
Continuous
 62
     7
370
    15
100
AcDbLine
 10
1945.011158585651
 20
1001.48552970631
 30
0.0
 11
1938.015111154779
 21
1001.48552970631
 31
0.0
  0
LINE
  5
945
330
93D
100
AcDbEntity
  8
0
  6
Continuous
 62
     7
370
    15
100
AcDbLine
 10
1938.01511115478
 20
1001.832057483236
 30
0.0
 11
1945.011158585653
 21
1001.832057483236
 31
0.0
  0
LINE
  5
946
330
93D
100
AcDbEntity
  8
0
  6
Continuous
 62
     7
370
    15
100
AcDbLine
 10
1937.265256082344
 20
1005.853675421791
 30
0.0
 11
1937.265256082344
 21
1003.753675421791
 31
0.0
  0
LINE
  5
947
330
93D
100
AcDbEntity
  8
0
  6
Continuous
 62
     7
370
    15
100
AcDbLine
 10
1945.765256082345
 20
1003.753675421791
 30
0.0
 11
1945.765256082345
 21
1005.853675421791
 31
0.0
  0
SPLINE
  5
948
330
93D
100
AcDbEntity
  8
0
  6
Continuous
 62
     7
370
    15
100
AcDbSpline
210
0.0
220
0.0
230
1.0
 70
     8
 71
     3
 72
    10
 73
     6
 74
     0
 42
0.0000000001
 43
0.0000000001
 40
0.0
 40
0.0
 40
0.0
 40
0.0
 40
0.5
 40
0.5
 40
1.0
 40
1.0
 40
1.0
 40
1.0
 10
1936.2231072742
 20
976.7099411451546
 30
0.0
 10
1936.242761862188
 20
976.3898969800827
 30
0.0
 10
1936.292793338677
 20
976.0457519386347
 30
0.0
 10
1936.483907951394
 20
975.3210563241671
 30
0.0
 10
1936.625235574463
 20
974.9405734477987
 30
0.0
 10
1936.827826874264
 20
974.5574405701798
 30
0.0
  0
ARC
  5
949
330
93D
100
AcDbEntity
  8
0
  6
Continuous
 62
     7
370
    15
100
AcDbCircle
 10
1934.505515229899
 20
973.3351833271395
 30
0.0
 40
2.624317843122609
100
AcDbArc
 50
356.5764519637834
 51
27.75830789013677
  0
SPLINE
  5
94A
330
93D
100
AcDbEntity
  8
0
  6
Continuous
 62
     7
370
    15
100
AcDbSpline
210
0.0
220
0.0
230
1.0
 70
     8
 71
     3
 72
    20
 73
    16
 74
     0
 42
0.0000000001
 43
0.0000000001
 40
0.0
 40
0.0
 40
0.0
 40
0.0
 40
0.09602243285533
 40
0.1881256335519769
 40
0.2763422374548239
 40
0.3607093903533902
 40
0.4412695630862092
 40
0.518071542434058
 40
0.5911716401852002
 40
0.6715928545907052
 40
0.7468605863208826
 40
0.8171260342421239
 40
0.882575074890231
 40
0.9434377292059776
 40
0.9999999999999998
 40
0.9999999999999998
 40
0.9999999999999998
 40
0.9999999999999998
 10
1937.125149634687
 20
973.1784678940016
 30
0.0
 10
1937.095793305228
 20
973.2348750220864
 30
0.0
 10
1937.038278848305
 20
973.3453869763483
 30
0.0
 10
1936.954440733081
 20
973.5185633328176
 30
0.0
 10
1936.87468552851
 20
973.6929323555393
 30
0.0
 10
1936.799051917819
 20
973.8691849378827
 30
0.0
 10
1936.727529428842
 20
974.0471483141972
 30
0.0
 10
1936.660119402286
 20
974.2268682837716
 30
0.0
 10
1936.593659481327
 20
974.417397158921
 30
0.0
 10
1936.52877970916
 20
974.619395730826
 30
0.0
 10
1936.466204729589
 20
974.8341376319714
 30
0.0
 10
1936.409469509343
 20
975.0503364009066
 30
0.0
 10
1936.358680636229
 20
975.2686245977544
 30
0.0
 10
1936.313463624376
 20
975.4870362853958
 30
0.0
 10
1936.286941848508
 20
975.6426505353605
 30
0.0
 10
1936.274166606224
 20
975.7176081760631
 30
0.0
  0
SPLINE
  5
94B
330
93D
100
AcDbEntity
  8
0
  6
Continuous
 62
     7
370
    15
100
AcDbSpline
210
0.0
220
0.0
230
1.0
 70
     8
 71
     3
 72
    14
 73
    10
 74
     0
 42
0.0000000001
 43
0.0000000001
 40
0.0
 40
0.0
 40
0.0
 40
0.0
 40
0.000387973554629
 40
0.000387973554629
 40
0.000387973554629
 40
0.0006907775753033
 40
0.0006907775753033
 40
0.0006907775753033
 40
0.0009939117623701
 40
0.0009939117623701
 40
0.0009939117623701
 40
0.0009939117623701
 10
1936.223107266164
 20
976.709941275922
 30
0.0
 10
1936.231034823732
 20
976.5808599649542
 30
0.0
 10
1936.241349052274
 20
976.4519360975048
 30
0.0
 10
1936.250182349725
 20
976.3229136038601
 30
0.0
 10
1936.257076085351
 20
976.2222210860231
 30
0.0
 10
1936.263153463693
 20
976.1214579807804
 30
0.0
 10
1936.267418429349
 20
976.0206199085697
 30
0.0
 10
1936.271687651564
 20
975.9196811970678
 30
0.0
 10
1936.274158263469
 20
975.8186371306676
 30
0.0
 10
1936.274166584981
 20
975.7176081760619
 30
0.0
  0
SPLINE
  5
94C
330
93D
100
AcDbEntity
  8
0
  6
Continuous
 62
     7
370
    15
100
AcDbSpline
210
0.0
220
0.0
230
1.0
 70
     8
 71
     3
 72
    10
 73
     6
 74
     0
 42
0.0000000001
 43
0.0000000001
 40
0.0
 40
0.0
 40
0.0
 40
0.0
 40
0.5
 40
0.5
 40
1.0
 40
1.0
 40
1.0
 40
1.0
 10
1946.803162466234
 20
977.3598926621501
 30
0.0
 10
1946.783507878245
 20
977.679936827225
 30
0.0
 10
1946.733476401758
 20
978.0240818686626
 30
0.0
 10
1946.542361789036
 20
978.7487774831452
 30
0.0
 10
1946.401034165944
 20
979.1292603595541
 30
0.0
 10
1946.198442866167
 20
979.5123932371254
 30
0.0
  0
ARC
  5
94D
330
93D
100
AcDbEntity
  8
0
  6
Continuous
 62
     7
370
    15
100
AcDbCircle
 10
1948.520754504338
 20
980.7346504793983
 30
0.0
 40
2.62431783698466
100
AcDbArc
 50
176.5764519389865
 51
207.7583113221908
  0
SPLINE
  5
94E
330
93D
100
AcDbEntity
  8
0
  6
Continuous
 62
     7
370
    15
100
AcDbSpline
210
0.0
220
0.0
230
1.0
 70
     8
 71
     3
 72
    20
 73
    16
 74
     0
 42
0.0000000001
 43
0.0000000001
 40
0.0
 40
0.0
 40
0.0
 40
0.0
 40
0.0960224328609609
 40
0.1881256335613577
 40
0.2763422374660747
 40
0.3607093903646421
 40
0.4412695630955897
 40
0.5180715424397052
 40
0.5911716401852737
 40
0.6715928545936345
 40
0.7468605863255597
 40
0.8171260342474116
 40
0.8825750748949534
 40
0.9434377292089454
 40
1.0
 40
1.0
 40
1.0
 40
1.0
 10
1945.901120105745
 20
980.8913659133034
 30
0.0
 10
1945.930476435205
 20
980.8349587852154
 30
0.0
 10
1945.987990892132
 20
980.7244468309482
 30
0.0
 10
1946.071829007359
 20
980.5512704744726
 30
0.0
 10
1946.151584211932
 20
980.3769014517477
 30
0.0
 10
1946.227217822623
 20
980.2006488694045
 30
0.0
 10
1946.298740311598
 20
980.0226854930935
 30
0.0
 10
1946.366150338152
 20
979.8429655235262
 30
0.0
 10
1946.432610259108
 20
979.6524366483771
 30
0.0
 10
1946.497490031275
 20
979.4504380764678
 30
0.0
 10
1946.560065010847
 20
979.2356961753153
 30
0.0
 10
1946.616800231094
 20
979.0194974063778
 30
0.0
 10
1946.667589104207
 20
978.8012092095327
 30
0.0
 10
1946.71280611606
 20
978.5827975218991
 30
0.0
 10
1946.739327891926
 20
978.4271832719412
 30
0.0
 10
1946.75210313421
 20
978.3522256312426
 30
0.0
  0
SPLINE
  5
94F
330
93D
100
AcDbEntity
  8
0
  6
Continuous
 62
     7
370
    15
100
AcDbSpline
210
0.0
220
0.0
230
1.0
 70
     8
 71
     3
 72
    14
 73
    10
 74
     0
 42
0.0000000001
 43
0.0000000001
 40
0.0
 40
0.0
 40
0.0
 40
0.0
 40
0.000387973554629
 40
0.000387973554629
 40
0.000387973554629
 40
0.0006907775753037
 40
0.0006907775753037
 40
0.0006907775753037
 40
0.0009939117623709
 40
0.0009939117623709
 40
0.0009939117623709
 40
0.0009939117623709
 10
1946.80316247427
 20
977.359892531383
 30
0.0
 10
1946.795234916701
 20
977.4889738423508
 30
0.0
 10
1946.78492068816
 20
977.6178977098
 30
0.0
 10
1946.776087390709
 20
977.7469202034447
 30
0.0
 10
1946.769193655083
 20
977.8476127212819
 30
0.0
 10
1946.763116276742
 20
977.948375826525
 30
0.0
 10
1946.758851311086
 20
978.0492138987359
 30
0.0
 10
1946.754582088871
 20
978.1501526102379
 30
0.0
 10
1946.752111476967
 20
978.251196676638
 30
0.0
 10
1946.752103155453
 20
978.3522256312439
 30
0.0
  0
SPLINE
  5
950
330
93D
100
AcDbEntity
  8
0
  6
Continuous
 62
     7
370
    15
100
AcDbSpline
210
0.0
220
0.0
230
1.0
 70
     8
 71
     3
 72
    20
 73
    16
 74
     0
 42
0.0000000001
 43
0.0000000001
 40
0.0
 40
0.0
 40
0.0
 40
0.0
 40
0.033424638858042
 40
0.0683550738282662
 40
0.1048616021539684
 40
0.1430058081667857
 40
0.1828416816110626
 40
0.2244166222911837
 40
0.2677723265388399
 40
0.3129455598505242
 40
0.3599688247692935
 40
0.4088709351345602
 40
0.5850738722106764
 40
0.7819351979624783
 40
0.9999999999999998
 40
0.9999999999999998
 40
0.9999999999999998
 40
0.9999999999999998
 10
1936.274166606224
 20
978.3522256312425
 30
0.0
 10
1936.281632967613
 20
978.3969568672478
 30
0.0
 10
1936.296902053577
 20
978.488434503029
 30
0.0
 10
1936.321771192939
 20
978.6203655119093
 30
0.0
 10
1936.348663608281
 20
978.752245634282
 30
0.0
 10
1936.37770219859
 20
978.8834184521512
 30
0.0
 10
1936.408852115557
 20
979.0140776325888
 30
0.0
 10
1936.442123712738
 20
979.1441724461286
 30
0.0
 10
1936.477514458431
 20
979.2737209089148
 30
0.0
 10
1936.515025448649
 20
979.4027210473187
 30
0.0
 10
1936.554656932677
 20
979.5311740001285
 30
0.0
 10
1936.632089269442
 20
979.7684009987905
 30
0.0
 10
1936.755270698853
 20
980.1016093597356
 30
0.0
 10
1936.931982661261
 20
980.5130556429586
 30
0.0
 10
1937.058603787289
 20
980.7610383677983
 30
0.0
 10
1937.125149634686
 20
980.891365913304
 30
0.0
  0
ARC
  5
951
330
93D
100
AcDbEntity
  8
0
  6
Continuous
 62
     7
370
    15
100
AcDbCircle
 10
1934.505515229954
 20
980.7346504801584
 30
0.0
 40
2.624317843067684
100
AcDbArc
 50
332.241692079497
 51
3.42354803644497
  0
SPLINE
  5
952
330
93D
100
AcDbEntity
  8
0
  6
Continuous
 62
     7
370
    15
100
AcDbSpline
210
0.0
220
0.0
230
1.0
 70
     8
 71
     3
 72
    10
 73
     6
 74
     0
 42
0.0000000001
 43
0.0000000001
 40
0.0
 40
0.0
 40
0.0
 40
0.0
 40
0.5
 40
0.5
 40
1.0
 40
1.0
 40
1.0
 40
1.0
 10
1936.827826874264
 20
979.5123932371254
 30
0.0
 10
1936.625235574496
 20
979.1292603595707
 30
0.0
 10
1936.483907951396
 20
978.7487774831438
 30
0.0
 10
1936.292793338675
 20
978.0240818686642
 30
0.0
 10
1936.242761862188
 20
977.6799368272216
 30
0.0
 10
1936.2231072742
 20
977.3598926621502
 30
0.0
  0
SPLINE
  5
953
330
93D
100
AcDbEntity
  8
0
  6
Continuous
 62
     7
370
    15
100
AcDbSpline
210
0.0
220
0.0
230
1.0
 70
     8
 71
     3
 72
    10
 73
     6
 74
     0
 42
0.0000000001
 43
0.0000000001
 40
0.0
 40
0.0
 40
0.0
 40
0.0
 40
0.5
 40
0.5
 40
1.0
 40
1.0
 40
1.0
 40
1.0
 10
1936.274166584981
 20
978.3522256312435
 30
0.0
 10
1936.274152938478
 20
978.1865475719643
 30
0.0
 10
1936.267414952112
 20
978.0210176343443
 30
0.0
 10
1936.24712341275
 20
977.6903385221661
 30
0.0
 10
1936.233262255196
 20
977.5252422353593
 30
0.0
 10
1936.223107266164
 20
977.3598925313828
 30
0.0
  0
SPLINE
  5
954
330
93D
100
AcDbEntity
  8
0
  6
Continuous
 62
     7
370
    15
100
AcDbSpline
210
0.0
220
0.0
230
1.0
 70
     8
 71
     3
 72
    20
 73
    16
 74
     0
 42
0.0000000001
 43
0.0000000001
 40
0.0
 40
0.0
 40
0.0
 40
0.0
 40
0.0334246388592179
 40
0.0683550738303574
 40
0.1048616021567096
 40
0.1430058081699157
 40
0.1828416816143248
 40
0.2244166222943229
 40
0.2677723265416037
 40
0.3129455598526644
 40
0.3599688247705645
 40
0.4088709351347198
 40
0.585073872216852
 40
0.7819351979686137
 40
0.9999999999999998
 40
0.9999999999999998
 40
0.9999999999999998
 40
0.9999999999999998
 10
1946.75210313421
 20
975.7176081760633
 30
0.0
 10
1946.74463677282
 20
975.6728769400563
 30
0.0
 10
1946.729367686856
 20
975.5813993042723
 30
0.0
 10
1946.704498547494
 20
975.4494682953883
 30
0.0
 10
1946.677606132151
 20
975.3175881730131
 30
0.0
 10
1946.648567541842
 20
975.1864153551421
 30
0.0
 10
1946.617417624874
 20
975.0557561747042
 30
0.0
 10
1946.584146027694
 20
974.9256613611647
 30
0.0
 10
1946.548755282001
 20
974.7961128983799
 30
0.0
 10
1946.511244291782
 20
974.6671127599785
 30
0.0
 10
1946.471612807756
 20
974.5386598071723
 30
0.0
 10
1946.394180470988
 20
974.3014328085106
 30
0.0
 10
1946.270999041576
 20
973.9682244475641
 30
0.0
 10
1946.094287079167
 20
973.5567781643402
 30
0.0
 10
1945.967665953141
 20
973.3087954395038
 30
0.0
 10
1945.901120105745
 20
973.1784678940018
 30
0.0
  0
ARC
  5
955
330
93D
100
AcDbEntity
  8
0
  6
Continuous
 62
     7
370
    15
100
AcDbCircle
 10
1948.520754510477
 20
973.335183327147
 30
0.0
 40
2.624317843067415
100
AcDbArc
 50
152.2416920795028
 51
183.4235480364515
  0
SPLINE
  5
956
330
93D
100
AcDbEntity
  8
0
  6
Continuous
 62
     7
370
    15
100
AcDbSpline
210
0.0
220
0.0
230
1.0
 70
     8
 71
     3
 72
    10
 73
     6
 74
     0
 42
0.0000000001
 43
0.0000000001
 40
0.0
 40
0.0
 40
0.0
 40
0.0
 40
0.5
 40
0.5
 40
1.0
 40
1.0
 40
1.0
 40
1.0
 10
1946.198442866167
 20
974.55744057018
 30
0.0
 10
1946.401034165952
 20
974.9405734477665
 30
0.0
 10
1946.542361789039
 20
975.3210563241689
 30
0.0
 10
1946.733476401756
 20
976.045751938634
 30
0.0
 10
1946.783507878246
 20
976.3898969800926
 30
0.0
 10
1946.803162466234
 20
976.7099411451553
 30
0.0
  0
SPLINE
  5
957
330
93D
100
AcDbEntity
  8
0
  6
Continuous
 62
     7
370
    15
100
AcDbSpline
210
0.0
220
0.0
230
1.0
 70
     8
 71
     3
 72
    10
 73
     6
 74
     0
 42
0.0000000001
 43
0.0000000001
 40
0.0
 40
0.0
 40
0.0
 40
0.0
 40
0.5
 40
0.5
 40
1.0
 40
1.0
 40
1.0
 40
1.0
 10
1946.752103155453
 20
975.7176081760622
 30
0.0
 10
1946.75211680196
 20
975.8832862353413
 30
0.0
 10
1946.758854788329
 20
976.0488161729609
 30
0.0
 10
1946.77914632769
 20
976.3794952851391
 30
0.0
 10
1946.793007485237
 20
976.544591571946
 30
0.0
 10
1946.80316247427
 20
976.7099412759225
 30
0.0
  0
LINE
  5
958
330
93D
100
AcDbEntity
  8
0
  6
Continuous
 62
     7
370
    15
100
AcDbLine
 10
1946.752103134217
 20
984.9763998723572
 30
0.0
 11
1946.75210314247
 21
978.3522256312426
 31
0.0
  0
LINE
  5
959
330
93D
100
AcDbEntity
  8
0
  6
Continuous
 62
     7
370
    15
100
AcDbLine
 10
1936.274166602069
 20
984.9763998723572
 30
0.0
 11
1946.752103134217
 21
984.9763998723572
 31
0.0
  0
LINE
  5
95A
330
93D
100
AcDbEntity
  8
0
  6
Continuous
 62
     7
370
    15
100
AcDbLine
 10
1936.274166597964
 20
978.3522256312425
 30
0.0
 11
1936.274166602069
 21
984.9763998723572
 31
0.0
  0
ARC
  5
95B
330
93D
100
AcDbEntity
  8
0
  6
Continuous
 62
     7
370
    15
100
AcDbCircle
 10
1941.513134870234
 20
977.0349169036528
 30
0.0
 40
5.299999999999968
100
AcDbArc
 50
176.4846387006604
 51
183.5153612993526
  0
LINE
  5
95C
330
93D
100
AcDbEntity
  8
0
  6
Continuous
 62
     7
370
    15
100
AcDbLine
 10
1936.274166606172
 20
967.2461196288876
 30
0.0
 11
1936.274166597964
 21
975.7176081760631
 31
0.0
  0
LINE
  5
95D
330
93D
100
AcDbEntity
  8
0
  6
Continuous
 62
     7
370
    15
100
AcDbLine
 10
1946.752103138335
 20
967.246119628888
 30
0.0
 11
1936.274166606172
 21
967.2461196288876
 31
0.0
  0
LINE
  5
95E
330
93D
100
AcDbEntity
  8
0
  6
Continuous
 62
     7
370
    15
100
AcDbLine
 10
1946.75210314247
 20
975.7176081760633
 30
0.0
 11
1946.752103138335
 21
967.246119628888
 31
0.0
  0
ARC
  5
95F
330
93D
100
AcDbEntity
  8
0
  6
Continuous
 62
     7
370
    15
100
AcDbCircle
 10
1941.5131348702
 20
977.0349169036528
 30
0.0
 40
5.299999999999982
100
AcDbArc
 50
356.4846387006539
 51
3.515361299346089
  0
LINE
  5
960
330
93D
100
AcDbEntity
  8
0
  6
Continuous
 62
     7
370
    15
100
AcDbLine
 10
1947.311013658076
 20
956.3501371446287
 30
0.0
 11
1947.211013658076
 21
956.3501371446287
 31
0.0
  0
LINE
  5
961
330
93D
100
AcDbEntity
  8
0
  6
Continuous
 62
     7
370
    15
100
AcDbLine
 10
1947.211013658076
 20
942.8501430305805
 30
0.0
 11
1947.211013658076
 21
956.3501371446285
 31
0.0
  0
LINE
  5
962
330
93D
100
AcDbEntity
  8
0
  6
Continuous
 62
     7
370
    15
100
AcDbLine
 10
1935.815256082345
 20
942.8501430305805
 30
0.0
 11
1947.211013658076
 21
942.8501430305805
 31
0.0
  0
LINE
  5
963
330
93D
100
AcDbEntity
  8
0
  6
Continuous
 62
     7
370
    15
100
AcDbLine
 10
1935.815256082342
 20
956.3501371446285
 30
0.0
 11
1935.815256082345
 21
942.8501430305805
 31
0.0
  0
LINE
  5
964
330
93D
100
AcDbEntity
  8
0
  6
Continuous
 62
     7
370
    15
100
AcDbLine
 10
1935.715256082347
 20
956.3501371446285
 30
0.0
 11
1935.815256082342
 21
956.3501371446285
 31
0.0
  0
LINE
  5
965
330
93D
100
AcDbEntity
  8
0
  6
Continuous
 62
     7
370
    15
100
AcDbLine
 10
1935.715256082347
 20
991.2492736312083
 30
0.0
 11
1935.715256082347
 21
956.3501371446285
 31
0.0
  0
LINE
  5
966
330
93D
100
AcDbEntity
  8
0
  6
Continuous
 62
     7
370
    15
100
AcDbLine
 10
1935.715256082338
 20
991.2492736312085
 30
0.0
 11
1935.715256082338
 21
991.7536816077642
 31
0.0
  0
LINE
  5
967
330
93D
100
AcDbEntity
  8
0
  6
Continuous
 62
     7
370
    15
100
AcDbLine
 10
1935.715256082338
 20
991.7536816077642
 30
0.0
 11
1935.715256082338
 21
994.2070645455293
 31
0.0
  0
LINE
  5
968
330
93D
100
AcDbEntity
  8
0
  6
Continuous
 62
     7
370
    15
100
AcDbLine
 10
1935.715256082338
 20
994.2070645455293
 30
0.0
 11
1947.311013658075
 21
994.2070645455293
 31
0.0
  0
LINE
  5
969
330
93D
100
AcDbEntity
  8
0
  6
Continuous
 62
     7
370
    15
100
AcDbLine
 10
1947.311013658075
 20
991.7536816077644
 30
0.0
 11
1947.311013658075
 21
994.2070645455293
 31
0.0
  0
LINE
  5
96A
330
93D
100
AcDbEntity
  8
0
  6
Continuous
 62
     7
370
    15
100
AcDbLine
 10
1947.311013658075
 20
991.2492736312085
 30
0.0
 11
1947.311013658075
 21
991.7536816077644
 31
0.0
  0
LINE
  5
96B
330
93D
100
AcDbEntity
  8
0
  6
Continuous
 62
     7
370
    15
100
AcDbLine
 10
1947.311013658076
 20
956.3501371446285
 30
0.0
 11
1947.311013658076
 21
991.2492736312083
 31
0.0
  0
SPLINE
  5
96C
330
93D
100
AcDbEntity
  8
0
  6
Continuous
 62
     7
370
    15
100
AcDbSpline
210
0.0
220
0.0
230
1.0
 70
     8
 71
     3
 72
    20
 73
    16
 74
     0
 42
0.0000000001
 43
0.0000000001
 40
0.0
 40
0.0
 40
0.0
 40
0.0
 40
0.0429160637895155
 40
0.0852294472169336
 40
0.1270342615767428
 40
0.1684280870937704
 40
0.2095114326111861
 40
0.2503870973466427
 40
0.3765345168177092
 40
0.5004817269621123
 40
0.6255032801775126
 40
0.7501151685781784
 40
0.832939716359426
 40
0.9158328780711144
 40
1.0
 40
1.0
 40
1.0
 40
1.0
 10
1937.745026580399
 20
974.6451731350171
 30
0.0
 10
1937.739600516217
 20
974.5941817384364
 30
0.0
 10
1937.728824587345
 20
974.4929150294318
 30
0.0
 10
1937.711250195979
 20
974.3475950301368
 30
0.0
 10
1937.692795717245
 20
974.2086527538582
 30
0.0
 10
1937.67335558916
 20
974.0764568835812
 30
0.0
 10
1937.652954963579
 20
973.9509086733425
 30
0.0
 10
1937.616740879109
 20
973.7493838526761
 30
0.0
 10
1937.561007088518
 20
973.4983066441545
 30
0.0
 10
1937.480612769961
 20
973.2504096058127
 30
0.0
 10
1937.394280754206
 20
973.0871007402182
 30
0.0
 10
1937.314049546536
 20
973.0258695596567
 30
0.0
 10
1937.243702776367
 20
973.0336993753944
 30
0.0
 10
1937.183564627191
 20
973.0802997270108
 30
0.0
 10
1937.144720038582
 20
973.1455792365641
 30
0.0
 10
1937.125149634687
 20
973.1784678940016
 30
0.0
  0
LINE
  5
96D
330
93D
100
AcDbEntity
  8
0
  6
Continuous
 62
     7
370
    15
100
AcDbLine
 10
1937.745026580399
 20
974.6451731350171
 30
0.0
 11
1937.749661216537
 21
974.6904276808665
 31
0.0
  0
LINE
  5
96E
330
93D
100
AcDbEntity
  8
0
  6
Continuous
 62
     7
370
    15
100
AcDbLine
 10
1937.749661216544
 20
973.0720230821932
 30
0.0
 11
1937.749661216537
 21
974.6904276808665
 31
0.0
  0
LINE
  5
96F
330
93D
100
AcDbEntity
  8
0
  6
Continuous
 62
     7
370
    15
100
AcDbLine
 10
1937.662365647564
 20
972.48201236757
 30
0.0
 11
1937.749661216544
 21
973.0720230821932
 31
0.0
  0
ELLIPSE
  5
970
330
93D
100
AcDbEntity
  8
0
  6
Continuous
 62
     7
370
    15
100
AcDbEllipse
 10
1937.392217040107
 20
973.7675875869344
 30
0.0
 11
-0.0000000000000568
 21
1.999999999999971
 31
0.0
210
0.0
220
0.0
230
1.0
 40
0.176326980708242
 41
3.490658503925726
 42
4.014257279534954
  0
LINE
  5
971
330
93D
100
AcDbEntity
  8
0
  6
Continuous
 62
     7
370
    15
100
AcDbLine
 10
1936.619679525985
 20
970.0445772769953
 30
0.0
 11
1937.512831798512
 21
971.8882023453627
 31
0.0
  0
ELLIPSE
  5
972
330
93D
100
AcDbEntity
  8
0
  6
Continuous
 62
     7
370
    15
100
AcDbEllipse
 10
1936.799278304201
 20
967.2461196288875
 30
0.0
 11
-0.0000000000001137
 21
2.97805642633267
 31
0.0
210
0.0
220
0.0
230
1.0
 40
0.1763269807082301
 41
0.3490658503857968
 42
1.570796326794804
  0
LINE
  5
973
330
93D
100
AcDbEntity
  8
0
  6
Continuous
 62
     7
370
    15
100
AcDbLine
 10
1945.281243160031
 20
979.4246606722879
 30
0.0
 11
1945.276608523893
 21
979.3794061264387
 31
0.0
  0
LINE
  5
974
330
93D
100
AcDbEntity
  8
0
  6
Continuous
 62
     7
370
    15
100
AcDbLine
 10
1945.27660852388
 20
980.9978107250763
 30
0.0
 11
1945.276608523893
 21
979.3794061264387
 31
0.0
  0
LINE
  5
975
330
93D
100
AcDbEntity
  8
0
  6
Continuous
 62
     7
370
    15
100
AcDbLine
 10
1945.31893988407
 20
981.283918662015
 30
0.0
 11
1945.276608523906
 21
980.9978107250763
 31
0.0
  0
ELLIPSE
  5
976
330
93D
100
AcDbEntity
  8
0
  6
Continuous
 62
     7
370
    15
100
AcDbEllipse
 10
1945.589088490416
 20
979.9983434460248
 30
0.0
 11
0.0
 21
1.999999989473451
 31
0.0
210
0.0
220
0.0
230
1.0
 40
0.1763269807086974
 41
6.283185307179586
 42
7.155849932393093
  0
LINE
  5
977
330
93D
100
AcDbEntity
  8
0
  6
Continuous
 62
     7
370
    15
100
AcDbLine
 10
1946.226991436201
 20
981.9983434460251
 30
0.0
 11
1945.589088490441
 21
981.9983434381299
 31
0.0
  0
ELLIPSE
  5
978
330
93D
100
AcDbEntity
  8
0
  6
Continuous
 62
     7
370
    15
100
AcDbEllipse
 10
1946.226991436171
 20
984.9763998723574
 30
0.0
 11
0.0
 21
2.978056426332301
 31
0.0
210
0.0
220
0.0
230
1.0
 40
0.176326980708691
 41
3.141592653648003
 42
4.712388980384672
  0
SPLINE
  5
979
330
93D
100
AcDbEntity
  8
0
  6
Continuous
 62
     7
370
    15
100
AcDbSpline
210
0.0
220
0.0
230
1.0
 70
     8
 71
     3
 72
    20
 73
    16
 74
     0
 42
0.0000000001
 43
0.0000000001
 40
0.0
 40
0.0
 40
0.0
 40
0.0
 40
0.042872265985615
 40
0.085143313862374
 40
0.126906968849901
 40
0.1682605099158546
 40
0.2093041322088483
 40
0.2501403121798665
 40
0.3759729637464099
 40
0.4996126667671676
 40
0.6246810090780923
 40
0.7493319215862803
 40
0.8324165808714734
 40
0.9155669563620914
 40
1.0
 40
1.0
 40
1.0
 40
1.0
 10
1945.281243160031
 20
979.4246606722881
 30
0.0
 10
1945.286663546862
 20
979.4756005536294
 30
0.0
 10
1945.297428307872
 20
979.5767659622089
 30
0.0
 10
1945.314983214456
 20
979.7219477960581
 30
0.0
 10
1945.333416580824
 20
979.8607658973431
 30
0.0
 10
1945.35283376735
 20
979.9928523172141
 30
0.0
 10
1945.373209663133
 20
980.1183055821208
 30
0.0
 10
1945.409345342917
 20
980.3195079145647
 30
0.0
 10
1945.464928503589
 20
980.5701719436099
 30
0.0
 10
1945.545154023638
 20
980.8181447367187
 30
0.0
 10
1945.631400508634
 20
980.9819665498432
 30
0.0
 10
1945.711702739829
 20
981.0438082169962
 30
0.0
 10
1945.782186570244
 20
981.036353053224
 30
0.0
 10
1945.842519395283
 20
980.9898084891466
 30
0.0
 10
1945.881487117133
 20
980.9243471170342
 30
0.0
 10
1945.901120105745
 20
980.8913659133034
 30
0.0
  0
SPLINE
  5
97A
330
93D
100
AcDbEntity
  8
0
  6
Continuous
 62
     7
370
    15
100
AcDbSpline
210
0.0
220
0.0
230
1.0
 70
     8
 71
     3
 72
    20
 73
    16
 74
     0
 42
0.0000000001
 43
0.0000000001
 40
0.0
 40
0.0
 40
0.0
 40
0.0
 40
0.0423930841905931
 40
0.0843471039279035
 40
0.1260098835404954
 40
0.1675323580088508
 40
0.209066991929262
 40
0.2507661165223515
 40
0.3751581543329746
 40
0.5004760552941848
 40
0.6238578530615571
 40
0.7499392352668175
 40
0.8316752579959377
 40
0.9147646211194377
 40
1.0
 40
1.0
 40
1.0
 40
1.0
 10
1937.125149634686
 20
980.891365913304
 30
0.0
 10
1937.134950814323
 20
980.9088337056151
 30
0.0
 10
1937.154451662945
 20
980.9435883766086
 30
0.0
 10
1937.184190458202
 20
980.9829582778233
 30
0.0
 10
1937.214045192042
 20
981.0124829731032
 30
0.0
 10
1937.244062933617
 20
981.0313042778203
 30
0.0
 10
1937.274232639907
 20
981.0396336456953
 30
0.0
 10
1937.32448145175
 20
981.0360449714901
 30
0.0
 10
1937.394810960018
 20
980.9820786567621
 30
0.0
 10
1937.481002212011
 20
980.8184214341771
 30
0.0
 10
1937.561288736332
 20
980.5703506648555
 30
0.0
 10
1937.624715256386
 20
980.284537183936
 30
0.0
 10
1937.674068897909
 20
979.994908709318
 30
0.0
 10
1937.712289756947
 20
979.7237459831855
 30
0.0
 10
1937.734021949464
 20
979.5251995492346
 30
0.0
 10
1937.745026580399
 20
979.4246606722893
 30
0.0
  0
ELLIPSE
  5
97B
330
93D
100
AcDbEntity
  8
0
  6
Continuous
 62
     7
370
    15
100
AcDbEllipse
 10
1936.799278304201
 20
984.976399872357
 30
0.0
 11
-0.0000000000001137
 21
2.978056426332301
 31
0.0
210
0.0
220
0.0
230
1.0
 40
0.1763269807082329
 41
1.570796326794823
 42
3.141592653642482
  0
LINE
  5
97C
330
93D
100
AcDbEntity
  8
0
  6
Continuous
 62
     7
370
    15
100
AcDbLine
 10
1937.437181249931
 20
981.9983434354979
 30
0.0
 11
1936.799278304229
 21
981.9983434433931
 31
0.0
  0
ELLIPSE
  5
97D
330
93D
100
AcDbEntity
  8
0
  6
Continuous
 62
     7
370
    15
100
AcDbEllipse
 10
1937.437181249956
 20
979.9983434460244
 30
0.0
 11
-0.0000000000000568
 21
1.999999989473451
 31
0.0
210
0.0
220
0.0
230
1.0
 40
0.1763269807082143
 41
5.410520681807732
 42
6.283185307179586
  0
LINE
  5
97E
330
93D
100
AcDbEntity
  8
0
  6
Continuous
 62
     7
370
    15
100
AcDbLine
 10
1937.749661216784
 20
980.997810723489
 30
0.0
 11
1937.707329856388
 21
981.2839186620122
 31
0.0
  0
LINE
  5
97F
330
93D
100
AcDbEntity
  8
0
  6
Continuous
 62
     7
370
    15
100
AcDbLine
 10
1937.749661216537
 20
979.3794061264385
 30
0.0
 11
1937.749661216784
 21
980.997810723489
 31
0.0
  0
LINE
  5
980
330
93D
100
AcDbEntity
  8
0
  6
Continuous
 62
     7
370
    15
100
AcDbLine
 10
1937.749661216537
 20
979.3794061264385
 30
0.0
 11
1937.745026580399
 21
979.4246606722881
 31
0.0
  0
ELLIPSE
  5
981
330
93D
100
AcDbEntity
  8
0
  6
Continuous
 62
     7
370
    15
100
AcDbEllipse
 10
1946.226991436171
 20
967.2461196288876
 30
0.0
 11
0.0
 21
2.97805642633267
 31
0.0
210
0.0
220
0.0
230
1.0
 40
0.1763269807086882
 41
4.712388980384739
 42
5.934119456774157
  0
LINE
  5
982
330
93D
100
AcDbEntity
  8
0
  6
Continuous
 62
     7
370
    15
100
AcDbLine
 10
1945.513437941876
 20
971.8882023453616
 30
0.0
 11
1946.406590214399
 21
970.0445772769965
 31
0.0
  0
ELLIPSE
  5
983
330
93D
100
AcDbEntity
  8
0
  6
Continuous
 62
     7
370
    15
100
AcDbEllipse
 10
1945.634052700265
 20
973.7675875869348
 30
0.0
 11
0.0
 21
1.999999999999914
 31
0.0
210
0.0
220
0.0
230
1.0
 40
0.1763269807086733
 41
2.26892802765011
 42
2.792526803296767
  0
LINE
  5
984
330
93D
100
AcDbEntity
  8
0
  6
Continuous
 62
     7
370
    15
100
AcDbLine
 10
1945.276608523906
 20
973.0720230821825
 30
0.0
 11
1945.363904092809
 21
972.482012367563
 31
0.0
  0
LINE
  5
985
330
93D
100
AcDbEntity
  8
0
  6
Continuous
 62
     7
370
    15
100
AcDbLine
 10
1945.276608523893
 20
974.6904276808669
 30
0.0
 11
1945.276608523888
 21
973.0720230821821
 31
0.0
  0
LINE
  5
986
330
93D
100
AcDbEntity
  8
0
  6
Continuous
 62
     7
370
    15
100
AcDbLine
 10
1945.276608523893
 20
974.6904276808667
 30
0.0
 11
1945.281243160031
 21
974.6451731350175
 31
0.0
  0
SPLINE
  5
987
330
93D
100
AcDbEntity
  8
0
  6
Continuous
 62
     7
370
    15
100
AcDbSpline
210
0.0
220
0.0
230
1.0
 70
     8
 71
     3
 72
    20
 73
    16
 74
     0
 42
0.0000000001
 43
0.0000000001
 40
0.0
 40
0.0
 40
0.0
 40
0.0
 40
0.0422586069182456
 40
0.0840815680921607
 40
0.1256153171137729
 40
0.1670093569984757
 40
0.208414704140037
 40
0.249982251693404
 40
0.3743373594022876
 40
0.4996066606351844
 40
0.6232929852401589
 40
0.749692266073465
 40
0.8315042288148765
 40
0.9146750562183363
 40
1.0
 40
1.0
 40
1.0
 40
1.0
 10
1945.901120105745
 20
973.1784678940018
 30
0.0
 10
1945.891350230027
 20
973.1610522931655
 30
0.0
 10
1945.871911196649
 20
973.1264006296495
 30
0.0
 10
1945.842267703086
 20
973.0871051985987
 30
0.0
 10
1945.812508206371
 20
973.0575921551659
 30
0.0
 10
1945.782585913441
 20
973.0387145196672
 30
0.0
 10
1945.752511779973
 20
973.0302618801973
 30
0.0
 10
1945.702334688607
 20
973.0335423536368
 30
0.0
 10
1945.632046876252
 20
973.0869905374026
 30
0.0
 10
1945.545770706274
 20
973.2501322563511
 30
0.0
 10
1945.465316276033
 20
973.4981301869446
 30
0.0
 10
1945.401728345891
 20
973.7843608630008
 30
0.0
 10
1945.352280523505
 20
974.0743859727023
 30
0.0
 10
1945.314014896795
 20
974.3457853244569
 30
0.0
 10
1945.292259780945
 20
974.54453025365
 30
0.0
 10
1945.281243160031
 20
974.6451731350175
 30
0.0
  0
LINE
  5
988
330
93D
100
AcDbEntity
  8
0
  6
Continuous
 62
     7
370
    15
100
AcDbLine
 10
1946.406590214399
 20
970.0445772769965
 30
0.0
 11
1936.619679525985
 21
970.0445772769953
 31
0.0
  0
LINE
  5
989
330
93D
100
AcDbEntity
  8
0
  6
Continuous
 62
     7
370
    15
100
AcDbLine
 10
1936.799278304229
 20
981.9983434433931
 30
0.0
 11
1946.226991436201
 21
981.9983434460251
 31
0.0
  0
LINE
  5
98A
330
93D
100
AcDbEntity
  8
0
  6
Continuous
 62
     7
370
    15
100
AcDbLine
 10
1935.715256082339
 20
994.7020087153028
 30
0.0
 11
1947.311013658076
 21
994.7020087153028
 31
0.0
  0
LINE
  5
98B
330
93D
100
AcDbEntity
  8
0
  6
Continuous
 62
     7
370
    15
100
AcDbLine
 10
1947.311013658075
 20
994.2070645455293
 30
0.0
 11
1947.311013658076
 21
994.7020087153028
 31
0.0
  0
LINE
  5
98C
330
93D
100
AcDbEntity
  8
0
  6
Continuous
 62
     7
370
    15
100
AcDbLine
 10
1935.715256082338
 20
994.2070645455293
 30
0.0
 11
1935.715256082339
 21
994.7020087153028
 31
0.0
  0
LINE
  5
98D
330
93D
100
AcDbEntity
  8
0
  6
Continuous
 62
     7
370
    15
100
AcDbLine
 10
1935.815256082348
 20
942.3501430305806
 30
0.0
 11
1947.211013658076
 21
942.3501405605433
 31
0.0
  0
LINE
  5
98E
330
93D
100
AcDbEntity
  8
0
  6
Continuous
 62
     7
370
    15
100
AcDbLine
 10
1935.815256082345
 20
942.8501430305805
 30
0.0
 11
1935.815256082348
 21
942.3501430305806
 31
0.0
  0
LINE
  5
98F
330
93D
100
AcDbEntity
  8
0
  6
Continuous
 62
     7
370
    15
100
AcDbLine
 10
1947.211013658076
 20
942.3501405605433
 30
0.0
 11
1947.211013658076
 21
942.8501430305805
 31
0.0
  0
LINE
  5
990
330
93D
100
AcDbEntity
  8
0
  6
Continuous
 62
     7
370
    15
100
AcDbLine
 10
1938.015111154774
 20
996.975737548206
 30
0.0
 11
1938.015111154772
 21
994.8505694326426
 31
0.0
  0
LINE
  5
991
330
93D
100
AcDbEntity
  8
0
  6
Continuous
 62
     7
370
    15
100
AcDbLine
 10
1938.015111154772
 20
994.8505694326426
 30
0.0
 11
1945.011158585642
 21
994.8505694326426
 31
0.0
  0
LINE
  5
992
330
93D
100
AcDbEntity
  8
0
  6
Continuous
 62
     7
370
    15
100
AcDbLine
 10
1945.011158585644
 20
996.9757375482062
 30
0.0
 11
1945.011158585642
 21
994.8505694326426
 31
0.0
  0
LINE
  5
993
330
93D
100
AcDbEntity
  8
0
  6
Continuous
 62
     7
370
    15
100
AcDbLine
 10
1947.311013658078
 20
996.975737548206
 30
0.0
 11
1945.011158585644
 21
996.9757375482062
 31
0.0
  0
LINE
  5
994
330
93D
100
AcDbEntity
  8
0
  6
Continuous
 62
     7
370
    15
100
AcDbLine
 10
1935.715256082341
 20
996.975737548206
 30
0.0
 11
1938.015111154774
 21
996.975737548206
 31
0.0
  0
LINE
  5
995
330
93D
100
AcDbEntity
  8
0
  6
Continuous
 62
     7
370
    15
100
AcDbLine
 10
1947.311013658078
 20
996.975737548206
 30
0.0
 11
1947.311013658076
 21
994.7020087153028
 31
0.0
  0
LINE
  5
996
330
93D
100
AcDbEntity
  8
0
  6
Continuous
 62
     7
370
    15
100
AcDbLine
 10
1935.715256082339
 20
994.7020087153028
 30
0.0
 11
1935.715256082341
 21
996.975737548206
 31
0.0
  0
LINE
  5
997
330
93D
100
AcDbEntity
  8
0
  6
Continuous
 62
     7
370
    15
100
AcDbLine
 10
1945.713134870208
 20
942.3501390427171
 30
0.0
 11
1947.211013658076
 21
942.3501380905062
 31
0.0
  0
LINE
  5
998
330
93D
100
AcDbEntity
  8
0
  6
Continuous
 62
     7
370
    15
100
AcDbLine
 10
1945.713134870208
 20
942.350139994928
 30
0.0
 11
1945.713134870208
 21
942.3501390427171
 31
0.0
  0
LINE
  5
999
330
93D
100
AcDbEntity
  8
0
  6
Continuous
 62
     7
370
    15
100
AcDbLine
 10
1937.313134870214
 20
942.350140947139
 30
0.0
 11
1945.713134870208
 21
942.350140947139
 31
0.0
  0
LINE
  5
99A
330
93D
100
AcDbEntity
  8
0
  6
Continuous
 62
     7
370
    15
100
AcDbLine
 10
1935.815256082346
 20
942.3501405605433
 30
0.0
 11
1937.313134870214
 21
942.3501380905062
 31
0.0
  0
LINE
  5
99B
330
93D
100
AcDbEntity
  8
0
  6
Continuous
 62
     7
370
    15
100
AcDbLine
 10
1935.815256082348
 20
942.3501430305806
 30
0.0
 11
1935.815256082346
 21
942.3501405605433
 31
0.0
  0
LINE
  5
99C
330
93D
100
AcDbEntity
  8
0
  6
Continuous
 62
     7
370
    15
100
AcDbLine
 10
1947.211013658076
 20
942.3501380905062
 30
0.0
 11
1947.211013658076
 21
942.3501405605433
 31
0.0
  0
LINE
  5
99D
330
93D
100
AcDbEntity
  8
0
  6
Continuous
 62
     7
370
    15
100
AcDbLine
 10
1938.015111154774
 20
995.6932426041392
 30
0.0
 11
1945.011158585644
 21
995.6932426041392
 31
0.0
  0
LINE
  5
99E
330
93D
100
AcDbEntity
  8
0
  6
Continuous
 62
     7
370
    15
100
AcDbLine
 10
1937.512831798512
 20
971.8882023453627
 30
0.0
 11
1945.513437941876
 21
971.8882023453616
 31
0.0
  0
LINE
  5
99F
330
93D
100
AcDbEntity
  8
0
  6
Continuous
 62
     7
370
    15
100
AcDbLine
 10
1938.015111154774
 20
995.9244529589492
 30
0.0
 11
1945.011158585644
 21
995.9244529589492
 31
0.0
  0
LINE
  5
9A0
330
93D
100
AcDbEntity
  8
0
  6
Continuous
 62
     7
370
    15
100
AcDbLine
 10
1938.015111154775
 20
996.9682345010562
 30
0.0
 11
1945.011158585645
 21
996.9682345010562
 31
0.0
  0
LINE
  5
9A1
330
93D
100
AcDbEntity
  8
0
  6
Continuous
 62
     7
370
    15
100
AcDbLine
 10
1945.011158585644
 20
996.9757375482062
 30
0.0
 11
1945.011158585645
 21
997.2073082203989
 31
0.0
  0
LINE
  5
9A2
330
93D
100
AcDbEntity
  8
0
  6
Continuous
 62
     7
370
    15
100
AcDbLine
 10
1947.311013658078
 20
997.2073082203989
 30
0.0
 11
1947.311013658078
 21
996.975737548206
 31
0.0
  0
LINE
  5
9A3
330
93D
100
AcDbEntity
  8
0
  6
Continuous
 62
     7
370
    15
100
AcDbLine
 10
1938.015111154774
 20
996.975737548206
 30
0.0
 11
1938.015111154775
 21
997.2073082203989
 31
0.0
  0
LINE
  5
9A4
330
93D
100
AcDbEntity
  8
0
  6
Continuous
 62
     7
370
    15
100
AcDbLine
 10
1935.715256082341
 20
996.975737548206
 30
0.0
 11
1935.715256082341
 21
997.2073082203989
 31
0.0
  0
LINE
  5
9A5
330
93D
100
AcDbEntity
  8
0
  6
Continuous
 62
     7
370
    15
100
AcDbLine
 10
1938.015111154778
 20
998.4993137715331
 30
0.0
 11
1938.015111154779
 21
999.3854361833129
 31
0.0
  0
LINE
  5
9A6
330
93D
100
AcDbEntity
  8
0
  6
Continuous
 62
     7
370
    15
100
AcDbLine
 10
1938.015111154778
 20
998.4993137715331
 30
0.0
 11
1945.011158585649
 21
998.4993137715333
 31
0.0
  0
LINE
  5
9A7
330
93D
100
AcDbEntity
  8
0
  6
Continuous
 62
     7
370
    15
100
AcDbLine
 10
1945.011158585649
 20
998.4993137715333
 30
0.0
 11
1945.011158585651
 21
999.3854361833129
 31
0.0
  0
LINE
  5
9A8
330
93D
100
AcDbEntity
  8
0
  6
Continuous
 62
     7
370
    15
100
AcDbLine
 10
1947.311013658083
 20
999.3854361833124
 30
0.0
 11
1945.011158585651
 21
999.3854361833129
 31
0.0
  0
LINE
  5
9A9
330
93D
100
AcDbEntity
  8
0
  6
Continuous
 62
     7
370
    15
100
AcDbLine
 10
1938.015111154777
 20
997.2495787740127
 30
0.0
 11
1945.011158585647
 21
997.2495787740127
 31
0.0
  0
LINE
  5
9AA
330
93D
100
AcDbEntity
  8
0
  6
Continuous
 62
     7
370
    15
100
AcDbLine
 10
1935.715256082346
 20
999.3854361833129
 30
0.0
 11
1938.015111154779
 21
999.3854361833129
 31
0.0
  0
LINE
  5
9AB
330
93D
100
AcDbEntity
  8
0
  6
Continuous
 62
     7
370
    15
100
AcDbLine
 10
1938.015111154783
 20
997.2073082203989
 30
0.0
 11
1938.015111154777
 21
997.2495787740127
 31
0.0
  0
LINE
  5
9AC
330
93D
100
AcDbEntity
  8
0
  6
Continuous
 62
     7
370
    15
100
AcDbLine
 10
1945.011158585657
 20
997.2073082203989
 30
0.0
 11
1945.011158585647
 21
997.2495787740127
 31
0.0
  0
LINE
  5
9AD
330
93D
100
AcDbEntity
  8
0
  6
Continuous
 62
     7
370
    15
100
AcDbLine
 10
1947.31101365808
 20
997.2073082203985
 30
0.0
 11
1947.311013658083
 21
999.3854361833124
 31
0.0
  0
LINE
  5
9AE
330
93D
100
AcDbEntity
  8
0
  6
Continuous
 62
     7
370
    15
100
AcDbLine
 10
1935.715256082344
 20
997.2073082203985
 30
0.0
 11
1935.715256082346
 21
999.3854361833129
 31
0.0
  0
SPLINE
  5
9AF
330
93D
100
AcDbEntity
  8
0
  6
Continuous
 62
     7
370
    15
100
AcDbSpline
210
0.0
220
0.0
230
1.0
 70
     8
 71
     3
 72
    14
 73
    10
 74
     0
 42
0.0000000001
 43
0.0000000001
 40
0.0
 40
0.0
 40
0.0
 40
0.0
 40
0.25
 40
0.25
 40
0.5
 40
0.5
 40
0.75
 40
0.75
 40
1.0
 40
1.0
 40
1.0
 40
1.0
 10
1946.198442866167
 20
979.5123932371254
 30
0.0
 10
1946.161193835346
 20
979.5828371721849
 30
0.0
 10
1946.12582347751
 20
979.6166273194737
 30
0.0
 10
1946.062730302095
 20
979.6059797142801
 30
0.0
 10
1946.035819274959
 20
979.5615943851119
 30
0.0
 10
1945.99346344869
 20
979.3987104494336
 30
0.0
 10
1945.978630476819
 20
979.2832198474215
 30
0.0
 10
1945.959861146167
 20
978.9905528893763
 30
0.0
 10
1945.956273051381
 20
978.8195987184817
 30
0.0
 10
1945.955989421296
 20
978.625928553218
 30
0.0
  0
ARC
  5
9B0
330
93D
100
AcDbEntity
  8
0
  6
Continuous
 62
     7
370
    15
100
AcDbCircle
 10
1946.743110725314
 20
979.9752356473993
 30
0.0
 40
1.56211061760871
100
AcDbArc
 50
200.6375976651398
 51
239.7427549730891
  0
SPLINE
  5
9B1
330
93D
100
AcDbEntity
  8
0
  6
Continuous
 62
     7
370
    15
100
AcDbSpline
210
0.0
220
0.0
230
1.0
 70
     8
 71
     3
 72
    14
 73
    10
 74
     0
 42
0.0000000001
 43
0.0000000001
 40
0.0
 40
0.0
 40
0.0
 40
0.0
 40
0.25
 40
0.25
 40
0.5
 40
0.5
 40
0.75
 40
0.75
 40
1.0
 40
1.0
 40
1.0
 40
1.0
 10
1936.827826874264
 20
974.5574405701798
 30
0.0
 10
1936.865001200989
 20
974.4871379126346
 30
0.0
 10
1936.900085127535
 20
974.453332688973
 30
0.0
 10
1936.963459726404
 20
974.4636547921917
 30
0.0
 10
1936.990176772582
 20
974.5075215666263
 30
0.0
 10
1937.032721485432
 20
974.6704653759763
 30
0.0
 10
1937.04765361842
 20
974.7869479602323
 30
0.0
 10
1937.066367379252
 20
975.0785282490218
 30
0.0
 10
1937.069996237801
 20
975.2499257650159
 30
0.0
 10
1937.070280319134
 20
975.4439052540872
 30
0.0
  0
ARC
  5
9B2
330
93D
100
AcDbEntity
  8
0
  6
Continuous
 62
     7
370
    15
100
AcDbCircle
 10
1936.283159015118
 20
974.0945981599081
 30
0.0
 40
1.562110617606187
100
AcDbArc
 50
20.63759766505138
 51
59.74275497308902
  0
ARC
  5
9B3
330
93D
100
AcDbEntity
  8
0
  6
Continuous
 62
     7
370
    15
100
AcDbCircle
 10
1936.283159015123
 20
979.9752356473907
 30
0.0
 40
1.562110617598047
100
AcDbArc
 50
300.2572450268383
 51
339.3624023353404
  0
SPLINE
  5
9B4
330
93D
100
AcDbEntity
  8
0
  6
Continuous
 62
     7
370
    15
100
AcDbSpline
210
0.0
220
0.0
230
1.0
 70
     8
 71
     3
 72
    14
 73
    10
 74
     0
 42
0.0000000001
 43
0.0000000001
 40
0.0
 40
0.0
 40
0.0
 40
0.0
 40
0.25
 40
0.25
 40
0.5
 40
0.5
 40
0.75
 40
0.75
 40
1.0
 40
1.0
 40
1.0
 40
1.0
 10
1937.070280319134
 20
978.6259285532178
 30
0.0
 10
1937.069996689082
 20
978.8195987184971
 30
0.0
 10
1937.066408594264
 20
978.9905528893761
 30
0.0
 10
1937.047639263612
 20
979.2832198474215
 30
0.0
 10
1937.032806291739
 20
979.3987104494327
 30
0.0
 10
1936.990450465473
 20
979.5615943851126
 30
0.0
 10
1936.963539438334
 20
979.6059797142779
 30
0.0
 10
1936.900446262922
 20
979.6166273194753
 30
0.0
 10
1936.86507590508
 20
979.5828371721764
 30
0.0
 10
1936.827826874264
 20
979.5123932371252
 30
0.0
  0
ARC
  5
9B5
330
93D
100
AcDbEntity
  8
0
  6
Continuous
 62
     7
370
    15
100
AcDbCircle
 10
1946.743110725313
 20
974.0945981599073
 30
0.0
 40
1.56211061760695
100
AcDbArc
 50
120.2572450268819
 51
159.3624023349196
  0
SPLINE
  5
9B6
330
93D
100
AcDbEntity
  8
0
  6
Continuous
 62
     7
370
    15
100
AcDbSpline
210
0.0
220
0.0
230
1.0
 70
     8
 71
     3
 72
    14
 73
    10
 74
     0
 42
0.0000000001
 43
0.0000000001
 40
0.0
 40
0.0
 40
0.0
 40
0.0
 40
0.25
 40
0.25
 40
0.5
 40
0.5
 40
0.75
 40
0.75
 40
1.0
 40
1.0
 40
1.0
 40
1.0
 10
1945.955989421296
 20
975.4439052540874
 30
0.0
 10
1945.956273502627
 20
975.2499257650148
 30
0.0
 10
1945.959902361178
 20
975.078528249022
 30
0.0
 10
1945.97861612201
 20
974.7869479602325
 30
0.0
 10
1945.993548255001
 20
974.6704653759792
 30
0.0
 10
1946.036092967846
 20
974.5075215666236
 30
0.0
 10
1946.06281001403
 20
974.4636547921967
 30
0.0
 10
1946.126184612894
 20
974.4533326889683
 30
0.0
 10
1946.161268539445
 20
974.4871379126406
 30
0.0
 10
1946.198442866167
 20
974.55744057018
 30
0.0
  0
ARC
  5
9B7
330
93D
100
AcDbEntity
  8
0
  6
Continuous
 62
     7
370
    15
100
AcDbCircle
 10
1941.513134870199
 20
977.0349169036528
 30
0.0
 40
4.719139183252776
100
AcDbArc
 50
340.2972633666851
 51
0.0
  0
ARC
  5
9B8
330
93D
100
AcDbEntity
  8
0
  6
Continuous
 62
     7
370
    15
100
AcDbCircle
 10
1941.513134870199
 20
977.0349169036528
 30
0.0
 40
4.719139183252764
100
AcDbArc
 50
0.0
 51
19.702736633321
  0
ARC
  5
9B9
330
93D
100
AcDbEntity
  8
0
  6
Continuous
 62
     7
370
    15
100
AcDbCircle
 10
1941.513134870232
 20
977.0349169036528
 30
0.0
 40
4.719139183289665
100
AcDbArc
 50
160.2972633666895
 51
199.702736633321
  0
LINE
  5
9BA
330
93D
100
AcDbEntity
  8
0
  6
Continuous
 62
     7
370
    15
100
AcDbLine
 10
1938.015111154778
 20
998.7290456756479
 30
0.0
 11
1945.01115858565
 21
998.7290456756479
 31
0.0
  0
LINE
  5
9BB
330
93D
100
AcDbEntity
  8
0
  6
Continuous
 62
     7
370
    15
100
AcDbLine
 10
1947.311013658082
 20
1000.138065788166
 30
0.0
 11
1945.011158585649
 21
1000.138065788166
 31
0.0
  0
LINE
  5
9BC
330
93D
100
AcDbEntity
  8
0
  6
Continuous
 62
     7
370
    15
100
AcDbLine
 10
1945.011158585649
 20
1000.138065788166
 30
0.0
 11
1945.011158585649
 21
1001.231051623419
 31
0.0
  0
LINE
  5
9BD
330
93D
100
AcDbEntity
  8
0
  6
Continuous
 62
     7
370
    15
100
AcDbLine
 10
1947.311013658082
 20
1001.23105162342
 30
0.0
 11
1945.011158585649
 21
1001.231051623419
 31
0.0
  0
LINE
  5
9BE
330
93D
100
AcDbEntity
  8
0
  6
Continuous
 62
     7
370
    15
100
AcDbLine
 10
1947.311013658082
 20
1001.23105162342
 30
0.0
 11
1947.311013658082
 21
1000.138065788166
 31
0.0
  0
LINE
  5
9BF
330
93D
100
AcDbEntity
  8
0
  6
Continuous
 62
     7
370
    15
100
AcDbLine
 10
1938.015111154778
 20
1000.138065788166
 30
0.0
 11
1938.015111154778
 21
1001.231051623419
 31
0.0
  0
LINE
  5
9C0
330
93D
100
AcDbEntity
  8
0
  6
Continuous
 62
     7
370
    15
100
AcDbLine
 10
1935.715256082345
 20
1000.138065788166
 30
0.0
 11
1938.015111154778
 21
1000.138065788166
 31
0.0
  0
LINE
  5
9C1
330
93D
100
AcDbEntity
  8
0
  6
Continuous
 62
     7
370
    15
100
AcDbLine
 10
1935.715256082345
 20
1001.23105162342
 30
0.0
 11
1938.015111154778
 21
1001.231051623419
 31
0.0
  0
LINE
  5
9C2
330
93D
100
AcDbEntity
  8
0
  6
Continuous
 62
     7
370
    15
100
AcDbLine
 10
1935.715256082345
 20
1000.138065788166
 30
0.0
 11
1935.715256082345
 21
1001.23105162342
 31
0.0
  0
LINE
  5
9C3
330
93D
100
AcDbEntity
  8
0
  6
Continuous
 62
     7
370
    15
100
AcDbLine
 10
1945.31893988407
 20
981.283918662015
 30
0.0
 11
1937.707329856388
 21
981.2839186620122
 31
0.0
  0
LINE
  5
9C4
330
93D
100
AcDbEntity
  8
0
  6
Continuous
 62
     7
370
    15
100
AcDbLine
 10
1938.015111154778
 20
1000.383289347689
 30
0.0
 11
1945.011158585649
 21
1000.383289347689
 31
0.0
  0
LINE
  5
9C5
330
93D
100
AcDbEntity
  8
0
  6
Continuous
 62
     7
370
    15
100
AcDbLine
 10
1938.015111154778
 20
1000.110034256166
 30
0.0
 11
1945.011158585649
 21
1000.110034256166
 31
0.0
  0
LINE
  5
9C6
330
93D
100
AcDbEntity
  8
0
  6
Continuous
 62
     7
370
    15
100
AcDbLine
 10
1935.715256082346
 20
999.6651928586897
 30
0.0
 11
1947.311013658082
 21
999.6651928586899
 31
0.0
  0
LINE
  5
9C7
330
93D
100
AcDbEntity
  8
0
  6
Continuous
 62
     7
370
    15
100
AcDbLine
 10
1938.015111154778
 20
1000.110034256166
 30
0.0
 11
1938.015111154778
 21
1000.138065788166
 31
0.0
  0
LINE
  5
9C8
330
93D
100
AcDbEntity
  8
0
  6
Continuous
 62
     7
370
    15
100
AcDbLine
 10
1945.011158585649
 20
1000.110034256166
 30
0.0
 11
1945.011158585649
 21
1000.138065788166
 31
0.0
  0
LINE
  5
9C9
330
93D
100
AcDbEntity
  8
0
  6
Continuous
 62
     7
370
    15
100
AcDbLine
 10
1947.311013658082
 20
1000.138065788166
 30
0.0
 11
1947.311013658082
 21
999.6651928586899
 31
0.0
  0
LINE
  5
9CA
330
93D
100
AcDbEntity
  8
0
  6
Continuous
 62
     7
370
    15
100
AcDbLine
 10
1935.715256082346
 20
999.6651928586897
 30
0.0
 11
1935.715256082345
 21
1000.138065788166
 31
0.0
  0
LINE
  5
9CB
330
93D
100
AcDbEntity
  8
0
  6
Continuous
 62
     7
370
    15
100
AcDbLine
 10
1945.011158585652
 20
1003.363311566817
 30
0.0
 11
1938.01511115478
 21
1003.363311566817
 31
0.0
  0
LINE
  5
9CC
330
93D
100
AcDbEntity
  8
0
  6
Continuous
 62
     7
370
    15
100
AcDbLine
 10
1935.715256082347
 20
1003.460738521468
 30
0.0
 11
1947.311013658084
 21
1003.460738521468
 31
0.0
  0
LINE
  5
9CD
330
93D
100
AcDbEntity
  8
0
  6
Continuous
 62
     7
370
    15
100
AcDbLine
 10
1938.01511115478
 20
1003.363311566817
 30
0.0
 11
1938.015111154778
 21
1001.231051623419
 31
0.0
  0
LINE
  5
9CE
330
93D
100
AcDbEntity
  8
0
  6
Continuous
 62
     7
370
    15
100
AcDbLine
 10
1945.011158585652
 20
1003.363311566817
 30
0.0
 11
1945.011158585649
 21
1001.231051623419
 31
0.0
  0
LINE
  5
9CF
330
93D
100
AcDbEntity
  8
0
  6
Continuous
 62
     7
370
    15
100
AcDbLine
 10
1947.311013658084
 20
1003.460738521468
 30
0.0
 11
1947.311013658082
 21
1001.23105162342
 31
0.0
  0
LINE
  5
9D0
330
93D
100
AcDbEntity
  8
0
  6
Continuous
 62
     7
370
    15
100
AcDbLine
 10
1935.715256082345
 20
1001.23105162342
 30
0.0
 11
1935.715256082347
 21
1003.460738521468
 31
0.0
  0
LINE
  5
9D1
330
93D
100
AcDbEntity
  8
0
  6
Continuous
 62
     7
370
    15
100
AcDbLine
 10
1938.015111154779
 20
1001.427066830615
 30
0.0
 11
1945.011158585651
 21
1001.427066830615
 31
0.0
  0
LINE
  5
9D2
330
93D
100
AcDbEntity
  8
0
  6
Continuous
 62
     7
370
    15
100
AcDbLine
 10
1937.662365647564
 20
972.48201236757
 30
0.0
 11
1945.363904092809
 21
972.482012367563
 31
0.0
  0
SPLINE
  5
9D3
330
93D
100
AcDbEntity
  8
0
  6
Continuous
 62
     7
370
    15
100
AcDbSpline
210
0.0
220
0.0
230
1.0
 70
     8
 71
     3
 72
    12
 73
     8
 74
     0
 42
0.0000000001
 43
0.0000000001
 40
0.0
 40
0.0
 40
0.0
 40
0.0
 40
0.499999999999992
 40
0.499999999999992
 40
0.749999999999996
 40
0.749999999999996
 40
1.0
 40
1.0
 40
1.0
 40
1.0
 10
1937.079515445701
 20
975.4761956906987
 30
0.0
 10
1937.154128834541
 20
975.7383830978303
 30
0.0
 10
1937.241592617006
 20
975.9944091558175
 30
0.0
 10
1937.36727349981
 20
976.377923732161
 30
0.0
 10
1937.408374946461
 20
976.506768166716
 30
0.0
 10
1937.471509624693
 20
976.766764877537
 30
0.0
 10
1937.492855167828
 20
976.9006270830736
 30
0.0
 10
1937.492873680463
 20
977.0349169037089
 30
0.0
  0
SPLINE
  5
9D4
330
93D
100
AcDbEntity
  8
0
  6
Continuous
 62
     7
370
    15
100
AcDbSpline
210
0.0
220
0.0
230
1.0
 70
     8
 71
     3
 72
     8
 73
     4
 74
     0
 42
0.0000000001
 43
0.0000000001
 40
0.0
 40
0.0
 40
0.0
 40
0.0
 40
1.0
 40
1.0
 40
1.0
 40
1.0
 10
1937.070280319134
 20
975.4439052540872
 30
0.0
 10
1937.073370309753
 20
975.4546579879271
 30
0.0
 10
1937.076448687985
 20
975.4654213992553
 30
0.0
 10
1937.07951493912
 20
975.4761960267673
 30
0.0
  0
SPLINE
  5
9D5
330
93D
100
AcDbEntity
  8
0
  6
Continuous
 62
     7
370
    15
100
AcDbSpline
210
0.0
220
0.0
230
1.0
 70
     8
 71
     3
 72
     8
 73
     4
 74
     0
 42
0.0000000001
 43
0.0000000001
 40
0.0
 40
0.0
 40
0.0
 40
0.0
 40
1.0
 40
1.0
 40
1.0
 40
1.0
 10
1937.07951493912
 20
978.5936377805379
 30
0.0
 10
1937.076448687984
 20
978.6044124080495
 30
0.0
 10
1937.073370309752
 20
978.6151758193778
 30
0.0
 10
1937.070280319134
 20
978.6259285532178
 30
0.0
  0
SPLINE
  5
9D6
330
93D
100
AcDbEntity
  8
0
  6
Continuous
 62
     7
370
    15
100
AcDbSpline
210
0.0
220
0.0
230
1.0
 70
     8
 71
     3
 72
    10
 73
     6
 74
     0
 42
0.0000000001
 43
0.0000000001
 40
0.0
 40
0.0
 40
0.0
 40
0.0
 40
0.5
 40
0.5
 40
1.0
 40
1.0
 40
1.0
 40
1.0
 10
1937.492873492931
 20
977.0349169037917
 30
0.0
 10
1937.492910697679
 20
977.3047983814688
 30
0.0
 10
1937.409201328638
 20
977.5640425179647
 30
0.0
 10
1937.241682922897
 20
978.0750718481582
 30
0.0
 10
1937.154190318648
 20
978.331232846923
 30
0.0
 10
1937.07951493912
 20
978.5936377805379
 30
0.0
  0
SPLINE
  5
9D7
330
93D
100
AcDbEntity
  8
0
  6
Continuous
 62
     7
370
    15
100
AcDbSpline
210
0.0
220
0.0
230
1.0
 70
     8
 71
     3
 72
    10
 73
     6
 74
     0
 42
0.0000000001
 43
0.0000000001
 40
0.0
 40
0.0
 40
0.0
 40
0.0
 40
0.5
 40
0.5
 40
1.0
 40
1.0
 40
1.0
 40
1.0
 10
1945.946754294729
 20
978.5936381166067
 30
0.0
 10
1945.872078992228
 20
978.3312331484538
 30
0.0
 10
1945.784586460884
 20
978.0750721055765
 30
0.0
 10
1945.617068175272
 20
977.5640426635224
 30
0.0
 10
1945.533358855213
 20
977.3047984569629
 30
0.0
 10
1945.533396059966
 20
977.034916903681
 30
0.0
  0
SPLINE
  5
9D8
330
93D
100
AcDbEntity
  8
0
  6
Continuous
 62
     7
370
    15
100
AcDbSpline
210
0.0
220
0.0
230
1.0
 70
     8
 71
     3
 72
     8
 73
     4
 74
     0
 42
0.0000000001
 43
0.0000000001
 40
0.0
 40
0.0
 40
0.0
 40
0.0
 40
1.0
 40
1.0
 40
1.0
 40
1.0
 10
1945.955989421296
 20
978.625928553218
 30
0.0
 10
1945.952899430677
 20
978.615175819378
 30
0.0
 10
1945.949821052449
 20
978.6044124080463
 30
0.0
 10
1945.94675480131
 20
978.5936377805381
 30
0.0
  0
LINE
  5
9D9
330
93D
100
AcDbEntity
  8
0
  6
Continuous
 62
     7
370
    15
100
AcDbLine
 10
1946.232274053452
 20
977.0349169036528
 30
0.0
 11
1945.533396097639
 21
977.0349169036528
 31
0.0
  0
SPLINE
  5
9DA
330
93D
100
AcDbEntity
  8
0
  6
Continuous
 62
     7
370
    15
100
AcDbSpline
210
0.0
220
0.0
230
1.0
 70
     8
 71
     3
 72
     8
 73
     4
 74
     0
 42
0.0000000001
 43
0.0000000001
 40
0.0
 40
0.0
 40
0.0
 40
0.0
 40
1.0
 40
1.0
 40
1.0
 40
1.0
 10
1945.94675480131
 20
975.4761960267673
 30
0.0
 10
1945.949821052448
 20
975.4654213992582
 30
0.0
 10
1945.952899430678
 20
975.4546579879276
 30
0.0
 10
1945.955989421296
 20
975.4439052540874
 30
0.0
  0
SPLINE
  5
9DB
330
93D
100
AcDbEntity
  8
0
  6
Continuous
 62
     7
370
    15
100
AcDbSpline
210
0.0
220
0.0
230
1.0
 70
     8
 71
     3
 72
    12
 73
     8
 74
     0
 42
0.0000000001
 43
0.0000000001
 40
0.0
 40
0.0
 40
0.0
 40
0.0
 40
0.25
 40
0.25
 40
0.5
 40
0.5
 40
1.0
 40
1.0
 40
1.0
 40
1.0
 10
1945.533396247499
 20
977.0349169037638
 30
0.0
 10
1945.533414760138
 20
976.9006271207338
 30
0.0
 10
1945.554760315707
 20
976.7667649524979
 30
0.0
 10
1945.617895033552
 20
976.5067683092546
 30
0.0
 10
1945.658996507171
 20
976.3779239058035
 30
0.0
 10
1945.784677480131
 20
975.9944094133564
 30
0.0
 10
1945.872141335389
 20
975.7383833992898
 30
0.0
 10
1945.94675480131
 20
975.4761960267675
 30
0.0
  0
LINE
  5
9DC
330
93D
100
AcDbEntity
  8
0
  6
Continuous
 62
     7
370
    15
100
AcDbLine
 10
1938.015111154779
 20
999.0465906810326
 30
0.0
 11
1945.011158585651
 21
999.0465906810326
 31
0.0
  0
ARC
  5
9DD
330
93D
100
AcDbEntity
  8
0
  6
Continuous
 62
     7
370
    15
100
AcDbCircle
 10
1946.720449850126
 20
974.1376936226116
 30
0.0
 40
1.54602481043876
100
AcDbArc
 50
120.0292168583688
 51
159.0520604186206
  0
ARC
  5
9DE
330
93D
100
AcDbEntity
  8
0
  6
Continuous
 62
     7
370
    15
100
AcDbCircle
 10
1936.305819890304
 20
979.9321401846929
 30
0.0
 40
1.546024810438376
100
AcDbArc
 50
300.0292168583979
 51
339.0520604186374
  0
ARC
  5
9DF
330
93D
100
AcDbEntity
  8
0
  6
Continuous
 62
     7
370
    15
100
AcDbCircle
 10
1936.305819890305
 20
974.1376936226126
 30
0.0
 40
1.546024810437641
100
AcDbArc
 50
20.94793958135035
 51
59.97078314161665
  0
ARC
  5
9E0
330
93D
100
AcDbEntity
  8
0
  6
Continuous
 62
     7
370
    15
100
AcDbCircle
 10
1946.72044946635
 20
979.932139931062
 30
0.0
 40
1.546024361350792
100
AcDbArc
 50
200.9479358879302
 51
239.9707682645094
  0
SPLINE
  5
9E1
330
93D
100
AcDbEntity
  8
0
  6
Continuous
 62
     7
370
    15
100
AcDbSpline
210
0.0
220
0.0
230
1.0
 70
     8
 71
     3
 72
    18
 73
    14
 74
     0
 42
0.0000000001
 43
0.0000000001
 40
0.0
 40
0.0
 40
0.0
 40
0.0
 40
0.2500000000000081
 40
0.2500000000000081
 40
0.3750000000000122
 40
0.3750000000000122
 40
0.4375000000000142
 40
0.4375000000000142
 40
0.5000000000000162
 40
0.5000000000000162
 40
0.7500000000000081
 40
0.7500000000000081
 40
1.0
 40
1.0
 40
1.0
 40
1.0
 10
1945.276608523893
 20
974.6904276808669
 30
0.0
 10
1945.267086242495
 20
975.0606205810854
 30
0.0
 10
1945.253079332095
 20
975.4308934359912
 30
0.0
 10
1945.23037198852
 20
976.0092695203557
 30
0.0
 10
1945.222513092011
 20
976.2073731701045
 30
0.0
 10
1945.213240476115
 20
976.5123756722724
 30
0.0
 10
1945.210595308821
 20
976.6154404315157
 30
0.0
 10
1945.206898273715
 20
976.8256718345687
 30
0.0
 10
1945.205872797839
 20
976.9342122888151
 30
0.0
 10
1945.206068188378
 20
977.4687634129545
 30
0.0
 10
1945.223097256609
 20
977.8753127375276
 30
0.0
 10
1945.253200373541
 20
978.6419804983131
 30
0.0
 10
1945.267125241795
 20
979.0107293820573
 30
0.0
 10
1945.276608523893
 20
979.3794061264387
 30
0.0
  0
SPLINE
  5
9E2
330
93D
100
AcDbEntity
  8
0
  6
Continuous
 62
     7
370
    15
100
AcDbSpline
210
0.0
220
0.0
230
1.0
 70
     8
 71
     3
 72
    18
 73
    14
 74
     0
 42
0.0000000001
 43
0.0000000001
 40
0.0
 40
0.0
 40
0.0
 40
0.0
 40
0.25
 40
0.25
 40
0.5
 40
0.5
 40
0.5625
 40
0.5625
 40
0.625
 40
0.625
 40
0.75
 40
0.75
 40
1.0
 40
1.0
 40
1.0
 40
1.0
 10
1937.749661216537
 20
979.3794061264383
 30
0.0
 10
1937.759144498632
 20
979.0107293820526
 30
0.0
 10
1937.773069366889
 20
978.6419804983157
 30
0.0
 10
1937.80317248382
 20
977.8753127375244
 30
0.0
 10
1937.820201552051
 20
977.4687634129543
 30
0.0
 10
1937.820396942591
 20
976.9342122888151
 30
0.0
 10
1937.819371466714
 20
976.8256718345689
 30
0.0
 10
1937.815674431608
 20
976.6154404315157
 30
0.0
 10
1937.813029264314
 20
976.5123756722724
 30
0.0
 10
1937.803756648419
 20
976.2073731701047
 30
0.0
 10
1937.795897751909
 20
976.0092695203573
 30
0.0
 10
1937.773190408335
 20
975.4308934359883
 30
0.0
 10
1937.759183497929
 20
975.0606205810928
 30
0.0
 10
1937.749661216537
 20
974.6904276808665
 30
0.0
  0
LINE
  5
9E3
330
93D
100
AcDbEntity
  8
0
  6
Continuous
 62
     7
370
    15
100
AcDbLine
 10
1947.311013658082
 20
999.6010750685556
 30
0.0
 11
1947.311013658082
 21
999.6651928586899
 31
0.0
  0
LINE
  5
9E4
330
93D
100
AcDbEntity
  8
0
  6
Continuous
 62
     7
370
    15
100
AcDbLine
 10
1935.715256082346
 20
999.6651928586897
 30
0.0
 11
1935.715256082346
 21
999.6010750685556
 31
0.0
  0
LINE
  5
9E5
330
93D
100
AcDbEntity
  8
0
  6
Continuous
 62
     7
370
    15
100
AcDbLine
 10
1938.015111154779
 20
999.3660006224471
 30
0.0
 11
1945.011158585651
 21
999.3660006224471
 31
0.0
  0
LINE
  5
9E6
330
93D
100
AcDbEntity
  8
0
  6
Continuous
 62
     7
370
    15
100
AcDbLine
 10
1945.011158585651
 20
999.3854361833129
 30
0.0
 11
1945.011158585651
 21
999.6010750685556
 31
0.0
  0
LINE
  5
9E7
330
93D
100
AcDbEntity
  8
0
  6
Continuous
 62
     7
370
    15
100
AcDbLine
 10
1947.311013658083
 20
999.6010750685554
 30
0.0
 11
1947.311013658083
 21
999.3854361833124
 31
0.0
  0
LINE
  5
9E8
330
93D
100
AcDbEntity
  8
0
  6
Continuous
 62
     7
370
    15
100
AcDbLine
 10
1938.015111154779
 20
999.3854361833129
 30
0.0
 11
1938.015111154779
 21
999.6010750685556
 31
0.0
  0
LINE
  5
9E9
330
93D
100
AcDbEntity
  8
0
  6
Continuous
 62
     7
370
    15
100
AcDbLine
 10
1935.715256082346
 20
999.3854361833129
 30
0.0
 11
1935.715256082346
 21
999.6010750685556
 31
0.0
  0
ELLIPSE
  5
9EA
330
93D
100
AcDbEntity
  8
0
  6
Continuous
 62
     7
370
    15
100
AcDbEllipse
 10
1938.734468969549
 20
972.8650772425625
 30
0.0
 11
-0.0000000000000568
 21
1.191753592594068
 31
0.0
210
0.0
220
0.0
230
1.0
 40
0.8390996311773797
 41
1.385668500953058
 42
1.396263401553914
  0
LINE
  5
9EB
330
93D
100
AcDbEntity
  8
0
  6
Continuous
 62
     7
370
    15
100
AcDbLine
 10
1937.751556240078
 20
973.0844459204137
 30
0.0
 11
1945.274713500291
 21
973.0844459204126
 31
0.0
  0
LINE
  5
9EC
330
93D
100
AcDbEntity
  8
0
  6
Continuous
 62
     7
370
    15
100
AcDbLine
 10
1945.276608523906
 20
973.0720230821821
 30
0.0
 11
1945.274713500348
 21
973.084445920413
 31
0.0
  0
LINE
  5
9ED
330
93D
100
AcDbEntity
  8
0
  6
Continuous
 62
     7
370
    15
100
AcDbLine
 10
1938.015111154779
 20
999.0865117761286
 30
0.0
 11
1945.011158585651
 21
999.0865117761286
 31
0.0
  0
SPLINE
  5
9EE
330
93D
100
AcDbEntity
  8
0
  6
Continuous
 62
     7
370
    15
100
AcDbSpline
210
0.0
220
0.0
230
1.0
 70
     8
 71
     3
 72
    11
 73
     7
 74
     0
 42
0.0000000001
 43
0.0000000001
 40
0.0
 40
0.0
 40
0.0
 40
0.0
 40
0.2565478095605818
 40
0.508193588088684
 40
0.755732544489913
 40
1.0
 40
1.0
 40
1.0
 40
1.0
 10
1945.276608523906
 20
980.9978107250763
 30
0.0
 10
1945.271105570789
 20
980.9653212610285
 30
0.0
 10
1945.260204813169
 20
980.9009631309093
 30
0.0
 10
1945.235244110791
 20
980.8063320829704
 30
0.0
 10
1945.204734145702
 20
980.7142655471
 30
0.0
 10
1945.178572575565
 20
980.6547412425388
 30
0.0
 10
1945.165578804003
 20
980.6251770683759
 30
0.0
  0
ELLIPSE
  5
9EF
330
93D
100
AcDbEntity
  8
0
  6
Continuous
 62
     7
370
    15
100
AcDbEllipse
 10
1946.9131348702
 20
979.4660180756423
 30
0.0
 11
0.0000000000002842
 21
2.383507185189756
 31
0.0
210
0.0
220
0.0
230
1.0
 40
0.8390996311768093
 41
1.062917461226217
 42
1.226308606363203
  0
LINE
  5
9F0
330
93D
100
AcDbEntity
  8
0
  6
Continuous
 62
     7
370
    15
100
AcDbLine
 10
1945.030637709527
 20
980.2709631062644
 30
0.0
 11
1937.995632031016
 21
980.2709631062642
 31
0.0
  0
ELLIPSE
  5
9F1
330
93D
100
AcDbEntity
  8
0
  6
Continuous
 62
     7
370
    15
100
AcDbEllipse
 10
1936.113134870228
 20
979.4660180756443
 30
0.0
 11
0.0000000000005684
 21
2.383507185189756
 31
0.0
210
0.0
220
0.0
230
1.0
 40
0.8390996311768093
 41
5.056876700796554
 42
5.220267845951888
  0
ELLIPSE
  5
9F2
330
93D
100
AcDbEntity
  8
0
  6
Continuous
 62
     7
370
    15
100
AcDbEllipse
 10
1938.734468969549
 20
981.2047565647437
 30
0.0
 11
0.0000000000002274
 21
1.191753592594892
 31
0.0
210
0.0
220
0.0
230
1.0
 40
0.8390996311767993
 41
1.745329253419699
 42
2.078675192361961
  0
LINE
  5
9F3
330
93D
100
AcDbEntity
  8
0
  6
Continuous
 62
     7
370
    15
100
AcDbLine
 10
1937.860690936442
 20
980.6251770683772
 30
0.0
 11
1937.860690936441
 21
973.3760527180576
 31
0.0
  0
SPLINE
  5
9F4
330
93D
100
AcDbEntity
  8
0
  6
Continuous
 62
     7
370
    15
100
AcDbSpline
210
0.0
220
0.0
230
1.0
 70
     8
 71
     3
 72
     8
 73
     4
 74
     0
 42
0.0000000001
 43
0.0000000001
 40
0.0
 40
0.0
 40
0.0
 40
0.0
 40
1.0
 40
1.0
 40
1.0
 40
1.0
 10
1937.860690936441
 20
973.3760527180566
 30
0.0
 10
1937.801517552596
 20
973.2931504500371
 30
0.0
 10
1937.769094741193
 20
973.1960566009831
 30
0.0
 10
1937.751556240069
 20
973.0844459204146
 30
0.0
  0
SPLINE
  5
9F5
330
93D
100
AcDbEntity
  8
0
  6
Continuous
 62
     7
370
    15
100
AcDbSpline
210
0.0
220
0.0
230
1.0
 70
     8
 71
     3
 72
    11
 73
     7
 74
     0
 42
0.0000000001
 43
0.0000000001
 40
0.0
 40
0.0
 40
0.0
 40
0.0
 40
0.2672274929597235
 40
0.5221040072832571
 40
0.765883867246048
 40
0.9999999999999998
 40
0.9999999999999998
 40
0.9999999999999998
 40
0.9999999999999998
 10
1945.274713500348
 20
973.0844459204124
 30
0.0
 10
1945.269421360954
 20
973.1135333026474
 30
0.0
 10
1945.259081679383
 20
973.1703636783624
 30
0.0
 10
1945.234665475688
 20
973.2471604673294
 30
0.0
 10
1945.204790580005
 20
973.3160972527642
 30
0.0
 10
1945.178471996447
 20
973.3563388098678
 30
0.0
 10
1945.165578804003
 20
973.3760527180583
 30
0.0
  0
LINE
  5
9F6
330
93D
100
AcDbEntity
  8
0
  6
Continuous
 62
     7
370
    15
100
AcDbLine
 10
1945.165578803989
 20
973.3760527180583
 30
0.0
 11
1945.165578803987
 21
980.6251770683759
 31
0.0
  0
SPLINE
  5
9F7
330
93D
100
AcDbEntity
  8
0
  6
Continuous
 62
     7
370
    15
100
AcDbSpline
210
0.0
220
0.0
230
1.0
 70
     8
 71
     3
 72
    10
 73
     6
 74
     0
 42
0.0000000001
 43
0.0000000001
 40
0.0
 40
0.0
 40
0.0
 40
0.0
 40
0.5
 40
0.5
 40
1.0
 40
1.0
 40
1.0
 40
1.0
 10
1937.860690936441
 20
973.3760527180566
 30
0.0
 10
1937.935204967014
 20
973.4804473247596
 30
0.0
 10
1937.997856683763
 20
973.569066778891
 30
0.0
 10
1938.088025318735
 20
973.7098983470655
 30
0.0
 10
1938.113134870229
 20
973.7583409580436
 30
0.0
 10
1938.113134870228
 20
973.7822655782615
 30
0.0
  0
LINE
  5
9F8
330
93D
100
AcDbEntity
  8
0
  6
Continuous
 62
     7
370
    15
100
AcDbLine
 10
1944.91313487021
 20
973.7988707010412
 30
0.0
 11
1938.113134870219
 21
973.798870701041
 31
0.0
  0
SPLINE
  5
9F9
330
93D
100
AcDbEntity
  8
0
  6
Continuous
 62
     7
370
    15
100
AcDbSpline
210
0.0
220
0.0
230
1.0
 70
     8
 71
     3
 72
    10
 73
     6
 74
     0
 42
0.0000000001
 43
0.0000000001
 40
0.0
 40
0.0
 40
0.0
 40
0.0
 40
0.5
 40
0.5
 40
1.0
 40
1.0
 40
1.0
 40
1.0
 10
1944.913134870201
 20
973.7822655782618
 30
0.0
 10
1944.913134870201
 20
973.758336268963
 30
0.0
 10
1944.938143678526
 20
973.7100743328475
 30
0.0
 10
1945.028245612534
 20
973.5693097218254
 30
0.0
 10
1945.09104952942
 20
973.4804686816904
 30
0.0
 10
1945.16557880399
 20
973.3760527180571
 30
0.0
  0
LINE
  5
9FA
330
93D
100
AcDbEntity
  8
0
  6
Continuous
 62
     7
370
    15
100
AcDbLine
 10
1944.913134870201
 20
980.2709631062644
 30
0.0
 11
1944.913134870208
 21
973.7822655782618
 31
0.0
  0
LINE
  5
9FB
330
93D
100
AcDbEntity
  8
0
  6
Continuous
 62
     7
370
    15
100
AcDbLine
 10
1938.113134870222
 20
973.7822655782615
 30
0.0
 11
1938.113134870229
 21
980.2709631062642
 31
0.0
  0
LINE
  5
9FC
330
93D
100
AcDbEntity
  8
0
  6
Continuous
 62
     7
370
    15
100
AcDbLine
 10
1938.01511115478
 20
1003.072418525177
 30
0.0
 11
1945.011158585652
 21
1003.072418525177
 31
0.0
  0
LINE
  5
9FD
330
93D
100
AcDbEntity
  8
0
  6
Continuous
 62
     7
370
    15
100
AcDbLine
 10
1938.01511115478
 20
1002.614716856921
 30
0.0
 11
1945.011158585652
 21
1002.614716856921
 31
0.0
  0
LINE
  5
9FE
330
93D
100
AcDbEntity
  8
0
  6
Continuous
 62
     7
370
    15
100
AcDbLine
 10
1938.01511115478
 20
1002.338723979711
 30
0.0
 11
1945.011158585652
 21
1002.338723979711
 31
0.0
  0
LINE
  5
9FF
330
93D
100
AcDbEntity
  8
0
  6
Continuous
 62
     7
370
    15
100
AcDbLine
 10
1935.715256082348
 20
1003.753675421791
 30
0.0
 11
1947.311013658085
 21
1003.753675421791
 31
0.0
  0
LINE
  5
A00
330
93D
100
AcDbEntity
  8
0
  6
Continuous
 62
     7
370
    15
100
AcDbLine
 10
1947.311013658085
 20
1003.753675421791
 30
0.0
 11
1947.311013658084
 21
1003.460738521468
 31
0.0
  0
LINE
  5
A01
330
93D
100
AcDbEntity
  8
0
  6
Continuous
 62
     7
370
    15
100
AcDbLine
 10
1935.715256082347
 20
1003.460738521468
 30
0.0
 11
1935.715256082348
 21
1003.753675421791
 31
0.0
  0
LINE
  5
A02
330
93D
100
AcDbEntity
  8
0
  6
Continuous
 62
     7
370
    15
100
AcDbLine
 10
1938.01511115478
 20
1001.896811216496
 30
0.0
 11
1945.011158585652
 21
1001.896811216496
 31
0.0
  0
LINE
  5
A03
330
93D
100
AcDbEntity
  8
0
  6
Continuous
 62
     7
370
    15
100
AcDbLine
 10
1938.01511115478
 20
1002.793817641554
 30
0.0
 11
1945.011158585652
 21
1002.793817641554
 31
0.0
  0
LINE
  5
A04
330
93D
100
AcDbEntity
  8
0
  6
Continuous
 62
     7
370
    15
100
AcDbLine
 10
1938.113134870228
 20
979.9125294398445
 30
0.0
 11
1944.913134870201
 21
979.9125294398445
 31
0.0
  0
LINE
  5
A05
330
93D
100
AcDbEntity
  8
0
  6
Continuous
 62
     7
370
    15
100
AcDbLine
 10
1938.113134870228
 20
974.9019232096557
 30
0.0
 11
1944.913134870204
 21
974.9019232096557
 31
0.0
  0
LINE
  5
A06
330
93D
100
AcDbEntity
  8
0
  6
Continuous
 62
     7
370
    15
100
AcDbLine
 10
1941.515256082345
 20
1005.853675421791
 30
0.0
 11
1937.265256082344
 21
1005.853675421791
 31
0.0
  0
LINE
  5
A07
330
93D
100
AcDbEntity
  8
0
  6
Continuous
 62
     7
370
    15
100
AcDbLine
 10
1945.765256082345
 20
1005.853675421791
 30
0.0
 11
1941.515256082345
 21
1005.853675421791
 31
0.0
  0
LINE
  5
A08
330
93D
100
AcDbEntity
  8
0
  6
Continuous
 62
     7
370
    15
100
AcDbLine
 10
1938.913134870208
 20
942.3501366250487
 30
0.0
 11
1947.211013658076
 21
942.3501369096001
 31
0.0
  0
LINE
  5
A09
330
93D
100
AcDbEntity
  8
0
  6
Continuous
 62
     7
370
    15
100
AcDbLine
 10
1935.813134870207
 20
942.3501367028123
 30
0.0
 11
1935.813134870207
 21
943.43312259364
 31
0.0
  0
LINE
  5
A0A
330
93D
100
AcDbEntity
  8
0
  6
Continuous
 62
     7
370
    15
100
AcDbLine
 10
1937.313134870214
 20
942.3501367416941
 30
0.0
 11
1935.813134870207
 21
942.3501367416941
 31
0.0
  0
LINE
  5
A0B
330
93D
100
AcDbEntity
  8
0
  6
Continuous
 62
     7
370
    15
100
AcDbLine
 10
1935.815256082339
 20
943.43312259364
 30
0.0
 11
1935.813134870207
 21
943.43312259364
 31
0.0
  0
LINE
  5
A0C
330
93D
100
AcDbEntity
  8
0
  6
Continuous
 62
     7
370
    15
100
AcDbLine
 10
1935.813134870207
 20
945.2852602213818
 30
0.0
 11
1935.813134870207
 21
955.3501371446285
 31
0.0
  0
LINE
  5
A0D
330
93D
100
AcDbEntity
  8
0
  6
Continuous
 62
     7
370
    15
100
AcDbLine
 10
1935.81525608234
 20
945.2852602213818
 30
0.0
 11
1935.813134870207
 21
945.2852602213818
 31
0.0
  0
LINE
  5
A0E
330
93D
100
AcDbEntity
  8
0
  6
Continuous
 62
     7
370
    15
100
AcDbLine
 10
1935.813134870207
 20
956.3501371446287
 30
0.0
 11
1935.813134870207
 21
955.3501371446285
 31
0.0
  0
LINE
  5
A0F
330
93D
100
AcDbEntity
  8
0
  6
Continuous
 62
     7
370
    15
100
AcDbLine
 10
1935.813134870207
 20
943.4331218941743
 30
0.0
 11
1935.813134870207
 21
943.8037210144516
 31
0.0
  0
LINE
  5
A10
330
93D
100
AcDbEntity
  8
0
  6
Continuous
 62
     7
370
    15
100
AcDbLine
 10
1935.813134870207
 20
943.4331218941743
 30
0.0
 11
1935.815256082339
 21
943.4331218942631
 31
0.0
  0
LINE
  5
A11
330
93D
100
AcDbEntity
  8
0
  6
Continuous
 62
     7
370
    15
100
AcDbLine
 10
1935.813134870207
 20
943.8037210144516
 30
0.0
 11
1935.813134870207
 21
945.2852602213818
 31
0.0
  0
LINE
  5
A12
330
93D
100
AcDbEntity
  8
0
  6
Continuous
 62
     8
370
    15
100
AcDbLine
 10
1935.813134870207
 20
955.3501371446285
 30
0.0
 11
1935.815256082342
 21
955.3501371446285
 31
0.0
  0
LINE
  5
A13
330
93D
100
AcDbEntity
  8
0
  6
Continuous
 62
     8
370
    15
100
AcDbLine
 10
1935.815256082339
 20
943.8037210144516
 30
0.0
 11
1935.813134870207
 21
943.8037210144516
 31
0.0
  0
ENDBLK
  5
93F
330
93D
100
AcDbEntity
  8
0
100
AcDbBlockEnd
  0
BLOCK
  5
A16
330
A15
100
AcDbEntity
  8
0
100
AcDbBlockBegin
  2
3
 70
     0
 10
0.0
 20
0.0
 30
0.0
  3
3
  1

  0
LINE
  5
A18
330
A15
100
AcDbEntity
  8
0
  6
Continuous
 62
     7
370
    15
100
AcDbLine
 10
2038.835159583522
 20
900.4776185206567
 30
0.0
 11
2038.835159583523
 21
902.7774735930895
 31
0.0
  0
LINE
  5
A19
330
A15
100
AcDbEntity
  8
0
  6
Continuous
 62
     7
370
    15
100
AcDbLine
 10
2038.835159583531
 20
909.7735210239608
 30
0.0
 11
2038.835159583534
 21
912.0733760963934
 31
0.0
  0
LINE
  5
A1A
330
A15
100
AcDbEntity
  8
0
  6
Continuous
 62
     7
370
    15
100
AcDbLine
 10
1993.640533235391
 20
912.0733760963874
 30
0.0
 11
1993.640533235391
 21
909.7735210239548
 31
0.0
  0
LINE
  5
A1B
330
A15
100
AcDbEntity
  8
0
  6
Continuous
 62
     7
370
    15
100
AcDbLine
 10
1993.640533235391
 20
902.7774735930833
 30
0.0
 11
1993.640533235391
 21
900.4776185206507
 31
0.0
  0
LINE
  5
A1C
330
A15
100
AcDbEntity
  8
0
  6
Continuous
 62
     7
370
    15
100
AcDbLine
 10
2036.769404181756
 20
909.7735210239633
 30
0.0
 11
2036.76940418175
 21
902.7774735930913
 31
0.0
  0
LINE
  5
A1D
330
A15
100
AcDbEntity
  8
0
  6
Continuous
 62
     7
370
    15
100
AcDbLine
 10
1995.706288637166
 20
902.7774735930831
 30
0.0
 11
1995.706288637165
 21
909.7735210239552
 31
0.0
  0
LINE
  5
A1E
330
A15
100
AcDbEntity
  8
0
  6
Continuous
 62
     7
370
    15
100
AcDbLine
 10
2038.653725073707
 20
902.7774735930897
 30
0.0
 11
2038.653725073713
 21
909.7735210239612
 31
0.0
  0
LINE
  5
A1F
330
A15
100
AcDbEntity
  8
0
  6
Continuous
 62
     7
370
    15
100
AcDbLine
 10
1993.821967745207
 20
909.7735210239548
 30
0.0
 11
1993.821967745208
 21
902.7774735930833
 31
0.0
  0
LINE
  5
A20
330
A15
100
AcDbEntity
  8
0
  6
Continuous
 62
     7
370
    15
100
AcDbLine
 10
2041.228717696188
 20
912.0733760963913
 30
0.0
 11
2041.228717696178
 21
900.4776185206544
 31
0.0
  0
LINE
  5
A21
330
A15
100
AcDbEntity
  8
0
  6
Continuous
 62
     7
370
    15
100
AcDbLine
 10
1991.246975122737
 20
900.4776185206505
 30
0.0
 11
1991.246975122734
 21
912.0733760963874
 31
0.0
  0
LINE
  5
A22
330
A15
100
AcDbEntity
  8
0
  6
Continuous
 62
     7
370
    15
100
AcDbLine
 10
2043.11313257122
 20
902.777473593086
 30
0.0
 11
2043.113132571226
 21
909.7735210239559
 31
0.0
  0
LINE
  5
A23
330
A15
100
AcDbEntity
  8
0
  6
Continuous
 62
     7
370
    15
100
AcDbLine
 10
1989.362560247694
 20
909.7735210239539
 30
0.0
 11
1989.362560247696
 21
902.777473593084
 31
0.0
  0
LINE
  5
A24
330
A15
100
AcDbEntity
  8
0
  6
Continuous
 62
     7
370
    15
100
AcDbLine
 10
1986.645002760366
 20
911.9733760963876
 30
0.0
 11
1986.645002760366
 21
900.5754973085183
 31
0.0
  0
CIRCLE
  5
A25
330
A15
100
AcDbEntity
  8
0
  6
Continuous
 62
     7
370
    15
100
AcDbCircle
 10
2028.257846409456
 20
906.2776185206564
 30
0.0
 40
2.800000000000011
  0
CIRCLE
  5
A26
330
A15
100
AcDbEntity
  8
0
  6
Continuous
 62
     7
370
    15
100
AcDbCircle
 10
2028.257846409456
 20
906.2776185206564
 30
0.0
 40
4.25
  0
CIRCLE
  5
A27
330
A15
100
AcDbEntity
  8
0
  6
Continuous
 62
     7
370
    15
100
AcDbCircle
 10
2004.217846409456
 20
906.2776185206562
 30
0.0
 40
2.800000000000011
  0
CIRCLE
  5
A28
330
A15
100
AcDbEntity
  8
0
  6
Continuous
 62
     7
370
    15
100
AcDbCircle
 10
2004.217846409456
 20
906.2776185206562
 30
0.0
 40
4.25
  0
LINE
  5
A29
330
A15
100
AcDbEntity
  8
0
  6
Continuous
 62
     7
370
    15
100
AcDbLine
 10
2036.374246525047
 20
900.4776185206594
 30
0.0
 11
2036.374246525059
 21
912.0733760963959
 31
0.0
  0
LINE
  5
A2A
330
A15
100
AcDbEntity
  8
0
  6
Continuous
 62
     7
370
    15
100
AcDbLine
 10
2036.374246525047
 20
900.4776185206594
 30
0.0
 11
2035.667096065048
 21
900.4776185206601
 31
0.0
  0
LINE
  5
A2B
330
A15
100
AcDbEntity
  8
0
  6
Continuous
 62
     7
370
    15
100
AcDbLine
 10
2035.667096065048
 20
900.4776185206601
 30
0.0
 11
2035.66709606506
 21
912.0733760963966
 31
0.0
  0
LINE
  5
A2C
330
A15
100
AcDbEntity
  8
0
  6
Continuous
 62
     7
370
    15
100
AcDbLine
 10
2035.66709606506
 20
912.0733760963966
 30
0.0
 11
2036.374246525059
 21
912.0733760963959
 31
0.0
  0
LINE
  5
A2D
330
A15
100
AcDbEntity
  8
0
  6
Continuous
 62
     7
370
    15
100
AcDbLine
 10
1996.101446293865
 20
912.0733760963874
 30
0.0
 11
1996.101446293865
 21
900.4776185206509
 31
0.0
  0
LINE
  5
A2E
330
A15
100
AcDbEntity
  8
0
  6
Continuous
 62
     7
370
    15
100
AcDbLine
 10
1996.808596753863
 20
912.0733760963874
 30
0.0
 11
1996.808596753863
 21
900.4776185206509
 31
0.0
  0
LINE
  5
A2F
330
A15
100
AcDbEntity
  8
0
  6
Continuous
 62
     7
370
    15
100
AcDbLine
 10
1996.808596753863
 20
900.4776185206509
 30
0.0
 11
1996.101446293865
 21
900.4776185206509
 31
0.0
  0
LINE
  5
A30
330
A15
100
AcDbEntity
  8
0
  6
Continuous
 62
     7
370
    15
100
AcDbLine
 10
1996.101446293865
 20
912.0733760963874
 30
0.0
 11
1996.808596753863
 21
912.0733760963874
 31
0.0
  0
LINE
  5
A31
330
A15
100
AcDbEntity
  8
0
  6
Continuous
 62
     7
370
    15
100
AcDbLine
 10
2020.987846409457
 20
912.0733760963874
 30
0.0
 11
2020.987846409457
 21
900.4776185206539
 31
0.0
  0
LINE
  5
A32
330
A15
100
AcDbEntity
  8
0
  6
Continuous
 62
     7
370
    15
100
AcDbLine
 10
2020.987846409457
 20
900.4776185206539
 30
0.0
 11
2035.667096065048
 21
900.4776185206601
 31
0.0
  0
LINE
  5
A33
330
A15
100
AcDbEntity
  8
0
  6
Continuous
 62
     7
370
    15
100
AcDbLine
 10
2035.66709606506
 20
912.0733760963966
 30
0.0
 11
2020.987846409457
 21
912.0733760963874
 31
0.0
  0
LINE
  5
A34
330
A15
100
AcDbEntity
  8
0
  6
Continuous
 62
     7
370
    15
100
AcDbLine
 10
2011.487846409455
 20
900.4776185206521
 30
0.0
 11
2011.487846409455
 21
912.0733760963874
 31
0.0
  0
LINE
  5
A35
330
A15
100
AcDbEntity
  8
0
  6
Continuous
 62
     7
370
    15
100
AcDbLine
 10
2011.487846409455
 20
900.4776185206521
 30
0.0
 11
1996.808596753863
 21
900.4776185206509
 31
0.0
  0
LINE
  5
A36
330
A15
100
AcDbEntity
  8
0
  6
Continuous
 62
     7
370
    15
100
AcDbLine
 10
2011.487846409455
 20
912.0733760963874
 30
0.0
 11
1996.808596753863
 21
912.0733760963874
 31
0.0
  0
LINE
  5
A37
330
A15
100
AcDbEntity
  8
0
  6
Continuous
 62
     7
370
    15
100
AcDbLine
 10
2012.487846409455
 20
912.0733760963874
 30
0.0
 11
2012.487846409455
 21
900.4776185206523
 31
0.0
  0
LINE
  5
A38
330
A15
100
AcDbEntity
  8
0
  6
Continuous
 62
     7
370
    15
100
AcDbLine
 10
2011.487846409455
 20
900.4776185206521
 30
0.0
 11
2012.487846409455
 21
900.4776185206523
 31
0.0
  0
LINE
  5
A39
330
A15
100
AcDbEntity
  8
0
  6
Continuous
 62
     7
370
    15
100
AcDbLine
 10
2011.487846409455
 20
912.0733760963874
 30
0.0
 11
2012.487846409455
 21
912.0733760963874
 31
0.0
  0
LINE
  5
A3A
330
A15
100
AcDbEntity
  8
0
  6
Continuous
 62
     7
370
    15
100
AcDbLine
 10
2019.987846409457
 20
900.4776185206539
 30
0.0
 11
2019.987846409457
 21
912.0733760963874
 31
0.0
  0
LINE
  5
A3B
330
A15
100
AcDbEntity
  8
0
  6
Continuous
 62
     7
370
    15
100
AcDbLine
 10
2019.987846409457
 20
900.4776185206539
 30
0.0
 11
2020.987846409457
 21
900.4776185206539
 31
0.0
  0
LINE
  5
A3C
330
A15
100
AcDbEntity
  8
0
  6
Continuous
 62
     7
370
    15
100
AcDbLine
 10
2019.987846409457
 20
912.0733760963874
 30
0.0
 11
2020.987846409457
 21
912.0733760963874
 31
0.0
  0
LINE
  5
A3D
330
A15
100
AcDbEntity
  8
0
  6
Continuous
 62
     7
370
    15
100
AcDbLine
 10
2038.603657970884
 20
912.0733760963938
 30
0.0
 11
2038.603657970881
 21
909.7735210239612
 31
0.0
  0
LINE
  5
A3E
330
A15
100
AcDbEntity
  8
0
  6
Continuous
 62
     7
370
    15
100
AcDbLine
 10
2036.471661443727
 20
909.7735210239637
 30
0.0
 11
2038.603657970881
 21
909.7735210239612
 31
0.0
  0
LINE
  5
A3F
330
A15
100
AcDbEntity
  8
0
  6
Continuous
 62
     7
370
    15
100
AcDbLine
 10
2036.471661443727
 20
909.7735210239637
 30
0.0
 11
2036.471661443719
 21
902.7774735930915
 31
0.0
  0
LINE
  5
A40
330
A15
100
AcDbEntity
  8
0
  6
Continuous
 62
     7
370
    15
100
AcDbLine
 10
2036.471661443719
 20
902.7774735930915
 30
0.0
 11
2038.603657970874
 21
902.7774735930897
 31
0.0
  0
LINE
  5
A41
330
A15
100
AcDbEntity
  8
0
  6
Continuous
 62
     7
370
    15
100
AcDbLine
 10
2038.603657970872
 20
900.4776185206571
 30
0.0
 11
2038.603657970874
 21
902.7774735930897
 31
0.0
  0
LINE
  5
A42
330
A15
100
AcDbEntity
  8
0
  6
Continuous
 62
     7
370
    15
100
AcDbLine
 10
2038.603657970872
 20
900.4776185206571
 30
0.0
 11
2036.374246525047
 21
900.4776185206594
 31
0.0
  0
LINE
  5
A43
330
A15
100
AcDbEntity
  8
0
  6
Continuous
 62
     7
370
    15
100
AcDbLine
 10
2036.374246525059
 20
912.0733760963959
 30
0.0
 11
2038.603657970884
 21
912.0733760963938
 31
0.0
  0
LINE
  5
A44
330
A15
100
AcDbEntity
  8
0
  6
Continuous
 62
     7
370
    15
100
AcDbLine
 10
1993.87203484804
 20
900.4776185206507
 30
0.0
 11
1993.87203484804
 21
902.7774735930833
 31
0.0
  0
LINE
  5
A45
330
A15
100
AcDbEntity
  8
0
  6
Continuous
 62
     7
370
    15
100
AcDbLine
 10
1996.004031375196
 20
902.7774735930831
 30
0.0
 11
1993.87203484804
 21
902.7774735930833
 31
0.0
  0
LINE
  5
A46
330
A15
100
AcDbEntity
  8
0
  6
Continuous
 62
     7
370
    15
100
AcDbLine
 10
1996.004031375196
 20
902.7774735930831
 30
0.0
 11
1996.004031375196
 21
909.7735210239552
 31
0.0
  0
LINE
  5
A47
330
A15
100
AcDbEntity
  8
0
  6
Continuous
 62
     7
370
    15
100
AcDbLine
 10
1996.004031375196
 20
909.7735210239552
 30
0.0
 11
1993.87203484804
 21
909.7735210239548
 31
0.0
  0
LINE
  5
A48
330
A15
100
AcDbEntity
  8
0
  6
Continuous
 62
     7
370
    15
100
AcDbLine
 10
1993.87203484804
 20
912.0733760963874
 30
0.0
 11
1993.87203484804
 21
909.7735210239548
 31
0.0
  0
LINE
  5
A49
330
A15
100
AcDbEntity
  8
0
  6
Continuous
 62
     7
370
    15
100
AcDbLine
 10
1996.101446293865
 20
900.4776185206509
 30
0.0
 11
1993.87203484804
 21
900.4776185206507
 31
0.0
  0
LINE
  5
A4A
330
A15
100
AcDbEntity
  8
0
  6
Continuous
 62
     7
370
    15
100
AcDbLine
 10
1993.87203484804
 20
912.0733760963874
 30
0.0
 11
1996.101446293865
 21
912.0733760963874
 31
0.0
  0
LINE
  5
A4B
330
A15
100
AcDbEntity
  8
0
  6
Continuous
 62
     7
370
    15
100
AcDbLine
 10
2037.276070678231
 20
902.7774735930908
 30
0.0
 11
2037.276070678237
 21
909.7735210239628
 31
0.0
  0
LINE
  5
A4C
330
A15
100
AcDbEntity
  8
0
  6
Continuous
 62
     7
370
    15
100
AcDbLine
 10
2037.552063555443
 20
902.7774735930906
 30
0.0
 11
2037.55206355545
 21
909.7735210239624
 31
0.0
  0
LINE
  5
A4D
330
A15
100
AcDbEntity
  8
0
  6
Continuous
 62
     7
370
    15
100
AcDbLine
 10
1995.199622140684
 20
909.7735210239552
 30
0.0
 11
1995.199622140684
 21
902.7774735930831
 31
0.0
  0
LINE
  5
A4E
330
A15
100
AcDbEntity
  8
0
  6
Continuous
 62
     7
370
    15
100
AcDbLine
 10
1994.923629263471
 20
909.7735210239552
 30
0.0
 11
1994.923629263472
 21
902.7774735930831
 31
0.0
  0
LINE
  5
A4F
330
A15
100
AcDbEntity
  8
0
  6
Continuous
 62
     7
370
    15
100
AcDbLine
 10
2036.834157915014
 20
902.7774735930911
 30
0.0
 11
2036.834157915021
 21
909.7735210239633
 31
0.0
  0
LINE
  5
A50
330
A15
100
AcDbEntity
  8
0
  6
Continuous
 62
     7
370
    15
100
AcDbLine
 10
1995.6415349039
 20
909.7735210239552
 30
0.0
 11
1995.641534903901
 21
902.7774735930831
 31
0.0
  0
LINE
  5
A51
330
A15
100
AcDbEntity
  8
0
  6
Continuous
 62
     7
370
    15
100
AcDbLine
 10
2038.595841038369
 20
902.7774735930897
 30
0.0
 11
2038.595841038376
 21
909.7735210239612
 31
0.0
  0
LINE
  5
A52
330
A15
100
AcDbEntity
  8
0
  6
Continuous
 62
     7
370
    15
100
AcDbLine
 10
1993.879851780546
 20
909.7735210239548
 30
0.0
 11
1993.879851780546
 21
902.7774735930833
 31
0.0
  0
LINE
  5
A53
330
A15
100
AcDbEntity
  8
0
  6
Continuous
 62
     7
370
    15
100
AcDbLine
 10
2004.701751867047
 20
909.0354864486243
 30
0.0
 11
2004.701751867047
 21
903.5197505926882
 31
0.0
  0
LINE
  5
A54
330
A15
100
AcDbEntity
  8
0
  6
Continuous
 62
     7
370
    15
100
AcDbLine
 10
2028.75784640946
 20
909.0283715591782
 30
0.0
 11
2028.75784640946
 21
903.5226230578658
 31
0.0
  0
ARC
  5
A55
330
A15
100
AcDbEntity
  8
0
  6
Continuous
 62
     7
370
    15
100
AcDbCircle
 10
2028.257846409457
 20
906.2733760963871
 30
0.0
 40
2.800000000000627
100
AcDbArc
 50
0.0434059036955365
 51
79.71343938845156
  0
LINE
  5
A56
330
A15
100
AcDbEntity
  8
0
  6
Continuous
 62
     7
370
    15
100
AcDbLine
 10
2027.75784640946
 20
903.5226230578647
 30
0.0
 11
2027.75784640946
 21
909.0326139834482
 31
0.0
  0
LINE
  5
A57
330
A15
100
AcDbEntity
  8
0
  6
Continuous
 62
     7
370
    15
100
AcDbLine
 10
2003.701751867047
 20
903.5255926444525
 30
0.0
 11
2003.701751867047
 21
909.02964439686
 31
0.0
  0
LINE
  5
A58
330
A15
100
AcDbEntity
  8
0
  6
Continuous
 62
     7
370
    15
100
AcDbLine
 10
2038.835159583523
 20
902.7774735930895
 30
0.0
 11
2038.603657970874
 21
902.7774735930897
 31
0.0
  0
LINE
  5
A59
330
A15
100
AcDbEntity
  8
0
  6
Continuous
 62
     7
370
    15
100
AcDbLine
 10
2038.835159583522
 20
900.4776185206567
 30
0.0
 11
2038.603657970872
 21
900.4776185206571
 31
0.0
  0
LINE
  5
A5A
330
A15
100
AcDbEntity
  8
0
  6
Continuous
 62
     7
370
    15
100
AcDbLine
 10
2038.835159583531
 20
909.7735210239608
 30
0.0
 11
2038.603657970881
 21
909.7735210239612
 31
0.0
  0
LINE
  5
A5B
330
A15
100
AcDbEntity
  8
0
  6
Continuous
 62
     7
370
    15
100
AcDbLine
 10
2038.603657970884
 20
912.0733760963938
 30
0.0
 11
2038.835159583534
 21
912.0733760963934
 31
0.0
  0
LINE
  5
A5C
330
A15
100
AcDbEntity
  8
0
  6
Continuous
 62
     7
370
    15
100
AcDbLine
 10
1993.640533235391
 20
909.7735210239548
 30
0.0
 11
1993.87203484804
 21
909.7735210239548
 31
0.0
  0
LINE
  5
A5D
330
A15
100
AcDbEntity
  8
0
  6
Continuous
 62
     7
370
    15
100
AcDbLine
 10
1993.640533235391
 20
912.0733760963874
 30
0.0
 11
1993.87203484804
 21
912.0733760963874
 31
0.0
  0
LINE
  5
A5E
330
A15
100
AcDbEntity
  8
0
  6
Continuous
 62
     7
370
    15
100
AcDbLine
 10
1993.640533235391
 20
902.7774735930833
 30
0.0
 11
1993.87203484804
 21
902.7774735930833
 31
0.0
  0
LINE
  5
A5F
330
A15
100
AcDbEntity
  8
0
  6
Continuous
 62
     7
370
    15
100
AcDbLine
 10
1993.87203484804
 20
900.4776185206507
 30
0.0
 11
1993.640533235391
 21
900.4776185206507
 31
0.0
  0
LINE
  5
A60
330
A15
100
AcDbEntity
  8
0
  6
Continuous
 62
     7
370
    15
100
AcDbLine
 10
2036.534812940118
 20
902.7774735930915
 30
0.0
 11
2036.534812940125
 21
909.7735210239637
 31
0.0
  0
LINE
  5
A61
330
A15
100
AcDbEntity
  8
0
  6
Continuous
 62
     7
370
    15
100
AcDbLine
 10
1995.940879878797
 20
909.7735210239552
 30
0.0
 11
1995.940879878797
 21
902.7774735930831
 31
0.0
  0
LINE
  5
A62
330
A15
100
AcDbEntity
  8
0
  6
Continuous
 62
     7
370
    15
100
AcDbLine
 10
2028.75784640946
 20
909.0283715591782
 30
0.0
 11
2028.75784640946
 21
909.032613983447
 31
0.0
  0
LINE
  5
A63
330
A15
100
AcDbEntity
  8
0
  6
Continuous
 62
     7
370
    15
100
AcDbLine
 10
2038.877187347191
 20
902.7774735930895
 30
0.0
 11
2038.877187347198
 21
909.7735210239608
 31
0.0
  0
LINE
  5
A64
330
A15
100
AcDbEntity
  8
0
  6
Continuous
 62
     7
370
    15
100
AcDbLine
 10
2041.013043152128
 20
912.0733760963915
 30
0.0
 11
2041.013043152125
 21
909.7735210239584
 31
0.0
  0
LINE
  5
A65
330
A15
100
AcDbEntity
  8
0
  6
Continuous
 62
     7
370
    15
100
AcDbLine
 10
2041.013043152125
 20
909.7735210239584
 30
0.0
 11
2040.126922344713
 21
909.7735210239594
 31
0.0
  0
LINE
  5
A66
330
A15
100
AcDbEntity
  8
0
  6
Continuous
 62
     7
370
    15
100
AcDbLine
 10
2040.126922344705
 20
902.7774735930885
 30
0.0
 11
2040.126922344713
 21
909.7735210239594
 31
0.0
  0
LINE
  5
A67
330
A15
100
AcDbEntity
  8
0
  6
Continuous
 62
     7
370
    15
100
AcDbLine
 10
2041.013043152119
 20
902.7774735930877
 30
0.0
 11
2040.126922344705
 21
902.7774735930885
 31
0.0
  0
LINE
  5
A68
330
A15
100
AcDbEntity
  8
0
  6
Continuous
 62
     7
370
    15
100
AcDbLine
 10
2041.013043152116
 20
900.4776185206546
 30
0.0
 11
2041.013043152119
 21
902.7774735930877
 31
0.0
  0
LINE
  5
A69
330
A15
100
AcDbEntity
  8
0
  6
Continuous
 62
     7
370
    15
100
AcDbLine
 10
2038.877187347191
 20
902.7774735930895
 30
0.0
 11
2038.835159583523
 21
902.7774735930895
 31
0.0
  0
LINE
  5
A6A
330
A15
100
AcDbEntity
  8
0
  6
Continuous
 62
     7
370
    15
100
AcDbLine
 10
2038.877187347198
 20
909.7735210239608
 30
0.0
 11
2038.835159583531
 21
909.773521023961
 31
0.0
  0
LINE
  5
A6B
330
A15
100
AcDbEntity
  8
0
  6
Continuous
 62
     7
370
    15
100
AcDbLine
 10
2041.013043152116
 20
900.4776185206546
 30
0.0
 11
2038.835159583522
 21
900.4776185206567
 31
0.0
  0
LINE
  5
A6C
330
A15
100
AcDbEntity
  8
0
  6
Continuous
 62
     7
370
    15
100
AcDbLine
 10
2041.013043152128
 20
912.0733760963915
 30
0.0
 11
2038.835159583534
 21
912.0733760963934
 31
0.0
  0
LINE
  5
A6D
330
A15
100
AcDbEntity
  8
0
  6
Continuous
 62
     7
370
    15
100
AcDbLine
 10
1993.598505471723
 20
909.7735210239548
 30
0.0
 11
1993.598505471724
 21
902.7774735930833
 31
0.0
  0
LINE
  5
A6E
330
A15
100
AcDbEntity
  8
0
  6
Continuous
 62
     7
370
    15
100
AcDbLine
 10
1991.462649666796
 20
900.4776185206505
 30
0.0
 11
1991.462649666796
 21
902.7774735930837
 31
0.0
  0
LINE
  5
A6F
330
A15
100
AcDbEntity
  8
0
  6
Continuous
 62
     7
370
    15
100
AcDbLine
 10
1991.462649666796
 20
902.7774735930837
 30
0.0
 11
1992.348770474209
 21
902.7774735930835
 31
0.0
  0
LINE
  5
A70
330
A15
100
AcDbEntity
  8
0
  6
Continuous
 62
     7
370
    15
100
AcDbLine
 10
1992.348770474209
 20
909.7735210239546
 30
0.0
 11
1992.348770474209
 21
902.7774735930835
 31
0.0
  0
LINE
  5
A71
330
A15
100
AcDbEntity
  8
0
  6
Continuous
 62
     7
370
    15
100
AcDbLine
 10
1991.462649666796
 20
909.7735210239543
 30
0.0
 11
1992.348770474209
 21
909.7735210239546
 31
0.0
  0
LINE
  5
A72
330
A15
100
AcDbEntity
  8
0
  6
Continuous
 62
     7
370
    15
100
AcDbLine
 10
1991.462649666796
 20
912.0733760963874
 30
0.0
 11
1991.462649666796
 21
909.7735210239543
 31
0.0
  0
LINE
  5
A73
330
A15
100
AcDbEntity
  8
0
  6
Continuous
 62
     7
370
    15
100
AcDbLine
 10
1993.598505471723
 20
909.7735210239548
 30
0.0
 11
1993.640533235391
 21
909.7735210239548
 31
0.0
  0
LINE
  5
A74
330
A15
100
AcDbEntity
  8
0
  6
Continuous
 62
     7
370
    15
100
AcDbLine
 10
1993.598505471724
 20
902.7774735930833
 30
0.0
 11
1993.640533235391
 21
902.7774735930833
 31
0.0
  0
LINE
  5
A75
330
A15
100
AcDbEntity
  8
0
  6
Continuous
 62
     7
370
    15
100
AcDbLine
 10
1991.462649666796
 20
900.4776185206505
 30
0.0
 11
1993.640533235391
 21
900.4776185206507
 31
0.0
  0
LINE
  5
A76
330
A15
100
AcDbEntity
  8
0
  6
Continuous
 62
     7
370
    15
100
AcDbLine
 10
1991.462649666796
 20
912.0733760963874
 30
0.0
 11
1993.640533235391
 21
912.0733760963874
 31
0.0
  0
LINE
  5
A77
330
A15
100
AcDbEntity
  8
0
  6
Continuous
 62
     7
370
    15
100
AcDbLine
 10
2040.35665424882
 20
902.7774735930881
 30
0.0
 11
2040.356654248828
 21
909.7735210239592
 31
0.0
  0
LINE
  5
A78
330
A15
100
AcDbEntity
  8
0
  6
Continuous
 62
     7
370
    15
100
AcDbLine
 10
1992.119038570094
 20
909.7735210239545
 30
0.0
 11
1992.119038570095
 21
902.7774735930835
 31
0.0
  0
LINE
  5
A79
330
A15
100
AcDbEntity
  8
0
  6
Continuous
 62
     7
370
    15
100
AcDbLine
 10
2042.858446350888
 20
912.0733760963897
 30
0.0
 11
2042.858446350885
 21
909.773521023956
 31
0.0
  0
LINE
  5
A7A
330
A15
100
AcDbEntity
  8
0
  6
Continuous
 62
     7
370
    15
100
AcDbLine
 10
2042.858446350885
 20
909.773521023956
 30
0.0
 11
2041.765329307535
 21
909.7735210239575
 31
0.0
  0
LINE
  5
A7B
330
A15
100
AcDbEntity
  8
0
  6
Continuous
 62
     7
370
    15
100
AcDbLine
 10
2041.765329307537
 20
912.0733760963906
 30
0.0
 11
2041.765329307535
 21
909.7735210239575
 31
0.0
  0
LINE
  5
A7C
330
A15
100
AcDbEntity
  8
0
  6
Continuous
 62
     7
370
    15
100
AcDbLine
 10
2041.765329307537
 20
912.0733760963906
 30
0.0
 11
2042.858446350888
 21
912.0733760963897
 31
0.0
  0
LINE
  5
A7D
330
A15
100
AcDbEntity
  8
0
  6
Continuous
 62
     7
370
    15
100
AcDbLine
 10
2042.858446350878
 20
902.7774735930861
 30
0.0
 11
2041.765329307528
 21
902.777473593087
 31
0.0
  0
LINE
  5
A7E
330
A15
100
AcDbEntity
  8
0
  6
Continuous
 62
     7
370
    15
100
AcDbLine
 10
2042.858446350876
 20
900.4776185206527
 30
0.0
 11
2042.858446350878
 21
902.7774735930861
 31
0.0
  0
LINE
  5
A7F
330
A15
100
AcDbEntity
  8
0
  6
Continuous
 62
     7
370
    15
100
AcDbLine
 10
2041.765329307526
 20
900.4776185206537
 30
0.0
 11
2041.765329307528
 21
902.777473593087
 31
0.0
  0
LINE
  5
A80
330
A15
100
AcDbEntity
  8
0
  6
Continuous
 62
     7
370
    15
100
AcDbLine
 10
2042.858446350876
 20
900.4776185206527
 30
0.0
 11
2041.765329307526
 21
900.4776185206537
 31
0.0
  0
LINE
  5
A81
330
A15
100
AcDbEntity
  8
0
  6
Continuous
 62
     7
370
    15
100
AcDbLine
 10
1989.617246468037
 20
900.4776185206505
 30
0.0
 11
1989.617246468037
 21
902.7774735930838
 31
0.0
  0
LINE
  5
A82
330
A15
100
AcDbEntity
  8
0
  6
Continuous
 62
     7
370
    15
100
AcDbLine
 10
1989.617246468037
 20
902.7774735930838
 30
0.0
 11
1990.710363511387
 21
902.7774735930837
 31
0.0
  0
LINE
  5
A83
330
A15
100
AcDbEntity
  8
0
  6
Continuous
 62
     7
370
    15
100
AcDbLine
 10
1990.710363511387
 20
900.4776185206505
 30
0.0
 11
1990.710363511387
 21
902.7774735930837
 31
0.0
  0
LINE
  5
A84
330
A15
100
AcDbEntity
  8
0
  6
Continuous
 62
     7
370
    15
100
AcDbLine
 10
1990.710363511387
 20
900.4776185206505
 30
0.0
 11
1989.617246468037
 21
900.4776185206505
 31
0.0
  0
LINE
  5
A85
330
A15
100
AcDbEntity
  8
0
  6
Continuous
 62
     7
370
    15
100
AcDbLine
 10
1989.617246468037
 20
909.7735210239539
 30
0.0
 11
1990.710363511387
 21
909.7735210239543
 31
0.0
  0
LINE
  5
A86
330
A15
100
AcDbEntity
  8
0
  6
Continuous
 62
     7
370
    15
100
AcDbLine
 10
1989.617246468036
 20
912.0733760963874
 30
0.0
 11
1989.617246468037
 21
909.7735210239539
 31
0.0
  0
LINE
  5
A87
330
A15
100
AcDbEntity
  8
0
  6
Continuous
 62
     7
370
    15
100
AcDbLine
 10
1990.710363511386
 20
912.0733760963874
 30
0.0
 11
1990.710363511387
 21
909.7735210239543
 31
0.0
  0
LINE
  5
A88
330
A15
100
AcDbEntity
  8
0
  6
Continuous
 62
     7
370
    15
100
AcDbLine
 10
1989.617246468036
 20
912.0733760963874
 30
0.0
 11
1990.710363511386
 21
912.0733760963874
 31
0.0
  0
LINE
  5
A89
330
A15
100
AcDbEntity
  8
0
  6
Continuous
 62
     7
370
    15
100
AcDbLine
 10
2041.737617524761
 20
902.777473593087
 30
0.0
 11
2041.737617524768
 21
909.7735210239575
 31
0.0
  0
LINE
  5
A8A
330
A15
100
AcDbEntity
  8
0
  6
Continuous
 62
     7
370
    15
100
AcDbLine
 10
2042.010888153422
 20
902.7774735930869
 30
0.0
 11
2042.010888153428
 21
909.7735210239571
 31
0.0
  0
LINE
  5
A8B
330
A15
100
AcDbEntity
  8
0
  6
Continuous
 62
     7
370
    15
100
AcDbLine
 10
1990.738075294154
 20
909.7735210239543
 30
0.0
 11
1990.738075294154
 21
902.7774735930837
 31
0.0
  0
LINE
  5
A8C
330
A15
100
AcDbEntity
  8
0
  6
Continuous
 62
     7
370
    15
100
AcDbLine
 10
1990.464804665493
 20
909.7735210239543
 30
0.0
 11
1990.464804665493
 21
902.7774735930837
 31
0.0
  0
LINE
  5
A8D
330
A15
100
AcDbEntity
  8
0
  6
Continuous
 62
     7
370
    15
100
AcDbLine
 10
2041.292819949175
 20
900.4776185206543
 30
0.0
 11
2041.292819949184
 21
912.0733760963911
 31
0.0
  0
LINE
  5
A8E
330
A15
100
AcDbEntity
  8
0
  6
Continuous
 62
     7
370
    15
100
AcDbLine
 10
2041.765329307528
 20
902.777473593087
 30
0.0
 11
2041.737617524761
 21
902.777473593087
 31
0.0
  0
LINE
  5
A8F
330
A15
100
AcDbEntity
  8
0
  6
Continuous
 62
     7
370
    15
100
AcDbLine
 10
2041.765329307535
 20
909.7735210239575
 30
0.0
 11
2041.737617524768
 21
909.7735210239575
 31
0.0
  0
LINE
  5
A90
330
A15
100
AcDbEntity
  8
0
  6
Continuous
 62
     7
370
    15
100
AcDbLine
 10
2041.765329307526
 20
900.4776185206537
 30
0.0
 11
2041.292819949175
 21
900.4776185206543
 31
0.0
  0
LINE
  5
A91
330
A15
100
AcDbEntity
  8
0
  6
Continuous
 62
     7
370
    15
100
AcDbLine
 10
2041.292819949184
 20
912.0733760963911
 30
0.0
 11
2041.765329307537
 21
912.0733760963906
 31
0.0
  0
LINE
  5
A92
330
A15
100
AcDbEntity
  8
0
  6
Continuous
 62
     7
370
    15
100
AcDbLine
 10
1991.182872869738
 20
912.0733760963874
 30
0.0
 11
1991.18287286974
 21
900.4776185206505
 31
0.0
  0
LINE
  5
A93
330
A15
100
AcDbEntity
  8
0
  6
Continuous
 62
     7
370
    15
100
AcDbLine
 10
1990.710363511387
 20
909.7735210239543
 30
0.0
 11
1990.738075294154
 21
909.7735210239543
 31
0.0
  0
LINE
  5
A94
330
A15
100
AcDbEntity
  8
0
  6
Continuous
 62
     7
370
    15
100
AcDbLine
 10
1990.710363511387
 20
902.7774735930837
 30
0.0
 11
1990.738075294154
 21
902.7774735930837
 31
0.0
  0
LINE
  5
A95
330
A15
100
AcDbEntity
  8
0
  6
Continuous
 62
     7
370
    15
100
AcDbLine
 10
1991.18287286974
 20
900.4776185206505
 30
0.0
 11
1990.710363511387
 21
900.4776185206505
 31
0.0
  0
LINE
  5
A96
330
A15
100
AcDbEntity
  8
0
  6
Continuous
 62
     7
370
    15
100
AcDbLine
 10
1990.710363511386
 20
912.0733760963874
 30
0.0
 11
1991.182872869738
 21
912.0733760963874
 31
0.0
  0
LINE
  5
A97
330
A15
100
AcDbEntity
  8
0
  6
Continuous
 62
     7
370
    15
100
AcDbLine
 10
2044.983351926313
 20
902.7774735930844
 30
0.0
 11
2044.98335192632
 21
909.7735210239536
 31
0.0
  0
LINE
  5
A98
330
A15
100
AcDbEntity
  8
0
  6
Continuous
 62
     7
370
    15
100
AcDbLine
 10
2045.131894290678
 20
900.4776185206504
 30
0.0
 11
2045.13189429069
 21
912.0733760963874
 31
0.0
  0
LINE
  5
A99
330
A15
100
AcDbEntity
  8
0
  6
Continuous
 62
     7
370
    15
100
AcDbLine
 10
2042.858446350878
 20
902.7774735930861
 30
0.0
 11
2044.983351926313
 21
902.7774735930844
 31
0.0
  0
LINE
  5
A9A
330
A15
100
AcDbEntity
  8
0
  6
Continuous
 62
     7
370
    15
100
AcDbLine
 10
2042.858446350885
 20
909.773521023956
 30
0.0
 11
2044.98335192632
 21
909.7735210239536
 31
0.0
  0
LINE
  5
A9B
330
A15
100
AcDbEntity
  8
0
  6
Continuous
 62
     7
370
    15
100
AcDbLine
 10
2045.131894290678
 20
900.4776185206504
 30
0.0
 11
2042.858446350876
 21
900.4776185206527
 31
0.0
  0
LINE
  5
A9C
330
A15
100
AcDbEntity
  8
0
  6
Continuous
 62
     7
370
    15
100
AcDbLine
 10
2042.858446350888
 20
912.0733760963897
 30
0.0
 11
2045.13189429069
 21
912.0733760963874
 31
0.0
  0
LINE
  5
A9D
330
A15
100
AcDbEntity
  8
0
  6
Continuous
 62
     7
370
    15
100
AcDbLine
 10
1987.492340892602
 20
909.7735210239536
 30
0.0
 11
1987.492340892602
 21
902.7774735930844
 31
0.0
  0
LINE
  5
A9E
330
A15
100
AcDbEntity
  8
0
  6
Continuous
 62
     7
370
    15
100
AcDbLine
 10
1987.343798528234
 20
912.0733760963874
 30
0.0
 11
1987.343798528234
 21
900.4776185206504
 31
0.0
  0
LINE
  5
A9F
330
A15
100
AcDbEntity
  8
0
  6
Continuous
 62
     7
370
    15
100
AcDbLine
 10
1989.617246468037
 20
909.7735210239539
 30
0.0
 11
1987.492340892602
 21
909.7735210239536
 31
0.0
  0
LINE
  5
AA0
330
A15
100
AcDbEntity
  8
0
  6
Continuous
 62
     7
370
    15
100
AcDbLine
 10
1989.617246468037
 20
902.7774735930838
 30
0.0
 11
1987.492340892602
 21
902.7774735930844
 31
0.0
  0
LINE
  5
AA1
330
A15
100
AcDbEntity
  8
0
  6
Continuous
 62
     7
370
    15
100
AcDbLine
 10
1989.617246468037
 20
900.4776185206505
 30
0.0
 11
1987.343798528234
 21
900.4776185206504
 31
0.0
  0
LINE
  5
AA2
330
A15
100
AcDbEntity
  8
0
  6
Continuous
 62
     7
370
    15
100
AcDbLine
 10
1987.343798528234
 20
912.0733760963874
 30
0.0
 11
1989.617246468036
 21
912.0733760963874
 31
0.0
  0
LINE
  5
AA3
330
A15
100
AcDbEntity
  8
0
  6
Continuous
 62
     7
370
    15
100
AcDbLine
 10
2043.054669695528
 20
902.777473593086
 30
0.0
 11
2043.054669695536
 21
909.7735210239559
 31
0.0
  0
LINE
  5
AA4
330
A15
100
AcDbEntity
  8
0
  6
Continuous
 62
     7
370
    15
100
AcDbLine
 10
1989.421023123386
 20
909.7735210239539
 30
0.0
 11
1989.421023123386
 21
902.777473593084
 31
0.0
  0
LINE
  5
AA5
330
A15
100
AcDbEntity
  8
0
  6
Continuous
 62
     7
370
    15
100
AcDbLine
 10
2040.674211762823
 20
902.7774735930879
 30
0.0
 11
2040.67421176283
 21
909.7735210239587
 31
0.0
  0
LINE
  5
AA6
330
A15
100
AcDbEntity
  8
0
  6
Continuous
 62
     7
370
    15
100
AcDbLine
 10
1991.801481056092
 20
909.7735210239545
 30
0.0
 11
1991.801481056092
 21
902.7774735930837
 31
0.0
  0
LINE
  5
AA7
330
A15
100
AcDbEntity
  8
0
  6
Continuous
 62
     7
370
    15
100
AcDbLine
 10
2041.228717696178
 20
900.4776185206544
 30
0.0
 11
2041.292819949175
 21
900.4776185206543
 31
0.0
  0
LINE
  5
AA8
330
A15
100
AcDbEntity
  8
0
  6
Continuous
 62
     7
370
    15
100
AcDbLine
 10
2041.228717696188
 20
912.0733760963913
 30
0.0
 11
2041.292819949184
 21
912.0733760963911
 31
0.0
  0
LINE
  5
AA9
330
A15
100
AcDbEntity
  8
0
  6
Continuous
 62
     7
370
    15
100
AcDbLine
 10
1991.246975122737
 20
900.4776185206505
 30
0.0
 11
1991.18287286974
 21
900.4776185206505
 31
0.0
  0
LINE
  5
AAA
330
A15
100
AcDbEntity
  8
0
  6
Continuous
 62
     7
370
    15
100
AcDbLine
 10
1991.246975122734
 20
912.0733760963874
 30
0.0
 11
1991.182872869738
 21
912.0733760963874
 31
0.0
  0
LINE
  5
AAB
330
A15
100
AcDbEntity
  8
0
  6
Continuous
 62
     7
370
    15
100
AcDbLine
 10
2040.993603160448
 20
902.7774735930877
 30
0.0
 11
2040.993603160455
 21
909.7735210239584
 31
0.0
  0
LINE
  5
AAC
330
A15
100
AcDbEntity
  8
0
  6
Continuous
 62
     7
370
    15
100
AcDbLine
 10
1991.482089658467
 20
909.7735210239543
 30
0.0
 11
1991.482089658467
 21
902.7774735930837
 31
0.0
  0
LINE
  5
AAD
330
A15
100
AcDbEntity
  8
0
  6
Continuous
 62
     7
370
    15
100
AcDbLine
 10
2041.228717696186
 20
909.773521023958
 30
0.0
 11
2041.013043152125
 21
909.7735210239584
 31
0.0
  0
LINE
  5
AAE
330
A15
100
AcDbEntity
  8
0
  6
Continuous
 62
     7
370
    15
100
AcDbLine
 10
2041.228717696188
 20
912.0733760963913
 30
0.0
 11
2041.013043152128
 21
912.0733760963915
 31
0.0
  0
LINE
  5
AAF
330
A15
100
AcDbEntity
  8
0
  6
Continuous
 62
     7
370
    15
100
AcDbLine
 10
2041.22871769618
 20
902.7774735930874
 30
0.0
 11
2041.013043152119
 21
902.7774735930877
 31
0.0
  0
LINE
  5
AB0
330
A15
100
AcDbEntity
  8
0
  6
Continuous
 62
     7
370
    15
100
AcDbLine
 10
2041.228717696178
 20
900.4776185206543
 30
0.0
 11
2041.013043152116
 21
900.4776185206546
 31
0.0
  0
LINE
  5
AB1
330
A15
100
AcDbEntity
  8
0
  6
Continuous
 62
     7
370
    15
100
AcDbLine
 10
1991.246975122736
 20
902.7774735930837
 30
0.0
 11
1991.462649666796
 21
902.7774735930837
 31
0.0
  0
LINE
  5
AB2
330
A15
100
AcDbEntity
  8
0
  6
Continuous
 62
     7
370
    15
100
AcDbLine
 10
1991.246975122737
 20
900.4776185206505
 30
0.0
 11
1991.462649666796
 21
900.4776185206505
 31
0.0
  0
LINE
  5
AB3
330
A15
100
AcDbEntity
  8
0
  6
Continuous
 62
     7
370
    15
100
AcDbLine
 10
1991.246975122735
 20
909.7735210239543
 30
0.0
 11
1991.462649666796
 21
909.7735210239543
 31
0.0
  0
LINE
  5
AB4
330
A15
100
AcDbEntity
  8
0
  6
Continuous
 62
     7
370
    15
100
AcDbLine
 10
1991.246975122734
 20
912.0733760963874
 30
0.0
 11
1991.462649666796
 21
912.0733760963874
 31
0.0
  0
LINE
  5
AB5
330
A15
100
AcDbEntity
  8
0
  6
Continuous
 62
     7
370
    15
100
AcDbLine
 10
2040.714101910699
 20
902.7774735930879
 30
0.0
 11
2040.714101910706
 21
909.7735210239587
 31
0.0
  0
LINE
  5
AB6
330
A15
100
AcDbEntity
  8
0
  6
Continuous
 62
     7
370
    15
100
AcDbLine
 10
1991.761590908215
 20
909.7735210239545
 30
0.0
 11
1991.761590908215
 21
902.7774735930837
 31
0.0
  0
LINE
  5
AB7
330
A15
100
AcDbEntity
  8
0
  6
Continuous
 62
     7
370
    15
100
AcDbLine
 10
2043.963216224076
 20
909.7735210239548
 30
0.0
 11
2043.963216224068
 21
902.7774735930853
 31
0.0
  0
LINE
  5
AB8
330
A15
100
AcDbEntity
  8
0
  6
Continuous
 62
     7
370
    15
100
AcDbLine
 10
1988.512476594846
 20
902.777473593084
 30
0.0
 11
1988.512476594846
 21
909.7735210239537
 31
0.0
  0
LINE
  5
AB9
330
A15
100
AcDbEntity
  8
0
  6
Continuous
 62
     7
370
    15
100
AcDbLine
 10
2044.698398629904
 20
902.7774735930846
 30
0.0
 11
2044.698398629911
 21
909.7735210239539
 31
0.0
  0
LINE
  5
ABA
330
A15
100
AcDbEntity
  8
0
  6
Continuous
 62
     7
370
    15
100
AcDbLine
 10
1987.777294189011
 20
909.7735210239536
 30
0.0
 11
1987.777294189011
 21
902.7774735930842
 31
0.0
  0
LINE
  5
ABB
330
A15
100
AcDbEntity
  8
0
  6
Continuous
 62
     7
370
    15
100
AcDbLine
 10
2043.966326844639
 20
902.7774735930853
 30
0.0
 11
2043.966326844646
 21
909.7735210239548
 31
0.0
  0
LINE
  5
ABC
330
A15
100
AcDbEntity
  8
0
  6
Continuous
 62
     7
370
    15
100
AcDbLine
 10
2044.242319721851
 20
902.7774735930849
 30
0.0
 11
2044.242319721858
 21
909.7735210239545
 31
0.0
  0
LINE
  5
ABD
330
A15
100
AcDbEntity
  8
0
  6
Continuous
 62
     7
370
    15
100
AcDbLine
 10
1988.509365974276
 20
909.7735210239537
 30
0.0
 11
1988.509365974276
 21
902.777473593084
 31
0.0
  0
LINE
  5
ABE
330
A15
100
AcDbEntity
  8
0
  6
Continuous
 62
     7
370
    15
100
AcDbLine
 10
1988.233373097064
 20
909.7735210239536
 30
0.0
 11
1988.233373097064
 21
902.7774735930842
 31
0.0
  0
LINE
  5
ABF
330
A15
100
AcDbEntity
  8
0
  6
Continuous
 62
     7
370
    15
100
AcDbLine
 10
2044.418027427665
 20
902.7774735930849
 30
0.0
 11
2044.418027427672
 21
909.7735210239543
 31
0.0
  0
LINE
  5
AC0
330
A15
100
AcDbEntity
  8
0
  6
Continuous
 62
     7
370
    15
100
AcDbLine
 10
1988.057665391249
 20
909.7735210239536
 30
0.0
 11
1988.057665391249
 21
902.7774735930842
 31
0.0
  0
LINE
  5
AC1
330
A15
100
AcDbEntity
  8
0
  6
Continuous
 62
     7
370
    15
100
AcDbLine
 10
2045.33688896868
 20
900.4776185206502
 30
0.0
 11
2045.336888968691
 21
912.0733760963871
 31
0.0
  0
LINE
  5
AC2
330
A15
100
AcDbEntity
  8
0
  6
Continuous
 62
     7
370
    15
100
AcDbLine
 10
2045.33688896868
 20
900.4776185206502
 30
0.0
 11
2045.131894290678
 21
900.4776185206504
 31
0.0
  0
LINE
  5
AC3
330
A15
100
AcDbEntity
  8
0
  6
Continuous
 62
     7
370
    15
100
AcDbLine
 10
2045.336888968691
 20
912.0733760963871
 30
0.0
 11
2045.13189429069
 21
912.0733760963874
 31
0.0
  0
LINE
  5
AC4
330
A15
100
AcDbEntity
  8
0
  6
Continuous
 62
     7
370
    15
100
AcDbLine
 10
1987.138803850233
 20
912.0733760963874
 30
0.0
 11
1987.138803850233
 21
900.4776185206504
 31
0.0
  0
LINE
  5
AC5
330
A15
100
AcDbEntity
  8
0
  6
Continuous
 62
     7
370
    15
100
AcDbLine
 10
1987.138803850233
 20
900.4776185206504
 30
0.0
 11
1987.343798528234
 21
900.4776185206504
 31
0.0
  0
LINE
  5
AC6
330
A15
100
AcDbEntity
  8
0
  6
Continuous
 62
     7
370
    15
100
AcDbLine
 10
1987.138803850233
 20
912.0733760963874
 30
0.0
 11
1987.343798528234
 21
912.0733760963874
 31
0.0
  0
ARC
  5
AC7
330
A15
100
AcDbEntity
  8
0
  6
Continuous
 62
     7
370
    15
100
AcDbCircle
 10
2016.237846409456
 20
906.2776185206541
 30
0.0
 40
3.25
100
AcDbArc
 50
180.0373958496399
 51
359.9626041503731
  0
ARC
  5
AC8
330
A15
100
AcDbEntity
  8
0
  6
Continuous
 62
     7
370
    15
100
AcDbCircle
 10
2016.237846409456
 20
906.2733760963876
 30
0.0
 40
3.25
100
AcDbArc
 50
0.0373958496399294
 51
179.9626041503666
  0
LINE
  5
AC9
330
A15
100
AcDbEntity
  8
0
  6
Continuous
 62
     7
370
    15
100
AcDbLine
 10
2012.487846409455
 20
900.4776185206525
 30
0.0
 11
2019.987846409457
 21
900.4776185206539
 31
0.0
  0
LINE
  5
ACA
330
A15
100
AcDbEntity
  8
0
  6
Continuous
 62
     7
370
    15
100
AcDbLine
 10
2019.987846409457
 20
912.0733760963874
 30
0.0
 11
2012.487846409455
 21
912.0733760963874
 31
0.0
  0
LINE
  5
ACB
330
A15
100
AcDbEntity
  8
0
  6
Continuous
 62
     7
370
    15
100
AcDbLine
 10
1986.645002760366
 20
900.5754973085183
 30
0.0
 11
1987.138803850217
 21
900.5754973085183
 31
0.0
  0
LINE
  5
ACC
330
A15
100
AcDbEntity
  8
0
  6
Continuous
 62
     7
370
    15
100
AcDbLine
 10
1987.138803850217
 20
911.9733760963876
 30
0.0
 11
1986.645002760366
 21
911.9733760963876
 31
0.0
  0
LINE
  5
ACD
330
A15
100
AcDbEntity
  8
0
  6
Continuous
 62
     7
370
    15
100
AcDbLine
 10
1986.07664468932
 20
911.9733760963876
 30
0.0
 11
1986.076644689321
 21
900.5754973085183
 31
0.0
  0
LINE
  5
ACE
330
A15
100
AcDbEntity
  8
0
  6
Continuous
 62
     7
370
    15
100
AcDbLine
 10
1986.645002760366
 20
900.5754973085181
 30
0.0
 11
1986.076644689321
 21
900.5754973085183
 31
0.0
  0
LINE
  5
ACF
330
A15
100
AcDbEntity
  8
0
  6
Continuous
 62
     7
370
    15
100
AcDbLine
 10
1986.645002760366
 20
911.9733760963876
 30
0.0
 11
1986.07664468932
 21
911.9733760963876
 31
0.0
  0
LINE
  5
AD0
330
A15
100
AcDbEntity
  8
0
  6
Continuous
 62
     7
370
    15
100
AcDbLine
 10
1985.576641228412
 20
900.5754973085181
 30
0.0
 11
1985.576641228412
 21
911.9733760963876
 31
0.0
  0
LINE
  5
AD1
330
A15
100
AcDbEntity
  8
0
  6
Continuous
 62
     7
370
    15
100
AcDbLine
 10
1985.576641228412
 20
900.5754973085181
 30
0.0
 11
1986.076644689321
 21
900.5754973085183
 31
0.0
  0
LINE
  5
AD2
330
A15
100
AcDbEntity
  8
0
  6
Continuous
 62
     7
370
    15
100
AcDbLine
 10
1986.07664468932
 20
911.9733760963876
 30
0.0
 11
1985.576641228412
 21
911.9733760963876
 31
0.0
  0
ENDBLK
  5
A17
330
A15
100
AcDbEntity
  8
0
100
AcDbBlockEnd
  0
BLOCK
  5
AD5
330
AD4
100
AcDbEntity
  8
0
100
AcDbBlockBegin
  2
4
 70
     0
 10
0.0
 20
0.0
 30
0.0
  3
4
  1

  0
LINE
  5
AD7
330
AD4
100
AcDbEntity
  8
0
  6
Continuous
 62
     7
370
    15
100
AcDbLine
 10
2088.549152805402
 20
980.0495018111355
 30
0.0
 11
2086.717331012637
 21
980.673202834588
 31
0.0
  0
LINE
  5
AD8
330
AD4
100
AcDbEntity
  8
0
  6
Continuous
 62
     7
370
    15
100
AcDbLine
 10
2085.048117460435
 20
977.9701716116347
 30
0.0
 11
2079.874543217918
 21
979.7316767769897
 31
0.0
  0
LINE
  5
AD9
330
AD4
100
AcDbEntity
  8
0
  6
Continuous
 62
     7
370
    15
100
AcDbLine
 10
2086.633914384822
 20
980.6856936604017
 30
0.0
 11
2081.210753154574
 21
982.5321785220918
 31
0.0
  0
LINE
  5
ADA
330
AD4
100
AcDbEntity
  8
0
  6
Continuous
 62
     7
370
    15
100
AcDbLine
 10
2081.547514036819
 20
986.8219105333151
 30
0.0
 11
2090.783478796881
 21
983.6772374563956
 31
0.0
  0
LINE
  5
ADB
330
AD4
100
AcDbEntity
  8
0
  6
Continuous
 62
     7
370
    15
100
AcDbLine
 10
2089.058489531125
 20
986.3701236178005
 30
0.0
 11
2083.885217940574
 21
988.1315257358279
 31
0.0
  0
LINE
  5
ADC
330
AD4
100
AcDbEntity
  8
0
  6
Continuous
 62
     7
370
    15
100
AcDbLine
 10
2084.715627327265
 20
988.9988736784221
 30
0.0
 11
2089.530796364492
 21
987.3593987750895
 31
0.0
  0
LINE
  5
ADD
330
AD4
100
AcDbEntity
  8
0
  6
Continuous
 62
     7
370
    15
100
AcDbLine
 10
2078.758923259787
 20
969.1979899567742
 30
0.0
 11
2086.079884411328
 21
966.7053397541687
 31
0.0
  0
LINE
  5
ADE
330
AD4
100
AcDbEntity
  8
0
  6
Continuous
 62
     7
370
    15
100
AcDbLine
 10
2087.866090694656
 20
994.3777955486053
 30
0.0
 11
2087.876891101636
 21
992.5073170984349
 31
0.0
  0
LINE
  5
ADF
330
AD4
100
AcDbEntity
  8
0
  6
Continuous
 62
     7
370
    15
100
AcDbLine
 10
2096.376746143646
 20
992.556397937351
 30
0.0
 11
2096.365945736666
 21
994.4268763875212
 31
0.0
  0
LINE
  5
AE0
330
AD4
100
AcDbEntity
  8
0
  6
Continuous
 62
     7
370
    15
100
AcDbLine
 10
2081.145009838105
 20
982.5704738646024
 30
0.0
 11
2079.31318804534
 21
983.194174888055
 31
0.0
  0
LINE
  5
AE1
330
AD4
100
AcDbEntity
  8
0
  6
Continuous
 62
     7
370
    15
100
AcDbLine
 10
2101.46955470134
 20
993.6671812684126
 30
0.0
 11
2092.233589941279
 21
996.811854345332
 31
0.0
  0
LINE
  5
AE2
330
AD4
100
AcDbEntity
  8
0
  6
Continuous
 62
     7
370
    15
100
AcDbLine
 10
2086.546863797734
 20
933.5736878932252
 30
0.0
 11
2077.866752011658
 21
936.5291034396724
 31
0.0
  0
LINE
  5
AE3
330
AD4
100
AcDbEntity
  8
0
  6
Continuous
 62
     7
370
    15
100
AcDbLine
 10
2090.558699805631
 20
944.7875031129463
 30
0.0
 11
2090.486579622505
 21
944.8120586850029
 31
0.0
  0
LINE
  5
AE4
330
AD4
100
AcDbEntity
  8
0
  6
Continuous
 62
     7
370
    15
100
AcDbLine
 10
2102.401224904706
 20
1003.148281613528
 30
0.0
 11
2102.412025311686
 21
1001.277803163358
 31
0.0
  0
LINE
  5
AE5
330
AD4
100
AcDbEntity
  8
0
  6
Continuous
 62
     7
370
    15
100
AcDbLine
 10
2110.911880067747
 20
1001.326883829733
 30
0.0
 11
2110.901079660767
 21
1003.197362279903
 31
0.0
  0
LINE
  5
AE6
330
AD4
100
AcDbEntity
  8
0
  6
Continuous
 62
     7
370
    15
100
AcDbLine
 10
2077.050828783869
 20
933.0465802958455
 30
0.0
 11
2086.129189016369
 21
929.9555686097498
 31
0.0
  0
LINE
  5
AE7
330
AD4
100
AcDbEntity
  8
0
  6
Continuous
 62
     7
370
    15
100
AcDbLine
 10
2088.257266407522
 20
935.6550036309171
 30
0.0
 11
2090.305810745153
 21
934.9575126386083
 31
0.0
  0
LINE
  5
AE8
330
AD4
100
AcDbEntity
  8
0
  6
Continuous
 62
     7
370
    15
100
AcDbLine
 10
2116.088882333084
 20
1002.48846956337
 30
0.0
 11
2106.852917573022
 21
1005.63314264029
 31
0.0
  0
LINE
  5
AE9
330
AD4
100
AcDbEntity
  8
0
  6
Continuous
 62
     7
370
    15
100
AcDbLine
 10
2117.123346966854
 20
999.2115345221261
 30
0.0
 11
2116.952585980312
 21
999.269675440906
 31
0.0
  0
LINE
  5
AEA
330
AD4
100
AcDbEntity
  8
0
  6
Continuous
 62
     7
370
    15
100
AcDbLine
 10
2117.066749198036
 20
999.6225963047809
 30
0.0
 11
2117.157924586297
 21
999.5915527921438
 31
0.0
  0
LINE
  5
AEB
330
AD4
100
AcDbEntity
  8
0
  6
Continuous
 62
     7
370
    15
100
AcDbLine
 10
2120.06401725014
 20
999.0655408415431
 30
0.0
 11
2118.232195457375
 21
999.6892418649956
 31
0.0
  0
LINE
  5
AEC
330
AD4
100
AcDbEntity
  8
0
  6
Continuous
 62
     7
370
    15
100
AcDbLine
 10
2117.706764144353
 20
999.3633861930362
 30
0.0
 11
2117.029476519886
 21
999.5939899483909
 31
0.0
  0
LINE
  5
AED
330
AD4
100
AcDbEntity
  8
0
  6
Continuous
 62
     7
370
    15
100
AcDbLine
 10
2100.897240776718
 20
943.5428015047941
 30
0.0
 11
2101.853039421877
 21
943.2173699614232
 31
0.0
  0
LINE
  5
AEE
330
AD4
100
AcDbEntity
  8
0
  6
Continuous
 62
     7
370
    15
100
AcDbLine
 10
2111.47464759847
 20
948.6434793710797
 30
0.0
 11
2112.430446243629
 21
948.3180478277088
 31
0.0
  0
LINE
  5
AEF
330
AD4
100
AcDbEntity
  8
0
  6
Continuous
 62
     7
370
    15
100
AcDbLine
 10
2114.531942619055
 20
948.1506302892023
 30
0.0
 11
2115.72499666793
 21
947.7444177229708
 31
0.0
  0
LINE
  5
AF0
330
AD4
100
AcDbEntity
  8
0
  6
Continuous
 62
     7
370
    15
100
AcDbLine
 10
2086.481828737131
 20
974.0395651292752
 30
0.0
 11
2086.469210852836
 21
976.2248050653436
 31
0.0
  0
ARC
  5
AF1
330
AD4
100
AcDbEntity
  8
0
  6
Continuous
 62
     7
370
    15
100
AcDbCircle
 10
2087.682379515166
 20
976.2112931570721
 30
0.0
 40
1.213243905784416
100
AcDbArc
 50
154.141804259795
 51
179.3618831974223
  0
LINE
  5
AF2
330
AD4
100
AcDbEntity
  8
0
  6
Continuous
 62
     7
370
    15
100
AcDbLine
 10
2087.953494797226
 20
979.5950828255646
 30
0.0
 11
2086.590610151424
 21
976.7404438268426
 31
0.0
  0
LWPOLYLINE
  5
AF3
330
AD4
100
AcDbEntity
  8
0
  6
Continuous
 62
     7
370
    15
100
AcDbPolyline
 90
        9
 70
   128
 43
0.0
 10
2088.61429488877
 20
980.01512234258
 10
2088.541098231759
 20
980.052080226625
 10
2088.458934549439
 20
980.0617479936246
 10
2088.370791614362
 20
980.0437808097228
 10
2088.279872952423
 20
979.9988297469957
 10
2088.189478121019
 20
979.928529477906
 10
2088.102894613217
 20
979.8354297206861
 10
2088.023269471189
 20
979.7229177710121
 10
2087.953494797226
 20
979.5950828255646
  0
LINE
  5
AF4
330
AD4
100
AcDbEntity
  8
0
  6
Continuous
 62
     7
370
    15
100
AcDbLine
 10
2088.902213634316
 20
979.8018018898847
 30
0.0
 11
2088.61429488877
 21
980.01512234258
 31
0.0
  0
ARC
  5
AF5
330
AD4
100
AcDbEntity
  8
0
  6
Continuous
 62
     7
370
    15
100
AcDbCircle
 10
2088.719948021644
 20
979.6719780272134
 30
0.0
 40
0.2237744151629098
100
AcDbArc
 50
326.9154256618687
 51
35.46145054589575
  0
LINE
  5
AF6
330
AD4
100
AcDbEntity
  8
0
  6
Continuous
 62
     7
370
    15
100
AcDbLine
 10
2088.907440931448
 20
979.5498248542919
 30
0.0
 11
2088.891245501408
 21
979.5159056027985
 31
0.0
  0
ARC
  5
AF7
330
AD4
100
AcDbEntity
  8
0
  6
Continuous
 62
     7
370
    15
100
AcDbCircle
 10
2089.03754646379
 20
979.4233948778085
 30
0.0
 40
0.1730959440085385
100
AcDbArc
 50
147.693538092539
 51
212.9681224144812
  0
LINE
  5
AF8
330
AD4
100
AcDbEntity
  8
0
  6
Continuous
 62
     7
370
    15
100
AcDbLine
 10
2088.892323561026
 20
979.3292008528117
 30
0.0
 11
2088.93422241402
 21
979.2930630358414
 31
0.0
  0
LWPOLYLINE
  5
AF9
330
AD4
100
AcDbEntity
  8
0
  6
Continuous
 62
     7
370
    15
100
AcDbPolyline
 90
        9
 70
   128
 43
0.0
 10
2088.93422241402
 20
979.2930630358414
 10
2088.950209249663
 20
979.2840365504053
 10
2088.968597779373
 20
979.2822196163537
 10
2088.988444941414
 20
979.2877058003451
 10
2089.008733027696
 20
979.3002073283524
 10
2089.028421450551
 20
979.3190929810796
 10
2089.046503263384
 20
979.3433855718253
 10
2089.062049863716
 20
979.37184885476
 10
2089.074265069845
 20
979.4030168250333
  0
ARC
  5
AFA
330
AD4
100
AcDbEntity
  8
0
  6
Continuous
 62
     7
370
    15
100
AcDbCircle
 10
2105.461818454111
 20
974.1849641017939
 30
0.0
 40
17.19825514826054
100
AcDbArc
 50
146.6161218917688
 51
162.3377130455288
  0
ARC
  5
AFB
330
AD4
100
AcDbEntity
  8
0
  6
Continuous
 62
     7
370
    15
100
AcDbCircle
 10
2090.95551183512
 20
983.7680412701406
 30
0.0
 40
0.1886468715040986
100
AcDbArc
 50
320.5727054671829
 51
30.97728311867266
  0
LINE
  5
AFC
330
AD4
100
AcDbEntity
  8
0
  6
Continuous
 62
     7
370
    15
100
AcDbLine
 10
2091.075350023846
 20
983.9012765682181
 30
0.0
 11
2091.117252274591
 21
983.8651374717542
 31
0.0
  0
LWPOLYLINE
  5
AFD
330
AD4
100
AcDbEntity
  8
0
  6
Continuous
 62
     7
370
    15
100
AcDbPolyline
 90
        9
 70
   128
 43
0.0
 10
2090.948611094857
 20
983.8248024198191
 10
2090.962097114316
 20
983.8494151994343
 10
2090.977519769312
 20
983.8709645013679
 10
2090.9942882742
 20
983.8886210295097
 10
2091.011756732075
 20
983.9017053668635
 10
2091.029255591671
 20
983.9097202753901
 10
2091.046110850201
 20
983.9123522939004
 10
2091.061674403228
 20
983.9095000402179
 10
2091.075350023846
 20
983.9012765682181
  0
LINE
  5
AFE
330
AD4
100
AcDbEntity
  8
0
  6
Continuous
 62
     7
370
    15
100
AcDbLine
 10
2090.932384380349
 20
983.7908210052793
 30
0.0
 11
2090.948611094857
 21
983.8248024198191
 31
0.0
  0
LWPOLYLINE
  5
AFF
330
AD4
100
AcDbEntity
  8
0
  6
Continuous
 62
     7
370
    15
100
AcDbPolyline
 90
        9
 70
   128
 43
0.0
 10
2090.932384380349
 20
983.7908210052793
 10
2090.913862877414
 20
983.7571464024057
 10
2090.892635622911
 20
983.7278192829492
 10
2090.86956252125
 20
983.7040344403904
 10
2090.845581667681
 20
983.6867541541506
 10
2090.821665426581
 20
983.6766816872708
 10
2090.798784488915
 20
983.6742229502485
 10
2090.777867214164
 20
983.6794819461568
 10
2090.759763591983
 20
983.6922390251514
  0
LINE
  5
B00
330
AD4
100
AcDbEntity
  8
0
  6
Continuous
 62
     7
370
    15
100
AcDbLine
 10
2090.4953621879
 20
983.9553575721508
 30
0.0
 11
2090.759763591983
 21
983.6922390251514
 31
0.0
  0
ARC
  5
B01
330
AD4
100
AcDbEntity
  8
0
  6
Continuous
 62
     7
370
    15
100
AcDbCircle
 10
2091.314834746548
 20
984.4391750699621
 30
0.0
 40
0.9516378752257111
100
AcDbArc
 50
148.4169412771071
 51
210.5576489464454
  0
LINE
  5
B02
330
AD4
100
AcDbEntity
  8
0
  6
Continuous
 62
     7
370
    15
100
AcDbLine
 10
2091.840637310283
 20
987.736926400461
 30
0.0
 11
2090.504151732265
 21
984.9375802223413
 31
0.0
  0
ARC
  5
B03
330
AD4
100
AcDbEntity
  8
0
  6
Continuous
 62
     7
370
    15
100
AcDbCircle
 10
2092.955228303924
 20
987.2561494078039
 30
0.0
 40
1.213861441752982
100
AcDbArc
 50
124.5572370767945
 51
156.6671274224273
  0
LINE
  5
B04
330
AD4
100
AcDbEntity
  8
0
  6
Continuous
 62
     7
370
    15
100
AcDbLine
 10
2101.142100554323
 20
993.6112509427561
 30
0.0
 11
2092.266690605721
 21
988.2558370779927
 31
0.0
  0
LWPOLYLINE
  5
B05
330
AD4
100
AcDbEntity
  8
0
  6
Continuous
 62
     7
370
    15
100
AcDbPolyline
 90
        9
 70
   128
 43
0.0
 10
2101.142100554323
 20
993.6112509427561
 10
2101.260155653319
 20
993.6653107122211
 10
2101.373871097354
 20
993.6830620890862
 10
2101.478877798083
 20
993.6638266299937
 10
2101.571139785745
 20
993.6083422335123
 10
2101.647112003499
 20
993.518738484089
 10
2101.703874099271
 20
993.3984608862749
 10
2101.739245359609
 20
993.2521337746504
 10
2101.751866593152
 20
993.0853733139182
  0
LINE
  5
B06
330
AD4
100
AcDbEntity
  8
0
  6
Continuous
 62
     7
370
    15
100
AcDbLine
 10
2101.751866593152
 20
993.0853733139182
 30
0.0
 11
2101.799594144041
 21
984.8196333675472
 31
0.0
  0
LINE
  5
B07
330
AD4
100
AcDbEntity
  8
0
  6
Continuous
 62
     7
370
    15
100
AcDbLine
 10
2101.799594144041
 20
984.8196333675472
 30
0.0
 11
2106.334265880605
 21
987.5558499514326
 31
0.0
  0
LINE
  5
B08
330
AD4
100
AcDbEntity
  8
0
  6
Continuous
 62
     7
370
    15
100
AcDbLine
 10
2106.334265880605
 20
987.5558499514326
 30
0.0
 11
2106.286538329717
 21
995.8215898978036
 31
0.0
  0
ARC
  5
B09
330
AD4
100
AcDbEntity
  8
0
  6
Continuous
 62
     7
370
    15
100
AcDbCircle
 10
2107.83862460474
 20
995.851400499191
 30
0.0
 40
1.552372531665529
100
AcDbArc
 50
127.8535764791089
 51
181.1003329440734
  0
LINE
  5
B0A
330
AD4
100
AcDbEntity
  8
0
  6
Continuous
 62
     7
370
    15
100
AcDbLine
 10
2106.886017955915
 20
997.077125203064
 30
0.0
 11
2115.761428186067
 21
1002.432539237714
 31
0.0
  0
ARC
  5
B0B
330
AD4
100
AcDbEntity
  8
0
  6
Continuous
 62
     7
370
    15
100
AcDbCircle
 10
2115.974051849908
 20
1002.151721088059
 30
0.0
 40
0.3522323886312866
100
AcDbArc
 50
52.08533763864919
 51
127.1314701236577
  0
LINE
  5
B0C
330
AD4
100
AcDbEntity
  8
0
  6
Continuous
 62
     7
370
    15
100
AcDbLine
 10
2117.549914495558
 20
1001.256967577339
 30
0.0
 11
2116.19049411305
 21
1002.429606680213
 31
0.0
  0
ARC
  5
B0D
330
AD4
100
AcDbEntity
  8
0
  6
Continuous
 62
     7
370
    15
100
AcDbCircle
 10
2116.793769812997
 20
1000.758644195011
 30
0.0
 40
0.9055832233099055
100
AcDbArc
 50
328.9927566272897
 51
33.38615198632343
  0
LINE
  5
B0E
330
AD4
100
AcDbEntity
  8
0
  6
Continuous
 62
     7
370
    15
100
AcDbLine
 10
2117.310409794365
 20
999.7128735213705
 30
0.0
 11
2117.56994717002
 21
1000.292136226391
 31
0.0
  0
LWPOLYLINE
  5
B0F
330
AD4
100
AcDbEntity
  8
0
  6
Continuous
 62
     7
370
    15
100
AcDbPolyline
 90
        9
 70
   128
 43
0.0
 10
2117.310409794365
 20
999.7128735213705
 10
2117.292578132011
 20
999.6784331260959
 10
2117.271867192028
 20
999.6480557052755
 10
2117.249116844651
 20
999.6229805685956
 10
2117.22525076279
 20
999.604221227552
 10
2117.201237568199
 20
999.5925419510866
 10
2117.178051529509
 20
999.5884140726509
 10
2117.156633612606
 20
999.5920091365135
 10
2117.137853752998
 20
999.6031761329449
  0
LINE
  5
B10
330
AD4
100
AcDbEntity
  8
0
  6
Continuous
 62
     7
370
    15
100
AcDbLine
 10
2117.121344109685
 20
999.6174111199099
 30
0.0
 11
2117.137853752998
 21
999.6031761329449
 31
0.0
  0
LWPOLYLINE
  5
B11
330
AD4
100
AcDbEntity
  8
0
  6
Continuous
 62
     7
370
    15
100
AcDbPolyline
 90
        9
 70
   128
 43
0.0
 10
2117.121344109685
 20
999.6174111199099
 10
2117.107669071325
 20
999.6256316135495
 10
2117.092104974359
 20
999.6284802093247
 10
2117.075250278928
 20
999.6258485305878
 10
2117.05775254553
 20
999.6178343016078
 10
2117.040284650753
 20
999.6047503040275
 10
2117.023516708965
 20
999.5870941156589
 10
2117.008094053969
 20
999.5655448137254
 10
2116.994609160708
 20
999.5409327136568
  0
LINE
  5
B12
330
AD4
100
AcDbEntity
  8
0
  6
Continuous
 62
     7
370
    15
100
AcDbLine
 10
2116.953413775882
 20
999.4546525834552
 30
0.0
 11
2116.994609160708
 21
999.5409327136568
 31
0.0
  0
LWPOLYLINE
  5
B13
330
AD4
100
AcDbEntity
  8
0
  6
Continuous
 62
     7
370
    15
100
AcDbPolyline
 90
        9
 70
   128
 43
0.0
 10
2116.971821859762
 20
999.2585231476544
 10
2116.955618936655
 20
999.2670030343091
 10
2116.942578969233
 20
999.282279436923
 10
2116.933370438641
 20
999.3035670154396
 10
2116.928465814315
 20
999.3297756936385
 10
2116.928115850516
 20
999.3595584138741
 10
2116.932338389299
 20
999.3913909528599
 10
2116.940917977323
 20
999.4236382843444
 10
2116.953413775882
 20
999.4546525834552
  0
ARC
  5
B14
330
AD4
100
AcDbEntity
  8
0
  6
Continuous
 62
     7
370
    15
100
AcDbCircle
 10
2115.918152866306
 20
995.952398248403
 30
0.0
 40
3.469968327985334
100
AcDbArc
 50
26.12679319040433
 51
72.322809689403
  0
LWPOLYLINE
  5
B15
330
AD4
100
AcDbEntity
  8
0
  6
Continuous
 62
     7
370
    15
100
AcDbPolyline
 90
        9
 70
   128
 43
0.0
 10
2119.173900901062
 20
997.5396560803689
 10
2119.15812895695
 20
997.5114663776366
 10
2119.139889590439
 20
997.487548206077
 10
2119.120117111634
 20
997.4691279367181
 10
2119.099826036491
 20
997.4571440375763
 10
2119.080055864795
 20
997.4522204121331
 10
2119.061820612018
 20
997.4545993202635
 10
2119.046054406949
 20
997.4641684864002
 10
2119.033565899837
 20
997.4804302597588
  0
LINE
  5
B16
330
AD4
100
AcDbEntity
  8
0
  6
Continuous
 62
     7
370
    15
100
AcDbLine
 10
2119.215092926454
 20
997.6259308537967
 30
0.0
 11
2119.173900901062
 21
997.5396560803689
 31
0.0
  0
ARC
  5
B17
330
AD4
100
AcDbEntity
  8
0
  6
Continuous
 62
     7
370
    15
100
AcDbCircle
 10
2119.068791964072
 20
997.7184415787869
 30
0.0
 40
0.1730959440085349
100
AcDbArc
 50
327.693538092539
 51
32.96812241449922
  0
LINE
  5
B18
330
AD4
100
AcDbEntity
  8
0
  6
Continuous
 62
     7
370
    15
100
AcDbLine
 10
2119.197541549244
 20
997.8268425642371
 30
0.0
 11
2119.214014866835
 21
997.8126356037837
 31
0.0
  0
ARC
  5
B19
330
AD4
100
AcDbEntity
  8
0
  6
Continuous
 62
     7
370
    15
100
AcDbCircle
 10
2119.395611546206
 20
997.9533404652514
 30
0.0
 40
0.235017962414239
100
AcDbArc
 50
146.4120482728698
 51
212.5644384152419
  0
LINE
  5
B1A
330
AD4
100
AcDbEntity
  8
0
  6
Continuous
 62
     7
370
    15
100
AcDbLine
 10
2119.483296120648
 20
998.6414481287633
 30
0.0
 11
2119.199832749051
 21
998.0833562536835
 31
0.0
  0
LWPOLYLINE
  5
B1B
330
AD4
100
AcDbEntity
  8
0
  6
Continuous
 62
     7
370
    15
100
AcDbPolyline
 90
        9
 70
   128
 43
0.0
 10
2120.144342616688
 20
999.0190095770255
 10
2120.073581311634
 20
999.0620452472979
 10
2119.993213154154
 20
999.0780173932426
 10
2119.906160601528
 20
999.0663453178562
 10
2119.815585572013
 20
999.0274485461473
 10
2119.724778694269
 20
998.9627465922318
 10
2119.637041056575
 20
998.8745876069289
 10
2119.555560305912
 20
998.7661769457579
 10
2119.483296120648
 20
998.6414481287633
  0
LINE
  5
B1C
330
AD4
100
AcDbEntity
  8
0
  6
Continuous
 62
     7
370
    15
100
AcDbLine
 10
2121.5306150712
 20
997.8232093403093
 30
0.0
 11
2120.144342616688
 21
999.0190095770255
 31
0.0
  0
ARC
  5
B1D
330
AD4
100
AcDbEntity
  8
0
  6
Continuous
 62
     7
370
    15
100
AcDbCircle
 10
2121.173374820666
 20
997.4948836874231
 30
0.0
 40
0.4851992693165585
100
AcDbArc
 50
355.5391940623324
 51
42.58491032417178
  0
LINE
  5
B1E
330
AD4
100
AcDbEntity
  8
0
  6
Continuous
 62
     7
370
    15
100
AcDbLine
 10
2121.669722194887
 20
995.271906349205
 30
0.0
 11
2121.657104310592
 21
997.4571462852733
 31
0.0
  0
LINE
  5
B1F
330
AD4
100
AcDbEntity
  8
0
  6
Continuous
 62
     7
370
    15
100
AcDbLine
 10
2121.672317519394
 20
994.8226284005261
 30
0.0
 11
2121.669722194887
 21
995.271906349205
 31
0.0
  0
LINE
  5
B20
330
AD4
100
AcDbEntity
  8
0
  6
Continuous
 62
     7
370
    15
100
AcDbLine
 10
2121.672316393196
 20
994.8226277209794
 30
0.0
 11
2121.851804583059
 21
963.7377999171329
 31
0.0
  0
LINE
  5
B21
330
AD4
100
AcDbEntity
  8
0
  6
Continuous
 62
     7
370
    15
100
AcDbLine
 10
2121.851804583059
 20
963.7377999171329
 30
0.0
 11
2086.663911125304
 21
942.5054586972033
 31
0.0
  0
LINE
  5
B22
330
AD4
100
AcDbEntity
  8
0
  6
Continuous
 62
     7
370
    15
100
AcDbLine
 10
2086.663911125304
 20
942.5054586972033
 30
0.0
 11
2086.48442293544
 21
973.5902865010498
 31
0.0
  0
LINE
  5
B23
330
AD4
100
AcDbEntity
  8
0
  6
Continuous
 62
     7
370
    15
100
AcDbLine
 10
2086.48442293544
 20
973.5902865010498
 30
0.0
 11
2086.481828737131
 21
974.0395651292752
 31
0.0
  0
LINE
  5
B24
330
AD4
100
AcDbEntity
  8
0
  6
Continuous
 62
     7
370
    15
100
AcDbLine
 10
2080.549351829929
 20
982.1160548790315
 30
0.0
 11
2079.275515154714
 21
979.4479322274648
 31
0.0
  0
LINE
  5
B25
330
AD4
100
AcDbEntity
  8
0
  6
Continuous
 62
     7
370
    15
100
AcDbLine
 10
2079.275515154714
 20
979.4479322274648
 30
0.0
 11
2084.847836329245
 21
977.5506611974506
 31
0.0
  0
LINE
  5
B26
330
AD4
100
AcDbEntity
  8
0
  6
Continuous
 62
     7
370
    15
100
AcDbLine
 10
2086.12167300446
 20
980.2187838490171
 30
0.0
 11
2084.847836329245
 21
977.5506611974506
 31
0.0
  0
LINE
  5
B27
330
AD4
100
AcDbEntity
  8
0
  6
Continuous
 62
     7
370
    15
100
AcDbLine
 10
2087.953494797226
 20
979.5950828255646
 30
0.0
 11
2086.12167300446
 21
980.2187838490171
 31
0.0
  0
LINE
  5
B28
330
AD4
100
AcDbEntity
  8
0
  6
Continuous
 62
     7
370
    15
100
AcDbLine
 10
2077.354645391363
 20
979.885116903762
 30
0.0
 11
2086.590610151424
 21
976.7404438268426
 31
0.0
  0
LINE
  5
B29
330
AD4
100
AcDbEntity
  8
0
  6
Continuous
 62
     7
370
    15
100
AcDbLine
 10
2077.354645391363
 20
979.885116903762
 30
0.0
 11
2078.717530037164
 21
982.7397559024841
 31
0.0
  0
LINE
  5
B2A
330
AD4
100
AcDbEntity
  8
0
  6
Continuous
 62
     7
370
    15
100
AcDbLine
 10
2078.717530037164
 20
982.7397559024841
 30
0.0
 11
2080.549351829929
 21
982.1160548790315
 31
0.0
  0
LINE
  5
B2B
330
AD4
100
AcDbEntity
  8
0
  6
Continuous
 62
     7
370
    15
100
AcDbLine
 10
2077.233246092775
 20
979.3694781422631
 30
0.0
 11
2086.469210852836
 21
976.2248050653436
 31
0.0
  0
ARC
  5
B2C
330
AD4
100
AcDbEntity
  8
0
  6
Continuous
 62
     7
370
    15
100
AcDbCircle
 10
2078.446414755105
 20
979.3559662339912
 30
0.0
 40
1.213243905785841
100
AcDbArc
 50
154.1418042598125
 51
179.3618831974093
  0
LINE
  5
B2D
330
AD4
100
AcDbEntity
  8
0
  6
Continuous
 62
     7
370
    15
100
AcDbLine
 10
2077.725885351545
 20
970.9961097451817
 30
0.0
 11
2086.071513306328
 21
968.1545796807883
 31
0.0
  0
LINE
  5
B2E
330
AD4
100
AcDbEntity
  8
0
  6
Continuous
 62
     7
370
    15
100
AcDbLine
 10
2077.759953821154
 20
965.0959303955263
 30
0.0
 11
2077.725885351545
 21
970.9961097451817
 31
0.0
  0
SPLINE
  5
B2F
330
AD4
100
AcDbEntity
  8
0
  6
Continuous
 62
     7
370
    15
100
AcDbSpline
210
0.0
220
0.0
230
1.0
 70
     8
 71
     3
 72
    10
 73
     6
 74
     0
 42
0.0000000001
 43
0.0000000001
 40
0.0
 40
0.0
 40
0.0
 40
0.0
 40
0.5
 40
0.5
 40
1.0
 40
1.0
 40
1.0
 40
1.0
 10
2077.759956758364
 20
965.0959271379221
 30
0.0
 10
2077.76079798038
 20
964.9483606048788
 30
0.0
 10
2077.756282535644
 20
964.8027495898597
 30
0.0
 10
2077.741821121246
 20
964.5137150325902
 30
0.0
 10
2077.731629874004
 20
964.3704220175223
 30
0.0
 10
2077.724391875825
 20
964.2258982003282
 30
0.0
  0
ARC
  5
B30
330
AD4
100
AcDbEntity
  8
0
  6
Continuous
 62
     7
370
    15
100
AcDbCircle
 10
2083.009646752315
 20
963.9669500697026
 30
0.0
 40
5.291597169973081
100
AcDbArc
 50
177.1950575107133
 51
183.4666029963235
  0
SPLINE
  5
B31
330
AD4
100
AcDbEntity
  8
0
  6
Continuous
 62
     7
370
    15
100
AcDbSpline
210
0.0
220
0.0
230
1.0
 70
     8
 71
     3
 72
    14
 73
    10
 74
     0
 42
0.0000000001
 43
0.0000000001
 40
0.0
 40
0.0
 40
0.0
 40
0.0
 40
0.000387973554629
 40
0.000387973554629
 40
0.000387973554629
 40
0.0006907775753037
 40
0.0006907775753037
 40
0.0006907775753037
 40
0.0009939117623708
 40
0.0009939117623708
 40
0.0009939117623708
 40
0.0009939117623708
 10
2077.727734610956
 20
963.6469835318195
 30
0.0
 10
2077.734712745428
 20
963.5298603073515
 30
0.0
 10
2077.743591042317
 20
963.4122300731446
 30
0.0
 10
2077.751290291827
 20
963.2949136083803
 30
0.0
 10
2077.757298986874
 20
963.203356780674
 30
0.0
 10
2077.762657820234
 20
963.1119584697746
 30
0.0
 10
2077.766573461008
 20
963.0209848967714
 30
0.0
 10
2077.770493009702
 20
962.9299205295309
 30
0.0
 10
2077.772980515623
 20
962.8392500904233
 30
0.0
 10
2077.773506741151
 20
962.7492608642532
 30
0.0
  0
LINE
  5
B32
330
AD4
100
AcDbEntity
  8
0
  6
Continuous
 62
     7
370
    15
100
AcDbLine
 10
2077.817073162736
 20
955.2036645106046
 30
0.0
 11
2077.773503828121
 21
962.7492599342639
 31
0.0
  0
LINE
  5
B33
330
AD4
100
AcDbEntity
  8
0
  6
Continuous
 62
     7
370
    15
100
AcDbLine
 10
2086.162701117519
 20
952.3621344462112
 30
0.0
 11
2077.817073162736
 21
955.2036645106046
 31
0.0
  0
LINE
  5
B34
330
AD4
100
AcDbEntity
  8
0
  6
Continuous
 62
     7
370
    15
100
AcDbLine
 10
2086.119131782904
 20
959.9077298698706
 30
0.0
 11
2086.162701117519
 21
952.3621344462112
 31
0.0
  0
SPLINE
  5
B35
330
AD4
100
AcDbEntity
  8
0
  6
Continuous
 62
     7
370
    15
100
AcDbSpline
210
0.0
220
0.0
230
1.0
 70
     8
 71
     3
 72
    10
 73
     6
 74
     0
 42
0.0000000001
 43
0.0000000001
 40
0.0
 40
0.0
 40
0.0
 40
0.0
 40
0.5
 40
0.5
 40
1.0
 40
1.0
 40
1.0
 40
1.0
 10
2086.119133750123
 20
959.9077311218904
 30
0.0
 10
2086.118292528107
 20
960.0552976549341
 30
0.0
 10
2086.122807972843
 20
960.2009086699533
 30
0.0
 10
2086.13726938724
 20
960.4899432272231
 30
0.0
 10
2086.147460634484
 20
960.63323624229
 30
0.0
 10
2086.154698632663
 20
960.7777600594841
 30
0.0
  0
ARC
  5
B36
330
AD4
100
AcDbEntity
  8
0
  6
Continuous
 62
     7
370
    15
100
AcDbCircle
 10
2080.874271564797
 20
961.0367381004627
 30
0.0
 40
5.286771619052572
100
AcDbArc
 50
357.1921924393101
 51
3.469468067723436
  0
SPLINE
  5
B37
330
AD4
100
AcDbEntity
  8
0
  6
Continuous
 62
     7
370
    15
100
AcDbSpline
210
0.0
220
0.0
230
1.0
 70
     8
 71
     3
 72
    14
 73
    10
 74
     0
 42
0.0000000001
 43
0.0000000001
 40
0.0
 40
0.0
 40
0.0
 40
0.0
 40
0.000387973554629
 40
0.000387973554629
 40
0.000387973554629
 40
0.000690777575304
 40
0.000690777575304
 40
0.000690777575304
 40
0.0009939117623717
 40
0.0009939117623717
 40
0.0009939117623717
 40
0.0009939117623717
 10
2086.151355897532
 20
961.3566747279929
 30
0.0
 10
2086.14437776306
 20
961.4737979524608
 30
0.0
 10
2086.135499466166
 20
961.5914281866693
 30
0.0
 10
2086.127800216655
 20
961.7087446514339
 30
0.0
 10
2086.121791521605
 20
961.8003014791405
 30
0.0
 10
2086.116432688247
 20
961.8916997900397
 30
0.0
 10
2086.112517047475
 20
961.9826733630425
 30
0.0
 10
2086.108597498781
 20
962.0737377302829
 30
0.0
 10
2086.106109992863
 20
962.1644081693899
 30
0.0
 10
2086.105583767337
 20
962.2543973955593
 30
0.0
  0
LINE
  5
B38
330
AD4
100
AcDbEntity
  8
0
  6
Continuous
 62
     7
370
    15
100
AcDbLine
 10
2086.071513306328
 20
968.1545796807883
 30
0.0
 11
2086.105581775937
 21
962.2544003311331
 31
0.0
  0
LINE
  5
B39
330
AD4
100
AcDbEntity
  8
0
  6
Continuous
 62
     7
370
    15
100
AcDbLine
 10
2086.585951539545
 20
942.5320024765259
 30
0.0
 11
2086.663911125304
 21
942.5054586972033
 31
0.0
  0
LINE
  5
B3A
330
AD4
100
AcDbEntity
  8
0
  6
Continuous
 62
     7
370
    15
100
AcDbLine
 10
2077.507591307045
 20
945.6230141626217
 30
0.0
 11
2086.585951539545
 21
942.5320024765259
 31
0.0
  0
LINE
  5
B3B
330
AD4
100
AcDbEntity
  8
0
  6
Continuous
 62
     7
370
    15
100
AcDbLine
 10
2077.507591307045
 20
945.6230141626217
 30
0.0
 11
2077.427946365242
 21
945.6501317741228
 31
0.0
  0
LINE
  5
B3C
330
AD4
100
AcDbEntity
  8
0
  6
Continuous
 62
     7
370
    15
100
AcDbLine
 10
2077.248458175378
 20
976.7349595779691
 30
0.0
 11
2077.427946365242
 21
945.6501317741228
 31
0.0
  0
LINE
  5
B3D
330
AD4
100
AcDbEntity
  8
0
  6
Continuous
 62
     7
370
    15
100
AcDbLine
 10
2077.248458175378
 20
976.7349595779691
 30
0.0
 11
2077.245863977069
 21
977.1842382061947
 31
0.0
  0
LINE
  5
B3E
330
AD4
100
AcDbEntity
  8
0
  6
Continuous
 62
     7
370
    15
100
AcDbLine
 10
2077.245863977069
 20
977.1842382061947
 30
0.0
 11
2077.233246092775
 21
979.3694781422631
 31
0.0
  0
LWPOLYLINE
  5
B3F
330
AD4
100
AcDbEntity
  8
0
  6
Continuous
 62
     7
370
    15
100
AcDbPolyline
 90
        9
 70
   128
 43
0.0
 10
2086.12167300446
 20
980.2187838490171
 10
2086.191447678424
 20
980.3466187944648
 10
2086.271072820452
 20
980.4591307441388
 10
2086.357656328255
 20
980.5522305013585
 10
2086.448051159658
 20
980.6225307704483
 10
2086.538969821597
 20
980.6674818331755
 10
2086.627112756675
 20
980.6854490170772
 10
2086.709276438994
 20
980.6757812500777
 10
2086.717331012637
 20
980.673202834588
  0
LINE
  5
B40
330
AD4
100
AcDbEntity
  8
0
  6
Continuous
 62
     7
370
    15
100
AcDbLine
 10
2090.504151732265
 20
984.9375802223413
 30
0.0
 11
2088.6723299395
 21
985.5612812457938
 31
0.0
  0
LINE
  5
B41
330
AD4
100
AcDbEntity
  8
0
  6
Continuous
 62
     7
370
    15
100
AcDbLine
 10
2089.950417570535
 20
988.2383086583601
 30
0.0
 11
2088.6723299395
 21
985.5612812457938
 31
0.0
  0
LINE
  5
B42
330
AD4
100
AcDbEntity
  8
0
  6
Continuous
 62
     7
370
    15
100
AcDbLine
 10
2089.950417570535
 20
988.2383086583601
 30
0.0
 11
2084.378096396003
 21
990.1355796883745
 31
0.0
  0
LINE
  5
B43
330
AD4
100
AcDbEntity
  8
0
  6
Continuous
 62
     7
370
    15
100
AcDbLine
 10
2084.378096396003
 20
990.1355796883745
 30
0.0
 11
2083.100008764968
 21
987.458552275808
 31
0.0
  0
LINE
  5
B44
330
AD4
100
AcDbEntity
  8
0
  6
Continuous
 62
     7
370
    15
100
AcDbLine
 10
2081.268186972203
 20
988.0822532992606
 30
0.0
 11
2083.100008764968
 21
987.458552275808
 31
0.0
  0
LINE
  5
B45
330
AD4
100
AcDbEntity
  8
0
  6
Continuous
 62
     7
370
    15
100
AcDbLine
 10
2081.268186972203
 20
988.0822532992606
 30
0.0
 11
2082.604672550222
 21
990.8815994773805
 31
0.0
  0
LINE
  5
B46
330
AD4
100
AcDbEntity
  8
0
  6
Continuous
 62
     7
370
    15
100
AcDbLine
 10
2082.604672550222
 20
990.8815994773805
 30
0.0
 11
2091.840637310283
 21
987.736926400461
 31
0.0
  0
ARC
  5
B47
330
AD4
100
AcDbEntity
  8
0
  6
Continuous
 62
     7
370
    15
100
AcDbCircle
 10
2096.740830478417
 20
977.4734247449593
 30
0.0
 40
15.67667978784487
100
AcDbArc
 50
146.5934555067718
 51
151.6167977913496
  0
LINE
  5
B48
330
AD4
100
AcDbEntity
  8
0
  6
Continuous
 62
     7
370
    15
100
AcDbLine
 10
2082.948676081352
 20
984.9255899510019
 30
0.0
 11
2088.520997255884
 21
983.0283189209877
 31
0.0
  0
ARC
  5
B49
330
AD4
100
AcDbEntity
  8
0
  6
Continuous
 62
     7
370
    15
100
AcDbCircle
 10
2102.325081742584
 20
975.5693343231271
 30
0.0
 40
15.69041744973945
100
AcDbArc
 50
146.6926807544804
 51
151.6155983862911
  0
ARC
  5
B4A
330
AD4
100
AcDbEntity
  8
0
  6
Continuous
 62
     7
370
    15
100
AcDbCircle
 10
2104.547188282885
 20
974.4468168647395
 30
0.0
 40
18.18206369762086
100
AcDbArc
 50
157.314173626113
 51
160.7329230577629
  0
LINE
  5
B4B
330
AD4
100
AcDbEntity
  8
0
  6
Continuous
 62
     7
370
    15
100
AcDbLine
 10
2082.199485581938
 20
983.3565065179914
 30
0.0
 11
2087.771806756469
 21
981.4592354879772
 31
0.0
  0
ARC
  5
B4C
330
AD4
100
AcDbEntity
  8
0
  6
Continuous
 62
     7
370
    15
100
AcDbCircle
 10
2098.975648397071
 20
976.343773333877
 30
0.0
 40
18.18290585993998
100
AcDbArc
 50
157.3142086072397
 51
160.7802617060382
  0
ARC
  5
B4D
330
AD4
100
AcDbEntity
  8
0
  6
Continuous
 62
     7
370
    15
100
AcDbCircle
 10
2096.174902275204
 20
977.3630293045959
 30
0.0
 40
17.1378113448738
100
AcDbArc
 50
146.8748170072182
 51
160.9122651420599
  0
LINE
  5
B4E
330
AD4
100
AcDbEntity
  8
0
  6
Continuous
 62
     7
370
    15
100
AcDbLine
 10
2090.4953621879
 20
983.9553575721508
 30
0.0
 11
2088.663540395135
 21
984.5790585956036
 31
0.0
  0
ARC
  5
B4F
330
AD4
100
AcDbEntity
  8
0
  6
Continuous
 62
     7
370
    15
100
AcDbCircle
 10
2089.483012953782
 20
985.0628760934146
 30
0.0
 40
0.9516378752255107
100
AcDbArc
 50
148.4169412770947
 51
210.5576489464454
  0
LWPOLYLINE
  5
B50
330
AD4
100
AcDbEntity
  8
0
  6
Continuous
 62
     7
370
    15
100
AcDbPolyline
 90
        3
 70
   128
 43
0.0
 10
2079.586106853776
 20
979.3421800090301
 10
2079.60075275375
 20
979.3634004648966
 10
2079.618811761801
 20
979.3963398306537
  0
LINE
  5
B51
330
AD4
100
AcDbEntity
  8
0
  6
Continuous
 62
     7
370
    15
100
AcDbLine
 10
2080.414943292581
 20
980.8886489598437
 30
0.0
 11
2079.89437061819
 21
979.7249277282388
 31
0.0
  0
LINE
  5
B52
330
AD4
100
AcDbEntity
  8
0
  6
Continuous
 62
     7
370
    15
100
AcDbLine
 10
2080.414943292581
 20
980.8886489598437
 30
0.0
 11
2085.598813636284
 21
979.1236381648072
 31
0.0
  0
LINE
  5
B53
330
AD4
100
AcDbEntity
  8
0
  6
Continuous
 62
     7
370
    15
100
AcDbLine
 10
2080.436118203252
 20
981.1080833698134
 30
0.0
 11
2081.061844230831
 21
982.4185862983004
 31
0.0
  0
LINE
  5
B54
330
AD4
100
AcDbEntity
  8
0
  6
Continuous
 62
     7
370
    15
100
AcDbLine
 10
2079.618811761801
 20
979.3963398306537
 30
0.0
 11
2079.724144568519
 21
979.6169492458544
 31
0.0
  0
LWPOLYLINE
  5
B55
330
AD4
100
AcDbEntity
  8
0
  6
Continuous
 62
     7
370
    15
100
AcDbPolyline
 90
        9
 70
   128
 43
0.0
 10
2079.724144568519
 20
979.6169492458544
 10
2079.741762153737
 20
979.6492226941566
 10
2079.761867987604
 20
979.6776300817766
 10
2079.783726694689
 20
979.701134998263
 10
2079.80654986826
 20
979.7188821345759
 10
2079.829504907434
 20
979.730232582664
 10
2079.851760180041
 20
979.7347711085309
 10
2079.872505217558
 20
979.732331656611
 10
2079.874543217918
 20
979.7316767769897
  0
LINE
  5
B56
330
AD4
100
AcDbEntity
  8
0
  6
Continuous
 62
     7
370
    15
100
AcDbLine
 10
2083.030725845659
 20
991.400510154912
 30
0.0
 11
2092.266690605721
 21
988.2558370779927
 31
0.0
  0
ARC
  5
B57
330
AD4
100
AcDbEntity
  8
0
  6
Continuous
 62
     7
370
    15
100
AcDbCircle
 10
2083.719263543863
 20
990.4008224847231
 30
0.0
 40
1.213861441753403
100
AcDbArc
 50
124.5572370767945
 51
156.6671274224214
  0
ARC
  5
B58
330
AD4
100
AcDbEntity
  8
0
  6
Continuous
 62
     7
370
    15
100
AcDbCircle
 10
2080.687158455194
 20
980.9731196990096
 30
0.0
 40
0.2850200002314745
100
AcDbArc
 50
151.7367406552924
 51
197.2395724119012
  0
LINE
  5
B59
330
AD4
100
AcDbEntity
  8
0
  6
Continuous
 62
     7
370
    15
100
AcDbLine
 10
2083.106893663428
 20
986.4607316182972
 30
0.0
 11
2083.091219220603
 21
986.4763296256178
 31
0.0
  0
LINE
  5
B5A
330
AD4
100
AcDbEntity
  8
0
  6
Continuous
 62
     7
370
    15
100
AcDbLine
 10
2083.106893663428
 20
986.4607316182972
 30
0.0
 11
2088.679214837959
 21
984.5634605882828
 31
0.0
  0
LINE
  5
B5B
330
AD4
100
AcDbEntity
  8
0
  6
Continuous
 62
     7
370
    15
100
AcDbLine
 10
2081.523798831921
 20
986.8369121020709
 30
0.0
 11
2090.759763591983
 21
983.6922390251514
 31
0.0
  0
LINE
  5
B5C
330
AD4
100
AcDbEntity
  8
0
  6
Continuous
 62
     7
370
    15
100
AcDbLine
 10
2081.259397427838
 20
987.1000306490703
 30
0.0
 11
2083.091219220603
 21
986.4763296256178
 31
0.0
  0
LINE
  5
B5D
330
AD4
100
AcDbEntity
  8
0
  6
Continuous
 62
     7
370
    15
100
AcDbLine
 10
2081.523798831921
 20
986.8369121020709
 30
0.0
 11
2081.259397427838
 21
987.1000306490703
 31
0.0
  0
LINE
  5
B5E
330
AD4
100
AcDbEntity
  8
0
  6
Continuous
 62
     7
370
    15
100
AcDbLine
 10
2088.679214837959
 20
984.5634605882828
 30
0.0
 11
2088.663540395135
 21
984.5790585956036
 31
0.0
  0
LWPOLYLINE
  5
B5F
330
AD4
100
AcDbEntity
  8
0
  6
Continuous
 62
     7
370
    15
100
AcDbPolyline
 90
        9
 70
   128
 43
0.0
 10
2081.061844230831
 20
982.4185862983004
 10
2081.079287355382
 20
982.4505413767552
 10
2081.099193645679
 20
982.4786685346403
 10
2081.120838969111
 20
982.501941475105
 10
2081.143437113862
 20
982.5195162026039
 10
2081.166164546111
 20
982.5307492910587
 10
2081.188200838189
 20
982.5352422563408
 10
2081.208740064683
 20
982.5328251248043
 10
2081.210753154574
 20
982.5321785220918
  0
LWPOLYLINE
  5
B60
330
AD4
100
AcDbEntity
  8
0
  6
Continuous
 62
     7
370
    15
100
AcDbPolyline
 90
       28
 70
   128
 43
0.0
 10
2096.376746143646
 20
992.556397937351
 10
2096.372432658642
 20
992.4641124770655
 10
2096.318357410829
 20
992.2318749447876
 10
2096.203156452832
 20
992.0040135282324
 10
2096.028516028646
 20
991.7838478472383
 10
2095.796977053791
 20
991.5745914832932
 10
2095.511922078817
 20
991.3792937014568
 10
2095.177504035472
 20
991.2008020571859
 10
2094.798603225072
 20
991.0417196392058
 10
2094.380737438786
 20
990.9043676401266
 10
2093.930008203497
 20
990.790747319933
 10
2093.452980926961
 20
990.70251809755
 10
2092.956618148767
 20
990.6409628758567
 10
2092.448150588659
 20
990.6069830495029
 10
2091.935001907385
 20
990.6010699096349
 10
2091.42464615339
 20
990.6233138497757
 10
2090.924534169335
 20
990.6733879661834
 10
2090.441950735428
 20
990.7505626820006
 10
2089.983934954339
 20
990.8537137207723
 10
2089.557171267715
 20
990.981334764373
 10
2089.167878436412
 20
991.1315656861962
 10
2088.821730141521
 20
991.3022174590265
 10
2088.523786024535
 20
991.4907977605626
 10
2088.278371267381
 20
991.6945615411274
 10
2088.089084691911
 20
991.9105327148482
 10
2087.958670672663
 20
992.1355669048955
 10
2087.88904330648
 20
992.3663772300479
 10
2087.876891101636
 20
992.5073170984349
  0
LINE
  5
B61
330
AD4
100
AcDbEntity
  8
0
  6
Continuous
 62
     7
370
    15
100
AcDbLine
 10
2091.906135794262
 20
996.7559240196756
 30
0.0
 11
2091.108284859408
 21
996.2745015295288
 31
0.0
  0
LINE
  5
B62
330
AD4
100
AcDbEntity
  8
0
  6
Continuous
 62
     7
370
    15
100
AcDbLine
 10
2087.866434775985
 20
994.3183722932698
 30
0.0
 11
2083.030725845659
 21
991.400510154912
 31
0.0
  0
LWPOLYLINE
  5
B63
330
AD4
100
AcDbEntity
  8
0
  6
Continuous
 62
     7
370
    15
100
AcDbPolyline
 90
        3
 70
   128
 43
0.0
 10
2081.523798831921
 20
986.8369121020709
 10
2081.541902454102
 20
986.8241550230763
 10
2081.547514036819
 20
986.8219105333151
  0
LINE
  5
B64
330
AD4
100
AcDbEntity
  8
0
  6
Continuous
 62
     7
370
    15
100
AcDbLine
 10
2083.10909662303
 20
986.7063006329797
 30
0.0
 11
2083.734819291175
 21
988.0167982046927
 31
0.0
  0
ARC
  5
B65
330
AD4
100
AcDbEntity
  8
0
  6
Continuous
 62
     7
370
    15
100
AcDbCircle
 10
2083.3117653526
 20
986.5816881363052
 30
0.0
 40
0.2379136151482241
100
AcDbArc
 50
148.4143864931281
 51
210.5576588841361
  0
LINE
  5
B66
330
AD4
100
AcDbEntity
  8
0
  6
Continuous
 62
     7
370
    15
100
AcDbLine
 10
2084.553258942601
 20
989.9812700765421
 30
0.0
 11
2084.378096396003
 21
990.1355796883745
 31
0.0
  0
ARC
  5
B67
330
AD4
100
AcDbEntity
  8
0
  6
Continuous
 62
     7
370
    15
100
AcDbCircle
 10
2083.754885892346
 20
982.6927782539213
 30
0.0
 40
1.691095897382493
100
AcDbArc
 50
156.8908436059309
 51
179.5147118306218
  0
LWPOLYLINE
  5
B68
330
AD4
100
AcDbEntity
  8
0
  6
Continuous
 62
     7
370
    15
100
AcDbPolyline
 90
        9
 70
   128
 43
0.0
 10
2083.734819291175
 20
988.0167982046927
 10
2083.752436876393
 20
988.0490716529948
 10
2083.772540457864
 20
988.0774776815213
 10
2083.794401417345
 20
988.1009839571012
 10
2083.817223464718
 20
988.1187304138673
 10
2083.840178503892
 20
988.1300808619554
 10
2083.862433776499
 20
988.1346193878224
 10
2083.883177687819
 20
988.1321792563557
 10
2083.885217940574
 20
988.1315257358279
  0
ARC
  5
B69
330
AD4
100
AcDbEntity
  8
0
  6
Continuous
 62
     7
370
    15
100
AcDbCircle
 10
2080.012556390185
 20
982.7094995612982
 30
0.0
 40
2.051295664791237
100
AcDbArc
 50
347.3073035412444
 51
359.9330172854667
  0
LINE
  5
B6A
330
AD4
100
AcDbEntity
  8
0
  6
Continuous
 62
     7
370
    15
100
AcDbLine
 10
2084.44679179971
 20
989.5079316491049
 30
0.0
 11
2084.554159103905
 21
989.7327987001308
 31
0.0
  0
ARC
  5
B6B
330
AD4
100
AcDbEntity
  8
0
  6
Continuous
 62
     7
370
    15
100
AcDbCircle
 10
2084.35798270388
 20
989.8563253116551
 30
0.0
 40
0.2318275300342984
100
AcDbArc
 50
327.802564161645
 51
32.61257595431116
  0
ARC
  5
B6C
330
AD4
100
AcDbEntity
  8
0
  6
Continuous
 62
     7
370
    15
100
AcDbCircle
 10
2084.651484500232
 20
989.3820748744845
 30
0.0
 40
0.2402894699409807
100
AcDbArc
 50
148.4144224161003
 51
210.5586894364311
  0
ARC
  5
B6D
330
AD4
100
AcDbEntity
  8
0
  6
Continuous
 62
     7
370
    15
100
AcDbCircle
 10
2083.965700937917
 20
984.4193985209079
 30
0.0
 40
1.136032271888083
100
AcDbArc
 50
123.9399812390051
 51
153.5396501051491
  0
LINE
  5
B6E
330
AD4
100
AcDbEntity
  8
0
  6
Continuous
 62
     7
370
    15
100
AcDbLine
 10
2084.691677313385
 20
989.0140265767787
 30
0.0
 11
2084.444569117152
 21
989.2599067378467
 31
0.0
  0
LWPOLYLINE
  5
B6F
330
AD4
100
AcDbEntity
  8
0
  6
Continuous
 62
     7
370
    15
100
AcDbPolyline
 90
        9
 70
   128
 43
0.0
 10
2080.549351829929
 20
982.1160548790315
 10
2080.619126503893
 20
982.243889824479
 10
2080.69875164592
 20
982.356401774153
 10
2080.785335153723
 20
982.4495015313729
 10
2080.875729985126
 20
982.5198018004625
 10
2080.966648647065
 20
982.5647528631897
 10
2081.054791582143
 20
982.5827200470914
 10
2081.136955264462
 20
982.5730522800919
 10
2081.210151921473
 20
982.5360943960468
  0
LINE
  5
B70
330
AD4
100
AcDbEntity
  8
0
  6
Continuous
 62
     7
370
    15
100
AcDbLine
 10
2081.210151921473
 20
982.5360943960468
 30
0.0
 11
2081.219424671554
 21
982.5292265180532
 31
0.0
  0
ARC
  5
B71
330
AD4
100
AcDbEntity
  8
0
  6
Continuous
 62
     7
370
    15
100
AcDbCircle
 10
2082.489121672832
 20
986.6076010139412
 30
0.0
 40
1.503764044576051
100
AcDbArc
 50
304.0648643697861
 51
334.275203325355
  0
LINE
  5
B72
330
AD4
100
AcDbEntity
  8
0
  6
Continuous
 62
     7
370
    15
100
AcDbLine
 10
2083.843846544743
 20
985.9548937110975
 30
0.0
 11
2089.180787570874
 21
984.1377652146187
 31
0.0
  0
LINE
  5
B73
330
AD4
100
AcDbEntity
  8
0
  6
Continuous
 62
     7
370
    15
100
AcDbLine
 10
2084.831823192489
 20
988.9593126747977
 30
0.0
 11
2084.676952142242
 21
987.8619574099086
 31
0.0
  0
LWPOLYLINE
  5
B74
330
AD4
100
AcDbEntity
  8
0
  6
Continuous
 62
     7
370
    15
100
AcDbPolyline
 90
        3
 70
   128
 43
0.0
 10
2084.715627327265
 20
988.9988736784221
 10
2084.707737813109
 20
989.0022242889365
 10
2084.691677313385
 20
989.0140265767787
  0
ELLIPSE
  5
B75
330
AD4
100
AcDbEntity
  8
0
  6
Continuous
 62
     7
370
    15
100
AcDbEllipse
 10
2079.944738306253
 20
971.9401855645516
 30
0.0
 11
1.355668868439352
 21
2.670633337684023
 31
0.0
210
0.0
220
0.0
230
1.0
 40
0.6577517571072251
 41
2.234976226710978
 42
3.235055032372919
  0
LINE
  5
B76
330
AD4
100
AcDbEntity
  8
0
  6
Continuous
 62
     7
370
    15
100
AcDbLine
 10
2083.877943685256
 20
986.0284433325308
 30
0.0
 11
2083.867779012551
 21
986.0050188752151
 31
0.0
  0
LWPOLYLINE
  5
B77
330
AD4
100
AcDbEntity
  8
0
  6
Continuous
 62
     7
370
    15
100
AcDbPolyline
 90
       53
 70
   128
 43
0.0
 10
2094.685665570588
 20
995.9528587215833
 10
2095.07495840189
 20
995.80262779976
 10
2095.421106696781
 20
995.6319760269298
 10
2095.719056748119
 20
995.4433937048577
 10
2095.964465570922
 20
995.239631944829
 10
2096.153758080744
 20
995.0236587505722
 10
2096.284167291837
 20
994.7986272606074
 10
2096.353799466174
 20
994.5678142353726
 10
2096.361632251662
 20
994.3345909272357
 10
2096.307557003848
 20
994.1023533949579
 10
2096.192356045852
 20
993.8744919784026
 10
2096.017715621666
 20
993.6543262974085
 10
2095.786176646811
 20
993.4450699334634
 10
2095.501121671837
 20
993.249772151627
 10
2095.166703628491
 20
993.0712805073561
 10
2094.787802818092
 20
992.9121980893761
 10
2094.369937031805
 20
992.7748460902968
 10
2093.919207796517
 20
992.6612257701034
 10
2093.44218051998
 20
992.5729965477202
 10
2092.945817741787
 20
992.5114413260269
 10
2092.437350181679
 20
992.4774614996731
 10
2091.924201500405
 20
992.4715483598049
 10
2091.413845746409
 20
992.4937922999459
 10
2090.913733762354
 20
992.5438664163536
 10
2090.431150328448
 20
992.6210411321708
 10
2089.973134547359
 20
992.7241921709423
 10
2089.546370860734
 20
992.8518132145432
 10
2089.157078029431
 20
993.0020441363664
 10
2088.81092973454
 20
993.1726959091967
 10
2088.512985617555
 20
993.3612762107328
 10
2088.2675708604
 20
993.5650399912974
 10
2088.078284284931
 20
993.7810111650184
 10
2087.947870265682
 20
994.0060453550657
 10
2087.8782428995
 20
994.2368556802181
 10
2087.870405305858
 20
994.4700816884374
 10
2087.924485361826
 20
994.7023165206328
 10
2088.03968038547
 20
994.9301799577238
 10
2088.214320809656
 20
995.1503456387181
 10
2088.445859784511
 20
995.359602002663
 10
2088.730915885682
 20
995.5549004640461
 10
2089.06533280283
 20
995.7333914287703
 10
2089.44423361323
 20
995.8924738467505
 10
2089.862099399516
 20
996.0298258458296
 10
2090.312834569157
 20
996.1434441454873
 10
2090.789857037539
 20
996.2316760679529
 10
2091.286224623887
 20
996.2932285895636
 10
2091.794687375841
 20
996.327211116
 10
2092.307840865269
 20
996.3331215557856
 10
2092.818190684913
 20
996.3108796361805
 10
2093.31830860332
 20
996.2608034992369
 10
2093.800886102874
 20
996.1836308039556
 10
2094.258901883963
 20
996.0804797651841
 10
2094.685665570588
 20
995.9528587215833
  0
LWPOLYLINE
  5
B78
330
AD4
100
AcDbEntity
  8
0
  6
Continuous
 62
     7
370
    15
100
AcDbPolyline
 90
       43
 70
   128
 43
0.0
 10
2093.808962203009
 20
995.4238567490319
 10
2094.122448280172
 20
995.2992729062884
 10
2094.391109148229
 20
995.1546544258233
 10
2094.60895211792
 20
994.9932301356566
 10
2094.771103125928
 20
994.8186069717628
 10
2094.873949030482
 20
994.6346821982292
 10
2094.915183615009
 20
994.4455703420899
 10
2094.893890714724
 20
994.255490913596
 10
2094.810540276959
 20
994.0686932118854
 10
2094.66700374137
 20
993.8893479777005
 10
2094.466484390175
 20
993.7214605562422
 10
2094.213455885146
 20
993.5687833985827
 10
2093.913572865756
 20
993.4347285087666
 10
2093.573536931636
 20
993.3222865777503
 10
2093.200946164277
 20
993.2339697928538
 10
2092.8041167099
 20
993.1717545928977
 10
2092.391918180055
 20
993.1370271596312
 10
2091.973551051015
 20
993.130566728422
 10
2091.558371537978
 20
993.1525127346565
 10
2091.155647422189
 20
993.2023799182914
 10
2090.774378029739
 20
993.2790505229611
 10
2090.423074228313
 20
993.3808151870946
 10
2090.109594085502
 20
993.5053970093022
 10
2089.840927283092
 20
993.6500175103033
 10
2089.623084313402
 20
993.8114418004698
 10
2089.460934431591
 20
993.9860656439105
 10
2089.358093335192
 20
994.1699877173615
 10
2089.316853942511
 20
994.3591022735832
 10
2089.338145716598
 20
994.5491810225306
 10
2089.421496154362
 20
994.735978724241
 10
2089.56503381615
 20
994.9153246379726
 10
2089.765552041146
 20
995.0832113798844
 10
2090.018580546176
 20
995.2358885375437
 10
2090.318464691764
 20
995.3699441069066
 10
2090.658499499686
 20
995.4823853583761
 10
2091.031090267045
 20
995.5707021432726
 10
2091.42792084762
 20
995.6329180227752
 10
2091.840124185619
 20
995.6676427559592
 10
2092.258486506505
 20
995.6741058872513
 10
2092.673664893344
 20
995.6521592014698
 10
2093.076389009133
 20
995.602292017835
 10
2093.457664335935
 20
995.5256193926294
 10
2093.808962203009
 20
995.4238567490319
  0
LINE
  5
B79
330
AD4
100
AcDbEntity
  8
0
  6
Continuous
 62
     7
370
    15
100
AcDbLine
 10
2083.867779012551
 20
986.0050188752151
 30
0.0
 11
2083.843846544743
 21
985.9548937110975
 31
0.0
  0
LWPOLYLINE
  5
B7A
330
AD4
100
AcDbEntity
  8
0
  6
Continuous
 62
     7
370
    15
100
AcDbPolyline
 90
        9
 70
   128
 43
0.0
 10
2078.717530037164
 20
982.7397559024841
 10
2078.787304711127
 20
982.8675908479317
 10
2078.866929853155
 20
982.9801027976056
 10
2078.953513360958
 20
983.0732025548254
 10
2079.043908192361
 20
983.1435028239152
 10
2079.1348268543
 20
983.1884538866422
 10
2079.222969789378
 20
983.2064210705439
 10
2079.305133471697
 20
983.1967533035445
 10
2079.31318804534
 20
983.194174888055
  0
ARC
  5
B7B
330
AD4
100
AcDbEntity
  8
0
  6
Continuous
 62
     7
370
    15
100
AcDbCircle
 10
2083.910691779251
 20
986.9601471234288
 30
0.0
 40
0.9516378752257644
100
AcDbArc
 50
148.4169412771071
 51
210.5576489464398
  0
ARC
  5
B7C
330
AD4
100
AcDbEntity
  8
0
  6
Continuous
 62
     7
370
    15
100
AcDbCircle
 10
2082.078869986486
 20
987.5838481468814
 30
0.0
 40
0.9516378752258276
100
AcDbArc
 50
148.4169412771071
 51
210.5576489464398
  0
SPLINE
  5
B7D
330
AD4
100
AcDbEntity
  8
0
  6
Continuous
 62
     7
370
    15
100
AcDbSpline
210
0.0
220
0.0
230
1.0
 70
     8
 71
     3
 72
    10
 73
     6
 74
     0
 42
0.0000000001
 43
0.0000000001
 40
0.0
 40
0.0
 40
0.0
 40
0.0
 40
0.5
 40
0.5
 40
1.0
 40
1.0
 40
1.0
 40
1.0
 10
2081.422712655177
 20
967.9267579860717
 30
0.0
 10
2080.181974131787
 20
966.9879576675068
 30
0.0
 10
2079.317017594638
 20
966.232214631564
 30
0.0
 10
2078.148434528247
 20
965.0230331890071
 30
0.0
 10
2077.843307942904
 20
964.5689339620183
 30
0.0
 10
2077.72439136897
 20
964.2258980053304
 30
0.0
  0
ELLIPSE
  5
B7E
330
AD4
100
AcDbEntity
  8
0
  6
Continuous
 62
     7
370
    15
100
AcDbEllipse
 10
2080.035926114803
 20
956.1477407873338
 30
0.0
 11
1.355668868439522
 21
2.670633337684364
 31
0.0
210
0.0
220
0.0
230
0.9999999999999998
 40
0.6577517571072347
 41
1.013245750321401
 42
2.234976226711874
  0
LINE
  5
B7F
330
AD4
100
AcDbEntity
  8
0
  6
Continuous
 62
     7
370
    15
100
AcDbLine
 10
2079.262640331279
 20
958.317449306968
 30
0.0
 11
2083.027158066259
 21
961.5653322978101
 31
0.0
  0
ARC
  5
B80
330
AD4
100
AcDbEntity
  8
0
  6
Continuous
 62
     7
370
    15
100
AcDbCircle
 10
2086.10818390543
 20
965.7470402819262
 30
0.0
 40
5.167673736387676
100
AcDbArc
 50
155.0517697824233
 51
205.6098907246149
  0
SPLINE
  5
B81
330
AD4
100
AcDbEntity
  8
0
  6
Continuous
 62
     7
370
    15
100
AcDbSpline
210
0.0
220
0.0
230
1.0
 70
     8
 71
     3
 72
    10
 73
     6
 74
     0
 42
0.0000000001
 43
0.0000000001
 40
0.0
 40
0.0
 40
0.0
 40
0.0
 40
0.5
 40
0.5
 40
1.0
 40
1.0
 40
1.0
 40
1.0
 10
2077.727734105447
 20
963.6469831038752
 30
0.0
 10
2077.849942688954
 20
963.4198893464697
 30
0.0
 10
2078.158609188117
 20
963.2609253293388
 30
0.0
 10
2079.334646553489
 20
963.1791271241265
 30
0.0
 10
2080.203516779444
 20
963.2570743517637
 30
0.0
 10
2081.44819624985
 20
963.5133581248208
 30
0.0
  0
ARC
  5
B82
330
AD4
100
AcDbEntity
  8
0
  6
Continuous
 62
     7
370
    15
100
AcDbCircle
 10
2092.129008507203
 20
996.4376104029142
 30
0.0
 40
0.3885817864873376
100
AcDbArc
 50
74.38712647948595
 51
124.9984441945563
  0
ARC
  5
B83
330
AD4
100
AcDbEntity
  8
0
  6
Continuous
 62
     7
370
    15
100
AcDbCircle
 10
2077.431574137203
 20
962.9407607013009
 30
0.0
 40
4.057227584539019
100
AcDbArc
 50
346.8477991118491
 51
8.11324556690945
  0
SPLINE
  5
B84
330
AD4
100
AcDbEntity
  8
0
  6
Continuous
 62
     7
370
    15
100
AcDbSpline
210
0.0
220
0.0
230
1.0
 70
     8
 71
     3
 72
    20
 73
    16
 74
     0
 42
0.0000000001
 43
0.0000000001
 40
0.0
 40
0.0
 40
0.0
 40
0.0
 40
0.0960224328455691
 40
0.1881256335356602
 40
0.2763422374351505
 40
0.3607093903335603
 40
0.4412695630694114
 40
0.5180715424234559
 40
0.5911716401839432
 40
0.6715928545837824
 40
0.7468605863106004
 40
0.8171260342308269
 40
0.8825750748802942
 40
0.9434377291998135
 40
1.0
 40
1.0
 40
1.0
 40
1.0
 10
2081.382379159439
 20
962.017581134102
 30
0.0
 10
2081.258044412981
 20
962.0150447904075
 30
0.0
 10
2081.014449741874
 20
962.0100756259084
 30
0.0
 10
2080.659302640166
 20
962.0135958062135
 30
0.0
 10
2080.321401669936
 20
962.0255187836695
 30
0.0
 10
2080.000906733166
 20
962.0465294871383
 30
0.0
 10
2079.697774468451
 20
962.0764552059922
 30
0.0
 10
2079.41201030537
 20
962.1153391442712
 30
0.0
 10
2079.130205205593
 20
962.1655587786893
 30
0.0
 10
2078.855018006813
 20
962.228835405758
 30
0.0
 10
2078.589504128011
 20
962.3076062608809
 30
0.0
 10
2078.348658554324
 20
962.3981737988977
 30
0.0
 10
2078.132928417313
 20
962.5012930735929
 30
0.0
 10
2077.940741444598
 20
962.6145397439332
 30
0.0
 10
2077.827873825579
 20
962.7054637725954
 30
0.0
 10
2077.773506758067
 20
962.7492608584885
 30
0.0
  0
SPLINE
  5
B85
330
AD4
100
AcDbEntity
  8
0
  6
Continuous
 62
     7
370
    15
100
AcDbSpline
210
0.0
220
0.0
230
1.0
 70
     8
 71
     3
 72
    20
 73
    16
 74
     0
 42
0.0000000001
 43
0.0000000001
 40
0.0
 40
0.0
 40
0.0
 40
0.0
 40
0.0429160637858854
 40
0.085229447211114
 40
0.1270342615701776
 40
0.1684280870878856
 40
0.2095114326073784
 40
0.2503870973462787
 40
0.3765345168120724
 40
0.5004817269620804
 40
0.6255032801784428
 40
0.7501151685782813
 40
0.8329397163600853
 40
0.9158328780717468
 40
1.0
 40
1.0
 40
1.0
 40
1.0
 10
2083.994114685395
 20
964.438431674371
 30
0.0
 10
2083.971449200464
 20
964.3832581156733
 30
0.0
 10
2083.926436527331
 20
964.2736858135176
 30
0.0
 10
2083.852923641849
 20
964.1126523829187
 30
0.0
 10
2083.775659162059
 20
963.9557173505023
 30
0.0
 10
2083.694195141545
 20
963.8030193187548
 30
0.0
 10
2083.608638366872
 20
963.6545155535804
 30
0.0
 10
2083.45665285832
 20
963.4099087456963
 30
0.0
 10
2083.22244203371
 20
963.0860717783455
 30
0.0
 10
2082.884012236455
 20
962.72073133611
 30
0.0
 10
2082.520057764972
 20
962.4200588588827
 30
0.0
 10
2082.181357157038
 20
962.2212758320747
 30
0.0
 10
2081.884067877265
 20
962.1017765535198
 30
0.0
 10
2081.629715542667
 20
962.0351640014296
 30
0.0
 10
2081.465242696868
 20
962.023471810459
 30
0.0
 10
2081.382379159439
 20
962.017581134102
 30
0.0
  0
LINE
  5
B86
330
AD4
100
AcDbEntity
  8
0
  6
Continuous
 62
     7
370
    15
100
AcDbLine
 10
2083.994115524118
 20
964.4384287659493
 30
0.0
 11
2084.013465721216
 21
964.4870697651446
 31
0.0
  0
LINE
  5
B87
330
AD4
100
AcDbEntity
  8
0
  6
Continuous
 62
     7
370
    15
100
AcDbLine
 10
2084.021789242731
 20
963.0455530102333
 30
0.0
 11
2084.013465721216
 21
964.4870697651446
 31
0.0
  0
LINE
  5
B88
330
AD4
100
AcDbEntity
  8
0
  6
Continuous
 62
     7
370
    15
100
AcDbLine
 10
2083.655955389954
 20
962.36308284555
 30
0.0
 11
2084.021789242731
 21
963.0455530102333
 31
0.0
  0
ELLIPSE
  5
B89
330
AD4
100
AcDbEntity
  8
0
  6
Continuous
 62
     7
370
    15
100
AcDbEllipse
 10
2082.507837796901
 20
963.0224614636167
 30
0.0
 11
0.9104386716466319
 21
1.793541125728779
 31
0.0
210
0.0
220
0.0
230
1.0
 40
0.6577517571072168
 41
4.154838403903635
 42
4.678437179502187
  0
ARC
  5
B8A
330
AD4
100
AcDbEntity
  8
0
  6
Continuous
 62
     7
370
    15
100
AcDbCircle
 10
2087.137904485027
 20
966.3212561087052
 30
0.0
 40
4.6669988885741
100
AcDbArc
 50
162.6537222362885
 51
198.0079382707478
  0
SPLINE
  5
B8B
330
AD4
100
AcDbEntity
  8
0
  6
Continuous
 62
     7
370
    15
100
AcDbSpline
210
0.0
220
0.0
230
1.0
 70
     8
 71
     3
 72
    14
 73
    10
 74
     0
 42
0.0000000001
 43
0.0000000001
 40
0.0
 40
0.0
 40
0.0
 40
0.0
 40
0.25
 40
0.25
 40
0.5
 40
0.5
 40
0.75
 40
0.75
 40
1.0
 40
1.0
 40
1.0
 40
1.0
 10
2081.44819624985
 20
963.5133581248206
 30
0.0
 10
2081.577377352593
 20
963.5005212783188
 30
0.0
 10
2081.708256799249
 20
963.5229024662853
 30
0.0
 10
2081.967700178687
 20
963.641031548336
 30
0.0
 10
2082.089867352163
 20
963.733869806172
 30
0.0
 10
2082.314930643598
 20
963.983328316862
 30
0.0
 10
2082.413443885485
 20
964.1356582644082
 30
0.0
 10
2082.580239567228
 20
964.4828504971227
 30
0.0
 10
2082.646783671443
 20
964.6734714652668
 30
0.0
 10
2082.699525042872
 20
964.8784624181065
 30
0.0
  0
LINE
  5
B8C
330
AD4
100
AcDbEntity
  8
0
  6
Continuous
 62
     7
370
    15
100
AcDbLine
 10
2086.089991014802
 20
964.9550452403007
 30
0.0
 11
2085.951702803876
 21
965.002129786967
 31
0.0
  0
LINE
  5
B8D
330
AD4
100
AcDbEntity
  8
0
  6
Continuous
 62
     7
370
    15
100
AcDbLine
 10
2085.941596349398
 20
966.7524254326208
 30
0.0
 11
2085.951702803876
 21
965.002129786967
 31
0.0
  0
ARC
  5
B8E
330
AD4
100
AcDbEntity
  8
0
  6
Continuous
 62
     7
370
    15
100
AcDbCircle
 10
2087.850086656109
 20
941.3265986049694
 30
0.0
 40
0.7720395243332251
100
AcDbArc
 50
127.7663500008449
 51
189.4307557274933
  0
LINE
  5
B8F
330
AD4
100
AcDbEntity
  8
0
  6
Continuous
 62
     7
370
    15
100
AcDbLine
 10
2088.879708268686
 20
932.7019683245076
 30
0.0
 11
2087.088481749361
 21
941.2000956676489
 31
0.0
  0
LWPOLYLINE
  5
B90
330
AD4
100
AcDbEntity
  8
0
  6
Continuous
 62
     7
370
    15
100
AcDbPolyline
 90
        9
 70
   128
 43
0.0
 10
2089.173628377942
 20
932.5480747687494
 10
2089.124347664161
 20
932.5243056457841
 10
2089.076314563621
 20
932.5130697905958
 10
2089.030813410124
 20
932.5146693523501
 10
2088.989058223467
 20
932.5290577209187
 10
2088.952165527425
 20
932.555849762827
 10
2088.921120372219
 20
932.5943346161901
 10
2088.896751481524
 20
932.6434740132215
 10
2088.879708268686
 20
932.7019683245076
  0
LINE
  5
B91
330
AD4
100
AcDbEntity
  8
0
  6
Continuous
 62
     7
370
    15
100
AcDbLine
 10
2090.902301555615
 20
933.5911545089494
 30
0.0
 11
2089.173628377942
 21
932.5480747687494
 31
0.0
  0
LINE
  5
B92
330
AD4
100
AcDbEntity
  8
0
  6
Continuous
 62
     7
370
    15
100
AcDbLine
 10
2090.907871415357
 20
932.6265332094857
 30
0.0
 11
2090.902301555615
 21
933.5911545089494
 31
0.0
  0
LINE
  5
B93
330
AD4
100
AcDbEntity
  8
0
  6
Continuous
 62
     7
370
    15
100
AcDbLine
 10
2086.620370828732
 20
930.0394594608071
 30
0.0
 11
2090.907871415357
 21
932.6265332094857
 31
0.0
  0
LWPOLYLINE
  5
B94
330
AD4
100
AcDbEntity
  8
0
  6
Continuous
 62
     7
370
    15
100
AcDbPolyline
 90
        9
 70
   128
 43
0.0
 10
2085.705720081191
 20
930.8282748847441
 10
2085.724651912348
 20
930.5781375117794
 10
2085.77771053047
 20
930.3586412273951
 10
2085.862853645389
 20
930.1782298078746
 10
2085.976811428082
 20
930.0438205258327
 10
2086.115202992246
 20
929.9605947407441
 10
2086.272714188697
 20
929.9317389135181
 10
2086.443287879529
 20
929.9583729548569
 10
2086.620370828732
 20
930.0394594608071
  0
LINE
  5
B95
330
AD4
100
AcDbEntity
  8
0
  6
Continuous
 62
     7
370
    15
100
AcDbLine
 10
2085.695007194228
 20
932.6835960999328
 30
0.0
 11
2085.705720081191
 21
930.8282748847441
 31
0.0
  0
ARC
  5
B96
330
AD4
100
AcDbEntity
  8
0
  6
Continuous
 62
     7
370
    15
100
AcDbCircle
 10
2086.471069835546
 20
932.698498094407
 30
0.0
 40
0.7762057025611283
100
AcDbArc
 50
127.854011995761
 51
181.1000612933361
  0
LINE
  5
B97
330
AD4
100
AcDbEntity
  8
0
  6
Continuous
 62
     7
370
    15
100
AcDbLine
 10
2086.383137277745
 20
933.5457247292373
 30
0.0
 11
2085.994749925279
 21
933.3113721726405
 31
0.0
  0
ARC
  5
B98
330
AD4
100
AcDbEntity
  8
0
  6
Continuous
 62
     7
370
    15
100
AcDbCircle
 10
2086.488932918641
 20
933.4086624012815
 30
0.0
 40
0.1731438690140575
100
AcDbArc
 50
24.70056680696835
 51
127.663824787695
  0
LINE
  5
B99
330
AD4
100
AcDbEntity
  8
0
  6
Continuous
 62
     7
370
    15
100
AcDbLine
 10
2086.646234823776
 20
933.481015079309
 30
0.0
 11
2086.982729654859
 21
932.8349436843433
 31
0.0
  0
LWPOLYLINE
  5
B9A
330
AD4
100
AcDbEntity
  8
0
  6
Continuous
 62
     7
370
    15
100
AcDbPolyline
 90
       12
 70
   128
 43
0.0
 10
2086.990444214852
 20
931.498890492622
 10
2086.862529851266
 20
931.4488574170663
 10
2086.744667615933
 20
931.4570061643875
 10
2086.646404139521
 20
931.5226641926173
 10
2086.575701323135
 20
931.6405134339772
 10
2086.538282973451
 20
931.8010085006077
 10
2086.537185064722
 20
931.9911508371625
 10
2086.572496573076
 20
932.1955310304943
 10
2086.641352157642
 20
932.3975963367503
 10
2086.738177723084
 20
932.5809642466476
 10
2086.855127742334
 20
932.7307984835513
 10
2086.982729654859
 20
932.8349436843433
  0
LINE
  5
B9B
330
AD4
100
AcDbEntity
  8
0
  6
Continuous
 62
     7
370
    15
100
AcDbLine
 10
2086.990444214852
 20
931.498890492622
 30
0.0
 11
2087.746400026076
 21
931.9550335052857
 31
0.0
  0
ARC
  5
B9C
330
AD4
100
AcDbEntity
  8
0
  6
Continuous
 62
     7
370
    15
100
AcDbCircle
 10
2087.27357562993
 20
932.5653388638066
 30
0.0
 40
0.7720333802564645
100
AcDbArc
 50
307.7661663340811
 51
9.430583582121478
  0
LINE
  5
B9D
330
AD4
100
AcDbEntity
  8
0
  6
Continuous
 62
     7
370
    15
100
AcDbLine
 10
2086.338015370448
 20
940.7436822219041
 30
0.0
 11
2088.035174855714
 21
932.691838506159
 31
0.0
  0
ARC
  5
B9E
330
AD4
100
AcDbEntity
  8
0
  6
Continuous
 62
     7
370
    15
100
AcDbCircle
 10
2089.410993861617
 20
941.2289858589113
 30
0.0
 40
3.111063552433099
100
AcDbArc
 50
155.2390573083177
 51
188.9743822105907
  0
LWPOLYLINE
  5
B9F
330
AD4
100
AcDbEntity
  8
0
  6
Continuous
 62
     7
370
    15
100
AcDbPolyline
 90
        7
 70
   128
 43
0.0
 10
2090.467475460118
 20
944.8033209885613
 10
2090.568022358434
 20
944.7841448166204
 10
2090.660284890035
 20
944.7286640780461
 10
2090.736255981592
 20
944.6390596490761
 10
2090.793018096523
 20
944.5187787331283
 10
2090.828390483059
 20
944.3724523010503
 10
2090.841011678284
 20
944.2056984765857
  0
LINE
  5
BA0
330
AD4
100
AcDbEntity
  8
0
  6
Continuous
 62
     7
370
    15
100
AcDbLine
 10
2090.89277589838
 20
935.2408642480293
 30
0.0
 11
2090.841011678284
 21
944.2056984765857
 31
0.0
  0
LINE
  5
BA1
330
AD4
100
AcDbEntity
  8
0
  6
Continuous
 62
     7
370
    15
100
AcDbLine
 10
2090.469539479219
 20
934.9854837979572
 30
0.0
 11
2090.89277589838
 21
935.2408642480293
 31
0.0
  0
LWPOLYLINE
  5
BA2
330
AD4
100
AcDbEntity
  8
0
  6
Continuous
 62
     7
370
    15
100
AcDbPolyline
 90
        9
 70
   128
 43
0.0
 10
2090.469539479219
 20
934.9854837979572
 10
2090.410511104233
 20
934.9584500854309
 10
2090.353653945314
 20
934.9495747367717
 10
2090.301149487911
 20
934.9591884686374
 10
2090.255018202951
 20
934.9869321560584
 10
2090.217033764211
 20
935.0317383682236
 10
2090.188652725905
 20
935.0918755080639
 10
2090.170966532637
 20
935.1650387241029
 10
2090.164655935025
 20
935.2484156363352
  0
LINE
  5
BA3
330
AD4
100
AcDbEntity
  8
0
  6
Continuous
 62
     7
370
    15
100
AcDbLine
 10
2090.119063370585
 20
943.1444059842611
 30
0.0
 11
2090.164655935025
 21
935.2484156363352
 31
0.0
  0
LWPOLYLINE
  5
BA4
330
AD4
100
AcDbEntity
  8
0
  6
Continuous
 62
     7
370
    15
100
AcDbPolyline
 90
        9
 70
   128
 43
0.0
 10
2089.814179788072
 20
943.4073444589067
 10
2089.873208163059
 20
943.434378171433
 10
2089.930065321977
 20
943.4432535200922
 10
2089.982569817699
 20
943.4336331519588
 10
2090.028701102658
 20
943.405889464538
 10
2090.06668550308
 20
943.3610898886401
 10
2090.095066541386
 20
943.3009527488
 10
2090.112752772973
 20
943.2277828964934
 10
2090.119063370585
 20
943.1444059842611
  0
LINE
  5
BA5
330
AD4
100
AcDbEntity
  8
0
  6
Continuous
 62
     7
370
    15
100
AcDbLine
 10
2087.37725654068
 20
941.9369073047899
 30
0.0
 11
2089.814179788072
 21
943.4073444589067
 31
0.0
  0
ELLIPSE
  5
BA6
330
AD4
100
AcDbEntity
  8
0
  6
Continuous
 62
     7
370
    15
100
AcDbEllipse
 10
2084.702256453656
 20
962.5308006341183
 30
0.0
 11
0.6399667881162543
 21
1.409906176489585
 31
0.0
210
0.0
220
0.0
230
0.9999999999999998
 40
0.5415763015994062
 41
1.438824424563496
 42
1.449419325218495
  0
SPLINE
  5
BA7
330
AD4
100
AcDbEntity
  8
0
  6
Continuous
 62
     7
370
    15
100
AcDbSpline
210
0.0
220
0.0
230
1.0
 70
     8
 71
     3
 72
     8
 73
     4
 74
     0
 42
0.0000000001
 43
0.0000000001
 40
0.0
 40
0.0
 40
0.0
 40
0.0
 40
1.0
 40
1.0
 40
1.0
 40
1.0
 10
2084.297711584614
 20
963.4003156675653
 30
0.0
 10
2084.186725200525
 20
963.303734200401
 30
0.0
 10
2084.0995568742
 20
963.1887289977541
 30
0.0
 10
2084.029537128564
 20
963.0599060030622
 30
0.0
  0
SPLINE
  5
BA8
330
AD4
100
AcDbEntity
  8
0
  6
Continuous
 62
     7
370
    15
100
AcDbSpline
210
0.0
220
0.0
230
1.0
 70
     8
 71
     3
 72
    10
 73
     6
 74
     0
 42
0.0000000001
 43
0.0000000001
 40
0.0
 40
0.0
 40
0.0
 40
0.0
 40
0.5
 40
0.5
 40
1.0
 40
1.0
 40
1.0
 40
1.0
 10
2084.297711584614
 20
963.4003156675653
 30
0.0
 10
2084.437471089307
 20
963.5219357935305
 30
0.0
 10
2084.57634289457
 20
963.6378383666434
 30
0.0
 10
2084.847754846303
 20
963.8596960306083
 30
0.0
 10
2084.973346698795
 20
963.9598991645032
 30
0.0
 10
2085.084779178886
 20
964.0485214347119
 30
0.0
  0
ARC
  5
BA9
330
AD4
100
AcDbEntity
  8
0
  6
Continuous
 62
     7
370
    15
100
AcDbCircle
 10
2086.005338278861
 20
962.8968840346365
 30
0.0
 40
1.474344474945342
100
AcDbArc
 50
121.2632362597655
 51
128.6369344516495
  0
SPLINE
  5
BAA
330
AD4
100
AcDbEntity
  8
0
  6
Continuous
 62
     7
370
    15
100
AcDbSpline
210
0.0
220
0.0
230
1.0
 70
     8
 71
     3
 72
     8
 73
     4
 74
     0
 42
0.0000000001
 43
0.0000000001
 40
0.0
 40
0.0
 40
0.0
 40
0.0
 40
1.0
 40
1.0
 40
1.0
 40
1.0
 10
2082.706573231842
 20
967.6910290597886
 30
0.0
 10
2082.698806010539
 20
967.6982779708284
 30
0.0
 10
2082.691001131694
 20
967.7055032513338
 30
0.0
 10
2082.683159721658
 20
967.7127056754766
 30
0.0
  0
ARC
  5
BAB
330
AD4
100
AcDbEntity
  8
0
  6
Continuous
 62
     7
370
    15
100
AcDbCircle
 10
2089.469017532017
 20
983.1342932785899
 30
0.0
 40
19.42889575659699
100
AcDbArc
 50
249.6816463172947
 51
253.6922953155694
  0
SPLINE
  5
BAC
330
AD4
100
AcDbEntity
  8
0
  6
Continuous
 62
     7
370
    15
100
AcDbSpline
210
0.0
220
0.0
230
1.0
 70
     8
 71
     3
 72
    12
 73
     8
 74
     0
 42
0.0000000001
 43
0.0000000001
 40
0.0
 40
0.0
 40
0.0
 40
0.0
 40
0.4999999999999913
 40
0.4999999999999913
 40
0.7499999999999957
 40
0.7499999999999957
 40
1.0
 40
1.0
 40
1.0
 40
1.0
 10
2082.72260711045
 20
964.9143086349058
 30
0.0
 10
2082.908915949085
 20
965.2049783643761
 30
0.0
 10
2083.101277114479
 20
965.4841321209895
 30
0.0
 10
2083.357644204379
 20
965.8871257851931
 30
0.0
 10
2083.438019044984
 20
966.0198861691785
 30
0.0
 10
2083.55878659239
 20
966.2776799353967
 30
0.0
 10
2083.598127754197
 20
966.4050179745911
 30
0.0
 10
2083.597470136762
 20
966.5246365753867
 30
0.0
  0
SPLINE
  5
BAD
330
AD4
100
AcDbEntity
  8
0
  6
Continuous
 62
     7
370
    15
100
AcDbSpline
210
0.0
220
0.0
230
1.0
 70
     8
 71
     3
 72
    10
 73
     6
 74
     0
 42
0.0000000001
 43
0.0000000001
 40
0.0
 40
0.0
 40
0.0
 40
0.0
 40
0.5
 40
0.5
 40
1.0
 40
1.0
 40
1.0
 40
1.0
 10
2083.597469834566
 20
966.524636534103
 30
0.0
 10
2083.596148224611
 20
966.7650333459194
 30
0.0
 10
2083.43771174602
 20
966.9640798126057
 30
0.0
 10
2083.090777765656
 20
967.3374420199309
 30
0.0
 10
2082.895735886867
 20
967.5144893117462
 30
0.0
 10
2082.706573231842
 20
967.6910290597886
 30
0.0
  0
ARC
  5
BAE
330
AD4
100
AcDbEntity
  8
0
  6
Continuous
 62
     7
370
    15
100
AcDbCircle
 10
2080.332633629117
 20
944.3199975450072
 30
0.0
 40
3.111063552432884
100
AcDbArc
 50
155.2390573083177
 51
188.9743822105907
  0
LINE
  5
BAF
330
AD4
100
AcDbEntity
  8
0
  6
Continuous
 62
     7
370
    15
100
AcDbLine
 10
2077.259655137948
 20
943.8346939079998
 30
0.0
 11
2086.338015370448
 21
940.7436822219041
 31
0.0
  0
ARC
  5
BB0
330
AD4
100
AcDbEntity
  8
0
  6
Continuous
 62
     7
370
    15
100
AcDbCircle
 10
2089.994901724599
 20
984.2174230838786
 30
0.0
 40
20.66925376622419
100
AcDbArc
 50
249.3316573816003
 51
253.1226288632858
  0
SPLINE
  5
BB1
330
AD4
100
AcDbEntity
  8
0
  6
Continuous
 62
     7
370
    15
100
AcDbSpline
210
0.0
220
0.0
230
1.0
 70
     8
 71
     3
 72
     8
 73
     4
 74
     0
 42
0.0000000001
 43
0.0000000001
 40
0.0
 40
0.0
 40
0.0
 40
0.0
 40
1.0
 40
1.0
 40
1.0
 40
1.0
 10
2082.699525042872
 20
964.8784624181065
 30
0.0
 10
2082.707255849103
 20
964.8904150161108
 30
0.0
 10
2082.714950014313
 20
964.9023637787339
 30
0.0
 10
2082.722606406608
 20
964.9143088914344
 30
0.0
  0
LINE
  5
BB2
330
AD4
100
AcDbEntity
  8
0
  6
Continuous
 62
     7
370
    15
100
AcDbLine
 10
2085.579883809648
 20
964.3621088192588
 30
0.0
 11
2085.240196631402
 21
964.1571419011562
 31
0.0
  0
LINE
  5
BB3
330
AD4
100
AcDbEntity
  8
0
  6
Continuous
 62
     7
370
    15
100
AcDbLine
 10
2085.579883809648
 20
964.3621088192588
 30
0.0
 11
2086.094427757489
 21
964.1869162387648
 31
0.0
  0
LINE
  5
BB4
330
AD4
100
AcDbEntity
  8
0
  6
Continuous
 62
     7
370
    15
100
AcDbLine
 10
2085.951702803876
 20
965.002129786967
 30
0.0
 11
2085.579883809648
 21
964.3621088192588
 31
0.0
  0
LINE
  5
BB5
330
AD4
100
AcDbEntity
  8
0
  6
Continuous
 62
     7
370
    15
100
AcDbLine
 10
2079.00898480599
 20
937.289154875487
 30
0.0
 11
2079.269885006769
 21
936.0513598986356
 31
0.0
  0
LINE
  5
BB6
330
AD4
100
AcDbEntity
  8
0
  6
Continuous
 62
     7
370
    15
100
AcDbLine
 10
2079.00898480599
 20
937.289154875487
 30
0.0
 11
2078.610736359566
 21
937.4247510151356
 31
0.0
  0
LINE
  5
BB7
330
AD4
100
AcDbEntity
  8
0
  6
Continuous
 62
     7
370
    15
100
AcDbLine
 10
2077.259655137948
 20
943.8346939079998
 30
0.0
 11
2078.610736359566
 21
937.4247510151356
 31
0.0
  0
LWPOLYLINE
  5
BB8
330
AD4
100
AcDbEntity
  8
0
  6
Continuous
 62
     7
370
    15
100
AcDbPolyline
 90
       13
 70
   128
 43
0.0
 10
2101.776600305344
 20
988.8015321454574
 10
2102.038869220804
 20
988.6639569323596
 10
2102.28167374221
 20
988.4964270366793
 10
2102.471717316488
 20
988.3152039060476
 10
2102.605470134901
 20
988.1236581518392
 10
2102.680441296583
 20
987.9253559599328
 10
2102.695236095986
 20
987.7239872328551
 10
2102.64957235478
 20
987.5233026272917
 10
2102.544308384521
 20
987.3270352043283
 10
2102.381403159327
 20
987.1388371884503
 10
2102.163881296706
 20
986.9622140264588
 10
2101.895796652437
 20
986.8004520087984
 10
2101.788464663835
 20
986.7467449920033
  0
LINE
  5
BB9
330
AD4
100
AcDbEntity
  8
0
  6
Continuous
 62
     7
370
    15
100
AcDbLine
 10
2101.774831820061
 20
989.1082518833007
 30
0.0
 11
2106.334265880605
 21
987.5558499514326
 31
0.0
  0
LINE
  5
BBA
330
AD4
100
AcDbEntity
  8
0
  6
Continuous
 62
     7
370
    15
100
AcDbLine
 10
2106.286538329717
 20
995.8215898978036
 30
0.0
 11
2097.050573569655
 21
998.9662629747231
 31
0.0
  0
LINE
  5
BBB
330
AD4
100
AcDbEntity
  8
0
  6
Continuous
 62
     7
370
    15
100
AcDbLine
 10
2097.650053195854
 20
1000.221798279983
 30
0.0
 11
2106.886017955915
 21
997.077125203064
 31
0.0
  0
ARC
  5
BBC
330
AD4
100
AcDbEntity
  8
0
  6
Continuous
 62
     7
370
    15
100
AcDbCircle
 10
2098.602659844678
 20
998.9960735761105
 30
0.0
 40
1.552372531665495
100
AcDbArc
 50
127.8535764791089
 51
181.1003329440734
  0
LINE
  5
BBD
330
AD4
100
AcDbEntity
  8
0
  6
Continuous
 62
     7
370
    15
100
AcDbLine
 10
2097.050573569655
 20
998.9662629747231
 30
0.0
 11
2097.072526724492
 21
995.1642855946737
 31
0.0
  0
LWPOLYLINE
  5
BBE
330
AD4
100
AcDbEntity
  8
0
  6
Continuous
 62
     7
370
    15
100
AcDbPolyline
 90
       28
 70
   128
 43
0.0
 10
2110.911880067747
 20
1001.326883829733
 10
2110.907566301194
 20
1001.234598199561
 10
2110.85349133493
 20
1001.002360837169
 10
2110.738290376934
 20
1000.774499420614
 10
2110.563650515846
 20
1000.554334079393
 10
2110.332111259442
 20
1000.345077545562
 10
2110.047055580594
 20
1000.149779339009
 10
2109.712637818798
 20
999.9712878646247
 10
2109.333736797236
 20
999.8122053192295
 10
2108.915871503661
 20
999.674853617452
 10
2108.465142233179
 20
999.5612332760227
 10
2107.988114252769
 20
999.4730036289229
 10
2107.491751747327
 20
999.4114485718073
 10
2106.983284055242
 20
999.3774686658191
 10
2106.470136007455
 20
999.3715559081961
 10
2105.959780499815
 20
999.3937999969878
 10
2105.459667811886
 20
999.4438736886788
 10
2104.977085011466
 20
999.5210487867408
 10
2104.519069300764
 20
999.6241998679844
 10
2104.092305402978
 20
999.75182078417
 10
2103.703012782837
 20
999.9020518334083
 10
2103.356864417559
 20
1000.072703563767
 10
2103.058919667087
 20
1000.261283483058
 10
2102.813505613806
 20
1000.465047688339
 10
2102.624218791981
 20
1000.681018713409
 10
2102.493804139246
 20
1000.906052521211
 10
2102.42417690504
 20
1001.136862925998
 10
2102.412025311686
 20
1001.277803163358
  0
LINE
  5
BBF
330
AD4
100
AcDbEntity
  8
0
  6
Continuous
 62
     7
370
    15
100
AcDbLine
 10
2106.525463426005
 20
1005.577212314634
 30
0.0
 11
2105.643419065058
 21
1005.044987591797
 31
0.0
  0
LINE
  5
BC0
330
AD4
100
AcDbEntity
  8
0
  6
Continuous
 62
     7
370
    15
100
AcDbLine
 10
2102.401568700086
 20
1003.088858185652
 30
0.0
 11
2097.650053195854
 21
1000.221798279983
 31
0.0
  0
ARC
  5
BC1
330
AD4
100
AcDbEntity
  8
0
  6
Continuous
 62
     7
370
    15
100
AcDbCircle
 10
2100.902140121791
 20
985.5007201613664
 30
0.0
 40
2.207269289643045
100
AcDbArc
 50
47.91710413469224
 51
66.4521777588436
  0
ARC
  5
BC2
330
AD4
100
AcDbEntity
  8
0
  6
Continuous
 62
     7
370
    15
100
AcDbCircle
 10
2077.392709603046
 20
935.7895097805029
 30
0.0
 40
0.776205702560902
100
AcDbArc
 50
127.8540119957467
 51
181.1000612933426
  0
LINE
  5
BC3
330
AD4
100
AcDbEntity
  8
0
  6
Continuous
 62
     7
370
    15
100
AcDbLine
 10
2076.916389692779
 20
936.4023838587364
 30
0.0
 11
2085.994749925279
 21
933.3113721726405
 31
0.0
  0
LINE
  5
BC4
330
AD4
100
AcDbEntity
  8
0
  6
Continuous
 62
     7
370
    15
100
AcDbLine
 10
2085.695007194228
 20
932.6835960999328
 30
0.0
 11
2076.616646961728
 21
935.7746077860285
 31
0.0
  0
LINE
  5
BC5
330
AD4
100
AcDbEntity
  8
0
  6
Continuous
 62
     7
370
    15
100
AcDbLine
 10
2076.616646961728
 20
935.7746077860285
 30
0.0
 11
2076.627359848691
 21
933.9192865708398
 31
0.0
  0
LINE
  5
BC6
330
AD4
100
AcDbEntity
  8
0
  6
Continuous
 62
     7
370
    15
100
AcDbLine
 10
2085.705720081191
 20
930.8282748847441
 30
0.0
 11
2076.627359848691
 21
933.9192865708398
 31
0.0
  0
LINE
  5
BC7
330
AD4
100
AcDbEntity
  8
0
  6
Continuous
 62
     7
370
    15
100
AcDbLine
 10
2078.610736359566
 20
937.4247510151356
 30
0.0
 11
2076.916389692779
 21
936.4023838587364
 31
0.0
  0
LINE
  5
BC8
330
AD4
100
AcDbEntity
  8
0
  6
Continuous
 62
     7
370
    15
100
AcDbLine
 10
2077.703025491669
 20
936.5011402756843
 30
0.0
 11
2079.00898480599
 21
937.289154875487
 31
0.0
  0
LINE
  5
BC9
330
AD4
100
AcDbEntity
  8
0
  6
Continuous
 62
     7
370
    15
100
AcDbLine
 10
2086.383137277745
 20
933.5457247292373
 30
0.0
 11
2077.703025491669
 21
936.5011402756843
 31
0.0
  0
ARC
  5
BCA
330
AD4
100
AcDbEntity
  8
0
  6
Continuous
 62
     7
370
    15
100
AcDbCircle
 10
2077.813801596369
 20
936.3458348825467
 30
0.0
 40
0.1907645420673644
100
AcDbArc
 50
73.88480273329226
 51
125.4994729089865
  0
LWPOLYLINE
  5
BCB
330
AD4
100
AcDbEntity
  8
0
  6
Continuous
 62
     7
370
    15
100
AcDbPolyline
 90
       53
 70
   128
 43
0.0
 10
2109.220799494689
 20
1004.723344613965
 10
2109.610092044442
 20
1004.573113522255
 10
2109.956240339333
 20
1004.402461749425
 10
2110.25419123532
 20
1004.213879937013
 10
2110.499599213473
 20
1004.010117667324
 10
2110.688892004844
 20
1003.794144642954
 10
2110.81930065284
 20
1003.569112813216
 10
2110.888933953374
 20
1003.338300467528
 10
2110.896765894214
 20
1003.105076649731
 10
2110.842690927949
 20
1002.87283928734
 10
2110.727489969953
 20
1002.644977870785
 10
2110.552850108865
 20
1002.424812529564
 10
2110.321310852461
 20
1002.215555995732
 10
2110.036255173614
 20
1002.020257789179
 10
2109.701837411818
 20
1001.841766314795
 10
2109.322936390256
 20
1001.682683769399
 10
2108.905071096681
 20
1001.545332067622
 10
2108.454341826199
 20
1001.431711726193
 10
2107.977313845789
 20
1001.343482079093
 10
2107.480951340347
 20
1001.281927021977
 10
2106.972483648262
 20
1001.247947115989
 10
2106.459335600474
 20
1001.242034358366
 10
2105.948980092834
 20
1001.264278447158
 10
2105.448867404906
 20
1001.314352138849
 10
2104.966284604486
 20
1001.391527236911
 10
2104.508268893784
 20
1001.494678318154
 10
2104.081504995997
 20
1001.62229923434
 10
2103.692212375857
 20
1001.772530283578
 10
2103.346064010578
 20
1001.943182013937
 10
2103.048119260106
 20
1002.131761933228
 10
2102.802705206825
 20
1002.335526138509
 10
2102.613418385
 20
1002.55149716358
 10
2102.483003732265
 20
1002.776530971382
 10
2102.41337649806
 20
1003.007341376169
 10
2102.405538631666
 20
1003.24056721981
 10
2102.459619391508
 20
1003.472802476722
 10
2102.574814450345
 20
1003.700665935049
 10
2102.74945438182
 20
1003.920831318741
 10
2102.980993567837
 20
1004.130087810102
 10
2103.266049387459
 20
1004.325386101598
 10
2103.600467008481
 20
1004.503877491039
 10
2103.97936810043
 20
1004.662960078906
 10
2104.397233323618
 20
1004.800311738212
 10
2104.847968493258
 20
1004.913930037869
 10
2105.324990680091
 20
1005.002161790448
 10
2105.821359111087
 20
1005.063714821719
 10
2106.329820736843
 20
1005.097696668609
 10
2106.84297478937
 20
1005.103607448168
 10
2107.353324327464
 20
1005.081365358676
 10
2107.85344309052
 20
1005.031289731392
 10
2108.336019745426
 20
1004.954116526451
 10
2108.794035526515
 20
1004.850965487679
 10
2109.220799494689
 20
1004.723344613965
  0
LWPOLYLINE
  5
BCC
330
AD4
100
AcDbEntity
  8
0
  6
Continuous
 62
     7
370
    15
100
AcDbPolyline
 90
       43
 70
   128
 43
0.0
 10
2108.34409640866
 20
1004.1943428113
 10
2108.657582485822
 20
1004.069758968557
 10
2108.926243635429
 20
1003.925140657978
 10
2109.144085760472
 20
1003.763715858152
 10
2109.30623648693
 20
1003.589092524371
 10
2109.409083517682
 20
1003.405168430384
 10
2109.450316976011
 20
1003.216055894698
 10
2109.429024357276
 20
1003.025976636091
 10
2109.34567448261
 20
1002.839179274154
 10
2109.202137243147
 20
1002.659833615252
 10
2109.001618032727
 20
1002.491946278737
 10
2108.748590231571
 20
1002.339269545795
 10
2108.448706226758
 20
1002.205214061375
 10
2108.108670714962
 20
1002.092772385189
 10
2107.736080440315
 20
1002.004455897594
 10
2107.339250282064
 20
1001.942240272921
 10
2106.927051822607
 20
1001.907512882127
 10
2106.508684535195
 20
1001.901052355356
 10
2106.093505972387
 20
1001.922998934958
 10
2105.690781017448
 20
1001.972865612251
 10
2105.309511918646
 20
1002.049536394107
 10
2104.958208192007
 20
1002.151301103367
 10
2104.64472797441
 20
1002.275882880448
 10
2104.376060878352
 20
1002.420503204263
 10
2104.158218747811
 20
1002.581928000771
 10
2103.996067915771
 20
1002.756551270844
 10
2103.893226977744
 20
1002.940473439857
 10
2103.851987514675
 20
1003.129587953607
 10
2103.873279992635
 20
1003.319667127271
 10
2103.956629937688
 20
1003.50646453168
 10
2104.100167177151
 20
1003.685810190581
 10
2104.300686387572
 20
1003.853697527096
 10
2104.553714188727
 20
1004.006374260039
 10
2104.853598193541
 20
1004.140429744459
 10
2105.193633705336
 20
1004.252871420645
 10
2105.566223909596
 20
1004.341187865768
 10
2105.963054208622
 20
1004.403403575384
 10
2106.375258672819
 20
1004.438128988115
 10
2106.793619867507
 20
1004.44459143986
 10
2107.208798535896
 20
1004.422644923965
 10
2107.611523496333
 20
1004.37277824999
 10
2107.992798541586
 20
1004.296105454898
 10
2108.34409640866
 20
1004.1943428113
  0
LINE
  5
BCD
330
AD4
100
AcDbEntity
  8
0
  6
Continuous
 62
     7
370
    15
100
AcDbLine
 10
2114.813263143661
 20
952.2562732886695
 30
0.0
 11
2093.627272328464
 21
939.47266005702
 31
0.0
  0
ARC
  5
BCE
330
AD4
100
AcDbEntity
  8
0
  6
Continuous
 62
     7
370
    15
100
AcDbCircle
 10
2094.103566581448
 20
938.8598025645334
 30
0.0
 40
0.7761768622698956
100
AcDbArc
 50
127.8532678719991
 51
181.1006862427876
  0
LINE
  5
BCF
330
AD4
100
AcDbEntity
  8
0
  6
Continuous
 62
     7
370
    15
100
AcDbLine
 10
2093.327532937689
 20
938.8448926592198
 30
0.0
 11
2093.338753479818
 21
936.9012612732481
 31
0.0
  0
ARC
  5
BD0
330
AD4
100
AcDbEntity
  8
0
  6
Continuous
 62
     7
370
    15
100
AcDbCircle
 10
2092.514536702989
 20
936.9053897198382
 30
0.0
 40
0.8242271163201253
100
AcDbArc
 50
342.2521751626343
 51
359.7130116809044
  0
LINE
  5
BD1
330
AD4
100
AcDbEntity
  8
0
  6
Continuous
 62
     7
370
    15
100
AcDbLine
 10
2093.299536685392
 20
936.6541420991433
 30
0.0
 11
2092.563597546967
 21
934.2975538819644
 31
0.0
  0
ARC
  5
BD2
330
AD4
100
AcDbEntity
  8
0
  6
Continuous
 62
     7
370
    15
100
AcDbCircle
 10
2091.232668602806
 20
934.6495017716643
 30
0.0
 40
1.376676858042054
100
AcDbArc
 50
306.0356230615723
 51
345.1878764789535
  0
LINE
  5
BD3
330
AD4
100
AcDbEntity
  8
0
  6
Continuous
 62
     7
370
    15
100
AcDbLine
 10
2092.04255126639
 20
933.5362501187594
 30
0.0
 11
2090.935123742473
 21
932.8680294111922
 31
0.0
  0
LINE
  5
BD4
330
AD4
100
AcDbEntity
  8
0
  6
Continuous
 62
     7
370
    15
100
AcDbLine
 10
2090.935123742473
 20
932.8680294111922
 30
0.0
 11
2090.869549790945
 21
944.2245147221603
 31
0.0
  0
LWPOLYLINE
  5
BD5
330
AD4
100
AcDbEntity
  8
0
  6
Continuous
 62
     7
370
    15
100
AcDbPolyline
 90
        8
 70
   128
 43
0.0
 10
2090.869549790945
 20
944.2245147221603
 10
2090.860832271278
 20
944.3665669232116
 10
2090.836592005688
 20
944.4955967096749
 10
2090.79742828377
 20
944.6084162379804
 10
2090.744313411475
 20
944.7022159082195
 10
2090.678564954313
 20
944.774674144106
 10
2090.601811606542
 20
944.8239967329827
 10
2090.540440301808
 20
944.844555742542
  0
LINE
  5
BD6
330
AD4
100
AcDbEntity
  8
0
  6
Continuous
 62
     7
370
    15
100
AcDbLine
 10
2121.772586287235
 20
963.6900027253053
 30
0.0
 11
2121.84158490011
 21
951.7404142786087
 31
0.0
  0
ARC
  5
BD7
330
AD4
100
AcDbEntity
  8
0
  6
Continuous
 62
     7
370
    15
100
AcDbCircle
 10
2121.065552094621
 20
951.7255041640964
 30
0.0
 40
0.7761760281725952
100
AcDbArc
 50
307.8531320660643
 51
1.100702871233604
  0
LINE
  5
BD8
330
AD4
100
AcDbEntity
  8
0
  6
Continuous
 62
     7
370
    15
100
AcDbLine
 10
2121.541844383137
 20
951.1126462012617
 30
0.0
 11
2116.052450795788
 21
947.8003513667609
 31
0.0
  0
LWPOLYLINE
  5
BD9
330
AD4
100
AcDbEntity
  8
0
  6
Continuous
 62
     7
370
    15
100
AcDbPolyline
 90
        9
 70
   128
 43
0.0
 10
2116.052450795788
 20
947.8003513667609
 10
2115.93439629821
 20
947.7462853008018
 10
2115.820680854175
 20
947.7285339239367
 10
2115.715674716545
 20
947.7477697228025
 10
2115.623412709724
 20
947.8032574374177
 10
2115.547441055068
 20
947.8928615266143
 10
2115.490678978456
 20
948.0131358062946
 10
2115.455307718118
 20
948.1594629179191
 10
2115.442684795278
 20
948.3262223593314
  0
LINE
  5
BDA
330
AD4
100
AcDbEntity
  8
0
  6
Continuous
 62
     7
370
    15
100
AcDbLine
 10
2115.442684795278
 20
948.3262223593314
 30
0.0
 11
2115.423028619392
 21
951.7303953200581
 31
0.0
  0
LWPOLYLINE
  5
BDB
330
AD4
100
AcDbEntity
  8
0
  6
Continuous
 62
     7
370
    15
100
AcDbPolyline
 90
        9
 70
   128
 43
0.0
 10
2115.423028619392
 20
951.7303953200581
 10
2115.410407987265
 20
951.8971494842963
 10
2115.375036688609
 20
952.0434832321884
 10
2115.318274048897
 20
952.1637571720953
 10
2115.242302394241
 20
952.2533612612919
 10
2115.150040387421
 20
952.308848975907
 10
2115.045033686692
 20
952.3280844349997
 10
2114.931317679558
 20
952.310332718361
 10
2114.813263143661
 20
952.2562732886695
  0
ARC
  5
BDC
330
AD4
100
AcDbEntity
  8
0
  6
Continuous
 62
     7
370
    15
100
AcDbCircle
 10
2077.44697777271
 20
933.7779006718996
 30
0.0
 40
0.8317232194619069
100
AcDbArc
 50
170.21267366317
 51
241.5560344631826
  0
LINE
  5
BDD
330
AD4
100
AcDbEntity
  8
0
  6
Continuous
 62
     7
370
    15
100
AcDbLine
 10
2090.906419280548
 20
932.8778027430475
 30
0.0
 11
2090.935123742473
 21
932.8680294111922
 31
0.0
  0
LINE
  5
BDE
330
AD4
100
AcDbEntity
  8
0
  6
Continuous
 62
     7
370
    15
100
AcDbLine
 10
2089.73122058349
 20
935.1531551235931
 30
0.0
 11
2089.737950696561
 21
933.9875942803439
 31
0.0
  0
LINE
  5
BDF
330
AD4
100
AcDbEntity
  8
0
  6
Continuous
 62
     7
370
    15
100
AcDbLine
 10
2089.700232799477
 20
934.0004369336762
 30
0.0
 11
2089.693503812603
 21
935.1659984564719
 31
0.0
  0
LINE
  5
BE0
330
AD4
100
AcDbEntity
  8
0
  6
Continuous
 62
     7
370
    15
100
AcDbLine
 10
2114.25208274172
 20
948.6607748905258
 30
0.0
 11
2113.481759461249
 21
948.1959625606757
 31
0.0
  0
ARC
  5
BE1
330
AD4
100
AcDbEntity
  8
0
  6
Continuous
 62
     7
370
    15
100
AcDbCircle
 10
2113.254242878426
 20
948.5295520932949
 30
0.0
 40
0.4037892664899418
100
AcDbArc
 50
259.2257187695461
 51
304.2949868061126
  0
LINE
  5
BE2
330
AD4
100
AcDbEntity
  8
0
  6
Continuous
 62
     7
370
    15
100
AcDbLine
 10
2113.178758363803
 20
948.1328811216009
 30
0.0
 11
2112.45489903081
 21
948.31089322627
 31
0.0
  0
ARC
  5
BE3
330
AD4
100
AcDbEntity
  8
0
  6
Continuous
 62
     7
370
    15
100
AcDbCircle
 10
2112.663896516298
 20
948.7825952605279
 30
0.0
 40
0.5159290242497753
100
AcDbArc
 50
174.4989338755689
 51
246.1032575249515
  0
ARC
  5
BE4
330
AD4
100
AcDbEntity
  8
0
  6
Continuous
 62
     7
370
    15
100
AcDbCircle
 10
2113.910078479957
 20
948.7334171582794
 30
0.0
 40
1.762497089809693
100
AcDbArc
 50
146.1230847451124
 51
176.7917943141775
  0
LINE
  5
BE5
330
AD4
100
AcDbEntity
  8
0
  6
Continuous
 62
     7
370
    15
100
AcDbLine
 10
2112.446788296568
 20
949.7158518028161
 30
0.0
 11
2112.887229494828
 21
950.3593807599314
 31
0.0
  0
LINE
  5
BE6
330
AD4
100
AcDbEntity
  8
0
  6
Continuous
 62
     7
370
    15
100
AcDbLine
 10
2112.887229494828
 20
950.3593807599314
 30
0.0
 11
2113.954568804205
 21
951.282034453605
 31
0.0
  0
LINE
  5
BE7
330
AD4
100
AcDbEntity
  8
0
  6
Continuous
 62
     7
370
    15
100
AcDbLine
 10
2113.954568804205
 20
951.282034453605
 30
0.0
 11
2113.951944391564
 21
951.7365457787581
 31
0.0
  0
LWPOLYLINE
  5
BE8
330
AD4
100
AcDbEntity
  8
0
  6
Continuous
 62
     7
370
    15
100
AcDbPolyline
 90
        9
 70
   128
 43
0.0
 10
2104.617600930115
 20
946.1042118717724
 10
2104.627454150849
 20
946.0987364435942
 10
2104.643806194216
 20
946.0830245377552
 10
2104.656495411499
 20
946.0609203898727
 10
2104.665034325387
 20
946.033275271511
 10
2104.669094727245
 20
946.0011497664158
 10
2104.668520576755
 20
945.9657815978085
 10
2104.663334016092
 20
945.9285226634454
 10
2104.653734115454
 20
945.8908116411144
  0
LINE
  5
BE9
330
AD4
100
AcDbEntity
  8
0
  6
Continuous
 62
     7
370
    15
100
AcDbLine
 10
2104.653734115454
 20
945.8908116411144
 30
0.0
 11
2104.392738569158
 21
945.0550617493341
 31
0.0
  0
ARC
  5
BEA
330
AD4
100
AcDbEntity
  8
0
  6
Continuous
 62
     7
370
    15
100
AcDbCircle
 10
2103.061770247122
 20
945.4070464883102
 30
0.0
 40
1.376724348130764
100
AcDbArc
 50
306.036166385074
 51
345.1868128287858
  0
LINE
  5
BEB
330
AD4
100
AcDbEntity
  8
0
  6
Continuous
 62
     7
370
    15
100
AcDbLine
 10
2103.871691405613
 20
944.2937641127365
 30
0.0
 11
2102.180493588053
 21
943.2732969689459
 31
0.0
  0
ARC
  5
BEC
330
AD4
100
AcDbEntity
  8
0
  6
Continuous
 62
     7
370
    15
100
AcDbCircle
 10
2101.967869565242
 20
943.5541130466971
 30
0.0
 40
0.3522309534950295
100
AcDbArc
 50
232.0906138222105
 51
307.131720121843
  0
LINE
  5
BED
330
AD4
100
AcDbEntity
  8
0
  6
Continuous
 62
     7
370
    15
100
AcDbLine
 10
2101.751453774374
 20
943.2762086565501
 30
0.0
 11
2101.298614158829
 21
943.6667469240987
 31
0.0
  0
LWPOLYLINE
  5
BEE
330
AD4
100
AcDbEntity
  8
0
  6
Continuous
 62
     7
370
    15
100
AcDbPolyline
 90
        3
 70
   128
 43
0.0
 10
2101.298614158829
 20
943.6667469240987
 10
2101.07709852558
 20
943.8276160597945
 10
2100.95445993434
 20
943.8938761023873
  0
LINE
  5
BEF
330
AD4
100
AcDbEntity
  8
0
  6
Continuous
 62
     7
370
    15
100
AcDbLine
 10
2088.742746466023
 20
934.6186495541763
 30
0.0
 11
2088.505843988204
 21
934.475702825895
 31
0.0
  0
LINE
  5
BF0
330
AD4
100
AcDbEntity
  8
0
  6
Continuous
 62
     7
370
    15
100
AcDbLine
 10
2088.521421622212
 20
934.4017995493382
 30
0.0
 11
2090.902301555615
 21
933.5911545089494
 31
0.0
  0
LINE
  5
BF1
330
AD4
100
AcDbEntity
  8
0
  6
Continuous
 62
     7
370
    15
100
AcDbLine
 10
2088.744434154317
 20
934.3258684770473
 30
0.0
 11
2088.737705167444
 21
935.491429999843
 31
0.0
  0
ARC
  5
BF2
330
AD4
100
AcDbEntity
  8
0
  6
Continuous
 62
     7
370
    15
100
AcDbCircle
 10
2106.748774225168
 20
1005.256333843331
 30
0.0
 40
0.3909356806023902
100
AcDbArc
 50
74.55013392764858
 51
124.835436746399
  0
LINE
  5
BF3
330
AD4
100
AcDbEntity
  8
0
  6
Continuous
 62
     7
370
    15
100
AcDbLine
 10
2117.651474327883
 20
999.265149152216
 30
0.0
 11
2117.634849365515
 21
999.2324191384346
 31
0.0
  0
LINE
  5
BF4
330
AD4
100
AcDbEntity
  8
0
  6
Continuous
 62
     7
370
    15
100
AcDbLine
 10
2119.483296120648
 20
998.6414481287633
 30
0.0
 11
2117.651474327883
 21
999.265149152216
 31
0.0
  0
LWPOLYLINE
  5
BF5
330
AD4
100
AcDbEntity
  8
0
  6
Continuous
 62
     7
370
    15
100
AcDbPolyline
 90
        8
 70
   128
 43
0.0
 10
2118.232195457375
 20
999.6892418649956
 10
2118.16139136139
 20
999.7017184166951
 10
2118.074338808763
 20
999.6900463413089
 10
2117.983763779248
 20
999.6511495695999
 10
2117.892956901504
 20
999.5864476156842
 10
2117.80521926381
 20
999.4982886303816
 10
2117.723738513147
 20
999.3898779692106
 10
2117.651474327883
 20
999.265149152216
  0
LINE
  5
BF6
330
AD4
100
AcDbEntity
  8
0
  6
Continuous
 62
     7
370
    15
100
AcDbLine
 10
2101.751453774374
 20
943.2762086565501
 30
0.0
 11
2100.795655129215
 21
943.6016401999211
 31
0.0
  0
LINE
  5
BF7
330
AD4
100
AcDbEntity
  8
0
  6
Continuous
 62
     7
370
    15
100
AcDbLine
 10
2100.795655129215
 20
943.6016401999211
 30
0.0
 11
2100.66165665692
 21
943.7172043286
 31
0.0
  0
ARC
  5
BF8
330
AD4
100
AcDbEntity
  8
0
  6
Continuous
 62
     7
370
    15
100
AcDbCircle
 10
2100.995795349325
 20
943.8300707575814
 30
0.0
 40
0.3037048359488302
100
AcDbArc
 50
228.7766661071104
 51
251.0642452276106
  0
LINE
  5
BF9
330
AD4
100
AcDbEntity
  8
0
  6
Continuous
 62
     7
370
    15
100
AcDbLine
 10
2111.19454500199
 20
949.1574859653578
 30
0.0
 11
2112.150343647149
 21
948.8320544219869
 31
0.0
  0
LINE
  5
BFA
330
AD4
100
AcDbEntity
  8
0
  6
Continuous
 62
     7
370
    15
100
AcDbLine
 10
2111.490989651409
 20
950.0412833461872
 30
0.0
 11
2112.446788296568
 21
949.7158518028161
 31
0.0
  0
ARC
  5
BFB
330
AD4
100
AcDbEntity
  8
0
  6
Continuous
 62
     7
370
    15
100
AcDbCircle
 10
2112.954279834798
 20
949.0588487016507
 30
0.0
 40
1.762497089809643
100
AcDbArc
 50
146.1230847451124
 51
176.791794314184
  0
LINE
  5
BFC
330
AD4
100
AcDbEntity
  8
0
  6
Continuous
 62
     7
370
    15
100
AcDbLine
 10
2112.887229494828
 20
950.3593807599314
 30
0.0
 11
2112.108820507696
 21
950.6244144459898
 31
0.0
  0
LINE
  5
BFD
330
AD4
100
AcDbEntity
  8
0
  6
Continuous
 62
     7
370
    15
100
AcDbLine
 10
2111.490989651409
 20
950.0412833461872
 30
0.0
 11
2111.736219921191
 21
950.3995851983438
 31
0.0
  0
ARC
  5
BFE
330
AD4
100
AcDbEntity
  8
0
  6
Continuous
 62
     7
370
    15
100
AcDbCircle
 10
2111.721876702647
 20
949.1115271324149
 30
0.0
 40
0.5293306498237338
100
AcDbArc
 50
175.0190549489554
 51
242.1563850785363
  0
LINE
  5
BFF
330
AD4
100
AcDbEntity
  8
0
  6
Continuous
 62
     7
370
    15
100
AcDbLine
 10
2113.471352301992
 20
951.4465606254026
 30
0.0
 11
2113.954568804205
 21
951.282034453605
 31
0.0
  0
LINE
  5
C00
330
AD4
100
AcDbEntity
  8
0
  6
Continuous
 62
     7
370
    15
100
AcDbLine
 10
2114.2496313095
 20
948.7324352653363
 30
0.0
 11
2115.442684795278
 21
948.3262223593314
 31
0.0
  0
LINE
  5
C01
330
AD4
100
AcDbEntity
  8
0
  6
Continuous
 62
     7
370
    15
100
AcDbLine
 10
2114.231311768136
 20
951.9051219429522
 30
0.0
 11
2114.2496313095
 21
948.7324352653363
 31
0.0
  0
ARC
  5
C02
330
AD4
100
AcDbEntity
  8
0
  6
Continuous
 62
     7
370
    15
100
AcDbCircle
 10
2114.796071571433
 20
948.6381904768105
 30
0.0
 40
0.5545079260255399
100
AcDbArc
 50
170.2144414613741
 51
241.5539958711072
  0
LINE
  5
C03
330
AD4
100
AcDbEntity
  8
0
  6
Continuous
 62
     8
370
    15
100
AcDbLine
 10
2091.101228548086
 20
983.648231914535
 30
0.0
 11
2090.886903481537
 21
983.721205586912
 31
0.0
  0
LINE
  5
C04
330
AD4
100
AcDbEntity
  8
0
  6
Continuous
 62
     8
370
    15
100
AcDbLine
 10
2089.074265069845
 20
979.4030168250333
 30
0.0
 11
2088.874532575525
 21
979.4710219997812
 31
0.0
  0
LINE
  5
C05
330
AD4
100
AcDbEntity
  8
0
  6
Continuous
 62
     8
370
    15
100
AcDbLine
 10
2079.618811761801
 20
979.3963398306537
 30
0.0
 11
2084.874647995472
 21
977.6068259974922
 31
0.0
  0
LINE
  5
C06
330
AD4
100
AcDbEntity
  8
0
  6
Continuous
 62
     8
370
    15
100
AcDbLine
 10
2081.061844230831
 20
982.4185862983004
 30
0.0
 11
2086.411413558591
 21
980.5971581015551
 31
0.0
  0
LINE
  5
C07
330
AD4
100
AcDbEntity
  8
0
  6
Continuous
 62
     8
370
    15
100
AcDbLine
 10
2080.436118203252
 20
981.1080833698134
 30
0.0
 11
2085.6918950934
 21
979.3185897420103
 31
0.0
  0
LINE
  5
C08
330
AD4
100
AcDbEntity
  8
0
  6
Continuous
 62
     8
370
    15
100
AcDbLine
 10
2079.724144568519
 20
979.6169492458544
 30
0.0
 11
2084.979974867837
 21
977.8274374332289
 31
0.0
  0
LINE
  5
C09
330
AD4
100
AcDbEntity
  8
0
  6
Continuous
 62
     8
370
    15
100
AcDbLine
 10
2101.142100554323
 20
993.6112509427561
 30
0.0
 11
2095.680199872462
 21
995.470925862406
 31
0.0
  0
LINE
  5
C0A
330
AD4
100
AcDbEntity
  8
0
  6
Continuous
 62
     8
370
    15
100
AcDbLine
 10
2093.387462873312
 20
996.2515598839717
 30
0.0
 11
2091.906135794262
 21
996.7559240196756
 31
0.0
  0
LINE
  5
C0B
330
AD4
100
AcDbEntity
  8
0
  6
Continuous
 62
     8
370
    15
100
AcDbLine
 10
2083.734819291175
 20
988.0167982046927
 30
0.0
 11
2088.990346938528
 21
986.2273894393949
 31
0.0
  0
LINE
  5
C0C
330
AD4
100
AcDbEntity
  8
0
  6
Continuous
 62
     8
370
    15
100
AcDbLine
 10
2083.10909662303
 20
986.7063006329797
 30
0.0
 11
2088.54392478984
 21
984.8558433978292
 31
0.0
  0
LINE
  5
C0D
330
AD4
100
AcDbEntity
  8
0
  6
Continuous
 62
     8
370
    15
100
AcDbLine
 10
2091.043043410093
 20
983.912276365328
 30
0.0
 11
2091.075350023846
 21
983.9012765682181
 31
0.0
  0
LINE
  5
C0E
330
AD4
100
AcDbEntity
  8
0
  6
Continuous
 62
     8
370
    15
100
AcDbLine
 10
2091.117252274591
 20
983.8651374717542
 30
0.0
 11
2091.011074843793
 21
983.9012888989934
 31
0.0
  0
LINE
  5
C0F
330
AD4
100
AcDbEntity
  8
0
  6
Continuous
 62
     8
370
    15
100
AcDbLine
 10
2084.553258942601
 20
989.9812700765421
 30
0.0
 11
2089.911539899492
 21
988.1568757331846
 31
0.0
  0
LINE
  5
C10
330
AD4
100
AcDbEntity
  8
0
  6
Continuous
 62
     8
370
    15
100
AcDbLine
 10
2082.063850653201
 20
982.7071014558566
 30
0.0
 11
2087.528611692856
 21
980.8464526379319
 31
0.0
  0
LINE
  5
C11
330
AD4
100
AcDbEntity
  8
0
  6
Continuous
 62
     8
370
    15
100
AcDbLine
 10
2084.554159103905
 20
989.7327987001308
 30
0.0
 11
2089.809621473383
 21
987.9434121607273
 31
0.0
  0
LINE
  5
C12
330
AD4
100
AcDbEntity
  8
0
  6
Continuous
 62
     8
370
    15
100
AcDbLine
 10
2084.44679179971
 20
989.5079316491049
 30
0.0
 11
2089.702266037892
 21
987.7185410686298
 31
0.0
  0
LINE
  5
C13
330
AD4
100
AcDbEntity
  8
0
  6
Continuous
 62
     8
370
    15
100
AcDbLine
 10
2084.444569117152
 20
989.2599067378467
 30
0.0
 11
2089.600096994419
 21
987.5045460219794
 31
0.0
  0
LINE
  5
C14
330
AD4
100
AcDbEntity
  8
0
  6
Continuous
 62
     8
370
    15
100
AcDbLine
 10
2083.331426674835
 20
985.3618768930541
 30
0.0
 11
2088.788763839802
 21
983.5037557654647
 31
0.0
  0
LINE
  5
C15
330
AD4
100
AcDbEntity
  8
0
  6
Continuous
 62
     8
370
    15
100
AcDbLine
 10
2084.691677313385
 20
989.0140265767787
 30
0.0
 11
2089.533669622868
 21
987.3654188514519
 31
0.0
  0
LINE
  5
C16
330
AD4
100
AcDbEntity
  8
0
  6
Continuous
 62
     8
370
    15
100
AcDbLine
 10
2083.867779012551
 20
986.0050188752151
 30
0.0
 11
2089.212013357622
 21
984.1854071401895
 31
0.0
  0
SPLINE
  5
C17
330
AD4
100
AcDbEntity
  8
0
  6
Continuous
 62
     8
370
    15
100
AcDbSpline
210
0.0
220
0.0
230
1.0
 70
     8
 71
     3
 72
    13
 73
     9
 74
     0
 42
0.0000000001
 43
0.0000000001
 40
0.0
 40
0.0
 40
0.0
 40
0.0
 40
0.1339220938494125
 40
0.2888192202310994
 40
0.4666016343908099
 40
0.6677819371415977
 40
0.8925489751293406
 40
1.0
 40
1.0
 40
1.0
 40
1.0
 10
2077.759953821154
 20
965.0959303955263
 30
0.0
 10
2077.874287593351
 20
965.2797748316444
 30
0.0
 10
2078.120862224786
 20
965.6762576311384
 30
0.0
 10
2078.581430474675
 20
966.2532475166779
 30
0.0
 10
2079.133453017334
 20
966.8700780026822
 30
0.0
 10
2079.784213118047
 20
967.5181848363754
 30
0.0
 10
2080.371374526869
 20
968.0624006811346
 30
0.0
 10
2080.745188681239
 20
968.3783518952736
 30
0.0
 10
2080.866093347447
 20
968.4805416482216
 30
0.0
  0
ARC
  5
C18
330
AD4
100
AcDbEntity
  8
0
  6
Continuous
 62
     8
370
    15
100
AcDbCircle
 10
2080.235787472279
 20
968.2201167741013
 30
0.0
 40
1.222637189647455
100
AcDbArc
 50
346.1171785986274
 51
2.77685665884244
  0
LINE
  5
C19
330
AD4
100
AcDbEntity
  8
0
  6
Continuous
 62
     8
370
    15
100
AcDbLine
 10
2086.141842365559
 20
955.9752098127859
 30
0.0
 11
2079.262640331279
 21
958.317449306968
 31
0.0
  0
LINE
  5
C1A
330
AD4
100
AcDbEntity
  8
0
  6
Continuous
 62
     8
370
    15
100
AcDbLine
 10
2083.027158066259
 20
961.5653322978101
 30
0.0
 11
2086.138995906051
 21
960.5058097759346
 31
0.0
  0
LINE
  5
C1B
330
AD4
100
AcDbEntity
  8
0
  6
Continuous
 62
     8
370
    15
100
AcDbLine
 10
2082.683159312317
 20
967.7127028637679
 30
0.0
 11
2082.856380067022
 21
967.8028853611531
 31
0.0
  0
SPLINE
  5
C1C
330
AD4
100
AcDbEntity
  8
0
  6
Continuous
 62
     8
370
    15
100
AcDbSpline
210
0.0
220
0.0
230
1.0
 70
     8
 71
     3
 72
     9
 73
     5
 74
     0
 42
0.0000000001
 43
0.0000000001
 40
0.0
 40
0.0
 40
0.0
 40
0.0
 40
0.5292655042116954
 40
1.0
 40
1.0
 40
1.0
 40
1.0
 10
2081.42270955148
 20
967.9267608888471
 30
0.0
 10
2081.487471070073
 20
967.9797317009102
 30
0.0
 10
2081.609832187655
 20
968.0798153293379
 30
0.0
 10
2081.736606447263
 20
968.1369373503182
 30
0.0
 10
2081.796283464438
 20
968.1638266560629
 30
0.0
  0
LINE
  5
C1D
330
AD4
100
AcDbEntity
  8
0
  6
Continuous
 62
     8
370
    15
100
AcDbLine
 10
2082.568571080826
 20
967.9008734635226
 30
0.0
 11
2082.683159312317
 21
967.7127028637679
 31
0.0
  0
LINE
  5
C1E
330
AD4
100
AcDbEntity
  8
0
  6
Continuous
 62
     8
370
    15
100
AcDbLine
 10
2083.655955389954
 20
962.36308284555
 30
0.0
 11
2086.14062121019
 21
961.5171006538654
 31
0.0
  0
LINE
  5
C1F
330
AD4
100
AcDbEntity
  8
0
  6
Continuous
 62
     8
370
    15
100
AcDbLine
 10
2084.029534894102
 20
963.0599051954648
 30
0.0
 11
2086.105015256682
 21
962.3532429909809
 31
0.0
  0
LINE
  5
C20
330
AD4
100
AcDbEntity
  8
0
  6
Continuous
 62
     8
370
    15
100
AcDbLine
 10
2086.096280355384
 20
963.8656614214951
 30
0.0
 11
2085.240196631402
 21
964.1571419011562
 31
0.0
  0
LWPOLYLINE
  5
C21
330
AD4
100
AcDbEntity
  8
0
  6
Continuous
 62
     8
370
    15
100
AcDbPolyline
 90
        3
 70
   128
 43
0.0
 10
2082.895744223635
 20
967.7894779881672
 10
2082.887878868842
 20
967.7851419712224
 10
2082.706570952479
 20
967.6910275997045
  0
SPLINE
  5
C22
330
AD4
100
AcDbEntity
  8
0
  6
Continuous
 62
     8
370
    15
100
AcDbSpline
210
0.0
220
0.0
230
1.0
 70
     8
 71
     3
 72
    12
 73
     8
 74
     0
 42
0.0000000001
 43
0.0000000001
 40
0.0
 40
0.0
 40
0.0
 40
0.0
 40
0.2243929870520603
 40
0.4156964791213709
 40
0.6329362250702559
 40
0.8521530169412107
 40
1.0
 40
1.0
 40
1.0
 40
1.0
 10
2084.013465721216
 20
964.4870697651446
 30
0.0
 10
2084.038181729831
 20
964.7072805463963
 30
0.0
 10
2084.083969068793
 20
965.1152293313982
 30
0.0
 10
2084.151634154929
 20
965.7307230264718
 30
0.0
 10
2084.200900191584
 20
966.3356786733343
 30
0.0
 10
2084.200571316982
 20
966.8901570564045
 30
0.0
 10
2084.165872914129
 20
967.2263640968754
 30
0.0
 10
2084.151896993514
 20
967.3617825173563
 30
0.0
  0
LINE
  5
C23
330
AD4
100
AcDbEntity
  8
0
  6
Continuous
 62
     8
370
    15
100
AcDbLine
 10
2084.275078887459
 20
967.3198415713399
 30
0.0
 11
2084.297710782255
 21
963.4003159849735
 31
0.0
  0
LINE
  5
C24
330
AD4
100
AcDbEntity
  8
0
  6
Continuous
 62
     8
370
    15
100
AcDbLine
 10
2085.084782273856
 20
964.0485212485415
 30
0.0
 11
2085.067451011287
 21
967.0500519509346
 31
0.0
  0
LINE
  5
C25
330
AD4
100
AcDbEntity
  8
0
  6
Continuous
 62
     8
370
    15
100
AcDbLine
 10
2086.846464752699
 20
933.0965720401563
 30
0.0
 11
2088.035174855714
 21
932.691838506159
 31
0.0
  0
LINE
  5
C26
330
AD4
100
AcDbEntity
  8
0
  6
Continuous
 62
     8
370
    15
100
AcDbLine
 10
2115.761428186067
 20
1002.432539237714
 30
0.0
 11
2109.924737552301
 21
1004.419823118839
 31
0.0
  0
LINE
  5
C27
330
AD4
100
AcDbEntity
  8
0
  6
Continuous
 62
     8
370
    15
100
AcDbLine
 10
2108.38158045696
 20
1004.945239217454
 30
0.0
 11
2106.525463426005
 21
1005.577212314634
 31
0.0
  0
LINE
  5
C28
330
AD4
100
AcDbEntity
  8
0
  6
Continuous
 62
     8
370
    15
100
AcDbLine
 10
2089.645585140446
 20
943.3056164567462
 30
0.0
 11
2090.119063370585
 21
943.1444059842611
 31
0.0
  0
LINE
  5
C29
330
AD4
100
AcDbEntity
  8
0
  6
Continuous
 62
     8
370
    15
100
AcDbLine
 10
2090.869549790945
 20
944.2245147221603
 30
0.0
 11
2090.840524873996
 21
944.234397162951
 31
0.0
  0
LINE
  5
C2A
330
AD4
100
AcDbEntity
  8
0
  6
Continuous
 62
     8
370
    15
100
AcDbLine
 10
2090.164655935025
 20
935.2484156363352
 30
0.0
 11
2088.202124099181
 21
935.9166209821873
 31
0.0
  0
LINE
  5
C2B
330
AD4
100
AcDbEntity
  8
0
  6
Continuous
 62
     8
370
    15
100
AcDbLine
 10
2086.57588223404
 20
931.6400410852933
 30
0.0
 11
2086.990444214852
 21
931.498890492622
 31
0.0
  0
LINE
  5
C2C
330
AD4
100
AcDbEntity
  8
0
  6
Continuous
 62
     8
370
    15
100
AcDbLine
 10
2087.746400026076
 20
931.9550335052857
 30
0.0
 11
2086.617858320717
 21
932.3392808264069
 31
0.0
  0
LINE
  5
C2D
330
AD4
100
AcDbEntity
  8
0
  6
Continuous
 62
     8
370
    15
100
AcDbLine
 10
2089.173628377942
 20
932.5480747687494
 30
0.0
 11
2088.897253724068
 21
932.6421751638635
 31
0.0
  0
LINE
  5
C2E
330
AD4
100
AcDbEntity
  8
0
  6
Continuous
 62
     8
370
    15
100
AcDbLine
 10
2088.268718589695
 20
935.6006928385024
 30
0.0
 11
2088.73800123278
 21
935.4409108848559
 31
0.0
  0
LINE
  5
C2F
330
AD4
100
AcDbEntity
  8
0
  6
Continuous
 62
     8
370
    15
100
AcDbLine
 10
2116.971821859762
 20
999.2585231476544
 30
0.0
 11
2116.96731768639
 21
999.2600567343565
 31
0.0
  0
LINE
  5
C30
330
AD4
100
AcDbEntity
  8
0
  6
Continuous
 62
     8
370
    15
100
AcDbLine
 10
2117.121344109685
 20
999.6174111199099
 30
0.0
 11
2117.089041475944
 21
999.6284066591657
 31
0.0
  0
LINE
  5
C31
330
AD4
100
AcDbEntity
  8
0
  6
Continuous
 62
     8
370
    15
100
AcDbLine
 10
2117.137853752998
 20
999.6031761329449
 30
0.0
 11
2117.073216788083
 21
999.6251838093082
 31
0.0
  0
LINE
  5
C32
330
AD4
100
AcDbEntity
  8
0
  6
Continuous
 62
     8
370
    15
100
AcDbLine
 10
2117.634849365515
 20
999.2324191384346
 30
0.0
 11
2116.957431185297
 21
999.4630673455777
 31
0.0
  0
LINE
  5
C33
330
AD4
100
AcDbEntity
  8
0
  6
Continuous
 62
     8
370
    15
100
AcDbLine
 10
2119.199832749051
 20
998.0833562536835
 30
0.0
 11
2118.416290547205
 21
998.3501377032432
 31
0.0
  0
LINE
  5
C34
330
AD4
100
AcDbEntity
  8
0
  6
Continuous
 62
     8
370
    15
100
AcDbLine
 10
2119.197541549244
 20
997.8268425642371
 30
0.0
 11
2118.709079079626
 21
997.9931548897168
 31
0.0
  0
LINE
  5
C35
330
AD4
100
AcDbEntity
  8
0
  6
Continuous
 62
     8
370
    15
100
AcDbLine
 10
2119.215092926454
 20
997.6259308537967
 30
0.0
 11
2118.881066040286
 21
997.7396607545911
 31
0.0
  0
LINE
  5
C36
330
AD4
100
AcDbEntity
  8
0
  6
Continuous
 62
     8
370
    15
100
AcDbLine
 10
2119.173900901062
 20
997.5396560803689
 30
0.0
 11
2118.958163458673
 21
997.6131106402757
 31
0.0
  0
LINE
  5
C37
330
AD4
100
AcDbEntity
  8
0
  6
Continuous
 62
     8
370
    15
100
AcDbLine
 10
2119.214014866835
 20
997.8126356037837
 30
0.0
 11
2118.717392662847
 21
997.9817261660427
 31
0.0
  0
LINE
  5
C38
330
AD4
100
AcDbEntity
  8
0
  6
Continuous
 62
     8
370
    15
100
AcDbLine
 10
2101.298614158829
 20
943.6667469240987
 30
0.0
 11
2100.837971932647
 21
943.8235869775631
 31
0.0
  0
LINE
  5
C39
330
AD4
100
AcDbEntity
  8
0
  6
Continuous
 62
     8
370
    15
100
AcDbLine
 10
2115.423028619392
 20
951.7303953200581
 30
0.0
 11
2114.476072197432
 21
952.0528096287609
 31
0.0
  0
ENDBLK
  5
AD6
330
AD4
100
AcDbEntity
  8
0
100
AcDbBlockEnd
  0
ENDSEC
  0
SECTION
  2
ENTITIES
  0
INSERT
  5
93C
102
{ACAD_XDICTIONARY
360
E02
102
}
330
1F
100
AcDbEntity
  8
0
100
AcDbBlockReference
  2
1
 10
0.0
 20
0.0
 30
0.0
  0
INSERT
  5
A14
330
1F
100
AcDbEntity
  8
0
100
AcDbBlockReference
  2
2
 10
0.0
 20
0.0
 30
0.0
  0
INSERT
  5
AD3
330
1F
100
AcDbEntity
  8
0
100
AcDbBlockReference
  2
3
 10
0.0
 20
0.0
 30
0.0
  0
INSERT
  5
C3A
330
1F
100
AcDbEntity
  8
0
100
AcDbBlockReference
  2
4
 10
0.0
 20
0.0
 30
0.0
  0
ENDSEC
  0
SECTION
  2
OBJECTS
  0
DICTIONARY
  5
C
330
0
100
AcDbDictionary
281
     1
  3
ACAD_COLOR
350
6B
  3
ACAD_GROUP
350
D
  3
ACAD_LAYOUT
350
1A
  3
ACAD_MATERIAL
350
6A
  3
ACAD_MLEADERSTYLE
350
12D
  3
ACAD_MLINESTYLE
350
17
  3
ACAD_PLOTSETTINGS
350
19
  3
ACAD_PLOTSTYLENAME
350
E
  3
ACAD_SCALELIST
350
10C
  3
ACAD_TABLESTYLE
350
7E
  3
ACAD_VISUALSTYLE
350
EF
  3
ACDB_RECOMPOSE_DATA
350
15D
  3
AcDbVariableDictionary
350
5E
  3
DWGPROPS
350
EB2
  0
DICTIONARY
  5
13C
330
10
100
AcDbDictionary
280
     1
281
     1
  3
ADSK_XREC_LAYER_RECONCILED
360
C3B
  0
DICTIONARY
  5
E9B
330
8AD
100
AcDbDictionary
280
     1
281
     1
  0
DICTIONARY
  5
E02
330
93C
100
AcDbDictionary
280
     1
281
     1
  0
DICTIONARY
  5
6B
102
{ACAD_REACTORS
330
C
102
}
330
C
100
AcDbDictionary
281
     1
  0
DICTIONARY
  5
D
102
{ACAD_REACTORS
330
C
102
}
330
C
100
AcDbDictionary
281
     1
  0
DICTIONARY
  5
1A
102
{ACAD_REACTORS
330
C
102
}
330
C
100
AcDbDictionary
281
     1
  3
Layout1
350
D3
  3
Layout2
350
D7
  3
Model
350
22
  0
DICTIONARY
  5
6A
102
{ACAD_REACTORS
330
C
102
}
330
C
100
AcDbDictionary
281
     1
  3
ByBlock
350
ED
  3
ByLayer
350
EC
  3
Global
350
EE
  0
DICTIONARY
  5
12D
102
{ACAD_REACTORS
330
C
102
}
330
C
100
AcDbDictionary
281
     1
  3
Annotative
350
13B
  3
Standard
350
12E
  0
DICTIONARY
  5
17
102
{ACAD_REACTORS
330
C
102
}
330
C
100
AcDbDictionary
281
     1
  3
Standard
350
18
  0
DICTIONARY
  5
19
102
{ACAD_REACTORS
330
C
102
}
330
C
100
AcDbDictionary
281
     1
  0
ACDBDICTIONARYWDFLT
  5
E
102
{ACAD_REACTORS
330
C
102
}
330
C
100
AcDbDictionary
281
     1
  3
Normal
350
F
100
AcDbDictionaryWithDefault
340
F
  0
DICTIONARY
  5
10C
102
{ACAD_REACTORS
330
C
102
}
330
C
100
AcDbDictionary
281
     1
  3
A0
350
10D
  3
A1
350
188
  3
A2
350
189
  3
A3
350
18A
  3
A4
350
18B
  3
A5
350
18C
  3
A6
350
18D
  3
A7
350
18E
  3
A8
350
18F
  3
A9
350
190
  3
B0
350
191
  3
B1
350
192
  3
B2
350
193
  3
B3
350
194
  3
B4
350
195
  3
B5
350
196
  3
B6
350
197
  3
B7
350
198
  3
B8
350
199
  3
B9
350
19A
  3
C0
350
19B
  3
C1
350
19C
  3
C2
350
19D
  3
C3
350
19E
  3
C4
350
19F
  3
C5
350
1A0
  3
C6
350
1A1
  3
C7
350
1A2
  3
C8
350
1A3
  3
C9
350
1A4
  3
D0
350
1A5
  3
D1
350
1A6
  3
D2
350
1A7
  0
DICTIONARY
  5
7E
102
{ACAD_REACTORS
330
C
102
}
330
C
100
AcDbDictionary
281
     1
  3
Standard
350
7F
  0
DICTIONARY
  5
EF
102
{ACAD_REACTORS
330
C
102
}
330
C
100
AcDbDictionary
281
     1
  3
2dWireframe
350
F5
  3
3D Hidden
350
F7
  3
3dWireframe
350
F6
  3
Basic
350
F4
  3
Brighten
350
FB
  3
ColorChange
350
FF
  3
Conceptual
350
F8
  3
Dim
350
FA
  3
Facepattern
350
FE
  3
Flat
350
F0
  3
FlatWithEdges
350
F1
  3
Gouraud
350
F2
  3
GouraudWithEdges
350
F3
  3
Linepattern
350
FD
  3
Realistic
350
F9
  3
Thicken
350
FC
  0
XRECORD
  5
15D
102
{ACAD_REACTORS
330
C
102
}
330
C
100
AcDbXrecord
280
     1
 90
        1
330
7F
  0
DICTIONARY
  5
5E
102
{ACAD_REACTORS
330
C
102
}
330
C
100
AcDbDictionary
281
     1
  3
CANNOSCALE
350
146
  3
CMLEADERSTYLE
350
145
  3
CTABLESTYLE
350
84
  3
DIMASSOC
350
5F
  3
HIDETEXT
350
63
  3
INDEXCTL
350
EAE
  3
LIGHTINGUNITS
350
EAC
  3
MSLTSCALE
350
EAB
  3
PSOLHEIGHT
350
EB0
  3
PSOLWIDTH
350
EAF
  3
SORTENTS
350
EAD
  0
XRECORD
  5
EB2
102
{ACAD_REACTORS
330
C
102
}
330
C
100
AcDbXrecord
280
     1
  1
DWGPROPS COOKIE
  2

  3

  4

  6

  7

  8
orhan kara
  9

300
=
301
=
302
=
303
=
304
=
305
=
306
=
307
=
308
=
309
=
 40
0.0038075462962963
 41
2458450.661657257
 42
2458956.401271863
  1

 90
        0
  0
XRECORD
  5
C3B
102
{ACAD_REACTORS
330
13C
102
}
330
13C
100
AcDbXrecord
280
     1
290
     1
  0
LAYOUT
  5
D3
102
{ACAD_XDICTIONARY
360
EB6
102
}
102
{ACAD_REACTORS
330
1A
102
}
330
1A
100
AcDbPlotSettings
  1

  2
C:\Documents and Settings\basas\Application Data\Autodesk\AutoCAD 2005\R16.1\enu\plotters\Default Windows System Printer.pc3
  4

  6

 40
0.0
 41
0.0
 42
0.0
 43
0.0
 44
0.0
 45
0.0
 46
0.0
 47
0.0
 48
0.0
 49
0.0
140
0.0
141
0.0
142
1.0
143
1.0
 70
   688
 72
     0
 73
     0
 74
     5
  7

 75
    16
147
1.0
148
0.0
149
0.0
100
AcDbLayout
  1
Layout1
 70
     1
 71
     1
 10
0.0
 20
0.0
 11
12.0
 21
9.0
 12
0.0
 22
0.0
 32
0.0
 14
0.0
 24
0.0
 34
0.0
 15
0.0
 25
0.0
 35
0.0
146
0.0
 13
0.0
 23
0.0
 33
0.0
 16
1.0
 26
0.0
 36
0.0
 17
0.0
 27
1.0
 37
0.0
 76
     0
330
D2
  0
LAYOUT
  5
D7
102
{ACAD_XDICTIONARY
360
EB8
102
}
102
{ACAD_REACTORS
330
1A
102
}
330
1A
100
AcDbPlotSettings
  1

  2
C:\Documents and Settings\basas\Application Data\Autodesk\AutoCAD 2005\R16.1\enu\plotters\Default Windows System Printer.pc3
  4

  6

 40
0.0
 41
0.0
 42
0.0
 43
0.0
 44
0.0
 45
0.0
 46
0.0
 47
0.0
 48
0.0
 49
0.0
140
0.0
141
0.0
142
1.0
143
1.0
 70
   688
 72
     0
 73
     0
 74
     5
  7

 75
    16
147
1.0
148
0.0
149
0.0
100
AcDbLayout
  1
Layout2
 70
     1
 71
     2
 10
0.0
 20
0.0
 11
12.0
 21
9.0
 12
0.0
 22
0.0
 32
0.0
 14
0.0
 24
0.0
 34
0.0
 15
0.0
 25
0.0
 35
0.0
146
0.0
 13
0.0
 23
0.0
 33
0.0
 16
1.0
 26
0.0
 36
0.0
 17
0.0
 27
1.0
 37
0.0
 76
     0
330
D6
  0
LAYOUT
  5
22
102
{ACAD_XDICTIONARY
360
EB3
102
}
102
{ACAD_REACTORS
330
1A
102
}
330
1A
100
AcDbPlotSettings
  1

  2
none_device
  4
ISO_A4_(210.00_x_297.00_MM)
  6

 40
7.5
 41
20.0
 42
7.5
 43
20.0
 44
210.0
 45
297.0
 46
11.54999923706054
 47
-13.65000009536743
 48
0.0
 49
0.0
140
0.0
141
0.0
142
1.0
143
8.704084754739808
 70
 11952
 72
     1
 73
     0
 74
     0
  7

 75
     0
147
0.1148885871608098
148
0.0
149
0.0
100
AcDbLayout
  1
Model
 70
     1
 71
     0
 10
0.0
 20
0.0
 11
12.0
 21
9.0
 12
0.0
 22
0.0
 32
0.0
 14
0.0
 24
0.0
 34
0.0
 15
0.0
 25
0.0
 35
0.0
146
0.0
 13
0.0
 23
0.0
 33
0.0
 16
1.0
 26
0.0
 36
0.0
 17
0.0
 27
1.0
 37
0.0
 76
     0
330
1F
331
EA
1001
ACAD_PSEXT
1000
None
1000
None
1000
Not applicable
1000
The layout will not be plotted unless a new plotter configuration name is selected.
1070
     0
  0
MATERIAL
  5
ED
102
{ACAD_XDICTIONARY
360
EBC
102
}
102
{ACAD_REACTORS
330
6A
102
}
330
6A
100
AcDbMaterial
  1
ByBlock
  0
MATERIAL
  5
EC
102
{ACAD_XDICTIONARY
360
EBA
102
}
102
{ACAD_REACTORS
330
6A
102
}
330
6A
100
AcDbMaterial
  1
ByLayer
  0
MATERIAL
  5
EE
102
{ACAD_XDICTIONARY
360
173
102
}
102
{ACAD_REACTORS
330
6A
102
}
330
6A
100
AcDbMaterial
  1
Global
 43
0.0007999999797903
 43
0.0
 43
0.0
 43
0.0
 43
0.0
 43
0.0007999999797903
 43
0.0
 43
0.0
 43
0.0
 43
0.0
 43
1.0
 43
0.0
 43
0.0
 43
0.0
 43
0.0
 43
1.0
 49
0.0007999999797903
 49
0.0
 49
0.0
 49
0.0
 49
0.0
 49
0.0007999999797903
 49
0.0
 49
0.0
 49
0.0
 49
0.0
 49
1.0
 49
0.0
 49
0.0
 49
0.0
 49
0.0
 49
1.0
142
0.0007999999797903
142
0.0
142
0.0
142
0.0
142
0.0
142
0.0007999999797903
142
0.0
142
0.0
142
0.0
142
0.0
142
1.0
142
0.0
142
0.0
142
0.0
142
0.0
142
1.0
144
0.0007999999797903
144
0.0
144
0.0
144
0.0
144
0.0
144
0.0007999999797903
144
0.0
144
0.0
144
0.0
144
0.0
144
1.0
144
0.0
144
0.0
144
0.0
144
0.0
144
1.0
1001
ACAD
1070
    -1
1070
     3
1070
     0
1000

1071
        0
1070
     0
  0
MLEADERSTYLE
  5
13B
102
{ACAD_REACTORS
330
12D
102
}
330
12D
100
AcDbMLeaderStyle
170
     2
171
     1
172
     0
 90
        2
 40
0.0
 41
0.0
173
     1
 91
-1056964608
340
14
 92
       -2
290
     1
 42
2.0
291
     1
 43
8.0
  3
Standard
 44
4.0
300

342
11
174
     1
178
     1
175
     1
176
     0
 93
-1056964608
 45
4.0
292
     0
297
     0
 46
4.0
 94
-1056964608
 47
1.0
 49
1.0
140
1.0
293
     1
141
0.0
294
     1
177
     0
142
1.0
295
     0
296
     1
143
3.75
1001
ACAD_MLEADERVER
1070
     2
  0
MLEADERSTYLE
  5
12E
102
{ACAD_REACTORS
330
12D
102
}
330
12D
100
AcDbMLeaderStyle
170
     2
171
     1
172
     0
 90
        2
 40
0.0
 41
0.0
173
     1
 91
-1056964608
340
14
 92
       -2
290
     1
 42
2.0
291
     1
 43
8.0
  3
Standard
 44
4.0
300

342
11
174
     1
178
     1
175
     1
176
     0
 93
-1056964608
 45
4.0
292
     0
297
     0
 46
4.0
 94
-1056964608
 47
1.0
 49
1.0
140
1.0
293
     1
141
0.0
294
     1
177
     0
142
1.0
295
     0
296
     0
143
3.75
1001
ACAD_MLEADERVER
1070
     2
  0
MLINESTYLE
  5
18
102
{ACAD_REACTORS
330
17
102
}
330
17
100
AcDbMlineStyle
  2
STANDARD
 70
     0
  3

 62
   256
 51
90.0
 52
90.0
 71
     2
 49
0.5
 62
   256
  6
BYLAYER
 49
-0.5
 62
   256
  6
BYLAYER
  0
ACDBPLACEHOLDER
  5
F
102
{ACAD_REACTORS
330
E
102
}
330
E
  0
SCALE
  5
10D
102
{ACAD_REACTORS
330
10C
102
}
330
10C
100
AcDbScale
 70
     0
300
1:1
140
1.0
141
1.0
290
     1
  0
SCALE
  5
188
102
{ACAD_REACTORS
330
10C
102
}
330
10C
100
AcDbScale
 70
     0
300
1:2
140
1.0
141
2.0
290
     0
  0
SCALE
  5
189
102
{ACAD_REACTORS
330
10C
102
}
330
10C
100
AcDbScale
 70
     0
300
1:4
140
1.0
141
4.0
290
     0
  0
SCALE
  5
18A
102
{ACAD_REACTORS
330
10C
102
}
330
10C
100
AcDbScale
 70
     0
300
1:5
140
1.0
141
5.0
290
     0
  0
SCALE
  5
18B
102
{ACAD_REACTORS
330
10C
102
}
330
10C
100
AcDbScale
 70
     0
300
1:8
140
1.0
141
8.0
290
     0
  0
SCALE
  5
18C
102
{ACAD_REACTORS
330
10C
102
}
330
10C
100
AcDbScale
 70
     0
300
1:10
140
1.0
141
10.0
290
     0
  0
SCALE
  5
18D
102
{ACAD_REACTORS
330
10C
102
}
330
10C
100
AcDbScale
 70
     0
300
1:16
140
1.0
141
16.0
290
     0
  0
SCALE
  5
18E
102
{ACAD_REACTORS
330
10C
102
}
330
10C
100
AcDbScale
 70
     0
300
1:20
140
1.0
141
20.0
290
     0
  0
SCALE
  5
18F
102
{ACAD_REACTORS
330
10C
102
}
330
10C
100
AcDbScale
 70
     0
300
1:30
140
1.0
141
30.0
290
     0
  0
SCALE
  5
190
102
{ACAD_REACTORS
330
10C
102
}
330
10C
100
AcDbScale
 70
     0
300
1:40
140
1.0
141
40.0
290
     0
  0
SCALE
  5
191
102
{ACAD_REACTORS
330
10C
102
}
330
10C
100
AcDbScale
 70
     0
300
1:50
140
1.0
141
50.0
290
     0
  0
SCALE
  5
192
102
{ACAD_REACTORS
330
10C
102
}
330
10C
100
AcDbScale
 70
     0
300
1:100
140
1.0
141
100.0
290
     0
  0
SCALE
  5
193
102
{ACAD_REACTORS
330
10C
102
}
330
10C
100
AcDbScale
 70
     0
300
2:1
140
2.0
141
1.0
290
     0
  0
SCALE
  5
194
102
{ACAD_REACTORS
330
10C
102
}
330
10C
100
AcDbScale
 70
     0
300
4:1
140
4.0
141
1.0
290
     0
  0
SCALE
  5
195
102
{ACAD_REACTORS
330
10C
102
}
330
10C
100
AcDbScale
 70
     0
300
8:1
140
8.0
141
1.0
290
     0
  0
SCALE
  5
196
102
{ACAD_REACTORS
330
10C
102
}
330
10C
100
AcDbScale
 70
     0
300
10:1
140
10.0
141
1.0
290
     0
  0
SCALE
  5
197
102
{ACAD_REACTORS
330
10C
102
}
330
10C
100
AcDbScale
 70
     0
300
100:1
140
100.0
141
1.0
290
     0
  0
SCALE
  5
198
102
{ACAD_REACTORS
330
10C
102
}
330
10C
100
AcDbScale
 70
     0
300
1/128" = 1'-0"
140
0.0078125
141
12.0
290
     0
  0
SCALE
  5
199
102
{ACAD_REACTORS
330
10C
102
}
330
10C
100
AcDbScale
 70
     0
300
1/64" = 1'-0"
140
0.015625
141
12.0
290
     0
  0
SCALE
  5
19A
102
{ACAD_REACTORS
330
10C
102
}
330
10C
100
AcDbScale
 70
     0
300
1/32" = 1'-0"
140
0.03125
141
12.0
290
     0
  0
SCALE
  5
19B
102
{ACAD_REACTORS
330
10C
102
}
330
10C
100
AcDbScale
 70
     0
300
1/16" = 1'-0"
140
0.0625
141
12.0
290
     0
  0
SCALE
  5
19C
102
{ACAD_REACTORS
330
10C
102
}
330
10C
100
AcDbScale
 70
     0
300
3/32" = 1'-0"
140
0.09375
141
12.0
290
     0
  0
SCALE
  5
19D
102
{ACAD_REACTORS
330
10C
102
}
330
10C
100
AcDbScale
 70
     0
300
1/8" = 1'-0"
140
0.125
141
12.0
290
     0
  0
SCALE
  5
19E
102
{ACAD_REACTORS
330
10C
102
}
330
10C
100
AcDbScale
 70
     0
300
3/16" = 1'-0"
140
0.1875
141
12.0
290
     0
  0
SCALE
  5
19F
102
{ACAD_REACTORS
330
10C
102
}
330
10C
100
AcDbScale
 70
     0
300
1/4" = 1'-0"
140
0.25
141
12.0
290
     0
  0
SCALE
  5
1A0
102
{ACAD_REACTORS
330
10C
102
}
330
10C
100
AcDbScale
 70
     0
300
3/8" = 1'-0"
140
0.375
141
12.0
290
     0
  0
SCALE
  5
1A1
102
{ACAD_REACTORS
330
10C
102
}
330
10C
100
AcDbScale
 70
     0
300
1/2" = 1'-0"
140
0.5
141
12.0
290
     0
  0
SCALE
  5
1A2
102
{ACAD_REACTORS
330
10C
102
}
330
10C
100
AcDbScale
 70
     0
300
3/4" = 1'-0"
140
0.75
141
12.0
290
     0
  0
SCALE
  5
1A3
102
{ACAD_REACTORS
330
10C
102
}
330
10C
100
AcDbScale
 70
     0
300
1" = 1'-0"
140
1.0
141
12.0
290
     0
  0
SCALE
  5
1A4
102
{ACAD_REACTORS
330
10C
102
}
330
10C
100
AcDbScale
 70
     0
300
1-1/2" = 1'-0"
140
1.5
141
12.0
290
     0
  0
SCALE
  5
1A5
102
{ACAD_REACTORS
330
10C
102
}
330
10C
100
AcDbScale
 70
     0
300
3" = 1'-0"
140
3.0
141
12.0
290
     0
  0
SCALE
  5
1A6
102
{ACAD_REACTORS
330
10C
102
}
330
10C
100
AcDbScale
 70
     0
300
6" = 1'-0"
140
6.0
141
12.0
290
     0
  0
SCALE
  5
1A7
102
{ACAD_REACTORS
330
10C
102
}
330
10C
100
AcDbScale
 70
     0
300
1'-0" = 1'-0"
140
12.0
141
12.0
290
     0
  0
TABLESTYLE
  5
7F
102
{ACAD_XDICTIONARY
360
162
102
}
102
{ACAD_REACTORS
330
7E
102
}
330
7E
100
AcDbTableStyle
  3
Standard
 70
     0
 71
     0
 40
1.5
 41
1.5
280
     0
281
     0
  7
Standard
140
4.5
170
     2
 62
     0
 63
     7
283
     0
274
    -2
284
     1
 64
     0
275
    -2
285
     1
 65
     0
276
    -2
286
     1
 66
     0
277
    -2
287
     1
 67
     0
278
    -2
288
     1
 68
     0
279
    -2
289
     1
 69
     0
  7
Standard
140
6.0
170
     5
 62
     0
 63
     7
283
     0
274
    -2
284
     1
 64
     0
275
    -2
285
     1
 65
     0
276
    -2
286
     1
 66
     0
277
    -2
287
     1
 67
     0
278
    -2
288
     1
 68
     0
279
    -2
289
     1
 69
     0
  7
Standard
140
4.5
170
     5
 62
     0
 63
     7
283
     0
274
    -2
284
     1
 64
     0
275
    -2
285
     1
 65
     0
276
    -2
286
     1
 66
     0
277
    -2
287
     1
 67
     0
278
    -2
288
     1
 68
     0
279
    -2
289
     1
 69
     0
  0
VISUALSTYLE
  5
F5
102
{ACAD_REACTORS
330
EF
102
}
330
EF
100
AcDbVisualStyle
  2
2dWireframe
 70
     4
 71
     0
 72
     2
 73
     1
 90
        0
 40
-0.6
 41
-30.0
 62
     5
 63
     7
 74
     1
 91
        4
 64
     7
 65
   257
 75
     1
175
     1
 42
1.0
 92
        0
 66
   257
 43
1.0
 76
     1
 77
     6
 78
     2
 67
     7
 79
     5
170
     0
171
     0
290
     0
174
     0
 93
        1
 44
0.0
173
     0
291
     0
 45
0.0
1001
ACAD
1000
AcDbSavedByObjectVersion
1070
     0
  0
VISUALSTYLE
  5
F7
102
{ACAD_REACTORS
330
EF
102
}
330
EF
100
AcDbVisualStyle
  2
3D Hidden
 70
     6
 71
     1
 72
     2
 73
     2
 90
        0
 40
-0.6
 41
-30.0
 62
     5
 63
     7
 74
     2
 91
        2
 64
     7
 65
   257
 75
     2
175
     1
 42
40.0
 92
        0
 66
   257
 43
1.0
 76
     1
 77
     6
 78
     2
 67
     7
 79
     3
170
     0
171
     0
290
     0
174
     0
 93
        1
 44
0.0
173
     0
291
     0
 45
0.0
1001
ACAD
1000
AcDbSavedByObjectVersion
1070
     0
  0
VISUALSTYLE
  5
F6
102
{ACAD_REACTORS
330
EF
102
}
330
EF
100
AcDbVisualStyle
  2
3dWireframe
 70
     5
 71
     0
 72
     2
 73
     1
 90
        0
 40
-0.6
 41
-30.0
 62
     5
 63
     7
 74
     1
 91
        4
 64
     7
 65
   257
 75
     1
175
     1
 42
1.0
 92
        0
 66
   257
 43
1.0
 76
     1
 77
     6
 78
     2
 67
     7
 79
     5
170
     0
171
     0
290
     0
174
     0
 93
        1
 44
0.0
173
     0
291
     0
 45
0.0
1001
ACAD
1000
AcDbSavedByObjectVersion
1070
     0
  0
VISUALSTYLE
  5
F4
102
{ACAD_REACTORS
330
EF
102
}
330
EF
100
AcDbVisualStyle
  2
Basic
 70
     7
 71
     1
 72
     0
 73
     1
 90
        0
 40
-0.6
 41
-30.0
 62
     5
 63
     7
 74
     0
 91
        4
 64
     7
 65
   257
 75
     1
175
     1
 42
1.0
 92
        8
 66
     7
 43
1.0
 76
     1
 77
     6
 78
     2
 67
     7
 79
     5
170
     0
171
     0
290
     0
174
     0
 93
        1
 44
0.0
173
     0
291
     1
 45
0.0
1001
ACAD
1000
AcDbSavedByObjectVersion
1070
     0
  0
VISUALSTYLE
  5
FB
102
{ACAD_REACTORS
330
EF
102
}
330
EF
100
AcDbVisualStyle
  2
Brighten
 70
    12
 71
     2
 72
     2
 73
     1
 90
        0
 40
-0.6
 41
-30.0
 62
     5
 63
     7
 74
     1
 91
        4
 64
     7
 65
   257
 75
     1
175
     1
 42
1.0
 92
        8
 66
     7
 43
1.0
 76
     1
 77
     6
 78
     2
 67
     7
 79
     5
170
     0
171
     0
290
     0
174
     0
 93
        1
 44
50.0
173
     0
291
     1
 45
0.0
1001
ACAD
1000
AcDbSavedByObjectVersion
1070
     0
  0
VISUALSTYLE
  5
FF
102
{ACAD_REACTORS
330
EF
102
}
330
EF
100
AcDbVisualStyle
  2
ColorChange
 70
    16
 71
     2
 72
     2
 73
     3
 90
        0
 40
-0.6
 41
-30.0
 62
     5
 63
     8
 74
     1
 91
        4
 64
     7
 65
   257
 75
     1
175
     1
 42
1.0
 92
        8
 66
     8
 43
1.0
 76
     1
 77
     6
 78
     2
 67
     7
 79
     5
170
     0
171
     0
290
     0
174
     0
 93
        1
 44
0.0
173
     0
291
     1
 45
0.0
1001
ACAD
1000
AcDbSavedByObjectVersion
1070
     0
  0
VISUALSTYLE
  5
F8
102
{ACAD_REACTORS
330
EF
102
}
330
EF
100
AcDbVisualStyle
  2
Conceptual
 70
     9
 71
     3
 72
     2
 73
     1
 90
        0
 40
-0.6
 41
-30.0
 62
     5
 63
     7
 74
     2
 91
        2
 64
     7
 65
   257
 75
     1
175
     1
 42
40.0
 92
        8
 66
     7
 43
1.0
 76
     1
 77
     6
 78
     2
 67
     7
 79
     3
170
     0
171
     0
290
     0
174
     0
 93
        1
 44
0.0
173
     0
291
     0
 45
0.0
1001
ACAD
1000
AcDbSavedByObjectVersion
1070
     0
  0
VISUALSTYLE
  5
FA
102
{ACAD_REACTORS
330
EF
102
}
330
EF
100
AcDbVisualStyle
  2
Dim
 70
    11
 71
     2
 72
     2
 73
     1
 90
        0
 40
-0.6
 41
-30.0
 62
     5
 63
     7
 74
     1
 91
        4
 64
     7
 65
   257
 75
     1
175
     1
 42
1.0
 92
        8
 66
     7
 43
1.0
 76
     1
 77
     6
 78
     2
 67
     7
 79
     5
170
     0
171
     0
290
     0
174
     0
 93
        1
 44
-50.0
173
     0
291
     1
 45
0.0
1001
ACAD
1000
AcDbSavedByObjectVersion
1070
     0
  0
VISUALSTYLE
  5
FE
102
{ACAD_REACTORS
330
EF
102
}
330
EF
100
AcDbVisualStyle
  2
Facepattern
 70
    15
 71
     2
 72
     2
 73
     1
 90
        0
 40
-0.6
 41
-30.0
 62
     5
 63
     7
 74
     1
 91
        4
 64
     7
 65
   257
 75
     1
175
     1
 42
1.0
 92
        8
 66
     7
 43
1.0
 76
     1
 77
     6
 78
     2
 67
     7
 79
     5
170
     0
171
     0
290
     0
174
     0
 93
        1
 44
0.0
173
     0
291
     1
 45
0.0
1001
ACAD
1000
AcDbSavedByObjectVersion
1070
     0
  0
VISUALSTYLE
  5
F0
102
{ACAD_REACTORS
330
EF
102
}
330
EF
100
AcDbVisualStyle
  2
Flat
 70
     0
 71
     2
 72
     1
 73
     1
 90
        2
 40
-0.6
 41
30.0
 62
     5
 63
     7
 74
     0
 91
        4
 64
     7
 65
   257
 75
     1
175
     1
 42
1.0
 92
        8
 66
     7
 43
1.0
 76
     1
 77
     6
 78
     2
 67
     7
 79
     5
170
     0
171
     0
290
     0
174
     0
 93
        1
 44
0.0
173
     0
291
     1
 45
0.0
1001
ACAD
1000
AcDbSavedByObjectVersion
1070
     0
  0
VISUALSTYLE
  5
F1
102
{ACAD_REACTORS
330
EF
102
}
330
EF
100
AcDbVisualStyle
  2
FlatWithEdges
 70
     1
 71
     2
 72
     1
 73
     1
 90
        2
 40
-0.6
 41
30.0
 62
     5
 63
     7
 74
     1
 91
        4
 64
     7
 65
   257
 75
     1
175
     1
 42
1.0
 92
        0
 66
   257
 43
1.0
 76
     1
 77
     6
 78
     2
 67
     7
 79
     5
170
     0
171
     0
290
     0
174
     0
 93
        1
 44
0.0
173
     0
291
     1
 45
0.0
1001
ACAD
1000
AcDbSavedByObjectVersion
1070
     0
  0
VISUALSTYLE
  5
F2
102
{ACAD_REACTORS
330
EF
102
}
330
EF
100
AcDbVisualStyle
  2
Gouraud
 70
     2
 71
     2
 72
     2
 73
     1
 90
        2
 40
-0.6
 41
30.0
 62
     5
 63
     7
 74
     0
 91
        4
 64
     7
 65
   257
 75
     1
175
     1
 42
1.0
 92
        0
 66
     7
 43
1.0
 76
     1
 77
     6
 78
     2
 67
     7
 79
     5
170
     0
171
     0
290
     0
174
     0
 93
        1
 44
0.0
173
     0
291
     1
 45
0.0
1001
ACAD
1000
AcDbSavedByObjectVersion
1070
     0
  0
VISUALSTYLE
  5
F3
102
{ACAD_REACTORS
330
EF
102
}
330
EF
100
AcDbVisualStyle
  2
GouraudWithEdges
 70
     3
 71
     2
 72
     2
 73
     1
 90
        2
 40
-0.6
 41
30.0
 62
     5
 63
     7
 74
     1
 91
        4
 64
     7
 65
   257
 75
     1
175
     1
 42
1.0
 92
        0
 66
   257
 43
1.0
 76
     1
 77
     6
 78
     2
 67
     7
 79
     5
170
     0
171
     0
290
     0
174
     0
 93
        1
 44
0.0
173
     0
291
     1
 45
0.0
1001
ACAD
1000
AcDbSavedByObjectVersion
1070
     0
  0
VISUALSTYLE
  5
FD
102
{ACAD_REACTORS
330
EF
102
}
330
EF
100
AcDbVisualStyle
  2
Linepattern
 70
    14
 71
     2
 72
     2
 73
     1
 90
        0
 40
-0.6
 41
-30.0
 62
     5
 63
     7
 74
     1
 91
        4
 64
     7
 65
   257
 75
     7
175
     7
 42
1.0
 92
        8
 66
     7
 43
1.0
 76
     1
 77
     6
 78
     2
 67
     7
 79
     5
170
     0
171
     0
290
     0
174
     0
 93
        1
 44
0.0
173
     0
291
     1
 45
0.0
1001
ACAD
1000
AcDbSavedByObjectVersion
1070
     0
  0
VISUALSTYLE
  5
F9
102
{ACAD_REACTORS
330
EF
102
}
330
EF
100
AcDbVisualStyle
  2
Realistic
 70
     8
 71
     2
 72
     2
 73
     1
 90
        0
 40
-0.6
 41
-30.0
 62
     5
 63
     7
 74
     1
 91
        0
 64
     7
 65
   257
 75
     1
175
     1
 42
1.0
 92
        8
 66
     8
 43
1.0
 76
     1
 77
     6
 78
     2
 67
     7
 79
     5
170
     0
171
     0
290
     0
174
     0
 93
       13
 44
0.0
173
     0
291
     0
 45
0.0
1001
ACAD
1000
AcDbSavedByObjectVersion
1070
     0
  0
VISUALSTYLE
  5
FC
102
{ACAD_REACTORS
330
EF
102
}
330
EF
100
AcDbVisualStyle
  2
Thicken
 70
    13
 71
     2
 72
     2
 73
     1
 90
        0
 40
-0.6
 41
-30.0
 62
     5
 63
     7
 74
     1
 91
        4
 64
     7
 65
   257
 75
     1
175
     1
 42
1.0
 92
       12
 66
     7
 43
1.0
 76
     1
 77
     6
 78
     2
 67
     7
 79
     5
170
     0
171
     0
290
     0
174
     0
 93
        1
 44
0.0
173
     0
291
     1
 45
0.0
1001
ACAD
1000
AcDbSavedByObjectVersion
1070
     0
  0
DICTIONARYVAR
  5
146
102
{ACAD_REACTORS
330
5E
102
}
330
5E
100
DictionaryVariables
280
     0
  1
1:1
  0
DICTIONARYVAR
  5
145
102
{ACAD_REACTORS
330
5E
102
}
330
5E
100
DictionaryVariables
280
     0
  1
STANDARD
  0
DICTIONARYVAR
  5
84
102
{ACAD_REACTORS
330
5E
102
}
330
5E
100
DictionaryVariables
280
     0
  1
STANDARD
  0
DICTIONARYVAR
  5
5F
102
{ACAD_REACTORS
330
5E
102
}
330
5E
100
DictionaryVariables
280
     0
  1
2
  0
DICTIONARYVAR
  5
63
102
{ACAD_REACTORS
330
5E
102
}
330
5E
100
DictionaryVariables
280
     0
  1
1
  0
DICTIONARYVAR
  5
EAE
102
{ACAD_REACTORS
330
5E
102
}
330
5E
100
DictionaryVariables
280
     0
  1
0
  0
DICTIONARYVAR
  5
EAC
102
{ACAD_REACTORS
330
5E
102
}
330
5E
100
DictionaryVariables
280
     0
  1
2
  0
DICTIONARYVAR
  5
EAB
102
{ACAD_REACTORS
330
5E
102
}
330
5E
100
DictionaryVariables
280
     0
  1
1
  0
DICTIONARYVAR
  5
EB0
102
{ACAD_REACTORS
330
5E
102
}
330
5E
100
DictionaryVariables
280
     0
  1
80.000000
  0
DICTIONARYVAR
  5
EAF
102
{ACAD_REACTORS
330
5E
102
}
330
5E
100
DictionaryVariables
280
     0
  1
5.000000
  0
DICTIONARYVAR
  5
EAD
102
{ACAD_REACTORS
330
5E
102
}
330
5E
100
DictionaryVariables
280
     0
  1
127
  0
DICTIONARY
  5
EB6
330
D3
100
AcDbDictionary
280
     1
281
     1
  3
ACAD_XREC_ROUNDTRIP
360
EB7
  0
DICTIONARY
  5
EB8
330
D7
100
AcDbDictionary
280
     1
281
     1
  3
ACAD_XREC_ROUNDTRIP
360
EB9
  0
DICTIONARY
  5
EB3
330
22
100
AcDbDictionary
280
     1
281
     1
  3
ACAD_XREC_ROUNDTRIP
360
EB4
  0
DICTIONARY
  5
EBC
330
ED
100
AcDbDictionary
280
     1
281
     1
  3
ACAD_XREC_ROUNDTRIP
360
EBD
  0
DICTIONARY
  5
EBA
330
EC
100
AcDbDictionary
280
     1
281
     1
  3
ACAD_XREC_ROUNDTRIP
360
EBB
  0
DICTIONARY
  5
173
330
EE
100
AcDbDictionary
280
     1
281
     1
  3
ACAD_XREC_ROUNDTRIP
360
EBE
  3
BUMPTILE
360
175
  3
DIFFUSETILE
360
174
  3
OPACITYTILE
360
176
  3
REFLECTIONTILE
360
177
  0
DICTIONARY
  5
162
330
7F
100
AcDbDictionary
280
     1
281
     1
  3
ACAD_ROUNDTRIP_2008_TABLESTYLE_CELLSTYLEMAP
360
EB1
  3
ACAD_XREC_ROUNDTRIP
360
EB5
  0
XRECORD
  5
EB7
102
{ACAD_REACTORS
330
EB6
102
}
330
EB6
100
AcDbXrecord
280
     1
102
SHADEPLOT
 70
     0
102
SHADEPLOTRESLEVEL
 70
     2
102
SHADEPLOTCUSTOMDPI
 70
   300
  0
XRECORD
  5
EB9
102
{ACAD_REACTORS
330
EB8
102
}
330
EB8
100
AcDbXrecord
280
     1
102
SHADEPLOT
 70
     0
102
SHADEPLOTRESLEVEL
 70
     2
102
SHADEPLOTCUSTOMDPI
 70
   300
  0
XRECORD
  5
EB4
102
{ACAD_REACTORS
330
EB3
102
}
330
EB3
100
AcDbXrecord
280
     1
102
SHADEPLOT
 70
     0
102
SHADEPLOTRESLEVEL
 70
     2
102
SHADEPLOTCUSTOMDPI
 70
   300
  0
XRECORD
  5
EBD
102
{ACAD_REACTORS
330
EBC
102
}
330
EBC
100
AcDbXrecord
280
     1
102
MATERIAL
148
0.0
149
0.0
149
0.0
 93
        0
 94
       63
282
     0
 72
     1
 77
     1
171
     1
175
     1
179
     1
273
     0
  0
XRECORD
  5
EBB
102
{ACAD_REACTORS
330
EBA
102
}
330
EBA
100
AcDbXrecord
280
     1
102
MATERIAL
148
0.0
149
0.0
149
0.0
 93
        0
 94
       63
282
     0
 72
     1
 77
     1
171
     1
175
     1
179
     1
273
     0
  0
XRECORD
  5
EBE
102
{ACAD_REACTORS
330
173
102
}
330
173
100
AcDbXrecord
280
     1
102
MATERIAL
148
0.0
149
0.0
149
0.0
 93
        0
 94
       63
282
     0
 72
     1
 77
     1
171
     1
175
     1
179
     1
273
     0
  0
XRECORD
  5
175
102
{ACAD_REACTORS
330
173
102
}
330
173
100
AcDbXrecord
280
     1
270
     1
271
     1
  0
XRECORD
  5
174
102
{ACAD_REACTORS
330
173
102
}
330
173
100
AcDbXrecord
280
     1
270
     1
271
     1
  0
XRECORD
  5
176
102
{ACAD_REACTORS
330
173
102
}
330
173
100
AcDbXrecord
280
     1
270
     1
271
     1
  0
XRECORD
  5
177
102
{ACAD_REACTORS
330
173
102
}
330
173
100
AcDbXrecord
280
     1
270
     1
271
     1
  0
CELLSTYLEMAP
  5
EB1
102
{ACAD_REACTORS
330
162
102
}
330
162
100
AcDbCellStyleMap
 90
        3
300
CELLSTYLE
  1
TABLEFORMAT_BEGIN
 90
        5
170
     1
 91
        0
 92
    32768
 62
   257
 93
        1
300
CONTENTFORMAT
  1
CONTENTFORMAT_BEGIN
 90
        0
 91
        0
 92
      512
 93
        0
300

 40
0.0
140
1.0
 94
        5
 62
     0
340
11
144
6.0
309
CONTENTFORMAT_END
171
     1
301
MARGIN
  1
CELLMARGIN_BEGIN
 40
1.5
 40
1.5
 40
1.5
 40
1.5
 40
4.5
 40
4.5
309
CELLMARGIN_END
 94
        6
 95
        1
302
GRIDFORMAT
  1
GRIDFORMAT_BEGIN
 90
        0
 91
        1
 62
     0
 92
       -2
340
14
 93
        0
 40
1.125
309
GRIDFORMAT_END
 95
        2
302
GRIDFORMAT
  1
GRIDFORMAT_BEGIN
 90
        0
 91
        1
 62
     0
 92
       -2
340
14
 93
        0
 40
1.125
309
GRIDFORMAT_END
 95
        4
302
GRIDFORMAT
  1
GRIDFORMAT_BEGIN
 90
        0
 91
        1
 62
     0
 92
       -2
340
14
 93
        0
 40
1.125
309
GRIDFORMAT_END
 95
        8
302
GRIDFORMAT
  1
GRIDFORMAT_BEGIN
 90
        0
 91
        1
 62
     0
 92
       -2
340
14
 93
        0
 40
1.125
309
GRIDFORMAT_END
 95
       16
302
GRIDFORMAT
  1
GRIDFORMAT_BEGIN
 90
        0
 91
        1
 62
     0
 92
       -2
340
14
 93
        0
 40
1.125
309
GRIDFORMAT_END
 95
       32
302
GRIDFORMAT
  1
GRIDFORMAT_BEGIN
 90
        0
 91
        1
 62
     0
 92
       -2
340
14
 93
        0
 40
1.125
309
GRIDFORMAT_END
309
TABLEFORMAT_END
  1
CELLSTYLE_BEGIN
 90
        1
 91
        1
300
_TITLE
309
CELLSTYLE_END
300
CELLSTYLE
  1
TABLEFORMAT_BEGIN
 90
        5
170
     1
 91
        0
 92
        0
 62
   257
 93
        1
300
CONTENTFORMAT
  1
CONTENTFORMAT_BEGIN
 90
        0
 91
        0
 92
      512
 93
        0
300

 40
0.0
140
1.0
 94
        5
 62
     0
340
11
144
4.5
309
CONTENTFORMAT_END
171
     1
301
MARGIN
  1
CELLMARGIN_BEGIN
 40
1.5
 40
1.5
 40
1.5
 40
1.5
 40
4.5
 40
4.5
309
CELLMARGIN_END
 94
        6
 95
        1
302
GRIDFORMAT
  1
GRIDFORMAT_BEGIN
 90
        0
 91
        1
 62
     0
 92
       -2
340
14
 93
        0
 40
1.125
309
GRIDFORMAT_END
 95
        2
302
GRIDFORMAT
  1
GRIDFORMAT_BEGIN
 90
        0
 91
        1
 62
     0
 92
       -2
340
14
 93
        0
 40
1.125
309
GRIDFORMAT_END
 95
        4
302
GRIDFORMAT
  1
GRIDFORMAT_BEGIN
 90
        0
 91
        1
 62
     0
 92
       -2
340
14
 93
        0
 40
1.125
309
GRIDFORMAT_END
 95
        8
302
GRIDFORMAT
  1
GRIDFORMAT_BEGIN
 90
        0
 91
        1
 62
     0
 92
       -2
340
14
 93
        0
 40
1.125
309
GRIDFORMAT_END
 95
       16
302
GRIDFORMAT
  1
GRIDFORMAT_BEGIN
 90
        0
 91
        1
 62
     0
 92
       -2
340
14
 93
        0
 40
1.125
309
GRIDFORMAT_END
 95
       32
302
GRIDFORMAT
  1
GRIDFORMAT_BEGIN
 90
        0
 91
        1
 62
     0
 92
       -2
340
14
 93
        0
 40
1.125
309
GRIDFORMAT_END
309
TABLEFORMAT_END
  1
CELLSTYLE_BEGIN
 90
        2
 91
        1
300
_HEADER
309
CELLSTYLE_END
300
CELLSTYLE
  1
TABLEFORMAT_BEGIN
 90
        5
170
     1
 91
        0
 92
        0
 62
   257
 93
        1
300
CONTENTFORMAT
  1
CONTENTFORMAT_BEGIN
 90
        0
 91
        0
 92
      512
 93
        0
300

 40
0.0
140
1.0
 94
        2
 62
     0
340
11
144
4.5
309
CONTENTFORMAT_END
171
     1
301
MARGIN
  1
CELLMARGIN_BEGIN
 40
1.5
 40
1.5
 40
1.5
 40
1.5
 40
4.5
 40
4.5
309
CELLMARGIN_END
 94
        6
 95
        1
302
GRIDFORMAT
  1
GRIDFORMAT_BEGIN
 90
        0
 91
        1
 62
     0
 92
       -2
340
14
 93
        0
 40
1.125
309
GRIDFORMAT_END
 95
        2
302
GRIDFORMAT
  1
GRIDFORMAT_BEGIN
 90
        0
 91
        1
 62
     0
 92
       -2
340
14
 93
        0
 40
1.125
309
GRIDFORMAT_END
 95
        4
302
GRIDFORMAT
  1
GRIDFORMAT_BEGIN
 90
        0
 91
        1
 62
     0
 92
       -2
340
14
 93
        0
 40
1.125
309
GRIDFORMAT_END
 95
        8
302
GRIDFORMAT
  1
GRIDFORMAT_BEGIN
 90
        0
 91
        1
 62
     0
 92
       -2
340
14
 93
        0
 40
1.125
309
GRIDFORMAT_END
 95
       16
302
GRIDFORMAT
  1
GRIDFORMAT_BEGIN
 90
        0
 91
        1
 62
     0
 92
       -2
340
14
 93
        0
 40
1.125
309
GRIDFORMAT_END
 95
       32
302
GRIDFORMAT
  1
GRIDFORMAT_BEGIN
 90
        0
 91
        1
 62
     0
 92
       -2
340
14
 93
        0
 40
1.125
309
GRIDFORMAT_END
309
TABLEFORMAT_END
  1
CELLSTYLE_BEGIN
 90
        3
 91
        2
300
_DATA
309
CELLSTYLE_END
  0
XRECORD
  5
EB5
102
{ACAD_REACTORS
330
162
102
}
330
162
100
AcDbXrecord
280
     1
102
ACAD_ROUNDTRIP_PRE2007_TABLESTYLE
 90
      512
 91
        0
  1

 92
      512
 93
        0
  2

 94
      512
 95
        0
  3

  0
ENDSEC
  0
EOF
