  0
SECTION
  2
HEADER
  9
$ACADVER
  1
AC1015
  9
$ACADMAINTVER
 70
    20
  9
$DWGCODEPAGE
  3
ANSI_1254
  9
$INSBASE
 10
0.0
 20
0.0
 30
0.0
  9
$EXTMIN
 10
1935.715256869456
 20
852.3880300642906
 30
0.0
  9
$EXTMAX
 10
2093.931931991534
 20
916.1209454155416
 30
0.0
  9
$LIMMIN
 10
0.0
 20
0.0
  9
$LIMMAX
 10
420.0
 20
297.0
  9
$ORTHOMODE
 70
     0
  9
$REGENMODE
 70
     1
  9
$FILLMODE
 70
     1
  9
$QTEXTMODE
 70
     0
  9
$MIRRTEXT
 70
     0
  9
$LTSCALE
 40
1.0
  9
$ATTMODE
 70
     1
  9
$TEXTSIZE
 40
2.5
  9
$TRACEWID
 40
1.0
  9
$TEXTSTYLE
  7
Standard
  9
$CLAYER
  8
0
  9
$CELTYPE
  6
ByLayer
  9
$CECOLOR
 62
   256
  9
$CELTSCALE
 40
1.0
  9
$DISPSILH
 70
     0
  9
$DIMSCALE
 40
1.0
  9
$DIMASZ
 40
2.5
  9
$DIMEXO
 40
0.625
  9
$DIMDLI
 40
3.75
  9
$DIMRND
 40
0.0
  9
$DIMDLE
 40
0.0
  9
$DIMEXE
 40
1.25
  9
$DIMTP
 40
0.0
  9
$DIMTM
 40
0.0
  9
$DIMTXT
 40
2.5
  9
$DIMCEN
 40
2.5
  9
$DIMTSZ
 40
0.0
  9
$DIMTOL
 70
     0
  9
$DIMLIM
 70
     0
  9
$DIMTIH
 70
     0
  9
$DIMTOH
 70
     0
  9
$DIMSE1
 70
     0
  9
$DIMSE2
 70
     0
  9
$DIMTAD
 70
     1
  9
$DIMZIN
 70
     8
  9
$DIMBLK
  1

  9
$DIMASO
 70
     1
  9
$DIMSHO
 70
     1
  9
$DIMPOST
  1

  9
$DIMAPOST
  1

  9
$DIMALT
 70
     0
  9
$DIMALTD
 70
     3
  9
$DIMALTF
 40
0.03937007874016
  9
$DIMLFAC
 40
1.0
  9
$DIMTOFL
 70
     1
  9
$DIMTVP
 40
0.0
  9
$DIMTIX
 70
     0
  9
$DIMSOXD
 70
     0
  9
$DIMSAH
 70
     0
  9
$DIMBLK1
  1

  9
$DIMBLK2
  1

  9
$DIMSTYLE
  2
ISO-25
  9
$DIMCLRD
 70
     0
  9
$DIMCLRE
 70
     0
  9
$DIMCLRT
 70
     0
  9
$DIMTFAC
 40
1.0
  9
$DIMGAP
 40
0.625
  9
$DIMJUST
 70
     0
  9
$DIMSD1
 70
     0
  9
$DIMSD2
 70
     0
  9
$DIMTOLJ
 70
     0
  9
$DIMTZIN
 70
     8
  9
$DIMALTZ
 70
     0
  9
$DIMALTTZ
 70
     0
  9
$DIMUPT
 70
     0
  9
$DIMDEC
 70
     2
  9
$DIMTDEC
 70
     2
  9
$DIMALTU
 70
     2
  9
$DIMALTTD
 70
     3
  9
$DIMTXSTY
  7
Standard
  9
$DIMAUNIT
 70
     0
  9
$DIMADEC
 70
     0
  9
$DIMALTRND
 40
0.0
  9
$DIMAZIN
 70
     0
  9
$DIMDSEP
 70
    44
  9
$DIMATFIT
 70
     3
  9
$DIMFRAC
 70
     0
  9
$DIMLDRBLK
  1

  9
$DIMLUNIT
 70
     2
  9
$DIMLWD
 70
    -2
  9
$DIMLWE
 70
    -2
  9
$DIMTMOVE
 70
     0
  9
$LUNITS
 70
     2
  9
$LUPREC
 70
     4
  9
$SKETCHINC
 40
1.0
  9
$FILLETRAD
 40
0.0
  9
$AUNITS
 70
     0
  9
$AUPREC
 70
     0
  9
$MENU
  1
.
  9
$ELEVATION
 40
0.0
  9
$PELEVATION
 40
0.0
  9
$THICKNESS
 40
0.0
  9
$LIMCHECK
 70
     0
  9
$CHAMFERA
 40
0.0
  9
$CHAMFERB
 40
0.0
  9
$CHAMFERC
 40
0.0
  9
$CHAMFERD
 40
0.0
  9
$SKPOLY
 70
     0
  9
$TDCREATE
 40
2458446.687844595
  9
$TDUCREATE
 40
2458446.562844595
  9
$TDUPDATE
 40
2458956.420818935
  9
$TDUUPDATE
 40
2458956.295818935
  9
$TDINDWG
 40
0.0010080556
  9
$TDUSRTIMER
 40
0.0010080556
  9
$USRTIMER
 70
     1
  9
$ANGBASE
 50
0.0
  9
$ANGDIR
 70
     0
  9
$PDMODE
 70
     0
  9
$PDSIZE
 40
0.0
  9
$PLINEWID
 40
0.0
  9
$SPLFRAME
 70
     0
  9
$SPLINETYPE
 70
     6
  9
$SPLINESEGS
 70
     8
  9
$HANDSEED
  5
EA4
  9
$SURFTAB1
 70
     6
  9
$SURFTAB2
 70
     6
  9
$SURFTYPE
 70
     6
  9
$SURFU
 70
     6
  9
$SURFV
 70
     6
  9
$UCSBASE
  2

  9
$UCSNAME
  2

  9
$UCSORG
 10
0.0
 20
0.0
 30
0.0
  9
$UCSXDIR
 10
1.0
 20
0.0
 30
0.0
  9
$UCSYDIR
 10
0.0
 20
1.0
 30
0.0
  9
$UCSORTHOREF
  2

  9
$UCSORTHOVIEW
 70
     0
  9
$UCSORGTOP
 10
0.0
 20
0.0
 30
0.0
  9
$UCSORGBOTTOM
 10
0.0
 20
0.0
 30
0.0
  9
$UCSORGLEFT
 10
0.0
 20
0.0
 30
0.0
  9
$UCSORGRIGHT
 10
0.0
 20
0.0
 30
0.0
  9
$UCSORGFRONT
 10
0.0
 20
0.0
 30
0.0
  9
$UCSORGBACK
 10
0.0
 20
0.0
 30
0.0
  9
$PUCSBASE
  2

  9
$PUCSNAME
  2

  9
$PUCSORG
 10
0.0
 20
0.0
 30
0.0
  9
$PUCSXDIR
 10
1.0
 20
0.0
 30
0.0
  9
$PUCSYDIR
 10
0.0
 20
1.0
 30
0.0
  9
$PUCSORTHOREF
  2

  9
$PUCSORTHOVIEW
 70
     0
  9
$PUCSORGTOP
 10
0.0
 20
0.0
 30
0.0
  9
$PUCSORGBOTTOM
 10
0.0
 20
0.0
 30
0.0
  9
$PUCSORGLEFT
 10
0.0
 20
0.0
 30
0.0
  9
$PUCSORGRIGHT
 10
0.0
 20
0.0
 30
0.0
  9
$PUCSORGFRONT
 10
0.0
 20
0.0
 30
0.0
  9
$PUCSORGBACK
 10
0.0
 20
0.0
 30
0.0
  9
$USERI1
 70
     0
  9
$USERI2
 70
     0
  9
$USERI3
 70
     0
  9
$USERI4
 70
     0
  9
$USERI5
 70
     0
  9
$USERR1
 40
0.0
  9
$USERR2
 40
0.0
  9
$USERR3
 40
0.0
  9
$USERR4
 40
0.0
  9
$USERR5
 40
0.0
  9
$WORLDVIEW
 70
     1
  9
$SHADEDGE
 70
     3
  9
$SHADEDIF
 70
    70
  9
$TILEMODE
 70
     1
  9
$MAXACTVP
 70
    64
  9
$PINSBASE
 10
0.0
 20
0.0
 30
0.0
  9
$PLIMCHECK
 70
     0
  9
$PEXTMIN
 10
0.0
 20
0.0
 30
0.0
  9
$PEXTMAX
 10
0.0
 20
0.0
 30
0.0
  9
$PLIMMIN
 10
0.0
 20
0.0
  9
$PLIMMAX
 10
12.0
 20
9.0
  9
$UNITMODE
 70
     0
  9
$VISRETAIN
 70
     1
  9
$PLINEGEN
 70
     0
  9
$PSLTSCALE
 70
     1
  9
$TREEDEPTH
 70
  3020
  9
$CMLSTYLE
  2
Standard
  9
$CMLJUST
 70
     0
  9
$CMLSCALE
 40
20.0
  9
$PROXYGRAPHICS
 70
     1
  9
$MEASUREMENT
 70
     1
  9
$CELWEIGHT
370
    -1
  9
$ENDCAPS
280
     0
  9
$JOINSTYLE
280
     0
  9
$LWDISPLAY
290
     0
  9
$INSUNITS
 70
     4
  9
$HYPERLINKBASE
  1

  9
$STYLESHEET
  1

  9
$XEDIT
290
     1
  9
$CEPSNTYPE
380
     0
  9
$PSTYLEMODE
290
     1
  9
$FINGERPRINTGUID
  2
{F9358720-09D0-4390-A31B-B591D57F56E4}
  9
$VERSIONGUID
  2
{98EB451A-009F-498C-B675-A94AA6FF1FA4}
  9
$EXTNAMES
290
     1
  9
$PSVPSCALE
 40
0.0
  9
$OLESTARTUP
290
     0
  0
ENDSEC
  0
SECTION
  2
CLASSES
  0
CLASS
  1
ACDBDICTIONARYWDFLT
  2
AcDbDictionaryWithDefault
  3
ObjectDBX Classes
 90
        0
280
     0
281
     0
  0
CLASS
  1
ACDBPLACEHOLDER
  2
AcDbPlaceHolder
  3
ObjectDBX Classes
 90
        0
280
     0
281
     0
  0
CLASS
  1
LAYOUT
  2
AcDbLayout
  3
ObjectDBX Classes
 90
        0
280
     0
281
     0
  0
CLASS
  1
DICTIONARYVAR
  2
AcDbDictionaryVar
  3
ObjectDBX Classes
 90
        0
280
     0
281
     0
  0
CLASS
  1
TABLESTYLE
  2
AcDbTableStyle
  3
ObjectDBX Classes
 90
     4095
280
     0
281
     0
  0
CLASS
  1
MATERIAL
  2
AcDbMaterial
  3
ObjectDBX Classes
 90
     1153
280
     0
281
     0
  0
CLASS
  1
VISUALSTYLE
  2
AcDbVisualStyle
  3
ObjectDBX Classes
 90
     4095
280
     0
281
     0
  0
CLASS
  1
SCALE
  2
AcDbScale
  3
ObjectDBX Classes
 90
     1153
280
     0
281
     0
  0
CLASS
  1
MLEADERSTYLE
  2
AcDbMLeaderStyle
  3
ACDB_MLEADERSTYLE_CLASS
 90
     4095
280
     0
281
     0
  0
CLASS
  1
CELLSTYLEMAP
  2
AcDbCellStyleMap
  3
ObjectDBX Classes
 90
     1152
280
     0
281
     0
  0
ENDSEC
  0
SECTION
  2
TABLES
  0
TABLE
  2
VPORT
  5
8
330
0
100
AcDbSymbolTable
 70
     1
  0
VPORT
  5
EA
330
8
100
AcDbSymbolTableRecord
100
AcDbViewportTableRecord
  2
*Active
 70
     0
 10
0.0
 20
0.0
 11
1.0
 21
1.0
 12
2014.837570048577
 22
885.8194385117563
 13
0.0
 23
0.0
 14
10.0
 24
10.0
 15
10.0
 25
10.0
 16
0.0
 26
0.0
 36
1.0
 17
0.0
 27
0.0
 37
0.0
 40
73.32330026045491
 41
1.903110047846889
 42
50.0
 43
0.0
 44
0.0
 50
0.0
 51
0.0
 71
     0
 72
  1000
 73
     1
 74
     3
 75
     0
 76
     0
 77
     0
 78
     0
281
     0
 65
     1
110
0.0
120
0.0
130
0.0
111
1.0
121
0.0
131
0.0
112
0.0
122
1.0
132
0.0
 79
     0
146
0.0
  0
ENDTAB
  0
TABLE
  2
LTYPE
  5
5
330
0
100
AcDbSymbolTable
 70
     1
  0
LTYPE
  5
14
330
5
100
AcDbSymbolTableRecord
100
AcDbLinetypeTableRecord
  2
ByBlock
 70
     0
  3

 72
    65
 73
     0
 40
0.0
  0
LTYPE
  5
15
330
5
100
AcDbSymbolTableRecord
100
AcDbLinetypeTableRecord
  2
ByLayer
 70
     0
  3

 72
    65
 73
     0
 40
0.0
  0
LTYPE
  5
16
330
5
100
AcDbSymbolTableRecord
100
AcDbLinetypeTableRecord
  2
Continuous
 70
     0
  3
Solid line
 72
    65
 73
     0
 40
0.0
  0
ENDTAB
  0
TABLE
  2
LAYER
  5
2
330
0
100
AcDbSymbolTable
 70
     1
  0
LAYER
  5
10
102
{ACAD_XDICTIONARY
360
13C
102
}
330
2
100
AcDbSymbolTableRecord
100
AcDbLayerTableRecord
  2
0
 70
     0
 62
     7
  6
Continuous
370
    -3
390
F
  0
ENDTAB
  0
TABLE
  2
STYLE
  5
3
330
0
100
AcDbSymbolTable
 70
     2
  0
STYLE
  5
11
330
3
100
AcDbSymbolTableRecord
100
AcDbTextStyleTableRecord
  2
Standard
 70
     0
 40
0.0
 41
1.0
 50
0.0
 71
     0
 42
2.5
  3
txt
  4

  0
STYLE
  5
132
330
3
100
AcDbSymbolTableRecord
100
AcDbTextStyleTableRecord
  2
Annotative
 70
     0
 40
0.0
 41
1.0
 50
0.0
 71
     0
 42
2.5
  3
txt.shx
  4

1001
AcadAnnotative
1000
AnnotativeData
1002
{
1070
     1
1070
     1
1002
}
  0
ENDTAB
  0
TABLE
  2
VIEW
  5
6
330
0
100
AcDbSymbolTable
 70
     0
  0
ENDTAB
  0
TABLE
  2
UCS
  5
7
330
0
100
AcDbSymbolTable
 70
     0
  0
ENDTAB
  0
TABLE
  2
APPID
  5
9
330
0
100
AcDbSymbolTable
 70
     7
  0
APPID
  5
12
330
9
100
AcDbSymbolTableRecord
100
AcDbRegAppTableRecord
  2
ACAD
 70
     0
  0
APPID
  5
9E
330
9
100
AcDbSymbolTableRecord
100
AcDbRegAppTableRecord
  2
ACAD_PSEXT
 70
     0
  0
APPID
  5
133
330
9
100
AcDbSymbolTableRecord
100
AcDbRegAppTableRecord
  2
AcadAnnoPO
 70
     0
  0
APPID
  5
134
330
9
100
AcDbSymbolTableRecord
100
AcDbRegAppTableRecord
  2
AcadAnnotative
 70
     0
  0
APPID
  5
135
330
9
100
AcDbSymbolTableRecord
100
AcDbRegAppTableRecord
  2
ACAD_DSTYLE_DIMJAG
 70
     0
  0
APPID
  5
136
330
9
100
AcDbSymbolTableRecord
100
AcDbRegAppTableRecord
  2
ACAD_DSTYLE_DIMTALN
 70
     0
  0
APPID
  5
165
330
9
100
AcDbSymbolTableRecord
100
AcDbRegAppTableRecord
  2
ACAD_MLEADERVER
 70
     0
  0
ENDTAB
  0
TABLE
  2
DIMSTYLE
  5
A
330
0
100
AcDbSymbolTable
 70
     2
100
AcDbDimStyleTable
 71
     2
340
27
340
137
  0
DIMSTYLE
105
27
330
A
100
AcDbSymbolTableRecord
100
AcDbDimStyleTableRecord
  2
ISO-25
 70
     0
 41
2.5
 42
0.625
 43
3.75
 44
1.25
 73
     0
 74
     0
 77
     1
 78
     8
140
2.5
141
2.5
143
0.03937007874016
147
0.625
171
     3
172
     1
271
     2
272
     2
274
     3
278
    44
283
     0
284
     8
340
11
  0
DIMSTYLE
105
137
330
A
100
AcDbSymbolTableRecord
100
AcDbDimStyleTableRecord
  2
Annotative
 70
     0
 40
0.0
 41
2.5
 42
0.625
 43
3.75
 44
1.25
 73
     0
 74
     0
 77
     1
 78
     8
140
2.5
141
2.5
143
0.03937007874016
147
0.625
171
     3
172
     1
271
     2
272
     2
274
     3
278
    44
283
     0
284
     8
340
11
1001
AcadAnnotative
1000
AnnotativeData
1002
{
1070
     1
1070
     1
1002
}
1001
ACAD_DSTYLE_DIMJAG
1070
   388
1040
1.5
1001
ACAD_DSTYLE_DIMTALN
1070
   392
1070
     0
  0
ENDTAB
  0
TABLE
  2
BLOCK_RECORD
  5
1
330
0
100
AcDbSymbolTable
 70
     5
  0
BLOCK_RECORD
  5
1F
330
1
100
AcDbSymbolTableRecord
100
AcDbBlockTableRecord
  2
*Model_Space
340
22
  0
BLOCK_RECORD
  5
D2
330
1
100
AcDbSymbolTableRecord
100
AcDbBlockTableRecord
  2
*Paper_Space
340
D3
  0
BLOCK_RECORD
  5
D6
330
1
100
AcDbSymbolTableRecord
100
AcDbBlockTableRecord
  2
*Paper_Space0
340
D7
  0
BLOCK_RECORD
  5
A37
330
1
100
AcDbSymbolTableRecord
100
AcDbBlockTableRecord
  2
1
340
0
310
2800000020000000200000000100080000000000000400000000000000000000000000000000000000000000000080000080000000808000800000008000800080800000C0C0C000C0DCC000F0CAA6000020400000206000002080000020A0000020C0000020E00000400000004020000040400000406000004080000040A0
310
000040C0000040E00000600000006020000060400000606000006080000060A0000060C0000060E00000800000008020000080400000806000008080000080A0000080C0000080E00000A0000000A0200000A0400000A0600000A0800000A0A00000A0C00000A0E00000C0000000C0200000C0400000C0600000C0800000C0
310
A00000C0C00000C0E00000E0000000E0200000E0400000E0600000E0800000E0A00000E0C00000E0E00040000000400020004000400040006000400080004000A0004000C0004000E00040200000402020004020400040206000402080004020A0004020C0004020E000404000004040200040404000404060004040800040
310
40A0004040C0004040E00040600000406020004060400040606000406080004060A0004060C0004060E00040800000408020004080400040806000408080004080A0004080C0004080E00040A0000040A0200040A0400040A0600040A0800040A0A00040A0C00040A0E00040C0000040C0200040C0400040C0600040C08000
310
40C0A00040C0C00040C0E00040E0000040E0200040E0400040E0600040E0800040E0A00040E0C00040E0E00080000000800020008000400080006000800080008000A0008000C0008000E00080200000802020008020400080206000802080008020A0008020C0008020E00080400000804020008040400080406000804080
310
008040A0008040C0008040E00080600000806020008060400080606000806080008060A0008060C0008060E00080800000808020008080400080806000808080008080A0008080C0008080E00080A0000080A0200080A0400080A0600080A0800080A0A00080A0C00080A0E00080C0000080C0200080C0400080C0600080C0
310
800080C0A00080C0C00080C0E00080E0000080E0200080E0400080E0600080E0800080E0A00080E0C00080E0E000C0000000C0002000C0004000C0006000C0008000C000A000C000C000C000E000C0200000C0202000C0204000C0206000C0208000C020A000C020C000C020E000C0400000C0402000C0404000C0406000C0
310
408000C040A000C040C000C040E000C0600000C0602000C0604000C0606000C0608000C060A000C060C000C060E000C0800000C0802000C0804000C0806000C0808000C080A000C080C000C080E000C0A00000C0A02000C0A04000C0A06000C0A08000C0A0A000C0A0C000C0A0E000C0C00000C0C02000C0C04000C0C06000
310
C0C08000C0C0A000F0FBFF00A4A0A000808080000000FF0000FF000000FFFF00FF000000FF00FF00FFFF0000FFFFFF0000000000000000000000000000000000000000000000000000000000000000000000000000000000000000000000000000000000000000000000000000000000000000000000000000000000000000
310
00000000000000000000000000000000000000000000000000000000000000000000000000000000000000000000000000000000000000000000000000000000000000000000000000000000000000000000000000000000000000000000000000000000000000000000000000000000000000000000000000000000000000
310
0000000000000000000000000000000000000000000000000000000000000000000000000000000000000000000000000000000000FFFFFFFFFF00000000000000000000000000000000FFFFFFFFFF00000000FFFFFFFFFFFFFFFF0000000000000000000000000000FFFFFFFFFFFFFFFF0000FFFFFFFF00FFFFFFFF000000
310
000000000000000000FFFFFFFF00FFFFFFFF000000FFFFFF00FFFFFF00FF00000000000000000000FF00FFFFFF0000FFFF00000000FFFF0000FFFFFFFF00FFFF000000000000FFFF0000FFFFFF0000FFFF00000000FFFFFFFFFFFFFFFFFFFFFFFFFFFFFFFFFFFFFFFFFFFFFFFFFFFFFFFF000000FFFFFFFFFFFFFFFFFF0000
310
00000000000000000000FFFFFFFFFFFFFFFFFF0000FF00000000000000000000000000000000000000000000000000000000FF0000FF00000000000000000000000000000000000000000000000000000000FF0000FF00000000000000000000000000000000000000000000000000000000FF0000FFFF0000000000000000
310
000000000000000000000000000000000000FFFF000000FF0000000000000000000000000000000000000000000000000000FF000000FFFF0000000000000000000000000000000000000000000000000000FFFF0000FF00000000000000FFFFFFFF0000FFFFFF000000000000000000000000FF0000FFFF000000000000FF
310
000000FFFFFF00FFFF00000000000000000000FFFF000000FFFFFFFFFFFFFFFF000000FF00000000FFFFFFFFFFFFFFFFFFFFFFFF000000000000000000000000000000000000000000000000000000000000000000000000000000000000000000000000000000000000000000000000000000000000000000000000000000
310
00000000000000000000000000000000000000000000000000000000000000000000000000000000000000000000000000000000000000000000000000000000000000000000000000000000000000000000000000000000000000000000000000000000000000000000000000000000000000000000000000000000000000
310
0000000000000000000000000000000000000000000000000000000000000000000000000000000000000000000000000000000000000000
102
{BLKREFS
331
B21
102
}
1001
ACAD
1000
DesignCenter Data
1002
{
1070
     1
1070
     4
1002
}
  0
BLOCK_RECORD
  5
B22
330
1
100
AcDbSymbolTableRecord
100
AcDbBlockTableRecord
  2
2
340
0
310
2800000020000000200000000100080000000000000400000000000000000000000000000000000000000000000080000080000000808000800000008000800080800000C0C0C000C0DCC000F0CAA6000020400000206000002080000020A0000020C0000020E00000400000004020000040400000406000004080000040A0
310
000040C0000040E00000600000006020000060400000606000006080000060A0000060C0000060E00000800000008020000080400000806000008080000080A0000080C0000080E00000A0000000A0200000A0400000A0600000A0800000A0A00000A0C00000A0E00000C0000000C0200000C0400000C0600000C0800000C0
310
A00000C0C00000C0E00000E0000000E0200000E0400000E0600000E0800000E0A00000E0C00000E0E00040000000400020004000400040006000400080004000A0004000C0004000E00040200000402020004020400040206000402080004020A0004020C0004020E000404000004040200040404000404060004040800040
310
40A0004040C0004040E00040600000406020004060400040606000406080004060A0004060C0004060E00040800000408020004080400040806000408080004080A0004080C0004080E00040A0000040A0200040A0400040A0600040A0800040A0A00040A0C00040A0E00040C0000040C0200040C0400040C0600040C08000
310
40C0A00040C0C00040C0E00040E0000040E0200040E0400040E0600040E0800040E0A00040E0C00040E0E00080000000800020008000400080006000800080008000A0008000C0008000E00080200000802020008020400080206000802080008020A0008020C0008020E00080400000804020008040400080406000804080
310
008040A0008040C0008040E00080600000806020008060400080606000806080008060A0008060C0008060E00080800000808020008080400080806000808080008080A0008080C0008080E00080A0000080A0200080A0400080A0600080A0800080A0A00080A0C00080A0E00080C0000080C0200080C0400080C0600080C0
310
800080C0A00080C0C00080C0E00080E0000080E0200080E0400080E0600080E0800080E0A00080E0C00080E0E000C0000000C0002000C0004000C0006000C0008000C000A000C000C000C000E000C0200000C0202000C0204000C0206000C0208000C020A000C020C000C020E000C0400000C0402000C0404000C0406000C0
310
408000C040A000C040C000C040E000C0600000C0602000C0604000C0606000C0608000C060A000C060C000C060E000C0800000C0802000C0804000C0806000C0808000C080A000C080C000C080E000C0A00000C0A02000C0A04000C0A06000C0A08000C0A0A000C0A0C000C0A0E000C0C00000C0C02000C0C04000C0C06000
310
C0C08000C0C0A000F0FBFF00A4A0A000808080000000FF0000FF000000FFFF00FF000000FF00FF00FFFF0000FFFFFF00000000000000000000000000000000000000000000000000000000000000000000000000000000000000000000FFFFFFFFFFFF0000000000000000000000000000000000000000000000000000FFFF
310
FFFFFFFF0000000000000000000000000000000000000000000000000000FFFFFFFFFFFF0000000000000000000000000000000000000000000000000000FF00000000FF0000000000000000000000000000000000000000000000000000FFFFFFFFFFFF0000000000000000000000000000000000000000000000000000FF
310
FFFFFFFFFF0000000000000000000000000000000000000000000000000000FF00000000FF0000000000000000000000000000000000000000000000000000FF00000000FF0000000000000000000000000000000000000000000000000000FF00000000FF0000000000000000000000000000000000000000000000000000
310
FF00000000FF0000000000000000000000000000000000000000000000000000FFFFFFFFFFFF0000000000000000000000000000000000000000000000000000FFFFFFFFFFFF0000000000000000000000000000000000000000000000000000FFFFFFFF00FF00000000000000000000000000000000000000000000000000
310
00FF00000000FF0000000000000000000000000000000000000000000000000000FF00000000FF0000000000000000000000000000000000000000000000000000FF00000000FF0000000000000000000000000000000000000000000000000000FF00000000FF000000000000000000000000000000000000000000000000
310
0000FF00000000FF0000000000000000000000000000000000000000000000000000FF00000000FF0000000000000000000000000000000000000000000000000000FFFFFFFFFFFF0000000000000000000000000000000000000000000000000000FFFFFFFFFFFF0000000000000000000000000000000000000000000000
310
000000FF00000000FF0000000000000000000000000000000000000000000000000000FFFFFFFFFFFF0000000000000000000000000000000000000000000000000000FFFFFFFFFFFF0000000000000000000000000000000000000000000000000000FF00000000FF00000000000000000000000000000000000000000000
310
00000000FF00000000FF0000000000000000000000000000000000000000000000000000FFFFFFFFFFFF0000000000000000000000000000000000000000000000000000FFFFFFFFFFFF0000000000000000000000000000000000000000000000000000FFFFFFFFFFFF000000000000000000000000000000000000000000
310
0000000000FFFFFFFFFFFF000000000000000000000000000000000000000000000000000000000000000000000000000000000000000000
102
{BLKREFS
331
B8A
102
}
1001
ACAD
1000
DesignCenter Data
1002
{
1070
     1
1070
     4
1002
}
  0
BLOCK_RECORD
  5
B8B
330
1
100
AcDbSymbolTableRecord
100
AcDbBlockTableRecord
  2
3
340
0
310
2800000020000000200000000100080000000000000400000000000000000000000000000000000000000000000080000080000000808000800000008000800080800000C0C0C000C0DCC000F0CAA6000020400000206000002080000020A0000020C0000020E00000400000004020000040400000406000004080000040A0
310
000040C0000040E00000600000006020000060400000606000006080000060A0000060C0000060E00000800000008020000080400000806000008080000080A0000080C0000080E00000A0000000A0200000A0400000A0600000A0800000A0A00000A0C00000A0E00000C0000000C0200000C0400000C0600000C0800000C0
310
A00000C0C00000C0E00000E0000000E0200000E0400000E0600000E0800000E0A00000E0C00000E0E00040000000400020004000400040006000400080004000A0004000C0004000E00040200000402020004020400040206000402080004020A0004020C0004020E000404000004040200040404000404060004040800040
310
40A0004040C0004040E00040600000406020004060400040606000406080004060A0004060C0004060E00040800000408020004080400040806000408080004080A0004080C0004080E00040A0000040A0200040A0400040A0600040A0800040A0A00040A0C00040A0E00040C0000040C0200040C0400040C0600040C08000
310
40C0A00040C0C00040C0E00040E0000040E0200040E0400040E0600040E0800040E0A00040E0C00040E0E00080000000800020008000400080006000800080008000A0008000C0008000E00080200000802020008020400080206000802080008020A0008020C0008020E00080400000804020008040400080406000804080
310
008040A0008040C0008040E00080600000806020008060400080606000806080008060A0008060C0008060E00080800000808020008080400080806000808080008080A0008080C0008080E00080A0000080A0200080A0400080A0600080A0800080A0A00080A0C00080A0E00080C0000080C0200080C0400080C0600080C0
310
800080C0A00080C0C00080C0E00080E0000080E0200080E0400080E0600080E0800080E0A00080E0C00080E0E000C0000000C0002000C0004000C0006000C0008000C000A000C000C000C000E000C0200000C0202000C0204000C0206000C0208000C020A000C020C000C020E000C0400000C0402000C0404000C0406000C0
310
408000C040A000C040C000C040E000C0600000C0602000C0604000C0606000C0608000C060A000C060C000C060E000C0800000C0802000C0804000C0806000C0808000C080A000C080C000C080E000C0A00000C0A02000C0A04000C0A06000C0A08000C0A0A000C0A0C000C0A0E000C0C00000C0C02000C0C04000C0C06000
310
C0C08000C0C0A000F0FBFF00A4A0A000808080000000FF0000FF000000FFFF00FF000000FF00FF00FFFF0000FFFFFF0000000000000000000000000000000000000000000000000000000000000000000000000000000000000000000000000000000000000000000000000000000000000000000000000000000000000000
310
00000000000000000000000000000000000000000000000000000000000000000000000000000000000000000000000000000000000000000000000000000000000000000000000000000000000000000000000000000000000000000000000000000000000000000000000000000000000000000000000000000000000000
310
00000000000000000000000000000000000000000000000000000000000000000000000000000000000000000000000000000000000000000000000000000000000000000000000000000000000000000000000000000000000000000000000000000000000000000000000000000000000000000000000000000000000000
310
0000000000000000000000000000000000000000000000000000000000000000000000000000000000000000000000000000000000000000000000000000000000000000000000000000000000000000000000000000000000000000000000000000000000000000000000000000000000000000FFFFFFFFFFFFFFFFFFFFFF
310
FFFFFFFFFFFFFFFFFFFFFFFFFFFFFFFFFFFFFF0000FFFF00FFFFFFFFFFFFFFFFFFFFFFFFFFFFFFFFFFFFFFFFFFFFFFFFFFFFFF0000FFFF00FFFFFFFFFFFFFFFFFFFFFFFFFFFFFFFFFFFFFFFFFFFFFFFFFFFFFF0000FFFFFFFFFFFFFFFFFFFFFFFFFFFFFFFFFFFFFFFFFFFFFFFFFFFFFFFFFFFF000000000000000000000000
310
00000000000000000000000000000000000000000000000000000000000000000000000000000000000000000000000000000000000000000000000000000000000000000000000000000000000000000000000000000000000000000000000000000000000000000000000000000000000000000000000000000000000000
310
00000000000000000000000000000000000000000000000000000000000000000000000000000000000000000000000000000000000000000000000000000000000000000000000000000000000000000000000000000000000000000000000000000000000000000000000000000000000000000000000000000000000000
310
00000000000000000000000000000000000000000000000000000000000000000000000000000000000000000000000000000000000000000000000000000000000000000000000000000000000000000000000000000000000000000000000000000000000000000000000000000000000000000000000000000000000000
310
0000000000000000000000000000000000000000000000000000000000000000000000000000000000000000000000000000000000000000
102
{BLKREFS
331
C5F
102
}
1001
ACAD
1000
DesignCenter Data
1002
{
1070
     1
1070
     4
1002
}
  0
BLOCK_RECORD
  5
C60
330
1
100
AcDbSymbolTableRecord
100
AcDbBlockTableRecord
  2
4
340
0
310
2800000020000000200000000100080000000000000400000000000000000000000000000000000000000000000080000080000000808000800000008000800080800000C0C0C000C0DCC000F0CAA6000020400000206000002080000020A0000020C0000020E00000400000004020000040400000406000004080000040A0
310
000040C0000040E00000600000006020000060400000606000006080000060A0000060C0000060E00000800000008020000080400000806000008080000080A0000080C0000080E00000A0000000A0200000A0400000A0600000A0800000A0A00000A0C00000A0E00000C0000000C0200000C0400000C0600000C0800000C0
310
A00000C0C00000C0E00000E0000000E0200000E0400000E0600000E0800000E0A00000E0C00000E0E00040000000400020004000400040006000400080004000A0004000C0004000E00040200000402020004020400040206000402080004020A0004020C0004020E000404000004040200040404000404060004040800040
310
40A0004040C0004040E00040600000406020004060400040606000406080004060A0004060C0004060E00040800000408020004080400040806000408080004080A0004080C0004080E00040A0000040A0200040A0400040A0600040A0800040A0A00040A0C00040A0E00040C0000040C0200040C0400040C0600040C08000
310
40C0A00040C0C00040C0E00040E0000040E0200040E0400040E0600040E0800040E0A00040E0C00040E0E00080000000800020008000400080006000800080008000A0008000C0008000E00080200000802020008020400080206000802080008020A0008020C0008020E00080400000804020008040400080406000804080
310
008040A0008040C0008040E00080600000806020008060400080606000806080008060A0008060C0008060E00080800000808020008080400080806000808080008080A0008080C0008080E00080A0000080A0200080A0400080A0600080A0800080A0A00080A0C00080A0E00080C0000080C0200080C0400080C0600080C0
310
800080C0A00080C0C00080C0E00080E0000080E0200080E0400080E0600080E0800080E0A00080E0C00080E0E000C0000000C0002000C0004000C0006000C0008000C000A000C000C000C000E000C0200000C0202000C0204000C0206000C0208000C020A000C020C000C020E000C0400000C0402000C0404000C0406000C0
310
408000C040A000C040C000C040E000C0600000C0602000C0604000C0606000C0608000C060A000C060C000C060E000C0800000C0802000C0804000C0806000C0808000C080A000C080C000C080E000C0A00000C0A02000C0A04000C0A06000C0A08000C0A0A000C0A0C000C0A0E000C0C00000C0C02000C0C04000C0C06000
310
C0C08000C0C0A000F0FBFF00A4A0A000808080000000FF0000FF000000FFFF00FF000000FF00FF00FFFF0000FFFFFF000000000000000000000000000000000000000000000000000000000000000000000000000000000000000000000000000000000000000000000000000000000000000000FFFF000000000000000000
310
00000000000000000000000000000000000000FFFFFF00FF000000000000000000000000000000000000000000000000000000FF00FF00FFFFFF00000000000000000000000000000000000000000000000000FFFFFFFFFFFFFFFF00000000000000000000000000000000000000000000000000FF00FFFFFFFFFFFF000000
310
0000000000000000000000000000000000000000FFFFFFFFFF00FFFFFFFF000000000000000000000000000000000000000000FFFFFFFFFFFF00FFFFFF00FF0000000000000000000000000000000000000000FF0000FF00FFFFFFFFFF00FF0000000000000000000000000000000000000000FF0000FF000000FFFFFFFFFF
310
FFFF000000000000000000000000000000000000FF0000FF0000000000FFFF00FFFFFFFF000000000000FFFFFF00000000000000FF00FFFF00000000000000000000FFFFFFFF0000FFFFFFFFFFFFFFFF00000000FFFFFFFF000000000000000000000000FFFFFFFFFF00FFFFFFFFFF00FF00000000FFFFFF00000000000000
310
00000000000000FFFF0000FFFFFF00FF00FF000000FFFF00FF00000000000000000000000000000000FFFFFFFFFF0000FFFF000000FF00FFFF000000000000000000000000000000000000FFFFFFFF00FF00000000FFFF00FF0000000000000000000000000000000000000000FFFFFFFFFF00000000FFFFFFFFFF00000000
310
00000000000000000000000000000000FFFFFFFF000000FFFFFFFFFFFFFF0000000000000000000000000000000000000000FFFF0000000000FFFFFFFFFFFFFFFF000000000000000000000000000000000000FF00000000000000FFFFFFFFFFFFFFFFFFFFFF00000000000000000000000000FF00000000000000000000FF
310
FFFFFFFFFFFFFFFF0000FF0000000000000000FFFF000000000000000000000000FFFFFF00FFFF00FFFFFFFFFF000000000000FFFF0000000000000000000000000000000000FFFFFFFFFFFFFFFF0000000000FF000000000000000000000000000000000000FFFF00FFFF0000FF0000000000FFFF00000000000000000000
310
000000000000000000000000FFFFFFFFFF00000000FF00000000000000000000000000000000000000000000FFFFFFFFFFFFFF00FFFF000000000000000000000000000000000000000000000000FFFFFFFFFFFFFF00000000000000000000000000000000000000000000000000000000FFFFFF0000000000000000000000
310
0000000000000000000000000000000000000000000000000000000000000000000000000000000000000000000000000000000000000000
102
{BLKREFS
331
E89
102
}
1001
ACAD
1000
DesignCenter Data
1002
{
1070
     1
1070
     4
1002
}
  0
ENDTAB
  0
ENDSEC
  0
SECTION
  2
BLOCKS
  0
BLOCK
  5
20
330
1F
100
AcDbEntity
  8
0
100
AcDbBlockBegin
  2
*Model_Space
 70
     0
 10
0.0
 20
0.0
 30
0.0
  3
*Model_Space
  1

  0
ENDBLK
  5
21
330
1F
100
AcDbEntity
  8
0
100
AcDbBlockEnd
  0
BLOCK
  5
D4
330
D2
100
AcDbEntity
 67
     1
  8
0
100
AcDbBlockBegin
  2
*Paper_Space
 70
     0
 10
0.0
 20
0.0
 30
0.0
  3
*Paper_Space
  1

  0
ENDBLK
  5
D5
330
D2
100
AcDbEntity
 67
     1
  8
0
100
AcDbBlockEnd
  0
BLOCK
  5
D8
330
D6
100
AcDbEntity
 67
     1
  8
0
100
AcDbBlockBegin
  2
*Paper_Space0
 70
     0
 10
0.0
 20
0.0
 30
0.0
  3
*Paper_Space0
  1

  0
ENDBLK
  5
D9
330
D6
100
AcDbEntity
 67
     1
  8
0
100
AcDbBlockEnd
  0
BLOCK
  5
A38
330
A37
100
AcDbEntity
  8
0
100
AcDbBlockBegin
  2
1
 70
     0
 10
0.0
 20
0.0
 30
0.0
  3
1
  1

  0
ARC
  5
A3A
330
A37
100
AcDbEntity
  8
0
  6
Continuous
 62
     7
370
    15
100
AcDbCircle
 10
1953.26584764862
 20
895.2258576814964
 30
0.0
 40
0.2000000000000455
100
AcDbArc
 50
92.50203803525131
 51
180.0
  0
LINE
  5
A3B
330
A37
100
AcDbEntity
  8
0
  6
Continuous
 62
     7
370
    15
100
AcDbLine
 10
1953.867117369558
 20
895.4523219607418
 30
0.0
 11
1953.257116663839
 21
895.4256670153744
 31
0.0
  0
ARC
  5
A3C
330
A37
100
AcDbEntity
  8
0
  6
Continuous
 62
     7
370
    15
100
AcDbCircle
 10
1953.875848354339
 20
895.2525126268637
 30
0.0
 40
0.200000000000017
100
AcDbArc
 50
0.0
 51
92.50203803525131
  0
LINE
  5
A3D
330
A37
100
AcDbEntity
  8
0
  6
Continuous
 62
     7
370
    15
100
AcDbLine
 10
1954.075848354339
 20
895.2138467413993
 30
0.0
 11
1954.075848354339
 21
895.2525126268637
 31
0.0
  0
ARC
  5
A3E
330
A37
100
AcDbEntity
  8
0
  6
Continuous
 62
     7
370
    15
100
AcDbCircle
 10
1954.225848354339
 20
895.2138467413993
 30
0.0
 40
0.1500000000000057
100
AcDbArc
 50
180.0
 51
269.999999999987
  0
LINE
  5
A3F
330
A37
100
AcDbEntity
  8
0
  6
Continuous
 62
     7
370
    15
100
AcDbLine
 10
1954.225848354339
 20
895.0638467413993
 30
0.0
 11
1954.324187140482
 21
895.0638467413993
 31
0.0
  0
ARC
  5
A40
330
A37
100
AcDbEntity
  8
0
  6
Continuous
 62
     7
370
    15
100
AcDbCircle
 10
1954.324187140482
 20
895.2138467413993
 30
0.0
 40
0.1500000000000171
100
AcDbArc
 50
269.9999999999739
 51
14.00185040298679
  0
ARC
  5
A41
330
A37
100
AcDbEntity
  8
0
  6
Continuous
 62
     7
370
    15
100
AcDbCircle
 10
1964.172609454907
 20
897.6696720439671
 30
0.0
 40
9.999999999999833
100
AcDbArc
 50
165.998145922408
 51
194.0018504029931
  0
ARC
  5
A42
330
A37
100
AcDbEntity
  8
0
  6
Continuous
 62
     7
370
    15
100
AcDbCircle
 10
1954.324187297984
 20
900.1254979781529
 30
0.0
 40
0.1500000000000331
100
AcDbArc
 50
345.9981459224081
 51
89.99994845301225
  0
LINE
  5
A43
330
A37
100
AcDbEntity
  8
0
  6
Continuous
 62
     7
370
    15
100
AcDbLine
 10
1954.324187432933
 20
900.2754979781528
 30
0.0
 11
1954.225848489289
 21
900.2754980666249
 31
0.0
  0
ARC
  5
A44
330
A37
100
AcDbEntity
  8
0
  6
Continuous
 62
     7
370
    15
100
AcDbCircle
 10
1954.225848354339
 20
900.1254980666249
 30
0.0
 40
0.1500000000000095
100
AcDbArc
 50
89.99994845301225
 51
179.9999999998567
  0
LINE
  5
A45
330
A37
100
AcDbEntity
  8
0
  6
Continuous
 62
     7
370
    15
100
AcDbLine
 10
1954.07584835434
 20
900.1254980666253
 30
0.0
 11
1954.075848354339
 21
900.0868321811601
 31
0.0
  0
ARC
  5
A46
330
A37
100
AcDbEntity
  8
0
  6
Continuous
 62
     7
370
    15
100
AcDbCircle
 10
1953.875848354339
 20
900.0868321811603
 30
0.0
 40
0.2000000000000619
100
AcDbArc
 50
267.4979619647357
 51
359.9999999999349
  0
LINE
  5
A47
330
A37
100
AcDbEntity
  8
0
  6
Continuous
 62
     7
370
    15
100
AcDbLine
 10
1953.257116663839
 20
899.9136777926498
 30
0.0
 11
1953.867117369558
 21
899.8870228472824
 31
0.0
  0
ARC
  5
A48
330
A37
100
AcDbEntity
  8
0
  6
Continuous
 62
     7
370
    15
100
AcDbCircle
 10
1953.26584764862
 20
900.1134871265279
 30
0.0
 40
0.2000000000000323
100
AcDbArc
 50
180.0
 51
267.4979619647487
  0
LINE
  5
A49
330
A37
100
AcDbEntity
  8
0
  6
Continuous
 62
     7
370
    15
100
AcDbLine
 10
1953.06584764862
 20
900.1134871265279
 30
0.0
 11
1953.06584764862
 21
904.1020058063619
 31
0.0
  0
ARC
  5
A4A
330
A37
100
AcDbEntity
  8
0
  6
Continuous
 62
     7
370
    15
100
AcDbCircle
 10
1955.06584764862
 20
904.1020058063619
 30
0.0
 40
2.0
100
AcDbArc
 50
157.5003541090356
 51
180.0
  0
LINE
  5
A4B
330
A37
100
AcDbEntity
  8
0
  6
Continuous
 62
     7
370
    15
100
AcDbLine
 10
1953.514549772078
 20
905.5831058046392
 30
0.0
 11
1953.218083853384
 21
904.8673612512454
 31
0.0
  0
ARC
  5
A4C
330
A37
100
AcDbEntity
  8
0
  6
Continuous
 62
     7
370
    15
100
AcDbCircle
 10
1955.362313567315
 20
904.8177503597555
 30
0.0
 40
2.000000000000028
100
AcDbArc
 50
90.0
 51
157.5003541090356
  0
LINE
  5
A4D
330
A37
100
AcDbEntity
  8
0
  6
Continuous
 62
     7
370
    15
100
AcDbLine
 10
1955.362313567315
 20
906.8177503597555
 30
0.0
 11
1969.302268884083
 21
906.8177503597555
 31
0.0
  0
ARC
  5
A4E
330
A37
100
AcDbEntity
  8
0
  6
Continuous
 62
     7
370
    15
100
AcDbCircle
 10
1969.302268884083
 20
906.3177503597554
 30
0.0
 40
0.5
100
AcDbArc
 50
22.49964589096435
 51
90.0
  0
LINE
  5
A4F
330
A37
100
AcDbEntity
  8
0
  6
Continuous
 62
     7
370
    15
100
AcDbLine
 10
1969.764209832892
 20
906.5090892209763
 30
0.0
 11
1971.086084765928
 21
903.317745043021
 31
0.0
  0
ARC
  5
A50
330
A37
100
AcDbEntity
  8
0
  6
Continuous
 62
     7
370
    15
100
AcDbCircle
 10
1980.572175309421
 20
904.8177503597555
 30
0.0
 40
2.000000000000085
100
AcDbArc
 50
90.0
 51
157.5003541090356
  0
LINE
  5
A51
330
A37
100
AcDbEntity
  8
0
  6
Continuous
 62
     7
370
    15
100
AcDbLine
 10
1980.584471945398
 20
906.8177503597558
 30
0.0
 11
1980.572175309421
 21
906.8177503597555
 31
0.0
  0
ARC
  5
A52
330
A37
100
AcDbEntity
  8
0
  6
Continuous
 62
     7
370
    15
100
AcDbCircle
 10
1980.584471945398
 20
906.5677503597557
 30
0.0
 40
0.2500000000000853
100
AcDbArc
 50
300.0000000002429
 51
89.99999999990881
  0
LINE
  5
A53
330
A37
100
AcDbEntity
  8
0
  6
Continuous
 62
     7
370
    15
100
AcDbLine
 10
1980.534428411229
 20
906.2502076799921
 30
0.0
 11
1980.709471945399
 21
906.3512440088102
 31
0.0
  0
LINE
  5
A54
330
A37
100
AcDbEntity
  8
0
  6
Continuous
 62
     7
370
    15
100
AcDbLine
 10
1980.534428411229
 20
905.7500671793276
 30
0.0
 11
1980.534428411229
 21
906.2502076799921
 31
0.0
  0
ARC
  5
A55
330
A37
100
AcDbEntity
  8
0
  6
Continuous
 62
     7
370
    15
100
AcDbCircle
 10
1980.684428411229
 20
905.7500671793276
 30
0.0
 40
0.1499999999999773
100
AcDbArc
 50
180.0
 51
255.0010609011992
  0
LINE
  5
A56
330
A37
100
AcDbEntity
  8
0
  6
Continuous
 62
     7
370
    15
100
AcDbLine
 10
1981.324505056359
 20
905.4233066625954
 30
0.0
 11
1980.645608237306
 21
905.6051775867141
 31
0.0
  0
ARC
  5
A57
330
A37
100
AcDbEntity
  8
0
  6
Continuous
 62
     7
370
    15
100
AcDbCircle
 10
1983.265647894629
 20
912.6677503597631
 30
0.0
 40
7.500000000000031
100
AcDbArc
 50
254.9999999999913
 51
270.0
  0
LINE
  5
A58
330
A37
100
AcDbEntity
  8
0
  6
Continuous
 62
     7
370
    15
100
AcDbLine
 10
1983.637870213658
 20
905.1677846218423
 30
0.0
 11
1983.265647894629
 21
905.1677503597632
 31
0.0
  0
ARC
  5
A59
330
A37
100
AcDbEntity
  8
0
  6
Continuous
 62
     7
370
    15
100
AcDbCircle
 10
1983.637868758061
 20
904.9677846218475
 30
0.0
 40
0.2000000000000559
100
AcDbArc
 50
2.501621037362891
 51
89.99958300211799
  0
LINE
  5
A5A
330
A37
100
AcDbEntity
  8
0
  6
Continuous
 62
     7
370
    15
100
AcDbLine
 10
1983.837678155477
 20
904.9765141524193
 30
0.0
 11
1983.864332978187
 21
904.3664144431559
 31
0.0
  0
ARC
  5
A5B
330
A37
100
AcDbEntity
  8
0
  6
Continuous
 62
     7
370
    15
100
AcDbCircle
 10
1983.66452358077
 20
904.3576849125841
 30
0.0
 40
0.2000000000000014
100
AcDbArc
 50
269.9995830020919
 51
2.501621037362891
  0
LINE
  5
A5C
330
A37
100
AcDbEntity
  8
0
  6
Continuous
 62
     7
370
    15
100
AcDbLine
 10
1983.62585623971
 20
904.1576851939991
 30
0.0
 11
1983.664522125173
 21
904.1576849125895
 31
0.0
  0
ARC
  5
A5D
330
A37
100
AcDbEntity
  8
0
  6
Continuous
 62
     7
370
    15
100
AcDbCircle
 10
1983.625855148012
 20
904.0076851940032
 30
0.0
 40
0.1500000000000726
100
AcDbArc
 50
89.99958300210497
 51
179.9996345490797
  0
LINE
  5
A5E
330
A37
100
AcDbEntity
  8
0
  6
Continuous
 62
     7
370
    15
100
AcDbLine
 10
1983.475854520778
 20
903.9093472071085
 30
0.0
 11
1983.475855148015
 21
904.0076861507515
 31
0.0
  0
ARC
  5
A5F
330
A37
100
AcDbEntity
  8
0
  6
Continuous
 62
     7
370
    15
100
AcDbCircle
 10
1983.625854520774
 20
903.9093462503602
 30
0.0
 40
0.1499999999999874
100
AcDbArc
 50
179.9996345490797
 51
284.0014370797231
  0
ARC
  5
A60
330
A37
100
AcDbEntity
  8
0
  6
Continuous
 62
     7
370
    15
100
AcDbCircle
 10
1986.081608778217
 20
894.0609062202312
 30
0.0
 40
9.999999999999893
100
AcDbArc
 50
75.99773259913675
 51
104.0014370797089
  0
ARC
  5
A61
330
A37
100
AcDbEntity
  8
0
  6
Continuous
 62
     7
370
    15
100
AcDbCircle
 10
1988.537505757399
 20
903.9093106609334
 30
0.0
 40
0.1500000000000059
100
AcDbArc
 50
255.9977325991383
 51
359.9995830020985
  0
LINE
  5
A62
330
A37
100
AcDbEntity
  8
0
  6
Continuous
 62
     7
370
    15
100
AcDbLine
 10
1988.687506473115
 20
904.0076499622838
 30
0.0
 11
1988.687505757395
 21
903.9093095692354
 31
0.0
  0
ARC
  5
A63
330
A37
100
AcDbEntity
  8
0
  6
Continuous
 62
     7
370
    15
100
AcDbCircle
 10
1988.537506473119
 20
904.0076510539817
 30
0.0
 40
0.1500000000000213
100
AcDbArc
 50
359.9995830020985
 51
90.00101709442448
  0
LINE
  5
A64
330
A37
100
AcDbEntity
  8
0
  6
Continuous
 62
     7
370
    15
100
AcDbLine
 10
1988.537503810372
 20
904.1576510539581
 30
0.0
 11
1988.499054682387
 21
904.1576503714226
 31
0.0
  0
ARC
  5
A65
330
A37
100
AcDbEntity
  8
0
  6
Continuous
 62
     7
370
    15
100
AcDbCircle
 10
1988.499051132058
 20
904.3576503713913
 30
0.0
 40
0.2000000000000379
100
AcDbArc
 50
177.4989790591173
 51
270.0010170944115
  0
LINE
  5
A66
330
A37
100
AcDbEntity
  8
0
  6
Continuous
 62
     7
370
    15
100
AcDbLine
 10
1988.299241643223
 20
904.366377809227
 30
0.0
 11
1988.325890075954
 21
904.9764777976305
 31
0.0
  0
ARC
  5
A67
330
A37
100
AcDbEntity
  8
0
  6
Continuous
 62
     7
370
    15
100
AcDbCircle
 10
1988.52569956479
 20
904.9677503597948
 30
0.0
 40
0.1999999999999684
100
AcDbArc
 50
90.00050854720569
 51
177.4989790591303
  0
LINE
  5
A68
330
A37
100
AcDbEntity
  8
0
  6
Continuous
 62
     7
370
    15
100
AcDbLine
 10
1988.903485512097
 20
905.1677503597632
 30
0.0
 11
1988.525697789625
 21
905.1677503597632
 31
0.0
  0
ARC
  5
A69
330
A37
100
AcDbEntity
  8
0
  6
Continuous
 62
     7
370
    15
100
AcDbCircle
 10
1988.903266905967
 20
912.6677503565774
 30
0.0
 40
7.500000000000119
100
AcDbArc
 50
270.0016700278127
 51
285.0016700278156
  0
LINE
  5
A6A
330
A37
100
AcDbEntity
  8
0
  6
Continuous
 62
     7
370
    15
100
AcDbLine
 10
1991.517948391688
 20
905.6037559376937
 30
0.0
 11
1990.844620900718
 21
905.4233632419165
 31
0.0
  0
ARC
  5
A6B
330
A37
100
AcDbEntity
  8
0
  6
Continuous
 62
     7
370
    15
100
AcDbCircle
 10
1991.479124396018
 20
905.7486445062735
 30
0.0
 40
0.150000000000046
100
AcDbArc
 50
285.000450394975
 51
359.9994823211904
  0
LINE
  5
A6C
330
A37
100
AcDbEntity
  8
0
  6
Continuous
 62
     7
370
    15
100
AcDbLine
 10
1991.629124396012
 20
905.7486431509936
 30
0.0
 11
1991.629133460505
 21
906.2502638689023
 31
0.0
  0
LINE
  5
A6D
330
A37
100
AcDbEntity
  8
0
  6
Continuous
 62
     7
370
    15
100
AcDbLine
 10
1991.454091752131
 20
906.3513033608099
 30
0.0
 11
1991.629133460505
 21
906.2502638689023
 31
0.0
  0
ARC
  5
A6E
330
A37
100
AcDbEntity
  8
0
  6
Continuous
 62
     7
370
    15
100
AcDbCircle
 10
1991.579091752132
 20
906.5678097117556
 30
0.0
 40
0.2500000000001137
100
AcDbArc
 50
90.00000000006513
 51
239.9999999997748
  0
LINE
  5
A6F
330
A37
100
AcDbEntity
  8
0
  6
Continuous
 62
     7
370
    15
100
AcDbLine
 10
1991.579091752132
 20
906.8178097117556
 30
0.0
 11
2015.569563053379
 21
906.8178097117556
 31
0.0
  0
ARC
  5
A70
330
A37
100
AcDbEntity
  8
0
  6
Continuous
 62
     7
370
    15
100
AcDbCircle
 10
2015.569563053379
 20
904.8178097117554
 30
0.0
 40
2.000000000000312
100
AcDbArc
 50
22.49964589096435
 51
90.0
  0
LINE
  5
A71
330
A37
100
AcDbEntity
  8
0
  6
Continuous
 62
     7
370
    15
100
AcDbLine
 10
2017.71379276731
 20
904.8674206032449
 30
0.0
 11
2017.417326848616
 21
905.5831651566386
 31
0.0
  0
ARC
  5
A72
330
A37
100
AcDbEntity
  8
0
  6
Continuous
 62
     7
370
    15
100
AcDbCircle
 10
2015.866028972074
 20
904.1020651583616
 30
0.0
 40
1.999999999999801
100
AcDbArc
 50
359.9999999999935
 51
22.49964589096435
  0
LINE
  5
A73
330
A37
100
AcDbEntity
  8
0
  6
Continuous
 62
     7
370
    15
100
AcDbLine
 10
2017.866028972074
 20
904.1020651583615
 30
0.0
 11
2017.866028972074
 21
900.1135464785273
 31
0.0
  0
ARC
  5
A74
330
A37
100
AcDbEntity
  8
0
  6
Continuous
 62
     7
370
    15
100
AcDbCircle
 10
2017.666028978707
 20
900.1134949675991
 30
0.0
 40
0.2000000000005471
100
AcDbArc
 50
272.4500422457426
 51
0.0147567940829543
  0
LINE
  5
A75
330
A37
100
AcDbEntity
  8
0
  6
Continuous
 62
     7
370
    15
100
AcDbLine
 10
2017.674578633403
 20
899.9136777926496
 30
0.0
 11
2017.064577927684
 21
899.8870228472819
 31
0.0
  0
ARC
  5
A76
330
A37
100
AcDbEntity
  8
0
  6
Continuous
 62
     7
370
    15
100
AcDbCircle
 10
2017.055846942902
 20
900.08683218116
 30
0.0
 40
0.2000000000000366
100
AcDbArc
 50
180.0
 51
272.5020380352776
  0
LINE
  5
A77
330
A37
100
AcDbEntity
  8
0
  6
Continuous
 62
     7
370
    15
100
AcDbLine
 10
2016.855846942902
 20
900.1254980666244
 30
0.0
 11
2016.855846942902
 21
900.08683218116
 31
0.0
  0
ARC
  5
A78
330
A37
100
AcDbEntity
  8
0
  6
Continuous
 62
     7
370
    15
100
AcDbCircle
 10
2016.705846942902
 20
900.1254980666244
 30
0.0
 40
0.1500000000000664
100
AcDbArc
 50
0.0
 51
90.00005154697474
  0
LINE
  5
A79
330
A37
100
AcDbEntity
  8
0
  6
Continuous
 62
     7
370
    15
100
AcDbLine
 10
2016.607508383473
 20
900.2754979781528
 30
0.0
 11
2016.705846807953
 21
900.2754980666242
 31
0.0
  0
ARC
  5
A7A
330
A37
100
AcDbEntity
  8
0
  6
Continuous
 62
     7
370
    15
100
AcDbCircle
 10
2016.607508518422
 20
900.1254979781528
 30
0.0
 40
0.1500000000000095
100
AcDbArc
 50
90.0000515469617
 51
194.0018528406632
  0
ARC
  5
A7B
330
A37
100
AcDbEntity
  8
0
  6
Continuous
 62
     7
370
    15
100
AcDbCircle
 10
2006.75908630848
 20
897.6696722565854
 30
0.0
 40
9.999999999999896
100
AcDbArc
 50
345.9979448686557
 51
14.00185284063159
  0
ARC
  5
A7C
330
A37
100
AcDbEntity
  8
0
  6
Continuous
 62
     7
370
    15
100
AcDbCircle
 10
2016.607499847727
 20
895.2138117638092
 30
0.0
 40
0.150000000000076
100
AcDbArc
 50
165.997944868662
 51
270.0080693751516
  0
LINE
  5
A7D
330
A37
100
AcDbEntity
  8
0
  6
Continuous
 62
     7
370
    15
100
AcDbLine
 10
2016.705873219887
 20
895.0638256169485
 30
0.0
 11
2016.607520973302
 21
895.0638117652967
 31
0.0
  0
ARC
  5
A7E
330
A37
100
AcDbEntity
  8
0
  6
Continuous
 62
     7
370
    15
100
AcDbCircle
 10
2016.705852094313
 20
895.2138256154608
 30
0.0
 40
0.1499999999999773
100
AcDbArc
 50
270.0080693751776
 51
359.9999999998827
  0
LINE
  5
A7F
330
A37
100
AcDbEntity
  8
0
  6
Continuous
 62
     7
370
    15
100
AcDbLine
 10
2016.855852094312
 20
895.2138256154604
 30
0.0
 11
2016.855852094312
 21
895.2525124017652
 31
0.0
  0
ARC
  5
A80
330
A37
100
AcDbEntity
  8
0
  6
Continuous
 62
     7
370
    15
100
AcDbCircle
 10
2017.055852094312
 20
895.2525124017643
 30
0.0
 40
0.2000000000007193
100
AcDbArc
 50
87.49796196472237
 51
179.9999999997459
  0
LINE
  5
A81
330
A37
100
AcDbEntity
  8
0
  6
Continuous
 62
     7
370
    15
100
AcDbLine
 10
2017.064583079094
 20
895.4523217356431
 30
0.0
 11
2017.674578633402
 21
895.4256670153746
 31
0.0
  0
ARC
  5
A82
330
A37
100
AcDbEntity
  8
0
  6
Continuous
 62
     7
370
    15
100
AcDbCircle
 10
2017.66584764862
 20
895.2258576814966
 30
0.0
 40
0.2000000000001255
100
AcDbArc
 50
359.999999999974
 51
87.49796196469635
  0
LINE
  5
A83
330
A37
100
AcDbEntity
  8
0
  6
Continuous
 62
     7
370
    15
100
AcDbLine
 10
2017.86584764862
 20
895.2258576814966
 30
0.0
 11
2017.86584764862
 21
886.8927604478411
 31
0.0
  0
LINE
  5
A84
330
A37
100
AcDbEntity
  8
0
  6
Continuous
 62
     7
370
    15
100
AcDbLine
 10
2017.86584764862
 20
886.8927604478411
 30
0.0
 11
2000.688419375362
 21
886.8927604478411
 31
0.0
  0
ARC
  5
A85
330
A37
100
AcDbEntity
  8
0
  6
Continuous
 62
     7
370
    15
100
AcDbCircle
 10
2000.688419375362
 20
886.317760447841
 30
0.0
 40
0.5750000000000171
100
AcDbArc
 50
90.0
 51
174.8860538573166
  0
LINE
  5
A86
330
A37
100
AcDbEntity
  8
0
  6
Continuous
 62
     7
370
    15
100
AcDbLine
 10
2000.019031562366
 20
885.2887431173579
 30
0.0
 11
2000.11570822123
 21
886.3690140714492
 31
0.0
  0
ARC
  5
A87
330
A37
100
AcDbEntity
  8
0
  6
Continuous
 62
     7
370
    15
100
AcDbCircle
 10
1999.595723318008
 20
885.3266262304597
 30
0.0
 40
0.4250000000000114
100
AcDbArc
 50
270.0
 51
354.8860538573166
  0
LINE
  5
A88
330
A37
100
AcDbEntity
  8
0
  6
Continuous
 62
     7
370
    15
100
AcDbLine
 10
1971.342037700746
 20
884.9016262304596
 30
0.0
 11
1999.595723318008
 21
884.9016262304596
 31
0.0
  0
ARC
  5
A89
330
A37
100
AcDbEntity
  8
0
  6
Continuous
 62
     7
370
    15
100
AcDbCircle
 10
1971.342037700746
 20
885.3266262304597
 30
0.0
 40
0.4250000000000311
100
AcDbArc
 50
185.0000000000124
 51
270.0
  0
LINE
  5
A8A
330
A37
100
AcDbEntity
  8
0
  6
Continuous
 62
     7
370
    15
100
AcDbLine
 10
1970.824316806552
 20
886.3678749999213
 30
0.0
 11
1970.918654954057
 21
885.2895850397917
 31
0.0
  0
ARC
  5
A8B
330
A37
100
AcDbEntity
  8
0
  6
Continuous
 62
     7
370
    15
100
AcDbCircle
 10
1970.251504855149
 20
886.317760447841
 30
0.0
 40
0.5750000000000555
100
AcDbArc
 50
5.000000000012437
 51
90.0
  0
LINE
  5
A8C
330
A37
100
AcDbEntity
  8
0
  6
Continuous
 62
     7
370
    15
100
AcDbLine
 10
1953.06584764862
 20
886.8927604478411
 30
0.0
 11
1970.251504855149
 21
886.8927604478411
 31
0.0
  0
LINE
  5
A8D
330
A37
100
AcDbEntity
  8
0
  6
Continuous
 62
     7
370
    15
100
AcDbLine
 10
1953.06584764862
 20
895.2258576814964
 30
0.0
 11
1953.06584764862
 21
886.8927604478411
 31
0.0
  0
LINE
  5
A8E
330
A37
100
AcDbEntity
  8
0
  6
Continuous
 62
     7
370
    15
100
AcDbLine
 10
1977.786083622101
 20
903.3177450430212
 30
0.0
 11
1971.086084765928
 21
903.3177450430212
 31
0.0
  0
LINE
  5
A8F
330
A37
100
AcDbEntity
  8
0
  6
Continuous
 62
     7
370
    15
100
AcDbLine
 10
1978.724411514184
 20
905.583105804639
 30
0.0
 11
1977.786084765928
 21
903.3177450430212
 31
0.0
  0
ARC
  5
A90
330
A37
100
AcDbEntity
  8
0
  6
Continuous
 62
     7
370
    15
100
AcDbCircle
 10
1959.144470396363
 20
875.6178112556499
 30
0.0
 40
0.5
100
AcDbArc
 50
194.9990235959912
 51
270.0
  0
LINE
  5
A91
330
A37
100
AcDbEntity
  8
0
  6
Continuous
 62
     7
370
    15
100
AcDbLine
 10
1964.555990454153
 20
875.11781125565
 30
0.0
 11
1959.144470396363
 21
875.11781125565
 31
0.0
  0
ARC
  5
A92
330
A37
100
AcDbEntity
  8
0
  6
Continuous
 62
     7
370
    15
100
AcDbCircle
 10
1964.555990145669
 20
875.6178112556499
 30
0.0
 40
0.5000000000000952
100
AcDbArc
 50
270.0000353497151
 51
28.79350160620326
  0
ARC
  5
A93
330
A37
100
AcDbEntity
  8
0
  6
Continuous
 62
     7
370
    15
100
AcDbCircle
 10
1968.411979094035
 20
877.7370915433287
 30
0.0
 40
3.89999996678014
100
AcDbArc
 50
179.9999944734844
 51
208.7935261496736
  0
LINE
  5
A94
330
A37
100
AcDbEntity
  8
0
  6
Continuous
 62
     7
370
    15
100
AcDbLine
 10
1964.511979874568
 20
885.0178223778765
 30
0.0
 11
1964.511979127255
 21
877.7370919195066
 31
0.0
  0
ARC
  5
A95
330
A37
100
AcDbEntity
  8
0
  6
Continuous
 62
     7
370
    15
100
AcDbCircle
 10
1964.01197754936
 20
885.0178202353545
 30
0.0
 40
0.5000023252126242
100
AcDbArc
 50
0.0002455137922255
 51
89.99994484241319
  0
LINE
  5
A96
330
A37
100
AcDbEntity
  8
0
  6
Continuous
 62
     7
370
    15
100
AcDbLine
 10
1956.625916648665
 20
885.5178225605669
 30
0.0
 11
1964.011978030702
 21
885.5178225605669
 31
0.0
  0
ARC
  5
A97
330
A37
100
AcDbEntity
  8
0
  6
Continuous
 62
     7
370
    15
100
AcDbCircle
 10
1956.625916648665
 20
885.017822560567
 30
0.0
 40
0.50000000000001
100
AcDbArc
 50
90.0
 51
194.9990235959912
  0
LINE
  5
A98
330
A37
100
AcDbEntity
  8
0
  6
Continuous
 62
     7
370
    15
100
AcDbLine
 10
1958.661505277961
 20
875.488409963513
 30
0.0
 11
1956.142951530263
 21
884.88842126843
 31
0.0
  0
LINE
  5
A99
330
A37
100
AcDbEntity
  8
0
  6
Continuous
 62
     7
370
    15
100
AcDbLine
 10
1967.274319192348
 20
876.1829828884636
 30
0.0
 11
1967.03755962021
 21
875.8448682471785
 31
0.0
  0
ARC
  5
A9A
330
A37
100
AcDbEntity
  8
0
  6
Continuous
 62
     7
370
    15
100
AcDbCircle
 10
1966.86474978639
 20
876.4697795834536
 30
0.0
 40
0.4999994425533289
100
AcDbArc
 50
324.9987694355411
 51
39.32028278512497
  0
ARC
  5
A9B
330
A37
100
AcDbEntity
  8
0
  6
Continuous
 62
     7
370
    15
100
AcDbCircle
 10
1968.411979094035
 20
877.7370915433287
 30
0.0
 40
1.500000090967128
100
AcDbArc
 50
180.0000039765039
 51
219.3204165212579
  0
LINE
  5
A9C
330
A37
100
AcDbEntity
  8
0
  6
Continuous
 62
     7
370
    15
100
AcDbLine
 10
1966.911979003068
 20
885.0178211502802
 30
0.0
 11
1966.911979003068
 21
877.7370914392241
 31
0.0
  0
ARC
  5
A9D
330
A37
100
AcDbEntity
  8
0
  6
Continuous
 62
     7
370
    15
100
AcDbCircle
 10
1966.411976297167
 20
885.0178197550695
 30
0.0
 40
0.5000027059031565
100
AcDbArc
 50
0.0001598784950982
 51
89.99985306346586
  0
LINE
  5
A9E
330
A37
100
AcDbEntity
  8
0
  6
Continuous
 62
     7
370
    15
100
AcDbLine
 10
1966.011976297164
 20
885.5178181921235
 30
0.0
 11
1966.411977579437
 21
885.517822460971
 31
0.0
  0
ARC
  5
A9F
330
A37
100
AcDbEntity
  8
0
  6
Continuous
 62
     7
370
    15
100
AcDbCircle
 10
1966.011976297164
 20
885.0178180900677
 30
0.0
 40
0.5000001020558641
100
AcDbArc
 50
90.0
 51
179.9998401211987
  0
LINE
  5
AA0
330
A37
100
AcDbEntity
  8
0
  6
Continuous
 62
     7
370
    15
100
AcDbLine
 10
1965.51197619511
 20
885.0178194852738
 30
0.0
 11
1965.51197639922
 21
877.7370900189682
 31
0.0
  0
ARC
  5
AA1
330
A37
100
AcDbEntity
  8
0
  6
Continuous
 62
     7
370
    15
100
AcDbCircle
 10
1968.411979094035
 20
877.7370915433287
 30
0.0
 40
2.900002694815614
100
AcDbArc
 50
180.0000301170165
 51
221.9843018440833
  0
ARC
  5
AA2
330
A37
100
AcDbEntity
  8
0
  6
Continuous
 62
     7
370
    15
100
AcDbCircle
 10
1966.627989581299
 20
876.1316650101077
 30
0.0
 40
0.5000000000001248
100
AcDbArc
 50
221.9843018440833
 51
324.7042705156078
  0
SPLINE
  5
AA3
330
A37
100
AcDbEntity
  8
0
  6
Continuous
 62
     7
370
    15
100
AcDbSpline
210
0.0
220
0.0
230
1.0
 70
     8
 71
     3
 72
     9
 73
     5
 74
     0
 42
0.0000000001
 43
0.0000000001
 40
0.0
 40
0.0
 40
0.0
 40
0.0
 40
0.5
 40
1.0
 40
1.0
 40
1.0
 40
1.0
 10
1967.036079910387
 20
875.8427666139459
 30
0.0
 10
1967.036327341828
 20
875.8431161291374
 30
0.0
 10
1967.036821936789
 20
875.8438166938081
 30
0.0
 10
1967.037313270691
 20
875.8445164392254
 30
0.0
 10
1967.03755962021
 20
875.8448682471785
 30
0.0
  0
ARC
  5
AA4
330
A37
100
AcDbEntity
  8
0
  6
Continuous
 62
     7
370
    15
100
AcDbCircle
 10
2006.91971774788
 20
885.0178202353545
 30
0.0
 40
0.5000023252126242
100
AcDbArc
 50
90.00005515757377
 51
179.9997544862077
  0
LINE
  5
AA5
330
A37
100
AcDbEntity
  8
0
  6
Continuous
 62
     7
370
    15
100
AcDbLine
 10
2006.419715422672
 20
885.0178223778765
 30
0.0
 11
2006.419716169985
 21
877.7370919195066
 31
0.0
  0
ARC
  5
AA6
330
A37
100
AcDbEntity
  8
0
  6
Continuous
 62
     7
370
    15
100
AcDbCircle
 10
2002.519716203205
 20
877.7370915433287
 30
0.0
 40
3.899999966780104
100
AcDbArc
 50
331.2064738503264
 51
0.0000055265155301
  0
ARC
  5
AA7
330
A37
100
AcDbEntity
  8
0
  6
Continuous
 62
     7
370
    15
100
AcDbCircle
 10
2006.375705151571
 20
875.6178112556499
 30
0.0
 40
0.5000000000000952
100
AcDbArc
 50
151.2064983938024
 51
269.9999646502718
  0
LINE
  5
AA8
330
A37
100
AcDbEntity
  8
0
  6
Continuous
 62
     7
370
    15
100
AcDbLine
 10
2006.375704843086
 20
875.11781125565
 30
0.0
 11
2011.787224900877
 21
875.11781125565
 31
0.0
  0
ARC
  5
AA9
330
A37
100
AcDbEntity
  8
0
  6
Continuous
 62
     7
370
    15
100
AcDbCircle
 10
2011.787224900877
 20
875.6178112556499
 30
0.0
 40
0.5000000000000523
100
AcDbArc
 50
270.0
 51
345.0009764040025
  0
LINE
  5
AAA
330
A37
100
AcDbEntity
  8
0
  6
Continuous
 62
     7
370
    15
100
AcDbLine
 10
2014.788743766976
 20
884.88842126843
 30
0.0
 11
2012.270190019279
 21
875.4884099635129
 31
0.0
  0
ARC
  5
AAB
330
A37
100
AcDbEntity
  8
0
  6
Continuous
 62
     7
370
    15
100
AcDbCircle
 10
2014.305778648574
 20
885.017822560567
 30
0.0
 40
0.5000000000000375
100
AcDbArc
 50
345.0009764040087
 51
90.0
  0
LINE
  5
AAC
330
A37
100
AcDbEntity
  8
0
  6
Continuous
 62
     7
370
    15
100
AcDbLine
 10
2014.305778648574
 20
885.5178225605669
 30
0.0
 11
2006.919717266537
 21
885.5178225605669
 31
0.0
  0
LINE
  5
AAD
330
A37
100
AcDbEntity
  8
0
  6
Continuous
 62
     7
370
    15
100
AcDbLine
 10
2004.019716294172
 20
885.0178211502802
 30
0.0
 11
2004.019716294172
 21
877.7370914392241
 31
0.0
  0
ARC
  5
AAE
330
A37
100
AcDbEntity
  8
0
  6
Continuous
 62
     7
370
    15
100
AcDbCircle
 10
2002.519716203205
 20
877.7370915433287
 30
0.0
 40
1.500000090967082
100
AcDbArc
 50
320.6796169127413
 51
359.9999960234961
  0
ARC
  5
AAF
330
A37
100
AcDbEntity
  8
0
  6
Continuous
 62
     7
370
    15
100
AcDbCircle
 10
2004.066945510849
 20
876.4697795834536
 30
0.0
 40
0.4999994425533289
100
AcDbArc
 50
140.6796169127413
 51
215.0012305644589
  0
LINE
  5
AB0
330
A37
100
AcDbEntity
  8
0
  6
Continuous
 62
     7
370
    15
100
AcDbLine
 10
2003.89413567703
 20
875.8448682471785
 30
0.0
 11
2003.657376104892
 21
876.1829828884636
 31
0.0
  0
ARC
  5
AB1
330
A37
100
AcDbEntity
  8
0
  6
Continuous
 62
     7
370
    15
100
AcDbCircle
 10
2004.30370571594
 20
876.1316650101077
 30
0.0
 40
0.5000000000000485
100
AcDbArc
 50
215.0011953382892
 51
318.0156829284451
  0
ARC
  5
AB2
330
A37
100
AcDbEntity
  8
0
  6
Continuous
 62
     7
370
    15
100
AcDbCircle
 10
2002.519716203205
 20
877.7370915433287
 30
0.0
 40
2.900002694815486
100
AcDbArc
 50
318.0156955304952
 51
359.9999698829835
  0
LINE
  5
AB3
330
A37
100
AcDbEntity
  8
0
  6
Continuous
 62
     7
370
    15
100
AcDbLine
 10
2005.41971910213
 20
885.0178194852738
 30
0.0
 11
2005.41971889802
 21
877.7370900189682
 31
0.0
  0
ARC
  5
AB4
330
A37
100
AcDbEntity
  8
0
  6
Continuous
 62
     7
370
    15
100
AcDbCircle
 10
2004.919719000076
 20
885.0178180900677
 30
0.0
 40
0.5000001020558216
100
AcDbArc
 50
0.0001598788012457
 51
90.0
  0
LINE
  5
AB5
330
A37
100
AcDbEntity
  8
0
  6
Continuous
 62
     7
370
    15
100
AcDbLine
 10
2004.519717717803
 20
885.517822460971
 30
0.0
 11
2004.919719000076
 21
885.5178181921235
 31
0.0
  0
ARC
  5
AB6
330
A37
100
AcDbEntity
  8
0
  6
Continuous
 62
     7
370
    15
100
AcDbCircle
 10
2004.519719000073
 20
885.0178197550695
 30
0.0
 40
0.500002705903256
100
AcDbArc
 50
90.00014693653413
 51
179.9998401215049
  0
ARC
  5
AB7
330
A37
100
AcDbEntity
  8
0
  6
Continuous
 62
     7
370
    15
100
AcDbCircle
 10
2015.341067005655
 20
876.5244098206332
 30
0.0
 40
0.7500000000011938
100
AcDbArc
 50
269.9999999998567
 51
74.47620579188519
  0
ARC
  5
AB8
330
A37
100
AcDbEntity
  8
0
  6
Continuous
 62
     7
370
    15
100
AcDbCircle
 10
2015.581941874641
 20
877.3915779412527
 30
0.0
 40
0.15000069551526
100
AcDbArc
 50
150.0043094593835
 51
254.4762057918852
  0
LINE
  5
AB9
330
A37
100
AcDbEntity
  8
0
  6
Continuous
 62
     7
370
    15
100
AcDbLine
 10
2015.452031821011
 20
877.4665685181346
 30
0.0
 11
2016.178080519602
 21
878.7243789151046
 31
0.0
  0
ARC
  5
ABA
330
A37
100
AcDbEntity
  8
0
  6
Continuous
 62
     7
370
    15
100
AcDbCircle
 10
2016.611115420786
 20
878.4744177669878
 30
0.0
 40
0.4999998012118068
100
AcDbArc
 50
90.00009379545604
 51
150.0051275576629
  0
LINE
  5
ABB
330
A37
100
AcDbEntity
  8
0
  6
Continuous
 62
     7
370
    15
100
AcDbLine
 10
2016.611114602267
 20
878.9744175681985
 30
0.0
 11
2017.214917272763
 21
878.9744179657771
 31
0.0
  0
ARC
  5
ABC
330
A37
100
AcDbEntity
  8
0
  6
Continuous
 62
     7
370
    15
100
AcDbCircle
 10
2017.214917272766
 20
878.4744175820879
 30
0.0
 40
0.5000003836891836
100
AcDbArc
 50
359.9998294402216
 51
90.00000000029965
  0
LINE
  5
ABD
330
A37
100
AcDbEntity
  8
0
  6
Continuous
 62
     7
370
    15
100
AcDbLine
 10
2017.714917656452
 20
878.4744160936719
 30
0.0
 11
2017.714916889076
 21
875.346946156846
 31
0.0
  0
ARC
  5
ABE
330
A37
100
AcDbEntity
  8
0
  6
Continuous
 62
     7
370
    15
100
AcDbCircle
 10
2016.714918580773
 20
875.3469464022119
 30
0.0
 40
0.9999983083038033
100
AcDbArc
 50
277.5000376701811
 51
359.9999859415453
  0
LINE
  5
ABF
330
A37
100
AcDbEntity
  8
0
  6
Continuous
 62
     7
370
    15
100
AcDbLine
 10
2015.134433681594
 20
874.1302439156029
 30
0.0
 11
2016.845445204025
 21
874.3555033038793
 31
0.0
  0
LINE
  5
AC0
330
A37
100
AcDbEntity
  8
0
  6
Continuous
 62
     7
370
    15
100
AcDbLine
 10
2015.134433681594
 20
874.1104960016944
 30
0.0
 11
2015.134433681594
 21
874.1302439156029
 31
0.0
  0
LINE
  5
AC1
330
A37
100
AcDbEntity
  8
0
  6
Continuous
 62
     7
370
    15
100
AcDbLine
 10
2013.115507268934
 20
873.8446987684621
 30
0.0
 11
2015.134433681594
 21
874.1104960016944
 31
0.0
  0
ARC
  5
AC2
330
A37
100
AcDbEntity
  8
0
  6
Continuous
 62
     7
370
    15
100
AcDbCircle
 10
2012.704348959747
 20
876.9677499759799
 30
0.0
 40
3.149999999998754
100
AcDbArc
 50
270.3556526587684
 51
277.5000147446577
  0
LINE
  5
AC3
330
A37
100
AcDbEntity
  8
0
  6
Continuous
 62
     7
370
    15
100
AcDbLine
 10
2012.723901852568
 20
873.817811912326
 30
0.0
 11
2005.288192578431
 21
873.817810096504
 31
0.0
  0
ARC
  5
AC4
330
A37
100
AcDbEntity
  8
0
  6
Continuous
 62
     7
370
    15
100
AcDbCircle
 10
2005.288191838358
 20
876.8178097156328
 30
0.0
 40
2.999999619128806
100
AcDbArc
 50
215.0012295729831
 51
270.0000141343598
  0
LINE
  5
AC5
330
A37
100
AcDbEntity
  8
0
  6
Continuous
 62
     7
370
    15
100
AcDbLine
 10
2001.547822333387
 20
876.9291875623769
 30
0.0
 11
2002.830772945063
 21
875.0970278881951
 31
0.0
  0
ARC
  5
AC6
330
A37
100
AcDbEntity
  8
0
  6
Continuous
 62
     7
370
    15
100
AcDbCircle
 10
2001.793563119003
 20
877.1012674960264
 30
0.0
 40
0.3000000621330924
100
AcDbArc
 50
100.004838708814
 51
215.0016244019432
  0
LINE
  5
AC7
330
A37
100
AcDbEntity
  8
0
  6
Continuous
 62
     7
370
    15
100
AcDbLine
 10
2001.741443704576
 20
877.3967054826151
 30
0.0
 11
2002.554463047971
 21
877.5401330701731
 31
0.0
  0
ARC
  5
AC8
330
A37
100
AcDbEntity
  8
0
  6
Continuous
 62
     7
370
    15
100
AcDbCircle
 10
2002.519716203205
 20
877.7370915433287
 30
0.0
 40
0.199999958422837
100
AcDbArc
 50
280.0050082764161
 51
0.0003218569338695
  0
LINE
  5
AC9
330
A37
100
AcDbEntity
  8
0
  6
Continuous
 62
     7
370
    15
100
AcDbLine
 10
2002.719716161625
 20
885.0178221635593
 30
0.0
 11
2002.719716161625
 21
877.7370926668211
 31
0.0
  0
ARC
  5
ACA
330
A37
100
AcDbEntity
  8
0
  6
Continuous
 62
     7
370
    15
100
AcDbCircle
 10
2002.219715547826
 20
885.0178221635593
 30
0.0
 40
0.5000006137989744
100
AcDbArc
 50
0.0
 51
90.00012564215365
  0
LINE
  5
ACB
330
A37
100
AcDbEntity
  8
0
  6
Continuous
 62
     7
370
    15
100
AcDbLine
 10
2001.43872872197
 20
885.5178215497605
 30
0.0
 11
2002.219714451389
 21
885.5178227773571
 31
0.0
  0
ARC
  5
ACC
330
A37
100
AcDbEntity
  8
0
  6
Continuous
 62
     7
370
    15
100
AcDbCircle
 10
2001.43872872197
 20
885.0178216354871
 30
0.0
 40
0.4999999142734538
100
AcDbArc
 50
90.0
 51
189.9996907539343
  0
LINE
  5
ACD
330
A37
100
AcDbEntity
  8
0
  6
Continuous
 62
     7
370
    15
100
AcDbLine
 10
2002.016678678277
 20
878.8607278572497
 30
0.0
 11
2000.946324461274
 21
884.9310002192227
 31
0.0
  0
ARC
  5
ACE
330
A37
100
AcDbEntity
  8
0
  6
Continuous
 62
     7
370
    15
100
AcDbCircle
 10
2001.819718384016
 20
878.8259966917282
 30
0.0
 40
0.1999990284318963
100
AcDbArc
 50
269.9993442410661
 51
10.00049415149203
  0
LINE
  5
ACF
330
A37
100
AcDbEntity
  8
0
  6
Continuous
 62
     7
370
    15
100
AcDbLine
 10
2000.000818187707
 20
878.6259955338442
 30
0.0
 11
2001.819716094997
 21
878.6259976633093
 31
0.0
  0
ARC
  5
AD0
330
A37
100
AcDbEntity
  8
0
  6
Continuous
 62
     7
370
    15
100
AcDbCircle
 10
2000.000816865395
 20
880.1259957648012
 30
0.0
 40
1.500000230957624
100
AcDbArc
 50
224.9999738073547
 51
270.0000505085876
  0
LINE
  5
AD1
330
A37
100
AcDbEntity
  8
0
  6
Continuous
 62
     7
370
    15
100
AcDbLine
 10
1994.625253318806
 20
883.3802355340024
 30
0.0
 11
1998.940156045425
 21
879.0653359145885
 31
0.0
  0
ARC
  5
AD2
330
A37
100
AcDbEntity
  8
0
  6
Continuous
 62
     7
370
    15
100
AcDbCircle
 10
1994.271699358305
 20
883.0266813372007
 30
0.0
 40
0.5000009730613741
100
AcDbArc
 50
45.00001914700147
 51
89.99995094055817
  0
LINE
  5
AD3
330
A37
100
AcDbEntity
  8
0
  6
Continuous
 62
     7
370
    15
100
AcDbLine
 10
1976.659995510809
 20
883.5266823102619
 30
0.0
 11
1994.27169978643
 21
883.5266823102619
 31
0.0
  0
ARC
  5
AD4
330
A37
100
AcDbEntity
  8
0
  6
Continuous
 62
     7
370
    15
100
AcDbCircle
 10
1976.659995938935
 20
883.0266813372007
 30
0.0
 40
0.5000009730613816
100
AcDbArc
 50
90.00004905945486
 51
134.9999808529985
  0
LINE
  5
AD5
330
A37
100
AcDbEntity
  8
0
  6
Continuous
 62
     7
370
    15
100
AcDbLine
 10
1971.991539251814
 20
879.0653359145885
 30
0.0
 11
1976.306441978433
 21
883.3802355340024
 31
0.0
  0
ARC
  5
AD6
330
A37
100
AcDbEntity
  8
0
  6
Continuous
 62
     7
370
    15
100
AcDbCircle
 10
1970.930878431844
 20
880.1259957648012
 30
0.0
 40
1.50000023095761
100
AcDbArc
 50
269.9999494913993
 51
315.0000261926452
  0
LINE
  5
AD7
330
A37
100
AcDbEntity
  8
0
  6
Continuous
 62
     7
370
    15
100
AcDbLine
 10
1969.111979202243
 20
878.6259976633093
 30
0.0
 11
1970.930877109532
 21
878.6259955338442
 31
0.0
  0
ARC
  5
AD8
330
A37
100
AcDbEntity
  8
0
  6
Continuous
 62
     7
370
    15
100
AcDbCircle
 10
1969.111976913224
 20
878.8259966917282
 30
0.0
 40
0.1999990284319243
100
AcDbArc
 50
169.9995058485079
 51
270.0006557589339
  0
LINE
  5
AD9
330
A37
100
AcDbEntity
  8
0
  6
Continuous
 62
     7
370
    15
100
AcDbLine
 10
1968.915016618963
 20
878.8607278572497
 30
0.0
 11
1969.985370835965
 21
884.9310002192227
 31
0.0
  0
ARC
  5
ADA
330
A37
100
AcDbEntity
  8
0
  6
Continuous
 62
     7
370
    15
100
AcDbCircle
 10
1969.49296657527
 20
885.0178216354871
 30
0.0
 40
0.4999999142735238
100
AcDbArc
 50
350.0003092460657
 51
90.0
  0
LINE
  5
ADB
330
A37
100
AcDbEntity
  8
0
  6
Continuous
 62
     7
370
    15
100
AcDbLine
 10
1969.49296657527
 20
885.5178215497605
 30
0.0
 11
1968.71198084585
 21
885.5178227773569
 31
0.0
  0
ARC
  5
ADC
330
A37
100
AcDbEntity
  8
0
  6
Continuous
 62
     7
370
    15
100
AcDbCircle
 10
1968.711979749414
 20
885.0178221635593
 30
0.0
 40
0.5000006137989886
100
AcDbArc
 50
89.99987435784635
 51
180.0
  0
LINE
  5
ADD
330
A37
100
AcDbEntity
  8
0
  6
Continuous
 62
     7
370
    15
100
AcDbLine
 10
1968.211979135615
 20
885.0178221635593
 30
0.0
 11
1968.211979135615
 21
877.7370915433287
 31
0.0
  0
ARC
  5
ADE
330
A37
100
AcDbEntity
  8
0
  6
Continuous
 62
     7
370
    15
100
AcDbCircle
 10
1968.411979094035
 20
877.7370915433287
 30
0.0
 40
0.199999958422695
100
AcDbArc
 50
180.0
 51
259.9949917235839
  0
LINE
  5
ADF
330
A37
100
AcDbEntity
  8
0
  6
Continuous
 62
     7
370
    15
100
AcDbLine
 10
1968.377232249268
 20
877.5401330701729
 30
0.0
 11
1969.190251592664
 21
877.3967054826151
 31
0.0
  0
ARC
  5
AE0
330
A37
100
AcDbEntity
  8
0
  6
Continuous
 62
     7
370
    15
100
AcDbCircle
 10
1969.138132178237
 20
877.1012674960264
 30
0.0
 40
0.3000000621330847
100
AcDbArc
 50
324.9983755980568
 51
79.99516129117317
  0
LINE
  5
AE1
330
A37
100
AcDbEntity
  8
0
  6
Continuous
 62
     7
370
    15
100
AcDbLine
 10
1968.100923963255
 20
875.0970301889486
 30
0.0
 11
1969.383872963852
 21
876.9291875623769
 31
0.0
  0
ARC
  5
AE2
330
A37
100
AcDbEntity
  8
0
  6
Continuous
 62
     7
370
    15
100
AcDbCircle
 10
1965.643503458881
 20
876.8178097156328
 30
0.0
 40
2.999999619128757
100
AcDbArc
 50
270.0
 51
324.998824070071
  0
LINE
  5
AE3
330
A37
100
AcDbEntity
  8
0
  6
Continuous
 62
     7
370
    15
100
AcDbLine
 10
1961.244648034911
 20
873.8178111816628
 30
0.0
 11
1965.643503458881
 21
873.817810096504
 31
0.0
  0
LINE
  5
AE4
330
A37
100
AcDbEntity
  8
0
  6
Continuous
 62
     7
370
    15
100
AcDbLine
 10
1961.094648034911
 20
873.8178111816628
 30
0.0
 11
1961.244648034911
 21
873.8178111816628
 31
0.0
  0
LINE
  5
AE5
330
A37
100
AcDbEntity
  8
0
  6
Continuous
 62
     7
370
    15
100
AcDbLine
 10
1958.207793437022
 20
873.8178106616306
 30
0.0
 11
1961.094648034911
 21
873.8178111816628
 31
0.0
  0
ARC
  5
AE6
330
A37
100
AcDbEntity
  8
0
  6
Continuous
 62
     7
370
    15
100
AcDbCircle
 10
1958.227346337493
 20
876.9677499759799
 30
0.0
 40
3.150000000000065
100
AcDbArc
 50
262.499985255369
 51
269.6443473433161
  0
LINE
  5
AE7
330
A37
100
AcDbEntity
  8
0
  6
Continuous
 62
     7
370
    15
100
AcDbLine
 10
1955.679215545508
 20
874.1260370925621
 30
0.0
 11
1957.816188028307
 21
873.8446987684607
 31
0.0
  0
LINE
  5
AE8
330
A37
100
AcDbEntity
  8
0
  6
Continuous
 62
     7
370
    15
100
AcDbLine
 10
1955.679215545508
 20
874.1260370925621
 30
0.0
 11
1955.679215545508
 21
874.1457850064707
 31
0.0
  0
LINE
  5
AE9
330
A37
100
AcDbEntity
  8
0
  6
Continuous
 62
     7
370
    15
100
AcDbLine
 10
1954.086250093216
 20
874.3555033038781
 30
0.0
 11
1955.679215545508
 21
874.1457850064707
 31
0.0
  0
ARC
  5
AEA
330
A37
100
AcDbEntity
  8
0
  6
Continuous
 62
     7
370
    15
100
AcDbCircle
 10
1954.216776716467
 20
875.3469464022119
 30
0.0
 40
0.9999983083042707
100
AcDbArc
 50
180.0
 51
262.4999623298972
  0
LINE
  5
AEB
330
A37
100
AcDbEntity
  8
0
  6
Continuous
 62
     7
370
    15
100
AcDbLine
 10
1953.216777640787
 20
878.4744160936693
 30
0.0
 11
1953.216778408162
 21
875.3469464022119
 31
0.0
  0
ARC
  5
AEC
330
A37
100
AcDbEntity
  8
0
  6
Continuous
 62
     7
370
    15
100
AcDbCircle
 10
1953.716778024474
 20
878.4744175820879
 30
0.0
 40
0.5000003836890114
100
AcDbArc
 50
90.0
 51
180.0001705600976
  0
LINE
  5
AED
330
A37
100
AcDbEntity
  8
0
  6
Continuous
 62
     7
370
    15
100
AcDbLine
 10
1953.716778024474
 20
878.9744179657768
 30
0.0
 11
1954.32058069497
 21
878.9744175681981
 31
0.0
  0
ARC
  5
AEE
330
A37
100
AcDbEntity
  8
0
  6
Continuous
 62
     7
370
    15
100
AcDbCircle
 10
1954.320579876453
 20
878.4744177669878
 30
0.0
 40
0.4999998012110629
100
AcDbArc
 50
29.99487244257061
 51
89.99990620484359
  0
LINE
  5
AEF
330
A37
100
AcDbEntity
  8
0
  6
Continuous
 62
     7
370
    15
100
AcDbLine
 10
1954.753614777636
 20
878.7243789151059
 30
0.0
 11
1955.479663476227
 21
877.4665685181359
 31
0.0
  0
ARC
  5
AF0
330
A37
100
AcDbEntity
  8
0
  6
Continuous
 62
     7
370
    15
100
AcDbCircle
 10
1955.349753422599
 20
877.3915779412527
 30
0.0
 40
0.1500006955144399
100
AcDbArc
 50
285.5237942081005
 51
29.99569054142762
  0
ARC
  5
AF1
330
A37
100
AcDbEntity
  8
0
  6
Continuous
 62
     7
370
    15
100
AcDbCircle
 10
1955.590628291584
 20
876.5244098206332
 30
0.0
 40
0.7500000000004425
100
AcDbArc
 50
105.5237942081005
 51
270.0
  0
LINE
  5
AF2
330
A37
100
AcDbEntity
  8
0
  6
Continuous
 62
     7
370
    15
100
AcDbLine
 10
1956.690884625247
 20
875.7743255674935
 30
0.0
 11
1955.829215545068
 21
875.7743836342458
 31
0.0
  0
ARC
  5
AF3
330
A37
100
AcDbEntity
  8
0
  6
Continuous
 62
     7
370
    15
100
AcDbCircle
 10
1956.690885857047
 20
876.2743257538526
 30
0.0
 40
0.5000001863608908
100
AcDbArc
 50
269.9998588460705
 51
14.99825642861959
  0
LINE
  5
AF4
330
A37
100
AcDbEntity
  8
0
  6
Continuous
 62
     7
370
    15
100
AcDbLine
 10
1954.831378694449
 20
885.1471554509297
 30
0.0
 11
1957.17385288805
 21
876.4037206274981
 31
0.0
  0
ARC
  5
AF5
330
A37
100
AcDbEntity
  8
0
  6
Continuous
 62
     7
370
    15
100
AcDbCircle
 10
1954.348410734139
 20
885.0177655970977
 30
0.0
 40
0.4999997849603728
100
AcDbArc
 50
14.99767323726159
 51
90.0
  0
LINE
  5
AF6
330
A37
100
AcDbEntity
  8
0
  6
Continuous
 62
     7
370
    15
100
AcDbLine
 10
1953.565849850401
 20
885.5177619360027
 30
0.0
 11
1954.348410734139
 21
885.5177653820579
 31
0.0
  0
ARC
  5
AF7
330
A37
100
AcDbEntity
  8
0
  6
Continuous
 62
     7
370
    15
100
AcDbCircle
 10
1953.56584764862
 20
886.017761935998
 30
0.0
 40
0.5000000000000445
100
AcDbArc
 50
180.0
 51
270.000252305511
  0
LINE
  5
AF8
330
A37
100
AcDbEntity
  8
0
  6
Continuous
 62
     7
370
    15
100
AcDbLine
 10
1953.06584764862
 20
886.8177604478411
 30
0.0
 11
1970.251504855149
 21
886.8177604478411
 31
0.0
  0
ARC
  5
AF9
330
A37
100
AcDbEntity
  8
0
  6
Continuous
 62
     7
370
    15
100
AcDbCircle
 10
1970.251504855149
 20
886.317760447841
 30
0.0
 40
0.5000000000000223
100
AcDbArc
 50
5.000000000025416
 51
90.0
  0
LINE
  5
AFA
330
A37
100
AcDbEntity
  8
0
  6
Continuous
 62
     7
370
    15
100
AcDbLine
 10
1970.749602204195
 20
886.3613383192152
 30
0.0
 11
1970.8439403517
 21
885.2830483590858
 31
0.0
  0
ARC
  5
AFB
330
A37
100
AcDbEntity
  8
0
  6
Continuous
 62
     7
370
    15
100
AcDbCircle
 10
1971.342037700746
 20
885.3266262304597
 30
0.0
 40
0.5000000000000333
100
AcDbArc
 50
184.9999999999994
 51
270.0
  0
LINE
  5
AFC
330
A37
100
AcDbEntity
  8
0
  6
Continuous
 62
     7
370
    15
100
AcDbLine
 10
1971.342037700746
 20
884.8266262304596
 30
0.0
 11
1999.595723318008
 21
884.8266262304596
 31
0.0
  0
ARC
  5
AFD
330
A37
100
AcDbEntity
  8
0
  6
Continuous
 62
     7
370
    15
100
AcDbCircle
 10
1999.595723318008
 20
885.3266262304597
 30
0.0
 40
0.500000000000008
100
AcDbArc
 50
270.0
 51
354.8860538573166
  0
LINE
  5
AFE
330
A37
100
AcDbEntity
  8
0
  6
Continuous
 62
     7
370
    15
100
AcDbLine
 10
2000.093733017253
 20
885.2820578621047
 30
0.0
 11
2000.190409676117
 21
886.3623288161958
 31
0.0
  0
ARC
  5
AFF
330
A37
100
AcDbEntity
  8
0
  6
Continuous
 62
     7
370
    15
100
AcDbCircle
 10
2000.688419375362
 20
886.317760447841
 30
0.0
 40
0.500000000000008
100
AcDbArc
 50
90.0
 51
174.8860538573166
  0
LINE
  5
B00
330
A37
100
AcDbEntity
  8
0
  6
Continuous
 62
     7
370
    15
100
AcDbLine
 10
2000.688419375362
 20
886.8177604478411
 30
0.0
 11
2017.86584764862
 21
886.8177604478409
 31
0.0
  0
ARC
  5
B01
330
A37
100
AcDbEntity
  8
0
  6
Continuous
 62
     7
370
    15
100
AcDbCircle
 10
2017.36584764862
 20
886.017761935998
 30
0.0
 40
0.5000000000000445
100
AcDbArc
 50
269.9997476944759
 51
0.0
  0
LINE
  5
B02
330
A37
100
AcDbEntity
  8
0
  6
Continuous
 62
     7
370
    15
100
AcDbLine
 10
2017.365845446839
 20
885.5177619360027
 30
0.0
 11
2016.5832845631
 21
885.5177653820581
 31
0.0
  0
ARC
  5
B03
330
A37
100
AcDbEntity
  8
0
  6
Continuous
 62
     7
370
    15
100
AcDbCircle
 10
2016.583284563101
 20
885.0177655970977
 30
0.0
 40
0.4999997849603728
100
AcDbArc
 50
90.00000000002605
 51
165.0023267627384
  0
LINE
  5
B04
330
A37
100
AcDbEntity
  8
0
  6
Continuous
 62
     7
370
    15
100
AcDbLine
 10
2016.100316602791
 20
885.1471554509297
 30
0.0
 11
2013.757842409189
 21
876.4037206274984
 31
0.0
  0
ARC
  5
B05
330
A37
100
AcDbEntity
  8
0
  6
Continuous
 62
     7
370
    15
100
AcDbCircle
 10
2014.240809440193
 20
876.2743257538526
 30
0.0
 40
0.5000001863616286
100
AcDbArc
 50
165.0017435713804
 51
270.0001411537211
  0
LINE
  5
B06
330
A37
100
AcDbEntity
  8
0
  6
Continuous
 62
     7
370
    15
100
AcDbLine
 10
2014.240810671991
 20
875.7743255674927
 30
0.0
 11
2014.984433682204
 21
875.7743756792748
 31
0.0
  0
LINE
  5
B07
330
A37
100
AcDbEntity
  8
0
  6
Continuous
 62
     7
370
    15
100
AcDbLine
 10
2014.984433681594
 20
875.7743857875787
 30
0.0
 11
2015.341067005654
 21
875.774409820632
 31
0.0
  0
LINE
  5
B08
330
A37
100
AcDbEntity
  8
0
  6
Continuous
 62
     7
370
    15
100
AcDbLine
 10
1955.829215545749
 20
875.7743937425496
 30
0.0
 11
1955.590628291584
 21
875.7744098206327
 31
0.0
  0
LINE
  5
B09
330
A37
100
AcDbEntity
  8
0
  6
Continuous
 62
     7
370
    15
100
AcDbLine
 10
2017.86584764862
 20
886.8177604478409
 30
0.0
 11
2017.86584764862
 21
886.017761935998
 31
0.0
  0
LINE
  5
B0A
330
A37
100
AcDbEntity
  8
0
  6
Continuous
 62
     7
370
    15
100
AcDbLine
 10
1953.06584764862
 20
886.8177604478411
 30
0.0
 11
1953.06584764862
 21
886.017761935998
 31
0.0
  0
ARC
  5
B0B
330
A37
100
AcDbEntity
  8
0
  6
Continuous
 62
     7
370
    15
100
AcDbCircle
 10
1972.142037700746
 20
885.3266262304597
 30
0.0
 40
0.5
100
AcDbArc
 50
238.2116693828807
 51
270.0
  0
LINE
  5
B0C
330
A37
100
AcDbEntity
  8
0
  6
Continuous
 62
     7
370
    15
100
AcDbLine
 10
1953.06584764862
 20
886.8177604478411
 30
0.0
 11
1953.06584764862
 21
886.8927604478411
 31
0.0
  0
ARC
  5
B0D
330
A37
100
AcDbEntity
  8
0
  6
Continuous
 62
     7
370
    15
100
AcDbCircle
 10
1998.795723318008
 20
885.3266262304597
 30
0.0
 40
0.5000000000002829
100
AcDbArc
 50
270.0
 51
301.7883306171013
  0
LINE
  5
B0E
330
A37
100
AcDbEntity
  8
0
  6
Continuous
 62
     7
370
    15
100
AcDbLine
 10
2017.86584764862
 20
886.8177604478411
 30
0.0
 11
2017.86584764862
 21
886.8927604478411
 31
0.0
  0
ARC
  5
B0F
330
A37
100
AcDbEntity
  8
0
  6
Continuous
 62
     7
370
    15
100
AcDbCircle
 10
1992.403261445884
 20
885.3266262304597
 30
0.0
 40
0.5000000000002979
100
AcDbArc
 50
270.0
 51
301.7883306171013
  0
ARC
  5
B10
330
A37
100
AcDbEntity
  8
0
  6
Continuous
 62
     7
370
    15
100
AcDbCircle
 10
1994.003854730008
 20
885.3266262304597
 30
0.0
 40
0.5000000000000135
100
AcDbArc
 50
238.2116693829456
 51
270.0
  0
LINE
  5
B11
330
A37
100
AcDbEntity
  8
0
  6
Continuous
 62
     7
370
    15
100
AcDbLine
 10
1998.795723318008
 20
884.9016262304596
 30
0.0
 11
1998.795723318008
 21
884.8266262304596
 31
0.0
  0
LINE
  5
B12
330
A37
100
AcDbEntity
  8
0
  6
Continuous
 62
     7
370
    15
100
AcDbLine
 10
1994.003854730008
 20
884.8266262304596
 30
0.0
 11
1994.003854730008
 21
884.9016262304596
 31
0.0
  0
LINE
  5
B13
330
A37
100
AcDbEntity
  8
0
  6
Continuous
 62
     7
370
    15
100
AcDbLine
 10
1983.580488746311
 20
884.9016262304596
 30
0.0
 11
1983.580488746311
 21
884.8266262304596
 31
0.0
  0
LINE
  5
B14
330
A37
100
AcDbEntity
  8
0
  6
Continuous
 62
     7
370
    15
100
AcDbLine
 10
1978.533952492037
 20
884.8266262304596
 30
0.0
 11
1978.533952492037
 21
884.9016262304596
 31
0.0
  0
ARC
  5
B15
330
A37
100
AcDbEntity
  8
0
  6
Continuous
 62
     7
370
    15
100
AcDbCircle
 10
1976.927840567231
 20
885.3266262304597
 30
0.0
 40
0.5000000000000135
100
AcDbArc
 50
270.0
 51
301.7883306170544
  0
ARC
  5
B16
330
A37
100
AcDbEntity
  8
0
  6
Continuous
 62
     7
370
    15
100
AcDbCircle
 10
1978.533952492037
 20
885.3266262304597
 30
0.0
 40
0.5
100
AcDbArc
 50
238.2116693829567
 51
270.0
  0
ARC
  5
B17
330
A37
100
AcDbEntity
  8
0
  6
Continuous
 62
     7
370
    15
100
AcDbCircle
 10
1983.580488746311
 20
885.3266262304597
 30
0.0
 40
0.5000000000002829
100
AcDbArc
 50
270.0
 51
301.7883306171013
  0
ARC
  5
B18
330
A37
100
AcDbEntity
  8
0
  6
Continuous
 62
     7
370
    15
100
AcDbCircle
 10
1987.35672519161
 20
885.3266262304597
 30
0.0
 40
0.5000000000000284
100
AcDbArc
 50
238.2116693829456
 51
270.0
  0
LINE
  5
B19
330
A37
100
AcDbEntity
  8
0
  6
Continuous
 62
     7
370
    15
100
AcDbLine
 10
1992.403261445884
 20
884.9016262304596
 30
0.0
 11
1992.403261445884
 21
884.8266262304596
 31
0.0
  0
LINE
  5
B1A
330
A37
100
AcDbEntity
  8
0
  6
Continuous
 62
     7
370
    15
100
AcDbLine
 10
1987.35672519161
 20
884.8266262304596
 30
0.0
 11
1987.35672519161
 21
884.9016262304596
 31
0.0
  0
LINE
  5
B1B
330
A37
100
AcDbEntity
  8
0
  6
Continuous
 62
     7
370
    15
100
AcDbLine
 10
1972.142037700746
 20
884.8266262304596
 30
0.0
 11
1972.142037700746
 21
884.90162623046
 31
0.0
  0
LINE
  5
B1C
330
A37
100
AcDbEntity
  8
0
  6
Continuous
 62
     7
370
    15
100
AcDbLine
 10
1976.927840567231
 20
884.90162623046
 30
0.0
 11
1976.927840567231
 21
884.8266262304596
 31
0.0
  0
ARC
  5
B1D
330
A37
100
AcDbEntity
  8
0
  6
Continuous
 62
     7
370
    15
100
AcDbCircle
 10
1956.289654946774
 20
879.1244161728769
 30
0.0
 40
0.1500000000000275
100
AcDbArc
 50
269.9999622731214
 51
14.9980306111519
  0
LINE
  5
B1E
330
A37
100
AcDbEntity
  8
0
  6
Continuous
 62
     7
370
    15
100
AcDbLine
 10
1954.32058069497
 20
878.9744175681981
 30
0.0
 11
1956.289654848005
 21
878.9744161728773
 31
0.0
  0
ARC
  5
B1F
330
A37
100
AcDbEntity
  8
0
  6
Continuous
 62
     7
370
    15
100
AcDbCircle
 10
2014.642040350465
 20
879.1244161728775
 30
0.0
 40
0.1500000000000382
100
AcDbArc
 50
165.0019693889081
 51
270.0000377269046
  0
LINE
  5
B20
330
A37
100
AcDbEntity
  8
0
  6
Continuous
 62
     7
370
    15
100
AcDbLine
 10
2014.642040449234
 20
878.9744161728775
 30
0.0
 11
2016.611114602267
 21
878.9744175681985
 31
0.0
  0
ENDBLK
  5
A39
330
A37
100
AcDbEntity
  8
0
100
AcDbBlockEnd
  0
BLOCK
  5
B23
330
B22
100
AcDbEntity
  8
0
100
AcDbBlockBegin
  2
2
 70
     0
 10
0.0
 20
0.0
 30
0.0
  3
2
  1

  0
LINE
  5
B25
330
B22
100
AcDbEntity
  8
0
  6
Continuous
 62
     7
370
    15
100
AcDbLine
 10
1941.615256709496
 20
895.452516035877
 30
0.0
 11
1935.715256869456
 21
895.452516035877
 31
0.0
  0
LINE
  5
B26
330
B22
100
AcDbEntity
  8
0
  6
Continuous
 62
     7
370
    15
100
AcDbLine
 10
1935.715256869456
 20
899.8868333862645
 30
0.0
 11
1941.615256709496
 21
899.8868333862645
 31
0.0
  0
ARC
  5
B27
330
B22
100
AcDbEntity
  8
0
  6
Continuous
 62
     7
370
    15
100
AcDbCircle
 10
1941.565256710759
 20
883.9266311418819
 30
0.0
 40
0.1000000000000227
100
AcDbArc
 50
60.00000000000272
 51
180.0
  0
LINE
  5
B28
330
B22
100
AcDbEntity
  8
0
  6
Continuous
 62
     7
370
    15
100
AcDbLine
 10
1935.715256869456
 20
899.9136778281553
 30
0.0
 11
1935.715256869456
 21
900.1135471032483
 31
0.0
  0
LINE
  5
B29
330
B22
100
AcDbEntity
  8
0
  6
Continuous
 62
     7
370
    15
100
AcDbLine
 10
1935.715256869456
 20
900.1135471032483
 30
0.0
 11
1941.615256709496
 21
900.1135471032483
 31
0.0
  0
LINE
  5
B2A
330
B22
100
AcDbEntity
  8
0
  6
Continuous
 62
     7
370
    15
100
AcDbLine
 10
1941.615256709496
 20
899.9136778281553
 30
0.0
 11
1941.615256709496
 21
900.1135471032483
 31
0.0
  0
LINE
  5
B2B
330
B22
100
AcDbEntity
  8
0
  6
Continuous
 62
     7
370
    15
100
AcDbLine
 10
1935.715256869456
 20
899.9136778281553
 30
0.0
 11
1941.615256709496
 21
899.9136778281553
 31
0.0
  0
LINE
  5
B2C
330
B22
100
AcDbEntity
  8
0
  6
Continuous
 62
     7
370
    15
100
AcDbLine
 10
1941.615256709496
 20
904.1020664141996
 30
0.0
 11
1935.715256869456
 21
904.1020664141996
 31
0.0
  0
LINE
  5
B2D
330
B22
100
AcDbEntity
  8
0
  6
Continuous
 62
     7
370
    15
100
AcDbLine
 10
1935.715256869456
 20
904.1020664141996
 30
0.0
 11
1935.715256869456
 21
900.1135471032483
 31
0.0
  0
LINE
  5
B2E
330
B22
100
AcDbEntity
  8
0
  6
Continuous
 62
     7
370
    15
100
AcDbLine
 10
1941.615256709496
 20
900.1135471032483
 30
0.0
 11
1941.615256709496
 21
904.1020664141996
 31
0.0
  0
LINE
  5
B2F
330
B22
100
AcDbEntity
  8
0
  6
Continuous
 62
     7
370
    15
100
AcDbLine
 10
1935.715256869456
 20
904.867419855438
 30
0.0
 11
1941.615256709496
 21
904.867419855438
 31
0.0
  0
LINE
  5
B30
330
B22
100
AcDbEntity
  8
0
  6
Continuous
 62
     7
370
    15
100
AcDbLine
 10
1935.715256869456
 20
904.1020664141996
 30
0.0
 11
1935.715256869456
 21
904.867419855438
 31
0.0
  0
LINE
  5
B31
330
B22
100
AcDbEntity
  8
0
  6
Continuous
 62
     7
370
    15
100
AcDbLine
 10
1941.615256709496
 20
904.1020664141996
 30
0.0
 11
1941.615256709496
 21
904.867419855438
 31
0.0
  0
LINE
  5
B32
330
B22
100
AcDbEntity
  8
0
  6
Continuous
 62
     7
370
    15
100
AcDbLine
 10
1941.615256709496
 20
895.4256641434056
 30
0.0
 11
1935.715256869456
 21
895.4256641434056
 31
0.0
  0
LINE
  5
B33
330
B22
100
AcDbEntity
  8
0
  6
Continuous
 62
     7
370
    15
100
AcDbLine
 10
1941.615256709496
 20
895.2258544729573
 30
0.0
 11
1935.715256869456
 21
895.2258544729573
 31
0.0
  0
LINE
  5
B34
330
B22
100
AcDbEntity
  8
0
  6
Continuous
 62
     7
370
    15
100
AcDbLine
 10
1935.715256869456
 20
895.2258544729573
 30
0.0
 11
1935.715256869456
 21
895.4256641434056
 31
0.0
  0
LINE
  5
B35
330
B22
100
AcDbEntity
  8
0
  6
Continuous
 62
     7
370
    15
100
AcDbLine
 10
1941.615256709496
 20
895.2258544729573
 30
0.0
 11
1941.615256709496
 21
895.4256641434056
 31
0.0
  0
ARC
  5
B36
330
B22
100
AcDbEntity
  8
0
  6
Continuous
 62
     7
370
    15
100
AcDbCircle
 10
1941.565256710759
 20
886.7177604478412
 30
0.0
 40
0.1000000000000227
100
AcDbArc
 50
60.000000000014
 51
179.9999999999935
  0
LINE
  5
B37
330
B22
100
AcDbEntity
  8
0
  6
Continuous
 62
     7
370
    15
100
AcDbLine
 10
1941.465256713285
 20
886.0177638696058
 30
0.0
 11
1941.465256713285
 21
886.7177608178479
 31
0.0
  0
LINE
  5
B38
330
B22
100
AcDbEntity
  8
0
  6
Continuous
 62
     7
370
    15
100
AcDbLine
 10
1935.865256614646
 20
886.0177638696058
 30
0.0
 11
1941.465256713285
 21
886.0177638696058
 31
0.0
  0
LINE
  5
B39
330
B22
100
AcDbEntity
  8
0
  6
Continuous
 62
     7
370
    15
100
AcDbLine
 10
1935.865256614646
 20
886.8177625106199
 30
0.0
 11
1935.865256614646
 21
886.0177638696058
 31
0.0
  0
LINE
  5
B3A
330
B22
100
AcDbEntity
  8
0
  6
Continuous
 62
     7
370
    15
100
AcDbLine
 10
1935.865256614646
 20
886.8177625106199
 30
0.0
 11
1938.665256747639
 21
886.8177625106199
 31
0.0
  0
LINE
  5
B3B
330
B22
100
AcDbEntity
  8
0
  6
Continuous
 62
     7
370
    15
100
AcDbLine
 10
1938.665256747639
 20
886.8177625106199
 30
0.0
 11
1938.665256747639
 21
886.8927600549085
 31
0.0
  0
LINE
  5
B3C
330
B22
100
AcDbEntity
  8
0
  6
Continuous
 62
     7
370
    15
100
AcDbLine
 10
1938.665256747639
 20
886.8927600549085
 30
0.0
 11
1935.715256869456
 21
886.8927600549085
 31
0.0
  0
LINE
  5
B3D
330
B22
100
AcDbEntity
  8
0
  6
Continuous
 62
     7
370
    15
100
AcDbLine
 10
1935.715256869456
 20
895.2258544729573
 30
0.0
 11
1935.715256869456
 21
886.8927600549085
 31
0.0
  0
LINE
  5
B3E
330
B22
100
AcDbEntity
  8
0
  6
Continuous
 62
     7
370
    15
100
AcDbLine
 10
1941.615256709496
 20
895.2258544729573
 30
0.0
 11
1941.615256709496
 21
886.8043663667066
 31
0.0
  0
LINE
  5
B3F
330
B22
100
AcDbEntity
  8
0
  6
Continuous
 62
     7
370
    15
100
AcDbLine
 10
1935.865256614646
 20
885.5177628563268
 30
0.0
 11
1941.465256713285
 21
885.5177628563268
 31
0.0
  0
LINE
  5
B40
330
B22
100
AcDbEntity
  8
0
  6
Continuous
 62
     7
370
    15
100
AcDbLine
 10
1935.865256614646
 20
886.0177638696058
 30
0.0
 11
1935.865256614646
 21
885.5177628563268
 31
0.0
  0
LINE
  5
B41
330
B22
100
AcDbEntity
  8
0
  6
Continuous
 62
     7
370
    15
100
AcDbLine
 10
1941.465256713285
 20
885.5177628563268
 30
0.0
 11
1941.465256713285
 21
886.0177638696058
 31
0.0
  0
LINE
  5
B42
330
B22
100
AcDbEntity
  8
0
  6
Continuous
 62
     7
370
    15
100
AcDbLine
 10
1935.865256614646
 20
878.4744160936696
 30
0.0
 11
1941.465256713285
 21
878.4744160936696
 31
0.0
  0
LINE
  5
B43
330
B22
100
AcDbEntity
  8
0
  6
Continuous
 62
     7
370
    15
100
AcDbLine
 10
1935.865256614646
 20
878.9744171069486
 30
0.0
 11
1941.465256713285
 21
878.9744171069486
 31
0.0
  0
LINE
  5
B44
330
B22
100
AcDbEntity
  8
0
  6
Continuous
 62
     7
370
    15
100
AcDbLine
 10
1935.865256614646
 20
878.9744171069486
 30
0.0
 11
1935.865256614646
 21
878.4744160936696
 31
0.0
  0
LINE
  5
B45
330
B22
100
AcDbEntity
  8
0
  6
Continuous
 62
     7
370
    15
100
AcDbLine
 10
1941.465256713285
 20
878.4744160936696
 30
0.0
 11
1941.465256713285
 21
878.9744171069486
 31
0.0
  0
LINE
  5
B46
330
B22
100
AcDbEntity
  8
0
  6
Continuous
 62
     7
370
    15
100
AcDbLine
 10
1935.865256614646
 20
875.3469454811437
 30
0.0
 11
1941.465256713285
 21
875.3469454811437
 31
0.0
  0
LINE
  5
B47
330
B22
100
AcDbEntity
  8
0
  6
Continuous
 62
     7
370
    15
100
AcDbLine
 10
1935.865256614646
 20
878.4744160936696
 30
0.0
 11
1935.865256614646
 21
875.3469454811437
 31
0.0
  0
LINE
  5
B48
330
B22
100
AcDbEntity
  8
0
  6
Continuous
 62
     7
370
    15
100
AcDbLine
 10
1941.465256713285
 20
875.3469454811437
 30
0.0
 11
1941.465256713285
 21
878.4744160936696
 31
0.0
  0
LINE
  5
B49
330
B22
100
AcDbEntity
  8
0
  6
Continuous
 62
     7
370
    15
100
AcDbLine
 10
1935.865256614646
 20
874.3555041716916
 30
0.0
 11
1941.465256713285
 21
874.3555041716916
 31
0.0
  0
LINE
  5
B4A
330
B22
100
AcDbEntity
  8
0
  6
Continuous
 62
     7
370
    15
100
AcDbLine
 10
1935.865256614646
 20
874.3555041716916
 30
0.0
 11
1935.865256614646
 21
875.3469454811437
 31
0.0
  0
LINE
  5
B4B
330
B22
100
AcDbEntity
  8
0
  6
Continuous
 62
     7
370
    15
100
AcDbLine
 10
1941.465256713285
 20
874.3555041716916
 30
0.0
 11
1941.465256713285
 21
875.3469454811437
 31
0.0
  0
LINE
  5
B4C
330
B22
100
AcDbEntity
  8
0
  6
Continuous
 62
     7
370
    15
100
AcDbLine
 10
1935.715256869456
 20
905.583167331062
 30
0.0
 11
1941.615256709496
 21
905.583167331062
 31
0.0
  0
LINE
  5
B4D
330
B22
100
AcDbEntity
  8
0
  6
Continuous
 62
     7
370
    15
100
AcDbLine
 10
1935.715256869456
 20
904.867419855438
 30
0.0
 11
1935.715256869456
 21
905.583167331062
 31
0.0
  0
LINE
  5
B4E
330
B22
100
AcDbEntity
  8
0
  6
Continuous
 62
     7
370
    15
100
AcDbLine
 10
1941.615256709496
 20
904.867419855438
 30
0.0
 11
1941.615256709496
 21
905.583167331062
 31
0.0
  0
LINE
  5
B4F
330
B22
100
AcDbEntity
  8
0
  6
Continuous
 62
     7
370
    15
100
AcDbLine
 10
1935.715256869456
 20
899.8870196507795
 30
0.0
 11
1941.615256709496
 21
899.8870196507795
 31
0.0
  0
LINE
  5
B50
330
B22
100
AcDbEntity
  8
0
  6
Continuous
 62
     7
370
    15
100
AcDbLine
 10
1935.715256869456
 20
899.9136778281553
 30
0.0
 11
1935.715256869456
 21
899.8870196507795
 31
0.0
  0
LINE
  5
B51
330
B22
100
AcDbEntity
  8
0
  6
Continuous
 62
     7
370
    15
100
AcDbLine
 10
1941.615256709496
 20
899.8870196507795
 30
0.0
 11
1941.615256709496
 21
899.9136778281553
 31
0.0
  0
LINE
  5
B52
330
B22
100
AcDbEntity
  8
0
  6
Continuous
 62
     7
370
    15
100
AcDbLine
 10
1941.615256709496
 20
895.4523223207814
 30
0.0
 11
1935.715256869456
 21
895.4523223207814
 31
0.0
  0
LINE
  5
B53
330
B22
100
AcDbEntity
  8
0
  6
Continuous
 62
     7
370
    15
100
AcDbLine
 10
1935.715256869456
 20
895.4523223207814
 30
0.0
 11
1935.715256869456
 21
895.4256641434056
 31
0.0
  0
LINE
  5
B54
330
B22
100
AcDbEntity
  8
0
  6
Continuous
 62
     7
370
    15
100
AcDbLine
 10
1941.615256709496
 20
895.4256641434056
 30
0.0
 11
1941.615256709496
 21
895.4523223207814
 31
0.0
  0
LINE
  5
B55
330
B22
100
AcDbEntity
  8
0
  6
Continuous
 62
     7
370
    15
100
AcDbLine
 10
1935.715256869456
 20
906.8178104923589
 30
0.0
 11
1941.615256709496
 21
906.8178104923589
 31
0.0
  0
LINE
  5
B56
330
B22
100
AcDbEntity
  8
0
  6
Continuous
 62
     7
370
    15
100
AcDbLine
 10
1935.715256869456
 20
906.8178104923589
 30
0.0
 11
1935.715256869456
 21
905.583167331062
 31
0.0
  0
LINE
  5
B57
330
B22
100
AcDbEntity
  8
0
  6
Continuous
 62
     7
370
    15
100
AcDbLine
 10
1941.615256709496
 20
905.583167331062
 30
0.0
 11
1941.615256709496
 21
906.8178104923589
 31
0.0
  0
LINE
  5
B58
330
B22
100
AcDbEntity
  8
0
  6
Continuous
 62
     7
370
    15
100
AcDbLine
 10
1935.715256869456
 20
895.452516035877
 30
0.0
 11
1935.715256869456
 21
895.4523223207814
 31
0.0
  0
LINE
  5
B59
330
B22
100
AcDbEntity
  8
0
  6
Continuous
 62
     7
370
    15
100
AcDbLine
 10
1941.615256709496
 20
895.4523223207814
 30
0.0
 11
1941.615256709496
 21
895.452516035877
 31
0.0
  0
LINE
  5
B5A
330
B22
100
AcDbEntity
  8
0
  6
Continuous
 62
     7
370
    15
100
AcDbLine
 10
1935.715256869456
 20
899.8870196507795
 30
0.0
 11
1935.715256869456
 21
899.8868333862645
 31
0.0
  0
LINE
  5
B5B
330
B22
100
AcDbEntity
  8
0
  6
Continuous
 62
     7
370
    15
100
AcDbLine
 10
1941.615256709496
 20
899.8868333862645
 30
0.0
 11
1941.615256709496
 21
899.8870196507795
 31
0.0
  0
LINE
  5
B5C
330
B22
100
AcDbEntity
  8
0
  6
Continuous
 62
     7
370
    15
100
AcDbLine
 10
1941.465256713285
 20
874.1302433179242
 30
0.0
 11
1935.865256614646
 21
874.1302433179242
 31
0.0
  0
LINE
  5
B5D
330
B22
100
AcDbEntity
  8
0
  6
Continuous
 62
     7
370
    15
100
AcDbLine
 10
1935.865256614646
 20
874.1302433179242
 30
0.0
 11
1935.865256614646
 21
874.3555041716916
 31
0.0
  0
LINE
  5
B5E
330
B22
100
AcDbEntity
  8
0
  6
Continuous
 62
     7
370
    15
100
AcDbLine
 10
1941.465256713285
 20
874.3555041716916
 30
0.0
 11
1941.465256713285
 21
874.1302433179242
 31
0.0
  0
LINE
  5
B5F
330
B22
100
AcDbEntity
  8
0
  6
Continuous
 62
     7
370
    15
100
AcDbLine
 10
1941.06525668701
 20
899.8868333862645
 30
0.0
 11
1941.06525668701
 21
898.5639753507001
 31
0.0
  0
LINE
  5
B60
330
B22
100
AcDbEntity
  8
0
  6
Continuous
 62
     7
370
    15
100
AcDbLine
 10
1941.06525668701
 20
896.7753740714414
 30
0.0
 11
1941.06525668701
 21
895.452516035877
 31
0.0
  0
LINE
  5
B61
330
B22
100
AcDbEntity
  8
0
  6
Continuous
 62
     7
370
    15
100
AcDbLine
 10
1936.265256866476
 20
896.7753740714414
 30
0.0
 11
1941.06525668701
 21
896.7753740714414
 31
0.0
  0
LINE
  5
B62
330
B22
100
AcDbEntity
  8
0
  6
Continuous
 62
     7
370
    15
100
AcDbLine
 10
1936.265256866476
 20
895.452516035877
 30
0.0
 11
1936.265256866476
 21
896.7753740714414
 31
0.0
  0
LINE
  5
B63
330
B22
100
AcDbEntity
  8
0
  6
Continuous
 62
     7
370
    15
100
AcDbLine
 10
1936.265256866476
 20
898.5639753507001
 30
0.0
 11
1936.265256866476
 21
899.8868333862645
 31
0.0
  0
LINE
  5
B64
330
B22
100
AcDbEntity
  8
0
  6
Continuous
 62
     7
370
    15
100
AcDbLine
 10
1941.06525668701
 20
898.5639753507001
 30
0.0
 11
1936.265256866476
 21
898.5639753507001
 31
0.0
  0
LINE
  5
B65
330
B22
100
AcDbEntity
  8
0
  6
Continuous
 62
     7
370
    15
100
AcDbLine
 10
1935.715256869456
 20
899.8868333862645
 30
0.0
 11
1935.715256869456
 21
895.452516035877
 31
0.0
  0
LINE
  5
B66
330
B22
100
AcDbEntity
  8
0
  6
Continuous
 62
     7
370
    15
100
AcDbLine
 10
1941.615256709496
 20
895.452516035877
 30
0.0
 11
1941.615256709496
 21
899.8868333862645
 31
0.0
  0
LINE
  5
B67
330
B22
100
AcDbEntity
  8
0
  6
Continuous
 62
     7
370
    15
100
AcDbLine
 10
1941.06525668701
 20
899.1827609704358
 30
0.0
 11
1936.265256866476
 21
899.1827609704358
 31
0.0
  0
LINE
  5
B68
330
B22
100
AcDbEntity
  8
0
  6
Continuous
 62
     7
370
    15
100
AcDbLine
 10
1936.265256866476
 20
896.1565810011251
 30
0.0
 11
1941.06525668701
 21
896.1565810011251
 31
0.0
  0
LINE
  5
B69
330
B22
100
AcDbEntity
  8
0
  6
Continuous
 62
     7
370
    15
100
AcDbLine
 10
1935.865256614646
 20
885.1471560762746
 30
0.0
 11
1941.465256713285
 21
885.1471560762746
 31
0.0
  0
LINE
  5
B6A
330
B22
100
AcDbEntity
  8
0
  6
Continuous
 62
     7
370
    15
100
AcDbLine
 10
1935.865256614646
 20
885.5177628563268
 30
0.0
 11
1935.865256614646
 21
885.1471560762746
 31
0.0
  0
LINE
  5
B6B
330
B22
100
AcDbEntity
  8
0
  6
Continuous
 62
     7
370
    15
100
AcDbLine
 10
1941.465256713285
 20
885.1471560762746
 30
0.0
 11
1941.465256713285
 21
885.5177628563268
 31
0.0
  0
LINE
  5
B6C
330
B22
100
AcDbEntity
  8
0
  6
Continuous
 62
     7
370
    15
100
AcDbLine
 10
1940.765256730968
 20
879.1632371710164
 30
0.0
 11
1941.465256713285
 21
879.1632371710164
 31
0.0
  0
LINE
  5
B6D
330
B22
100
AcDbEntity
  8
0
  6
Continuous
 62
     7
370
    15
100
AcDbLine
 10
1935.865256614646
 20
885.1471560762746
 30
0.0
 11
1935.865256614646
 21
878.9744171069486
 31
0.0
  0
LINE
  5
B6E
330
B22
100
AcDbEntity
  8
0
  6
Continuous
 62
     7
370
    15
100
AcDbLine
 10
1941.465256713285
 20
879.1632371710164
 30
0.0
 11
1941.465256713285
 21
885.1471560762746
 31
0.0
  0
LINE
  5
B6F
330
B22
100
AcDbEntity
  8
0
  6
Continuous
 62
     7
370
    15
100
AcDbLine
 10
1941.465256713285
 20
874.1104992793424
 30
0.0
 11
1935.865256614646
 21
874.1104992793424
 31
0.0
  0
LINE
  5
B70
330
B22
100
AcDbEntity
  8
0
  6
Continuous
 62
     7
370
    15
100
AcDbLine
 10
1935.865256614646
 20
874.1104992793424
 30
0.0
 11
1935.865256614646
 21
874.1302433179242
 31
0.0
  0
LINE
  5
B71
330
B22
100
AcDbEntity
  8
0
  6
Continuous
 62
     7
370
    15
100
AcDbLine
 10
1941.465256713285
 20
874.1104992793424
 30
0.0
 11
1941.465256713285
 21
874.1302433179242
 31
0.0
  0
LINE
  5
B72
330
B22
100
AcDbEntity
  8
0
  6
Continuous
 62
     7
370
    15
100
AcDbLine
 10
1935.865256614646
 20
873.8446998165471
 30
0.0
 11
1941.465256713285
 21
873.8446998165471
 31
0.0
  0
LINE
  5
B73
330
B22
100
AcDbEntity
  8
0
  6
Continuous
 62
     7
370
    15
100
AcDbLine
 10
1935.865256614646
 20
873.8446998165471
 30
0.0
 11
1935.865256614646
 21
874.1104992793424
 31
0.0
  0
LINE
  5
B74
330
B22
100
AcDbEntity
  8
0
  6
Continuous
 62
     7
370
    15
100
AcDbLine
 10
1941.465256713285
 20
874.1104992793424
 30
0.0
 11
1941.465256713285
 21
873.8446998165471
 31
0.0
  0
LINE
  5
B75
330
B22
100
AcDbEntity
  8
0
  6
Continuous
 62
     7
370
    15
100
AcDbLine
 10
1940.765256730968
 20
878.9744171069486
 30
0.0
 11
1940.765256730968
 21
879.1632371710164
 31
0.0
  0
LINE
  5
B76
330
B22
100
AcDbEntity
  8
0
  6
Continuous
 62
     7
370
    15
100
AcDbLine
 10
1941.465256713285
 20
878.9744171069486
 30
0.0
 11
1940.765256730968
 21
878.9744171069486
 31
0.0
  0
LINE
  5
B77
330
B22
100
AcDbEntity
  8
0
  6
Continuous
 62
     7
370
    15
100
AcDbLine
 10
1941.465256713285
 20
878.9744171069486
 30
0.0
 11
1941.465256713285
 21
879.1632371710164
 31
0.0
  0
LINE
  5
B78
330
B22
100
AcDbEntity
  8
0
  6
Continuous
 62
     7
370
    15
100
AcDbLine
 10
1935.865256614646
 20
873.8178106711728
 30
0.0
 11
1941.465256713285
 21
873.8178106711728
 31
0.0
  0
LINE
  5
B79
330
B22
100
AcDbEntity
  8
0
  6
Continuous
 62
     7
370
    15
100
AcDbLine
 10
1935.865256614646
 20
873.8178106711728
 30
0.0
 11
1935.865256614646
 21
873.8446998165471
 31
0.0
  0
LINE
  5
B7A
330
B22
100
AcDbEntity
  8
0
  6
Continuous
 62
     7
370
    15
100
AcDbLine
 10
1941.465256713285
 20
873.8178106711728
 30
0.0
 11
1941.465256713285
 21
873.8446998165471
 31
0.0
  0
LINE
  5
B7B
330
B22
100
AcDbEntity
  8
0
  6
Continuous
 62
     7
370
    15
100
AcDbLine
 10
1935.715256869456
 20
886.8927600549085
 30
0.0
 11
1935.715256869456
 21
886.3690140412671
 31
0.0
  0
LINE
  5
B7C
330
B22
100
AcDbEntity
  8
0
  6
Continuous
 62
     7
370
    15
100
AcDbLine
 10
1941.615256709496
 20
886.3690140412671
 30
0.0
 11
1941.465256713285
 21
886.3690140412671
 31
0.0
  0
LINE
  5
B7D
330
B22
100
AcDbEntity
  8
0
  6
Continuous
 62
     7
370
    15
100
AcDbLine
 10
1941.615256709496
 20
886.3690140412671
 30
0.0
 11
1941.615256709496
 21
886.8043663667066
 31
0.0
  0
LINE
  5
B7E
330
B22
100
AcDbEntity
  8
0
  6
Continuous
 62
     7
370
    15
100
AcDbLine
 10
1941.615256709496
 20
885.2887394593579
 30
0.0
 11
1941.465256713285
 21
885.2887394593579
 31
0.0
  0
LINE
  5
B7F
330
B22
100
AcDbEntity
  8
0
  6
Continuous
 62
     7
370
    15
100
AcDbLine
 10
1941.615256709496
 20
885.2887394593579
 30
0.0
 11
1941.615256709496
 21
886.3690140412671
 31
0.0
  0
LINE
  5
B80
330
B22
100
AcDbEntity
  8
0
  6
Continuous
 62
     7
370
    15
100
AcDbLine
 10
1935.715256869456
 20
885.2887394593579
 30
0.0
 11
1935.715256869456
 21
886.3690140412671
 31
0.0
  0
LINE
  5
B81
330
B22
100
AcDbEntity
  8
0
  6
Continuous
 62
     7
370
    15
100
AcDbLine
 10
1941.615256709496
 20
884.9016296432836
 30
0.0
 11
1941.465256713285
 21
884.9016296432836
 31
0.0
  0
LINE
  5
B82
330
B22
100
AcDbEntity
  8
0
  6
Continuous
 62
     7
370
    15
100
AcDbLine
 10
1941.615256709496
 20
884.9016296432836
 30
0.0
 11
1941.615256709496
 21
885.2887394593579
 31
0.0
  0
LINE
  5
B83
330
B22
100
AcDbEntity
  8
0
  6
Continuous
 62
     7
370
    15
100
AcDbLine
 10
1935.865256614646
 20
884.9016296432836
 30
0.0
 11
1935.715256869456
 21
884.9016296432836
 31
0.0
  0
LINE
  5
B84
330
B22
100
AcDbEntity
  8
0
  6
Continuous
 62
     7
370
    15
100
AcDbLine
 10
1935.715256869456
 20
884.9016296432836
 30
0.0
 11
1935.715256869456
 21
885.2887394593579
 31
0.0
  0
ARC
  5
B85
330
B22
100
AcDbEntity
  8
0
  6
Continuous
 62
     7
370
    15
100
AcDbCircle
 10
1941.565256710759
 20
884.7266262304597
 30
0.0
 40
0.1000000000000227
100
AcDbArc
 50
60.00000000000272
 51
180.0
  0
LINE
  5
B86
330
B22
100
AcDbEntity
  8
0
  6
Continuous
 62
     7
370
    15
100
AcDbLine
 10
1941.615256709496
 20
884.8132285045011
 30
0.0
 11
1941.615256709496
 21
884.9016296432836
 31
0.0
  0
LINE
  5
B87
330
B22
100
AcDbEntity
  8
0
  6
Continuous
 62
     7
370
    15
100
AcDbLine
 10
1941.615256709496
 20
884.0132373140676
 30
0.0
 11
1941.615256709496
 21
884.8132285045011
 31
0.0
  0
LINE
  5
B88
330
B22
100
AcDbEntity
  8
0
  6
Continuous
 62
     8
370
    15
100
AcDbLine
 10
1935.865256614646
 20
886.3690140412671
 30
0.0
 11
1935.715256869456
 21
886.3690140412671
 31
0.0
  0
LINE
  5
B89
330
B22
100
AcDbEntity
  8
0
  6
Continuous
 62
     8
370
    15
100
AcDbLine
 10
1935.865256614646
 20
885.2887394593579
 30
0.0
 11
1935.715256869456
 21
885.2887394593579
 31
0.0
  0
ENDBLK
  5
B24
330
B22
100
AcDbEntity
  8
0
100
AcDbBlockEnd
  0
BLOCK
  5
B8C
330
B8B
100
AcDbEntity
  8
0
100
AcDbBlockBegin
  2
3
 70
     0
 10
0.0
 20
0.0
 30
0.0
  3
3
  1

  0
LINE
  5
B8E
330
B8B
100
AcDbEntity
  8
0
  6
Continuous
 62
     7
370
    15
100
AcDbLine
 10
1991.329091778012
 20
858.2880299043301
 30
0.0
 11
1991.329091778012
 21
852.3880300642906
 31
0.0
  0
LINE
  5
B8F
330
B8B
100
AcDbEntity
  8
0
  6
Continuous
 62
     7
370
    15
100
AcDbLine
 10
1980.834472170086
 20
852.3880300642906
 30
0.0
 11
1980.834472170086
 21
858.2880299043301
 31
0.0
  0
LINE
  5
B90
330
B8B
100
AcDbEntity
  8
0
  6
Continuous
 62
     7
370
    15
100
AcDbLine
 10
2014.028209438534
 20
853.6380298035203
 30
0.0
 11
2014.028209438534
 21
857.0380298485963
 31
0.0
  0
LINE
  5
B91
330
B8B
100
AcDbEntity
  8
0
  6
Continuous
 62
     7
370
    15
100
AcDbLine
 10
1983.86452364734
 20
852.3880300642906
 30
0.0
 11
1983.86452364734
 21
858.2880299043301
 31
0.0
  0
LINE
  5
B92
330
B8B
100
AcDbEntity
  8
0
  6
Continuous
 62
     7
370
    15
100
AcDbLine
 10
1988.299051127383
 20
858.2880299043301
 30
0.0
 11
1988.299051127383
 21
852.3880300642906
 31
0.0
  0
LINE
  5
B93
330
B8B
100
AcDbEntity
  8
0
  6
Continuous
 62
     7
370
    15
100
AcDbLine
 10
2014.034156864496
 20
857.0380298485963
 30
0.0
 11
2014.034156864496
 21
853.6380298035203
 31
0.0
  0
LINE
  5
B94
330
B8B
100
AcDbEntity
  8
0
  6
Continuous
 62
     7
370
    15
100
AcDbLine
 10
2010.732959201546
 20
857.0380298485963
 30
0.0
 11
2014.034156864496
 21
857.0380298485963
 31
0.0
  0
LINE
  5
B95
330
B8B
100
AcDbEntity
  8
0
  6
Continuous
 62
     7
370
    15
100
AcDbLine
 10
2010.732959201546
 20
853.6380298035203
 30
0.0
 11
2010.732959201546
 21
857.0380298485963
 31
0.0
  0
LINE
  5
B96
330
B8B
100
AcDbEntity
  8
0
  6
Continuous
 62
     7
370
    15
100
AcDbLine
 10
2014.034156864496
 20
853.6380298035203
 30
0.0
 11
2010.732959201546
 21
853.6380298035203
 31
0.0
  0
LINE
  5
B97
330
B8B
100
AcDbEntity
  8
0
  6
Continuous
 62
     7
370
    15
100
AcDbLine
 10
1991.57909181899
 20
858.2880299043301
 30
0.0
 11
1991.57909181899
 21
852.3880300642906
 31
0.0
  0
LINE
  5
B98
330
B8B
100
AcDbEntity
  8
0
  6
Continuous
 62
     7
370
    15
100
AcDbLine
 10
2015.569563200684
 20
858.2880299043301
 30
0.0
 11
1991.57909181899
 21
858.2880299043301
 31
0.0
  0
LINE
  5
B99
330
B8B
100
AcDbEntity
  8
0
  6
Continuous
 62
     7
370
    15
100
AcDbLine
 10
2015.569563200684
 20
852.3880300642906
 30
0.0
 11
2015.569563200684
 21
858.2880299043301
 31
0.0
  0
LINE
  5
B9A
330
B8B
100
AcDbEntity
  8
0
  6
Continuous
 62
     7
370
    15
100
AcDbLine
 10
1991.57909181899
 20
852.3880300642906
 30
0.0
 11
2015.569563200684
 21
852.3880300642906
 31
0.0
  0
ARC
  5
B9B
330
B8B
100
AcDbEntity
  8
0
  6
Continuous
 62
     7
370
    15
100
AcDbCircle
 10
2007.334482747368
 20
855.3380299055932
 30
0.0
 40
2.599999969828796
100
AcDbArc
 50
115.2087635481037
 51
244.7912364518963
  0
ARC
  5
B9C
330
B8B
100
AcDbEntity
  8
0
  6
Continuous
 62
     7
370
    15
100
AcDbCircle
 10
2006.440055627207
 20
853.4380299055934
 30
0.0
 40
0.5000000000000081
100
AcDbArc
 50
244.7912364518963
 51
270.0
  0
LINE
  5
B9D
330
B8B
100
AcDbEntity
  8
0
  6
Continuous
 62
     7
370
    15
100
AcDbLine
 10
2008.228910332532
 20
852.9380300613103
 30
0.0
 11
2006.440055733533
 21
852.9380300613103
 31
0.0
  0
ARC
  5
B9E
330
B8B
100
AcDbEntity
  8
0
  6
Continuous
 62
     7
370
    15
100
AcDbCircle
 10
2008.22890986753
 20
853.4380299055934
 30
0.0
 40
0.5000000000000028
100
AcDbArc
 50
270.0
 51
295.208763548092
  0
ARC
  5
B9F
330
B8B
100
AcDbEntity
  8
0
  6
Continuous
 62
     7
370
    15
100
AcDbCircle
 10
2007.334482747368
 20
855.3380299055932
 30
0.0
 40
2.599999969828786
100
AcDbArc
 50
295.2087635481037
 51
64.79123645189628
  0
ARC
  5
BA0
330
B8B
100
AcDbEntity
  8
0
  6
Continuous
 62
     7
370
    15
100
AcDbCircle
 10
2008.22890986753
 20
857.2380299055932
 30
0.0
 40
0.5000000000000028
100
AcDbArc
 50
64.79123645190806
 51
90.0
  0
LINE
  5
BA1
330
B8B
100
AcDbEntity
  8
0
  6
Continuous
 62
     7
370
    15
100
AcDbLine
 10
2006.440055733533
 20
857.7380298818445
 30
0.0
 11
2008.228910332532
 21
857.7380298818445
 31
0.0
  0
ARC
  5
BA2
330
B8B
100
AcDbEntity
  8
0
  6
Continuous
 62
     7
370
    15
100
AcDbCircle
 10
2006.440055627207
 20
857.2380299055932
 30
0.0
 40
0.5
100
AcDbArc
 50
90.0
 51
115.2087635481037
  0
LINE
  5
BA3
330
B8B
100
AcDbEntity
  8
0
  6
Continuous
 62
     7
370
    15
100
AcDbLine
 10
2001.95655523798
 20
854.9380299234746
 30
0.0
 11
2001.95655523798
 21
855.7380299614726
 31
0.0
  0
ARC
  5
BA4
330
B8B
100
AcDbEntity
  8
0
  6
Continuous
 62
     7
370
    15
100
AcDbCircle
 10
2003.056555314139
 20
854.9380299055933
 30
0.0
 40
1.09999999999998
100
AcDbArc
 50
180.0
 51
0.0
  0
LINE
  5
BA5
330
B8B
100
AcDbEntity
  8
0
  6
Continuous
 62
     7
370
    15
100
AcDbLine
 10
2004.156555226059
 20
855.7380299614726
 30
0.0
 11
2004.156555226059
 21
854.9380299234746
 31
0.0
  0
ARC
  5
BA6
330
B8B
100
AcDbEntity
  8
0
  6
Continuous
 62
     7
370
    15
100
AcDbCircle
 10
2003.056555314139
 20
855.7380299055934
 30
0.0
 40
1.09999999999998
100
AcDbArc
 50
0.0
 51
180.0
  0
LINE
  5
BA7
330
B8B
100
AcDbEntity
  8
0
  6
Continuous
 62
     7
370
    15
100
AcDbLine
 10
1995.530153801651
 20
857.0380298485963
 30
0.0
 11
1995.530153801651
 21
853.6380298035203
 31
0.0
  0
LINE
  5
BA8
330
B8B
100
AcDbEntity
  8
0
  6
Continuous
 62
     7
370
    15
100
AcDbLine
 10
1992.228954276056
 20
857.0380298485963
 30
0.0
 11
1995.530153801651
 21
857.0380298485963
 31
0.0
  0
LINE
  5
BA9
330
B8B
100
AcDbEntity
  8
0
  6
Continuous
 62
     7
370
    15
100
AcDbLine
 10
1992.228954276056
 20
853.6380298035203
 30
0.0
 11
1992.228954276056
 21
857.0380298485963
 31
0.0
  0
LINE
  5
BAA
330
B8B
100
AcDbEntity
  8
0
  6
Continuous
 62
     7
370
    15
100
AcDbLine
 10
1995.530153801651
 20
853.6380298035203
 30
0.0
 11
1992.228954276056
 21
853.6380298035203
 31
0.0
  0
ARC
  5
BAB
330
B8B
100
AcDbEntity
  8
0
  6
Continuous
 62
     7
370
    15
100
AcDbCircle
 10
1999.673052371156
 20
853.4380299055934
 30
0.0
 40
0.5
100
AcDbArc
 50
270.0
 51
295.2086504630806
  0
ARC
  5
BAC
330
B8B
100
AcDbEntity
  8
0
  6
Continuous
 62
     7
370
    15
100
AcDbCircle
 10
1998.778629832065
 20
855.3380299055932
 30
0.0
 40
2.599998018673691
100
AcDbArc
 50
295.2086504630806
 51
64.79134953691938
  0
ARC
  5
BAD
330
B8B
100
AcDbEntity
  8
0
  6
Continuous
 62
     7
370
    15
100
AcDbCircle
 10
1999.673052371156
 20
857.2380299055932
 30
0.0
 40
0.5
100
AcDbArc
 50
64.79134953693116
 51
90.0
  0
LINE
  5
BAE
330
B8B
100
AcDbEntity
  8
0
  6
Continuous
 62
     7
370
    15
100
AcDbLine
 10
1997.884207582088
 20
857.7380298818445
 30
0.0
 11
1999.673051936538
 21
857.7380298818445
 31
0.0
  0
ARC
  5
BAF
330
B8B
100
AcDbEntity
  8
0
  6
Continuous
 62
     7
370
    15
100
AcDbCircle
 10
1997.884207292974
 20
857.2380299055932
 30
0.0
 40
0.5
100
AcDbArc
 50
90.0
 51
115.2086504630688
  0
ARC
  5
BB0
330
B8B
100
AcDbEntity
  8
0
  6
Continuous
 62
     7
370
    15
100
AcDbCircle
 10
1998.778629832065
 20
855.3380299055932
 30
0.0
 40
2.599998018673697
100
AcDbArc
 50
115.2086504630806
 51
244.7913495369194
  0
ARC
  5
BB1
330
B8B
100
AcDbEntity
  8
0
  6
Continuous
 62
     7
370
    15
100
AcDbCircle
 10
1997.884207292974
 20
853.4380299055934
 30
0.0
 40
0.5
100
AcDbArc
 50
244.7913495369312
 51
270.0
  0
LINE
  5
BB2
330
B8B
100
AcDbEntity
  8
0
  6
Continuous
 62
     7
370
    15
100
AcDbLine
 10
1999.673051936538
 20
852.9380300613103
 30
0.0
 11
1997.884207582088
 21
852.9380300613103
 31
0.0
  0
LINE
  5
BB3
330
B8B
100
AcDbEntity
  8
0
  6
Continuous
 62
     7
370
    15
100
AcDbLine
 10
2017.417327677818
 20
852.3880300642906
 30
0.0
 11
2017.417327677818
 21
858.2880299043301
 31
0.0
  0
LINE
  5
BB4
330
B8B
100
AcDbEntity
  8
0
  6
Continuous
 62
     7
370
    15
100
AcDbLine
 10
2015.569563200684
 20
852.3880300642906
 30
0.0
 11
2017.417327677818
 21
852.3880300642906
 31
0.0
  0
LINE
  5
BB5
330
B8B
100
AcDbEntity
  8
0
  6
Continuous
 62
     7
370
    15
100
AcDbLine
 10
2017.417327677818
 20
858.2880299043301
 30
0.0
 11
2015.569563200684
 21
858.2880299043301
 31
0.0
  0
LINE
  5
BB6
330
B8B
100
AcDbEntity
  8
0
  6
Continuous
 62
     7
370
    15
100
AcDbLine
 10
1991.57909181899
 20
858.2880299043301
 30
0.0
 11
1991.329091778012
 21
858.2880299043301
 31
0.0
  0
LINE
  5
BB7
330
B8B
100
AcDbEntity
  8
0
  6
Continuous
 62
     7
370
    15
100
AcDbLine
 10
1991.57909181899
 20
852.3880300642906
 30
0.0
 11
1991.329091778012
 21
852.3880300642906
 31
0.0
  0
LINE
  5
BB8
330
B8B
100
AcDbEntity
  8
0
  6
Continuous
 62
     7
370
    15
100
AcDbLine
 10
1980.584472129108
 20
858.2880299043301
 30
0.0
 11
1980.584472129108
 21
852.3880300642906
 31
0.0
  0
LINE
  5
BB9
330
B8B
100
AcDbEntity
  8
0
  6
Continuous
 62
     7
370
    15
100
AcDbLine
 10
1980.834472170086
 20
858.2880299043301
 30
0.0
 11
1980.584472129108
 21
858.2880299043301
 31
0.0
  0
LINE
  5
BBA
330
B8B
100
AcDbEntity
  8
0
  6
Continuous
 62
     7
370
    15
100
AcDbLine
 10
1980.584472129108
 20
852.3880300642906
 30
0.0
 11
1980.834472170086
 21
852.3880300642906
 31
0.0
  0
LINE
  5
BBB
330
B8B
100
AcDbEntity
  8
0
  6
Continuous
 62
     7
370
    15
100
AcDbLine
 10
1980.572175411494
 20
852.3880300642906
 30
0.0
 11
1980.572175411494
 21
858.2880299043301
 31
0.0
  0
LINE
  5
BBC
330
B8B
100
AcDbEntity
  8
0
  6
Continuous
 62
     7
370
    15
100
AcDbLine
 10
1980.572175411494
 20
858.2880299043301
 30
0.0
 11
1980.584472129108
 21
858.2880299043301
 31
0.0
  0
LINE
  5
BBD
330
B8B
100
AcDbEntity
  8
0
  6
Continuous
 62
     7
370
    15
100
AcDbLine
 10
1980.584472129108
 20
852.3880300642906
 30
0.0
 11
1980.572175411494
 21
852.3880300642906
 31
0.0
  0
LINE
  5
BBE
330
B8B
100
AcDbEntity
  8
0
  6
Continuous
 62
     7
370
    15
100
AcDbLine
 10
1978.724411865683
 20
858.2880299043301
 30
0.0
 11
1978.724411865683
 21
852.3880300642906
 31
0.0
  0
LINE
  5
BBF
330
B8B
100
AcDbEntity
  8
0
  6
Continuous
 62
     7
370
    15
100
AcDbLine
 10
1980.572175411494
 20
858.2880299043301
 30
0.0
 11
1978.724411865683
 21
858.2880299043301
 31
0.0
  0
LINE
  5
BC0
330
B8B
100
AcDbEntity
  8
0
  6
Continuous
 62
     7
370
    15
100
AcDbLine
 10
1978.724411865683
 20
852.3880300642906
 30
0.0
 11
1980.572175411494
 21
852.3880300642906
 31
0.0
  0
LINE
  5
BC1
330
B8B
100
AcDbEntity
  8
0
  6
Continuous
 62
     7
370
    15
100
AcDbLine
 10
1963.401542222114
 20
857.0380298485963
 30
0.0
 11
1966.702739885063
 21
857.0380298485963
 31
0.0
  0
LINE
  5
BC2
330
B8B
100
AcDbEntity
  8
0
  6
Continuous
 62
     7
370
    15
100
AcDbLine
 10
1963.401542222114
 20
853.6380298035203
 30
0.0
 11
1963.401542222114
 21
857.0380298485963
 31
0.0
  0
LINE
  5
BC3
330
B8B
100
AcDbEntity
  8
0
  6
Continuous
 62
     7
370
    15
100
AcDbLine
 10
1966.702739885063
 20
853.6380298035203
 30
0.0
 11
1963.401542222114
 21
853.6380298035203
 31
0.0
  0
LINE
  5
BC4
330
B8B
100
AcDbEntity
  8
0
  6
Continuous
 62
     7
370
    15
100
AcDbLine
 10
1966.702739885063
 20
857.0380298485963
 30
0.0
 11
1966.702739885063
 21
853.6380298035203
 31
0.0
  0
LINE
  5
BC5
330
B8B
100
AcDbEntity
  8
0
  6
Continuous
 62
     7
370
    15
100
AcDbLine
 10
1955.362313603969
 20
852.3880300642906
 30
0.0
 11
1955.362313603969
 21
858.2880299043301
 31
0.0
  0
LINE
  5
BC6
330
B8B
100
AcDbEntity
  8
0
  6
Continuous
 62
     7
370
    15
100
AcDbLine
 10
1969.302269807072
 20
852.3880300642906
 30
0.0
 11
1969.302269807072
 21
858.2880299043301
 31
0.0
  0
ARC
  5
BC7
330
B8B
100
AcDbEntity
  8
0
  6
Continuous
 62
     7
370
    15
100
AcDbCircle
 10
1960.003065212899
 20
855.3380299055932
 30
0.0
 40
2.599999464194731
100
AcDbArc
 50
115.2087342426321
 51
244.7912657573707
  0
ARC
  5
BC8
330
B8B
100
AcDbEntity
  8
0
  6
Continuous
 62
     7
370
    15
100
AcDbCircle
 10
1959.108639279902
 20
853.4380299055934
 30
0.0
 40
0.5
100
AcDbArc
 50
244.7912657573707
 51
270.0
  0
LINE
  5
BC9
330
B8B
100
AcDbEntity
  8
0
  6
Continuous
 62
     7
370
    15
100
AcDbLine
 10
1960.897491490455
 20
852.9380300613103
 30
0.0
 11
1959.108638754101
 21
852.9380300613103
 31
0.0
  0
ARC
  5
BCA
330
B8B
100
AcDbEntity
  8
0
  6
Continuous
 62
     7
370
    15
100
AcDbCircle
 10
1960.897491145896
 20
853.4380299055934
 30
0.0
 40
0.5
100
AcDbArc
 50
270.0
 51
295.2087342426322
  0
ARC
  5
BCB
330
B8B
100
AcDbEntity
  8
0
  6
Continuous
 62
     7
370
    15
100
AcDbCircle
 10
1960.003065212899
 20
855.3380299055932
 30
0.0
 40
2.59999946419472
100
AcDbArc
 50
295.2087342426294
 51
64.79126575737064
  0
ARC
  5
BCC
330
B8B
100
AcDbEntity
  8
0
  6
Continuous
 62
     7
370
    15
100
AcDbCircle
 10
1960.897491145896
 20
857.2380299055932
 30
0.0
 40
0.5
100
AcDbArc
 50
64.79126575737064
 51
90.0
  0
LINE
  5
BCD
330
B8B
100
AcDbEntity
  8
0
  6
Continuous
 62
     7
370
    15
100
AcDbLine
 10
1959.108638754101
 20
857.7380298818445
 30
0.0
 11
1960.897491490455
 21
857.7380298818445
 31
0.0
  0
ARC
  5
BCE
330
B8B
100
AcDbEntity
  8
0
  6
Continuous
 62
     7
370
    15
100
AcDbCircle
 10
1959.108639279902
 20
857.2380299055932
 30
0.0
 40
0.5
100
AcDbArc
 50
90.0
 51
115.2087342426293
  0
LINE
  5
BCF
330
B8B
100
AcDbEntity
  8
0
  6
Continuous
 62
     7
370
    15
100
AcDbLine
 10
1969.302269807072
 20
858.2880299043301
 30
0.0
 11
1955.362313603969
 21
858.2880299043301
 31
0.0
  0
LINE
  5
BD0
330
B8B
100
AcDbEntity
  8
0
  6
Continuous
 62
     7
370
    15
100
AcDbLine
 10
1955.362313603969
 20
852.3880300642906
 30
0.0
 11
1969.302269807072
 21
852.3880300642906
 31
0.0
  0
LINE
  5
BD1
330
B8B
100
AcDbEntity
  8
0
  6
Continuous
 62
     7
370
    15
100
AcDbLine
 10
1953.51455098948
 20
858.2880299043301
 30
0.0
 11
1953.51455098948
 21
852.3880300642906
 31
0.0
  0
LINE
  5
BD2
330
B8B
100
AcDbEntity
  8
0
  6
Continuous
 62
     7
370
    15
100
AcDbLine
 10
1955.362313603969
 20
858.2880299043301
 30
0.0
 11
1953.51455098948
 21
858.2880299043301
 31
0.0
  0
LINE
  5
BD3
330
B8B
100
AcDbEntity
  8
0
  6
Continuous
 62
     7
370
    15
100
AcDbLine
 10
1953.51455098948
 20
852.3880300642906
 30
0.0
 11
1955.362313603969
 21
852.3880300642906
 31
0.0
  0
LINE
  5
BD4
330
B8B
100
AcDbEntity
  8
0
  6
Continuous
 62
     7
370
    15
100
AcDbLine
 10
1969.764209529371
 20
858.2880299043301
 30
0.0
 11
1969.764209529371
 21
852.3880300642906
 31
0.0
  0
LINE
  5
BD5
330
B8B
100
AcDbEntity
  8
0
  6
Continuous
 62
     7
370
    15
100
AcDbLine
 10
1969.764209529371
 20
858.2880299043301
 30
0.0
 11
1969.302269807072
 21
858.2880299043301
 31
0.0
  0
LINE
  5
BD6
330
B8B
100
AcDbEntity
  8
0
  6
Continuous
 62
     7
370
    15
100
AcDbLine
 10
1969.764209529371
 20
852.3880300642906
 30
0.0
 11
1969.302269807072
 21
852.3880300642906
 31
0.0
  0
LINE
  5
BD7
330
B8B
100
AcDbEntity
  8
0
  6
Continuous
 62
     7
370
    15
100
AcDbLine
 10
1971.086085950942
 20
853.1380297215639
 30
0.0
 11
1971.086085950942
 21
857.5380299305527
 31
0.0
  0
LINE
  5
BD8
330
B8B
100
AcDbEntity
  8
0
  6
Continuous
 62
     7
370
    15
100
AcDbLine
 10
1971.086084088297
 20
852.3880300642906
 30
0.0
 11
1971.086084088297
 21
853.1380297215639
 31
0.0
  0
LINE
  5
BD9
330
B8B
100
AcDbEntity
  8
0
  6
Continuous
 62
     7
370
    15
100
AcDbLine
 10
1971.086085950942
 20
857.5380299305527
 30
0.0
 11
1971.086085950942
 21
858.2880299043301
 31
0.0
  0
LINE
  5
BDA
330
B8B
100
AcDbEntity
  8
0
  6
Continuous
 62
     7
370
    15
100
AcDbLine
 10
1971.086084088297
 20
858.2880299043301
 30
0.0
 11
1969.764209529371
 21
858.2880299043301
 31
0.0
  0
LINE
  5
BDB
330
B8B
100
AcDbEntity
  8
0
  6
Continuous
 62
     7
370
    15
100
AcDbLine
 10
1969.764209529371
 20
852.3880300642906
 30
0.0
 11
1971.086084088297
 21
852.3880300642906
 31
0.0
  0
LINE
  5
BDC
330
B8B
100
AcDbEntity
  8
0
  6
Continuous
 62
     7
370
    15
100
AcDbLine
 10
1992.323195273043
 20
857.0380298485963
 30
0.0
 11
1992.323195273043
 21
855.7380299614726
 31
0.0
  0
LINE
  5
BDD
330
B8B
100
AcDbEntity
  8
0
  6
Continuous
 62
     7
370
    15
100
AcDbLine
 10
1992.323195273043
 20
855.7380299614726
 30
0.0
 11
1992.286126771928
 21
855.7380299614726
 31
0.0
  0
LINE
  5
BDE
330
B8B
100
AcDbEntity
  8
0
  6
Continuous
 62
     7
370
    15
100
AcDbLine
 10
1992.286126771928
 20
854.9380299234746
 30
0.0
 11
1992.286126771928
 21
855.7380299614726
 31
0.0
  0
LINE
  5
BDF
330
B8B
100
AcDbEntity
  8
0
  6
Continuous
 62
     7
370
    15
100
AcDbLine
 10
1992.286126771928
 20
854.9380299234746
 30
0.0
 11
1992.323195273043
 21
854.9380299234746
 31
0.0
  0
LINE
  5
BE0
330
B8B
100
AcDbEntity
  8
0
  6
Continuous
 62
     7
370
    15
100
AcDbLine
 10
1992.323195273043
 20
854.9380299234746
 30
0.0
 11
1992.323195273043
 21
853.6380298035203
 31
0.0
  0
ARC
  5
BE1
330
B8B
100
AcDbEntity
  8
0
  6
Continuous
 62
     7
370
    15
100
AcDbCircle
 10
1993.839605623668
 20
855.3368122304803
 30
0.0
 40
0.9990836483480382
100
AcDbArc
 50
203.5249308302486
 51
246.0676681460186
  0
LINE
  5
BE2
330
B8B
100
AcDbEntity
  8
0
  6
Continuous
 62
     7
370
    15
100
AcDbLine
 10
1993.434319915236
 20
854.4236246095954
 30
0.0
 11
1993.434320380898
 21
853.6380298035203
 31
0.0
  0
LINE
  5
BE3
330
B8B
100
AcDbEntity
  8
0
  6
Continuous
 62
     7
370
    15
100
AcDbLine
 10
1992.323195273043
 20
854.9380299234746
 30
0.0
 11
1992.923559332253
 21
854.9380299234746
 31
0.0
  0
LINE
  5
BE4
330
B8B
100
AcDbEntity
  8
0
  6
Continuous
 62
     7
370
    15
100
AcDbLine
 10
1993.434320380898
 20
857.0380298485963
 30
0.0
 11
1993.434320380898
 21
856.2524352753518
 31
0.0
  0
ARC
  5
BE5
330
B8B
100
AcDbEntity
  8
0
  6
Continuous
 62
     7
370
    15
100
AcDbCircle
 10
1993.839603665567
 20
855.3392492318147
 30
0.0
 40
0.9990812233966185
100
AcDbArc
 50
113.9322415004936
 51
156.4751072879319
  0
LINE
  5
BE6
330
B8B
100
AcDbEntity
  8
0
  6
Continuous
 62
     7
370
    15
100
AcDbLine
 10
1992.323195273043
 20
855.7380299614726
 30
0.0
 11
1992.923559332253
 21
855.7380299614726
 31
0.0
  0
ARC
  5
BE7
330
B8B
100
AcDbEntity
  8
0
  6
Continuous
 62
     7
370
    15
100
AcDbCircle
 10
2012.404140283633
 20
855.3392560071344
 30
0.0
 40
0.9990732788762347
100
AcDbArc
 50
23.5246672734498
 51
66.06782723203528
  0
LINE
  5
BE8
330
B8B
100
AcDbEntity
  8
0
  6
Continuous
 62
     7
370
    15
100
AcDbLine
 10
2012.809419250102
 20
857.0380298485963
 30
0.0
 11
2012.809419250102
 21
856.2524352753518
 31
0.0
  0
LINE
  5
BE9
330
B8B
100
AcDbEntity
  8
0
  6
Continuous
 62
     7
370
    15
100
AcDbLine
 10
2013.920544823618
 20
855.7380299614726
 30
0.0
 11
2013.920544823618
 21
857.0380298485963
 31
0.0
  0
LINE
  5
BEA
330
B8B
100
AcDbEntity
  8
0
  6
Continuous
 62
     7
370
    15
100
AcDbLine
 10
2013.920544823618
 20
855.7380299614726
 30
0.0
 11
2013.320178901763
 21
855.7380299614726
 31
0.0
  0
LINE
  5
BEB
330
B8B
100
AcDbEntity
  8
0
  6
Continuous
 62
     7
370
    15
100
AcDbLine
 10
2013.957613324733
 20
854.9380299234746
 30
0.0
 11
2013.957613324733
 21
855.7380299614726
 31
0.0
  0
LINE
  5
BEC
330
B8B
100
AcDbEntity
  8
0
  6
Continuous
 62
     7
370
    15
100
AcDbLine
 10
2013.957613324733
 20
855.7380299614726
 30
0.0
 11
2013.920544823618
 21
855.7380299614726
 31
0.0
  0
LINE
  5
BED
330
B8B
100
AcDbEntity
  8
0
  6
Continuous
 62
     7
370
    15
100
AcDbLine
 10
2013.920544823618
 20
853.6380298035203
 30
0.0
 11
2013.920544823618
 21
854.9380299234746
 31
0.0
  0
LINE
  5
BEE
330
B8B
100
AcDbEntity
  8
0
  6
Continuous
 62
     7
370
    15
100
AcDbLine
 10
2013.920544823618
 20
854.9380299234746
 30
0.0
 11
2013.957613324733
 21
854.9380299234746
 31
0.0
  0
LINE
  5
BEF
330
B8B
100
AcDbEntity
  8
0
  6
Continuous
 62
     7
370
    15
100
AcDbLine
 10
1966.690800329657
 20
857.0380298485963
 30
0.0
 11
1966.690800329657
 21
853.6380298035203
 31
0.0
  0
LINE
  5
BF0
330
B8B
100
AcDbEntity
  8
0
  6
Continuous
 62
     7
370
    15
100
AcDbLine
 10
1966.590543454499
 20
853.6380298035203
 30
0.0
 11
1966.590543454499
 21
854.9380299234746
 31
0.0
  0
LINE
  5
BF1
330
B8B
100
AcDbEntity
  8
0
  6
Continuous
 62
     7
370
    15
100
AcDbLine
 10
1966.590543454499
 20
854.9380299234746
 30
0.0
 11
1966.627613818259
 21
854.9380299234746
 31
0.0
  0
LINE
  5
BF2
330
B8B
100
AcDbEntity
  8
0
  6
Continuous
 62
     7
370
    15
100
AcDbLine
 10
1966.627613818259
 20
854.9380299234746
 30
0.0
 11
1966.627613818259
 21
855.7380299614726
 31
0.0
  0
LINE
  5
BF3
330
B8B
100
AcDbEntity
  8
0
  6
Continuous
 62
     7
370
    15
100
AcDbLine
 10
1966.627613818259
 20
855.7380299614726
 30
0.0
 11
1966.590543454499
 21
855.7380299614726
 31
0.0
  0
LINE
  5
BF4
330
B8B
100
AcDbEntity
  8
0
  6
Continuous
 62
     7
370
    15
100
AcDbLine
 10
1966.590543454499
 20
855.7380299614726
 30
0.0
 11
1966.590543454499
 21
857.0380298485963
 31
0.0
  0
LINE
  5
BF5
330
B8B
100
AcDbEntity
  8
0
  6
Continuous
 62
     7
370
    15
100
AcDbLine
 10
1965.479419743629
 20
853.6380298035203
 30
0.0
 11
1965.479419743629
 21
854.423624842426
 31
0.0
  0
ARC
  5
BF6
330
B8B
100
AcDbEntity
  8
0
  6
Continuous
 62
     7
370
    15
100
AcDbCircle
 10
1965.074129673008
 20
855.3368153165971
 30
0.0
 40
0.9990880258820418
100
AcDbArc
 50
293.9324941315155
 51
336.4749854303738
  0
LINE
  5
BF7
330
B8B
100
AcDbEntity
  8
0
  6
Continuous
 62
     7
370
    15
100
AcDbLine
 10
1966.590543454499
 20
854.9380299234746
 30
0.0
 11
1965.99017939529
 21
854.9380299234746
 31
0.0
  0
LINE
  5
BF8
330
B8B
100
AcDbEntity
  8
0
  6
Continuous
 62
     7
370
    15
100
AcDbLine
 10
2012.809419250102
 20
854.423624842426
 30
0.0
 11
2012.809419250102
 21
853.6380298035203
 31
0.0
  0
ARC
  5
BF9
330
B8B
100
AcDbEntity
  8
0
  6
Continuous
 62
     7
370
    15
100
AcDbCircle
 10
2012.404141240713
 20
855.3368033408391
 30
0.0
 40
0.9990721870105048
100
AcDbArc
 50
293.9321405079041
 51
336.4753390539892
  0
LINE
  5
BFA
330
B8B
100
AcDbEntity
  8
0
  6
Continuous
 62
     7
370
    15
100
AcDbLine
 10
2013.320178901763
 20
854.9380299234746
 30
0.0
 11
2013.920544823618
 21
854.9380299234746
 31
0.0
  0
ARC
  5
BFB
330
B8B
100
AcDbEntity
  8
0
  6
Continuous
 62
     7
370
    15
100
AcDbCircle
 10
1965.074128715916
 20
855.3392440313713
 30
0.0
 40
0.9990891177603884
100
AcDbArc
 50
23.52502089660192
 51
66.06747360887901
  0
LINE
  5
BFC
330
B8B
100
AcDbEntity
  8
0
  6
Continuous
 62
     7
370
    15
100
AcDbLine
 10
1965.479419743629
 20
856.2524352753518
 30
0.0
 11
1965.479419743629
 21
857.0380298485963
 31
0.0
  0
LINE
  5
BFD
330
B8B
100
AcDbEntity
  8
0
  6
Continuous
 62
     7
370
    15
100
AcDbLine
 10
1966.590543454499
 20
855.7380299614726
 30
0.0
 11
1965.99017939529
 21
855.7380299614726
 31
0.0
  0
LINE
  5
BFE
330
B8B
100
AcDbEntity
  8
0
  6
Continuous
 62
     7
370
    15
100
AcDbLine
 10
1994.20533998868
 20
857.0380298485963
 30
0.0
 11
1994.20533998868
 21
856.2524352753518
 31
0.0
  0
LINE
  5
BFF
330
B8B
100
AcDbEntity
  8
0
  6
Continuous
 62
     7
370
    15
100
AcDbLine
 10
1994.242409886779
 20
856.2524352753518
 30
0.0
 11
1994.24241035244
 21
857.0380298485963
 31
0.0
  0
LINE
  5
C00
330
B8B
100
AcDbEntity
  8
0
  6
Continuous
 62
     7
370
    15
100
AcDbLine
 10
1994.20533998868
 20
856.2524352753518
 30
0.0
 11
1994.242409886779
 21
856.2524352753518
 31
0.0
  0
LINE
  5
C01
330
B8B
100
AcDbEntity
  8
0
  6
Continuous
 62
     7
370
    15
100
AcDbLine
 10
1995.353534063311
 20
853.6380298035203
 30
0.0
 11
1995.353534063311
 21
857.0380298485963
 31
0.0
  0
LINE
  5
C02
330
B8B
100
AcDbEntity
  8
0
  6
Continuous
 62
     7
370
    15
100
AcDbLine
 10
1994.24241035244
 20
853.6380298035203
 30
0.0
 11
1994.24241035244
 21
854.423624842426
 31
0.0
  0
ARC
  5
C03
330
B8B
100
AcDbEntity
  8
0
  6
Continuous
 62
     7
370
    15
100
AcDbCircle
 10
1993.836028939338
 20
855.3380299554142
 30
0.0
 40
1.000641076297203
100
AcDbArc
 50
293.9613975305814
 51
66.03863164732364
  0
LINE
  5
C04
330
B8B
100
AcDbEntity
  8
0
  6
Continuous
 62
     7
370
    15
100
AcDbLine
 10
1994.205340454341
 20
854.4236246095954
 30
0.0
 11
1994.20533998868
 21
853.6380298035203
 31
0.0
  0
LINE
  5
C05
330
B8B
100
AcDbEntity
  8
0
  6
Continuous
 62
     7
370
    15
100
AcDbLine
 10
1994.24241035244
 20
854.423624842426
 30
0.0
 11
1994.205340454341
 21
854.4236246095954
 31
0.0
  0
ARC
  5
C06
330
B8B
100
AcDbEntity
  8
0
  6
Continuous
 62
     7
370
    15
100
AcDbCircle
 10
1993.798959512519
 20
855.338029838999
 30
0.0
 40
1.000640991283557
100
AcDbArc
 50
293.9613701640217
 51
66.03865901387802
  0
LINE
  5
C07
330
B8B
100
AcDbEntity
  8
0
  6
Continuous
 62
     7
370
    15
100
AcDbLine
 10
2010.890205567689
 20
857.0380298485963
 30
0.0
 11
2010.890205567689
 21
853.6380298035203
 31
0.0
  0
LINE
  5
C08
330
B8B
100
AcDbEntity
  8
0
  6
Continuous
 62
     7
370
    15
100
AcDbLine
 10
2012.00132927856
 20
857.0380298485963
 30
0.0
 11
2012.00132927856
 21
856.2524352753518
 31
0.0
  0
ARC
  5
C09
330
B8B
100
AcDbEntity
  8
0
  6
Continuous
 62
     7
370
    15
100
AcDbCircle
 10
2012.407710059725
 20
855.3380299424736
 30
0.0
 40
1.000641020594389
100
AcDbArc
 50
113.9613593514709
 51
246.0386406485291
  0
LINE
  5
C0A
330
B8B
100
AcDbEntity
  8
0
  6
Continuous
 62
     7
370
    15
100
AcDbLine
 10
2012.00132927856
 20
853.6380298035203
 30
0.0
 11
2012.00132927856
 21
854.4236246095954
 31
0.0
  0
LINE
  5
C0B
330
B8B
100
AcDbEntity
  8
0
  6
Continuous
 62
     7
370
    15
100
AcDbLine
 10
2012.03839964232
 20
853.6380298035203
 30
0.0
 11
2012.03839964232
 21
854.4236243767647
 31
0.0
  0
LINE
  5
C0C
330
B8B
100
AcDbEntity
  8
0
  6
Continuous
 62
     7
370
    15
100
AcDbLine
 10
2012.00132927856
 20
854.4236246095954
 30
0.0
 11
2012.03839964232
 21
854.4236243767647
 31
0.0
  0
LINE
  5
C0D
330
B8B
100
AcDbEntity
  8
0
  6
Continuous
 62
     7
370
    15
100
AcDbLine
 10
1963.560206061216
 20
857.0380298485963
 30
0.0
 11
1963.560206061216
 21
853.6380298035203
 31
0.0
  0
LINE
  5
C0E
330
B8B
100
AcDbEntity
  8
0
  6
Continuous
 62
     7
370
    15
100
AcDbLine
 10
1964.671329772086
 20
857.0380298485963
 30
0.0
 11
1964.671329772086
 21
856.2524352753518
 31
0.0
  0
ARC
  5
C0F
330
B8B
100
AcDbEntity
  8
0
  6
Continuous
 62
     7
370
    15
100
AcDbCircle
 10
1965.077710553251
 20
855.3380299424736
 30
0.0
 40
1.000641020594366
100
AcDbArc
 50
113.9613593514709
 51
246.0386406485317
  0
LINE
  5
C10
330
B8B
100
AcDbEntity
  8
0
  6
Continuous
 62
     7
370
    15
100
AcDbLine
 10
1964.671329772086
 20
853.6380298035203
 30
0.0
 11
1964.671329772086
 21
854.4236246095954
 31
0.0
  0
LINE
  5
C11
330
B8B
100
AcDbEntity
  8
0
  6
Continuous
 62
     7
370
    15
100
AcDbLine
 10
1964.708400135846
 20
853.6380298035203
 30
0.0
 11
1964.708400135846
 21
854.4236243767647
 31
0.0
  0
LINE
  5
C12
330
B8B
100
AcDbEntity
  8
0
  6
Continuous
 62
     7
370
    15
100
AcDbLine
 10
1964.671329772086
 20
854.4236246095954
 30
0.0
 11
1964.708400135846
 21
854.4236243767647
 31
0.0
  0
LINE
  5
C13
330
B8B
100
AcDbEntity
  8
0
  6
Continuous
 62
     7
370
    15
100
AcDbLine
 10
1964.708400135846
 20
856.2524355081825
 30
0.0
 11
1964.708400135846
 21
857.0380298485963
 31
0.0
  0
LINE
  5
C14
330
B8B
100
AcDbEntity
  8
0
  6
Continuous
 62
     7
370
    15
100
AcDbLine
 10
1964.708400135846
 20
856.2524355081825
 30
0.0
 11
1964.671329772086
 21
856.2524352753518
 31
0.0
  0
LINE
  5
C15
330
B8B
100
AcDbEntity
  8
0
  6
Continuous
 62
     7
370
    15
100
AcDbLine
 10
2012.03839964232
 20
857.0380298485963
 30
0.0
 11
2012.03839964232
 21
856.2524355081825
 31
0.0
  0
LINE
  5
C16
330
B8B
100
AcDbEntity
  8
0
  6
Continuous
 62
     7
370
    15
100
AcDbLine
 10
2012.03839964232
 20
856.2524355081825
 30
0.0
 11
2012.00132927856
 21
856.2524352753518
 31
0.0
  0
ARC
  5
C17
330
B8B
100
AcDbEntity
  8
0
  6
Continuous
 62
     7
370
    15
100
AcDbCircle
 10
1965.114778255257
 20
855.3380299424736
 30
0.0
 40
1.000640152369976
100
AcDbArc
 50
113.9612146622257
 51
246.0387853377743
  0
ARC
  5
C18
330
B8B
100
AcDbEntity
  8
0
  6
Continuous
 62
     7
370
    15
100
AcDbCircle
 10
2012.444780388495
 20
855.3380299424736
 30
0.0
 40
1.000641219149694
100
AcDbArc
 50
113.9613521064072
 51
246.0386478935927
  0
LINE
  5
C19
330
B8B
100
AcDbEntity
  8
0
  6
Continuous
 62
     7
370
    15
100
AcDbLine
 10
1981.324505237849
 20
852.3880300642906
 30
0.0
 11
1981.324505237849
 21
858.2880299043301
 31
0.0
  0
LINE
  5
C1A
330
B8B
100
AcDbEntity
  8
0
  6
Continuous
 62
     7
370
    15
100
AcDbLine
 10
1981.324505237849
 20
858.2880299043301
 30
0.0
 11
1980.834472170086
 21
858.2880299043301
 31
0.0
  0
LINE
  5
C1B
330
B8B
100
AcDbEntity
  8
0
  6
Continuous
 62
     7
370
    15
100
AcDbLine
 10
1981.324505237849
 20
852.3880300642906
 30
0.0
 11
1980.834472170086
 21
852.3880300642906
 31
0.0
  0
LINE
  5
C1C
330
B8B
100
AcDbEntity
  8
0
  6
Continuous
 62
     7
370
    15
100
AcDbLine
 10
1990.844620801495
 20
858.2880299043301
 30
0.0
 11
1990.844620801495
 21
852.3880300642906
 31
0.0
  0
LINE
  5
C1D
330
B8B
100
AcDbEntity
  8
0
  6
Continuous
 62
     7
370
    15
100
AcDbLine
 10
1991.329091778012
 20
858.2880299043301
 30
0.0
 11
1990.844620801495
 21
858.2880299043301
 31
0.0
  0
LINE
  5
C1E
330
B8B
100
AcDbEntity
  8
0
  6
Continuous
 62
     7
370
    15
100
AcDbLine
 10
1991.329091778012
 20
852.3880300642906
 30
0.0
 11
1990.844620801495
 21
852.3880300642906
 31
0.0
  0
LINE
  5
C1F
330
B8B
100
AcDbEntity
  8
0
  6
Continuous
 62
     7
370
    15
100
AcDbLine
 10
2017.713791867705
 20
852.3880300642906
 30
0.0
 11
2017.713791867705
 21
858.2880299043301
 31
0.0
  0
LINE
  5
C20
330
B8B
100
AcDbEntity
  8
0
  6
Continuous
 62
     7
370
    15
100
AcDbLine
 10
2017.713791867705
 20
858.2880299043301
 30
0.0
 11
2017.417327677818
 21
858.2880299043301
 31
0.0
  0
LINE
  5
C21
330
B8B
100
AcDbEntity
  8
0
  6
Continuous
 62
     7
370
    15
100
AcDbLine
 10
2017.713791867705
 20
852.3880300642906
 30
0.0
 11
2017.417327677818
 21
852.3880300642906
 31
0.0
  0
LINE
  5
C22
330
B8B
100
AcDbEntity
  8
0
  6
Continuous
 62
     7
370
    15
100
AcDbLine
 10
1977.786083882661
 20
853.1380297215639
 30
0.0
 11
1977.786083882661
 21
852.3880300642906
 31
0.0
  0
LINE
  5
C23
330
B8B
100
AcDbEntity
  8
0
  6
Continuous
 62
     7
370
    15
100
AcDbLine
 10
1977.786084813984
 20
853.1380297215639
 30
0.0
 11
1977.786084813984
 21
857.5380299305527
 31
0.0
  0
LINE
  5
C24
330
B8B
100
AcDbEntity
  8
0
  6
Continuous
 62
     7
370
    15
100
AcDbLine
 10
1977.786084813984
 20
858.2880299043301
 30
0.0
 11
1977.786084813984
 21
857.5380299305527
 31
0.0
  0
LINE
  5
C25
330
B8B
100
AcDbEntity
  8
0
  6
Continuous
 62
     7
370
    15
100
AcDbLine
 10
1978.724411865683
 20
858.2880299043301
 30
0.0
 11
1977.786084813984
 21
858.2880299043301
 31
0.0
  0
LINE
  5
C26
330
B8B
100
AcDbEntity
  8
0
  6
Continuous
 62
     7
370
    15
100
AcDbLine
 10
1978.724411865683
 20
852.3880300642906
 30
0.0
 11
1977.786084813984
 21
852.3880300642906
 31
0.0
  0
LINE
  5
C27
330
B8B
100
AcDbEntity
  8
0
  6
Continuous
 62
     7
370
    15
100
AcDbLine
 10
1953.218084936948
 20
852.3880300642906
 30
0.0
 11
1953.218084936948
 21
858.2880299043301
 31
0.0
  0
LINE
  5
C28
330
B8B
100
AcDbEntity
  8
0
  6
Continuous
 62
     7
370
    15
100
AcDbLine
 10
1953.51455098948
 20
858.2880299043301
 30
0.0
 11
1953.218084936948
 21
858.2880299043301
 31
0.0
  0
LINE
  5
C29
330
B8B
100
AcDbEntity
  8
0
  6
Continuous
 62
     7
370
    15
100
AcDbLine
 10
1953.51455098948
 20
852.3880300642906
 30
0.0
 11
1953.218084936948
 21
852.3880300642906
 31
0.0
  0
LINE
  5
C2A
330
B8B
100
AcDbEntity
  8
0
  6
Continuous
 62
     7
370
    15
100
AcDbLine
 10
1988.903485531905
 20
852.3880300642906
 30
0.0
 11
1988.903485531905
 21
858.2880299043301
 31
0.0
  0
LINE
  5
C2B
330
B8B
100
AcDbEntity
  8
0
  6
Continuous
 62
     7
370
    15
100
AcDbLine
 10
1990.844620801495
 20
858.2880299043301
 30
0.0
 11
1988.903485531905
 21
858.2880299043301
 31
0.0
  0
LINE
  5
C2C
330
B8B
100
AcDbEntity
  8
0
  6
Continuous
 62
     7
370
    15
100
AcDbLine
 10
1990.844620801495
 20
852.3880300642906
 30
0.0
 11
1988.903485531905
 21
852.3880300642906
 31
0.0
  0
LINE
  5
C2D
330
B8B
100
AcDbEntity
  8
0
  6
Continuous
 62
     7
370
    15
100
AcDbLine
 10
1983.265647841604
 20
858.2880299043301
 30
0.0
 11
1983.265647841604
 21
852.3880300642906
 31
0.0
  0
LINE
  5
C2E
330
B8B
100
AcDbEntity
  8
0
  6
Continuous
 62
     7
370
    15
100
AcDbLine
 10
1983.265647841604
 20
858.2880299043301
 30
0.0
 11
1981.324505237849
 21
858.2880299043301
 31
0.0
  0
LINE
  5
C2F
330
B8B
100
AcDbEntity
  8
0
  6
Continuous
 62
     7
370
    15
100
AcDbLine
 10
1983.265647841604
 20
852.3880300642906
 30
0.0
 11
1981.324505237849
 21
852.3880300642906
 31
0.0
  0
LINE
  5
C30
330
B8B
100
AcDbEntity
  8
0
  6
Continuous
 62
     7
370
    15
100
AcDbLine
 10
1983.637870000662
 20
852.3880300642906
 30
0.0
 11
1983.637870000662
 21
858.2880299043301
 31
0.0
  0
LINE
  5
C31
330
B8B
100
AcDbEntity
  8
0
  6
Continuous
 62
     7
370
    15
100
AcDbLine
 10
1983.837678274126
 20
852.3880300642906
 30
0.0
 11
1983.837678274126
 21
858.2880299043301
 31
0.0
  0
LINE
  5
C32
330
B8B
100
AcDbEntity
  8
0
  6
Continuous
 62
     7
370
    15
100
AcDbLine
 10
1983.837678274126
 20
858.2880299043301
 30
0.0
 11
1983.637870000662
 21
858.2880299043301
 31
0.0
  0
LINE
  5
C33
330
B8B
100
AcDbEntity
  8
0
  6
Continuous
 62
     7
370
    15
100
AcDbLine
 10
1983.637870000662
 20
852.3880300642906
 30
0.0
 11
1983.837678274126
 21
852.3880300642906
 31
0.0
  0
LINE
  5
C34
330
B8B
100
AcDbEntity
  8
0
  6
Continuous
 62
     7
370
    15
100
AcDbLine
 10
1983.637870000662
 20
858.2880299043301
 30
0.0
 11
1983.265647841604
 21
858.2880299043301
 31
0.0
  0
LINE
  5
C35
330
B8B
100
AcDbEntity
  8
0
  6
Continuous
 62
     7
370
    15
100
AcDbLine
 10
1983.637870000662
 20
852.3880300642906
 30
0.0
 11
1983.265647841604
 21
852.3880300642906
 31
0.0
  0
LINE
  5
C36
330
B8B
100
AcDbEntity
  8
0
  6
Continuous
 62
     7
370
    15
100
AcDbLine
 10
1988.32589006865
 20
858.2880299043301
 30
0.0
 11
1988.32589006865
 21
852.3880300642906
 31
0.0
  0
LINE
  5
C37
330
B8B
100
AcDbEntity
  8
0
  6
Continuous
 62
     7
370
    15
100
AcDbLine
 10
1988.525697789141
 20
852.3880300642906
 30
0.0
 11
1988.525697789141
 21
858.2880299043301
 31
0.0
  0
LINE
  5
C38
330
B8B
100
AcDbEntity
  8
0
  6
Continuous
 62
     7
370
    15
100
AcDbLine
 10
1988.525697789141
 20
858.2880299043301
 30
0.0
 11
1988.32589006865
 21
858.2880299043301
 31
0.0
  0
LINE
  5
C39
330
B8B
100
AcDbEntity
  8
0
  6
Continuous
 62
     7
370
    15
100
AcDbLine
 10
1988.32589006865
 20
852.3880300642906
 30
0.0
 11
1988.525697789141
 21
852.3880300642906
 31
0.0
  0
LINE
  5
C3A
330
B8B
100
AcDbEntity
  8
0
  6
Continuous
 62
     7
370
    15
100
AcDbLine
 10
1988.525697789141
 20
858.2880299043301
 30
0.0
 11
1988.903485531905
 21
858.2880299043301
 31
0.0
  0
LINE
  5
C3B
330
B8B
100
AcDbEntity
  8
0
  6
Continuous
 62
     7
370
    15
100
AcDbLine
 10
1988.903485531905
 20
852.3880300642906
 30
0.0
 11
1988.525697789141
 21
852.3880300642906
 31
0.0
  0
LINE
  5
C3C
330
B8B
100
AcDbEntity
  8
0
  6
Continuous
 62
     7
370
    15
100
AcDbLine
 10
1983.864333191873
 20
852.3880300642906
 30
0.0
 11
1983.864333191873
 21
858.2880299043301
 31
0.0
  0
LINE
  5
C3D
330
B8B
100
AcDbEntity
  8
0
  6
Continuous
 62
     7
370
    15
100
AcDbLine
 10
1983.864333191873
 20
858.2880299043301
 30
0.0
 11
1983.837678274126
 21
858.2880299043301
 31
0.0
  0
LINE
  5
C3E
330
B8B
100
AcDbEntity
  8
0
  6
Continuous
 62
     7
370
    15
100
AcDbLine
 10
1983.837678274126
 20
852.3880300642906
 30
0.0
 11
1983.864333191873
 21
852.3880300642906
 31
0.0
  0
LINE
  5
C3F
330
B8B
100
AcDbEntity
  8
0
  6
Continuous
 62
     7
370
    15
100
AcDbLine
 10
1988.299241641057
 20
858.2880299043301
 30
0.0
 11
1988.299241641057
 21
852.3880300642906
 31
0.0
  0
LINE
  5
C40
330
B8B
100
AcDbEntity
  8
0
  6
Continuous
 62
     7
370
    15
100
AcDbLine
 10
1988.32589006865
 20
858.2880299043301
 30
0.0
 11
1988.299241641057
 21
858.2880299043301
 31
0.0
  0
LINE
  5
C41
330
B8B
100
AcDbEntity
  8
0
  6
Continuous
 62
     7
370
    15
100
AcDbLine
 10
1988.299241641057
 20
852.3880300642906
 30
0.0
 11
1988.32589006865
 21
852.3880300642906
 31
0.0
  0
LINE
  5
C42
330
B8B
100
AcDbEntity
  8
0
  6
Continuous
 62
     7
370
    15
100
AcDbLine
 10
2017.866029581042
 20
858.2880299043301
 30
0.0
 11
2017.866029581042
 21
852.3880300642906
 31
0.0
  0
LINE
  5
C43
330
B8B
100
AcDbEntity
  8
0
  6
Continuous
 62
     7
370
    15
100
AcDbLine
 10
2017.866029581042
 20
858.2880299043301
 30
0.0
 11
2017.713791867705
 21
858.2880299043301
 31
0.0
  0
LINE
  5
C44
330
B8B
100
AcDbEntity
  8
0
  6
Continuous
 62
     7
370
    15
100
AcDbLine
 10
2017.866029581042
 20
852.3880300642906
 30
0.0
 11
2017.713791867705
 21
852.3880300642906
 31
0.0
  0
LINE
  5
C45
330
B8B
100
AcDbEntity
  8
0
  6
Continuous
 62
     7
370
    15
100
AcDbLine
 10
1953.065847223611
 20
852.3880300642906
 30
0.0
 11
1953.065847223611
 21
858.2880299043301
 31
0.0
  0
LINE
  5
C46
330
B8B
100
AcDbEntity
  8
0
  6
Continuous
 62
     7
370
    15
100
AcDbLine
 10
1953.218084936948
 20
858.2880299043301
 30
0.0
 11
1953.065847223611
 21
858.2880299043301
 31
0.0
  0
LINE
  5
C47
330
B8B
100
AcDbEntity
  8
0
  6
Continuous
 62
     7
370
    15
100
AcDbLine
 10
1953.218084936948
 20
852.3880300642906
 30
0.0
 11
1953.065847223611
 21
852.3880300642906
 31
0.0
  0
LINE
  5
C48
330
B8B
100
AcDbEntity
  8
0
  6
Continuous
 62
     7
370
    15
100
AcDbLine
 10
1983.86452364734
 20
858.2880299043301
 30
0.0
 11
1983.864333191873
 21
858.2880299043301
 31
0.0
  0
LINE
  5
C49
330
B8B
100
AcDbEntity
  8
0
  6
Continuous
 62
     7
370
    15
100
AcDbLine
 10
1983.864333191873
 20
852.3880300642906
 30
0.0
 11
1983.86452364734
 21
852.3880300642906
 31
0.0
  0
LINE
  5
C4A
330
B8B
100
AcDbEntity
  8
0
  6
Continuous
 62
     7
370
    15
100
AcDbLine
 10
1988.299241641057
 20
858.2880299043301
 30
0.0
 11
1988.299051127383
 21
858.2880299043301
 31
0.0
  0
LINE
  5
C4B
330
B8B
100
AcDbEntity
  8
0
  6
Continuous
 62
     7
370
    15
100
AcDbLine
 10
1988.299051127383
 20
852.3880300642906
 30
0.0
 11
1988.299241641057
 21
852.3880300642906
 31
0.0
  0
LINE
  5
C4C
330
B8B
100
AcDbEntity
  8
0
  6
Continuous
 62
     7
370
    15
100
AcDbLine
 10
1983.86452364734
 20
857.7380298818445
 30
0.0
 11
1985.187380751581
 21
857.7380298818445
 31
0.0
  0
LINE
  5
C4D
330
B8B
100
AcDbEntity
  8
0
  6
Continuous
 62
     7
370
    15
100
AcDbLine
 10
1986.975981739802
 20
857.7380298818445
 30
0.0
 11
1988.299051127383
 21
857.7380298818445
 31
0.0
  0
LINE
  5
C4E
330
B8B
100
AcDbEntity
  8
0
  6
Continuous
 62
     7
370
    15
100
AcDbLine
 10
1986.975981739802
 20
852.9380300613103
 30
0.0
 11
1986.975981739802
 21
857.7380298818445
 31
0.0
  0
LINE
  5
C4F
330
B8B
100
AcDbEntity
  8
0
  6
Continuous
 62
     7
370
    15
100
AcDbLine
 10
1988.299051127383
 20
852.9380300613103
 30
0.0
 11
1986.975981739802
 21
852.9380300613103
 31
0.0
  0
LINE
  5
C50
330
B8B
100
AcDbEntity
  8
0
  6
Continuous
 62
     7
370
    15
100
AcDbLine
 10
1985.187380751581
 20
852.9380300613103
 30
0.0
 11
1983.86452364734
 21
852.9380300613103
 31
0.0
  0
LINE
  5
C51
330
B8B
100
AcDbEntity
  8
0
  6
Continuous
 62
     7
370
    15
100
AcDbLine
 10
1985.187380751581
 20
857.7380298818445
 30
0.0
 11
1985.187380751581
 21
852.9380300613103
 31
0.0
  0
LINE
  5
C52
330
B8B
100
AcDbEntity
  8
0
  6
Continuous
 62
     7
370
    15
100
AcDbLine
 10
1988.299051127383
 20
858.2880299043301
 30
0.0
 11
1983.86452364734
 21
858.2880299043301
 31
0.0
  0
LINE
  5
C53
330
B8B
100
AcDbEntity
  8
0
  6
Continuous
 62
     7
370
    15
100
AcDbLine
 10
1983.86452364734
 20
852.3880300642906
 30
0.0
 11
1988.299051127383
 21
852.3880300642906
 31
0.0
  0
LINE
  5
C54
330
B8B
100
AcDbEntity
  8
0
  6
Continuous
 62
     7
370
    15
100
AcDbLine
 10
1984.568587914096
 20
857.7380298818445
 30
0.0
 11
1984.568587914096
 21
852.9380300613103
 31
0.0
  0
LINE
  5
C55
330
B8B
100
AcDbEntity
  8
0
  6
Continuous
 62
     7
370
    15
100
AcDbLine
 10
1987.594770328128
 20
852.9380300613103
 30
0.0
 11
1987.594770328128
 21
857.7380298818445
 31
0.0
  0
LINE
  5
C56
330
B8B
100
AcDbEntity
  8
0
  6
Continuous
 62
     7
370
    15
100
AcDbLine
 10
1971.086084088297
 20
853.1380297215639
 30
0.0
 11
1973.836085004719
 21
853.1380297215639
 31
0.0
  0
LINE
  5
C57
330
B8B
100
AcDbEntity
  8
0
  6
Continuous
 62
     7
370
    15
100
AcDbLine
 10
1973.836085004719
 20
853.1380297215639
 30
0.0
 11
1973.836085004719
 21
857.5380299305527
 31
0.0
  0
LINE
  5
C58
330
B8B
100
AcDbEntity
  8
0
  6
Continuous
 62
     7
370
    15
100
AcDbLine
 10
1973.836085004719
 20
857.5380299305527
 30
0.0
 11
1971.086085950942
 21
857.5380299305527
 31
0.0
  0
LINE
  5
C59
330
B8B
100
AcDbEntity
  8
0
  6
Continuous
 62
     7
370
    15
100
AcDbLine
 10
1977.786084813984
 20
857.5380299305527
 30
0.0
 11
1975.036084828885
 21
857.5380299305527
 31
0.0
  0
LINE
  5
C5A
330
B8B
100
AcDbEntity
  8
0
  6
Continuous
 62
     7
370
    15
100
AcDbLine
 10
1975.036084828885
 20
857.5380299305527
 30
0.0
 11
1975.036084828885
 21
853.1380297215639
 31
0.0
  0
LINE
  5
C5B
330
B8B
100
AcDbEntity
  8
0
  6
Continuous
 62
     7
370
    15
100
AcDbLine
 10
1975.036084828885
 20
853.1380297215639
 30
0.0
 11
1977.786083882661
 21
853.1380297215639
 31
0.0
  0
LINE
  5
C5C
330
B8B
100
AcDbEntity
  8
0
  6
Continuous
 62
     7
370
    15
100
AcDbLine
 10
1977.786084813984
 20
858.2880299043301
 30
0.0
 11
1971.086084088297
 21
858.2880299043301
 31
0.0
  0
LINE
  5
C5D
330
B8B
100
AcDbEntity
  8
0
  6
Continuous
 62
     7
370
    15
100
AcDbLine
 10
1977.786083882661
 20
852.3880300642906
 30
0.0
 11
1971.086084088297
 21
852.3880300642906
 31
0.0
  0
LINE
  5
C5E
330
B8B
100
AcDbEntity
  8
0
  6
Continuous
 62
     8
370
    15
100
AcDbLine
 10
2014.02727811596
 20
857.0380298485963
 30
0.0
 11
2014.02727811596
 21
853.6380298035203
 31
0.0
  0
ENDBLK
  5
B8D
330
B8B
100
AcDbEntity
  8
0
100
AcDbBlockEnd
  0
BLOCK
  5
C61
330
C60
100
AcDbEntity
  8
0
100
AcDbBlockBegin
  2
4
 70
     0
 10
0.0
 20
0.0
 30
0.0
  3
4
  1

  0
LINE
  5
C63
330
C60
100
AcDbEntity
  8
0
  6
Continuous
 62
     7
370
    15
100
AcDbLine
 10
2041.490212000578
 20
890.2263158057392
 30
0.0
 11
2045.394285937556
 21
888.0958339261477
 31
0.0
  0
LINE
  5
C64
330
C60
100
AcDbEntity
  8
0
  6
Continuous
 62
     7
370
    15
100
AcDbLine
 10
2046.03488996646
 20
884.3764884997067
 30
0.0
 11
2042.130816029481
 21
886.5069703792981
 31
0.0
  0
LINE
  5
C65
330
C60
100
AcDbEntity
  8
0
  6
Continuous
 62
     7
370
    15
100
AcDbLine
 10
2041.646204011319
 20
877.6401897816052
 30
0.0
 11
2045.351765879948
 21
875.6180373986689
 31
0.0
  0
LINE
  5
C66
330
C60
100
AcDbEntity
  8
0
  6
Continuous
 62
     7
370
    15
100
AcDbLine
 10
2045.816526598796
 20
870.4277844144028
 30
0.0
 11
2042.677920200522
 21
872.140545024636
 31
0.0
  0
LINE
  5
C67
330
C60
100
AcDbEntity
  8
0
  6
Continuous
 62
     7
370
    15
100
AcDbLine
 10
2065.180063598825
 20
902.4124209117402
 30
0.0
 11
2061.275989661846
 21
904.5429027913318
 31
0.0
  0
LINE
  5
C68
330
C60
100
AcDbEntity
  8
0
  6
Continuous
 62
     7
370
    15
100
AcDbLine
 10
2041.876096344587
 20
868.0478057768885
 30
0.0
 11
2045.581658213217
 21
866.025653393952
 31
0.0
  0
LINE
  5
C69
330
C60
100
AcDbEntity
  8
0
  6
Continuous
 62
     7
370
    15
100
AcDbLine
 10
2067.442629263799
 20
901.9319327198235
 30
0.0
 11
2063.53855532682
 21
904.0624145994151
 31
0.0
  0
LINE
  5
C6A
330
C60
100
AcDbEntity
  8
0
  6
Continuous
 62
     7
370
    15
100
AcDbLine
 10
2069.720744997002
 20
902.2521442001782
 30
0.0
 11
2066.718211802159
 21
903.8906486618628
 31
0.0
  0
LINE
  5
C6B
330
C60
100
AcDbEntity
  8
0
  6
Continuous
 62
     7
370
    15
100
AcDbLine
 10
2058.709815808589
 20
880.7045263457112
 30
0.0
 11
2058.809071925814
 21
880.6503615520622
 31
0.0
  0
LINE
  5
C6C
330
C60
100
AcDbEntity
  8
0
  6
Continuous
 62
     7
370
    15
100
AcDbLine
 10
2066.990596277049
 20
904.7154733661557
 30
0.0
 11
2070.894670214027
 21
902.5849914865643
 31
0.0
  0
LINE
  5
C6D
330
C60
100
AcDbEntity
  8
0
  6
Continuous
 62
     7
370
    15
100
AcDbLine
 10
2069.279805190449
 20
907.5853739140839
 30
0.0
 11
2073.183879127427
 21
905.4548920344926
 31
0.0
  0
LINE
  5
C6E
330
C60
100
AcDbEntity
  8
0
  6
Continuous
 62
     7
370
    15
100
AcDbLine
 10
2074.267843607077
 20
905.8988745953238
 30
0.0
 11
2070.363769670099
 21
908.0293564749151
 31
0.0
  0
LINE
  5
C6F
330
C60
100
AcDbEntity
  8
0
  6
Continuous
 62
     7
370
    15
100
AcDbLine
 10
2056.5606474276
 20
874.811459048986
 30
0.0
 11
2057.138779522567
 21
874.4959681099773
 31
0.0
  0
LINE
  5
C70
330
C60
100
AcDbEntity
  8
0
  6
Continuous
 62
     7
370
    15
100
AcDbLine
 10
2057.39488818782
 20
873.4303561029703
 30
0.0
 11
2056.558805614628
 21
873.8866125163433
 31
0.0
  0
LINE
  5
C71
330
C60
100
AcDbEntity
  8
0
  6
Continuous
 62
     7
370
    15
100
AcDbLine
 10
2093.169192354095
 20
913.8815139855504
 30
0.0
 11
2089.265118417117
 21
916.0119958651419
 31
0.0
  0
LINE
  5
C72
330
C60
100
AcDbEntity
  8
0
  6
Continuous
 62
     7
370
    15
100
AcDbLine
 10
2075.971977121641
 20
886.2981104819189
 30
0.0
 11
2079.677538990271
 21
884.2759580989824
 31
0.0
  0
LINE
  5
C73
330
C60
100
AcDbEntity
  8
0
  6
Continuous
 62
     7
370
    15
100
AcDbLine
 10
2092.927743897504
 20
908.4317886072268
 30
0.0
 11
2093.221571169625
 21
908.2714449023979
 31
0.0
  0
LINE
  5
C74
330
C60
100
AcDbEntity
  8
0
  6
Continuous
 62
     7
370
    15
100
AcDbLine
 10
2093.862042553542
 20
904.552056514907
 30
0.0
 11
2093.018800993949
 21
905.0122196398463
 31
0.0
  0
LINE
  5
C75
330
C60
100
AcDbEntity
  8
0
  6
Continuous
 62
     7
370
    15
100
AcDbLine
 10
2079.211926759464
 20
883.7539592282757
 30
0.0
 11
2082.917488628094
 21
881.7318068453392
 31
0.0
  0
LINE
  5
C76
330
C60
100
AcDbEntity
  8
0
  6
Continuous
 62
     7
370
    15
100
AcDbLine
 10
2093.539145226941
 20
890.0337256284533
 30
0.0
 11
2091.629153254988
 21
891.0760223042073
 31
0.0
  0
ARC
  5
C77
330
C60
100
AcDbEntity
  8
0
  6
Continuous
 62
     7
370
    15
100
AcDbCircle
 10
2081.413213694944
 20
890.9687668929079
 30
0.0
 40
0.8307899065525687
100
AcDbArc
 50
138.9503869105724
 51
174.5881739196506
  0
LINE
  5
C78
330
C60
100
AcDbEntity
  8
0
  6
Continuous
 62
     7
370
    15
100
AcDbLine
 10
2080.586127018565
 20
891.0471218454347
 30
0.0
 11
2080.513513210152
 21
890.0714563979478
 31
0.0
  0
ARC
  5
C79
330
C60
100
AcDbEntity
  8
0
  6
Continuous
 62
     7
370
    15
100
AcDbCircle
 10
2079.933059615361
 20
890.116889395202
 30
0.0
 40
0.5822289351668771
100
AcDbArc
 50
296.7808599995205
 51
355.5244957968973
  0
LINE
  5
C7A
330
C60
100
AcDbEntity
  8
0
  6
Continuous
 62
     7
370
    15
100
AcDbLine
 10
2080.195399945783
 20
889.5971124392108
 30
0.0
 11
2079.959766450879
 21
889.4975969367324
 31
0.0
  0
ARC
  5
C7B
330
C60
100
AcDbEntity
  8
0
  6
Continuous
 62
     7
370
    15
100
AcDbCircle
 10
2079.503515341182
 20
889.8591591336572
 30
0.0
 40
0.5821445673931054
100
AcDbArc
 50
294.3642622802944
 51
321.604471887208
  0
LINE
  5
C7C
330
C60
100
AcDbEntity
  8
0
  6
Continuous
 62
     7
370
    15
100
AcDbLine
 10
2079.743671118068
 20
889.328859689783
 30
0.0
 11
2070.906958391569
 21
885.5968354816269
 31
0.0
  0
LWPOLYLINE
  5
C7D
330
C60
100
AcDbEntity
  8
0
  6
Continuous
 62
     7
370
    15
100
AcDbPolyline
 90
       12
 70
   128
 43
0.0
 10
2070.906958391569
 20
885.5968354816269
 10
2070.716200177833
 20
885.2943256713043
 10
2070.498192543078
 20
885.0177872889886
 10
2070.258287992302
 20
884.7739993288048
 10
2070.002376761931
 20
884.5689492732358
 10
2069.73674157235
 20
884.4076803365494
 10
2069.467904014226
 20
884.2941417044773
 10
2069.202464295891
 20
884.2311208544488
 10
2068.946939594184
 20
884.2201752860217
 10
2068.707603016283
 20
884.2615645093539
 10
2068.490330760799
 20
884.3542703808731
 10
2068.300457060115
 20
884.4960272547842
  0
LINE
  5
C7E
330
C60
100
AcDbEntity
  8
0
  6
Continuous
 62
     7
370
    15
100
AcDbLine
 10
2068.300457060115
 20
884.4960272547842
 30
0.0
 11
2059.467882098118
 21
880.765750555885
 31
0.0
  0
ARC
  5
C7F
330
C60
100
AcDbEntity
  8
0
  6
Continuous
 62
     7
370
    15
100
AcDbCircle
 10
2059.342808406217
 20
881.0303158360991
 30
0.0
 40
0.292640079108292
100
AcDbArc
 50
251.9419217729631
 51
295.302523604035
  0
LINE
  5
C80
330
C60
100
AcDbEntity
  8
0
  6
Continuous
 62
     7
370
    15
100
AcDbLine
 10
2059.25209557701
 20
880.7520903906096
 30
0.0
 11
2059.011914259432
 21
880.650654198296
 31
0.0
  0
ARC
  5
C81
330
C60
100
AcDbEntity
  8
0
  6
Continuous
 62
     7
370
    15
100
AcDbCircle
 10
2058.913429447596
 20
880.8456675999748
 30
0.0
 40
0.2184707875139386
100
AcDbArc
 50
177.2480119798432
 51
296.7944882295417
  0
LINE
  5
C82
330
C60
100
AcDbEntity
  8
0
  6
Continuous
 62
     7
370
    15
100
AcDbLine
 10
2058.695210617817
 20
880.8561569911498
 30
0.0
 11
2058.62461302061
 21
881.7730765826034
 31
0.0
  0
ARC
  5
C83
330
C60
100
AcDbEntity
  8
0
  6
Continuous
 62
     7
370
    15
100
AcDbCircle
 10
2058.310213036869
 20
881.7781059291116
 30
0.0
 40
0.3144402075158749
100
AcDbArc
 50
359.0835376338802
 51
68.46049131123669
  0
LINE
  5
C84
330
C60
100
AcDbEntity
  8
0
  6
Continuous
 62
     7
370
    15
100
AcDbLine
 10
2045.317028198923
 20
876.5343969572935
 30
0.0
 11
2058.425657468427
 21
882.0705870863248
 31
0.0
  0
LINE
  5
C85
330
C60
100
AcDbEntity
  8
0
  6
Continuous
 62
     7
370
    15
100
AcDbLine
 10
2045.33173759136
 20
883.9210653693541
 30
0.0
 11
2045.317028198923
 21
876.5343969572935
 31
0.0
  0
ARC
  5
C86
330
C60
100
AcDbEntity
  8
0
  6
Continuous
 62
     7
370
    15
100
AcDbCircle
 10
2045.607244034778
 20
883.9148463959004
 30
0.0
 40
0.2755766245442833
100
AcDbArc
 50
118.5612568296185
 51
178.7068889330536
  0
LINE
  5
C87
330
C60
100
AcDbEntity
  8
0
  6
Continuous
 62
     7
370
    15
100
AcDbLine
 10
2045.475491385182
 20
884.1568871266044
 30
0.0
 11
2045.932888446498
 21
884.3734232167324
 31
0.0
  0
ARC
  5
C88
330
C60
100
AcDbEntity
  8
0
  6
Continuous
 62
     7
370
    15
100
AcDbCircle
 10
2045.984632853828
 20
884.2811779158662
 30
0.0
 40
0.1057670989574788
100
AcDbArc
 50
350.7958775708502
 51
119.2899653267136
  0
LINE
  5
C89
330
C60
100
AcDbEntity
  8
0
  6
Continuous
 62
     7
370
    15
100
AcDbLine
 10
2046.089038175904
 20
884.2642602344634
 30
0.0
 11
2046.088970609517
 21
884.230330179341
 31
0.0
  0
ARC
  5
C8A
330
C60
100
AcDbEntity
  8
0
  6
Continuous
 62
     7
370
    15
100
AcDbCircle
 10
2046.166902581078
 20
884.2174293458628
 30
0.0
 40
0.0789925546858673
100
AcDbArc
 50
170.6005157638133
 51
295.6983487001265
  0
LINE
  5
C8B
330
C60
100
AcDbEntity
  8
0
  6
Continuous
 62
     7
370
    15
100
AcDbLine
 10
2046.274897684703
 20
884.1773802214857
 30
0.0
 11
2046.201156368613
 21
884.1462499827349
 31
0.0
  0
ARC
  5
C8C
330
C60
100
AcDbEntity
  8
0
  6
Continuous
 62
     7
370
    15
100
AcDbCircle
 10
2046.186964558035
 20
884.356671622028
 30
0.0
 40
0.1996938683941907
100
AcDbArc
 50
296.1255536858701
 51
8.699396979018111
  0
ARC
  5
C8D
330
C60
100
AcDbEntity
  8
0
  6
Continuous
 62
     7
370
    15
100
AcDbCircle
 10
2056.370953805101
 20
886.4892513496696
 30
0.0
 40
10.20548967940835
100
AcDbArc
 50
167.88369457761
 51
191.8883029519681
  0
LWPOLYLINE
  5
C8E
330
C60
100
AcDbEntity
  8
0
  6
Continuous
 62
     7
370
    15
100
AcDbPolyline
 90
        9
 70
   128
 43
0.0
 10
2046.39280627544
 20
888.6313511309179
 10
2046.396190238251
 20
888.6622874058865
 10
2046.393809530655
 20
888.69090660984
 10
2046.385786821836
 20
888.715745689973
 10
2046.372532597729
 20
888.7355284433143
 10
2046.354728558744
 20
888.7492368598776
 10
2046.333284483278
 20
888.7561712595784
 10
2046.309302008848
 20
888.7559807028374
 10
2046.284009059927
 20
888.7486679452129
  0
LINE
  5
C8F
330
C60
100
AcDbEntity
  8
0
  6
Continuous
 62
     7
370
    15
100
AcDbLine
 10
2046.210278890105
 20
888.7175293547482
 30
0.0
 11
2046.284009059927
 21
888.7486679452129
 31
0.0
  0
ARC
  5
C90
330
C60
100
AcDbEntity
  8
0
  6
Continuous
 62
     7
370
    15
100
AcDbCircle
 10
2046.302517419059
 20
888.5344494403806
 30
0.0
 40
0.2050029299023193
100
AcDbArc
 50
116.739681341181
 51
178.8784244738689
  0
LINE
  5
C91
330
C60
100
AcDbEntity
  8
0
  6
Continuous
 62
     7
370
    15
100
AcDbLine
 10
2046.097486224864
 20
888.5045451695356
 30
0.0
 11
2046.097553765224
 21
888.5384621545288
 31
0.0
  0
ARC
  5
C92
330
C60
100
AcDbEntity
  8
0
  6
Continuous
 62
     7
370
    15
100
AcDbCircle
 10
2045.826679486554
 20
888.508893533533
 30
0.0
 40
0.2708416470626074
100
AcDbArc
 50
294.8825046914377
 51
359.0800764502195
  0
LINE
  5
C93
330
C60
100
AcDbEntity
  8
0
  6
Continuous
 62
     7
370
    15
100
AcDbLine
 10
2045.940638500324
 20
888.2631934298213
 30
0.0
 11
2045.48333037441
 21
888.0934204921778
 31
0.0
  0
ARC
  5
C94
330
C60
100
AcDbEntity
  8
0
  6
Continuous
 62
     7
370
    15
100
AcDbCircle
 10
2045.443726329093
 20
888.1907079895327
 30
0.0
 40
0.1050396951016697
100
AcDbArc
 50
170.4649362601559
 51
292.1503820811827
  0
LINE
  5
C95
330
C60
100
AcDbEntity
  8
0
  6
Continuous
 62
     7
370
    15
100
AcDbLine
 10
2045.340137819206
 20
888.2081079368429
 30
0.0
 11
2045.347104366572
 21
891.7065240401953
 31
0.0
  0
ARC
  5
C96
330
C60
100
AcDbEntity
  8
0
  6
Continuous
 62
     7
370
    15
100
AcDbCircle
 10
2047.812290489307
 20
891.6798969509201
 30
0.0
 40
2.465329921452672
100
AcDbArc
 50
162.3829511592202
 51
179.3811580811496
  0
LINE
  5
C97
330
C60
100
AcDbEntity
  8
0
  6
Continuous
 62
     7
370
    15
100
AcDbLine
 10
2045.462582931573
 20
892.4260376981889
 30
0.0
 11
2045.686110107155
 21
893.1477098461146
 31
0.0
  0
ARC
  5
C98
330
C60
100
AcDbEntity
  8
0
  6
Continuous
 62
     7
370
    15
100
AcDbCircle
 10
2048.266436497549
 20
892.4123960829092
 30
0.0
 40
2.683052480164515
100
AcDbArc
 50
116.3954782835198
 51
164.0940757862687
  0
LINE
  5
C99
330
C60
100
AcDbEntity
  8
0
  6
Continuous
 62
     7
370
    15
100
AcDbLine
 10
2047.073646642028
 20
894.8157318838084
 30
0.0
 11
2065.060744425467
 21
902.4122540793262
 31
0.0
  0
LWPOLYLINE
  5
C9A
330
C60
100
AcDbEntity
  8
0
  6
Continuous
 62
     7
370
    15
100
AcDbPolyline
 90
        9
 70
   128
 43
0.0
 10
2065.060744425467
 20
902.4122540793262
 10
2065.120971868653
 20
902.4260608783254
 10
2065.17476051273
 20
902.4151306631237
 10
2065.216401088109
 20
902.3806173724018
 10
2065.241473942154
 20
902.3261915206925
 10
2065.247317925162
 20
902.2576244443724
 10
2065.233312643468
 20
902.1821957831351
 10
2065.200944739352
 20
902.1079052760384
 10
2065.153649620198
 20
902.0426484887567
  0
LINE
  5
C9B
330
C60
100
AcDbEntity
  8
0
  6
Continuous
 62
     7
370
    15
100
AcDbLine
 10
2065.022233929859
 20
901.8985999938532
 30
0.0
 11
2065.153649620198
 21
902.0426484887567
 31
0.0
  0
LINE
  5
C9C
330
C60
100
AcDbEntity
  8
0
  6
Continuous
 62
     7
370
    15
100
AcDbLine
 10
2065.022233929859
 20
901.8985999938532
 30
0.0
 11
2065.021364587252
 21
901.4586231135206
 31
0.0
  0
ARC
  5
C9D
330
C60
100
AcDbEntity
  8
0
  6
Continuous
 62
     7
370
    15
100
AcDbCircle
 10
2065.099817549477
 20
901.4460562396038
 30
0.0
 40
0.0794530905759872
100
AcDbArc
 50
170.8994692958363
 51
273.3546096574957
  0
LINE
  5
C9E
330
C60
100
AcDbEntity
  8
0
  6
Continuous
 62
     7
370
    15
100
AcDbLine
 10
2065.104466789862
 20
901.366739292071
 30
0.0
 11
2065.608985858267
 21
901.421719792326
 31
0.0
  0
ARC
  5
C9F
330
C60
100
AcDbEntity
  8
0
  6
Continuous
 62
     7
370
    15
100
AcDbCircle
 10
2065.002416049547
 20
906.5879074810737
 30
0.0
 40
5.201674938730641
100
AcDbArc
 50
276.6965237647686
 51
293.3480999434311
  0
LINE
  5
CA0
330
C60
100
AcDbEntity
  8
0
  6
Continuous
 62
     7
370
    15
100
AcDbLine
 10
2067.347175309399
 20
901.9318024503474
 30
0.0
 11
2067.063925140514
 21
901.8121769153824
 31
0.0
  0
ARC
  5
CA1
330
C60
100
AcDbEntity
  8
0
  6
Continuous
 62
     7
370
    15
100
AcDbCircle
 10
2067.393218406476
 20
901.8385097357228
 30
0.0
 40
0.1040360389025538
100
AcDbArc
 50
353.8160499508448
 51
116.2678910992726
  0
LINE
  5
CA2
330
C60
100
AcDbEntity
  8
0
  6
Continuous
 62
     7
370
    15
100
AcDbLine
 10
2067.496649078211
 20
901.8273028835748
 30
0.0
 11
2067.515563364334
 21
901.3006042104247
 31
0.0
  0
ARC
  5
CA3
330
C60
100
AcDbEntity
  8
0
  6
Continuous
 62
     7
370
    15
100
AcDbCircle
 10
2067.24296897631
 20
901.2978300189969
 30
0.0
 40
0.272608504122843
100
AcDbArc
 50
296.6834827871387
 51
0.5830786698945372
  0
LINE
  5
CA4
330
C60
100
AcDbEntity
  8
0
  6
Continuous
 62
     7
370
    15
100
AcDbLine
 10
2067.365386943475
 20
901.0542540804573
 30
0.0
 11
2067.336559321656
 21
901.042079260949
 31
0.0
  0
ARC
  5
CA5
330
C60
100
AcDbEntity
  8
0
  6
Continuous
 62
     7
370
    15
100
AcDbCircle
 10
2067.428770561024
 20
900.8590131252743
 30
0.0
 40
0.204978346897191
100
AcDbArc
 50
116.7346019711316
 51
178.8806551739695
  0
LINE
  5
CA6
330
C60
100
AcDbEntity
  8
0
  6
Continuous
 62
     7
370
    15
100
AcDbLine
 10
2067.223660087195
 20
900.7767612835621
 30
0.0
 11
2067.22383132943
 21
900.8630173793276
 31
0.0
  0
ARC
  5
CA7
330
C60
100
AcDbEntity
  8
0
  6
Continuous
 62
     7
370
    15
100
AcDbCircle
 10
2067.305054783129
 20
900.7661457289332
 30
0.0
 40
0.0820840211379264
100
AcDbArc
 50
172.5693844310747
 51
314.9849818481702
  0
ARC
  5
CA8
330
C60
100
AcDbEntity
  8
0
  6
Continuous
 62
     7
370
    15
100
AcDbCircle
 10
2072.268142855637
 20
894.155527155903
 30
0.0
 40
8.185089051773934
100
AcDbArc
 50
98.97514565275002
 51
126.8174827577948
  0
ARC
  5
CA9
330
C60
100
AcDbEntity
  8
0
  6
Continuous
 62
     7
370
    15
100
AcDbCircle
 10
2070.938410615704
 20
902.4257651849019
 30
0.0
 40
0.192742031157618
100
AcDbArc
 50
285.9017848141087
 51
0.3820039799547418
  0
LINE
  5
CAA
330
C60
100
AcDbEntity
  8
0
  6
Continuous
 62
     7
370
    15
100
AcDbLine
 10
2071.131319417655
 20
902.5132997172709
 30
0.0
 11
2071.131148363001
 21
902.4270502302952
 31
0.0
  0
ARC
  5
CAB
330
C60
100
AcDbEntity
  8
0
  6
Continuous
 62
     7
370
    15
100
AcDbCircle
 10
2071.05338708947
 20
902.52620092996
 30
0.0
 40
0.0789929684544771
100
AcDbArc
 50
350.6002866498962
 51
115.7116886191138
  0
LINE
  5
CAC
330
C60
100
AcDbEntity
  8
0
  6
Continuous
 62
     7
370
    15
100
AcDbLine
 10
2070.990126538096
 20
902.5851292863954
 30
0.0
 11
2071.019116550981
 21
902.5973726888041
 31
0.0
  0
LWPOLYLINE
  5
CAD
330
C60
100
AcDbEntity
  8
0
  6
Continuous
 62
     7
370
    15
100
AcDbPolyline
 90
        9
 70
   128
 43
0.0
 10
2070.990126538096
 20
902.5851292863954
 10
2070.960077012482
 20
902.5759970329756
 10
2070.931261247385
 20
902.5743528853716
 10
2070.904849044046
 20
902.5802664658176
 10
2070.881912261696
 20
902.5934983202196
 10
2070.86338158998
 20
902.6135143096198
 10
2070.85000957976
 20
902.6394895856411
 10
2070.842339054098
 20
902.6703866633974
 10
2070.840680750645
 20
902.7049394495989
  0
LINE
  5
CAE
330
C60
100
AcDbEntity
  8
0
  6
Continuous
 62
     7
370
    15
100
AcDbLine
 10
2070.840680750645
 20
902.7049394495989
 30
0.0
 11
2070.861731172067
 21
903.248509957414
 31
0.0
  0
ARC
  5
CAF
330
C60
100
AcDbEntity
  8
0
  6
Continuous
 62
     7
370
    15
100
AcDbCircle
 10
2071.135169500365
 20
903.2351169846267
 30
0.0
 40
0.2737661248267931
100
AcDbArc
 50
116.767408176273
 51
177.1959013115065
  0
LINE
  5
CB0
330
C60
100
AcDbEntity
  8
0
  6
Continuous
 62
     7
370
    15
100
AcDbLine
 10
2071.011873523536
 20
903.4795469197831
 30
0.0
 11
2071.290950787872
 21
903.5973839864608
 31
0.0
  0
ARC
  5
CB1
330
C60
100
AcDbEntity
  8
0
  6
Continuous
 62
     7
370
    15
100
AcDbCircle
 10
2068.447651482133
 20
910.2149864689224
 30
0.0
 40
7.202569927317533
100
AcDbArc
 50
293.2511175531013
 51
306.6474333824344
  0
LINE
  5
CB2
330
C60
100
AcDbEntity
  8
0
  6
Continuous
 62
     7
370
    15
100
AcDbLine
 10
2072.746788390076
 20
904.4361946051621
 30
0.0
 11
2073.256115849208
 21
904.8106865214005
 31
0.0
  0
ARC
  5
CB3
330
C60
100
AcDbEntity
  8
0
  6
Continuous
 62
     7
370
    15
100
AcDbCircle
 10
2073.127255218647
 20
904.9797581872274
 30
0.0
 40
0.2125800797207757
100
AcDbArc
 50
307.3134078308259
 51
358.1724590554
  0
LINE
  5
CB4
330
C60
100
AcDbEntity
  8
0
  6
Continuous
 62
     7
370
    15
100
AcDbLine
 10
2073.34060074278
 20
905.4116645665644
 30
0.0
 11
2073.339727168738
 21
904.9729787537279
 31
0.0
  0
LINE
  5
CB5
330
C60
100
AcDbEntity
  8
0
  6
Continuous
 62
     7
370
    15
100
AcDbLine
 10
2073.209536609592
 20
905.4448595024728
 30
0.0
 11
2073.34060074278
 21
905.4116645665644
 31
0.0
  0
LWPOLYLINE
  5
CB6
330
C60
100
AcDbEntity
  8
0
  6
Continuous
 62
     7
370
    15
100
AcDbPolyline
 90
        9
 70
   128
 43
0.0
 10
2073.209536609592
 20
905.4448595024728
 10
2073.162421813903
 20
905.4702439867172
 10
2073.130295532497
 20
905.5172900230441
 10
2073.116567510021
 20
905.5810060298432
 10
2073.122694641999
 20
905.6546288879127
 10
2073.148026822581
 20
905.7303423852955
 10
2073.189874893733
 20
905.8001155808716
 10
2073.243797655526
 20
905.8565357408799
 10
2073.304071278434
 20
905.8936203660662
  0
LINE
  5
CB7
330
C60
100
AcDbEntity
  8
0
  6
Continuous
 62
     7
370
    15
100
AcDbLine
 10
2073.313290866437
 20
905.8975140906538
 30
0.0
 11
2073.304071278434
 21
905.8936203660662
 31
0.0
  0
ARC
  5
CB8
330
C60
100
AcDbEntity
  8
0
  6
Continuous
 62
     7
370
    15
100
AcDbCircle
 10
2073.783328414436
 20
905.0329642307941
 30
0.0
 40
0.9840638986942938
100
AcDbArc
 50
21.87889360364361
 51
118.5319939755225
  0
LINE
  5
CB9
330
C60
100
AcDbEntity
  8
0
  6
Continuous
 62
     7
370
    15
100
AcDbLine
 10
2074.696513724015
 20
905.3996716715182
 30
0.0
 11
2075.396077092995
 21
903.7097911181856
 31
0.0
  0
LINE
  5
CBA
330
C60
100
AcDbEntity
  8
0
  6
Continuous
 62
     7
370
    15
100
AcDbLine
 10
2075.396077092995
 20
903.7097911181856
 30
0.0
 11
2080.419470184553
 21
905.8313294328309
 31
0.0
  0
LINE
  5
CBB
330
C60
100
AcDbEntity
  8
0
  6
Continuous
 62
     7
370
    15
100
AcDbLine
 10
2080.419470184553
 20
905.8313294328309
 30
0.0
 11
2081.416133123722
 21
909.0490945469113
 31
0.0
  0
ARC
  5
CBC
330
C60
100
AcDbEntity
  8
0
  6
Continuous
 62
     7
370
    15
100
AcDbCircle
 10
2082.061217869175
 20
908.8652659508813
 30
0.0
 40
0.6707661899164218
100
AcDbArc
 50
116.3957478900687
 51
164.094136724753
  0
LINE
  5
CBD
330
C60
100
AcDbEntity
  8
0
  6
Continuous
 62
     7
370
    15
100
AcDbLine
 10
2081.76301621329
 20
909.4661012477494
 30
0.0
 11
2092.214638915186
 21
913.8801531859796
 31
0.0
  0
ARC
  5
CBE
330
C60
100
AcDbEntity
  8
0
  6
Continuous
 62
     7
370
    15
100
AcDbCircle
 10
2092.684675718629
 20
913.0156027554637
 30
0.0
 40
0.9840640444077244
100
AcDbArc
 50
21.87890749838294
 51
118.5319400194255
  0
LINE
  5
CBF
330
C60
100
AcDbEntity
  8
0
  6
Continuous
 62
     7
370
    15
100
AcDbLine
 10
2093.597861074496
 20
913.3823104719429
 30
0.0
 11
2093.81888932592
 21
912.8483881883392
 31
0.0
  0
ARC
  5
CC0
330
C60
100
AcDbEntity
  8
0
  6
Continuous
 62
     7
370
    15
100
AcDbCircle
 10
2092.307854408474
 20
912.2530719076468
 30
0.0
 40
1.624077583059568
100
AcDbArc
 50
359.0196907180883
 51
21.50340707311614
  0
LINE
  5
CC1
330
C60
100
AcDbEntity
  8
0
  6
Continuous
 62
     7
370
    15
100
AcDbLine
 10
2093.931694281701
 20
912.2252859055084
 30
0.0
 11
2093.924727734335
 21
908.726869802156
 31
0.0
  0
ARC
  5
CC2
330
C60
100
AcDbEntity
  8
0
  6
Continuous
 62
     7
370
    15
100
AcDbCircle
 10
2093.649205200501
 20
908.7330985841134
 30
0.0
 40
0.2755929323752239
100
AcDbArc
 50
298.563220006946
 51
358.7049257557215
  0
LINE
  5
CC3
330
C60
100
AcDbEntity
  8
0
  6
Continuous
 62
     7
370
    15
100
AcDbLine
 10
2093.323572689586
 20
908.2745101853721
 30
0.0
 11
2093.780973940513
 21
908.4910480449059
 31
0.0
  0
ARC
  5
CC4
330
C60
100
AcDbEntity
  8
0
  6
Continuous
 62
     7
370
    15
100
AcDbCircle
 10
2093.27182927503
 20
908.3667569063296
 30
0.0
 40
0.1057678518139475
100
AcDbArc
 50
170.7967229693639
 51
299.2891199281927
  0
LINE
  5
CC5
330
C60
100
AcDbEntity
  8
0
  6
Continuous
 62
     7
370
    15
100
AcDbLine
 10
2093.16742296018
 20
908.3836731676413
 30
0.0
 11
2093.167490500539
 21
908.4175901526343
 31
0.0
  0
ARC
  5
CC6
330
C60
100
AcDbEntity
  8
0
  6
Continuous
 62
     7
370
    15
100
AcDbCircle
 10
2093.089553231451
 20
908.4304846839648
 30
0.0
 40
0.0789967521559622
100
AcDbArc
 50
350.6056528024956
 51
115.7049847094111
  0
LINE
  5
CC7
330
C60
100
AcDbEntity
  8
0
  6
Continuous
 62
     7
370
    15
100
AcDbLine
 10
2093.055289379536
 20
908.5016638614199
 30
0.0
 11
2092.981557813178
 21
908.4705246811532
 31
0.0
  0
ARC
  5
CC8
330
C60
100
AcDbEntity
  8
0
  6
Continuous
 62
     7
370
    15
100
AcDbCircle
 10
2093.069507065595
 20
908.2912402655859
 30
0.0
 40
0.1996946986425253
100
AcDbArc
 50
116.1305902138412
 51
188.6995048321133
  0
ARC
  5
CC9
330
C60
100
AcDbEntity
  8
0
  6
Continuous
 62
     7
370
    15
100
AcDbCircle
 10
2082.885550008626
 20
906.1586912398526
 30
0.0
 40
10.20545100518021
100
AcDbArc
 50
347.8836395084239
 51
11.88816966323295
  0
LWPOLYLINE
  5
CCA
330
C60
100
AcDbEntity
  8
0
  6
Continuous
 62
     7
370
    15
100
AcDbPolyline
 90
        9
 70
   128
 43
0.0
 10
2092.863657666732
 20
904.016589985855
 10
2092.860275087444
 20
903.9856477656238
 10
2092.862654398503
 20
903.9570279718684
 10
2092.87067850386
 20
903.9321894815373
 10
2092.883931344442
 20
903.9124126734588
 10
2092.901736766951
 20
903.8986983116327
 10
2092.923180842417
 20
903.8917639119317
 10
2092.947161933324
 20
903.8919604139355
 10
2092.972454882245
 20
903.89927317156
  0
LINE
  5
CCB
330
C60
100
AcDbEntity
  8
0
  6
Continuous
 62
     7
370
    15
100
AcDbLine
 10
2092.972454882245
 20
903.89927317156
 30
0.0
 11
2093.046186448603
 21
903.9304123518267
 31
0.0
  0
ARC
  5
CCC
330
C60
100
AcDbEntity
  8
0
  6
Continuous
 62
     7
370
    15
100
AcDbCircle
 10
2092.953969794602
 20
904.1134786267992
 30
0.0
 40
0.2049809071780289
100
AcDbArc
 50
296.7359361489906
 51
358.8802901243634
  0
LINE
  5
CCD
330
C60
100
AcDbEntity
  8
0
  6
Continuous
 62
     7
370
    15
100
AcDbLine
 10
2093.158979100831
 20
904.1433900019747
 30
0.0
 11
2093.158911560471
 21
904.1094730169815
 31
0.0
  0
ARC
  5
CCE
330
C60
100
AcDbEntity
  8
0
  6
Continuous
 62
     7
370
    15
100
AcDbCircle
 10
2093.429778344858
 20
904.1390465083011
 30
0.0
 40
0.2708340755944914
100
AcDbArc
 50
114.8814999464767
 51
179.0810811951856
  0
LINE
  5
CCF
330
C60
100
AcDbEntity
  8
0
  6
Continuous
 62
     7
370
    15
100
AcDbLine
 10
2093.773134951285
 20
904.5545146793324
 30
0.0
 11
2093.315826825371
 21
904.3847417416891
 31
0.0
  0
ARC
  5
CD0
330
C60
100
AcDbEntity
  8
0
  6
Continuous
 62
     7
370
    15
100
AcDbCircle
 10
2093.812615010889
 20
904.4571951321765
 30
0.0
 40
0.1050227088064055
100
AcDbArc
 50
350.4780556353661
 51
112.0811404824771
  0
LINE
  5
CD1
330
C60
100
AcDbEntity
  8
0
  6
Continuous
 62
     7
370
    15
100
AcDbLine
 10
2093.916190749974
 20
904.4398217145992
 30
0.0
 11
2093.901481357537
 21
897.0531533025384
 31
0.0
  0
LINE
  5
CD2
330
C60
100
AcDbEntity
  8
0
  6
Continuous
 62
     7
370
    15
100
AcDbLine
 10
2080.786680791121
 20
891.5143568389819
 30
0.0
 11
2093.901481357537
 21
897.0531533025384
 31
0.0
  0
LINE
  5
CD3
330
C60
100
AcDbEntity
  8
0
  6
Continuous
 62
     7
370
    15
100
AcDbLine
 10
2041.782036170177
 20
895.2781917257061
 30
0.0
 11
2045.686110107155
 21
893.1477098461146
 31
0.0
  0
ARC
  5
CD4
330
C60
100
AcDbEntity
  8
0
  6
Continuous
 62
     7
370
    15
100
AcDbCircle
 10
2044.36236256057
 20
894.5428779625011
 30
0.0
 40
2.683052480164147
100
AcDbArc
 50
116.3954782835198
 51
164.0940757862749
  0
LINE
  5
CD5
330
C60
100
AcDbEntity
  8
0
  6
Continuous
 62
     7
370
    15
100
AcDbLine
 10
2043.169572705049
 20
896.9462137633998
 30
0.0
 11
2047.073646642028
 21
894.8157318838084
 31
0.0
  0
LINE
  5
CD6
330
C60
100
AcDbEntity
  8
0
  6
Continuous
 62
     7
370
    15
100
AcDbLine
 10
2041.558508994595
 20
894.5565195777804
 30
0.0
 11
2045.462582931573
 21
892.4260376981889
 31
0.0
  0
LINE
  5
CD7
330
C60
100
AcDbEntity
  8
0
  6
Continuous
 62
     7
370
    15
100
AcDbLine
 10
2041.558508994595
 20
894.5565195777804
 30
0.0
 11
2041.782036170177
 21
895.2781917257061
 31
0.0
  0
LINE
  5
CD8
330
C60
100
AcDbEntity
  8
0
  6
Continuous
 62
     7
370
    15
100
AcDbLine
 10
2045.347104366572
 20
891.7065240401953
 30
0.0
 11
2041.443030429594
 21
893.8370059197866
 31
0.0
  0
ARC
  5
CD9
330
C60
100
AcDbEntity
  8
0
  6
Continuous
 62
     7
370
    15
100
AcDbCircle
 10
2043.908216552331
 20
893.8103788305113
 30
0.0
 40
2.465329921454163
100
AcDbArc
 50
162.3829511592304
 51
179.3811580811431
  0
LINE
  5
CDA
330
C60
100
AcDbEntity
  8
0
  6
Continuous
 62
     7
370
    15
100
AcDbLine
 10
2041.443030429594
 20
893.8370059197866
 30
0.0
 11
2041.436063882227
 21
890.3385898164343
 31
0.0
  0
LINE
  5
CDB
330
C60
100
AcDbEntity
  8
0
  6
Continuous
 62
     7
370
    15
100
AcDbLine
 10
2041.436063882227
 20
890.3385898164343
 30
0.0
 11
2045.340137819206
 21
888.2081079368429
 31
0.0
  0
LINE
  5
CDC
330
C60
100
AcDbEntity
  8
0
  6
Continuous
 62
     7
370
    15
100
AcDbLine
 10
2047.397698654122
 20
895.7532877357394
 30
0.0
 11
2045.147893243684
 21
896.9810231057451
 31
0.0
  0
LINE
  5
CDD
330
C60
100
AcDbEntity
  8
0
  6
Continuous
 62
     7
370
    15
100
AcDbLine
 10
2049.872804883642
 20
896.7986036413503
 30
0.0
 11
2047.397698654122
 21
895.7532877357394
 31
0.0
  0
LINE
  5
CDE
330
C60
100
AcDbEntity
  8
0
  6
Continuous
 62
     7
370
    15
100
AcDbLine
 10
2047.622999473203
 20
898.026339011356
 30
0.0
 11
2049.872804883642
 21
896.7986036413503
 31
0.0
  0
LINE
  5
CDF
330
C60
100
AcDbEntity
  8
0
  6
Continuous
 62
     7
370
    15
100
AcDbLine
 10
2045.147893243684
 20
896.9810231057451
 30
0.0
 11
2047.622999473203
 21
898.026339011356
 31
0.0
  0
LINE
  5
CE0
330
C60
100
AcDbEntity
  8
0
  6
Continuous
 62
     7
370
    15
100
AcDbLine
 10
2065.060744425467
 20
902.4122540793262
 30
0.0
 11
2061.156670488489
 21
904.5427359589178
 31
0.0
  0
LINE
  5
CE1
330
C60
100
AcDbEntity
  8
0
  6
Continuous
 62
     7
370
    15
100
AcDbLine
 10
2061.156670488489
 20
904.5427359589178
 30
0.0
 11
2043.169572705049
 21
896.9462137633998
 31
0.0
  0
LWPOLYLINE
  5
CE2
330
C60
100
AcDbEntity
  8
0
  6
Continuous
 62
     7
370
    15
100
AcDbPolyline
 90
       17
 70
   128
 43
0.0
 10
2050.569629383128
 20
899.688682494138
 10
2050.928585282192
 20
899.7253180700852
 10
2051.294867618974
 20
899.737283615584
 10
2051.661171099766
 20
899.7243409881987
 10
2052.020191009314
 20
899.6867492299122
 10
2052.364761750987
 20
899.6252565598457
 10
2052.688014868879
 20
899.5410911988797
 10
2052.983499015474
 20
899.4359310518722
 10
2053.245321115848
 20
899.3118739899021
 10
2053.46825804057
 20
899.1713944842743
 10
2053.647863134772
 20
899.0172949361415
 10
2053.780553041626
 20
898.8526488329737
 10
2053.863683835621
 20
898.68074162734
 10
2053.89559288851
 20
898.5050005737686
 10
2053.875647757719
 20
898.3289329005195
 10
2053.804244194379
 20
898.1560498381822
 10
2053.682805414972
 20
897.9897994220216
  0
ARC
  5
CE3
330
C60
100
AcDbEntity
  8
0
  6
Continuous
 62
     7
370
    15
100
AcDbCircle
 10
2050.666948346196
 20
898.9294593720483
 30
0.0
 40
0.7654349937705604
100
AcDbArc
 50
97.30447250265786
 51
112.1421022217026
  0
LINE
  5
CE4
330
C60
100
AcDbEntity
  8
0
  6
Continuous
 62
     7
370
    15
100
AcDbLine
 10
2049.037240303007
 20
899.0720087142143
 30
0.0
 11
2050.378452073322
 21
899.6384450067592
 31
0.0
  0
ARC
  5
CE5
330
C60
100
AcDbEntity
  8
0
  6
Continuous
 62
     7
370
    15
100
AcDbCircle
 10
2049.167349887852
 20
898.7356220971054
 30
0.0
 40
0.3606722338058231
100
AcDbArc
 50
111.1457652781248
 51
135.7311056269689
  0
LWPOLYLINE
  5
CE6
330
C60
100
AcDbEntity
  8
0
  6
Continuous
 62
     7
370
    15
100
AcDbPolyline
 90
       17
 70
   128
 43
0.0
 10
2052.022258705898
 20
897.2884978510821
 10
2051.663304126337
 20
897.2518629069741
 10
2051.297020431536
 20
897.2398967506549
 10
2050.930716950743
 20
897.25283937804
 10
2050.571698437733
 20
897.2904317261283
 10
2050.227126145457
 20
897.351923890468
 10
2049.903874578168
 20
897.436089757161
 10
2049.608390431573
 20
897.5412499041686
 10
2049.346568331199
 20
897.6653069661386
 10
2049.123631406477
 20
897.8057864717664
 10
2048.944026312275
 20
897.9598860198992
 10
2048.811334854818
 20
898.1245316173398
 10
2048.728205611426
 20
898.2964393287007
 10
2048.696295162001
 20
898.4721797924702
 10
2048.71624029279
 20
898.6482474657192
 10
2048.787645214151
 20
898.821131138877
 10
2048.909082674054
 20
898.9873809231983
  0
ARC
  5
CE7
330
C60
100
AcDbEntity
  8
0
  6
Continuous
 62
     7
370
    15
100
AcDbCircle
 10
2051.92493936447
 20
898.0477224130124
 30
0.0
 40
0.7654364700316552
100
AcDbArc
 50
277.3044868914654
 51
292.142087832874
  0
LINE
  5
CE8
330
C60
100
AcDbEntity
  8
0
  6
Continuous
 62
     7
370
    15
100
AcDbLine
 10
2053.55464778602
 20
897.9051716310056
 30
0.0
 11
2052.213436015704
 21
897.3387353384609
 31
0.0
  0
ARC
  5
CE9
330
C60
100
AcDbEntity
  8
0
  6
Continuous
 62
     7
370
    15
100
AcDbCircle
 10
2053.424537814616
 20
898.2415588335058
 30
0.0
 40
0.3606729192279607
100
AcDbArc
 50
291.1457890042556
 51
315.7310819008371
  0
LINE
  5
CEA
330
C60
100
AcDbEntity
  8
0
  6
Continuous
 62
     7
370
    15
100
AcDbLine
 10
2055.063416609787
 20
900.3359369022884
 30
0.0
 11
2055.592782606839
 21
900.0470579818077
 31
0.0
  0
LWPOLYLINE
  5
CEB
330
C60
100
AcDbEntity
  8
0
  6
Continuous
 62
     7
370
    15
100
AcDbPolyline
 90
       15
 70
   128
 43
0.0
 10
2053.413944438959
 20
899.6393124602887
 10
2053.272653448785
 20
899.736432260271
 10
2053.17980500567
 20
899.8461487316539
 10
2053.140050885502
 20
899.9629586441566
 10
2053.155387841635
 20
900.0810055469463
 10
2053.225044506591
 20
900.1943699587158
 10
2053.345530696864
 20
900.297367594217
 10
2053.510802316943
 20
900.3848331759311
 10
2053.712572735372
 20
900.4523810947706
 10
2053.940724321024
 20
900.4966242556948
 10
2054.1838172247
 20
900.5153439115359
 10
2054.429660614433
 20
900.5076017570884
 10
2054.665927737373
 20
900.4737855217893
 10
2054.880770668314
 20
900.4155911939811
 10
2055.063416609787
 20
900.3359369022884
  0
LINE
  5
CEC
330
C60
100
AcDbEntity
  8
0
  6
Continuous
 62
     7
370
    15
100
AcDbLine
 10
2053.943310436011
 20
899.3504335398082
 30
0.0
 11
2053.413944438959
 21
899.6393124602887
 31
0.0
  0
LWPOLYLINE
  5
CED
330
C60
100
AcDbEntity
  8
0
  6
Continuous
 62
     7
370
    15
100
AcDbPolyline
 90
       15
 70
   128
 43
0.0
 10
2055.592782606839
 20
900.0470579818077
 10
2055.734072898744
 20
899.9499378869247
 10
2055.826922738396
 20
899.8402220053435
 10
2055.86667600623
 20
899.7234118820149
 10
2055.851339281196
 20
899.605364853113
 10
2055.781681686873
 20
899.4920002725546
 10
2055.6611962719
 20
899.3890028899171
 10
2055.495924728855
 20
899.3015372661655
 10
2055.294154233393
 20
899.2339893893635
 10
2055.06600187244
 20
899.1897459755758
 10
2054.822909898131
 20
899.1710264885233
 10
2054.577066277299
 20
899.178768769083
 10
2054.340800006693
 20
899.2125852152083
 10
2054.125955679216
 20
899.2707789532145
 10
2053.943310436011
 20
899.3504335398082
  0
LINE
  5
CEE
330
C60
100
AcDbEntity
  8
0
  6
Continuous
 62
     7
370
    15
100
AcDbLine
 10
2061.271261502513
 20
901.6125335894946
 30
0.0
 11
2059.021456092075
 21
902.8402689595004
 31
0.0
  0
LINE
  5
CEF
330
C60
100
AcDbEntity
  8
0
  6
Continuous
 62
     7
370
    15
100
AcDbLine
 10
2063.746369128569
 20
902.6578500849074
 30
0.0
 11
2061.271261502513
 21
901.6125335894946
 31
0.0
  0
LINE
  5
CF0
330
C60
100
AcDbEntity
  8
0
  6
Continuous
 62
     7
370
    15
100
AcDbLine
 10
2061.496563718131
 20
903.8855854549131
 30
0.0
 11
2063.746369128569
 21
902.6578500849074
 31
0.0
  0
LINE
  5
CF1
330
C60
100
AcDbEntity
  8
0
  6
Continuous
 62
     7
370
    15
100
AcDbLine
 10
2059.021456092075
 20
902.8402689595004
 30
0.0
 11
2061.496563718131
 21
903.8855854549131
 31
0.0
  0
ARC
  5
CF2
330
C60
100
AcDbEntity
  8
0
  6
Continuous
 62
     7
370
    15
100
AcDbCircle
 10
2055.582187608845
 20
901.4448167191593
 30
0.0
 40
0.3606676034857262
100
AcDbArc
 50
111.1454759314322
 51
135.7311635866914
  0
LWPOLYLINE
  5
CF3
330
C60
100
AcDbEntity
  8
0
  6
Continuous
 62
     7
370
    15
100
AcDbPolyline
 90
       17
 70
   128
 43
0.0
 10
2058.437100065607
 20
899.9976886645118
 10
2058.07814509591
 20
899.9610532573532
 10
2057.711861555174
 20
899.9490870169591
 10
2057.345557414628
 20
899.9620293284246
 10
2056.98653820335
 20
899.9996213816121
 10
2056.641965757008
 20
900.0611136300264
 10
2056.318713337385
 20
900.1452792858934
 10
2056.023228882658
 20
900.2504396010506
 10
2055.761406628219
 20
900.3744967470955
 10
2055.53846954943
 20
900.5149763367981
 10
2055.358864147097
 20
900.6690760530805
 10
2055.226173233843
 20
900.8337220294968
 10
2055.143043682319
 20
901.0056299090075
 10
2055.111133931162
 20
901.1813706676779
 10
2055.131079760221
 20
901.3574386358278
 10
2055.202484989713
 20
901.5303221408359
 10
2055.323923456016
 20
901.6965720519088
  0
ARC
  5
CF4
330
C60
100
AcDbEntity
  8
0
  6
Continuous
 62
     7
370
    15
100
AcDbCircle
 10
2058.3397798539
 20
900.756912913536
 30
0.0
 40
0.7654362703146568
100
AcDbArc
 50
277.3045544843758
 51
292.1421424578499
  0
LINE
  5
CF5
330
C60
100
AcDbEntity
  8
0
  6
Continuous
 62
     7
370
    15
100
AcDbLine
 10
2059.96948119516
 20
900.614359347656
 30
0.0
 11
2058.628277105797
 21
900.0479262990216
 31
0.0
  0
ARC
  5
CF6
330
C60
100
AcDbEntity
  8
0
  6
Continuous
 62
     7
370
    15
100
AcDbCircle
 10
2059.839370851135
 20
900.9507483749599
 30
0.0
 40
0.3606747555799586
100
AcDbArc
 50
291.1457396389262
 51
315.7309288025353
  0
LWPOLYLINE
  5
CF7
330
C60
100
AcDbEntity
  8
0
  6
Continuous
 62
     7
370
    15
100
AcDbPolyline
 90
       17
 70
   128
 43
0.0
 10
2056.984462484136
 20
902.397870378938
 10
2057.343417376801
 20
902.4345058281339
 10
2057.709700103719
 20
902.446471836683
 10
2058.07600498105
 20
902.4335297990999
 10
2058.435024192327
 20
902.3959377459124
 10
2058.77959663867
 20
902.3344454974981
 10
2059.102849212359
 20
902.2502797575564
 10
2059.398333667085
 20
902.1451194423992
 10
2059.660155921525
 20
902.0210622963542
 10
2059.883093000313
 20
901.8805827066517
 10
2060.062698402646
 20
901.7264829903693
 10
2060.195389161835
 20
901.5618370980275
 10
2060.278518713358
 20
901.389929218517
 10
2060.310428464516
 20
901.2141884598465
 10
2060.290481898672
 20
901.0381202178145
 10
2060.219077482998
 20
900.865236944651
 10
2060.097639093728
 20
900.6989869915409
  0
ARC
  5
CF8
330
C60
100
AcDbEntity
  8
0
  6
Continuous
 62
     7
370
    15
100
AcDbCircle
 10
2057.081778704937
 20
901.6386618349374
 30
0.0
 40
0.7654201853325384
100
AcDbArc
 50
97.30440763861311
 51
112.1423067633312
  0
LINE
  5
CF9
330
C60
100
AcDbEntity
  8
0
  6
Continuous
 62
     7
370
    15
100
AcDbLine
 10
2055.4520813931
 20
901.7811996747751
 30
0.0
 11
2056.793285482463
 21
902.3476327234096
 31
0.0
  0
ARC
  5
CFA
330
C60
100
AcDbEntity
  8
0
  6
Continuous
 62
     7
370
    15
100
AcDbCircle
 10
2047.585889919879
 20
898.1923075641331
 30
0.0
 40
2.176585258531809
100
AcDbArc
 50
256.3449675840264
 51
275.5217758726293
  0
LINE
  5
CFB
330
C60
100
AcDbEntity
  8
0
  6
Continuous
 62
     7
370
    15
100
AcDbLine
 10
2047.903386587311
 20
895.9668549223144
 30
0.0
 11
2047.795329782859
 21
896.025822315752
 31
0.0
  0
LINE
  5
CFC
330
C60
100
AcDbEntity
  8
0
  6
Continuous
 62
     7
370
    15
100
AcDbLine
 10
2046.908924123975
 20
896.0200121632468
 30
0.0
 11
2047.072051314368
 21
896.077244143064
 31
0.0
  0
ARC
  5
CFD
330
C60
100
AcDbEntity
  8
0
  6
Continuous
 62
     7
370
    15
100
AcDbCircle
 10
2041.557512822278
 20
890.3279684401024
 30
0.0
 40
0.1219125041764737
100
AcDbArc
 50
175.0018863782207
 51
236.4927847289377
  0
LINE
  5
CFE
330
C60
100
AcDbEntity
  8
0
  6
Continuous
 62
     7
370
    15
100
AcDbLine
 10
2046.584368257667
 20
896.6706900116465
 30
0.0
 11
2047.162126776831
 21
896.3554029357023
 31
0.0
  0
ARC
  5
CFF
330
C60
100
AcDbEntity
  8
0
  6
Continuous
 62
     7
370
    15
100
AcDbCircle
 10
2047.403632080653
 20
894.6059547646584
 30
0.0
 40
1.766038990210283
100
AcDbArc
 50
59.75040575973757
 51
97.85980880876296
  0
ARC
  5
D00
330
C60
100
AcDbEntity
  8
0
  6
Continuous
 62
     7
370
    15
100
AcDbCircle
 10
2057.557155768714
 20
886.5105719661796
 30
0.0
 40
11.75818851860938
100
AcDbArc
 50
171.4477996236953
 51
175.6092908971226
  0
LINE
  5
D01
330
C60
100
AcDbEntity
  8
0
  6
Continuous
 62
     7
370
    15
100
AcDbLine
 10
2046.020421923506
 20
884.5854796593391
 30
0.0
 11
2046.384361044072
 21
884.3868754028223
 31
0.0
  0
ARC
  5
D02
330
C60
100
AcDbEntity
  8
0
  6
Continuous
 62
     7
370
    15
100
AcDbCircle
 10
2054.242968212595
 20
886.4719553358456
 30
0.0
 40
8.436175552598646
100
AcDbArc
 50
184.2829362823883
 51
192.9215898608286
  0
LINE
  5
D03
330
C60
100
AcDbEntity
  8
0
  6
Continuous
 62
     7
370
    15
100
AcDbLine
 10
2042.654155648157
 20
887.5752004105923
 30
0.0
 11
2045.830351360855
 21
885.8419270348388
 31
0.0
  0
ARC
  5
D04
330
C60
100
AcDbEntity
  8
0
  6
Continuous
 62
     7
370
    15
100
AcDbCircle
 10
2051.0667724999
 20
888.2052287115996
 30
0.0
 40
8.436175552600854
100
AcDbArc
 50
184.2829362823883
 51
192.9215898608286
  0
LINE
  5
D05
330
C60
100
AcDbEntity
  8
0
  6
Continuous
 62
     7
370
    15
100
AcDbLine
 10
2042.480287107094
 20
886.5173572824138
 30
0.0
 11
2042.844226210809
 21
886.3187530350925
 31
0.0
  0
ARC
  5
D06
330
C60
100
AcDbEntity
  8
0
  6
Continuous
 62
     7
370
    15
100
AcDbCircle
 10
2051.867425513001
 20
888.568955318181
 30
0.0
 40
9.608715936691163
100
AcDbArc
 50
172.843053023195
 51
192.3283777882256
  0
ARC
  5
D07
330
C60
100
AcDbEntity
  8
0
  6
Continuous
 62
     7
370
    15
100
AcDbCircle
 10
2054.161363912644
 20
888.264614910571
 30
0.0
 40
11.53764744547658
100
AcDbArc
 50
173.5161672867417
 51
175.6286429186234
  0
LINE
  5
D08
330
C60
100
AcDbEntity
  8
0
  6
Continuous
 62
     7
370
    15
100
AcDbLine
 10
2045.833475421329
 20
887.4107476998547
 30
0.0
 11
2042.657279708632
 21
889.1440210756082
 31
0.0
  0
LINE
  5
D09
330
C60
100
AcDbEntity
  8
0
  6
Continuous
 62
     7
370
    15
100
AcDbLine
 10
2048.464429935053
 20
896.2038045839319
 30
0.0
 11
2048.401117067031
 21
896.2383548819653
 31
0.0
  0
LINE
  5
D0A
330
C60
100
AcDbEntity
  8
0
  6
Continuous
 62
     7
370
    15
100
AcDbLine
 10
2048.397788613935
 20
896.1756559618725
 30
0.0
 11
2048.401117067031
 21
896.2383548819653
 31
0.0
  0
LINE
  5
D0B
330
C60
100
AcDbEntity
  8
0
  6
Continuous
 62
     7
370
    15
100
AcDbLine
 10
2046.505718556745
 20
897.2726877982866
 30
0.0
 11
2047.338676051334
 21
897.5649094573499
 31
0.0
  0
LINE
  5
D0C
330
C60
100
AcDbEntity
  8
0
  6
Continuous
 62
     7
370
    15
100
AcDbLine
 10
2049.235861570544
 20
896.5296013571073
 30
0.0
 11
2047.338676051334
 21
897.5649094573499
 31
0.0
  0
LWPOLYLINE
  5
D0D
330
C60
100
AcDbEntity
  8
0
  6
Continuous
 62
     7
370
    15
100
AcDbPolyline
 90
       11
 70
   128
 43
0.0
 10
2047.190979397638
 20
896.8987359142081
 10
2047.416790366774
 20
896.9086291062877
 10
2047.646652133051
 20
896.8948618658176
 10
2047.86837307735
 20
896.8581428083256
 10
2048.070192317688
 20
896.8004338417914
 10
2048.241410221748
 20
896.7247846641274
 10
2048.372941425693
 20
896.6352214254589
 10
2048.457814558295
 20
896.5364802541564
 10
2048.491524192407
 20
896.4338089651585
 10
2048.472284822683
 20
896.3326380137459
 10
2048.401117067031
 20
896.2383548819653
  0
LINE
  5
D0E
330
C60
100
AcDbEntity
  8
0
  6
Continuous
 62
     7
370
    15
100
AcDbLine
 10
2046.505718556745
 20
897.2726877982866
 30
0.0
 11
2047.190979397638
 21
896.8987359142081
 31
0.0
  0
LINE
  5
D0F
330
C60
100
AcDbEntity
  8
0
  6
Continuous
 62
     7
370
    15
100
AcDbLine
 10
2046.542685317316
 20
896.3661230635446
 30
0.0
 11
2046.379558126923
 21
896.3088910837276
 31
0.0
  0
LINE
  5
D10
330
C60
100
AcDbEntity
  8
0
  6
Continuous
 62
     7
370
    15
100
AcDbLine
 10
2046.542685317316
 20
896.3661230635446
 30
0.0
 11
2046.535138030327
 21
896.2239929164645
 31
0.0
  0
LINE
  5
D11
330
C60
100
AcDbEntity
  8
0
  6
Continuous
 62
     7
370
    15
100
AcDbLine
 10
2046.585192267531
 20
896.68620326392
 30
0.0
 11
2045.925178955511
 21
897.0463773856831
 31
0.0
  0
ARC
  5
D12
330
C60
100
AcDbEntity
  8
0
  6
Continuous
 62
     7
370
    15
100
AcDbCircle
 10
2046.724774772381
 20
896.5048039950461
 30
0.0
 40
0.2288863700792472
100
AcDbArc
 50
127.5774423784529
 51
217.2932176505224
  0
ARC
  5
D13
330
C60
100
AcDbEntity
  8
0
  6
Continuous
 62
     7
370
    15
100
AcDbCircle
 10
2043.979854554925
 20
889.0329346968796
 30
0.0
 40
1.327231859016153
100
AcDbArc
 50
157.6524863646003
 51
175.1988528867884
  0
LINE
  5
D14
330
C60
100
AcDbEntity
  8
0
  6
Continuous
 62
     7
370
    15
100
AcDbLine
 10
2047.423260761123
 20
897.5187518221963
 30
0.0
 11
2047.42358026997
 21
897.6792007269271
 31
0.0
  0
LINE
  5
D15
330
C60
100
AcDbEntity
  8
0
  6
Continuous
 62
     7
370
    15
100
AcDbLine
 10
2047.622475482338
 20
897.7632046374157
 30
0.0
 11
2047.622999473203
 21
898.026339011356
 31
0.0
  0
LINE
  5
D16
330
C60
100
AcDbEntity
  8
0
  6
Continuous
 62
     7
370
    15
100
AcDbLine
 10
2047.190979397638
 20
896.8987359142081
 30
0.0
 11
2047.162126776831
 21
896.3554029357023
 31
0.0
  0
LINE
  5
D17
330
C60
100
AcDbEntity
  8
0
  6
Continuous
 62
     7
370
    15
100
AcDbLine
 10
2046.559929477613
 20
896.2104653199338
 30
0.0
 11
2046.585192267531
 21
896.68620326392
 31
0.0
  0
LINE
  5
D18
330
C60
100
AcDbEntity
  8
0
  6
Continuous
 62
     7
370
    15
100
AcDbLine
 10
2045.419488672844
 20
896.8328133983041
 30
0.0
 11
2047.622475482338
 21
897.7632046374157
 31
0.0
  0
LINE
  5
D19
330
C60
100
AcDbEntity
  8
0
  6
Continuous
 62
     7
370
    15
100
AcDbLine
 10
2045.475491385182
 20
884.1568871266044
 30
0.0
 11
2041.571417448203
 21
886.2873690061958
 31
0.0
  0
LINE
  5
D1A
330
C60
100
AcDbEntity
  8
0
  6
Continuous
 62
     7
370
    15
100
AcDbLine
 10
2045.33173759136
 20
883.9210653693541
 30
0.0
 11
2041.427663654382
 21
886.0515472489458
 31
0.0
  0
ARC
  5
D1B
330
C60
100
AcDbEntity
  8
0
  6
Continuous
 62
     7
370
    15
100
AcDbCircle
 10
2041.703170097799
 20
886.0453282754917
 30
0.0
 40
0.275576624544388
100
AcDbArc
 50
118.56125682963
 51
178.7068889330406
  0
LWPOLYLINE
  5
D1C
330
C60
100
AcDbEntity
  8
0
  6
Continuous
 62
     7
370
    15
100
AcDbPolyline
 90
        9
 70
   128
 43
0.0
 10
2045.217620812114
 20
876.5125981606612
 10
2045.21992073531
 20
876.5340705608155
 10
2045.226573341142
 20
876.5516171766471
 10
2045.237125283114
 20
876.5640461261234
 10
2045.250857454107
 20
876.5705068197261
 10
2045.266834015838
 20
876.5705547950364
 10
2045.28396622489
 20
876.5642019345634
 10
2045.301086513525
 20
876.5518629549662
 10
2045.317028198923
 20
876.5343969572935
  0
LINE
  5
D1D
330
C60
100
AcDbEntity
  8
0
  6
Continuous
 62
     7
370
    15
100
AcDbLine
 10
2045.216398162425
 20
875.8986157764454
 30
0.0
 11
2045.217620812114
 21
876.5125981606612
 31
0.0
  0
LINE
  5
D1E
330
C60
100
AcDbEntity
  8
0
  6
Continuous
 62
     7
370
    15
100
AcDbLine
 10
2041.510836293795
 20
877.9207681593819
 30
0.0
 11
2045.216398162425
 21
875.8986157764454
 31
0.0
  0
LINE
  5
D1F
330
C60
100
AcDbEntity
  8
0
  6
Continuous
 62
     7
370
    15
100
AcDbLine
 10
2041.512233611443
 20
878.6224641799323
 30
0.0
 11
2041.510836293795
 21
877.9207681593819
 31
0.0
  0
LINE
  5
D20
330
C60
100
AcDbEntity
  8
0
  6
Continuous
 62
     7
370
    15
100
AcDbLine
 10
2041.512233611443
 20
878.6224641799323
 30
0.0
 11
2043.365014601126
 21
877.6113879582499
 31
0.0
  0
LINE
  5
D21
330
C60
100
AcDbEntity
  8
0
  6
Continuous
 62
     7
370
    15
100
AcDbLine
 10
2043.365014601126
 20
877.6113879582499
 30
0.0
 11
2043.365145595589
 21
877.6771699179688
 31
0.0
  0
LINE
  5
D22
330
C60
100
AcDbEntity
  8
0
  6
Continuous
 62
     7
370
    15
100
AcDbLine
 10
2043.365145595589
 20
877.6771699179688
 30
0.0
 11
2041.413108654783
 21
878.7424108426574
 31
0.0
  0
LINE
  5
D23
330
C60
100
AcDbEntity
  8
0
  6
Continuous
 62
     7
370
    15
100
AcDbLine
 10
2041.427663654382
 20
886.0515472489458
 30
0.0
 11
2041.413108654783
 21
878.7424108426574
 31
0.0
  0
LINE
  5
D24
330
C60
100
AcDbEntity
  8
0
  6
Continuous
 62
     7
370
    15
100
AcDbLine
 10
2045.932888446498
 20
884.3734232167324
 30
0.0
 11
2042.02881450952
 21
886.503905096324
 31
0.0
  0
LINE
  5
D25
330
C60
100
AcDbEntity
  8
0
  6
Continuous
 62
     7
370
    15
100
AcDbLine
 10
2042.02881450952
 20
886.503905096324
 30
0.0
 11
2041.571417448203
 21
886.2873690061958
 31
0.0
  0
ARC
  5
D26
330
C60
100
AcDbEntity
  8
0
  6
Continuous
 62
     7
370
    15
100
AcDbCircle
 10
2043.258796896395
 20
887.5879364167911
 30
0.0
 40
0.604775367326414
100
AcDbArc
 50
181.206684977196
 51
230.0559363728177
  0
ARC
  5
D27
330
C60
100
AcDbEntity
  8
0
  6
Continuous
 62
     7
370
    15
100
AcDbCircle
 10
2042.082760720745
 20
886.4074237839572
 30
0.0
 40
0.1105388499202612
100
AcDbArc
 50
64.23145112393406
 51
119.2111434037912
  0
LINE
  5
D28
330
C60
100
AcDbEntity
  8
0
  6
Continuous
 62
     7
370
    15
100
AcDbLine
 10
2049.978795795716
 20
897.4140056612682
 30
0.0
 11
2050.374355119341
 21
897.5810629162925
 31
0.0
  0
ARC
  5
D29
330
C60
100
AcDbEntity
  8
0
  6
Continuous
 62
     7
370
    15
100
AcDbCircle
 10
2050.662851392214
 20
896.8720772815833
 30
0.0
 40
0.7654349937686467
100
AcDbArc
 50
97.30447250264491
 51
112.1421022217292
  0
ARC
  5
D2A
330
C60
100
AcDbEntity
  8
0
  6
Continuous
 62
     7
370
    15
100
AcDbCircle
 10
2051.281522937456
 20
892.5906605225611
 30
0.0
 40
5.091236865343149
100
AcDbArc
 50
74.8862159621963
 51
98.08441542795693
  0
LINE
  5
D2B
330
C60
100
AcDbEntity
  8
0
  6
Continuous
 62
     7
370
    15
100
AcDbLine
 10
2046.477690950038
 20
896.7448712879182
 30
0.0
 11
2046.505718556745
 21
897.2726877982866
 31
0.0
  0
ARC
  5
D2C
330
C60
100
AcDbEntity
  8
0
  6
Continuous
 62
     7
370
    15
100
AcDbCircle
 10
2045.823808622177
 20
884.5551001220284
 30
0.0
 40
0.1989464916680276
100
AcDbArc
 50
315.1291800938799
 51
8.783546981687164
  0
LINE
  5
D2D
330
C60
100
AcDbEntity
  8
0
  6
Continuous
 62
     7
370
    15
100
AcDbLine
 10
2045.937087701631
 20
884.9936993939506
 30
0.0
 11
2043.154833592049
 21
886.5119959376555
 31
0.0
  0
ARC
  5
D2E
330
C60
100
AcDbEntity
  8
0
  6
Continuous
 62
     7
370
    15
100
AcDbCircle
 10
2042.35440401886
 20
886.5124511332306
 30
0.0
 40
0.8004297026217587
100
AcDbArc
 50
359.9674165181196
 51
49.85061329681277
  0
LINE
  5
D2F
330
C60
100
AcDbEntity
  8
0
  6
Continuous
 62
     7
370
    15
100
AcDbLine
 10
2042.805162254539
 20
886.1389766965984
 30
0.0
 11
2043.004410309917
 21
886.2230928254687
 31
0.0
  0
ARC
  5
D30
330
C60
100
AcDbEntity
  8
0
  6
Continuous
 62
     7
370
    15
100
AcDbCircle
 10
2042.881475253573
 20
886.4671945414334
 30
0.0
 40
0.2733105848942761
100
AcDbArc
 50
296.7308423814081
 51
358.8813903049843
  0
LINE
  5
D31
330
C60
100
AcDbEntity
  8
0
  6
Continuous
 62
     7
370
    15
100
AcDbLine
 10
2043.154733752041
 20
886.4618589224594
 30
0.0
 11
2043.154833592049
 21
886.5119959376555
 31
0.0
  0
LINE
  5
D32
330
C60
100
AcDbEntity
  8
0
  6
Continuous
 62
     7
370
    15
100
AcDbLine
 10
2050.565532429146
 20
897.6313004036713
 30
0.0
 11
2050.569629383128
 21
899.688682494138
 31
0.0
  0
ARC
  5
D33
330
C60
100
AcDbEntity
  8
0
  6
Continuous
 62
     7
370
    15
100
AcDbCircle
 10
2042.647612909479
 20
886.2883734977819
 30
0.0
 40
0.1989464916681667
100
AcDbArc
 50
315.129180093903
 51
8.783546981674287
  0
LINE
  5
D34
330
C60
100
AcDbEntity
  8
0
  6
Continuous
 62
     7
370
    15
100
AcDbLine
 10
2050.374355119341
 20
897.5810629162925
 30
0.0
 11
2050.378452073322
 21
899.6384450067592
 31
0.0
  0
ARC
  5
D35
330
C60
100
AcDbEntity
  8
0
  6
Continuous
 62
     7
370
    15
100
AcDbCircle
 10
2088.918975396478
 20
885.5403727768594
 30
0.0
 40
0.6806861271871301
100
AcDbArc
 50
296.6513228790703
 51
348.9576611594275
  0
LINE
  5
D36
330
C60
100
AcDbEntity
  8
0
  6
Continuous
 62
     7
370
    15
100
AcDbLine
 10
2091.491788490046
 20
894.4524426772021
 30
0.0
 11
2089.587059244026
 21
885.4099980232049
 31
0.0
  0
LWPOLYLINE
  5
D37
330
C60
100
AcDbEntity
  8
0
  6
Continuous
 62
     7
370
    15
100
AcDbPolyline
 90
        9
 70
   128
 43
0.0
 10
2091.130779762925
 20
894.851575594348
 10
2091.215884258269
 20
894.8760715898391
 10
2091.296494945501
 20
894.8763712311036
 10
2091.368400602691
 20
894.8524654985474
 10
2091.427850193248
 20
894.8056040431158
 10
2091.471731336355
 20
894.7382269095138
 10
2091.497754285473
 20
894.6538594082479
 10
2091.504557570631
 20
894.5569086081166
 10
2091.491788490046
 20
894.4524426772021
  0
LINE
  5
D38
330
C60
100
AcDbEntity
  8
0
  6
Continuous
 62
     7
370
    15
100
AcDbLine
 10
2085.593006490201
 20
892.5127982058848
 30
0.0
 11
2091.130779762925
 21
894.851575594348
 31
0.0
  0
ARC
  5
D39
330
C60
100
AcDbEntity
  8
0
  6
Continuous
 62
     7
370
    15
100
AcDbCircle
 10
2085.900420513702
 20
891.9025559336933
 30
0.0
 40
0.6833000897222733
100
AcDbArc
 50
116.7370159651862
 51
178.8800091273206
  0
LINE
  5
D3A
330
C60
100
AcDbEntity
  8
0
  6
Continuous
 62
     7
370
    15
100
AcDbLine
 10
2085.204535476092
 20
885.5298278213071
 30
0.0
 11
2085.217250966309
 21
891.9159119109444
 31
0.0
  0
ARC
  5
D3B
330
C60
100
AcDbEntity
  8
0
  6
Continuous
 62
     7
370
    15
100
AcDbCircle
 10
2080.208101659561
 20
885.6051646250776
 30
0.0
 40
4.997001752748133
100
AcDbArc
 50
337.9536735777838
 51
359.1361531075021
  0
LWPOLYLINE
  5
D3C
330
C60
100
AcDbEntity
  8
0
  6
Continuous
 62
     7
370
    15
100
AcDbPolyline
 90
        9
 70
   128
 43
0.0
 10
2085.166961735858
 20
883.2184633112239
 10
2085.070918930822
 20
883.1925341498667
 10
2084.981348204411
 20
883.1976309730416
 10
2084.904234987315
 20
883.2334151374958
 10
2084.84472618457
 20
883.2974896466023
 10
2084.806801217487
 20
883.3855736402153
 10
2084.792989346494
 20
883.4917943739533
 10
2084.804214117891
 20
883.6090524756482
 10
2084.839725961609
 20
883.7295093151523
  0
LINE
  5
D3D
330
C60
100
AcDbEntity
  8
0
  6
Continuous
 62
     7
370
    15
100
AcDbLine
 10
2089.224303863337
 20
884.9320076471304
 30
0.0
 11
2085.166961735858
 21
883.2184633112239
 31
0.0
  0
ARC
  5
D3E
330
C60
100
AcDbEntity
  8
0
  6
Continuous
 62
     7
370
    15
100
AcDbCircle
 10
2049.637521838589
 20
868.4819804524272
 30
0.0
 40
0.248605601008812
100
AcDbArc
 50
190.9063926512534
 51
298.165175258575
  0
LINE
  5
D3F
330
C60
100
AcDbEntity
  8
0
  6
Continuous
 62
     7
370
    15
100
AcDbLine
 10
2053.812209542741
 20
869.9763564500901
 30
0.0
 11
2049.754867415261
 21
868.2628121141839
 31
0.0
  0
ARC
  5
D40
330
C60
100
AcDbEntity
  8
0
  6
Continuous
 62
     7
370
    15
100
AcDbCircle
 10
2053.551116126658
 20
870.5488130965274
 30
0.0
 40
0.629187081854021
100
AcDbArc
 50
294.517392497153
 51
20.08644285297618
  0
ARC
  5
D41
330
C60
100
AcDbEntity
  8
0
  6
Continuous
 62
     7
370
    15
100
AcDbCircle
 10
2056.736971381963
 20
872.1771436195494
 30
0.0
 40
2.954342113895952
100
AcDbArc
 50
178.395828716109
 51
208.5563740742803
  0
LINE
  5
D42
330
C60
100
AcDbEntity
  8
0
  6
Continuous
 62
     7
370
    15
100
AcDbLine
 10
2053.796504021698
 20
878.6459333719813
 30
0.0
 11
2053.783787134944
 21
872.259848692542
 31
0.0
  0
ARC
  5
D43
330
C60
100
AcDbEntity
  8
0
  6
Continuous
 62
     7
370
    15
100
AcDbCircle
 10
2053.536727409392
 20
878.6889288661848
 30
0.0
 40
0.2633106545942657
100
AcDbArc
 50
350.6021993719345
 51
115.7105785425545
  0
LINE
  5
D44
330
C60
100
AcDbEntity
  8
0
  6
Continuous
 62
     7
370
    15
100
AcDbLine
 10
2047.88472187865
 20
876.5873929817981
 30
0.0
 11
2053.42249654791
 21
878.9261709600632
 31
0.0
  0
ARC
  5
D45
330
C60
100
AcDbEntity
  8
0
  6
Continuous
 62
     7
370
    15
100
AcDbCircle
 10
2048.176255901834
 20
875.9911393558537
 30
0.0
 40
0.663709630128987
100
AcDbArc
 50
116.0559964801762
 51
189.4295538736067
  0
LINE
  5
D46
330
C60
100
AcDbEntity
  8
0
  6
Continuous
 62
     7
370
    15
100
AcDbLine
 10
2047.521514459052
 20
875.8824006036574
 30
0.0
 11
2049.393406649231
 21
868.4349430292638
 31
0.0
  0
ARC
  5
D47
330
C60
100
AcDbEntity
  8
0
  6
Continuous
 62
     7
370
    15
100
AcDbCircle
 10
2056.439563425058
 20
872.4599022690245
 30
0.0
 40
1.909581587624882
100
AcDbArc
 50
176.4995309332631
 51
224.9556409996178
  0
LWPOLYLINE
  5
D48
330
C60
100
AcDbEntity
  8
0
  6
Continuous
 62
     7
370
    15
100
AcDbPolyline
 90
        9
 70
   128
 43
0.0
 10
2055.088240340381
 20
871.1106699833843
 10
2055.151002007301
 20
871.0719588967432
 10
2055.224653490054
 20
871.0558750635554
 10
2055.305488900794
 20
871.0632170735811
 10
2055.38944142457
 20
871.0936190024913
 10
2055.472289837621
 20
871.145552746708
 10
2055.549867974915
 20
871.2164099586221
 10
2055.61827148268
 20
871.3026220125952
 10
2055.674060537507
 20
871.3998566223301
  0
LINE
  5
D49
330
C60
100
AcDbEntity
  8
0
  6
Continuous
 62
     7
370
    15
100
AcDbLine
 10
2055.852164921166
 20
871.7713941039599
 30
0.0
 11
2055.674060537507
 21
871.3998566223301
 31
0.0
  0
ARC
  5
D4A
330
C60
100
AcDbEntity
  8
0
  6
Continuous
 62
     7
370
    15
100
AcDbCircle
 10
2055.448309396467
 20
872.0203798030935
 30
0.0
 40
0.4744398414998078
100
AcDbArc
 50
328.3452664447986
 51
35.16687087749505
  0
ARC
  5
D4B
330
C60
100
AcDbEntity
  8
0
  6
Continuous
 62
     7
370
    15
100
AcDbCircle
 10
2056.596597174966
 20
872.9656564331673
 30
0.0
 40
1.014831612620855
100
AcDbArc
 50
176.9415456309265
 51
221.4676395830208
  0
LINE
  5
D4C
330
C60
100
AcDbEntity
  8
0
  6
Continuous
 62
     7
370
    15
100
AcDbLine
 10
2055.59592795414
 20
879.4058872014714
 30
0.0
 11
2055.583211067386
 21
873.0198025220323
 31
0.0
  0
ARC
  5
D4D
330
C60
100
AcDbEntity
  8
0
  6
Continuous
 62
     7
370
    15
100
AcDbCircle
 10
2055.336149379788
 20
879.4488800771112
 30
0.0
 40
0.2633121627425401
100
AcDbArc
 50
350.6028312277746
 51
115.7099466867157
  0
LINE
  5
D4E
330
C60
100
AcDbEntity
  8
0
  6
Continuous
 62
     7
370
    15
100
AcDbLine
 10
2055.221920480352
 20
879.6861247895535
 30
0.0
 11
2054.922015547573
 21
879.559458889706
 31
0.0
  0
ARC
  5
D4F
330
C60
100
AcDbEntity
  8
0
  6
Continuous
 62
     7
370
    15
100
AcDbCircle
 10
2055.229421726265
 20
878.9492230099227
 30
0.0
 40
0.6832908514482669
100
AcDbArc
 50
116.7366696426724
 51
178.8799325524899
  0
LINE
  5
D50
330
C60
100
AcDbEntity
  8
0
  6
Continuous
 62
     7
370
    15
100
AcDbLine
 10
2054.546261433231
 20
878.962579719632
 30
0.0
 11
2054.533544546477
 21
872.5764950401929
 31
0.0
  0
ARC
  5
D51
330
C60
100
AcDbEntity
  8
0
  6
Continuous
 62
     7
370
    15
100
AcDbCircle
 10
2081.38191085835
 20
884.8152302253421
 30
0.0
 40
2.023709020812702
100
AcDbArc
 50
330.8230813778444
 51
358.7157549125653
  0
ARC
  5
D52
330
C60
100
AcDbEntity
  8
0
  6
Continuous
 62
     7
370
    15
100
AcDbCircle
 10
2083.573987698029
 20
883.5456661024284
 30
0.0
 40
0.5107116668500174
100
AcDbArc
 50
146.3506436002895
 51
209.7817014893624
  0
LINE
  5
D53
330
C60
100
AcDbEntity
  8
0
  6
Continuous
 62
     7
370
    15
100
AcDbLine
 10
2083.307650570946
 20
883.0703986162768
 30
0.0
 11
2083.130728720268
 21
883.291997252763
 31
0.0
  0
LWPOLYLINE
  5
D54
330
C60
100
AcDbEntity
  8
0
  6
Continuous
 62
     7
370
    15
100
AcDbPolyline
 90
        9
 70
   128
 43
0.0
 10
2083.893305643137
 20
883.2759631590951
 10
2083.830282620869
 20
883.1841292065657
 10
2083.756443040166
 20
883.105755216807
 10
2083.675502210688
 20
883.0447739867905
 10
2083.59152814539
 20
883.0042551881616
 10
2083.508747272698
 20
882.9862384289381
 10
2083.431322374123
 20
882.9916329399473
 10
2083.363147358388
 20
883.0201635492707
 10
2083.307650570946
 20
883.0703986162768
  0
ARC
  5
D55
330
C60
100
AcDbEntity
  8
0
  6
Continuous
 62
     7
370
    15
100
AcDbCircle
 10
2080.50256375287
 20
885.3086899849818
 30
0.0
 40
3.953366782261221
100
AcDbArc
 50
329.0575978574594
 51
358.6156607369599
  0
LINE
  5
D56
330
C60
100
AcDbEntity
  8
0
  6
Continuous
 62
     7
370
    15
100
AcDbLine
 10
2084.467493554775
 20
891.5992655632937
 30
0.0
 11
2084.454776668022
 21
885.2131808838544
 31
0.0
  0
ARC
  5
D57
330
C60
100
AcDbEntity
  8
0
  6
Continuous
 62
     7
370
    15
100
AcDbCircle
 10
2084.207720201506
 20
891.6422598099952
 30
0.0
 40
0.2633072355979488
100
AcDbArc
 50
350.6023513869222
 51
115.7113897222058
  0
LINE
  5
D58
330
C60
100
AcDbEntity
  8
0
  6
Continuous
 62
     7
370
    15
100
AcDbLine
 10
2084.093487464511
 20
891.879497206113
 30
0.0
 11
2083.79358674737
 21
891.7528461458003
 31
0.0
  0
ARC
  5
D59
330
C60
100
AcDbEntity
  8
0
  6
Continuous
 62
     7
370
    15
100
AcDbCircle
 10
2084.100998388763
 20
891.1426022027811
 30
0.0
 40
0.6833005102119289
100
AcDbArc
 50
116.7367745471567
 51
178.8799686188892
  0
LINE
  5
D5A
330
C60
100
AcDbEntity
  8
0
  6
Continuous
 62
     7
370
    15
100
AcDbLine
 10
2083.417828430404
 20
891.1559586712561
 30
0.0
 11
2083.405111543649
 21
884.7698739918168
 31
0.0
  0
LINE
  5
D5B
330
C60
100
AcDbEntity
  8
0
  6
Continuous
 62
     7
370
    15
100
AcDbLine
 10
2093.80203373281
 20
897.0111480863302
 30
0.0
 11
2093.800851321037
 21
896.4173721216905
 31
0.0
  0
ARC
  5
D5C
330
C60
100
AcDbEntity
  8
0
  6
Continuous
 62
     7
370
    15
100
AcDbCircle
 10
2093.117682585774
 20
896.4307274714258
 30
0.0
 40
0.6832992654825551
100
AcDbArc
 50
296.7371056520503
 51
358.8800604044418
  0
LINE
  5
D5D
330
C60
100
AcDbEntity
  8
0
  6
Continuous
 62
     7
370
    15
100
AcDbLine
 10
2093.425097193682
 20
895.8204864165519
 30
0.0
 11
2092.838361733352
 21
895.5726894122239
 31
0.0
  0
ARC
  5
D5E
330
C60
100
AcDbEntity
  8
0
  6
Continuous
 62
     7
370
    15
100
AcDbCircle
 10
2093.143666926144
 20
894.9643437095774
 30
0.0
 40
0.6806583244727512
100
AcDbArc
 50
116.6503054270769
 51
168.9594310812714
  0
LINE
  5
D5F
330
C60
100
AcDbEntity
  8
0
  6
Continuous
 62
     7
370
    15
100
AcDbLine
 10
2092.47560633965
 20
895.0946925010848
 30
0.0
 11
2091.263163528676
 21
889.3384295384498
 31
0.0
  0
LWPOLYLINE
  5
D60
330
C60
100
AcDbEntity
  8
0
  6
Continuous
 62
     7
370
    15
100
AcDbPolyline
 90
        9
 70
   128
 43
0.0
 10
2091.37146754465
 20
889.2186909066145
 10
2091.345937314578
 20
889.211343233315
 10
2091.321752706666
 20
889.211250137108
 10
2091.300180735407
 20
889.2184243529403
 10
2091.282348084891
 20
889.2324798122142
 10
2091.269182623427
 20
889.2526918269467
 10
2091.261374339553
 20
889.2780001805117
 10
2091.259333641121
 20
889.3070894595503
 10
2091.263163528676
 20
889.3384295384498
  0
LINE
  5
D61
330
C60
100
AcDbEntity
  8
0
  6
Continuous
 62
     7
370
    15
100
AcDbLine
 10
2091.37146754465
 20
889.2186909066145
 30
0.0
 11
2093.300506867214
 21
890.0333854285607
 31
0.0
  0
ARC
  5
D62
330
C60
100
AcDbEntity
  8
0
  6
Continuous
 62
     7
370
    15
100
AcDbCircle
 10
2093.414738183361
 20
889.7961439414821
 30
0.0
 40
0.2633103051155229
100
AcDbArc
 50
350.6020529509084
 51
115.7107249635851
  0
LINE
  5
D63
330
C60
100
AcDbEntity
  8
0
  6
Continuous
 62
     7
370
    15
100
AcDbLine
 10
2093.674514341002
 20
889.7531478404786
 30
0.0
 11
2093.669051744369
 21
887.0099760765659
 31
0.0
  0
ARC
  5
D64
330
C60
100
AcDbEntity
  8
0
  6
Continuous
 62
     7
370
    15
100
AcDbCircle
 10
2092.272280829208
 20
887.0483364729922
 30
0.0
 40
1.397297573694604
100
AcDbArc
 50
302.1301216962639
 51
358.4268454796224
  0
LINE
  5
D65
330
C60
100
AcDbEntity
  8
0
  6
Continuous
 62
     7
370
    15
100
AcDbLine
 10
2091.820715092719
 20
885.1766874074259
 30
0.0
 11
2093.015424960668
 21
885.8650455918777
 31
0.0
  0
LINE
  5
D66
330
C60
100
AcDbEntity
  8
0
  6
Continuous
 62
     7
370
    15
100
AcDbLine
 10
2091.82068059378
 20
885.1593629513146
 30
0.0
 11
2091.820715092719
 21
885.1766874074259
 31
0.0
  0
LINE
  5
D67
330
C60
100
AcDbEntity
  8
0
  6
Continuous
 62
     7
370
    15
100
AcDbLine
 10
2090.217973049353
 20
884.2359321882124
 30
0.0
 11
2091.82068059378
 21
885.1593629513146
 31
0.0
  0
ARC
  5
D68
330
C60
100
AcDbEntity
  8
0
  6
Continuous
 62
     7
370
    15
100
AcDbCircle
 10
2088.809912511109
 20
886.6716584050129
 30
0.0
 40
2.813431478207603
100
AcDbArc
 50
293.3346853613662
 51
300.0316287709579
  0
LINE
  5
D69
330
C60
100
AcDbEntity
  8
0
  6
Continuous
 62
     7
370
    15
100
AcDbLine
 10
2089.924316752364
 20
884.0883466023761
 30
0.0
 11
2084.349318786458
 21
881.7338480446954
 31
0.0
  0
ARC
  5
D6A
330
C60
100
AcDbEntity
  8
0
  6
Continuous
 62
     7
370
    15
100
AcDbCircle
 10
2083.644951560248
 20
883.0603312502722
 30
0.0
 40
1.501895763372467
100
AcDbArc
 50
220.8614319828431
 51
297.9684585557008
  0
LINE
  5
D6B
330
C60
100
AcDbEntity
  8
0
  6
Continuous
 62
     7
370
    15
100
AcDbLine
 10
2081.550372951848
 20
883.2785252651749
 30
0.0
 11
2082.509076761641
 21
882.077743174868
 31
0.0
  0
ARC
  5
D6C
330
C60
100
AcDbEntity
  8
0
  6
Continuous
 62
     7
370
    15
100
AcDbCircle
 10
2081.878732129946
 20
883.4351275932117
 30
0.0
 40
0.363791202459528
100
AcDbArc
 50
120.0870344976966
 51
205.4975882384257
  0
LINE
  5
D6D
330
C60
100
AcDbEntity
  8
0
  6
Continuous
 62
     7
370
    15
100
AcDbLine
 10
2081.696358161985
 20
883.749903346403
 30
0.0
 11
2082.306178922445
 21
884.1331507289091
 31
0.0
  0
ARC
  5
D6E
330
C60
100
AcDbEntity
  8
0
  6
Continuous
 62
     7
370
    15
100
AcDbCircle
 10
2082.149510747503
 20
884.3664619342787
 30
0.0
 40
0.2810320899661465
100
AcDbArc
 50
303.8813098897155
 51
358.3218295127033
  0
LINE
  5
D6F
330
C60
100
AcDbEntity
  8
0
  6
Continuous
 62
     7
370
    15
100
AcDbLine
 10
2082.430422300085
 20
884.3582317935245
 30
0.0
 11
2082.443139186839
 21
890.7443164729638
 31
0.0
  0
ARC
  5
D70
330
C60
100
AcDbEntity
  8
0
  6
Continuous
 62
     7
370
    15
100
AcDbCircle
 10
2082.183363331436
 20
890.7873129773369
 30
0.0
 40
0.2633100728008877
100
AcDbArc
 50
350.6019556174763
 51
115.7108222970087
  0
LINE
  5
D71
330
C60
100
AcDbEntity
  8
0
  6
Continuous
 62
     7
370
    15
100
AcDbLine
 10
2081.483579119542
 20
890.7772566189136
 30
0.0
 11
2082.06913171305
 21
891.0245540610459
 31
0.0
  0
ARC
  5
D72
330
C60
100
AcDbEntity
  8
0
  6
Continuous
 62
     7
370
    15
100
AcDbCircle
 10
2081.782456443943
 20
890.1747677181205
 30
0.0
 40
0.6725477905838777
100
AcDbArc
 50
116.3846802373667
 51
185.8153212358142
  0
LINE
  5
D73
330
C60
100
AcDbEntity
  8
0
  6
Continuous
 62
     7
370
    15
100
AcDbLine
 10
2081.113369819548
 20
890.1066236085066
 30
0.0
 11
2081.905275983152
 21
885.1211831247299
 31
0.0
  0
ARC
  5
D74
330
C60
100
AcDbEntity
  8
0
  6
Continuous
 62
     7
370
    15
100
AcDbCircle
 10
2081.637644870204
 20
885.0939224664218
 30
0.0
 40
0.2690159030784336
100
AcDbArc
 50
296.3837798032288
 51
5.816036284709487
  0
LINE
  5
D75
330
C60
100
AcDbEntity
  8
0
  6
Continuous
 62
     7
370
    15
100
AcDbLine
 10
2081.757190584707
 20
884.852927905792
 30
0.0
 11
2080.393454069453
 21
884.2769786986606
 31
0.0
  0
ARC
  5
D76
330
C60
100
AcDbEntity
  8
0
  6
Continuous
 62
     7
370
    15
100
AcDbCircle
 10
2080.038465076219
 20
884.9798596355686
 30
0.0
 40
0.7874381225126088
100
AcDbArc
 50
236.0740040001596
 51
296.7959917333428
  0
LINE
  5
D77
330
C60
100
AcDbEntity
  8
0
  6
Continuous
 62
     7
370
    15
100
AcDbLine
 10
2079.598978818908
 20
884.3264756547259
 30
0.0
 11
2076.371373983193
 21
886.7448638953488
 31
0.0
  0
ARC
  5
D78
330
C60
100
AcDbEntity
  8
0
  6
Continuous
 62
     7
370
    15
100
AcDbCircle
 10
2076.224875606158
 20
886.5270518426681
 30
0.0
 40
0.2624954566590874
100
AcDbArc
 50
56.07558707274922
 51
116.7933237345058
  0
LINE
  5
D79
330
C60
100
AcDbEntity
  8
0
  6
Continuous
 62
     7
370
    15
100
AcDbLine
 10
2076.106549602284
 20
886.7613653539597
 30
0.0
 11
2062.901996746418
 21
881.1846636503739
 31
0.0
  0
ARC
  5
D7A
330
C60
100
AcDbEntity
  8
0
  6
Continuous
 62
     7
370
    15
100
AcDbCircle
 10
2063.16079259769
 20
880.6324009311218
 30
0.0
 40
0.609892944467847
100
AcDbArc
 50
115.108259698367
 51
149.2474120229795
  0
LINE
  5
D7B
330
C60
100
AcDbEntity
  8
0
  6
Continuous
 62
     7
370
    15
100
AcDbLine
 10
2062.636660776565
 20
880.9442586515569
 30
0.0
 11
2059.393981654975
 21
875.7932641681289
 31
0.0
  0
ARC
  5
D7C
330
C60
100
AcDbEntity
  8
0
  6
Continuous
 62
     7
370
    15
100
AcDbCircle
 10
2057.821709864415
 20
876.7287159027434
 30
0.0
 40
1.829510462168241
100
AcDbArc
 50
295.1064296790478
 51
329.2486996193393
  0
LINE
  5
D7D
330
C60
100
AcDbEntity
  8
0
  6
Continuous
 62
     7
370
    15
100
AcDbLine
 10
2057.234235846636
 20
874.4961059098086
 30
0.0
 11
2058.597973060159
 21
875.072055411841
 31
0.0
  0
LWPOLYLINE
  5
D7E
330
C60
100
AcDbEntity
  8
0
  6
Continuous
 62
     7
370
    15
100
AcDbPolyline
 90
        9
 70
   128
 43
0.0
 10
2057.234235846636
 20
874.4961059098086
 10
2057.201787905591
 20
874.4865549201751
 10
2057.170895822417
 20
874.4857772723493
 10
2057.143021996648
 20
874.4938029228963
 10
2057.119489880938
 20
874.5102570795742
 10
2057.101413494986
 20
874.5343500215318
 10
2057.08965083675
 20
874.5649553669139
 10
2057.084759232301
 20
874.600610804395
 10
2057.086971130674
 20
874.6396254028082
  0
LINE
  5
D7F
330
C60
100
AcDbEntity
  8
0
  6
Continuous
 62
     7
370
    15
100
AcDbLine
 10
2057.086971130674
 20
874.6396254028082
 30
0.0
 11
2057.900082572773
 21
880.3029157550136
 31
0.0
  0
LWPOLYLINE
  5
D80
330
C60
100
AcDbEntity
  8
0
  6
Continuous
 62
     7
370
    15
100
AcDbPolyline
 90
        9
 70
   128
 43
0.0
 10
2057.531922522032
 20
880.6617119572326
 10
2057.61304061596
 20
880.6855821589994
 10
2057.690271528671
 20
880.6875298409973
 10
2057.759954347423
 20
880.6674649773771
 10
2057.818785347979
 20
880.626336415648
 10
2057.863974883786
 20
880.5660871332911
 10
2057.89338120627
 20
880.4895866925145
 10
2057.905610573034
 20
880.4004515137942
 10
2057.900082572773
 20
880.3029157550136
  0
LINE
  5
D81
330
C60
100
AcDbEntity
  8
0
  6
Continuous
 62
     7
370
    15
100
AcDbLine
 10
2057.531922522032
 20
880.6617119572326
 30
0.0
 11
2056.946370626792
 21
880.4144148100013
 31
0.0
  0
ARC
  5
D82
330
C60
100
AcDbEntity
  8
0
  6
Continuous
 62
     7
370
    15
100
AcDbCircle
 10
2057.253782481045
 20
879.8041746960146
 30
0.0
 40
0.6832971863353194
100
AcDbArc
 50
116.7369349352153
 51
178.88016063923
  0
LINE
  5
D83
330
C60
100
AcDbEntity
  8
0
  6
Continuous
 62
     7
370
    15
100
AcDbLine
 10
2056.570615801168
 20
879.8175288099619
 30
0.0
 11
2056.557898914414
 21
873.4314441305226
 31
0.0
  0
ARC
  5
D84
330
C60
100
AcDbEntity
  8
0
  6
Continuous
 62
     7
370
    15
100
AcDbCircle
 10
2056.661531236533
 20
873.4141719954552
 30
0.0
 40
0.105061814364853
100
AcDbArc
 50
170.5376340146025
 51
280.9316672104791
  0
LINE
  5
D85
330
C60
100
AcDbEntity
  8
0
  6
Continuous
 62
     7
370
    15
100
AcDbLine
 10
2056.681454963574
 20
873.3110166274977
 30
0.0
 11
2057.290773977801
 21
873.442650659957
 31
0.0
  0
LWPOLYLINE
  5
D86
330
C60
100
AcDbEntity
  8
0
  6
Continuous
 62
     7
370
    15
100
AcDbPolyline
 90
        9
 70
   128
 43
0.0
 10
2057.290773977801
 20
873.442650659957
 10
2057.344503293669
 20
873.4458972000744
 10
2057.392389645233
 20
873.4316841816525
 10
2057.431434061181
 20
873.4008932719751
 10
2057.459192238551
 20
873.3554631180053
 10
2057.473927021071
 20
873.2982317374968
 10
2057.474714145564
 20
873.2327852920002
 10
2057.461505962104
 20
873.1632238151687
 10
2057.435128107391
 20
873.0938920955075
  0
LINE
  5
D87
330
C60
100
AcDbEntity
  8
0
  6
Continuous
 62
     7
370
    15
100
AcDbLine
 10
2056.470023323875
 20
871.0806245862109
 30
0.0
 11
2057.435128107391
 21
873.0938920955075
 31
0.0
  0
ARC
  5
D88
330
C60
100
AcDbEntity
  8
0
  6
Continuous
 62
     7
370
    15
100
AcDbCircle
 10
2052.951308854645
 20
872.6511244650334
 30
0.0
 40
3.853287088363158
100
AcDbArc
 50
295.7493634970937
 51
335.9474678649758
  0
LINE
  5
D89
330
C60
100
AcDbEntity
  8
0
  6
Continuous
 62
     7
370
    15
100
AcDbLine
 10
2049.050314633907
 20
866.8259584144182
 30
0.0
 11
2054.625312599813
 21
869.1804569720989
 31
0.0
  0
ARC
  5
D8A
330
C60
100
AcDbEntity
  8
0
  6
Continuous
 62
     7
370
    15
100
AcDbCircle
 10
2048.138934193077
 20
869.0110341060908
 30
0.0
 40
2.367524041327877
100
AcDbArc
 50
285.1267220384632
 51
292.6406902828361
  0
LINE
  5
D8B
330
C60
100
AcDbEntity
  8
0
  6
Continuous
 62
     7
370
    15
100
AcDbLine
 10
2047.243504509413
 20
866.3193927308949
 30
0.0
 11
2048.756750872234
 21
866.7255423346725
 31
0.0
  0
LINE
  5
D8C
330
C60
100
AcDbEntity
  8
0
  6
Continuous
 62
     7
370
    15
100
AcDbLine
 10
2047.243504509413
 20
866.3193927308949
 30
0.0
 11
2047.243538995338
 21
866.3367106519414
 31
0.0
  0
LINE
  5
D8D
330
C60
100
AcDbEntity
  8
0
  6
Continuous
 62
     7
370
    15
100
AcDbLine
 10
2045.961084750337
 20
865.9925045012125
 30
0.0
 11
2047.243538995338
 21
866.3367106519414
 31
0.0
  0
ARC
  5
D8E
330
C60
100
AcDbEntity
  8
0
  6
Continuous
 62
     7
370
    15
100
AcDbCircle
 10
2045.828092157443
 20
866.4997994937344
 30
0.0
 40
0.5244380222701987
100
AcDbArc
 50
170.4505603694466
 51
284.6900921610759
  0
LINE
  5
D8F
330
C60
100
AcDbEntity
  8
0
  6
Continuous
 62
     7
370
    15
100
AcDbLine
 10
2045.310921368619
 20
866.5868030246388
 30
0.0
 11
2045.316383965252
 21
869.3299747885516
 31
0.0
  0
ARC
  5
D90
330
C60
100
AcDbEntity
  8
0
  6
Continuous
 62
     7
370
    15
100
AcDbCircle
 10
2045.999545237143
 20
869.3166242534422
 30
0.0
 40
0.6832917094470828
100
AcDbArc
 50
116.7368552067456
 51
178.880451814224
  0
LINE
  5
D91
330
C60
100
AcDbEntity
  8
0
  6
Continuous
 62
     7
370
    15
100
AcDbLine
 10
2045.692136696071
 20
869.9268599038882
 30
0.0
 11
2047.621177415171
 21
870.7415550156364
 31
0.0
  0
ARC
  5
D92
330
C60
100
AcDbEntity
  8
0
  6
Continuous
 62
     7
370
    15
100
AcDbCircle
 10
2047.533721838066
 20
870.9204286161384
 30
0.0
 40
0.1991086209166418
100
AcDbArc
 50
296.0551139849995
 51
9.430292770222463
  0
LINE
  5
D93
330
C60
100
AcDbEntity
  8
0
  6
Continuous
 62
     7
370
    15
100
AcDbLine
 10
2047.730139639749
 20
870.953052075572
 30
0.0
 11
2046.538601849559
 21
875.6940377425472
 31
0.0
  0
ARC
  5
D94
330
C60
100
AcDbEntity
  8
0
  6
Continuous
 62
     7
370
    15
100
AcDbCircle
 10
2046.294489658784
 20
875.6470153300005
 30
0.0
 40
0.248599816908313
100
AcDbArc
 50
10.90312634171448
 51
118.1673997412312
  0
LINE
  5
D95
330
C60
100
AcDbEntity
  8
0
  6
Continuous
 62
     7
370
    15
100
AcDbLine
 10
2045.590405636213
 20
875.6183781883635
 30
0.0
 11
2046.177138303468
 21
875.8661740130877
 31
0.0
  0
ARC
  5
D96
330
C60
100
AcDbEntity
  8
0
  6
Continuous
 62
     7
370
    15
100
AcDbCircle
 10
2045.476174017827
 20
875.8556192720725
 30
0.0
 40
0.2633100728008728
100
AcDbArc
 50
170.6019556174763
 51
295.7108222970232
  0
ARC
  5
D97
330
C60
100
AcDbEntity
  8
0
  6
Continuous
 62
     7
370
    15
100
AcDbCircle
 10
2058.167244805905
 20
881.8172553099076
 30
0.0
 40
0.3582513026940904
100
AcDbArc
 50
1.597296563768992
 51
44.65924111436112
  0
LINE
  5
D98
330
C60
100
AcDbEntity
  8
0
  6
Continuous
 62
     7
370
    15
100
AcDbLine
 10
2058.525356903385
 20
881.8272413762526
 30
0.0
 11
2058.595954500592
 21
880.9103217847988
 31
0.0
  0
ARC
  5
D99
330
C60
100
AcDbEntity
  8
0
  6
Continuous
 62
     7
370
    15
100
AcDbCircle
 10
2058.834890260133
 20
880.908122795369
 30
0.0
 40
0.2389458782701873
100
AcDbArc
 50
179.4727065686964
 51
238.4365411624898
  0
ARC
  5
D9A
330
C60
100
AcDbEntity
  8
0
  6
Continuous
 62
     7
370
    15
100
AcDbCircle
 10
2042.283673805764
 20
886.4869777451032
 30
0.0
 40
0.1989464916682704
100
AcDbArc
 50
315.1291800939215
 51
8.783546981648539
  0
ARC
  5
D9B
330
C60
100
AcDbEntity
  8
0
  6
Continuous
 62
     7
370
    15
100
AcDbCircle
 10
2041.806451957314
 20
877.8904468461565
 30
0.0
 40
0.2971666242254239
100
AcDbArc
 50
174.1436492302954
 51
237.3672091149185
  0
ARC
  5
D9C
330
C60
100
AcDbEntity
  8
0
  6
Continuous
 62
     7
370
    15
100
AcDbCircle
 10
2057.077681750955
 20
899.5812797444697
 30
0.0
 40
0.765420185333373
100
AcDbArc
 50
97.30440763861311
 51
112.1423067633167
  0
ARC
  5
D9D
330
C60
100
AcDbEntity
  8
0
  6
Continuous
 62
     7
370
    15
100
AcDbCircle
 10
2057.696359479193
 20
895.299832016504
 30
0.0
 40
5.091253577183342
100
AcDbArc
 50
74.88627071403422
 51
98.08442782348954
  0
LINE
  5
D9E
330
C60
100
AcDbEntity
  8
0
  6
Continuous
 62
     7
370
    15
100
AcDbLine
 10
2056.393634092736
 20
900.123195442225
 30
0.0
 11
2056.789188528481
 21
900.2902506329427
 31
0.0
  0
LINE
  5
D9F
330
C60
100
AcDbEntity
  8
0
  6
Continuous
 62
     7
370
    15
100
AcDbLine
 10
2043.043826351721
 20
876.8774973349207
 30
0.0
 11
2044.481746024231
 21
871.1561815247097
 31
0.0
  0
LINE
  5
DA0
330
C60
100
AcDbEntity
  8
0
  6
Continuous
 62
     7
370
    15
100
AcDbLine
 10
2047.26694442603
 20
871.2058211126013
 30
0.0
 11
2047.730139639749
 21
870.953052075572
 31
0.0
  0
LINE
  5
DA1
330
C60
100
AcDbEntity
  8
0
  6
Continuous
 62
     7
370
    15
100
AcDbLine
 10
2041.580263117316
 20
878.6511951991068
 30
0.0
 11
2041.512233611443
 21
878.6224641799323
 31
0.0
  0
LINE
  5
DA2
330
C60
100
AcDbEntity
  8
0
  6
Continuous
 62
     7
370
    15
100
AcDbLine
 10
2056.980365530154
 20
900.3404882884712
 30
0.0
 11
2056.984462484136
 21
902.397870378938
 31
0.0
  0
LINE
  5
DA3
330
C60
100
AcDbEntity
  8
0
  6
Continuous
 62
     7
370
    15
100
AcDbLine
 10
2041.610822096622
 20
871.352127171488
 30
0.0
 11
2045.316383965252
 21
869.3299747885516
 31
0.0
  0
LINE
  5
DA4
330
C60
100
AcDbEntity
  8
0
  6
Continuous
 62
     7
370
    15
100
AcDbLine
 10
2041.986574827441
 20
871.9490122868247
 30
0.0
 11
2045.692136696071
 21
869.9268599038882
 31
0.0
  0
ARC
  5
DA5
330
C60
100
AcDbEntity
  8
0
  6
Continuous
 62
     7
370
    15
100
AcDbCircle
 10
2042.293983368513
 20
871.3387766363785
 30
0.0
 40
0.6832917094472358
100
AcDbArc
 50
116.7368552067572
 51
178.8804518142174
  0
LINE
  5
DA6
330
C60
100
AcDbEntity
  8
0
  6
Continuous
 62
     7
370
    15
100
AcDbLine
 10
2041.605359499989
 20
868.6089554075753
 30
0.0
 11
2045.310921368619
 21
866.5868030246388
 31
0.0
  0
LINE
  5
DA7
330
C60
100
AcDbEntity
  8
0
  6
Continuous
 62
     7
370
    15
100
AcDbLine
 10
2041.610822096622
 20
871.352127171488
 30
0.0
 11
2041.605359499989
 21
868.6089554075753
 31
0.0
  0
LINE
  5
DA8
330
C60
100
AcDbEntity
  8
0
  6
Continuous
 62
     7
370
    15
100
AcDbLine
 10
2047.621177415171
 20
870.7415550156364
 30
0.0
 11
2047.157982201452
 21
870.9943240526655
 31
0.0
  0
LINE
  5
DA9
330
C60
100
AcDbEntity
  8
0
  6
Continuous
 62
     7
370
    15
100
AcDbLine
 10
2042.439281840795
 20
872.1402048247432
 30
0.0
 11
2045.681648495706
 21
870.3708214788361
 31
0.0
  0
LINE
  5
DAA
330
C60
100
AcDbEntity
  8
0
  6
Continuous
 62
     7
370
    15
100
AcDbLine
 10
2047.157982201452
 20
870.9943240526655
 30
0.0
 11
2045.681648495706
 21
870.3708214788361
 31
0.0
  0
LINE
  5
DAB
330
C60
100
AcDbEntity
  8
0
  6
Continuous
 62
     7
370
    15
100
AcDbLine
 10
2042.439281840795
 20
872.1402048247432
 30
0.0
 11
2041.986574827441
 21
871.9490122868247
 31
0.0
  0
LINE
  5
DAC
330
C60
100
AcDbEntity
  8
0
  6
Continuous
 62
     7
370
    15
100
AcDbLine
 10
2061.716089581807
 20
901.8835970139038
 30
0.0
 11
2061.802037408321
 21
901.8366946524382
 31
0.0
  0
LINE
  5
DAD
330
C60
100
AcDbEntity
  8
0
  6
Continuous
 62
     7
370
    15
100
AcDbLine
 10
2059.326414148935
 20
902.6738496052644
 30
0.0
 11
2059.778216679811
 21
902.89695539737
 31
0.0
  0
LINE
  5
DAE
330
C60
100
AcDbEntity
  8
0
  6
Continuous
 62
     7
370
    15
100
AcDbLine
 10
2059.823827193433
 20
902.9162181874417
 30
0.0
 11
2060.505951717344
 21
902.5439778146214
 31
0.0
  0
LWPOLYLINE
  5
DAF
330
C60
100
AcDbEntity
  8
0
  6
Continuous
 62
     7
370
    15
100
AcDbPolyline
 90
       11
 70
   128
 43
0.0
 10
2060.505951717344
 20
902.5439778146214
 10
2060.434741279458
 20
902.4284359704225
 10
2060.415466770899
 20
902.3094440454437
 10
2060.449150462432
 20
902.1933172693721
 10
2060.534005890278
 20
902.0862107730993
 10
2060.665532662784
 20
901.9937989201656
 10
2060.836755039286
 20
901.9209986723669
 10
2061.03859198438
 20
901.8716550308029
 10
2061.260339179389
 20
901.8483912922352
 10
2061.490235930435
 20
901.8524451094062
 10
2061.716089581807
 20
901.8835970139038
  0
LINE
  5
DB0
330
C60
100
AcDbEntity
  8
0
  6
Continuous
 62
     7
370
    15
100
AcDbLine
 10
2056.789188528481
 20
900.2902506329427
 30
0.0
 11
2056.793285482463
 21
902.3476327234096
 31
0.0
  0
LINE
  5
DB1
330
C60
100
AcDbEntity
  8
0
  6
Continuous
 62
     7
370
    15
100
AcDbLine
 10
2060.333484541349
 20
902.6380949692505
 30
0.0
 11
2060.4533859486
 21
902.6973064619278
 31
0.0
  0
LINE
  5
DB2
330
C60
100
AcDbEntity
  8
0
  6
Continuous
 62
     7
370
    15
100
AcDbLine
 10
2060.4533859486
 20
902.6973064619278
 30
0.0
 11
2061.138646943557
 21
902.3233544937744
 31
0.0
  0
ARC
  5
DB3
330
C60
100
AcDbEntity
  8
0
  6
Continuous
 62
     7
370
    15
100
AcDbCircle
 10
2061.508911023328
 20
900.4916438425459
 30
0.0
 40
1.86875878555594
100
AcDbArc
 50
79.10780738980332
 51
101.4278436638718
  0
LINE
  5
DB4
330
C60
100
AcDbEntity
  8
0
  6
Continuous
 62
     7
370
    15
100
AcDbLine
 10
2061.862034738805
 20
902.3267359492697
 30
0.0
 11
2062.312227177434
 21
902.5490442160919
 31
0.0
  0
LINE
  5
DB5
330
C60
100
AcDbEntity
  8
0
  6
Continuous
 62
     7
370
    15
100
AcDbLine
 10
2062.312227177434
 20
902.5490442160919
 30
0.0
 11
2062.366638895309
 21
902.5193513412027
 31
0.0
  0
ARC
  5
DB6
330
C60
100
AcDbEntity
  8
0
  6
Continuous
 62
     7
370
    15
100
AcDbCircle
 10
2042.558946193713
 20
871.8982480649875
 30
0.0
 40
0.2699307891866871
100
AcDbArc
 50
63.84778046964219
 51
116.3155797282835
  0
LINE
  5
DB7
330
C60
100
AcDbEntity
  8
0
  6
Continuous
 62
     7
370
    15
100
AcDbLine
 10
2060.505951717344
 20
902.5439778146214
 30
0.0
 11
2060.529265823075
 21
902.0906361000765
 31
0.0
  0
LINE
  5
DB8
330
C60
100
AcDbEntity
  8
0
  6
Continuous
 62
     7
370
    15
100
AcDbLine
 10
2063.347462815087
 20
902.4893768049031
 30
0.0
 11
2062.81485927984
 21
902.7800224738035
 31
0.0
  0
LINE
  5
DB9
330
C60
100
AcDbEntity
  8
0
  6
Continuous
 62
     7
370
    15
100
AcDbLine
 10
2062.452740930647
 20
902.111510677127
 30
0.0
 11
2062.322049167702
 21
902.182830133997
 31
0.0
  0
ARC
  5
DBA
330
C60
100
AcDbEntity
  8
0
  6
Continuous
 62
     7
370
    15
100
AcDbCircle
 10
2062.111086969514
 20
902.3966766706784
 30
0.0
 40
0.3003920610054738
100
AcDbArc
 50
314.6109828511033
 51
32.41787663960397
  0
LINE
  5
DBB
330
C60
100
AcDbEntity
  8
0
  6
Continuous
 62
     7
370
    15
100
AcDbLine
 10
2062.814859292854
 20
902.7800290088681
 30
0.0
 11
2062.364666142942
 21
902.5577139120805
 31
0.0
  0
LINE
  5
DBC
330
C60
100
AcDbEntity
  8
0
  6
Continuous
 62
     7
370
    15
100
AcDbLine
 10
2062.322049167702
 20
902.182830133997
 30
0.0
 11
2062.328417300576
 21
902.059002679187
 31
0.0
  0
ARC
  5
DBD
330
C60
100
AcDbEntity
  8
0
  6
Continuous
 62
     7
370
    15
100
AcDbCircle
 10
2047.070526624348
 20
871.1731976531677
 30
0.0
 40
0.1991086209165857
100
AcDbArc
 50
296.0551139849732
 51
9.430292770222463
  0
ARC
  5
DBE
330
C60
100
AcDbEntity
  8
0
  6
Continuous
 62
     7
370
    15
100
AcDbCircle
 10
2061.216492714756
 20
904.4264989261019
 30
0.0
 40
0.1307277573946137
100
AcDbArc
 50
62.92728043619088
 51
117.2329417094443
  0
ARC
  5
DBF
330
C60
100
AcDbEntity
  8
0
  6
Continuous
 62
     7
370
    15
100
AcDbCircle
 10
2042.217544623878
 20
868.5584294814775
 30
0.0
 40
0.6142666319430053
100
AcDbArc
 50
175.2818588425799
 51
236.2298024098256
  0
LINE
  5
DC0
330
C60
100
AcDbEntity
  8
0
  6
Continuous
 62
     7
370
    15
100
AcDbLine
 10
2061.496039727266
 20
903.6224510809729
 30
0.0
 11
2061.496563718131
 21
903.8855854549131
 31
0.0
  0
LINE
  5
DC1
330
C60
100
AcDbEntity
  8
0
  6
Continuous
 62
     7
370
    15
100
AcDbLine
 10
2062.364666142942
 20
902.5577139120805
 30
0.0
 11
2062.379583664633
 21
902.2676434698782
 31
0.0
  0
LINE
  5
DC2
330
C60
100
AcDbEntity
  8
0
  6
Continuous
 62
     7
370
    15
100
AcDbLine
 10
2061.496039727266
 20
903.6224510809729
 30
0.0
 11
2059.293051521235
 21
902.6920592520594
 31
0.0
  0
LINE
  5
DC3
330
C60
100
AcDbEntity
  8
0
  6
Continuous
 62
     7
370
    15
100
AcDbLine
 10
2063.159851203536
 20
903.9426587949741
 30
0.0
 11
2067.063925140514
 21
901.8121769153824
 31
0.0
  0
ARC
  5
DC4
330
C60
100
AcDbEntity
  8
0
  6
Continuous
 62
     7
370
    15
100
AcDbCircle
 10
2060.892379012332
 20
909.2986730025709
 30
0.0
 40
5.816211682002768
100
AcDbArc
 50
288.0513299627363
 51
292.9454023473977
  0
ARC
  5
DC5
330
C60
100
AcDbEntity
  8
0
  6
Continuous
 62
     7
370
    15
100
AcDbCircle
 10
2061.482176345047
 20
901.0114982186381
 30
0.0
 40
1.868761263717703
100
AcDbArc
 50
79.10781934514604
 51
101.4278413750071
  0
LINE
  5
DC6
330
C60
100
AcDbEntity
  8
0
  6
Continuous
 62
     7
370
    15
100
AcDbLine
 10
2061.111911847443
 20
902.8432113136904
 30
0.0
 11
2060.474531218959
 21
903.1910342755059
 31
0.0
  0
LINE
  5
DC7
330
C60
100
AcDbEntity
  8
0
  6
Continuous
 62
     7
370
    15
100
AcDbLine
 10
2062.285493282788
 20
903.0689013942843
 30
0.0
 11
2061.83530014589
 21
902.8465928325614
 31
0.0
  0
LINE
  5
DC8
330
C60
100
AcDbEntity
  8
0
  6
Continuous
 62
     7
370
    15
100
AcDbLine
 10
2062.285493295802
 20
903.0689079293487
 30
0.0
 11
2061.3692551963
 21
903.5689058033364
 31
0.0
  0
LINE
  5
DC9
330
C60
100
AcDbEntity
  8
0
  6
Continuous
 62
     7
370
    15
100
AcDbLine
 10
2061.138646943557
 20
902.3233544937744
 30
0.0
 11
2061.111911847443
 21
902.8432113136904
 31
0.0
  0
LINE
  5
DCA
330
C60
100
AcDbEntity
  8
0
  6
Continuous
 62
     7
370
    15
100
AcDbLine
 10
2061.862034738805
 20
902.3267359492697
 30
0.0
 11
2061.83530014589
 21
902.8465928325614
 31
0.0
  0
LINE
  5
DCB
330
C60
100
AcDbEntity
  8
0
  6
Continuous
 62
     7
370
    15
100
AcDbLine
 10
2062.312227177434
 20
902.5490442160919
 30
0.0
 11
2062.285493282788
 21
903.0689013942843
 31
0.0
  0
LINE
  5
DCC
330
C60
100
AcDbEntity
  8
0
  6
Continuous
 62
     7
370
    15
100
AcDbLine
 10
2060.428983709775
 20
903.1717949655291
 30
0.0
 11
2060.4533859486
 21
902.6973064619278
 31
0.0
  0
LINE
  5
DCD
330
C60
100
AcDbEntity
  8
0
  6
Continuous
 62
     7
370
    15
100
AcDbLine
 10
2050.078225266315
 20
874.2820010754783
 30
0.0
 11
2053.783787134944
 21
872.259848692542
 31
0.0
  0
LINE
  5
DCE
330
C60
100
AcDbEntity
  8
0
  6
Continuous
 62
     7
370
    15
100
AcDbLine
 10
2050.084666261189
 20
877.516498597145
 30
0.0
 11
2050.078225266315
 21
874.2820010754783
 31
0.0
  0
LINE
  5
DCF
330
C60
100
AcDbEntity
  8
0
  6
Continuous
 62
     7
370
    15
100
AcDbLine
 10
2047.243504509413
 20
866.3193927308949
 30
0.0
 11
2047.22223935454
 21
866.3309972824107
 31
0.0
  0
LINE
  5
DD0
330
C60
100
AcDbEntity
  8
0
  6
Continuous
 62
     7
370
    15
100
AcDbLine
 10
2063.443101372421
 20
904.062284329939
 30
0.0
 11
2067.347175309399
 21
901.9318024503474
 31
0.0
  0
LINE
  5
DD1
330
C60
100
AcDbEntity
  8
0
  6
Continuous
 62
     7
370
    15
100
AcDbLine
 10
2063.159851203536
 20
903.9426587949741
 30
0.0
 11
2063.443101372421
 21
904.062284329939
 31
0.0
  0
ARC
  5
DD2
330
C60
100
AcDbEntity
  8
0
  6
Continuous
 62
     7
370
    15
100
AcDbCircle
 10
2063.490960344017
 20
903.9656315882991
 30
0.0
 40
0.107852833197716
100
AcDbArc
 50
63.81342401063228
 51
116.342963151988
  0
ARC
  5
DD3
330
C60
100
AcDbEntity
  8
0
  6
Continuous
 62
     7
370
    15
100
AcDbCircle
 10
2071.504374153709
 20
895.8795222090516
 30
0.0
 40
6.61786087869307
100
AcDbArc
 50
97.61606332598786
 51
107.7741355015182
  0
LINE
  5
DD4
330
C60
100
AcDbEntity
  8
0
  6
Continuous
 62
     7
370
    15
100
AcDbLine
 10
2070.99121984632
 20
902.2403988564153
 30
0.0
 11
2070.627280725753
 21
902.4390031129323
 31
0.0
  0
ARC
  5
DD5
330
C60
100
AcDbEntity
  8
0
  6
Continuous
 62
     7
370
    15
100
AcDbCircle
 10
2072.65697419891
 20
893.0704299391717
 30
0.0
 40
9.663672255090979
100
AcDbArc
 50
117.8457106439439
 51
122.1372925215931
  0
LINE
  5
DD6
330
C60
100
AcDbEntity
  8
0
  6
Continuous
 62
     7
370
    15
100
AcDbLine
 10
2064.966952440024
 20
903.3484055261528
 30
0.0
 11
2068.143148152721
 21
901.6151321503993
 31
0.0
  0
LINE
  5
DD7
330
C60
100
AcDbEntity
  8
0
  6
Continuous
 62
     7
370
    15
100
AcDbLine
 10
2064.906204196371
 20
903.3160829256301
 30
0.0
 11
2064.966952440024
 21
903.3484055261528
 31
0.0
  0
LINE
  5
DD8
330
C60
100
AcDbEntity
  8
0
  6
Continuous
 62
     7
370
    15
100
AcDbLine
 10
2067.451085013056
 20
904.1722764886857
 30
0.0
 11
2067.087145909341
 21
904.3708807360069
 31
0.0
  0
ARC
  5
DD9
330
C60
100
AcDbEntity
  8
0
  6
Continuous
 62
     7
370
    15
100
AcDbCircle
 10
2068.328178441011
 20
897.6127955848085
 30
0.0
 40
6.617860878689699
100
AcDbArc
 50
97.61606332597494
 51
107.7741355015306
  0
LINE
  5
DDA
330
C60
100
AcDbEntity
  8
0
  6
Continuous
 62
     7
370
    15
100
AcDbLine
 10
2069.484169788812
 20
902.1814946727959
 30
0.0
 11
2066.307974076115
 21
903.9147680485493
 31
0.0
  0
ARC
  5
DDB
330
C60
100
AcDbEntity
  8
0
  6
Continuous
 62
     7
370
    15
100
AcDbCircle
 10
2068.170768159969
 20
896.9398129880485
 30
0.0
 40
7.509660781740095
100
AcDbArc
 50
98.29657776251647
 51
118.8931703997374
  0
LINE
  5
DDC
330
C60
100
AcDbEntity
  8
0
  6
Continuous
 62
     7
370
    15
100
AcDbLine
 10
2050.106647674111
 20
871.9985088330266
 30
0.0
 11
2053.812209542741
 21
869.9763564500901
 31
0.0
  0
LINE
  5
DDD
330
C60
100
AcDbEntity
  8
0
  6
Continuous
 62
     7
370
    15
100
AcDbLine
 10
2050.106647674111
 20
871.9985088330266
 30
0.0
 11
2048.652118100222
 21
871.3842148360118
 31
0.0
  0
LINE
  5
DDE
330
C60
100
AcDbEntity
  8
0
  6
Continuous
 62
     7
370
    15
100
AcDbLine
 10
2064.966952440024
 20
903.3484055261528
 30
0.0
 11
2064.908467625303
 21
903.3148449084771
 31
0.0
  0
LINE
  5
DDF
330
C60
100
AcDbEntity
  8
0
  6
Continuous
 62
     7
370
    15
100
AcDbLine
 10
2058.62461302061
 20
881.7730765826034
 30
0.0
 11
2058.525356903385
 21
881.8272413762526
 31
0.0
  0
LINE
  5
DE0
330
C60
100
AcDbEntity
  8
0
  6
Continuous
 62
     7
370
    15
100
AcDbLine
 10
2058.695210617817
 20
880.8561569911498
 30
0.0
 11
2058.595954500592
 21
880.9103217847988
 31
0.0
  0
LINE
  5
DE1
330
C60
100
AcDbEntity
  8
0
  6
Continuous
 62
     7
370
    15
100
AcDbLine
 10
2067.107799586558
 20
905.6100287993746
 30
0.0
 11
2071.011873523536
 21
903.4795469197831
 31
0.0
  0
LINE
  5
DE2
330
C60
100
AcDbEntity
  8
0
  6
Continuous
 62
     7
370
    15
100
AcDbLine
 10
2066.957657235088
 20
905.3789918370055
 30
0.0
 11
2070.861731172067
 21
903.248509957414
 31
0.0
  0
ARC
  5
DE3
330
C60
100
AcDbEntity
  8
0
  6
Continuous
 62
     7
370
    15
100
AcDbCircle
 10
2067.231095563386
 20
905.3655988642182
 30
0.0
 40
0.2737661248268668
100
AcDbArc
 50
116.7674081762875
 51
177.1959013115
  0
LINE
  5
DE4
330
C60
100
AcDbEntity
  8
0
  6
Continuous
 62
     7
370
    15
100
AcDbLine
 10
2066.936606813667
 20
904.8354213291904
 30
0.0
 11
2070.840680750645
 21
902.7049394495989
 31
0.0
  0
LINE
  5
DE5
330
C60
100
AcDbEntity
  8
0
  6
Continuous
 62
     7
370
    15
100
AcDbLine
 10
2066.957657235088
 20
905.3789918370055
 30
0.0
 11
2066.936606813667
 21
904.8354213291904
 31
0.0
  0
LINE
  5
DE6
330
C60
100
AcDbEntity
  8
0
  6
Continuous
 62
     7
370
    15
100
AcDbLine
 10
2071.290950787872
 20
903.5973839864608
 30
0.0
 11
2067.386876850894
 21
905.7278658660523
 31
0.0
  0
LINE
  5
DE7
330
C60
100
AcDbEntity
  8
0
  6
Continuous
 62
     7
370
    15
100
AcDbLine
 10
2067.107799586558
 20
905.6100287993746
 30
0.0
 11
2067.386876850894
 21
905.7278658660523
 31
0.0
  0
ARC
  5
DE8
330
C60
100
AcDbEntity
  8
0
  6
Continuous
 62
     7
370
    15
100
AcDbCircle
 10
2066.484691804449
 20
903.4196439612841
 30
0.0
 40
0.5257157190893871
100
AcDbArc
 50
63.62818942712958
 51
109.6422976422891
  0
LINE
  5
DE9
330
C60
100
AcDbEntity
  8
0
  6
Continuous
 62
     7
370
    15
100
AcDbLine
 10
2050.436471376321
 20
872.7870519049528
 30
0.0
 11
2054.142033244951
 21
870.7648995220163
 31
0.0
  0
ARC
  5
DEA
330
C60
100
AcDbEntity
  8
0
  6
Continuous
 62
     7
370
    15
100
AcDbCircle
 10
2053.031409513333
 20
874.1992960024857
 30
0.0
 40
2.954342113895527
100
AcDbArc
 50
178.3958287161025
 51
208.5563740742803
  0
LINE
  5
DEB
330
C60
100
AcDbEntity
  8
0
  6
Continuous
 62
     7
370
    15
100
AcDbLine
 10
2068.842714453097
 20
906.5666764847534
 30
0.0
 11
2072.746788390076
 21
904.4361946051621
 31
0.0
  0
ARC
  5
DEC
330
C60
100
AcDbEntity
  8
0
  6
Continuous
 62
     7
370
    15
100
AcDbCircle
 10
2064.543577545155
 20
912.3454683485133
 30
0.0
 40
7.202569927316783
100
AcDbArc
 50
293.2511175531013
 51
306.6474333824344
  0
ARC
  5
DED
330
C60
100
AcDbEntity
  8
0
  6
Continuous
 62
     7
370
    15
100
AcDbCircle
 10
2067.057523258638
 20
904.8177222039655
 30
0.0
 40
0.1222049331991316
100
AcDbArc
 50
171.6724774650514
 51
236.7932454789055
  0
ARC
  5
DEE
330
C60
100
AcDbEntity
  8
0
  6
Continuous
 62
     7
370
    15
100
AcDbCircle
 10
2067.142294878047
 20
904.4633671249355
 30
0.0
 40
0.7231835534510624
100
AcDbArc
 50
253.9379802617413
 51
290.6468729599992
  0
LINE
  5
DEF
330
C60
100
AcDbEntity
  8
0
  6
Continuous
 62
     7
370
    15
100
AcDbLine
 10
2067.397294684865
 20
903.7866326493066
 30
0.0
 11
2070.054467490763
 21
902.3365938935626
 31
0.0
  0
LINE
  5
DF0
330
C60
100
AcDbEntity
  8
0
  6
Continuous
 62
     7
370
    15
100
AcDbLine
 10
2071.131148363001
 20
902.4270502302952
 30
0.0
 11
2070.767209242434
 21
902.625654486812
 31
0.0
  0
ARC
  5
DF1
330
C60
100
AcDbEntity
  8
0
  6
Continuous
 62
     7
370
    15
100
AcDbCircle
 10
2070.574471495138
 20
902.6243694414187
 30
0.0
 40
0.1927420311575755
100
AcDbArc
 50
285.9017848141087
 51
0.382003979967769
  0
LINE
  5
DF2
330
C60
100
AcDbEntity
  8
0
  6
Continuous
 62
     7
370
    15
100
AcDbLine
 10
2067.590387071981
 20
904.0434614289942
 30
0.0
 11
2067.591013529737
 21
904.3589278625656
 31
0.0
  0
LINE
  5
DF3
330
C60
100
AcDbEntity
  8
0
  6
Continuous
 62
     7
370
    15
100
AcDbLine
 10
2067.591013529737
 20
904.3589278625656
 30
0.0
 11
2067.227074426023
 21
904.5575321098867
 31
0.0
  0
LINE
  5
DF4
330
C60
100
AcDbEntity
  8
0
  6
Continuous
 62
     7
370
    15
100
AcDbLine
 10
2067.227074426023
 20
904.5575321098867
 30
0.0
 11
2067.227131557769
 21
904.5863973425355
 31
0.0
  0
LINE
  5
DF5
330
C60
100
AcDbEntity
  8
0
  6
Continuous
 62
     7
370
    15
100
AcDbLine
 10
2073.304071278434
 20
905.8936203660662
 30
0.0
 11
2069.399997341455
 21
908.0241022456579
 31
0.0
  0
LWPOLYLINE
  5
DF6
330
C60
100
AcDbEntity
  8
0
  6
Continuous
 62
     7
370
    15
100
AcDbPolyline
 90
        9
 70
   128
 43
0.0
 10
2069.399997341455
 20
908.0241022456579
 10
2069.339723718547
 20
907.9870176204716
 10
2069.285800956754
 20
907.9305974604633
 10
2069.243952885602
 20
907.860824264887
 10
2069.21862070502
 20
907.7851107675042
 10
2069.212493573043
 20
907.7114879094347
 10
2069.226221595519
 20
907.6477719026357
 10
2069.258347876925
 20
907.6007258663087
 10
2069.279805190449
 20
907.5853739140839
  0
ARC
  5
DF7
330
C60
100
AcDbEntity
  8
0
  6
Continuous
 62
     7
370
    15
100
AcDbCircle
 10
2049.845554258028
 20
872.570965479464
 30
0.0
 40
0.6291870818541278
100
AcDbArc
 50
294.517392497153
 51
20.08644285297006
  0
LINE
  5
DF8
330
C60
100
AcDbEntity
  8
0
  6
Continuous
 62
     7
370
    15
100
AcDbLine
 10
2069.409216929458
 20
908.0279959702455
 30
0.0
 11
2073.313290866437
 21
905.8975140906538
 31
0.0
  0
LINE
  5
DF9
330
C60
100
AcDbEntity
  8
0
  6
Continuous
 62
     7
370
    15
100
AcDbLine
 10
2069.399997341455
 20
908.0241022456579
 30
0.0
 11
2069.409216929458
 21
908.0279959702455
 31
0.0
  0
ARC
  5
DFA
330
C60
100
AcDbEntity
  8
0
  6
Continuous
 62
     7
370
    15
100
AcDbCircle
 10
2069.887895930504
 20
907.044567139482
 30
0.0
 40
1.093739389077234
100
AcDbArc
 50
64.20905659466069
 51
115.9542683207381
  0
ARC
  5
DFB
330
C60
100
AcDbEntity
  8
0
  6
Continuous
 62
     7
370
    15
100
AcDbCircle
 10
2067.317120243733
 20
904.0488059157453
 30
0.0
 40
0.2733190863429269
100
AcDbArc
 50
296.7405078149628
 51
358.8795657994023
  0
LINE
  5
DFC
330
C60
100
AcDbEntity
  8
0
  6
Continuous
 62
     7
370
    15
100
AcDbLine
 10
2073.256115849208
 20
904.8106865214005
 30
0.0
 11
2069.35204191223
 21
906.9411684009919
 31
0.0
  0
LINE
  5
DFD
330
C60
100
AcDbEntity
  8
0
  6
Continuous
 62
     7
370
    15
100
AcDbLine
 10
2068.842714453097
 20
906.5666764847534
 30
0.0
 11
2069.35204191223
 21
906.9411684009919
 31
0.0
  0
LINE
  5
DFE
330
C60
100
AcDbEntity
  8
0
  6
Continuous
 62
     7
370
    15
100
AcDbLine
 10
2067.397294684865
 20
903.7866326493066
 30
0.0
 11
2067.440100301965
 21
903.8047173493676
 31
0.0
  0
LINE
  5
DFF
330
C60
100
AcDbEntity
  8
0
  6
Continuous
 62
     7
370
    15
100
AcDbLine
 10
2069.43565323176
 20
907.1034606333194
 30
0.0
 11
2073.339727168738
 21
904.9729787537279
 31
0.0
  0
LINE
  5
E00
330
C60
100
AcDbEntity
  8
0
  6
Continuous
 62
     7
370
    15
100
AcDbLine
 10
2069.43565323176
 20
907.1034606333194
 30
0.0
 11
2069.436442660143
 21
907.4998907188023
 31
0.0
  0
ARC
  5
E01
330
C60
100
AcDbEntity
  8
0
  6
Continuous
 62
     7
370
    15
100
AcDbCircle
 10
2069.223181281669
 20
907.1102400668191
 30
0.0
 40
0.212580079720804
100
AcDbArc
 50
307.3134078308259
 51
358.1724590553804
  0
ARC
  5
E02
330
C60
100
AcDbEntity
  8
0
  6
Continuous
 62
     7
370
    15
100
AcDbCircle
 10
2067.398275782441
 20
904.3576428171723
 30
0.0
 40
0.1927420311575755
100
AcDbArc
 50
285.9017848141087
 51
0.382003979967769
  0
ARC
  5
E03
330
C60
100
AcDbEntity
  8
0
  6
Continuous
 62
     7
370
    15
100
AcDbCircle
 10
2067.034336678726
 20
904.5562470644934
 30
0.0
 40
0.1927420311576089
100
AcDbArc
 50
285.9017848141087
 51
0.382003979967769
  0
LINE
  5
E04
330
C60
100
AcDbEntity
  8
0
  6
Continuous
 62
     7
370
    15
100
AcDbLine
 10
2076.515396247576
 20
907.9618113124224
 30
0.0
 11
2077.011676619455
 21
907.6909874610933
 31
0.0
  0
LINE
  5
E05
330
C60
100
AcDbEntity
  8
0
  6
Continuous
 62
     7
370
    15
100
AcDbLine
 10
2077.011676619455
 20
907.6909874610933
 30
0.0
 11
2074.949835707652
 21
906.8202066136928
 31
0.0
  0
LINE
  5
E06
330
C60
100
AcDbEntity
  8
0
  6
Continuous
 62
     7
370
    15
100
AcDbLine
 10
2074.949835707652
 20
906.8202066136928
 30
0.0
 11
2077.861348691438
 21
905.2313725510487
 31
0.0
  0
LINE
  5
E07
330
C60
100
AcDbEntity
  8
0
  6
Continuous
 62
     7
370
    15
100
AcDbLine
 10
2077.861348691438
 20
905.2313725510487
 30
0.0
 11
2079.923188206704
 21
906.1021528086474
 31
0.0
  0
LINE
  5
E08
330
C60
100
AcDbEntity
  8
0
  6
Continuous
 62
     7
370
    15
100
AcDbLine
 10
2079.923188206704
 20
906.1021528086474
 30
0.0
 11
2080.419468788017
 21
905.8313288430291
 31
0.0
  0
LINE
  5
E09
330
C60
100
AcDbEntity
  8
0
  6
Continuous
 62
     7
370
    15
100
AcDbLine
 10
2075.226793550577
 20
904.1187163102351
 30
0.0
 11
2076.961636725217
 21
904.8513956363036
 31
0.0
  0
LINE
  5
E0A
330
C60
100
AcDbEntity
  8
0
  6
Continuous
 62
     7
370
    15
100
AcDbLine
 10
2076.961636725217
 20
904.8513956363036
 30
0.0
 11
2074.050123741431
 21
906.4402296989475
 31
0.0
  0
LINE
  5
E0B
330
C60
100
AcDbEntity
  8
0
  6
Continuous
 62
     7
370
    15
100
AcDbLine
 10
2074.050123741431
 20
906.4402296989475
 30
0.0
 11
2073.613629125869
 21
906.2558841711
 31
0.0
  0
LINE
  5
E0C
330
C60
100
AcDbEntity
  8
0
  6
Continuous
 62
     7
370
    15
100
AcDbLine
 10
2073.11734875399
 20
906.5267080224293
 30
0.0
 11
2076.515396247576
 21
907.9618113124224
 31
0.0
  0
LINE
  5
E0D
330
C60
100
AcDbEntity
  8
0
  6
Continuous
 62
     7
370
    15
100
AcDbLine
 10
2076.756997713924
 20
905.8340264826901
 30
0.0
 11
2077.008188630777
 21
905.940112378156
 31
0.0
  0
LINE
  5
E0E
330
C60
100
AcDbEntity
  8
0
  6
Continuous
 62
     7
370
    15
100
AcDbLine
 10
2078.112539963045
 20
905.3374597286218
 30
0.0
 11
2077.008188630777
 21
905.940112378156
 31
0.0
  0
LINE
  5
E0F
330
C60
100
AcDbEntity
  8
0
  6
Continuous
 62
     7
370
    15
100
AcDbLine
 10
2074.049283221823
 20
906.0181429500575
 30
0.0
 11
2074.050123741431
 21
906.4402296989475
 31
0.0
  0
LINE
  5
E10
330
C60
100
AcDbEntity
  8
0
  6
Continuous
 62
     7
370
    15
100
AcDbLine
 10
2075.581998271882
 20
904.2687305293853
 30
0.0
 11
2075.503260343019
 21
904.330134220822
 31
0.0
  0
LINE
  5
E11
330
C60
100
AcDbEntity
  8
0
  6
Continuous
 62
     7
370
    15
100
AcDbLine
 10
2075.503260343019
 20
904.330134220822
 30
0.0
 11
2075.085321796899
 21
904.4604598569822
 31
0.0
  0
LINE
  5
E12
330
C60
100
AcDbEntity
  8
0
  6
Continuous
 62
     7
370
    15
100
AcDbLine
 10
2077.011675222918
 20
907.6909868712915
 30
0.0
 11
2079.923188206704
 21
906.1021528086474
 31
0.0
  0
LINE
  5
E13
330
C60
100
AcDbEntity
  8
0
  6
Continuous
 62
     7
370
    15
100
AcDbLine
 10
2081.416133123722
 20
909.0490945469113
 30
0.0
 11
2077.512059186743
 21
911.1795764265028
 31
0.0
  0
LINE
  5
E14
330
C60
100
AcDbEntity
  8
0
  6
Continuous
 62
     7
370
    15
100
AcDbLine
 10
2077.512059186743
 20
911.1795764265028
 30
0.0
 11
2076.515396247576
 21
907.9618113124224
 31
0.0
  0
LINE
  5
E15
330
C60
100
AcDbEntity
  8
0
  6
Continuous
 62
     7
370
    15
100
AcDbLine
 10
2077.858942276312
 20
911.5965831273411
 30
0.0
 11
2081.76301621329
 21
909.4661012477494
 31
0.0
  0
ARC
  5
E16
330
C60
100
AcDbEntity
  8
0
  6
Continuous
 62
     7
370
    15
100
AcDbCircle
 10
2078.157143932197
 20
910.9957478304728
 30
0.0
 40
0.6707661899166225
100
AcDbArc
 50
116.3957478900832
 51
164.0941367247468
  0
LINE
  5
E17
330
C60
100
AcDbEntity
  8
0
  6
Continuous
 62
     7
370
    15
100
AcDbLine
 10
2085.360011841561
 20
911.7859250522039
 30
0.0
 11
2082.884905612041
 21
910.740609146593
 31
0.0
  0
LINE
  5
E18
330
C60
100
AcDbEntity
  8
0
  6
Continuous
 62
     7
370
    15
100
AcDbLine
 10
2083.110206431122
 20
913.0136604222096
 30
0.0
 11
2085.360011841561
 21
911.7859250522039
 31
0.0
  0
LINE
  5
E19
330
C60
100
AcDbEntity
  8
0
  6
Continuous
 62
     7
370
    15
100
AcDbLine
 10
2080.635100201603
 20
911.9683445165987
 30
0.0
 11
2083.110206431122
 21
913.0136604222096
 31
0.0
  0
LINE
  5
E1A
330
C60
100
AcDbEntity
  8
0
  6
Continuous
 62
     7
370
    15
100
AcDbLine
 10
2082.884905612041
 20
910.740609146593
 30
0.0
 11
2080.635100201603
 21
911.9683445165987
 31
0.0
  0
LINE
  5
E1B
330
C60
100
AcDbEntity
  8
0
  6
Continuous
 62
     7
370
    15
100
AcDbLine
 10
2088.310564978208
 20
916.0106350655711
 30
0.0
 11
2092.214638915186
 21
913.8801531859796
 31
0.0
  0
LWPOLYLINE
  5
E1C
330
C60
100
AcDbEntity
  8
0
  6
Continuous
 62
     7
370
    15
100
AcDbPolyline
 90
       17
 70
   128
 43
0.0
 10
2086.056836341047
 20
914.6760039049917
 10
2086.415790535443
 20
914.7126390592868
 10
2086.782074268761
 20
914.7246051945872
 10
2087.148377749554
 20
914.7116625672021
 10
2087.507396262564
 20
914.6740702191136
 10
2087.851968708906
 20
914.6125779706993
 10
2088.175221672732
 20
914.5284126938083
 10
2088.470705973393
 20
914.4232524627257
 10
2088.732528073766
 20
914.2991954007557
 10
2088.955464998489
 20
914.158715895128
 10
2089.135070092691
 20
914.0046163469952
 10
2089.267760153611
 20
913.8399701597526
 10
2089.350889551068
 20
913.6680623643169
 10
2089.382800077527
 20
913.4923218585099
 10
2089.362854908221
 20
913.3162542062796
 10
2089.291449909827
 20
913.1433705751593
 10
2089.170012411408
 20
912.9771208118565
  0
ARC
  5
E1D
330
C60
100
AcDbEntity
  8
0
  6
Continuous
 62
     7
370
    15
100
AcDbCircle
 10
2086.154156680946
 20
913.9167755434131
 30
0.0
 40
0.765440365791683
100
AcDbArc
 50
97.30452486240357
 51
112.1420498619628
  0
LINE
  5
E1E
330
C60
100
AcDbEntity
  8
0
  6
Continuous
 62
     7
370
    15
100
AcDbLine
 10
2084.524448657463
 20
914.05933071487
 30
0.0
 11
2085.865659031242
 21
914.6257664176129
 31
0.0
  0
ARC
  5
E1F
330
C60
100
AcDbEntity
  8
0
  6
Continuous
 62
     7
370
    15
100
AcDbCircle
 10
2084.654558242309
 20
913.7229440977598
 30
0.0
 40
0.3606722338072821
100
AcDbArc
 50
111.1457652781926
 51
135.7311056269273
  0
LWPOLYLINE
  5
E20
330
C60
100
AcDbEntity
  8
0
  6
Continuous
 62
     7
370
    15
100
AcDbPolyline
 90
       17
 70
   128
 43
0.0
 10
2087.509467098871
 20
912.2758198307188
 10
2087.15051263486
 20
912.2391848235549
 10
2086.784228978574
 20
912.2272186462168
 10
2086.417925536298
 20
912.2401612525832
 10
2086.058905549718
 20
912.2777530529074
 10
2085.714334653978
 20
912.3392458070487
 10
2085.391081536087
 20
912.4234111680145
 10
2085.095597389492
 20
912.5285713150221
 10
2084.833775289118
 20
912.6526283769923
 10
2084.610838364396
 20
912.79310788262
 10
2084.431233116128
 20
912.9472075148276
 10
2084.298543209274
 20
913.1118536179954
 10
2084.215412261213
 20
913.2837609077041
 10
2084.183503208325
 20
913.4595019612753
 10
2084.203448339115
 20
913.6355696345244
 10
2084.274853260475
 20
913.8084533076821
 10
2084.39629102851
 20
913.974702923854
  0
ARC
  5
E21
330
C60
100
AcDbEntity
  8
0
  6
Continuous
 62
     7
370
    15
100
AcDbCircle
 10
2087.412147549898
 20
913.0350446646341
 30
0.0
 40
0.7654367661969872
100
AcDbArc
 50
277.3044997123319
 51
292.1420924716991
  0
LINE
  5
E22
330
C60
100
AcDbEntity
  8
0
  6
Continuous
 62
     7
370
    15
100
AcDbLine
 10
2089.041854743939
 20
912.8924930418593
 30
0.0
 11
2087.70064437016
 21
912.3260573391164
 31
0.0
  0
ARC
  5
E23
330
C60
100
AcDbEntity
  8
0
  6
Continuous
 62
     7
370
    15
100
AcDbCircle
 10
2088.911742911741
 20
913.2288832423618
 30
0.0
 40
0.3606763866291291
100
AcDbArc
 50
291.145892895196
 51
315.7309490865135
  0
LINE
  5
E24
330
C60
100
AcDbEntity
  8
0
  6
Continuous
 62
     7
370
    15
100
AcDbLine
 10
2088.310564978208
 20
916.0106350655711
 30
0.0
 11
2077.858942276312
 21
911.5965831273411
 31
0.0
  0
LINE
  5
E25
330
C60
100
AcDbEntity
  8
0
  6
Continuous
 62
     7
370
    15
100
AcDbLine
 10
2077.008188630777
 20
905.940112378156
 30
0.0
 11
2077.011675222918
 21
907.6909868712915
 31
0.0
  0
ARC
  5
E26
330
C60
100
AcDbEntity
  8
0
  6
Continuous
 62
     7
370
    15
100
AcDbCircle
 10
2083.072037328893
 20
913.1792761831619
 30
0.0
 40
2.176628522931656
100
AcDbArc
 50
256.3451599700623
 51
275.5215834866035
  0
LINE
  5
E27
330
C60
100
AcDbEntity
  8
0
  6
Continuous
 62
     7
370
    15
100
AcDbLine
 10
2083.281474080246
 20
911.0127471678884
 30
0.0
 11
2083.389584653653
 21
910.9537504323359
 31
0.0
  0
LINE
  5
E28
330
C60
100
AcDbEntity
  8
0
  6
Continuous
 62
     7
370
    15
100
AcDbLine
 10
2082.396157564042
 20
911.007318640078
 30
0.0
 11
2082.558195611754
 21
911.0641689952002
 31
0.0
  0
LINE
  5
E29
330
C60
100
AcDbEntity
  8
0
  6
Continuous
 62
     7
370
    15
100
AcDbLine
 10
2082.070512555053
 20
911.6576148637827
 30
0.0
 11
2082.648271074218
 21
911.3423277878387
 31
0.0
  0
ARC
  5
E2A
330
C60
100
AcDbEntity
  8
0
  6
Continuous
 62
     7
370
    15
100
AcDbCircle
 10
2082.889782201151
 20
909.5929525513938
 30
0.0
 40
1.765967537164708
100
AcDbArc
 50
59.74754457058466
 51
97.86031955492543
  0
LINE
  5
E2B
330
C60
100
AcDbEntity
  8
0
  6
Continuous
 62
     7
370
    15
100
AcDbLine
 10
2083.950628001395
 20
911.1907000939536
 30
0.0
 11
2083.887261364417
 21
911.2252797341016
 31
0.0
  0
LINE
  5
E2C
330
C60
100
AcDbEntity
  8
0
  6
Continuous
 62
     7
370
    15
100
AcDbLine
 10
2083.883930014138
 20
911.1625273538887
 30
0.0
 11
2083.887261364417
 21
911.2252797341016
 31
0.0
  0
LINE
  5
E2D
330
C60
100
AcDbEntity
  8
0
  6
Continuous
 62
     7
370
    15
100
AcDbLine
 10
2081.991862854131
 20
912.2596126504229
 30
0.0
 11
2082.82482034872
 21
912.5518343094862
 31
0.0
  0
LINE
  5
E2E
330
C60
100
AcDbEntity
  8
0
  6
Continuous
 62
     7
370
    15
100
AcDbLine
 10
2084.722059636885
 20
911.516496867129
 30
0.0
 11
2082.82482034872
 21
912.5518343094862
 31
0.0
  0
LWPOLYLINE
  5
E2F
330
C60
100
AcDbEntity
  8
0
  6
Continuous
 62
     7
370
    15
100
AcDbPolyline
 90
       11
 70
   128
 43
0.0
 10
2082.677123695024
 20
911.8856607663444
 10
2082.902936060698
 20
911.8955545482258
 10
2083.132796430438
 20
911.8817867179538
 10
2083.354517374736
 20
911.8450676604618
 10
2083.556338011611
 20
911.7873592837296
 10
2083.727554519134
 20
911.7117095162639
 10
2083.859087119617
 20
911.6221468673971
 10
2083.943958855681
 20
911.5234051062927
 10
2083.977668489794
 20
911.4207338172947
 10
2083.958430516606
 20
911.3195634556841
 10
2083.887261364417
 20
911.2252797341016
  0
LINE
  5
E30
330
C60
100
AcDbEntity
  8
0
  6
Continuous
 62
     7
370
    15
100
AcDbLine
 10
2081.991862854131
 20
912.2596126504229
 30
0.0
 11
2082.677123695024
 21
911.8856607663444
 31
0.0
  0
LINE
  5
E31
330
C60
100
AcDbEntity
  8
0
  6
Continuous
 62
     7
370
    15
100
AcDbLine
 10
2081.866790183467
 20
911.2962035058215
 30
0.0
 11
2082.028829614702
 21
911.3530479156809
 31
0.0
  0
LINE
  5
E32
330
C60
100
AcDbEntity
  8
0
  6
Continuous
 62
     7
370
    15
100
AcDbLine
 10
2082.028829614702
 20
911.3530479156809
 30
0.0
 11
2082.021333054432
 21
911.2118663908324
 31
0.0
  0
LINE
  5
E33
330
C60
100
AcDbEntity
  8
0
  6
Continuous
 62
     7
370
    15
100
AcDbLine
 10
2081.411375018997
 20
912.0332739886775
 30
0.0
 11
2082.071336564918
 21
911.6731281160564
 31
0.0
  0
ARC
  5
E34
330
C60
100
AcDbEntity
  8
0
  6
Continuous
 62
     7
370
    15
100
AcDbCircle
 10
2082.210922761646
 20
911.4917283568974
 30
0.0
 40
0.228889010089704
100
AcDbArc
 50
127.5780999552194
 51
217.2925600737457
  0
LINE
  5
E35
330
C60
100
AcDbEntity
  8
0
  6
Continuous
 62
     7
370
    15
100
AcDbLine
 10
2082.910465780022
 20
912.5050995084327
 30
0.0
 11
2082.910787227889
 21
912.6665221377807
 31
0.0
  0
LINE
  5
E36
330
C60
100
AcDbEntity
  8
0
  6
Continuous
 62
     7
370
    15
100
AcDbLine
 10
2083.110206431122
 20
913.0136604222096
 30
0.0
 11
2083.109682440257
 21
912.7505260482692
 31
0.0
  0
LINE
  5
E37
330
C60
100
AcDbEntity
  8
0
  6
Continuous
 62
     7
370
    15
100
AcDbLine
 10
2082.677123695024
 20
911.8856607663444
 30
0.0
 11
2082.648271074218
 21
911.3423277878387
 31
0.0
  0
LINE
  5
E38
330
C60
100
AcDbEntity
  8
0
  6
Continuous
 62
     7
370
    15
100
AcDbLine
 10
2082.046124501718
 20
911.1983387943016
 30
0.0
 11
2082.071336564918
 21
911.6731281160564
 31
0.0
  0
LINE
  5
E39
330
C60
100
AcDbEntity
  8
0
  6
Continuous
 62
     7
370
    15
100
AcDbLine
 10
2083.109682440257
 20
912.7505260482692
 30
0.0
 11
2080.906695630763
 21
911.8201348091577
 31
0.0
  0
ARC
  5
E3A
330
C60
100
AcDbEntity
  8
0
  6
Continuous
 62
     7
370
    15
100
AcDbCircle
 10
2086.15061796951
 20
912.1397281167736
 30
0.0
 40
0.7654403657896039
100
AcDbArc
 50
97.30452486237687
 51
112.1420498619773
  0
ARC
  5
E3B
330
C60
100
AcDbEntity
  8
0
  6
Continuous
 62
     7
370
    15
100
AcDbCircle
 10
2086.765245308941
 20
908.0420394197229
 30
0.0
 40
4.908819900188551
100
AcDbArc
 50
69.76742174064051
 51
98.33927040014716
  0
LINE
  5
E3C
330
C60
100
AcDbEntity
  8
0
  6
Continuous
 62
     7
370
    15
100
AcDbLine
 10
2085.099893229585
 20
912.5268063022984
 30
0.0
 11
2085.862120319806
 21
912.8487189909712
 31
0.0
  0
LINE
  5
E3D
330
C60
100
AcDbEntity
  8
0
  6
Continuous
 62
     7
370
    15
100
AcDbLine
 10
2081.963835247425
 20
911.7317961400544
 30
0.0
 11
2081.991862854131
 21
912.2596126504229
 31
0.0
  0
LINE
  5
E3E
330
C60
100
AcDbEntity
  8
0
  6
Continuous
 62
     7
370
    15
100
AcDbLine
 10
2086.053297629611
 20
912.89895647835
 30
0.0
 11
2086.056836341047
 21
914.6760039049917
 31
0.0
  0
LINE
  5
E3F
330
C60
100
AcDbEntity
  8
0
  6
Continuous
 62
     7
370
    15
100
AcDbLine
 10
2075.893416950279
 20
886.3486280376625
 30
0.0
 11
2079.598978818908
 21
884.3264756547259
 31
0.0
  0
LINE
  5
E40
330
C60
100
AcDbEntity
  8
0
  6
Continuous
 62
     7
370
    15
100
AcDbLine
 10
2075.893416950279
 20
886.3486280376625
 30
0.0
 11
2075.617965482788
 21
886.5550200652812
 31
0.0
  0
ARC
  5
E41
330
C60
100
AcDbEntity
  8
0
  6
Continuous
 62
     7
370
    15
100
AcDbCircle
 10
2088.789244638628
 20
915.027201307781
 30
0.0
 40
1.093744107760572
100
AcDbArc
 50
64.20917377895339
 51
115.9541864189571
  0
LINE
  5
E42
330
C60
100
AcDbEntity
  8
0
  6
Continuous
 62
     7
370
    15
100
AcDbLine
 10
2085.862120319806
 20
912.8487189909712
 30
0.0
 11
2085.865659031242
 21
914.6257664176129
 31
0.0
  0
LINE
  5
E43
330
C60
100
AcDbEntity
  8
0
  6
Continuous
 62
     7
370
    15
100
AcDbLine
 10
2075.971977121641
 20
886.2981104819189
 30
0.0
 11
2075.893416950279
 21
886.3486280376625
 31
0.0
  0
LINE
  5
E44
330
C60
100
AcDbEntity
  8
0
  6
Continuous
 62
     7
370
    15
100
AcDbLine
 10
2078.803514893011
 20
884.0998955578045
 30
0.0
 11
2082.509076761641
 21
882.077743174868
 31
0.0
  0
LINE
  5
E45
330
C60
100
AcDbEntity
  8
0
  6
Continuous
 62
     7
370
    15
100
AcDbLine
 10
2078.803514893011
 20
884.0998955578045
 30
0.0
 11
2077.879599995499
 21
885.2571002403921
 31
0.0
  0
ARC
  5
E46
330
C60
100
AcDbEntity
  8
0
  6
Continuous
 62
     7
370
    15
100
AcDbCircle
 10
2079.856775706638
 20
884.9293202001142
 30
0.0
 40
1.340635513028282
100
AcDbArc
 50
218.2198193394931
 51
241.2491068447436
  0
LINE
  5
E47
330
C60
100
AcDbEntity
  8
0
  6
Continuous
 62
     7
370
    15
100
AcDbLine
 10
2085.881497375396
 20
887.4321504061413
 30
0.0
 11
2089.587059244026
 21
885.4099980232049
 31
0.0
  0
LINE
  5
E48
330
C60
100
AcDbEntity
  8
0
  6
Continuous
 62
     7
370
    15
100
AcDbLine
 10
2085.881497375396
 20
887.4321504061413
 30
0.0
 11
2087.084374543653
 21
893.1426495515356
 31
0.0
  0
LINE
  5
E49
330
C60
100
AcDbEntity
  8
0
  6
Continuous
 62
     7
370
    15
100
AcDbLine
 10
2085.518741994707
 20
886.9541600300667
 30
0.0
 11
2089.224303863337
 21
884.9320076471304
 31
0.0
  0
LINE
  5
E4A
330
C60
100
AcDbEntity
  8
0
  6
Continuous
 62
     7
370
    15
100
AcDbLine
 10
2085.207108957391
 20
886.8225475090621
 30
0.0
 11
2085.518741994707
 21
886.9541600300667
 31
0.0
  0
LINE
  5
E4B
330
C60
100
AcDbEntity
  8
0
  6
Continuous
 62
     7
370
    15
100
AcDbLine
 10
2092.384604640141
 20
890.0949619276714
 30
0.0
 11
2091.328571307144
 21
889.6489655390428
 31
0.0
  0
ARC
  5
E4C
330
C60
100
AcDbEntity
  8
0
  6
Continuous
 62
     7
370
    15
100
AcDbCircle
 10
2085.213413527848
 20
887.5625251597956
 30
0.0
 40
0.6806861271868989
100
AcDbArc
 50
296.6513228790557
 51
348.9576611594428
  0
LINE
  5
E4D
330
C60
100
AcDbEntity
  8
0
  6
Continuous
 62
     8
370
    15
100
AcDbLine
 10
2046.39280627544
 20
888.6313511309179
 30
0.0
 11
2046.224151687266
 21
888.7233871809041
 31
0.0
  0
LINE
  5
E4E
330
C60
100
AcDbEntity
  8
0
  6
Continuous
 62
     8
370
    15
100
AcDbLine
 10
2045.910060563658
 20
888.1227776972155
 30
0.0
 11
2045.769307804895
 21
888.199587513548
 31
0.0
  0
LINE
  5
E4F
330
C60
100
AcDbEntity
  8
0
  6
Continuous
 62
     8
370
    15
100
AcDbLine
 10
2048.909082674054
 20
898.9873809231983
 30
0.0
 11
2048.907115089332
 21
897.9993118391824
 31
0.0
  0
LINE
  5
E50
330
C60
100
AcDbEntity
  8
0
  6
Continuous
 62
     8
370
    15
100
AcDbLine
 10
2042.870507261677
 20
887.1242723093867
 30
0.0
 11
2045.864358503453
 21
885.490505653386
 31
0.0
  0
LINE
  5
E51
330
C60
100
AcDbEntity
  8
0
  6
Continuous
 62
     8
370
    15
100
AcDbLine
 10
2046.201156368613
 20
884.1462499827349
 30
0.0
 11
2046.090933291038
 21
884.2063995273589
 31
0.0
  0
LINE
  5
E52
330
C60
100
AcDbEntity
  8
0
  6
Continuous
 62
     8
370
    15
100
AcDbLine
 10
2046.088514574481
 20
884.2790908564275
 30
0.0
 11
2046.274897684703
 21
884.1773802214857
 31
0.0
  0
LINE
  5
E53
330
C60
100
AcDbEntity
  8
0
  6
Continuous
 62
     8
370
    15
100
AcDbLine
 10
2046.022176604194
 20
884.5762755493147
 30
0.0
 11
2043.004410309917
 21
886.2230928254687
 31
0.0
  0
LINE
  5
E54
330
C60
100
AcDbEntity
  8
0
  6
Continuous
 62
     8
370
    15
100
AcDbLine
 10
2045.947150271238
 20
884.9380166770369
 30
0.0
 11
2043.154733752041
 21
886.4618589224594
 31
0.0
  0
LINE
  5
E55
330
C60
100
AcDbEntity
  8
0
  6
Continuous
 62
     8
370
    15
100
AcDbLine
 10
2055.591388854904
 20
899.3471525689427
 30
0.0
 11
2055.592782606839
 21
900.0470579818077
 31
0.0
  0
LINE
  5
E56
330
C60
100
AcDbEntity
  8
0
  6
Continuous
 62
     8
370
    15
100
AcDbLine
 10
2049.037240303007
 20
899.0720087142143
 30
0.0
 11
2049.034857872121
 21
897.8756148426043
 31
0.0
  0
LINE
  5
E57
330
C60
100
AcDbEntity
  8
0
  6
Continuous
 62
     8
370
    15
100
AcDbLine
 10
2045.304045503077
 20
876.5490980502512
 30
0.0
 11
2045.217620812114
 21
876.5125981606612
 31
0.0
  0
ARC
  5
E58
330
C60
100
AcDbEntity
  8
0
  6
Continuous
 62
     8
370
    15
100
AcDbCircle
 10
2059.217543797491
 20
881.068659592236
 30
0.0
 40
0.357578468430518
100
AcDbArc
 50
261.4540601114926
 51
292.2725848468553
  0
ARC
  5
E59
330
C60
100
AcDbEntity
  8
0
  6
Continuous
 62
     8
370
    15
100
AcDbCircle
 10
2068.918137116233
 20
885.3444712194187
 30
0.0
 40
1.15676305695835
100
AcDbArc
 50
230.7958638794707
 51
287.6550373541958
  0
LINE
  5
E5A
330
C60
100
AcDbEntity
  8
0
  6
Continuous
 62
     8
370
    15
100
AcDbLine
 10
2055.323923456016
 20
901.6965720519088
 30
0.0
 11
2055.321955858281
 21
900.708496432828
 31
0.0
  0
LINE
  5
E5B
330
C60
100
AcDbEntity
  8
0
  6
Continuous
 62
     8
370
    15
100
AcDbLine
 10
2055.063416609787
 20
900.3359369022884
 30
0.0
 11
2055.061132860703
 21
899.1890984251298
 31
0.0
  0
LINE
  5
E5C
330
C60
100
AcDbEntity
  8
0
  6
Continuous
 62
     8
370
    15
100
AcDbLine
 10
2046.204268867708
 20
875.8764857112799
 30
0.0
 11
2046.538601849559
 21
875.6940377425472
 31
0.0
  0
LINE
  5
E5D
330
C60
100
AcDbEntity
  8
0
  6
Continuous
 62
     8
370
    15
100
AcDbLine
 10
2055.4520813931
 20
901.7811996747751
 30
0.0
 11
2055.449698949201
 21
900.5847992681003
 31
0.0
  0
LINE
  5
E5E
330
C60
100
AcDbEntity
  8
0
  6
Continuous
 62
     8
370
    15
100
AcDbLine
 10
2065.032502771745
 20
901.4060082205499
 30
0.0
 11
2065.104466789862
 21
901.366739292071
 31
0.0
  0
LINE
  5
E5F
330
C60
100
AcDbEntity
  8
0
  6
Continuous
 62
     8
370
    15
100
AcDbLine
 10
2065.608985858267
 20
901.421719792326
 30
0.0
 11
2065.02192471521
 21
901.742083378591
 31
0.0
  0
LINE
  5
E60
330
C60
100
AcDbEntity
  8
0
  6
Continuous
 62
     8
370
    15
100
AcDbLine
 10
2053.343844518968
 20
878.8929529939865
 30
0.0
 11
2053.796504021698
 21
878.6459333719813
 31
0.0
  0
LINE
  5
E61
330
C60
100
AcDbEntity
  8
0
  6
Continuous
 62
     8
370
    15
100
AcDbLine
 10
2055.143268451409
 20
879.6529068234768
 30
0.0
 11
2055.59592795414
 21
879.4058872014714
 31
0.0
  0
LINE
  5
E62
330
C60
100
AcDbEntity
  8
0
  6
Continuous
 62
     8
370
    15
100
AcDbLine
 10
2067.223674810909
 20
900.7841637337813
 30
0.0
 11
2067.363081735317
 21
900.7080883491612
 31
0.0
  0
LINE
  5
E63
330
C60
100
AcDbEntity
  8
0
  6
Continuous
 62
     8
370
    15
100
AcDbLine
 10
2049.386088869642
 20
868.4640572805685
 30
0.0
 11
2049.754867415261
 21
868.2628121141839
 31
0.0
  0
LINE
  5
E64
330
C60
100
AcDbEntity
  8
0
  6
Continuous
 62
     8
370
    15
100
AcDbLine
 10
2054.53556621938
 20
873.5915100257717
 30
0.0
 11
2055.583211067386
 21
873.0198025220323
 31
0.0
  0
LINE
  5
E65
330
C60
100
AcDbEntity
  8
0
  6
Continuous
 62
     8
370
    15
100
AcDbLine
 10
2067.512411318316
 20
901.2555676637958
 30
0.0
 11
2067.516385329432
 21
901.2533990166829
 31
0.0
  0
LINE
  5
E66
330
C60
100
AcDbEntity
  8
0
  6
Continuous
 62
     8
370
    15
100
AcDbLine
 10
2056.560876677022
 20
874.9267190179784
 30
0.0
 11
2057.086971130674
 21
874.6396254028082
 31
0.0
  0
LINE
  5
E67
330
C60
100
AcDbEntity
  8
0
  6
Continuous
 62
     8
370
    15
100
AcDbLine
 10
2057.368819828634
 20
880.5928297443385
 30
0.0
 11
2057.900082572773
 21
880.3029157550136
 31
0.0
  0
LINE
  5
E68
330
C60
100
AcDbEntity
  8
0
  6
Continuous
 62
     8
370
    15
100
AcDbLine
 10
2070.995522697293
 20
902.5874049869734
 30
0.0
 11
2071.131319417655
 21
902.5132997172709
 31
0.0
  0
LINE
  5
E69
330
C60
100
AcDbEntity
  8
0
  6
Continuous
 62
     8
370
    15
100
AcDbLine
 10
2067.590387071981
 20
904.0434614289942
 30
0.0
 11
2070.549981981277
 21
902.4283887057384
 31
0.0
  0
LINE
  5
E6A
330
C60
100
AcDbEntity
  8
0
  6
Continuous
 62
     8
370
    15
100
AcDbLine
 10
2067.440100301965
 20
903.8047173493676
 30
0.0
 11
2070.108471609815
 21
902.3485674886927
 31
0.0
  0
LINE
  5
E6B
330
C60
100
AcDbEntity
  8
0
  6
Continuous
 62
     8
370
    15
100
AcDbLine
 10
2054.534395538691
 20
873.0040156291584
 30
0.0
 11
2055.836153558611
 21
872.2936380492521
 31
0.0
  0
LINE
  5
E6C
330
C60
100
AcDbEntity
  8
0
  6
Continuous
 62
     8
370
    15
100
AcDbLine
 10
2054.597100978236
 20
871.9875613797494
 30
0.0
 11
2055.674060537507
 21
871.3998566223301
 31
0.0
  0
LINE
  5
E6D
330
C60
100
AcDbEntity
  8
0
  6
Continuous
 62
     8
370
    15
100
AcDbLine
 10
2054.534634427479
 20
872.490380190781
 30
0.0
 11
2055.852164921166
 21
871.7713941039599
 31
0.0
  0
LINE
  5
E6E
330
C60
100
AcDbEntity
  8
0
  6
Continuous
 62
     8
370
    15
100
AcDbLine
 10
2056.567596075739
 20
873.3731502605383
 30
0.0
 11
2056.681454963574
 21
873.3110166274977
 31
0.0
  0
LINE
  5
E6F
330
C60
100
AcDbEntity
  8
0
  6
Continuous
 62
     8
370
    15
100
AcDbLine
 10
2056.558716692894
 20
873.8421397079344
 30
0.0
 11
2057.290773977801
 21
873.442650659957
 31
0.0
  0
LINE
  5
E70
330
C60
100
AcDbEntity
  8
0
  6
Continuous
 62
     8
370
    15
100
AcDbLine
 10
2084.39629102851
 20
913.974702923854
 30
0.0
 11
2084.394323430775
 21
912.9866273047733
 31
0.0
  0
LINE
  5
E71
330
C60
100
AcDbEntity
  8
0
  6
Continuous
 62
     8
370
    15
100
AcDbLine
 10
2076.316857168388
 20
886.7746141224067
 30
0.0
 11
2076.371373983193
 21
886.7448638953488
 31
0.0
  0
LINE
  5
E72
330
C60
100
AcDbEntity
  8
0
  6
Continuous
 62
     8
370
    15
100
AcDbLine
 10
2084.524448657463
 20
914.05933071487
 30
0.0
 11
2084.522066226577
 21
912.8629368432598
 31
0.0
  0
LINE
  5
E73
330
C60
100
AcDbEntity
  8
0
  6
Continuous
 62
     8
370
    15
100
AcDbLine
 10
2081.990479453009
 20
890.9913362210813
 30
0.0
 11
2082.443139186839
 21
890.7443164729638
 31
0.0
  0
LINE
  5
E74
330
C60
100
AcDbEntity
  8
0
  6
Continuous
 62
     8
370
    15
100
AcDbLine
 10
2081.625680017933
 20
884.7973855794267
 30
0.0
 11
2082.430422300085
 21
884.3582317935245
 31
0.0
  0
LINE
  5
E75
330
C60
100
AcDbEntity
  8
0
  6
Continuous
 62
     8
370
    15
100
AcDbLine
 10
2093.167490500539
 20
908.4175901526343
 30
0.0
 11
2093.031692730605
 21
908.4916959950968
 31
0.0
  0
LINE
  5
E76
330
C60
100
AcDbEntity
  8
0
  6
Continuous
 62
     8
370
    15
100
AcDbLine
 10
2093.16742296018
 20
908.3836731676413
 30
0.0
 11
2092.996620281052
 21
908.4768814466702
 31
0.0
  0
LINE
  5
E77
330
C60
100
AcDbEntity
  8
0
  6
Continuous
 62
     8
370
    15
100
AcDbLine
 10
2084.014834398693
 20
891.8462849961306
 30
0.0
 11
2084.467493554775
 21
891.5992655632937
 31
0.0
  0
LINE
  5
E78
330
C60
100
AcDbEntity
  8
0
  6
Continuous
 62
     8
370
    15
100
AcDbLine
 10
2083.407131820016
 20
885.7848883875938
 30
0.0
 11
2084.454776668022
 21
885.2131808838544
 31
0.0
  0
LINE
  5
E79
330
C60
100
AcDbEntity
  8
0
  6
Continuous
 62
     8
370
    15
100
AcDbLine
 10
2093.046186448603
 20
903.9304123518267
 30
0.0
 11
2092.866046372456
 21
904.028716117128
 31
0.0
  0
LINE
  5
E7A
330
C60
100
AcDbEntity
  8
0
  6
Continuous
 62
     8
370
    15
100
AcDbLine
 10
2092.862213023089
 20
903.9594329654308
 30
0.0
 11
2092.972454882245
 21
903.89927317156
 31
0.0
  0
LINE
  5
E7B
330
C60
100
AcDbEntity
  8
0
  6
Continuous
 62
     8
370
    15
100
AcDbLine
 10
2079.834121311026
 20
884.2150964163918
 30
0.0
 11
2081.550372951848
 21
883.2785252651749
 31
0.0
  0
LINE
  5
E7C
330
C60
100
AcDbEntity
  8
0
  6
Continuous
 62
     8
370
    15
100
AcDbLine
 10
2080.583458677962
 20
884.3572207852609
 30
0.0
 11
2081.696358161985
 21
883.749903346403
 31
0.0
  0
LINE
  5
E7D
330
C60
100
AcDbEntity
  8
0
  6
Continuous
 62
     8
370
    15
100
AcDbLine
 10
2081.323126073558
 20
884.669609903362
 30
0.0
 11
2082.306178922445
 21
884.1331507289091
 31
0.0
  0
LINE
  5
E7E
330
C60
100
AcDbEntity
  8
0
  6
Continuous
 62
     8
370
    15
100
AcDbLine
 10
2093.315826825371
 20
904.3847417416891
 30
0.0
 11
2092.961425859158
 21
904.5781409571789
 31
0.0
  0
LINE
  5
E7F
330
C60
100
AcDbEntity
  8
0
  6
Continuous
 62
     8
370
    15
100
AcDbLine
 10
2092.912422963822
 20
904.2779375004798
 30
0.0
 11
2093.158979100831
 21
904.1433900019747
 31
0.0
  0
LINE
  5
E80
330
C60
100
AcDbEntity
  8
0
  6
Continuous
 62
     8
370
    15
100
AcDbLine
 10
2093.158911560471
 20
904.1094730169815
 30
0.0
 11
2092.906941436581
 21
904.2469749679723
 31
0.0
  0
LINE
  5
E81
330
C60
100
AcDbEntity
  8
0
  6
Continuous
 62
     8
370
    15
100
AcDbLine
 10
2093.013801464378
 20
904.9688885514814
 30
0.0
 11
2093.773134951285
 21
904.5545146793324
 31
0.0
  0
LINE
  5
E82
330
C60
100
AcDbEntity
  8
0
  6
Continuous
 62
     8
370
    15
100
AcDbLine
 10
2083.09731075349
 20
883.7103434285305
 30
0.0
 11
2083.893305643137
 21
883.2759631590951
 31
0.0
  0
LINE
  5
E83
330
C60
100
AcDbEntity
  8
0
  6
Continuous
 62
     8
370
    15
100
AcDbLine
 10
2090.921979760055
 20
894.7633914946875
 30
0.0
 11
2091.491788490046
 21
894.4524426772021
 31
0.0
  0
LINE
  5
E84
330
C60
100
AcDbEntity
  8
0
  6
Continuous
 62
     8
370
    15
100
AcDbLine
 10
2084.799489128779
 20
883.4189958173354
 30
0.0
 11
2085.166961735858
 21
883.2184633112239
 31
0.0
  0
LINE
  5
E85
330
C60
100
AcDbEntity
  8
0
  6
Continuous
 62
     8
370
    15
100
AcDbLine
 10
2091.261225601239
 20
889.2788507464636
 30
0.0
 11
2091.37146754465
 21
889.2186909066145
 31
0.0
  0
LINE
  5
E86
330
C60
100
AcDbEntity
  8
0
  6
Continuous
 62
     8
370
    15
100
AcDbLine
 10
2091.521697140455
 20
890.5658569008512
 30
0.0
 11
2092.384604640141
 21
890.0949619276714
 31
0.0
  0
LINE
  5
E87
330
C60
100
AcDbEntity
  8
0
  6
Continuous
 62
     8
370
    15
100
AcDbLine
 10
2091.604487143959
 20
890.9589158734631
 30
0.0
 11
2093.300506867214
 21
890.0333854285607
 31
0.0
  0
LINE
  5
E88
330
C60
100
AcDbEntity
  8
0
  6
Continuous
 62
     8
370
    15
100
AcDbLine
 10
2091.420844195638
 20
890.0870423238506
 30
0.0
 11
2091.833131219424
 21
889.8620542607286
 31
0.0
  0
ENDBLK
  5
C62
330
C60
100
AcDbEntity
  8
0
100
AcDbBlockEnd
  0
ENDSEC
  0
SECTION
  2
ENTITIES
  0
INSERT
  5
B21
330
1F
100
AcDbEntity
  8
0
100
AcDbBlockReference
  2
1
 10
0.0
 20
0.0
 30
0.0
  0
INSERT
  5
B8A
330
1F
100
AcDbEntity
  8
0
100
AcDbBlockReference
  2
2
 10
0.0
 20
0.0
 30
0.0
  0
INSERT
  5
C5F
330
1F
100
AcDbEntity
  8
0
100
AcDbBlockReference
  2
3
 10
0.0
 20
0.0
 30
0.0
  0
INSERT
  5
E89
330
1F
100
AcDbEntity
  8
0
100
AcDbBlockReference
  2
4
 10
0.0
 20
0.0
 30
0.0
  0
ENDSEC
  0
SECTION
  2
OBJECTS
  0
DICTIONARY
  5
C
330
0
100
AcDbDictionary
281
     1
  3
ACAD_COLOR
350
6B
  3
ACAD_GROUP
350
D
  3
ACAD_LAYOUT
350
1A
  3
ACAD_MATERIAL
350
6A
  3
ACAD_MLEADERSTYLE
350
12D
  3
ACAD_MLINESTYLE
350
17
  3
ACAD_PLOTSETTINGS
350
19
  3
ACAD_PLOTSTYLENAME
350
E
  3
ACAD_SCALELIST
350
10C
  3
ACAD_TABLESTYLE
350
7E
  3
ACAD_VISUALSTYLE
350
EF
  3
ACDB_RECOMPOSE_DATA
350
15D
  3
AcDbVariableDictionary
350
5E
  3
DWGPROPS
350
E97
  0
DICTIONARY
  5
13C
330
10
100
AcDbDictionary
280
     1
281
     1
  3
ADSK_XREC_LAYER_RECONCILED
360
E8A
  0
DICTIONARY
  5
6B
102
{ACAD_REACTORS
330
C
102
}
330
C
100
AcDbDictionary
281
     1
  0
DICTIONARY
  5
D
102
{ACAD_REACTORS
330
C
102
}
330
C
100
AcDbDictionary
281
     1
  0
DICTIONARY
  5
1A
102
{ACAD_REACTORS
330
C
102
}
330
C
100
AcDbDictionary
281
     1
  3
Layout1
350
D3
  3
Layout2
350
D7
  3
Model
350
22
  0
DICTIONARY
  5
6A
102
{ACAD_REACTORS
330
C
102
}
330
C
100
AcDbDictionary
281
     1
  3
ByBlock
350
ED
  3
ByLayer
350
EC
  3
Global
350
EE
  0
DICTIONARY
  5
12D
102
{ACAD_REACTORS
330
C
102
}
330
C
100
AcDbDictionary
281
     1
  3
Annotative
350
13B
  3
Standard
350
12E
  0
DICTIONARY
  5
17
102
{ACAD_REACTORS
330
C
102
}
330
C
100
AcDbDictionary
281
     1
  3
Standard
350
18
  0
DICTIONARY
  5
19
102
{ACAD_REACTORS
330
C
102
}
330
C
100
AcDbDictionary
281
     1
  0
ACDBDICTIONARYWDFLT
  5
E
102
{ACAD_REACTORS
330
C
102
}
330
C
100
AcDbDictionary
281
     1
  3
Normal
350
F
100
AcDbDictionaryWithDefault
340
F
  0
DICTIONARY
  5
10C
102
{ACAD_REACTORS
330
C
102
}
330
C
100
AcDbDictionary
281
     1
  3
A0
350
10D
  3
A1
350
188
  3
A2
350
189
  3
A3
350
18A
  3
A4
350
18B
  3
A5
350
18C
  3
A6
350
18D
  3
A7
350
18E
  3
A8
350
18F
  3
A9
350
190
  3
B0
350
191
  3
B1
350
192
  3
B2
350
193
  3
B3
350
194
  3
B4
350
195
  3
B5
350
196
  3
B6
350
197
  3
B7
350
198
  3
B8
350
199
  3
B9
350
19A
  3
C0
350
19B
  3
C1
350
19C
  3
C2
350
19D
  3
C3
350
19E
  3
C4
350
19F
  3
C5
350
1A0
  3
C6
350
1A1
  3
C7
350
1A2
  3
C8
350
1A3
  3
C9
350
1A4
  3
D0
350
1A5
  3
D1
350
1A6
  3
D2
350
1A7
  0
DICTIONARY
  5
7E
102
{ACAD_REACTORS
330
C
102
}
330
C
100
AcDbDictionary
281
     1
  3
Standard
350
7F
  0
DICTIONARY
  5
EF
102
{ACAD_REACTORS
330
C
102
}
330
C
100
AcDbDictionary
281
     1
  3
2dWireframe
350
F5
  3
3D Hidden
350
F7
  3
3dWireframe
350
F6
  3
Basic
350
F4
  3
Brighten
350
FB
  3
ColorChange
350
FF
  3
Conceptual
350
F8
  3
Dim
350
FA
  3
Facepattern
350
FE
  3
Flat
350
F0
  3
FlatWithEdges
350
F1
  3
Gouraud
350
F2
  3
GouraudWithEdges
350
F3
  3
Linepattern
350
FD
  3
Realistic
350
F9
  3
Thicken
350
FC
  0
XRECORD
  5
15D
102
{ACAD_REACTORS
330
C
102
}
330
C
100
AcDbXrecord
280
     1
 90
        1
330
7F
  0
DICTIONARY
  5
5E
102
{ACAD_REACTORS
330
C
102
}
330
C
100
AcDbDictionary
281
     1
  3
CANNOSCALE
350
146
  3
CMLEADERSTYLE
350
145
  3
CTABLESTYLE
350
84
  3
DIMASSOC
350
5F
  3
HIDETEXT
350
63
  3
INDEXCTL
350
E93
  3
LIGHTINGUNITS
350
E91
  3
MSLTSCALE
350
E90
  3
PSOLHEIGHT
350
E95
  3
PSOLWIDTH
350
E94
  3
SORTENTS
350
E92
  0
XRECORD
  5
E97
102
{ACAD_REACTORS
330
C
102
}
330
C
100
AcDbXrecord
280
     1
  1
DWGPROPS COOKIE
  2

  3

  4

  6

  7

  8
orhan kara
  9

300
=
301
=
302
=
303
=
304
=
305
=
306
=
307
=
308
=
309
=
 40
0.0010079976851852
 41
2458446.687844595
 42
2458956.420818935
  1

 90
        0
  0
XRECORD
  5
E8A
102
{ACAD_REACTORS
330
13C
102
}
330
13C
100
AcDbXrecord
280
     1
290
     1
  0
LAYOUT
  5
D3
102
{ACAD_XDICTIONARY
360
E9B
102
}
102
{ACAD_REACTORS
330
1A
102
}
330
1A
100
AcDbPlotSettings
  1

  2
C:\Documents and Settings\basas\Application Data\Autodesk\AutoCAD 2005\R16.1\enu\plotters\Default Windows System Printer.pc3
  4

  6

 40
0.0
 41
0.0
 42
0.0
 43
0.0
 44
0.0
 45
0.0
 46
0.0
 47
0.0
 48
0.0
 49
0.0
140
0.0
141
0.0
142
1.0
143
1.0
 70
   688
 72
     0
 73
     0
 74
     5
  7

 75
    16
147
1.0
148
0.0
149
0.0
100
AcDbLayout
  1
Layout1
 70
     1
 71
     1
 10
0.0
 20
0.0
 11
12.0
 21
9.0
 12
0.0
 22
0.0
 32
0.0
 14
0.0
 24
0.0
 34
0.0
 15
0.0
 25
0.0
 35
0.0
146
0.0
 13
0.0
 23
0.0
 33
0.0
 16
1.0
 26
0.0
 36
0.0
 17
0.0
 27
1.0
 37
0.0
 76
     0
330
D2
  0
LAYOUT
  5
D7
102
{ACAD_XDICTIONARY
360
E9D
102
}
102
{ACAD_REACTORS
330
1A
102
}
330
1A
100
AcDbPlotSettings
  1

  2
C:\Documents and Settings\basas\Application Data\Autodesk\AutoCAD 2005\R16.1\enu\plotters\Default Windows System Printer.pc3
  4

  6

 40
0.0
 41
0.0
 42
0.0
 43
0.0
 44
0.0
 45
0.0
 46
0.0
 47
0.0
 48
0.0
 49
0.0
140
0.0
141
0.0
142
1.0
143
1.0
 70
   688
 72
     0
 73
     0
 74
     5
  7

 75
    16
147
1.0
148
0.0
149
0.0
100
AcDbLayout
  1
Layout2
 70
     1
 71
     2
 10
0.0
 20
0.0
 11
12.0
 21
9.0
 12
0.0
 22
0.0
 32
0.0
 14
0.0
 24
0.0
 34
0.0
 15
0.0
 25
0.0
 35
0.0
146
0.0
 13
0.0
 23
0.0
 33
0.0
 16
1.0
 26
0.0
 36
0.0
 17
0.0
 27
1.0
 37
0.0
 76
     0
330
D6
  0
LAYOUT
  5
22
102
{ACAD_XDICTIONARY
360
E98
102
}
102
{ACAD_REACTORS
330
1A
102
}
330
1A
100
AcDbPlotSettings
  1

  2
none_device
  4
ISO_A4_(210.00_x_297.00_MM)
  6

 40
7.5
 41
20.0
 42
7.5
 43
20.0
 44
210.0
 45
297.0
 46
11.54999923706054
 47
-13.65000009536743
 48
0.0
 49
0.0
140
0.0
141
0.0
142
1.0
143
8.704084754739808
 70
 11952
 72
     1
 73
     0
 74
     0
  7

 75
     0
147
0.1148885871608098
148
0.0
149
0.0
100
AcDbLayout
  1
Model
 70
     1
 71
     0
 10
0.0
 20
0.0
 11
12.0
 21
9.0
 12
0.0
 22
0.0
 32
0.0
 14
0.0
 24
0.0
 34
0.0
 15
0.0
 25
0.0
 35
0.0
146
0.0
 13
0.0
 23
0.0
 33
0.0
 16
1.0
 26
0.0
 36
0.0
 17
0.0
 27
1.0
 37
0.0
 76
     0
330
1F
331
EA
1001
ACAD_PSEXT
1000
None
1000
None
1000
Not applicable
1000
The layout will not be plotted unless a new plotter configuration name is selected.
1070
     0
  0
MATERIAL
  5
ED
102
{ACAD_XDICTIONARY
360
EA1
102
}
102
{ACAD_REACTORS
330
6A
102
}
330
6A
100
AcDbMaterial
  1
ByBlock
  0
MATERIAL
  5
EC
102
{ACAD_XDICTIONARY
360
E9F
102
}
102
{ACAD_REACTORS
330
6A
102
}
330
6A
100
AcDbMaterial
  1
ByLayer
  0
MATERIAL
  5
EE
102
{ACAD_XDICTIONARY
360
173
102
}
102
{ACAD_REACTORS
330
6A
102
}
330
6A
100
AcDbMaterial
  1
Global
 43
0.0007999999797903
 43
0.0
 43
0.0
 43
0.0
 43
0.0
 43
0.0007999999797903
 43
0.0
 43
0.0
 43
0.0
 43
0.0
 43
1.0
 43
0.0
 43
0.0
 43
0.0
 43
0.0
 43
1.0
 49
0.0007999999797903
 49
0.0
 49
0.0
 49
0.0
 49
0.0
 49
0.0007999999797903
 49
0.0
 49
0.0
 49
0.0
 49
0.0
 49
1.0
 49
0.0
 49
0.0
 49
0.0
 49
0.0
 49
1.0
142
0.0007999999797903
142
0.0
142
0.0
142
0.0
142
0.0
142
0.0007999999797903
142
0.0
142
0.0
142
0.0
142
0.0
142
1.0
142
0.0
142
0.0
142
0.0
142
0.0
142
1.0
144
0.0007999999797903
144
0.0
144
0.0
144
0.0
144
0.0
144
0.0007999999797903
144
0.0
144
0.0
144
0.0
144
0.0
144
1.0
144
0.0
144
0.0
144
0.0
144
0.0
144
1.0
1001
ACAD
1070
    -1
1070
     3
1070
     0
1000

1071
        0
1070
     0
  0
MLEADERSTYLE
  5
13B
102
{ACAD_REACTORS
330
12D
102
}
330
12D
100
AcDbMLeaderStyle
170
     2
171
     1
172
     0
 90
        2
 40
0.0
 41
0.0
173
     1
 91
-1056964608
340
14
 92
       -2
290
     1
 42
2.0
291
     1
 43
8.0
  3
Standard
 44
4.0
300

342
11
174
     1
178
     1
175
     1
176
     0
 93
-1056964608
 45
4.0
292
     0
297
     0
 46
4.0
 94
-1056964608
 47
1.0
 49
1.0
140
1.0
293
     1
141
0.0
294
     1
177
     0
142
1.0
295
     0
296
     1
143
3.75
1001
ACAD_MLEADERVER
1070
     2
  0
MLEADERSTYLE
  5
12E
102
{ACAD_REACTORS
330
12D
102
}
330
12D
100
AcDbMLeaderStyle
170
     2
171
     1
172
     0
 90
        2
 40
0.0
 41
0.0
173
     1
 91
-1056964608
340
14
 92
       -2
290
     1
 42
2.0
291
     1
 43
8.0
  3
Standard
 44
4.0
300

342
11
174
     1
178
     1
175
     1
176
     0
 93
-1056964608
 45
4.0
292
     0
297
     0
 46
4.0
 94
-1056964608
 47
1.0
 49
1.0
140
1.0
293
     1
141
0.0
294
     1
177
     0
142
1.0
295
     0
296
     0
143
3.75
1001
ACAD_MLEADERVER
1070
     2
  0
MLINESTYLE
  5
18
102
{ACAD_REACTORS
330
17
102
}
330
17
100
AcDbMlineStyle
  2
STANDARD
 70
     0
  3

 62
   256
 51
90.0
 52
90.0
 71
     2
 49
0.5
 62
   256
  6
BYLAYER
 49
-0.5
 62
   256
  6
BYLAYER
  0
ACDBPLACEHOLDER
  5
F
102
{ACAD_REACTORS
330
E
102
}
330
E
  0
SCALE
  5
10D
102
{ACAD_REACTORS
330
10C
102
}
330
10C
100
AcDbScale
 70
     0
300
1:1
140
1.0
141
1.0
290
     1
  0
SCALE
  5
188
102
{ACAD_REACTORS
330
10C
102
}
330
10C
100
AcDbScale
 70
     0
300
1:2
140
1.0
141
2.0
290
     0
  0
SCALE
  5
189
102
{ACAD_REACTORS
330
10C
102
}
330
10C
100
AcDbScale
 70
     0
300
1:4
140
1.0
141
4.0
290
     0
  0
SCALE
  5
18A
102
{ACAD_REACTORS
330
10C
102
}
330
10C
100
AcDbScale
 70
     0
300
1:5
140
1.0
141
5.0
290
     0
  0
SCALE
  5
18B
102
{ACAD_REACTORS
330
10C
102
}
330
10C
100
AcDbScale
 70
     0
300
1:8
140
1.0
141
8.0
290
     0
  0
SCALE
  5
18C
102
{ACAD_REACTORS
330
10C
102
}
330
10C
100
AcDbScale
 70
     0
300
1:10
140
1.0
141
10.0
290
     0
  0
SCALE
  5
18D
102
{ACAD_REACTORS
330
10C
102
}
330
10C
100
AcDbScale
 70
     0
300
1:16
140
1.0
141
16.0
290
     0
  0
SCALE
  5
18E
102
{ACAD_REACTORS
330
10C
102
}
330
10C
100
AcDbScale
 70
     0
300
1:20
140
1.0
141
20.0
290
     0
  0
SCALE
  5
18F
102
{ACAD_REACTORS
330
10C
102
}
330
10C
100
AcDbScale
 70
     0
300
1:30
140
1.0
141
30.0
290
     0
  0
SCALE
  5
190
102
{ACAD_REACTORS
330
10C
102
}
330
10C
100
AcDbScale
 70
     0
300
1:40
140
1.0
141
40.0
290
     0
  0
SCALE
  5
191
102
{ACAD_REACTORS
330
10C
102
}
330
10C
100
AcDbScale
 70
     0
300
1:50
140
1.0
141
50.0
290
     0
  0
SCALE
  5
192
102
{ACAD_REACTORS
330
10C
102
}
330
10C
100
AcDbScale
 70
     0
300
1:100
140
1.0
141
100.0
290
     0
  0
SCALE
  5
193
102
{ACAD_REACTORS
330
10C
102
}
330
10C
100
AcDbScale
 70
     0
300
2:1
140
2.0
141
1.0
290
     0
  0
SCALE
  5
194
102
{ACAD_REACTORS
330
10C
102
}
330
10C
100
AcDbScale
 70
     0
300
4:1
140
4.0
141
1.0
290
     0
  0
SCALE
  5
195
102
{ACAD_REACTORS
330
10C
102
}
330
10C
100
AcDbScale
 70
     0
300
8:1
140
8.0
141
1.0
290
     0
  0
SCALE
  5
196
102
{ACAD_REACTORS
330
10C
102
}
330
10C
100
AcDbScale
 70
     0
300
10:1
140
10.0
141
1.0
290
     0
  0
SCALE
  5
197
102
{ACAD_REACTORS
330
10C
102
}
330
10C
100
AcDbScale
 70
     0
300
100:1
140
100.0
141
1.0
290
     0
  0
SCALE
  5
198
102
{ACAD_REACTORS
330
10C
102
}
330
10C
100
AcDbScale
 70
     0
300
1/128" = 1'-0"
140
0.0078125
141
12.0
290
     0
  0
SCALE
  5
199
102
{ACAD_REACTORS
330
10C
102
}
330
10C
100
AcDbScale
 70
     0
300
1/64" = 1'-0"
140
0.015625
141
12.0
290
     0
  0
SCALE
  5
19A
102
{ACAD_REACTORS
330
10C
102
}
330
10C
100
AcDbScale
 70
     0
300
1/32" = 1'-0"
140
0.03125
141
12.0
290
     0
  0
SCALE
  5
19B
102
{ACAD_REACTORS
330
10C
102
}
330
10C
100
AcDbScale
 70
     0
300
1/16" = 1'-0"
140
0.0625
141
12.0
290
     0
  0
SCALE
  5
19C
102
{ACAD_REACTORS
330
10C
102
}
330
10C
100
AcDbScale
 70
     0
300
3/32" = 1'-0"
140
0.09375
141
12.0
290
     0
  0
SCALE
  5
19D
102
{ACAD_REACTORS
330
10C
102
}
330
10C
100
AcDbScale
 70
     0
300
1/8" = 1'-0"
140
0.125
141
12.0
290
     0
  0
SCALE
  5
19E
102
{ACAD_REACTORS
330
10C
102
}
330
10C
100
AcDbScale
 70
     0
300
3/16" = 1'-0"
140
0.1875
141
12.0
290
     0
  0
SCALE
  5
19F
102
{ACAD_REACTORS
330
10C
102
}
330
10C
100
AcDbScale
 70
     0
300
1/4" = 1'-0"
140
0.25
141
12.0
290
     0
  0
SCALE
  5
1A0
102
{ACAD_REACTORS
330
10C
102
}
330
10C
100
AcDbScale
 70
     0
300
3/8" = 1'-0"
140
0.375
141
12.0
290
     0
  0
SCALE
  5
1A1
102
{ACAD_REACTORS
330
10C
102
}
330
10C
100
AcDbScale
 70
     0
300
1/2" = 1'-0"
140
0.5
141
12.0
290
     0
  0
SCALE
  5
1A2
102
{ACAD_REACTORS
330
10C
102
}
330
10C
100
AcDbScale
 70
     0
300
3/4" = 1'-0"
140
0.75
141
12.0
290
     0
  0
SCALE
  5
1A3
102
{ACAD_REACTORS
330
10C
102
}
330
10C
100
AcDbScale
 70
     0
300
1" = 1'-0"
140
1.0
141
12.0
290
     0
  0
SCALE
  5
1A4
102
{ACAD_REACTORS
330
10C
102
}
330
10C
100
AcDbScale
 70
     0
300
1-1/2" = 1'-0"
140
1.5
141
12.0
290
     0
  0
SCALE
  5
1A5
102
{ACAD_REACTORS
330
10C
102
}
330
10C
100
AcDbScale
 70
     0
300
3" = 1'-0"
140
3.0
141
12.0
290
     0
  0
SCALE
  5
1A6
102
{ACAD_REACTORS
330
10C
102
}
330
10C
100
AcDbScale
 70
     0
300
6" = 1'-0"
140
6.0
141
12.0
290
     0
  0
SCALE
  5
1A7
102
{ACAD_REACTORS
330
10C
102
}
330
10C
100
AcDbScale
 70
     0
300
1'-0" = 1'-0"
140
12.0
141
12.0
290
     0
  0
TABLESTYLE
  5
7F
102
{ACAD_XDICTIONARY
360
162
102
}
102
{ACAD_REACTORS
330
7E
102
}
330
7E
100
AcDbTableStyle
  3
Standard
 70
     0
 71
     0
 40
1.5
 41
1.5
280
     0
281
     0
  7
Standard
140
4.5
170
     2
 62
     0
 63
     7
283
     0
274
    -2
284
     1
 64
     0
275
    -2
285
     1
 65
     0
276
    -2
286
     1
 66
     0
277
    -2
287
     1
 67
     0
278
    -2
288
     1
 68
     0
279
    -2
289
     1
 69
     0
  7
Standard
140
6.0
170
     5
 62
     0
 63
     7
283
     0
274
    -2
284
     1
 64
     0
275
    -2
285
     1
 65
     0
276
    -2
286
     1
 66
     0
277
    -2
287
     1
 67
     0
278
    -2
288
     1
 68
     0
279
    -2
289
     1
 69
     0
  7
Standard
140
4.5
170
     5
 62
     0
 63
     7
283
     0
274
    -2
284
     1
 64
     0
275
    -2
285
     1
 65
     0
276
    -2
286
     1
 66
     0
277
    -2
287
     1
 67
     0
278
    -2
288
     1
 68
     0
279
    -2
289
     1
 69
     0
  0
VISUALSTYLE
  5
F5
102
{ACAD_REACTORS
330
EF
102
}
330
EF
100
AcDbVisualStyle
  2
2dWireframe
 70
     4
 71
     0
 72
     2
 73
     1
 90
        0
 40
-0.6
 41
-30.0
 62
     5
 63
     7
 74
     1
 91
        4
 64
     7
 65
   257
 75
     1
175
     1
 42
1.0
 92
        0
 66
   257
 43
1.0
 76
     1
 77
     6
 78
     2
 67
     7
 79
     5
170
     0
171
     0
290
     0
174
     0
 93
        1
 44
0.0
173
     0
291
     0
 45
0.0
1001
ACAD
1000
AcDbSavedByObjectVersion
1070
     0
  0
VISUALSTYLE
  5
F7
102
{ACAD_REACTORS
330
EF
102
}
330
EF
100
AcDbVisualStyle
  2
3D Hidden
 70
     6
 71
     1
 72
     2
 73
     2
 90
        0
 40
-0.6
 41
-30.0
 62
     5
 63
     7
 74
     2
 91
        2
 64
     7
 65
   257
 75
     2
175
     1
 42
40.0
 92
        0
 66
   257
 43
1.0
 76
     1
 77
     6
 78
     2
 67
     7
 79
     3
170
     0
171
     0
290
     0
174
     0
 93
        1
 44
0.0
173
     0
291
     0
 45
0.0
1001
ACAD
1000
AcDbSavedByObjectVersion
1070
     0
  0
VISUALSTYLE
  5
F6
102
{ACAD_REACTORS
330
EF
102
}
330
EF
100
AcDbVisualStyle
  2
3dWireframe
 70
     5
 71
     0
 72
     2
 73
     1
 90
        0
 40
-0.6
 41
-30.0
 62
     5
 63
     7
 74
     1
 91
        4
 64
     7
 65
   257
 75
     1
175
     1
 42
1.0
 92
        0
 66
   257
 43
1.0
 76
     1
 77
     6
 78
     2
 67
     7
 79
     5
170
     0
171
     0
290
     0
174
     0
 93
        1
 44
0.0
173
     0
291
     0
 45
0.0
1001
ACAD
1000
AcDbSavedByObjectVersion
1070
     0
  0
VISUALSTYLE
  5
F4
102
{ACAD_REACTORS
330
EF
102
}
330
EF
100
AcDbVisualStyle
  2
Basic
 70
     7
 71
     1
 72
     0
 73
     1
 90
        0
 40
-0.6
 41
-30.0
 62
     5
 63
     7
 74
     0
 91
        4
 64
     7
 65
   257
 75
     1
175
     1
 42
1.0
 92
        8
 66
     7
 43
1.0
 76
     1
 77
     6
 78
     2
 67
     7
 79
     5
170
     0
171
     0
290
     0
174
     0
 93
        1
 44
0.0
173
     0
291
     1
 45
0.0
1001
ACAD
1000
AcDbSavedByObjectVersion
1070
     0
  0
VISUALSTYLE
  5
FB
102
{ACAD_REACTORS
330
EF
102
}
330
EF
100
AcDbVisualStyle
  2
Brighten
 70
    12
 71
     2
 72
     2
 73
     1
 90
        0
 40
-0.6
 41
-30.0
 62
     5
 63
     7
 74
     1
 91
        4
 64
     7
 65
   257
 75
     1
175
     1
 42
1.0
 92
        8
 66
     7
 43
1.0
 76
     1
 77
     6
 78
     2
 67
     7
 79
     5
170
     0
171
     0
290
     0
174
     0
 93
        1
 44
50.0
173
     0
291
     1
 45
0.0
1001
ACAD
1000
AcDbSavedByObjectVersion
1070
     0
  0
VISUALSTYLE
  5
FF
102
{ACAD_REACTORS
330
EF
102
}
330
EF
100
AcDbVisualStyle
  2
ColorChange
 70
    16
 71
     2
 72
     2
 73
     3
 90
        0
 40
-0.6
 41
-30.0
 62
     5
 63
     8
 74
     1
 91
        4
 64
     7
 65
   257
 75
     1
175
     1
 42
1.0
 92
        8
 66
     8
 43
1.0
 76
     1
 77
     6
 78
     2
 67
     7
 79
     5
170
     0
171
     0
290
     0
174
     0
 93
        1
 44
0.0
173
     0
291
     1
 45
0.0
1001
ACAD
1000
AcDbSavedByObjectVersion
1070
     0
  0
VISUALSTYLE
  5
F8
102
{ACAD_REACTORS
330
EF
102
}
330
EF
100
AcDbVisualStyle
  2
Conceptual
 70
     9
 71
     3
 72
     2
 73
     1
 90
        0
 40
-0.6
 41
-30.0
 62
     5
 63
     7
 74
     2
 91
        2
 64
     7
 65
   257
 75
     1
175
     1
 42
40.0
 92
        8
 66
     7
 43
1.0
 76
     1
 77
     6
 78
     2
 67
     7
 79
     3
170
     0
171
     0
290
     0
174
     0
 93
        1
 44
0.0
173
     0
291
     0
 45
0.0
1001
ACAD
1000
AcDbSavedByObjectVersion
1070
     0
  0
VISUALSTYLE
  5
FA
102
{ACAD_REACTORS
330
EF
102
}
330
EF
100
AcDbVisualStyle
  2
Dim
 70
    11
 71
     2
 72
     2
 73
     1
 90
        0
 40
-0.6
 41
-30.0
 62
     5
 63
     7
 74
     1
 91
        4
 64
     7
 65
   257
 75
     1
175
     1
 42
1.0
 92
        8
 66
     7
 43
1.0
 76
     1
 77
     6
 78
     2
 67
     7
 79
     5
170
     0
171
     0
290
     0
174
     0
 93
        1
 44
-50.0
173
     0
291
     1
 45
0.0
1001
ACAD
1000
AcDbSavedByObjectVersion
1070
     0
  0
VISUALSTYLE
  5
FE
102
{ACAD_REACTORS
330
EF
102
}
330
EF
100
AcDbVisualStyle
  2
Facepattern
 70
    15
 71
     2
 72
     2
 73
     1
 90
        0
 40
-0.6
 41
-30.0
 62
     5
 63
     7
 74
     1
 91
        4
 64
     7
 65
   257
 75
     1
175
     1
 42
1.0
 92
        8
 66
     7
 43
1.0
 76
     1
 77
     6
 78
     2
 67
     7
 79
     5
170
     0
171
     0
290
     0
174
     0
 93
        1
 44
0.0
173
     0
291
     1
 45
0.0
1001
ACAD
1000
AcDbSavedByObjectVersion
1070
     0
  0
VISUALSTYLE
  5
F0
102
{ACAD_REACTORS
330
EF
102
}
330
EF
100
AcDbVisualStyle
  2
Flat
 70
     0
 71
     2
 72
     1
 73
     1
 90
        2
 40
-0.6
 41
30.0
 62
     5
 63
     7
 74
     0
 91
        4
 64
     7
 65
   257
 75
     1
175
     1
 42
1.0
 92
        8
 66
     7
 43
1.0
 76
     1
 77
     6
 78
     2
 67
     7
 79
     5
170
     0
171
     0
290
     0
174
     0
 93
        1
 44
0.0
173
     0
291
     1
 45
0.0
1001
ACAD
1000
AcDbSavedByObjectVersion
1070
     0
  0
VISUALSTYLE
  5
F1
102
{ACAD_REACTORS
330
EF
102
}
330
EF
100
AcDbVisualStyle
  2
FlatWithEdges
 70
     1
 71
     2
 72
     1
 73
     1
 90
        2
 40
-0.6
 41
30.0
 62
     5
 63
     7
 74
     1
 91
        4
 64
     7
 65
   257
 75
     1
175
     1
 42
1.0
 92
        0
 66
   257
 43
1.0
 76
     1
 77
     6
 78
     2
 67
     7
 79
     5
170
     0
171
     0
290
     0
174
     0
 93
        1
 44
0.0
173
     0
291
     1
 45
0.0
1001
ACAD
1000
AcDbSavedByObjectVersion
1070
     0
  0
VISUALSTYLE
  5
F2
102
{ACAD_REACTORS
330
EF
102
}
330
EF
100
AcDbVisualStyle
  2
Gouraud
 70
     2
 71
     2
 72
     2
 73
     1
 90
        2
 40
-0.6
 41
30.0
 62
     5
 63
     7
 74
     0
 91
        4
 64
     7
 65
   257
 75
     1
175
     1
 42
1.0
 92
        0
 66
     7
 43
1.0
 76
     1
 77
     6
 78
     2
 67
     7
 79
     5
170
     0
171
     0
290
     0
174
     0
 93
        1
 44
0.0
173
     0
291
     1
 45
0.0
1001
ACAD
1000
AcDbSavedByObjectVersion
1070
     0
  0
VISUALSTYLE
  5
F3
102
{ACAD_REACTORS
330
EF
102
}
330
EF
100
AcDbVisualStyle
  2
GouraudWithEdges
 70
     3
 71
     2
 72
     2
 73
     1
 90
        2
 40
-0.6
 41
30.0
 62
     5
 63
     7
 74
     1
 91
        4
 64
     7
 65
   257
 75
     1
175
     1
 42
1.0
 92
        0
 66
   257
 43
1.0
 76
     1
 77
     6
 78
     2
 67
     7
 79
     5
170
     0
171
     0
290
     0
174
     0
 93
        1
 44
0.0
173
     0
291
     1
 45
0.0
1001
ACAD
1000
AcDbSavedByObjectVersion
1070
     0
  0
VISUALSTYLE
  5
FD
102
{ACAD_REACTORS
330
EF
102
}
330
EF
100
AcDbVisualStyle
  2
Linepattern
 70
    14
 71
     2
 72
     2
 73
     1
 90
        0
 40
-0.6
 41
-30.0
 62
     5
 63
     7
 74
     1
 91
        4
 64
     7
 65
   257
 75
     7
175
     7
 42
1.0
 92
        8
 66
     7
 43
1.0
 76
     1
 77
     6
 78
     2
 67
     7
 79
     5
170
     0
171
     0
290
     0
174
     0
 93
        1
 44
0.0
173
     0
291
     1
 45
0.0
1001
ACAD
1000
AcDbSavedByObjectVersion
1070
     0
  0
VISUALSTYLE
  5
F9
102
{ACAD_REACTORS
330
EF
102
}
330
EF
100
AcDbVisualStyle
  2
Realistic
 70
     8
 71
     2
 72
     2
 73
     1
 90
        0
 40
-0.6
 41
-30.0
 62
     5
 63
     7
 74
     1
 91
        0
 64
     7
 65
   257
 75
     1
175
     1
 42
1.0
 92
        8
 66
     8
 43
1.0
 76
     1
 77
     6
 78
     2
 67
     7
 79
     5
170
     0
171
     0
290
     0
174
     0
 93
       13
 44
0.0
173
     0
291
     0
 45
0.0
1001
ACAD
1000
AcDbSavedByObjectVersion
1070
     0
  0
VISUALSTYLE
  5
FC
102
{ACAD_REACTORS
330
EF
102
}
330
EF
100
AcDbVisualStyle
  2
Thicken
 70
    13
 71
     2
 72
     2
 73
     1
 90
        0
 40
-0.6
 41
-30.0
 62
     5
 63
     7
 74
     1
 91
        4
 64
     7
 65
   257
 75
     1
175
     1
 42
1.0
 92
       12
 66
     7
 43
1.0
 76
     1
 77
     6
 78
     2
 67
     7
 79
     5
170
     0
171
     0
290
     0
174
     0
 93
        1
 44
0.0
173
     0
291
     1
 45
0.0
1001
ACAD
1000
AcDbSavedByObjectVersion
1070
     0
  0
DICTIONARYVAR
  5
146
102
{ACAD_REACTORS
330
5E
102
}
330
5E
100
DictionaryVariables
280
     0
  1
1:1
  0
DICTIONARYVAR
  5
145
102
{ACAD_REACTORS
330
5E
102
}
330
5E
100
DictionaryVariables
280
     0
  1
STANDARD
  0
DICTIONARYVAR
  5
84
102
{ACAD_REACTORS
330
5E
102
}
330
5E
100
DictionaryVariables
280
     0
  1
STANDARD
  0
DICTIONARYVAR
  5
5F
102
{ACAD_REACTORS
330
5E
102
}
330
5E
100
DictionaryVariables
280
     0
  1
2
  0
DICTIONARYVAR
  5
63
102
{ACAD_REACTORS
330
5E
102
}
330
5E
100
DictionaryVariables
280
     0
  1
1
  0
DICTIONARYVAR
  5
E93
102
{ACAD_REACTORS
330
5E
102
}
330
5E
100
DictionaryVariables
280
     0
  1
0
  0
DICTIONARYVAR
  5
E91
102
{ACAD_REACTORS
330
5E
102
}
330
5E
100
DictionaryVariables
280
     0
  1
2
  0
DICTIONARYVAR
  5
E90
102
{ACAD_REACTORS
330
5E
102
}
330
5E
100
DictionaryVariables
280
     0
  1
1
  0
DICTIONARYVAR
  5
E95
102
{ACAD_REACTORS
330
5E
102
}
330
5E
100
DictionaryVariables
280
     0
  1
80.000000
  0
DICTIONARYVAR
  5
E94
102
{ACAD_REACTORS
330
5E
102
}
330
5E
100
DictionaryVariables
280
     0
  1
5.000000
  0
DICTIONARYVAR
  5
E92
102
{ACAD_REACTORS
330
5E
102
}
330
5E
100
DictionaryVariables
280
     0
  1
127
  0
DICTIONARY
  5
E9B
330
D3
100
AcDbDictionary
280
     1
281
     1
  3
ACAD_XREC_ROUNDTRIP
360
E9C
  0
DICTIONARY
  5
E9D
330
D7
100
AcDbDictionary
280
     1
281
     1
  3
ACAD_XREC_ROUNDTRIP
360
E9E
  0
DICTIONARY
  5
E98
330
22
100
AcDbDictionary
280
     1
281
     1
  3
ACAD_XREC_ROUNDTRIP
360
E99
  0
DICTIONARY
  5
EA1
330
ED
100
AcDbDictionary
280
     1
281
     1
  3
ACAD_XREC_ROUNDTRIP
360
EA2
  0
DICTIONARY
  5
E9F
330
EC
100
AcDbDictionary
280
     1
281
     1
  3
ACAD_XREC_ROUNDTRIP
360
EA0
  0
DICTIONARY
  5
173
330
EE
100
AcDbDictionary
280
     1
281
     1
  3
ACAD_XREC_ROUNDTRIP
360
EA3
  3
BUMPTILE
360
175
  3
DIFFUSETILE
360
174
  3
OPACITYTILE
360
176
  3
REFLECTIONTILE
360
177
  0
DICTIONARY
  5
162
330
7F
100
AcDbDictionary
280
     1
281
     1
  3
ACAD_ROUNDTRIP_2008_TABLESTYLE_CELLSTYLEMAP
360
E96
  3
ACAD_XREC_ROUNDTRIP
360
E9A
  0
XRECORD
  5
E9C
102
{ACAD_REACTORS
330
E9B
102
}
330
E9B
100
AcDbXrecord
280
     1
102
SHADEPLOT
 70
     0
102
SHADEPLOTRESLEVEL
 70
     2
102
SHADEPLOTCUSTOMDPI
 70
   300
  0
XRECORD
  5
E9E
102
{ACAD_REACTORS
330
E9D
102
}
330
E9D
100
AcDbXrecord
280
     1
102
SHADEPLOT
 70
     0
102
SHADEPLOTRESLEVEL
 70
     2
102
SHADEPLOTCUSTOMDPI
 70
   300
  0
XRECORD
  5
E99
102
{ACAD_REACTORS
330
E98
102
}
330
E98
100
AcDbXrecord
280
     1
102
SHADEPLOT
 70
     0
102
SHADEPLOTRESLEVEL
 70
     2
102
SHADEPLOTCUSTOMDPI
 70
   300
  0
XRECORD
  5
EA2
102
{ACAD_REACTORS
330
EA1
102
}
330
EA1
100
AcDbXrecord
280
     1
102
MATERIAL
148
0.0
149
0.0
149
0.0
 93
        0
 94
       63
282
     0
 72
     1
 77
     1
171
     1
175
     1
179
     1
273
     0
  0
XRECORD
  5
EA0
102
{ACAD_REACTORS
330
E9F
102
}
330
E9F
100
AcDbXrecord
280
     1
102
MATERIAL
148
0.0
149
0.0
149
0.0
 93
        0
 94
       63
282
     0
 72
     1
 77
     1
171
     1
175
     1
179
     1
273
     0
  0
XRECORD
  5
EA3
102
{ACAD_REACTORS
330
173
102
}
330
173
100
AcDbXrecord
280
     1
102
MATERIAL
148
0.0
149
0.0
149
0.0
 93
        0
 94
       63
282
     0
 72
     1
 77
     1
171
     1
175
     1
179
     1
273
     0
  0
XRECORD
  5
175
102
{ACAD_REACTORS
330
173
102
}
330
173
100
AcDbXrecord
280
     1
270
     1
271
     1
  0
XRECORD
  5
174
102
{ACAD_REACTORS
330
173
102
}
330
173
100
AcDbXrecord
280
     1
270
     1
271
     1
  0
XRECORD
  5
176
102
{ACAD_REACTORS
330
173
102
}
330
173
100
AcDbXrecord
280
     1
270
     1
271
     1
  0
XRECORD
  5
177
102
{ACAD_REACTORS
330
173
102
}
330
173
100
AcDbXrecord
280
     1
270
     1
271
     1
  0
CELLSTYLEMAP
  5
E96
102
{ACAD_REACTORS
330
162
102
}
330
162
100
AcDbCellStyleMap
 90
        3
300
CELLSTYLE
  1
TABLEFORMAT_BEGIN
 90
        5
170
     1
 91
        0
 92
    32768
 62
   257
 93
        1
300
CONTENTFORMAT
  1
CONTENTFORMAT_BEGIN
 90
        0
 91
        0
 92
      512
 93
        0
300

 40
0.0
140
1.0
 94
        5
 62
     0
340
11
144
6.0
309
CONTENTFORMAT_END
171
     1
301
MARGIN
  1
CELLMARGIN_BEGIN
 40
1.5
 40
1.5
 40
1.5
 40
1.5
 40
4.5
 40
4.5
309
CELLMARGIN_END
 94
        6
 95
        1
302
GRIDFORMAT
  1
GRIDFORMAT_BEGIN
 90
        0
 91
        1
 62
     0
 92
       -2
340
14
 93
        0
 40
1.125
309
GRIDFORMAT_END
 95
        2
302
GRIDFORMAT
  1
GRIDFORMAT_BEGIN
 90
        0
 91
        1
 62
     0
 92
       -2
340
14
 93
        0
 40
1.125
309
GRIDFORMAT_END
 95
        4
302
GRIDFORMAT
  1
GRIDFORMAT_BEGIN
 90
        0
 91
        1
 62
     0
 92
       -2
340
14
 93
        0
 40
1.125
309
GRIDFORMAT_END
 95
        8
302
GRIDFORMAT
  1
GRIDFORMAT_BEGIN
 90
        0
 91
        1
 62
     0
 92
       -2
340
14
 93
        0
 40
1.125
309
GRIDFORMAT_END
 95
       16
302
GRIDFORMAT
  1
GRIDFORMAT_BEGIN
 90
        0
 91
        1
 62
     0
 92
       -2
340
14
 93
        0
 40
1.125
309
GRIDFORMAT_END
 95
       32
302
GRIDFORMAT
  1
GRIDFORMAT_BEGIN
 90
        0
 91
        1
 62
     0
 92
       -2
340
14
 93
        0
 40
1.125
309
GRIDFORMAT_END
309
TABLEFORMAT_END
  1
CELLSTYLE_BEGIN
 90
        1
 91
        1
300
_TITLE
309
CELLSTYLE_END
300
CELLSTYLE
  1
TABLEFORMAT_BEGIN
 90
        5
170
     1
 91
        0
 92
        0
 62
   257
 93
        1
300
CONTENTFORMAT
  1
CONTENTFORMAT_BEGIN
 90
        0
 91
        0
 92
      512
 93
        0
300

 40
0.0
140
1.0
 94
        5
 62
     0
340
11
144
4.5
309
CONTENTFORMAT_END
171
     1
301
MARGIN
  1
CELLMARGIN_BEGIN
 40
1.5
 40
1.5
 40
1.5
 40
1.5
 40
4.5
 40
4.5
309
CELLMARGIN_END
 94
        6
 95
        1
302
GRIDFORMAT
  1
GRIDFORMAT_BEGIN
 90
        0
 91
        1
 62
     0
 92
       -2
340
14
 93
        0
 40
1.125
309
GRIDFORMAT_END
 95
        2
302
GRIDFORMAT
  1
GRIDFORMAT_BEGIN
 90
        0
 91
        1
 62
     0
 92
       -2
340
14
 93
        0
 40
1.125
309
GRIDFORMAT_END
 95
        4
302
GRIDFORMAT
  1
GRIDFORMAT_BEGIN
 90
        0
 91
        1
 62
     0
 92
       -2
340
14
 93
        0
 40
1.125
309
GRIDFORMAT_END
 95
        8
302
GRIDFORMAT
  1
GRIDFORMAT_BEGIN
 90
        0
 91
        1
 62
     0
 92
       -2
340
14
 93
        0
 40
1.125
309
GRIDFORMAT_END
 95
       16
302
GRIDFORMAT
  1
GRIDFORMAT_BEGIN
 90
        0
 91
        1
 62
     0
 92
       -2
340
14
 93
        0
 40
1.125
309
GRIDFORMAT_END
 95
       32
302
GRIDFORMAT
  1
GRIDFORMAT_BEGIN
 90
        0
 91
        1
 62
     0
 92
       -2
340
14
 93
        0
 40
1.125
309
GRIDFORMAT_END
309
TABLEFORMAT_END
  1
CELLSTYLE_BEGIN
 90
        2
 91
        1
300
_HEADER
309
CELLSTYLE_END
300
CELLSTYLE
  1
TABLEFORMAT_BEGIN
 90
        5
170
     1
 91
        0
 92
        0
 62
   257
 93
        1
300
CONTENTFORMAT
  1
CONTENTFORMAT_BEGIN
 90
        0
 91
        0
 92
      512
 93
        0
300

 40
0.0
140
1.0
 94
        2
 62
     0
340
11
144
4.5
309
CONTENTFORMAT_END
171
     1
301
MARGIN
  1
CELLMARGIN_BEGIN
 40
1.5
 40
1.5
 40
1.5
 40
1.5
 40
4.5
 40
4.5
309
CELLMARGIN_END
 94
        6
 95
        1
302
GRIDFORMAT
  1
GRIDFORMAT_BEGIN
 90
        0
 91
        1
 62
     0
 92
       -2
340
14
 93
        0
 40
1.125
309
GRIDFORMAT_END
 95
        2
302
GRIDFORMAT
  1
GRIDFORMAT_BEGIN
 90
        0
 91
        1
 62
     0
 92
       -2
340
14
 93
        0
 40
1.125
309
GRIDFORMAT_END
 95
        4
302
GRIDFORMAT
  1
GRIDFORMAT_BEGIN
 90
        0
 91
        1
 62
     0
 92
       -2
340
14
 93
        0
 40
1.125
309
GRIDFORMAT_END
 95
        8
302
GRIDFORMAT
  1
GRIDFORMAT_BEGIN
 90
        0
 91
        1
 62
     0
 92
       -2
340
14
 93
        0
 40
1.125
309
GRIDFORMAT_END
 95
       16
302
GRIDFORMAT
  1
GRIDFORMAT_BEGIN
 90
        0
 91
        1
 62
     0
 92
       -2
340
14
 93
        0
 40
1.125
309
GRIDFORMAT_END
 95
       32
302
GRIDFORMAT
  1
GRIDFORMAT_BEGIN
 90
        0
 91
        1
 62
     0
 92
       -2
340
14
 93
        0
 40
1.125
309
GRIDFORMAT_END
309
TABLEFORMAT_END
  1
CELLSTYLE_BEGIN
 90
        3
 91
        2
300
_DATA
309
CELLSTYLE_END
  0
XRECORD
  5
E9A
102
{ACAD_REACTORS
330
162
102
}
330
162
100
AcDbXrecord
280
     1
102
ACAD_ROUNDTRIP_PRE2007_TABLESTYLE
 90
      512
 91
        0
  1

 92
      512
 93
        0
  2

 94
      512
 95
        0
  3

  0
ENDSEC
  0
EOF
