  0
SECTION
  2
HEADER
  9
$ACADVER
  1
AC1015
  9
$ACADMAINTVER
 70
    20
  9
$DWGCODEPAGE
  3
ANSI_1254
  9
$INSBASE
 10
0.0
 20
0.0
 30
0.0
  9
$EXTMIN
 10
1148.042392738273
 20
1237.125166311028
 30
0.0
  9
$EXTMAX
 10
1268.846726549251
 20
1292.671527935367
 30
0.0
  9
$LIMMIN
 10
0.0
 20
0.0
  9
$LIMMAX
 10
420.0
 20
297.0
  9
$ORTHOMODE
 70
     0
  9
$REGENMODE
 70
     1
  9
$FILLMODE
 70
     1
  9
$QTEXTMODE
 70
     0
  9
$MIRRTEXT
 70
     0
  9
$LTSCALE
 40
1.0
  9
$ATTMODE
 70
     1
  9
$TEXTSIZE
 40
2.5
  9
$TRACEWID
 40
1.0
  9
$TEXTSTYLE
  7
Standard
  9
$CLAYER
  8
0
  9
$CELTYPE
  6
ByLayer
  9
$CECOLOR
 62
   256
  9
$CELTSCALE
 40
1.0
  9
$DISPSILH
 70
     0
  9
$DIMSCALE
 40
1.0
  9
$DIMASZ
 40
2.5
  9
$DIMEXO
 40
0.625
  9
$DIMDLI
 40
3.75
  9
$DIMRND
 40
0.0
  9
$DIMDLE
 40
0.0
  9
$DIMEXE
 40
1.25
  9
$DIMTP
 40
0.0
  9
$DIMTM
 40
0.0
  9
$DIMTXT
 40
2.5
  9
$DIMCEN
 40
2.5
  9
$DIMTSZ
 40
0.0
  9
$DIMTOL
 70
     0
  9
$DIMLIM
 70
     0
  9
$DIMTIH
 70
     0
  9
$DIMTOH
 70
     0
  9
$DIMSE1
 70
     0
  9
$DIMSE2
 70
     0
  9
$DIMTAD
 70
     1
  9
$DIMZIN
 70
     8
  9
$DIMBLK
  1

  9
$DIMASO
 70
     1
  9
$DIMSHO
 70
     1
  9
$DIMPOST
  1

  9
$DIMAPOST
  1

  9
$DIMALT
 70
     0
  9
$DIMALTD
 70
     3
  9
$DIMALTF
 40
0.03937007874016
  9
$DIMLFAC
 40
1.0
  9
$DIMTOFL
 70
     1
  9
$DIMTVP
 40
0.0
  9
$DIMTIX
 70
     0
  9
$DIMSOXD
 70
     0
  9
$DIMSAH
 70
     0
  9
$DIMBLK1
  1

  9
$DIMBLK2
  1

  9
$DIMSTYLE
  2
ISO-25
  9
$DIMCLRD
 70
     0
  9
$DIMCLRE
 70
     0
  9
$DIMCLRT
 70
     0
  9
$DIMTFAC
 40
1.0
  9
$DIMGAP
 40
0.625
  9
$DIMJUST
 70
     0
  9
$DIMSD1
 70
     0
  9
$DIMSD2
 70
     0
  9
$DIMTOLJ
 70
     0
  9
$DIMTZIN
 70
     8
  9
$DIMALTZ
 70
     0
  9
$DIMALTTZ
 70
     0
  9
$DIMUPT
 70
     0
  9
$DIMDEC
 70
     2
  9
$DIMTDEC
 70
     2
  9
$DIMALTU
 70
     2
  9
$DIMALTTD
 70
     3
  9
$DIMTXSTY
  7
Standard
  9
$DIMAUNIT
 70
     0
  9
$DIMADEC
 70
     0
  9
$DIMALTRND
 40
0.0
  9
$DIMAZIN
 70
     0
  9
$DIMDSEP
 70
    44
  9
$DIMATFIT
 70
     3
  9
$DIMFRAC
 70
     0
  9
$DIMLDRBLK
  1

  9
$DIMLUNIT
 70
     2
  9
$DIMLWD
 70
    -2
  9
$DIMLWE
 70
    -2
  9
$DIMTMOVE
 70
     0
  9
$LUNITS
 70
     2
  9
$LUPREC
 70
     4
  9
$SKETCHINC
 40
1.0
  9
$FILLETRAD
 40
0.0
  9
$AUNITS
 70
     0
  9
$AUPREC
 70
     0
  9
$MENU
  1
.
  9
$ELEVATION
 40
0.0
  9
$PELEVATION
 40
0.0
  9
$THICKNESS
 40
0.0
  9
$LIMCHECK
 70
     0
  9
$CHAMFERA
 40
0.0
  9
$CHAMFERB
 40
0.0
  9
$CHAMFERC
 40
0.0
  9
$CHAMFERD
 40
0.0
  9
$SKPOLY
 70
     0
  9
$TDCREATE
 40
2458589.548170428
  9
$TDUCREATE
 40
2458589.423170428
  9
$TDUPDATE
 40
2458956.383814074
  9
$TDUUPDATE
 40
2458956.258814074
  9
$TDINDWG
 40
0.0004457060
  9
$TDUSRTIMER
 40
0.0004455208
  9
$USRTIMER
 70
     1
  9
$ANGBASE
 50
0.0
  9
$ANGDIR
 70
     0
  9
$PDMODE
 70
     0
  9
$PDSIZE
 40
0.0
  9
$PLINEWID
 40
0.0
  9
$SPLFRAME
 70
     0
  9
$SPLINETYPE
 70
     6
  9
$SPLINESEGS
 70
     8
  9
$HANDSEED
  5
949
  9
$SURFTAB1
 70
     6
  9
$SURFTAB2
 70
     6
  9
$SURFTYPE
 70
     6
  9
$SURFU
 70
     6
  9
$SURFV
 70
     6
  9
$UCSBASE
  2

  9
$UCSNAME
  2

  9
$UCSORG
 10
0.0
 20
0.0
 30
0.0
  9
$UCSXDIR
 10
1.0
 20
0.0
 30
0.0
  9
$UCSYDIR
 10
0.0
 20
1.0
 30
0.0
  9
$UCSORTHOREF
  2

  9
$UCSORTHOVIEW
 70
     0
  9
$UCSORGTOP
 10
0.0
 20
0.0
 30
0.0
  9
$UCSORGBOTTOM
 10
0.0
 20
0.0
 30
0.0
  9
$UCSORGLEFT
 10
0.0
 20
0.0
 30
0.0
  9
$UCSORGRIGHT
 10
0.0
 20
0.0
 30
0.0
  9
$UCSORGFRONT
 10
0.0
 20
0.0
 30
0.0
  9
$UCSORGBACK
 10
0.0
 20
0.0
 30
0.0
  9
$PUCSBASE
  2

  9
$PUCSNAME
  2

  9
$PUCSORG
 10
0.0
 20
0.0
 30
0.0
  9
$PUCSXDIR
 10
1.0
 20
0.0
 30
0.0
  9
$PUCSYDIR
 10
0.0
 20
1.0
 30
0.0
  9
$PUCSORTHOREF
  2

  9
$PUCSORTHOVIEW
 70
     0
  9
$PUCSORGTOP
 10
0.0
 20
0.0
 30
0.0
  9
$PUCSORGBOTTOM
 10
0.0
 20
0.0
 30
0.0
  9
$PUCSORGLEFT
 10
0.0
 20
0.0
 30
0.0
  9
$PUCSORGRIGHT
 10
0.0
 20
0.0
 30
0.0
  9
$PUCSORGFRONT
 10
0.0
 20
0.0
 30
0.0
  9
$PUCSORGBACK
 10
0.0
 20
0.0
 30
0.0
  9
$USERI1
 70
     0
  9
$USERI2
 70
     0
  9
$USERI3
 70
     0
  9
$USERI4
 70
     0
  9
$USERI5
 70
     0
  9
$USERR1
 40
0.0
  9
$USERR2
 40
0.0
  9
$USERR3
 40
0.0
  9
$USERR4
 40
0.0
  9
$USERR5
 40
0.0
  9
$WORLDVIEW
 70
     1
  9
$SHADEDGE
 70
     3
  9
$SHADEDIF
 70
    70
  9
$TILEMODE
 70
     1
  9
$MAXACTVP
 70
    64
  9
$PINSBASE
 10
0.0
 20
0.0
 30
0.0
  9
$PLIMCHECK
 70
     0
  9
$PEXTMIN
 10
0.0
 20
0.0
 30
0.0
  9
$PEXTMAX
 10
0.0
 20
0.0
 30
0.0
  9
$PLIMMIN
 10
0.0
 20
0.0
  9
$PLIMMAX
 10
12.0
 20
9.0
  9
$UNITMODE
 70
     0
  9
$VISRETAIN
 70
     1
  9
$PLINEGEN
 70
     0
  9
$PSLTSCALE
 70
     1
  9
$TREEDEPTH
 70
  3020
  9
$CMLSTYLE
  2
Standard
  9
$CMLJUST
 70
     0
  9
$CMLSCALE
 40
20.0
  9
$PROXYGRAPHICS
 70
     1
  9
$MEASUREMENT
 70
     1
  9
$CELWEIGHT
370
    -1
  9
$ENDCAPS
280
     0
  9
$JOINSTYLE
280
     0
  9
$LWDISPLAY
290
     0
  9
$INSUNITS
 70
     4
  9
$HYPERLINKBASE
  1

  9
$STYLESHEET
  1

  9
$XEDIT
290
     1
  9
$CEPSNTYPE
380
     0
  9
$PSTYLEMODE
290
     1
  9
$FINGERPRINTGUID
  2
{63B9401F-4767-4940-ADD1-3205396F96EA}
  9
$VERSIONGUID
  2
{F4B85C5A-9AA7-4C7A-B889-0DAB15FB84F6}
  9
$EXTNAMES
290
     1
  9
$PSVPSCALE
 40
0.0
  9
$OLESTARTUP
290
     0
  0
ENDSEC
  0
SECTION
  2
CLASSES
  0
CLASS
  1
ACDBDICTIONARYWDFLT
  2
AcDbDictionaryWithDefault
  3
ObjectDBX Classes
 90
        0
280
     0
281
     0
  0
CLASS
  1
ACDBPLACEHOLDER
  2
AcDbPlaceHolder
  3
ObjectDBX Classes
 90
        0
280
     0
281
     0
  0
CLASS
  1
LAYOUT
  2
AcDbLayout
  3
ObjectDBX Classes
 90
        0
280
     0
281
     0
  0
CLASS
  1
DICTIONARYVAR
  2
AcDbDictionaryVar
  3
ObjectDBX Classes
 90
        0
280
     0
281
     0
  0
CLASS
  1
TABLESTYLE
  2
AcDbTableStyle
  3
ObjectDBX Classes
 90
     4095
280
     0
281
     0
  0
CLASS
  1
MATERIAL
  2
AcDbMaterial
  3
ObjectDBX Classes
 90
     1153
280
     0
281
     0
  0
CLASS
  1
VISUALSTYLE
  2
AcDbVisualStyle
  3
ObjectDBX Classes
 90
     4095
280
     0
281
     0
  0
CLASS
  1
SCALE
  2
AcDbScale
  3
ObjectDBX Classes
 90
     1153
280
     0
281
     0
  0
CLASS
  1
MLEADERSTYLE
  2
AcDbMLeaderStyle
  3
ACDB_MLEADERSTYLE_CLASS
 90
     4095
280
     0
281
     0
  0
CLASS
  1
CELLSTYLEMAP
  2
AcDbCellStyleMap
  3
ObjectDBX Classes
 90
     1152
280
     0
281
     0
  0
ENDSEC
  0
SECTION
  2
TABLES
  0
TABLE
  2
VPORT
  5
8
330
0
100
AcDbSymbolTable
 70
     1
  0
VPORT
  5
EA
330
8
100
AcDbSymbolTableRecord
100
AcDbViewportTableRecord
  2
*Active
 70
     0
 10
0.0
 20
0.0
 11
1.0
 21
1.0
 12
1266.237483855332
 22
1264.89929180722
 13
0.0
 23
0.0
 14
10.0
 24
10.0
 15
10.0
 25
10.0
 16
0.0
 26
0.0
 36
1.0
 17
0.0
 27
0.0
 37
0.0
 40
109.5644928434366
 41
1.903110047846889
 42
50.0
 43
0.0
 44
0.0
 50
0.0
 51
0.0
 71
     0
 72
  1000
 73
     1
 74
     3
 75
     0
 76
     0
 77
     0
 78
     0
281
     0
 65
     1
110
0.0
120
0.0
130
0.0
111
1.0
121
0.0
131
0.0
112
0.0
122
1.0
132
0.0
 79
     0
146
0.0
  0
ENDTAB
  0
TABLE
  2
LTYPE
  5
5
330
0
100
AcDbSymbolTable
 70
     1
  0
LTYPE
  5
14
330
5
100
AcDbSymbolTableRecord
100
AcDbLinetypeTableRecord
  2
ByBlock
 70
     0
  3

 72
    65
 73
     0
 40
0.0
  0
LTYPE
  5
15
330
5
100
AcDbSymbolTableRecord
100
AcDbLinetypeTableRecord
  2
ByLayer
 70
     0
  3

 72
    65
 73
     0
 40
0.0
  0
LTYPE
  5
16
330
5
100
AcDbSymbolTableRecord
100
AcDbLinetypeTableRecord
  2
Continuous
 70
     0
  3
Solid line
 72
    65
 73
     0
 40
0.0
  0
ENDTAB
  0
TABLE
  2
LAYER
  5
2
330
0
100
AcDbSymbolTable
 70
     1
  0
LAYER
  5
10
102
{ACAD_XDICTIONARY
360
13C
102
}
330
2
100
AcDbSymbolTableRecord
100
AcDbLayerTableRecord
  2
0
 70
     0
 62
     7
  6
Continuous
370
    -3
390
F
  0
ENDTAB
  0
TABLE
  2
STYLE
  5
3
330
0
100
AcDbSymbolTable
 70
     2
  0
STYLE
  5
11
330
3
100
AcDbSymbolTableRecord
100
AcDbTextStyleTableRecord
  2
Standard
 70
     0
 40
0.0
 41
1.0
 50
0.0
 71
     0
 42
2.5
  3
txt
  4

  0
STYLE
  5
132
330
3
100
AcDbSymbolTableRecord
100
AcDbTextStyleTableRecord
  2
Annotative
 70
     0
 40
0.0
 41
1.0
 50
0.0
 71
     0
 42
2.5
  3
txt.shx
  4

1001
AcadAnnotative
1000
AnnotativeData
1002
{
1070
     1
1070
     1
1002
}
  0
ENDTAB
  0
TABLE
  2
VIEW
  5
6
330
0
100
AcDbSymbolTable
 70
     0
  0
ENDTAB
  0
TABLE
  2
UCS
  5
7
330
0
100
AcDbSymbolTable
 70
     0
  0
ENDTAB
  0
TABLE
  2
APPID
  5
9
330
0
100
AcDbSymbolTable
 70
     7
  0
APPID
  5
12
330
9
100
AcDbSymbolTableRecord
100
AcDbRegAppTableRecord
  2
ACAD
 70
     0
  0
APPID
  5
9E
330
9
100
AcDbSymbolTableRecord
100
AcDbRegAppTableRecord
  2
ACAD_PSEXT
 70
     0
  0
APPID
  5
133
330
9
100
AcDbSymbolTableRecord
100
AcDbRegAppTableRecord
  2
AcadAnnoPO
 70
     0
  0
APPID
  5
134
330
9
100
AcDbSymbolTableRecord
100
AcDbRegAppTableRecord
  2
AcadAnnotative
 70
     0
  0
APPID
  5
135
330
9
100
AcDbSymbolTableRecord
100
AcDbRegAppTableRecord
  2
ACAD_DSTYLE_DIMJAG
 70
     0
  0
APPID
  5
136
330
9
100
AcDbSymbolTableRecord
100
AcDbRegAppTableRecord
  2
ACAD_DSTYLE_DIMTALN
 70
     0
  0
APPID
  5
165
330
9
100
AcDbSymbolTableRecord
100
AcDbRegAppTableRecord
  2
ACAD_MLEADERVER
 70
     0
  0
ENDTAB
  0
TABLE
  2
DIMSTYLE
  5
A
330
0
100
AcDbSymbolTable
 70
     2
100
AcDbDimStyleTable
 71
     2
340
27
340
137
  0
DIMSTYLE
105
27
330
A
100
AcDbSymbolTableRecord
100
AcDbDimStyleTableRecord
  2
ISO-25
 70
     0
 41
2.5
 42
0.625
 43
3.75
 44
1.25
 73
     0
 74
     0
 77
     1
 78
     8
140
2.5
141
2.5
143
0.03937007874016
147
0.625
171
     3
172
     1
271
     2
272
     2
274
     3
278
    44
283
     0
284
     8
340
11
  0
DIMSTYLE
105
137
330
A
100
AcDbSymbolTableRecord
100
AcDbDimStyleTableRecord
  2
Annotative
 70
     0
 40
0.0
 41
2.5
 42
0.625
 43
3.75
 44
1.25
 73
     0
 74
     0
 77
     1
 78
     8
140
2.5
141
2.5
143
0.03937007874016
147
0.625
171
     3
172
     1
271
     2
272
     2
274
     3
278
    44
283
     0
284
     8
340
11
1001
AcadAnnotative
1000
AnnotativeData
1002
{
1070
     1
1070
     1
1002
}
1001
ACAD_DSTYLE_DIMJAG
1070
   388
1040
1.5
1001
ACAD_DSTYLE_DIMTALN
1070
   392
1070
     0
  0
ENDTAB
  0
TABLE
  2
BLOCK_RECORD
  5
1
330
0
100
AcDbSymbolTable
 70
     5
  0
BLOCK_RECORD
  5
1F
330
1
100
AcDbSymbolTableRecord
100
AcDbBlockTableRecord
  2
*Model_Space
340
22
  0
BLOCK_RECORD
  5
D2
330
1
100
AcDbSymbolTableRecord
100
AcDbBlockTableRecord
  2
*Paper_Space
340
D3
  0
BLOCK_RECORD
  5
D6
330
1
100
AcDbSymbolTableRecord
100
AcDbBlockTableRecord
  2
*Paper_Space0
340
D7
  0
BLOCK_RECORD
  5
6A5
330
1
100
AcDbSymbolTableRecord
100
AcDbBlockTableRecord
  2
1
340
0
310
2800000020000000200000000100080000000000000400000000000000000000000000000000000000000000000080000080000000808000800000008000800080800000C0C0C000C0DCC000F0CAA6000020400000206000002080000020A0000020C0000020E00000400000004020000040400000406000004080000040A0
310
000040C0000040E00000600000006020000060400000606000006080000060A0000060C0000060E00000800000008020000080400000806000008080000080A0000080C0000080E00000A0000000A0200000A0400000A0600000A0800000A0A00000A0C00000A0E00000C0000000C0200000C0400000C0600000C0800000C0
310
A00000C0C00000C0E00000E0000000E0200000E0400000E0600000E0800000E0A00000E0C00000E0E00040000000400020004000400040006000400080004000A0004000C0004000E00040200000402020004020400040206000402080004020A0004020C0004020E000404000004040200040404000404060004040800040
310
40A0004040C0004040E00040600000406020004060400040606000406080004060A0004060C0004060E00040800000408020004080400040806000408080004080A0004080C0004080E00040A0000040A0200040A0400040A0600040A0800040A0A00040A0C00040A0E00040C0000040C0200040C0400040C0600040C08000
310
40C0A00040C0C00040C0E00040E0000040E0200040E0400040E0600040E0800040E0A00040E0C00040E0E00080000000800020008000400080006000800080008000A0008000C0008000E00080200000802020008020400080206000802080008020A0008020C0008020E00080400000804020008040400080406000804080
310
008040A0008040C0008040E00080600000806020008060400080606000806080008060A0008060C0008060E00080800000808020008080400080806000808080008080A0008080C0008080E00080A0000080A0200080A0400080A0600080A0800080A0A00080A0C00080A0E00080C0000080C0200080C0400080C0600080C0
310
800080C0A00080C0C00080C0E00080E0000080E0200080E0400080E0600080E0800080E0A00080E0C00080E0E000C0000000C0002000C0004000C0006000C0008000C000A000C000C000C000E000C0200000C0202000C0204000C0206000C0208000C020A000C020C000C020E000C0400000C0402000C0404000C0406000C0
310
408000C040A000C040C000C040E000C0600000C0602000C0604000C0606000C0608000C060A000C060C000C060E000C0800000C0802000C0804000C0806000C0808000C080A000C080C000C080E000C0A00000C0A02000C0A04000C0A06000C0A08000C0A0A000C0A0C000C0A0E000C0C00000C0C02000C0C04000C0C06000
310
C0C08000C0C0A000F0FBFF00A4A0A000808080000000FF0000FF000000FFFF00FF000000FF00FF00FFFF0000FFFFFF0000000000000000000000000000000000000000000000000000000000000000000000000000000000000000000000000000000000000000000000000000000000000000000000000000000000000000
310
00000000000000000000000000000000000000000000000000000000000000000000000000000000000000000000000000000000000000000000000000000000000000000000000000000000000000000000000000000000000000000000000000000000000000000000000000000000000000FFFFFFFF0000000000000000
310
00000000000000000000000000FFFFFFFF0000FF000000FF00000000000000000000000000000000000000FFFFFFFFFFFF0000FF00FFFFFF00000000000000000000000000000000000000FFFFFFFFFFFF0000FF00FFFFFFFFFFFFFFFFFFFFFFFFFFFFFFFFFFFFFFFFFFFFFFFFFF0000FF0000FF0000000000000000000000
310
0000000000FFFFFFFFFFFFFFFFFFFF00FF000000FF000000000000000000000000000000FF00000000FFFFFF000000FFFF000000FF0000000000000000000000000000FF00FFFFFFFF000000000000FFFF000000FF0000000000000000000000000000FF00FF000000000000000000FF00000000FF00000000000000000000
310
00000000FF00FF000000000000000000FF00000000FF0000000000000000000000000000FF00FFFFFFFFFFFFFFFF00FF0000000000FFFF0000000000000000000000000000FFFFFFFFFFFFFFFFFF00FF00000000000000FFFFFF00000000000000000000000000000000000000000000FF000000000000FFFFFFFF00000000
310
0000000000000000000000000000000000FF00000000000000FFFFFF000000000000000000000000000000000000000000FF0000000000000000FFFFFFFF00000000000000000000000000000000000000FF00000000000000000000FFFFFF000000000000000000000000000000000000FF0000000000000000000000FFFF
310
000000000000000000000000000000000000FF000000000000000000000000FF0000000000000000000000000000000000FF0000000000000000000000000000FF0000FFFFFFFF000000000000000000FF000000000000000000000000000000FFFFFFFFFFFFFFFFFFFFFFFFFFFFFFFF000000000000000000000000000000
310
00000000000000000000000000000000000000000000000000000000000000000000000000000000000000000000000000000000000000000000000000000000000000000000000000000000000000000000000000000000000000000000000000000000000000000000000000000000000000000000000000000000000000
310
0000000000000000000000000000000000000000000000000000000000000000000000000000000000000000000000000000000000000000
102
{BLKREFS
331
745
102
}
1001
ACAD
1000
DesignCenter Data
1002
{
1070
     1
1070
     4
1002
}
  0
BLOCK_RECORD
  5
746
330
1
100
AcDbSymbolTableRecord
100
AcDbBlockTableRecord
  2
2
340
0
310
2800000020000000200000000100080000000000000400000000000000000000000000000000000000000000000080000080000000808000800000008000800080800000C0C0C000C0DCC000F0CAA6000020400000206000002080000020A0000020C0000020E00000400000004020000040400000406000004080000040A0
310
000040C0000040E00000600000006020000060400000606000006080000060A0000060C0000060E00000800000008020000080400000806000008080000080A0000080C0000080E00000A0000000A0200000A0400000A0600000A0800000A0A00000A0C00000A0E00000C0000000C0200000C0400000C0600000C0800000C0
310
A00000C0C00000C0E00000E0000000E0200000E0400000E0600000E0800000E0A00000E0C00000E0E00040000000400020004000400040006000400080004000A0004000C0004000E00040200000402020004020400040206000402080004020A0004020C0004020E000404000004040200040404000404060004040800040
310
40A0004040C0004040E00040600000406020004060400040606000406080004060A0004060C0004060E00040800000408020004080400040806000408080004080A0004080C0004080E00040A0000040A0200040A0400040A0600040A0800040A0A00040A0C00040A0E00040C0000040C0200040C0400040C0600040C08000
310
40C0A00040C0C00040C0E00040E0000040E0200040E0400040E0600040E0800040E0A00040E0C00040E0E00080000000800020008000400080006000800080008000A0008000C0008000E00080200000802020008020400080206000802080008020A0008020C0008020E00080400000804020008040400080406000804080
310
008040A0008040C0008040E00080600000806020008060400080606000806080008060A0008060C0008060E00080800000808020008080400080806000808080008080A0008080C0008080E00080A0000080A0200080A0400080A0600080A0800080A0A00080A0C00080A0E00080C0000080C0200080C0400080C0600080C0
310
800080C0A00080C0C00080C0E00080E0000080E0200080E0400080E0600080E0800080E0A00080E0C00080E0E000C0000000C0002000C0004000C0006000C0008000C000A000C000C000C000E000C0200000C0202000C0204000C0206000C0208000C020A000C020C000C020E000C0400000C0402000C0404000C0406000C0
310
408000C040A000C040C000C040E000C0600000C0602000C0604000C0606000C0608000C060A000C060C000C060E000C0800000C0802000C0804000C0806000C0808000C080A000C080C000C080E000C0A00000C0A02000C0A04000C0A06000C0A08000C0A0A000C0A0C000C0A0E000C0C00000C0C02000C0C04000C0C06000
310
C0C08000C0C0A000F0FBFF00A4A0A000808080000000FF0000FF000000FFFF00FF000000FF00FF00FFFF0000FFFFFF0000000000000000000000000000000000000000000000000000000000000000000000000000000000000000000000000000000000000000000000000000000000000000000000000000000000000000
310
00000000000000000000000000000000000000000000000000000000000000000000000000000000000000000000000000000000000000000000000000000000000000000000000000000000000000000000000000000000000000000000000000000000000000000000000000000000000000000000000000000000000000
310
00000000000000000000000000000000000000000000000000000000000000000000000000000000000000000000000000000000000000000000000000000000000000000000000000000000000000000000000000000000000000000000000000000000000000000000000000000000000000000000000000000000000000
310
000000000000000000000000000000000000000000000000000000000000000000000000000000000000000000000000000000000000000000000000000000000000000000000000000000000000000000000000FFFFFFFFFFFFFFFFFFFFFFFFFFFFFFFFFFFFFFFFFFFFFFFFFFFFFFFFFFFF0000FFFFFFFFFFFFFFFFFFFFFF
310
00FFFFFFFF000000FFFF000000FF00FFFFFFFF0000FFFFFFFFFFFFFFFFFFFFFF00FFFFFFFF0000FFFFFFFFFF00FF00FFFFFFFF0000FFFFFFFFFFFFFFFFFFFFFF00FFFFFFFF000000FFFFFF0000FF00FFFFFFFF0000FFFFFFFFFFFFFFFFFFFFFF00FFFFFFFF000000FFFF000000FF00FFFFFFFF0000FFFFFFFFFFFFFFFFFFFF
310
FFFFFFFFFFFFFFFFFFFFFFFFFFFFFFFFFFFFFFFF0000000000000000000000000000000000000000000000000000000000000000000000000000000000000000000000000000000000000000000000000000000000000000000000000000000000000000000000000000000000000000000000000000000000000000000000
310
00000000000000000000000000000000000000000000000000000000000000000000000000000000000000000000000000000000000000000000000000000000000000000000000000000000000000000000000000000000000000000000000000000000000000000000000000000000000000000000000000000000000000
310
00000000000000000000000000000000000000000000000000000000000000000000000000000000000000000000000000000000000000000000000000000000000000000000000000000000000000000000000000000000000000000000000000000000000000000000000000000000000000000000000000000000000000
310
0000000000000000000000000000000000000000000000000000000000000000000000000000000000000000000000000000000000000000
102
{BLKREFS
331
7DF
102
}
1001
ACAD
1000
DesignCenter Data
1002
{
1070
     1
1070
     4
1002
}
  0
BLOCK_RECORD
  5
7E0
330
1
100
AcDbSymbolTableRecord
100
AcDbBlockTableRecord
  2
3
340
0
310
2800000020000000200000000100080000000000000400000000000000000000000000000000000000000000000080000080000000808000800000008000800080800000C0C0C000C0DCC000F0CAA6000020400000206000002080000020A0000020C0000020E00000400000004020000040400000406000004080000040A0
310
000040C0000040E00000600000006020000060400000606000006080000060A0000060C0000060E00000800000008020000080400000806000008080000080A0000080C0000080E00000A0000000A0200000A0400000A0600000A0800000A0A00000A0C00000A0E00000C0000000C0200000C0400000C0600000C0800000C0
310
A00000C0C00000C0E00000E0000000E0200000E0400000E0600000E0800000E0A00000E0C00000E0E00040000000400020004000400040006000400080004000A0004000C0004000E00040200000402020004020400040206000402080004020A0004020C0004020E000404000004040200040404000404060004040800040
310
40A0004040C0004040E00040600000406020004060400040606000406080004060A0004060C0004060E00040800000408020004080400040806000408080004080A0004080C0004080E00040A0000040A0200040A0400040A0600040A0800040A0A00040A0C00040A0E00040C0000040C0200040C0400040C0600040C08000
310
40C0A00040C0C00040C0E00040E0000040E0200040E0400040E0600040E0800040E0A00040E0C00040E0E00080000000800020008000400080006000800080008000A0008000C0008000E00080200000802020008020400080206000802080008020A0008020C0008020E00080400000804020008040400080406000804080
310
008040A0008040C0008040E00080600000806020008060400080606000806080008060A0008060C0008060E00080800000808020008080400080806000808080008080A0008080C0008080E00080A0000080A0200080A0400080A0600080A0800080A0A00080A0C00080A0E00080C0000080C0200080C0400080C0600080C0
310
800080C0A00080C0C00080C0E00080E0000080E0200080E0400080E0600080E0800080E0A00080E0C00080E0E000C0000000C0002000C0004000C0006000C0008000C000A000C000C000C000E000C0200000C0202000C0204000C0206000C0208000C020A000C020C000C020E000C0400000C0402000C0404000C0406000C0
310
408000C040A000C040C000C040E000C0600000C0602000C0604000C0606000C0608000C060A000C060C000C060E000C0800000C0802000C0804000C0806000C0808000C080A000C080C000C080E000C0A00000C0A02000C0A04000C0A06000C0A08000C0A0A000C0A0C000C0A0E000C0C00000C0C02000C0C04000C0C06000
310
C0C08000C0C0A000F0FBFF00A4A0A000808080000000FF0000FF000000FFFF00FF000000FF00FF00FFFF0000FFFFFF000000000000000000000000000000000000000000000000000000000000000000000000000000000000000000FFFFFFFFFFFFFFFF000000000000000000000000000000000000000000000000FFFFFF
310
FFFFFFFFFF000000000000000000000000000000000000000000000000FF000000000000FF000000000000000000000000000000000000000000000000FFFFFFFFFFFFFFFF000000000000000000000000000000000000000000000000FFFFFFFFFFFFFFFF000000000000000000000000000000000000000000000000FF00
310
00000000FFFF000000000000000000000000000000000000000000000000FF0000000000FFFF000000000000000000000000000000000000000000000000FF0000000000FFFF000000000000000000000000000000000000000000000000FF0000000000FFFF000000000000000000000000000000000000000000000000FF
310
0000000000FFFF000000000000000000000000000000000000000000000000FF0000000000FFFF000000000000000000000000000000000000000000000000FFFFFFFFFFFFFFFF000000000000000000000000000000000000000000000000FF0000000000FFFF000000000000000000000000000000000000000000000000
310
FFFFFFFFFFFFFFFF000000000000000000000000000000000000000000000000FF000000000000FF000000000000000000000000000000000000000000000000FF000000000000FF000000000000000000000000000000000000000000000000FFFFFFFFFFFFFFFF0000000000000000000000000000000000000000000000
310
00FF000000000000FF000000000000000000000000000000000000000000000000FF000000000000FF000000000000000000000000000000000000000000000000FF000000000000FF000000000000000000000000000000000000000000000000FF000000000000FF00000000000000000000000000000000000000000000
310
0000FF000000000000FF000000000000000000000000000000000000000000000000FF000000000000FF000000000000000000000000000000000000000000000000FF000000000000FF000000000000000000000000000000000000000000000000FFFFFFFFFFFFFFFF000000000000000000000000000000000000000000
310
000000FFFFFFFFFFFFFFFF000000000000000000000000000000000000000000000000FF000000000000FF000000000000000000000000000000000000000000000000FF000000000000FF000000000000000000000000000000000000000000000000FFFFFFFFFFFFFFFF0000000000000000000000000000000000000000
310
00000000FFFFFFFFFFFFFFFF0000000000000000000000000000000000000000000000000000000000000000000000000000000000000000
102
{BLKREFS
331
80E
102
}
1001
ACAD
1000
DesignCenter Data
1002
{
1070
     1
1070
     4
1002
}
  0
BLOCK_RECORD
  5
80F
330
1
100
AcDbSymbolTableRecord
100
AcDbBlockTableRecord
  2
4
340
0
310
2800000020000000200000000100080000000000000400000000000000000000000000000000000000000000000080000080000000808000800000008000800080800000C0C0C000C0DCC000F0CAA6000020400000206000002080000020A0000020C0000020E00000400000004020000040400000406000004080000040A0
310
000040C0000040E00000600000006020000060400000606000006080000060A0000060C0000060E00000800000008020000080400000806000008080000080A0000080C0000080E00000A0000000A0200000A0400000A0600000A0800000A0A00000A0C00000A0E00000C0000000C0200000C0400000C0600000C0800000C0
310
A00000C0C00000C0E00000E0000000E0200000E0400000E0600000E0800000E0A00000E0C00000E0E00040000000400020004000400040006000400080004000A0004000C0004000E00040200000402020004020400040206000402080004020A0004020C0004020E000404000004040200040404000404060004040800040
310
40A0004040C0004040E00040600000406020004060400040606000406080004060A0004060C0004060E00040800000408020004080400040806000408080004080A0004080C0004080E00040A0000040A0200040A0400040A0600040A0800040A0A00040A0C00040A0E00040C0000040C0200040C0400040C0600040C08000
310
40C0A00040C0C00040C0E00040E0000040E0200040E0400040E0600040E0800040E0A00040E0C00040E0E00080000000800020008000400080006000800080008000A0008000C0008000E00080200000802020008020400080206000802080008020A0008020C0008020E00080400000804020008040400080406000804080
310
008040A0008040C0008040E00080600000806020008060400080606000806080008060A0008060C0008060E00080800000808020008080400080806000808080008080A0008080C0008080E00080A0000080A0200080A0400080A0600080A0800080A0A00080A0C00080A0E00080C0000080C0200080C0400080C0600080C0
310
800080C0A00080C0C00080C0E00080E0000080E0200080E0400080E0600080E0800080E0A00080E0C00080E0E000C0000000C0002000C0004000C0006000C0008000C000A000C000C000C000E000C0200000C0202000C0204000C0206000C0208000C020A000C020C000C020E000C0400000C0402000C0404000C0406000C0
310
408000C040A000C040C000C040E000C0600000C0602000C0604000C0606000C0608000C060A000C060C000C060E000C0800000C0802000C0804000C0806000C0808000C080A000C080C000C080E000C0A00000C0A02000C0A04000C0A06000C0A08000C0A0A000C0A0C000C0A0E000C0C00000C0C02000C0C04000C0C06000
310
C0C08000C0C0A000F0FBFF00A4A0A000808080000000FF0000FF000000FFFF00FF000000FF00FF00FFFF0000FFFFFF000000000000000000000000000000000000000000000000000000000000000000000000000000000000000000000000000000000000000000FF00000000000000000000000000000000000000000000
310
0000000000000000FF00FF00000000000000000000000000000000000000000000000000000000FFFFFFFFFFFF00000000000000000000000000000000000000000000000000FF00FFFFFFFFFFFF000000000000000000000000000000000000000000000000FFFFFFFFFFFFFFFF0000000000000000000000000000000000
310
00000000000000FFFF00FF00FFFFFF00000000000000000000000000000000000000000000FFFFFFA400FF00FF00FF0000000000000000000000000000000000000000FFFF00FF000000FF0000FFFF00000000000000000000000000000000000000FF00FFFF00000000FFFFFFFF0000000000000000000000000000000000
310
00FFFF00FFFF00000000FF000000FF00000000000000000000000000000000FFFF0000FFFF00000000FFFFFFFF00FF000000000000000000FF00000000FFFF000000FFFF00000000FFFFFF0000FFFF00000000000000FFFFFFFFFF00FF00000000FFFF000000FFFFFF00FFFFFF00FF00000000000000FF00FFA4FFFF000000
310
0000FFFF00FFFFFFFF0000FF0000FFFF00000000000000FFFFFFFF00000000000000FFFFFFFFFF00000000FF000000FF00000000000000FFFF00000000000000000000FFFF000000000000FF000000FF00000000000000FF00000000000000000000000000000000000000FF000000FF00000000000000FF00000000000000
310
000000000000000000000000FFFFFF00FF00000000000000FF000000000000000000000000000000000000FF00FFFFFFFF00000000000000FF000000000000000000000000000000000000FF000000FFFF00000000000000FF0000000000000000000000000000000000FF00000000FF0000000000000000FF000000000000
310
000000000000000000FFFF00FFFF0000FF0000000000000000FFFFFFFF00000000000000000000FFFFFFFFFF0000FFFF00000000000000000000FFFFFFFFFF000000FFFFFFFFFF00FF0000FFFFFFFF000000000000000000000000FFFFFFFFFF00FFFFFFFFFF0000FFFFFFFFFF00000000000000000000000000000000FFFF
310
0000FFFFFFFFFFFFFF00FFFF00000000000000000000000000000000000000FFFFFFFFFFFFFFFFFFFFFF000000000000000000000000000000000000000000000000FFFFFFFFFFFF000000000000000000000000000000000000000000000000000000FFFFFF00000000000000000000000000000000000000000000000000
310
0000000000FF0000000000000000000000000000000000000000000000000000000000000000000000000000000000000000000000000000
102
{BLKREFS
331
92E
102
}
1001
ACAD
1000
DesignCenter Data
1002
{
1070
     1
1070
     4
1002
}
  0
ENDTAB
  0
ENDSEC
  0
SECTION
  2
BLOCKS
  0
BLOCK
  5
20
330
1F
100
AcDbEntity
  8
0
100
AcDbBlockBegin
  2
*Model_Space
 70
     0
 10
0.0
 20
0.0
 30
0.0
  3
*Model_Space
  1

  0
ENDBLK
  5
21
330
1F
100
AcDbEntity
  8
0
100
AcDbBlockEnd
  0
BLOCK
  5
D4
330
D2
100
AcDbEntity
 67
     1
  8
0
100
AcDbBlockBegin
  2
*Paper_Space
 70
     0
 10
0.0
 20
0.0
 30
0.0
  3
*Paper_Space
  1

  0
ENDBLK
  5
D5
330
D2
100
AcDbEntity
 67
     1
  8
0
100
AcDbBlockEnd
  0
BLOCK
  5
D8
330
D6
100
AcDbEntity
 67
     1
  8
0
100
AcDbBlockBegin
  2
*Paper_Space0
 70
     0
 10
0.0
 20
0.0
 30
0.0
  3
*Paper_Space0
  1

  0
ENDBLK
  5
D9
330
D6
100
AcDbEntity
 67
     1
  8
0
100
AcDbBlockEnd
  0
BLOCK
  5
6A6
330
6A5
100
AcDbEntity
  8
0
100
AcDbBlockBegin
  2
1
 70
     0
 10
0.0
 20
0.0
 30
0.0
  3
1
  1

  0
LINE
  5
6A8
330
6A5
100
AcDbEntity
  8
0
  6
Continuous
 62
     7
370
    15
100
AcDbLine
 10
1205.094109657421
 20
1274.777637032502
 30
0.0
 11
1205.094109657421
 21
1276.777637032486
 31
0.0
  0
LINE
  5
6A9
330
6A5
100
AcDbEntity
  8
0
  6
Continuous
 62
     7
370
    15
100
AcDbLine
 10
1202.594109657421
 20
1276.777637032486
 30
0.0
 11
1202.594109657421
 21
1274.777637032502
 31
0.0
  0
ARC
  5
6AA
330
6A5
100
AcDbEntity
  8
0
  6
Continuous
 62
     7
370
    15
100
AcDbCircle
 10
1209.835020624376
 20
1289.277637032488
 30
0.0
 40
1.500000013116448
100
AcDbArc
 50
45.0
 51
90.0
  0
LINE
  5
6AB
330
6A5
100
AcDbEntity
  8
0
  6
Continuous
 62
     7
370
    15
100
AcDbLine
 10
1214.017001139712
 20
1287.21697686071
 30
0.0
 11
1210.895680796155
 21
1290.338297204266
 31
0.0
  0
ARC
  5
6AC
330
6A5
100
AcDbEntity
  8
0
  6
Continuous
 62
     7
370
    15
100
AcDbCircle
 10
1212.956340967933
 20
1286.156316688931
 30
0.0
 40
1.499999999998505
100
AcDbArc
 50
0.0
 51
45.00000000000921
  0
LINE
  5
6AD
330
6A5
100
AcDbEntity
  8
0
  6
Continuous
 62
     7
370
    15
100
AcDbLine
 10
1214.456340967932
 20
1277.650907421095
 30
0.0
 11
1214.456340967932
 21
1286.156316688931
 31
0.0
  0
ARC
  5
6AE
330
6A5
100
AcDbEntity
  8
0
  6
Continuous
 62
     7
370
    15
100
AcDbCircle
 10
1213.956340967932
 20
1277.650907421095
 30
0.0
 40
0.4999999999995199
100
AcDbArc
 50
290.5060517147848
 51
0.0
  0
ARC
  5
6AF
330
6A5
100
AcDbEntity
  8
0
  6
Continuous
 62
     7
370
    15
100
AcDbCircle
 10
1214.656953593576
 20
1275.777637032501
 30
0.0
 40
1.499999999998536
100
AcDbArc
 50
110.5060517147848
 51
248.8853998854531
  0
ARC
  5
6B0
330
6A5
100
AcDbEntity
  8
0
  6
Continuous
 62
     7
370
    15
100
AcDbCircle
 10
1213.396132732575
 20
1272.512620837068
 30
0.0
 40
1.999999999998042
100
AcDbArc
 50
349.9999999999961
 51
68.88539988545307
  0
LINE
  5
6B1
330
6A5
100
AcDbEntity
  8
0
  6
Continuous
 62
     7
370
    15
100
AcDbLine
 10
1215.365748238598
 20
1272.165324481734
 30
0.0
 11
1213.822139956733
 21
1263.411086896186
 31
0.0
  0
ARC
  5
6B2
330
6A5
100
AcDbEntity
  8
0
  6
Continuous
 62
     7
370
    15
100
AcDbCircle
 10
1214.305102879666
 20
1263.281677410163
 30
0.0
 40
0.4999999999995169
100
AcDbArc
 50
165.0000043335636
 51
270.0
  0
LINE
  5
6B3
330
6A5
100
AcDbEntity
  8
0
  6
Continuous
 62
     7
370
    15
100
AcDbLine
 10
1215.191096080427
 20
1262.781677410164
 30
0.0
 11
1214.305102879666
 21
1262.781677410164
 31
0.0
  0
ARC
  5
6B4
330
6A5
100
AcDbEntity
  8
0
  6
Continuous
 62
     7
370
    15
100
AcDbCircle
 10
1215.191096070994
 20
1263.281677410163
 30
0.0
 40
0.4999999999996306
100
AcDbArc
 50
270.0000010809351
 51
9.999920416930017
  0
LINE
  5
6B5
330
6A5
100
AcDbEntity
  8
0
  6
Continuous
 62
     7
370
    15
100
AcDbLine
 10
1215.533490998794
 20
1264.219251432571
 30
0.0
 11
1215.683500068096
 21
1263.368500815054
 31
0.0
  0
ARC
  5
6B6
330
6A5
100
AcDbEntity
  8
0
  6
Continuous
 62
     7
370
    15
100
AcDbCircle
 10
1215.828933397056
 20
1264.271345475506
 30
0.0
 40
0.2999999999996702
100
AcDbArc
 50
90.00002366906873
 51
189.9999204169428
  0
LINE
  5
6B7
330
6A5
100
AcDbEntity
  8
0
  6
Continuous
 62
     7
370
    15
100
AcDbLine
 10
1216.960225450877
 20
1264.571346410187
 30
0.0
 11
1215.828933273125
 21
1264.571345475505
 31
0.0
  0
ARC
  5
6B8
330
6A5
100
AcDbEntity
  8
0
  6
Continuous
 62
     7
370
    15
100
AcDbCircle
 10
1216.960225698739
 20
1264.271347344869
 30
0.0
 40
0.3000001588562563
100
AcDbArc
 50
12.48540097817236
 51
90.00004733830682
  0
LINE
  5
6B9
330
6A5
100
AcDbEntity
  8
0
  6
Continuous
 62
     7
370
    15
100
AcDbLine
 10
1217.273162548739
 20
1264.245739932153
 30
0.0
 11
1217.253131191175
 21
1264.336204632927
 31
0.0
  0
ARC
  5
6BA
330
6A5
100
AcDbEntity
  8
0
  6
Continuous
 62
     7
370
    15
100
AcDbCircle
 10
1214.344109657411
 20
1263.597167445827
 30
0.0
 40
2.999999999997015
100
AcDbArc
 50
0.0
 51
12.48540202073776
  0
LINE
  5
6BB
330
6A5
100
AcDbEntity
  8
0
  6
Continuous
 62
     7
370
    15
100
AcDbLine
 10
1217.344109657408
 20
1261.777637154341
 30
0.0
 11
1217.344109657408
 21
1263.597167445827
 31
0.0
  0
ARC
  5
6BC
330
6A5
100
AcDbEntity
  8
0
  6
Continuous
 62
     7
370
    15
100
AcDbCircle
 10
1216.344109657409
 20
1261.777637154341
 30
0.0
 40
0.9999999999990052
100
AcDbArc
 50
270.0000005777068
 51
0.0
  0
LINE
  5
6BD
330
6A5
100
AcDbEntity
  8
0
  6
Continuous
 62
     7
370
    15
100
AcDbLine
 10
1213.32350261807
 20
1260.777637093429
 30
0.0
 11
1216.344109667492
 21
1260.777637154342
 31
0.0
  0
ARC
  5
6BE
330
6A5
100
AcDbEntity
  8
0
  6
Continuous
 62
     7
370
    15
100
AcDbCircle
 10
1213.32350261807
 20
1263.777637032513
 30
0.0
 40
2.999999999996996
100
AcDbArc
 50
215.0000043237055
 51
270.0
  0
LINE
  5
6BF
330
6A5
100
AcDbEntity
  8
0
  6
Continuous
 62
     7
370
    15
100
AcDbLine
 10
1209.795114814986
 20
1263.586356407995
 30
0.0
 11
1210.866046615057
 21
1262.056907538015
 31
0.0
  0
ARC
  5
6C0
330
6A5
100
AcDbEntity
  8
0
  6
Continuous
 62
     7
370
    15
100
AcDbCircle
 10
1210.040860415288
 20
1263.758429357445
 30
0.0
 40
0.2999999999997143
100
AcDbArc
 50
99.99999361412051
 51
215.0000043237055
  0
LINE
  5
6C1
330
6A5
100
AcDbEntity
  8
0
  6
Continuous
 62
     7
370
    15
100
AcDbLine
 10
1211.678839270995
 20
1264.351877012878
 30
0.0
 11
1209.988765994916
 21
1264.053871689154
 31
0.0
  0
ARC
  5
6C2
330
6A5
100
AcDbEntity
  8
0
  6
Continuous
 62
     7
370
    15
100
AcDbCircle
 10
1211.644109657413
 20
1264.548838567351
 30
0.0
 40
0.1999999999997569
100
AcDbArc
 50
279.9999936141205
 51
359.9999933928946
  0
LINE
  5
6C3
330
6A5
100
AcDbEntity
  8
0
  6
Continuous
 62
     7
370
    15
100
AcDbLine
 10
1211.844109657413
 20
1266.636235083993
 30
0.0
 11
1211.844109657413
 21
1264.548838544288
 31
0.0
  0
ARC
  5
6C4
330
6A5
100
AcDbEntity
  8
0
  6
Continuous
 62
     7
370
    15
100
AcDbCircle
 10
1210.344109657415
 20
1266.636235083993
 30
0.0
 40
1.499999999998484
100
AcDbArc
 50
0.0
 51
60.00000000000272
  0
ARC
  5
6C5
330
6A5
100
AcDbEntity
  8
0
  6
Continuous
 62
     7
370
    15
100
AcDbCircle
 10
1199.844109657425
 20
1270.30638517837
 30
0.0
 40
0.4999999999994884
100
AcDbArc
 50
180.0
 51
265.0000000000005
  0
LINE
  5
6C6
330
6A5
100
AcDbEntity
  8
0
  6
Continuous
 62
     7
370
    15
100
AcDbLine
 10
1199.344109657426
 20
1274.277637032503
 30
0.0
 11
1199.344109657426
 21
1270.30638517837
 31
0.0
  0
ARC
  5
6C7
330
6A5
100
AcDbEntity
  8
0
  6
Continuous
 62
     7
370
    15
100
AcDbCircle
 10
1199.844109657425
 20
1274.277637032503
 30
0.0
 40
0.4999999999994884
100
AcDbArc
 50
90.0
 51
180.0
  0
LINE
  5
6C8
330
6A5
100
AcDbEntity
  8
0
  6
Continuous
 62
     7
370
    15
100
AcDbLine
 10
1209.657001752973
 20
1274.777637032502
 30
0.0
 11
1199.844109657425
 21
1274.777637032502
 31
0.0
  0
ARC
  5
6C9
330
6A5
100
AcDbEntity
  8
0
  6
Continuous
 62
     7
370
    15
100
AcDbCircle
 10
1209.657001752973
 20
1275.777637032501
 30
0.0
 40
0.9999999999990052
100
AcDbArc
 50
270.0
 51
90.0
  0
LINE
  5
6CA
330
6A5
100
AcDbEntity
  8
0
  6
Continuous
 62
     7
370
    15
100
AcDbLine
 10
1199.844109657425
 20
1276.7776370325
 30
0.0
 11
1209.657001752973
 21
1276.7776370325
 31
0.0
  0
ARC
  5
6CB
330
6A5
100
AcDbEntity
  8
0
  6
Continuous
 62
     7
370
    15
100
AcDbCircle
 10
1199.844109657425
 20
1274.277637032503
 30
0.0
 40
2.499999999997498
100
AcDbArc
 50
90.0
 51
180.0
  0
LINE
  5
6CC
330
6A5
100
AcDbEntity
  8
0
  6
Continuous
 62
     7
370
    15
100
AcDbLine
 10
1197.344109657428
 20
1270.30638517837
 30
0.0
 11
1197.344109657428
 21
1274.277637032503
 31
0.0
  0
ARC
  5
6CD
330
6A5
100
AcDbEntity
  8
0
  6
Continuous
 62
     7
370
    15
100
AcDbCircle
 10
1199.844109657425
 20
1270.30638517837
 30
0.0
 40
2.499999999997513
100
AcDbArc
 50
180.0
 51
265.0000000000005
  0
LINE
  5
6CE
330
6A5
100
AcDbEntity
  8
0
  6
Continuous
 62
     7
370
    15
100
AcDbLine
 10
1210.387687528789
 20
1266.874392047767
 30
0.0
 11
1199.626220300556
 21
1267.815898433143
 31
0.0
  0
ARC
  5
6CF
330
6A5
100
AcDbEntity
  8
0
  6
Continuous
 62
     7
370
    15
100
AcDbCircle
 10
1210.344109657415
 20
1266.376294698722
 30
0.0
 40
0.4999999999994904
100
AcDbArc
 50
0.0
 51
85.00000000000055
  0
ARC
  5
6D0
330
6A5
100
AcDbEntity
  8
0
  6
Continuous
 62
     7
370
    15
100
AcDbCircle
 10
1177.544109601464
 20
1265.194862830624
 30
0.0
 40
0.1999999999998181
100
AcDbArc
 50
90.0
 51
180.0
  0
LINE
  5
6D1
330
6A5
100
AcDbEntity
  8
0
  6
Continuous
 62
     7
370
    15
100
AcDbLine
 10
1177.344109601464
 20
1264.548838567351
 30
0.0
 11
1177.344109601464
 21
1265.194862830624
 31
0.0
  0
ARC
  5
6D2
330
6A5
100
AcDbEntity
  8
0
  6
Continuous
 62
     7
370
    15
100
AcDbCircle
 10
1177.544109601464
 20
1264.548838567351
 30
0.0
 40
0.199999999999724
100
AcDbArc
 50
180.0
 51
260.0000063858795
  0
LINE
  5
6D3
330
6A5
100
AcDbEntity
  8
0
  6
Continuous
 62
     7
370
    15
100
AcDbLine
 10
1179.501333635415
 20
1264.000642069413
 30
0.0
 11
1177.509379987883
 21
1264.351877012878
 31
0.0
  0
ARC
  5
6D4
330
6A5
100
AcDbEntity
  8
0
  6
Continuous
 62
     7
370
    15
100
AcDbCircle
 10
1179.414509601462
 20
1263.50823818323
 30
0.0
 40
0.4999999999994884
100
AcDbArc
 50
0.0
 51
80.0000063858795
  0
LINE
  5
6D5
330
6A5
100
AcDbEntity
  8
0
  6
Continuous
 62
     7
370
    15
100
AcDbLine
 10
1179.914509601462
 20
1261.277637032516
 30
0.0
 11
1179.914509601462
 21
1263.50823818323
 31
0.0
  0
ARC
  5
6D6
330
6A5
100
AcDbEntity
  8
0
  6
Continuous
 62
     7
370
    15
100
AcDbCircle
 10
1179.414509601462
 20
1261.277637032516
 30
0.0
 40
0.4999999999994884
100
AcDbArc
 50
270.0
 51
0.0
  0
LINE
  5
6D7
330
6A5
100
AcDbEntity
  8
0
  6
Continuous
 62
     7
370
    15
100
AcDbLine
 10
1175.844109601467
 20
1260.777637032516
 30
0.0
 11
1179.414509601462
 21
1260.777637032516
 31
0.0
  0
ARC
  5
6D8
330
6A5
100
AcDbEntity
  8
0
  6
Continuous
 62
     7
370
    15
100
AcDbCircle
 10
1175.844109601467
 20
1262.277637032515
 30
0.0
 40
1.49999999999855
100
AcDbArc
 50
180.0
 51
270.0
  0
LINE
  5
6D9
330
6A5
100
AcDbEntity
  8
0
  6
Continuous
 62
     7
370
    15
100
AcDbLine
 10
1174.344109601468
 20
1276.156316688942
 30
0.0
 11
1174.344109601468
 21
1262.277637032515
 31
0.0
  0
ARC
  5
6DA
330
6A5
100
AcDbEntity
  8
0
  6
Continuous
 62
     7
370
    15
100
AcDbCircle
 10
1175.844109601468
 20
1276.156316688942
 30
0.0
 40
1.499999999999985
100
AcDbArc
 50
135.0
 51
180.0
  0
ARC
  5
6DB
330
6A5
100
AcDbEntity
  8
0
  6
Continuous
 62
     7
370
    15
100
AcDbCircle
 10
1176.982312754833
 20
1278.708731164859
 30
0.0
 40
0.1999999999997987
100
AcDbArc
 50
225.0000000000092
 51
314.9999999999908
  0
LINE
  5
6DC
330
6A5
100
AcDbEntity
  8
0
  6
Continuous
 62
     7
370
    15
100
AcDbLine
 10
1177.39137885681
 20
1278.834954554361
 30
0.0
 11
1177.12373411107
 21
1278.567309808622
 31
0.0
  0
ARC
  5
6DD
330
6A5
100
AcDbEntity
  8
0
  6
Continuous
 62
     7
370
    15
100
AcDbCircle
 10
1177.532800213047
 20
1278.693533198124
 30
0.0
 40
0.1999999999998138
100
AcDbArc
 50
47.50000000000242
 51
135.0000000000092
  0
LINE
  5
6DE
330
6A5
100
AcDbEntity
  8
0
  6
Continuous
 62
     7
370
    15
100
AcDbLine
 10
1178.110706092564
 20
1278.435248366057
 30
0.0
 11
1177.66791825457
 21
1278.840988665486
 31
0.0
  0
ARC
  5
6DF
330
6A5
100
AcDbEntity
  8
0
  6
Continuous
 62
     7
370
    15
100
AcDbCircle
 10
1177.975588051039
 20
1278.287792898693
 30
0.0
 40
0.2000000000020372
100
AcDbArc
 50
317.186620094473
 51
47.50000000000242
  0
ARC
  5
6E0
330
6A5
100
AcDbEntity
  8
0
  6
Continuous
 62
     7
370
    15
100
AcDbCircle
 10
1178.269016522661
 20
1278.01594784716
 30
0.0
 40
0.1999999999997785
100
AcDbArc
 50
137.1866200944729
 51
225.0000000000092
  0
LINE
  5
6E1
330
6A5
100
AcDbEntity
  8
0
  6
Continuous
 62
     7
370
    15
100
AcDbLine
 10
1178.410643829793
 20
1277.591477827553
 30
0.0
 11
1178.127595166424
 21
1277.874526490923
 31
0.0
  0
ARC
  5
6E2
330
6A5
100
AcDbEntity
  8
0
  6
Continuous
 62
     7
370
    15
100
AcDbCircle
 10
1178.55206518603
 20
1277.73289918379
 30
0.0
 40
0.1999999999998187
100
AcDbArc
 50
225.0000000000092
 51
315.0000000000092
  0
LINE
  5
6E3
330
6A5
100
AcDbEntity
  8
0
  6
Continuous
 62
     7
370
    15
100
AcDbLine
 10
1179.824857392165
 20
1278.722848677451
 30
0.0
 11
1178.693486542268
 21
1277.591477827553
 31
0.0
  0
ARC
  5
6E4
330
6A5
100
AcDbEntity
  8
0
  6
Continuous
 62
     7
370
    15
100
AcDbCircle
 10
1179.683436035928
 20
1278.864270033688
 30
0.0
 40
0.1999999999998187
100
AcDbArc
 50
315.0000000000092
 51
44.99999999999078
  0
LINE
  5
6E5
330
6A5
100
AcDbEntity
  8
0
  6
Continuous
 62
     7
370
    15
100
AcDbLine
 10
1179.541808728795
 20
1279.288740053295
 30
0.0
 11
1179.824857392165
 21
1279.005691389925
 31
0.0
  0
ARC
  5
6E6
330
6A5
100
AcDbEntity
  8
0
  6
Continuous
 62
     7
370
    15
100
AcDbCircle
 10
1179.400387372556
 20
1279.147318697056
 30
0.0
 40
0.2000000000020595
100
AcDbArc
 50
45.0
 51
132.8133799055086
  0
ARC
  5
6E7
330
6A5
100
AcDbEntity
  8
0
  6
Continuous
 62
     7
370
    15
100
AcDbCircle
 10
1179.128542321024
 20
1279.440747168678
 30
0.0
 40
0.1999999999997841
100
AcDbArc
 50
222.4999999999976
 51
312.8133799055086
  0
LINE
  5
6E8
330
6A5
100
AcDbEntity
  8
0
  6
Continuous
 62
     7
370
    15
100
AcDbLine
 10
1178.575346554232
 20
1279.748416965148
 30
0.0
 11
1178.981086853662
 21
1279.305629127155
 31
0.0
  0
ARC
  5
6E9
330
6A5
100
AcDbEntity
  8
0
  6
Continuous
 62
     7
370
    15
100
AcDbCircle
 10
1178.722802021594
 20
1279.883535006671
 30
0.0
 40
0.1999999999998287
100
AcDbArc
 50
134.9999999999908
 51
222.4999999999976
  0
LINE
  5
6EA
330
6A5
100
AcDbEntity
  8
0
  6
Continuous
 62
     7
370
    15
100
AcDbLine
 10
1179.625880958484
 20
1281.069456656036
 30
0.0
 11
1178.581380665357
 21
1280.024956362908
 31
0.0
  0
ARC
  5
6EB
330
6A5
100
AcDbEntity
  8
0
  6
Continuous
 62
     7
370
    15
100
AcDbCircle
 10
1179.767302314721
 20
1280.928035299799
 30
0.0
 40
0.199999999999869
100
AcDbArc
 50
47.50000000000242
 51
134.9999999999908
  0
LINE
  5
6EC
330
6A5
100
AcDbEntity
  8
0
  6
Continuous
 62
     7
370
    15
100
AcDbLine
 10
1180.345208194238
 20
1280.669750467732
 30
0.0
 11
1179.902420356245
 21
1281.075490767161
 31
0.0
  0
ARC
  5
6ED
330
6A5
100
AcDbEntity
  8
0
  6
Continuous
 62
     7
370
    15
100
AcDbCircle
 10
1180.210090152715
 20
1280.52229500037
 30
0.0
 40
0.1999999999997885
100
AcDbArc
 50
317.1866200944819
 51
47.50000000000242
  0
ARC
  5
6EE
330
6A5
100
AcDbEntity
  8
0
  6
Continuous
 62
     7
370
    15
100
AcDbCircle
 10
1180.503518624337
 20
1280.250449948836
 30
0.0
 40
0.2000000000019591
100
AcDbArc
 50
137.1866200944729
 51
225.0000000000092
  0
LINE
  5
6EF
330
6A5
100
AcDbEntity
  8
0
  6
Continuous
 62
     7
370
    15
100
AcDbLine
 10
1180.645145931468
 20
1279.825979929228
 30
0.0
 11
1180.362097268098
 21
1280.109028592598
 31
0.0
  0
ARC
  5
6F0
330
6A5
100
AcDbEntity
  8
0
  6
Continuous
 62
     7
370
    15
100
AcDbCircle
 10
1180.786567287705
 20
1279.967401285465
 30
0.0
 40
0.1999999999998187
100
AcDbArc
 50
225.0000000000092
 51
315.0000000000092
  0
LINE
  5
6F1
330
6A5
100
AcDbEntity
  8
0
  6
Continuous
 62
     7
370
    15
100
AcDbLine
 10
1182.059359493839
 20
1280.957350779125
 30
0.0
 11
1180.927988643942
 21
1279.825979929228
 31
0.0
  0
ARC
  5
6F2
330
6A5
100
AcDbEntity
  8
0
  6
Continuous
 62
     7
370
    15
100
AcDbCircle
 10
1181.917938137602
 20
1281.098772135363
 30
0.0
 40
0.1999999999998489
100
AcDbArc
 50
315.0000000000092
 51
44.99999999999078
  0
LINE
  5
6F3
330
6A5
100
AcDbEntity
  8
0
  6
Continuous
 62
     7
370
    15
100
AcDbLine
 10
1181.77631083047
 20
1281.523242154969
 30
0.0
 11
1182.059359493839
 21
1281.2401934916
 31
0.0
  0
ARC
  5
6F4
330
6A5
100
AcDbEntity
  8
0
  6
Continuous
 62
     7
370
    15
100
AcDbCircle
 10
1181.634889474231
 20
1281.381820798731
 30
0.0
 40
0.2000000000020395
100
AcDbArc
 50
44.99999999999078
 51
132.8133799055086
  0
ARC
  5
6F5
330
6A5
100
AcDbEntity
  8
0
  6
Continuous
 62
     7
370
    15
100
AcDbCircle
 10
1181.363044422698
 20
1281.675249270352
 30
0.0
 40
0.199999999999805
100
AcDbArc
 50
222.4999999999976
 51
312.8133799055086
  0
LINE
  5
6F6
330
6A5
100
AcDbEntity
  8
0
  6
Continuous
 62
     7
370
    15
100
AcDbLine
 10
1180.809848655907
 20
1281.982919066823
 30
0.0
 11
1181.215588955336
 21
1281.540131228829
 31
0.0
  0
ARC
  5
6F7
330
6A5
100
AcDbEntity
  8
0
  6
Continuous
 62
     7
370
    15
100
AcDbCircle
 10
1180.957304123269
 20
1282.118037108346
 30
0.0
 40
0.1999999999998155
100
AcDbArc
 50
134.9999999999908
 51
222.4999999999976
  0
LINE
  5
6F8
330
6A5
100
AcDbEntity
  8
0
  6
Continuous
 62
     7
370
    15
100
AcDbLine
 10
1181.860383060159
 20
1283.303958757711
 30
0.0
 11
1180.815882767032
 21
1282.259458464583
 31
0.0
  0
ARC
  5
6F9
330
6A5
100
AcDbEntity
  8
0
  6
Continuous
 62
     7
370
    15
100
AcDbCircle
 10
1182.001804416396
 20
1283.162537401473
 30
0.0
 40
0.1999999999998443
100
AcDbArc
 50
47.50000000000242
 51
134.9999999999908
  0
LINE
  5
6FA
330
6A5
100
AcDbEntity
  8
0
  6
Continuous
 62
     7
370
    15
100
AcDbLine
 10
1182.579710295913
 20
1282.904252569406
 30
0.0
 11
1182.136922457919
 21
1283.309992868836
 31
0.0
  0
ARC
  5
6FB
330
6A5
100
AcDbEntity
  8
0
  6
Continuous
 62
     7
370
    15
100
AcDbCircle
 10
1182.444592254388
 20
1282.756797102043
 30
0.0
 40
0.2000000000020006
100
AcDbArc
 50
317.186620094473
 51
47.50000000000242
  0
ARC
  5
6FC
330
6A5
100
AcDbEntity
  8
0
  6
Continuous
 62
     7
370
    15
100
AcDbCircle
 10
1182.73802072601
 20
1282.484952050509
 30
0.0
 40
0.1999999999997987
100
AcDbArc
 50
137.1866200944729
 51
225.0000000000092
  0
LINE
  5
6FD
330
6A5
100
AcDbEntity
  8
0
  6
Continuous
 62
     7
370
    15
100
AcDbLine
 10
1182.879648033143
 20
1282.060482030902
 30
0.0
 11
1182.596599369773
 21
1282.343530694272
 31
0.0
  0
ARC
  5
6FE
330
6A5
100
AcDbEntity
  8
0
  6
Continuous
 62
     7
370
    15
100
AcDbCircle
 10
1183.02106938938
 20
1282.20190338714
 30
0.0
 40
0.1999999999998489
100
AcDbArc
 50
225.0000000000092
 51
315.0000000000092
  0
LINE
  5
6FF
330
6A5
100
AcDbEntity
  8
0
  6
Continuous
 62
     7
370
    15
100
AcDbLine
 10
1184.293861595514
 20
1283.1918528808
 30
0.0
 11
1183.162490745617
 21
1282.060482030902
 31
0.0
  0
ARC
  5
700
330
6A5
100
AcDbEntity
  8
0
  6
Continuous
 62
     7
370
    15
100
AcDbCircle
 10
1184.152440239277
 20
1283.333274237037
 30
0.0
 40
0.1999999999997785
100
AcDbArc
 50
315.0000000000092
 51
45.00000000000921
  0
LINE
  5
701
330
6A5
100
AcDbEntity
  8
0
  6
Continuous
 62
     7
370
    15
100
AcDbLine
 10
1184.010812932145
 20
1283.757744256644
 30
0.0
 11
1184.293861595514
 21
1283.474695593274
 31
0.0
  0
ARC
  5
702
330
6A5
100
AcDbEntity
  8
0
  6
Continuous
 62
     7
370
    15
100
AcDbCircle
 10
1183.869391575907
 20
1283.616322900406
 30
0.0
 40
0.199999999999839
100
AcDbArc
 50
44.99999999999078
 51
132.8133799055182
  0
ARC
  5
703
330
6A5
100
AcDbEntity
  8
0
  6
Continuous
 62
     7
370
    15
100
AcDbCircle
 10
1183.597546524374
 20
1283.909751372028
 30
0.0
 40
0.2000000000020111
100
AcDbArc
 50
222.500000000016
 51
312.8133799055182
  0
LINE
  5
704
330
6A5
100
AcDbEntity
  8
0
  6
Continuous
 62
     7
370
    15
100
AcDbLine
 10
1183.044350757581
 20
1284.217421168498
 30
0.0
 11
1183.450091057011
 21
1283.774633330504
 31
0.0
  0
ARC
  5
705
330
6A5
100
AcDbEntity
  8
0
  6
Continuous
 62
     7
370
    15
100
AcDbCircle
 10
1183.191806224943
 20
1284.352539210021
 30
0.0
 40
0.1999999999998033
100
AcDbArc
 50
134.9999999999908
 51
222.5000000000064
  0
LINE
  5
706
330
6A5
100
AcDbEntity
  8
0
  6
Continuous
 62
     7
370
    15
100
AcDbLine
 10
1184.094885161834
 20
1285.538460859385
 30
0.0
 11
1183.050384868706
 21
1284.493960566258
 31
0.0
  0
ARC
  5
707
330
6A5
100
AcDbEntity
  8
0
  6
Continuous
 62
     7
370
    15
100
AcDbCircle
 10
1184.236306518071
 20
1285.397039503148
 30
0.0
 40
0.1999999999997945
100
AcDbArc
 50
47.50000000000242
 51
135.0000000000092
  0
LINE
  5
708
330
6A5
100
AcDbEntity
  8
0
  6
Continuous
 62
     7
370
    15
100
AcDbLine
 10
1184.814212397588
 20
1285.138754671081
 30
0.0
 11
1184.371424559594
 21
1285.54449497051
 31
0.0
  0
ARC
  5
709
330
6A5
100
AcDbEntity
  8
0
  6
Continuous
 62
     7
370
    15
100
AcDbCircle
 10
1184.679094356065
 20
1284.991299203719
 30
0.0
 40
0.1999999999998059
100
AcDbArc
 50
317.1866200944819
 51
47.50000000001202
  0
ARC
  5
70A
330
6A5
100
AcDbEntity
  8
0
  6
Continuous
 62
     7
370
    15
100
AcDbCircle
 10
1184.972522827686
 20
1284.719454152186
 30
0.0
 40
0.2000000000019591
100
AcDbArc
 50
137.1866200944914
 51
225.0000000000092
  0
LINE
  5
70B
330
6A5
100
AcDbEntity
  8
0
  6
Continuous
 62
     7
370
    15
100
AcDbLine
 10
1185.114150134817
 20
1284.294984132577
 30
0.0
 11
1184.831101471448
 21
1284.578032795947
 31
0.0
  0
ARC
  5
70C
330
6A5
100
AcDbEntity
  8
0
  6
Continuous
 62
     7
370
    15
100
AcDbCircle
 10
1185.255571491055
 20
1284.436405488814
 30
0.0
 40
0.1999999999998187
100
AcDbArc
 50
224.9999999999908
 51
315.0000000000092
  0
LINE
  5
70D
330
6A5
100
AcDbEntity
  8
0
  6
Continuous
 62
     7
370
    15
100
AcDbLine
 10
1186.528363697189
 20
1285.426354982474
 30
0.0
 11
1185.396992847292
 21
1284.294984132577
 31
0.0
  0
ARC
  5
70E
330
6A5
100
AcDbEntity
  8
0
  6
Continuous
 62
     7
370
    15
100
AcDbCircle
 10
1186.386942340952
 20
1285.567776338712
 30
0.0
 40
0.1999999999998187
100
AcDbArc
 50
315.0000000000092
 51
44.99999999999078
  0
LINE
  5
70F
330
6A5
100
AcDbEntity
  8
0
  6
Continuous
 62
     7
370
    15
100
AcDbLine
 10
1186.245315033819
 20
1285.992246358319
 30
0.0
 11
1186.528363697189
 21
1285.709197694949
 31
0.0
  0
ARC
  5
710
330
6A5
100
AcDbEntity
  8
0
  6
Continuous
 62
     7
370
    15
100
AcDbCircle
 10
1186.103893677582
 20
1285.850825002081
 30
0.0
 40
0.1999999999998004
100
AcDbArc
 50
45.00000000000921
 51
132.8133799055086
  0
ARC
  5
711
330
6A5
100
AcDbEntity
  8
0
  6
Continuous
 62
     7
370
    15
100
AcDbCircle
 10
1185.832048626049
 20
1286.144253473703
 30
0.0
 40
0.2000000000019821
100
AcDbArc
 50
222.5000000000064
 51
312.8133799055086
  0
LINE
  5
712
330
6A5
100
AcDbEntity
  8
0
  6
Continuous
 62
     7
370
    15
100
AcDbLine
 10
1185.278852859256
 20
1286.451923270172
 30
0.0
 11
1185.684593158685
 21
1286.009135432178
 31
0.0
  0
ARC
  5
713
330
6A5
100
AcDbEntity
  8
0
  6
Continuous
 62
     7
370
    15
100
AcDbCircle
 10
1185.426308326618
 20
1286.587041311695
 30
0.0
 40
0.1999999999998388
100
AcDbArc
 50
134.9999999999908
 51
222.4999999999976
  0
LINE
  5
714
330
6A5
100
AcDbEntity
  8
0
  6
Continuous
 62
     7
370
    15
100
AcDbLine
 10
1185.552531716121
 20
1286.996107413672
 30
0.0
 11
1185.284886970381
 21
1286.728462667932
 31
0.0
  0
ARC
  5
715
330
6A5
100
AcDbEntity
  8
0
  6
Continuous
 62
     7
370
    15
100
AcDbCircle
 10
1188.965429945012
 20
1289.277637032488
 30
0.0
 40
1.499999999998565
100
AcDbArc
 50
90.0
 51
135.0
  0
ARC
  5
716
330
6A5
100
AcDbEntity
  8
0
  6
Continuous
 62
     7
370
    15
100
AcDbCircle
 10
1191.544107941554
 20
1290.277637084958
 30
0.0
 40
0.1999999999999034
100
AcDbArc
 50
180.0
 51
270.0
  0
LINE
  5
717
330
6A5
100
AcDbEntity
  8
0
  6
Continuous
 62
     7
370
    15
100
AcDbLine
 10
1191.922614770877
 20
1290.077637084959
 30
0.0
 11
1191.544107941554
 21
1290.077637084959
 31
0.0
  0
ARC
  5
718
330
6A5
100
AcDbEntity
  8
0
  6
Continuous
 62
     7
370
    15
100
AcDbCircle
 10
1191.922614770877
 20
1289.877637084959
 30
0.0
 40
0.1999999999998046
100
AcDbArc
 50
2.500000000004932
 51
90.0
  0
LINE
  5
719
330
6A5
100
AcDbEntity
  8
0
  6
Continuous
 62
     7
370
    15
100
AcDbLine
 10
1192.148620980938
 20
1289.286360962432
 30
0.0
 11
1192.122424415193
 21
1289.886360962432
 31
0.0
  0
ARC
  5
71A
330
6A5
100
AcDbEntity
  8
0
  6
Continuous
 62
     7
370
    15
100
AcDbCircle
 10
1191.948811336622
 20
1289.27763708496
 30
0.0
 40
0.1999999999998614
100
AcDbArc
 50
272.1866200944774
 51
2.500000000004932
  0
ARC
  5
71B
330
6A5
100
AcDbEntity
  8
0
  6
Continuous
 62
     7
370
    15
100
AcDbCircle
 10
1191.964073119327
 20
1288.877928343511
 30
0.0
 40
0.2000000000019902
100
AcDbArc
 50
92.18662009446447
 51
180.0
  0
LINE
  5
71C
330
6A5
100
AcDbEntity
  8
0
  6
Continuous
 62
     7
370
    15
100
AcDbLine
 10
1191.764073119325
 20
1288.477637084963
 30
0.0
 11
1191.764073119325
 21
1288.877928343511
 31
0.0
  0
ARC
  5
71D
330
6A5
100
AcDbEntity
  8
0
  6
Continuous
 62
     7
370
    15
100
AcDbCircle
 10
1191.964073119325
 20
1288.477637084963
 30
0.0
 40
0.1999999999997897
100
AcDbArc
 50
180.0
 51
270.0
  0
LINE
  5
71E
330
6A5
100
AcDbEntity
  8
0
  6
Continuous
 62
     7
370
    15
100
AcDbLine
 10
1193.564073119324
 20
1288.277637084963
 30
0.0
 11
1191.964073119325
 21
1288.277637084963
 31
0.0
  0
ARC
  5
71F
330
6A5
100
AcDbEntity
  8
0
  6
Continuous
 62
     7
370
    15
100
AcDbCircle
 10
1193.564073119324
 20
1288.477637084963
 30
0.0
 40
0.1999999999997897
100
AcDbArc
 50
270.0
 51
0.0
  0
LINE
  5
720
330
6A5
100
AcDbEntity
  8
0
  6
Continuous
 62
     7
370
    15
100
AcDbLine
 10
1193.764073119323
 20
1288.877928343511
 30
0.0
 11
1193.764073119323
 21
1288.477637084963
 31
0.0
  0
ARC
  5
721
330
6A5
100
AcDbEntity
  8
0
  6
Continuous
 62
     7
370
    15
100
AcDbCircle
 10
1193.564073119324
 20
1288.877928343511
 30
0.0
 40
0.1999999999997755
100
AcDbArc
 50
0.0
 51
87.8133799055225
  0
ARC
  5
722
330
6A5
100
AcDbEntity
  8
0
  6
Continuous
 62
     7
370
    15
100
AcDbCircle
 10
1193.57933490203
 20
1289.27763708496
 30
0.0
 40
0.2000000000019959
100
AcDbArc
 50
177.499999999995
 51
267.8133799055095
  0
LINE
  5
723
330
6A5
100
AcDbEntity
  8
0
  6
Continuous
 62
     7
370
    15
100
AcDbLine
 10
1193.405721823456
 20
1289.886360962432
 30
0.0
 11
1193.379525257711
 21
1289.286360962433
 31
0.0
  0
ARC
  5
724
330
6A5
100
AcDbEntity
  8
0
  6
Continuous
 62
     7
370
    15
100
AcDbCircle
 10
1193.605531467772
 20
1289.877637084959
 30
0.0
 40
0.1999999999997612
100
AcDbArc
 50
90.0
 51
177.5000000000081
  0
LINE
  5
725
330
6A5
100
AcDbEntity
  8
0
  6
Continuous
 62
     7
370
    15
100
AcDbLine
 10
1195.082677948216
 20
1290.077637084959
 30
0.0
 11
1193.605531467772
 21
1290.077637084959
 31
0.0
  0
ARC
  5
726
330
6A5
100
AcDbEntity
  8
0
  6
Continuous
 62
     7
370
    15
100
AcDbCircle
 10
1195.082677948216
 20
1289.877637084959
 30
0.0
 40
0.1999999999997904
100
AcDbArc
 50
2.500000000004932
 51
90.0
  0
LINE
  5
727
330
6A5
100
AcDbEntity
  8
0
  6
Continuous
 62
     7
370
    15
100
AcDbLine
 10
1195.308684158277
 20
1289.286360962433
 30
0.0
 11
1195.282487592532
 21
1289.886360962432
 31
0.0
  0
ARC
  5
728
330
6A5
100
AcDbEntity
  8
0
  6
Continuous
 62
     7
370
    15
100
AcDbCircle
 10
1195.108874513959
 20
1289.27763708496
 30
0.0
 40
0.2000000000019902
100
AcDbArc
 50
272.1866200944645
 51
2.500000000004932
  0
ARC
  5
729
330
6A5
100
AcDbEntity
  8
0
  6
Continuous
 62
     7
370
    15
100
AcDbCircle
 10
1195.124136296665
 20
1288.877928343511
 30
0.0
 40
0.1999999999997728
100
AcDbArc
 50
92.18662009447749
 51
180.0
  0
LINE
  5
72A
330
6A5
100
AcDbEntity
  8
0
  6
Continuous
 62
     7
370
    15
100
AcDbLine
 10
1194.924136296665
 20
1288.477637084963
 30
0.0
 11
1194.924136296665
 21
1288.877928343511
 31
0.0
  0
ARC
  5
72B
330
6A5
100
AcDbEntity
  8
0
  6
Continuous
 62
     7
370
    15
100
AcDbCircle
 10
1195.124136296665
 20
1288.477637084963
 30
0.0
 40
0.1999999999997897
100
AcDbArc
 50
180.0
 51
270.0
  0
LINE
  5
72C
330
6A5
100
AcDbEntity
  8
0
  6
Continuous
 62
     7
370
    15
100
AcDbLine
 10
1196.724136296663
 20
1288.277637084963
 30
0.0
 11
1195.124136296665
 21
1288.277637084963
 31
0.0
  0
ARC
  5
72D
330
6A5
100
AcDbEntity
  8
0
  6
Continuous
 62
     7
370
    15
100
AcDbCircle
 10
1196.724136296663
 20
1288.477637084962
 30
0.0
 40
0.1999999999997612
100
AcDbArc
 50
270.0
 51
0.0
  0
LINE
  5
72E
330
6A5
100
AcDbEntity
  8
0
  6
Continuous
 62
     7
370
    15
100
AcDbLine
 10
1196.924136296663
 20
1288.877928343511
 30
0.0
 11
1196.924136296663
 21
1288.477637084962
 31
0.0
  0
ARC
  5
72F
330
6A5
100
AcDbEntity
  8
0
  6
Continuous
 62
     7
370
    15
100
AcDbCircle
 10
1196.724136296663
 20
1288.877928343511
 30
0.0
 40
0.1999999999997706
100
AcDbArc
 50
0.0
 51
87.81337990553552
  0
ARC
  5
730
330
6A5
100
AcDbEntity
  8
0
  6
Continuous
 62
     7
370
    15
100
AcDbCircle
 10
1196.739398079369
 20
1289.27763708496
 30
0.0
 40
0.200000000001988
100
AcDbArc
 50
177.499999999995
 51
267.8133799055485
  0
LINE
  5
731
330
6A5
100
AcDbEntity
  8
0
  6
Continuous
 62
     7
370
    15
100
AcDbLine
 10
1196.565785000796
 20
1289.886360962432
 30
0.0
 11
1196.539588435051
 21
1289.286360962433
 31
0.0
  0
ARC
  5
732
330
6A5
100
AcDbEntity
  8
0
  6
Continuous
 62
     7
370
    15
100
AcDbCircle
 10
1196.765594645112
 20
1289.877637084959
 30
0.0
 40
0.1999999999998046
100
AcDbArc
 50
90.0
 51
177.499999999995
  0
LINE
  5
733
330
6A5
100
AcDbEntity
  8
0
  6
Continuous
 62
     7
370
    15
100
AcDbLine
 10
1197.144101474435
 20
1290.077637084959
 30
0.0
 11
1196.765594645112
 21
1290.077637084959
 31
0.0
  0
ARC
  5
734
330
6A5
100
AcDbEntity
  8
0
  6
Continuous
 62
     7
370
    15
100
AcDbCircle
 10
1197.144101474435
 20
1290.277637084959
 30
0.0
 40
0.1999999999998323
100
AcDbArc
 50
270.0
 51
0.0
  0
ARC
  5
735
330
6A5
100
AcDbEntity
  8
0
  6
Continuous
 62
     7
370
    15
100
AcDbCircle
 10
1185.411110359884
 20
1287.137528769909
 30
0.0
 40
0.1999999999998388
100
AcDbArc
 50
315.0000000000092
 51
45.00000000000921
  0
LINE
  5
736
330
6A5
100
AcDbEntity
  8
0
  6
Continuous
 62
     7
370
    15
100
AcDbLine
 10
1209.287569616241
 20
1268.978279568742
 30
0.0
 11
1211.094109657414
 21
1267.935273189668
 31
0.0
  0
LINE
  5
737
330
6A5
100
AcDbEntity
  8
0
  6
Continuous
 62
     7
370
    15
100
AcDbLine
 10
1210.844109657414
 20
1266.376294698722
 30
0.0
 11
1210.844109657414
 21
1265.394862830624
 31
0.0
  0
LINE
  5
738
330
6A5
100
AcDbEntity
  8
0
  6
Continuous
 62
     7
370
    15
100
AcDbLine
 10
1197.344101474435
 20
1290.277637084959
 30
0.0
 11
1197.344101474435
 21
1290.777637045604
 31
0.0
  0
LINE
  5
739
330
6A5
100
AcDbEntity
  8
0
  6
Continuous
 62
     7
370
    15
100
AcDbLine
 10
1191.344107941554
 20
1290.777637032486
 30
0.0
 11
1191.344107941554
 21
1290.277637084958
 31
0.0
  0
LINE
  5
73A
330
6A5
100
AcDbEntity
  8
0
  6
Continuous
 62
     7
370
    15
100
AcDbLine
 10
1209.835020624376
 20
1290.777637045604
 30
0.0
 11
1197.344101474435
 21
1290.777637045604
 31
0.0
  0
LINE
  5
73B
330
6A5
100
AcDbEntity
  8
0
  6
Continuous
 62
     7
370
    15
100
AcDbLine
 10
1191.344107941554
 20
1290.777637032486
 30
0.0
 11
1188.965429945012
 21
1290.777637032486
 31
0.0
  0
LINE
  5
73C
330
6A5
100
AcDbEntity
  8
0
  6
Continuous
 62
     7
370
    15
100
AcDbLine
 10
1177.544109601464
 20
1265.394862830624
 30
0.0
 11
1210.844109657414
 21
1265.394862830624
 31
0.0
  0
LINE
  5
73D
330
6A5
100
AcDbEntity
  8
0
  6
Continuous
 62
     7
370
    15
100
AcDbLine
 10
1199.800531786052
 20
1269.808287829325
 30
0.0
 11
1209.287569616241
 21
1268.978279568742
 31
0.0
  0
LINE
  5
73E
330
6A5
100
AcDbEntity
  8
0
  6
Continuous
 62
     7
370
    15
100
AcDbLine
 10
1185.552531716121
 20
1287.278950126147
 30
0.0
 11
1185.198977205617
 21
1287.63250463665
 31
0.0
  0
LINE
  5
73F
330
6A5
100
AcDbEntity
  8
0
  6
Continuous
 62
     7
370
    15
100
AcDbLine
 10
1187.904769773233
 20
1290.338297204266
 30
0.0
 11
1185.198977205617
 21
1287.63250463665
 31
0.0
  0
LINE
  5
740
330
6A5
100
AcDbEntity
  8
0
  6
Continuous
 62
     7
370
    15
100
AcDbLine
 10
1176.487336888092
 20
1278.920864319125
 30
0.0
 11
1174.783449429688
 21
1277.216976860721
 31
0.0
  0
LINE
  5
741
330
6A5
100
AcDbEntity
  8
0
  6
Continuous
 62
     7
370
    15
100
AcDbLine
 10
1176.487336888092
 20
1278.920864319125
 30
0.0
 11
1176.840891398596
 21
1278.567309808622
 31
0.0
  0
LINE
  5
742
330
6A5
100
AcDbEntity
  8
0
  6
Continuous
 62
     7
370
    15
100
AcDbLine
 10
1217.253131037255
 20
1264.336204593254
 30
0.0
 11
1215.365748238597
 21
1272.859917192403
 31
0.0
  0
LINE
  5
743
330
6A5
100
AcDbEntity
  8
0
  6
Continuous
 62
     7
370
    15
100
AcDbLine
 10
1185.198977205617
 20
1287.63250463665
 30
0.0
 11
1176.487336888092
 21
1278.920864319125
 31
0.0
  0
LINE
  5
744
330
6A5
100
AcDbEntity
  8
0
  6
Continuous
 62
     7
370
    15
100
AcDbLine
 10
1197.344101474435
 20
1290.777637032486
 30
0.0
 11
1191.344107941554
 21
1290.777637032486
 31
0.0
  0
ENDBLK
  5
6A7
330
6A5
100
AcDbEntity
  8
0
100
AcDbBlockEnd
  0
BLOCK
  5
747
330
746
100
AcDbEntity
  8
0
100
AcDbBlockBegin
  2
2
 70
     0
 10
0.0
 20
0.0
 30
0.0
  3
2
  1

  0
LINE
  5
749
330
746
100
AcDbEntity
  8
0
  6
Continuous
 62
     7
370
    15
100
AcDbLine
 10
1195.308874513961
 20
1237.125166311028
 30
0.0
 11
1195.308874513961
 21
1243.625166311022
 31
0.0
  0
LINE
  5
74A
330
746
100
AcDbEntity
  8
0
  6
Continuous
 62
     7
370
    15
100
AcDbLine
 10
1193.379334902028
 20
1243.625166311022
 30
0.0
 11
1193.379334902028
 21
1237.125166311028
 31
0.0
  0
LINE
  5
74B
330
746
100
AcDbEntity
  8
0
  6
Continuous
 62
     7
370
    15
100
AcDbLine
 10
1196.539398079367
 20
1243.625166311022
 30
0.0
 11
1196.539398079367
 21
1237.125166311028
 31
0.0
  0
LINE
  5
74C
330
746
100
AcDbEntity
  8
0
  6
Continuous
 62
     7
370
    15
100
AcDbLine
 10
1192.148811336622
 20
1237.125166311028
 30
0.0
 11
1192.148811336622
 21
1243.625166311022
 31
0.0
  0
LINE
  5
74D
330
746
100
AcDbEntity
  8
0
  6
Continuous
 62
     7
370
    15
100
AcDbLine
 10
1184.879094356064
 20
1237.125166311028
 30
0.0
 11
1184.879094356064
 21
1243.625166311022
 31
0.0
  0
LINE
  5
74E
330
746
100
AcDbEntity
  8
0
  6
Continuous
 62
     7
370
    15
100
AcDbLine
 10
1182.991806224944
 20
1243.625166311022
 30
0.0
 11
1182.991806224944
 21
1237.125166311028
 31
0.0
  0
LINE
  5
74F
330
746
100
AcDbEntity
  8
0
  6
Continuous
 62
     7
370
    15
100
AcDbLine
 10
1182.644592254391
 20
1237.125166311028
 30
0.0
 11
1182.644592254391
 21
1243.625166311022
 31
0.0
  0
LINE
  5
750
330
746
100
AcDbEntity
  8
0
  6
Continuous
 62
     7
370
    15
100
AcDbLine
 10
1180.757304123269
 20
1243.625166311022
 30
0.0
 11
1180.757304123269
 21
1237.125166311028
 31
0.0
  0
LINE
  5
751
330
746
100
AcDbEntity
  8
0
  6
Continuous
 62
     7
370
    15
100
AcDbLine
 10
1180.410090152715
 20
1237.125166311028
 30
0.0
 11
1180.410090152715
 21
1243.625166311022
 31
0.0
  0
LINE
  5
752
330
746
100
AcDbEntity
  8
0
  6
Continuous
 62
     7
370
    15
100
AcDbLine
 10
1178.522802021594
 20
1243.625166311022
 30
0.0
 11
1178.522802021594
 21
1237.125166311028
 31
0.0
  0
LINE
  5
753
330
746
100
AcDbEntity
  8
0
  6
Continuous
 62
     7
370
    15
100
AcDbLine
 10
1178.175588051041
 20
1237.125166311028
 30
0.0
 11
1178.175588051041
 21
1243.625166311022
 31
0.0
  0
LINE
  5
754
330
746
100
AcDbEntity
  8
0
  6
Continuous
 62
     7
370
    15
100
AcDbLine
 10
1215.396132732573
 20
1237.125166311028
 30
0.0
 11
1215.396132732573
 21
1243.125166311022
 31
0.0
  0
LINE
  5
755
330
746
100
AcDbEntity
  8
0
  6
Continuous
 62
     7
370
    15
100
AcDbLine
 10
1215.528933397056
 20
1243.125166311022
 30
0.0
 11
1215.528933397056
 21
1237.125166311028
 31
0.0
  0
CIRCLE
  5
756
330
746
100
AcDbEntity
  8
0
  6
Continuous
 62
     7
370
    15
100
AcDbCircle
 10
1203.844109657421
 20
1240.875166311025
 30
0.0
 40
2.749999999997243
  0
LINE
  5
757
330
746
100
AcDbEntity
  8
0
  6
Continuous
 62
     7
370
    15
100
AcDbLine
 10
1209.835020624376
 20
1244.625166311021
 30
0.0
 11
1209.835020624376
 21
1237.125166311028
 31
0.0
  0
LINE
  5
758
330
746
100
AcDbEntity
  8
0
  6
Continuous
 62
     7
370
    15
100
AcDbLine
 10
1209.835020624376
 20
1237.125166311028
 30
0.0
 11
1197.344101474435
 21
1237.125166311028
 31
0.0
  0
LINE
  5
759
330
746
100
AcDbEntity
  8
0
  6
Continuous
 62
     7
370
    15
100
AcDbLine
 10
1197.344101474435
 20
1237.125166311028
 30
0.0
 11
1197.344101474435
 21
1243.625166311022
 31
0.0
  0
LINE
  5
75A
330
746
100
AcDbEntity
  8
0
  6
Continuous
 62
     7
370
    15
100
AcDbLine
 10
1197.344101474435
 20
1243.625166311022
 30
0.0
 11
1191.344107941554
 21
1243.625166311022
 31
0.0
  0
LINE
  5
75B
330
746
100
AcDbEntity
  8
0
  6
Continuous
 62
     7
370
    15
100
AcDbLine
 10
1191.344107941554
 20
1243.625166311022
 30
0.0
 11
1191.344107941554
 21
1237.125166311028
 31
0.0
  0
LINE
  5
75C
330
746
100
AcDbEntity
  8
0
  6
Continuous
 62
     7
370
    15
100
AcDbLine
 10
1191.344107941554
 20
1237.125166311028
 30
0.0
 11
1188.965429945012
 21
1237.125166311028
 31
0.0
  0
LINE
  5
75D
330
746
100
AcDbEntity
  8
0
  6
Continuous
 62
     7
370
    15
100
AcDbLine
 10
1188.965429945012
 20
1237.125166311028
 30
0.0
 11
1188.965429945012
 21
1244.625166311021
 31
0.0
  0
LINE
  5
75E
330
746
100
AcDbEntity
  8
0
  6
Continuous
 62
     7
370
    15
100
AcDbLine
 10
1209.835020624376
 20
1244.625166311021
 30
0.0
 11
1188.965429945012
 21
1244.625166311021
 31
0.0
  0
LINE
  5
75F
330
746
100
AcDbEntity
  8
0
  6
Continuous
 62
     7
370
    15
100
AcDbLine
 10
1210.895680796155
 20
1244.625166311021
 30
0.0
 11
1209.835020624376
 21
1244.625166311021
 31
0.0
  0
LINE
  5
760
330
746
100
AcDbEntity
  8
0
  6
Continuous
 62
     7
370
    15
100
AcDbLine
 10
1210.895680796155
 20
1237.125166311028
 30
0.0
 11
1210.895680796155
 21
1244.625166311021
 31
0.0
  0
LINE
  5
761
330
746
100
AcDbEntity
  8
0
  6
Continuous
 62
     7
370
    15
100
AcDbLine
 10
1209.835020624376
 20
1237.125166311028
 30
0.0
 11
1210.895680796155
 21
1237.125166311028
 31
0.0
  0
LINE
  5
762
330
746
100
AcDbEntity
  8
0
  6
Continuous
 62
     7
370
    15
100
AcDbLine
 10
1187.904769773233
 20
1244.625166311021
 30
0.0
 11
1187.904769773233
 21
1237.125166311028
 31
0.0
  0
LINE
  5
763
330
746
100
AcDbEntity
  8
0
  6
Continuous
 62
     7
370
    15
100
AcDbLine
 10
1188.965429945012
 20
1244.625166311021
 30
0.0
 11
1187.904769773233
 21
1244.625166311021
 31
0.0
  0
LINE
  5
764
330
746
100
AcDbEntity
  8
0
  6
Continuous
 62
     7
370
    15
100
AcDbLine
 10
1187.904769773233
 20
1237.125166311028
 30
0.0
 11
1188.965429945012
 21
1237.125166311028
 31
0.0
  0
LINE
  5
765
330
746
100
AcDbEntity
  8
0
  6
Continuous
 62
     7
370
    15
100
AcDbLine
 10
1185.198977205617
 20
1237.125166311028
 30
0.0
 11
1185.198977205617
 21
1243.625166311022
 31
0.0
  0
LINE
  5
766
330
746
100
AcDbEntity
  8
0
  6
Continuous
 62
     7
370
    15
100
AcDbLine
 10
1185.198977205617
 20
1243.625166311022
 30
0.0
 11
1176.487336888092
 21
1243.625166311022
 31
0.0
  0
LINE
  5
767
330
746
100
AcDbEntity
  8
0
  6
Continuous
 62
     7
370
    15
100
AcDbLine
 10
1176.487336888092
 20
1243.625166311022
 30
0.0
 11
1176.487336888092
 21
1237.125166311028
 31
0.0
  0
LINE
  5
768
330
746
100
AcDbEntity
  8
0
  6
Continuous
 62
     7
370
    15
100
AcDbLine
 10
1174.783449429688
 20
1237.125166311028
 30
0.0
 11
1174.783449429688
 21
1244.625166311021
 31
0.0
  0
LINE
  5
769
330
746
100
AcDbEntity
  8
0
  6
Continuous
 62
     7
370
    15
100
AcDbLine
 10
1187.904769773233
 20
1244.625166311021
 30
0.0
 11
1174.783449429688
 21
1244.625166311021
 31
0.0
  0
LINE
  5
76A
330
746
100
AcDbEntity
  8
0
  6
Continuous
 62
     7
370
    15
100
AcDbLine
 10
1176.487336888092
 20
1237.125166311028
 30
0.0
 11
1174.783449429688
 21
1237.125166311028
 31
0.0
  0
LINE
  5
76B
330
746
100
AcDbEntity
  8
0
  6
Continuous
 62
     7
370
    15
100
AcDbLine
 10
1187.904769773233
 20
1237.125166311028
 30
0.0
 11
1185.198977205617
 21
1237.125166311028
 31
0.0
  0
LINE
  5
76C
330
746
100
AcDbEntity
  8
0
  6
Continuous
 62
     7
370
    15
100
AcDbLine
 10
1214.017001139712
 20
1244.625166311021
 30
0.0
 11
1214.017001139712
 21
1237.125166311028
 31
0.0
  0
LINE
  5
76D
330
746
100
AcDbEntity
  8
0
  6
Continuous
 62
     7
370
    15
100
AcDbLine
 10
1214.017001139712
 20
1244.625166311021
 30
0.0
 11
1210.895680796155
 21
1244.625166311021
 31
0.0
  0
LINE
  5
76E
330
746
100
AcDbEntity
  8
0
  6
Continuous
 62
     7
370
    15
100
AcDbLine
 10
1214.017001139712
 20
1237.125166311028
 30
0.0
 11
1210.895680796155
 21
1237.125166311028
 31
0.0
  0
LINE
  5
76F
330
746
100
AcDbEntity
  8
0
  6
Continuous
 62
     7
370
    15
100
AcDbLine
 10
1197.144101474435
 20
1237.125166311028
 30
0.0
 11
1197.144101474435
 21
1243.625166311022
 31
0.0
  0
LINE
  5
770
330
746
100
AcDbEntity
  8
0
  6
Continuous
 62
     7
370
    15
100
AcDbLine
 10
1197.344101474435
 20
1237.125166311028
 30
0.0
 11
1197.144101474435
 21
1237.125166311028
 31
0.0
  0
LINE
  5
771
330
746
100
AcDbEntity
  8
0
  6
Continuous
 62
     7
370
    15
100
AcDbLine
 10
1191.544107941554
 20
1243.625166311022
 30
0.0
 11
1191.544107941554
 21
1237.125166311028
 31
0.0
  0
LINE
  5
772
330
746
100
AcDbEntity
  8
0
  6
Continuous
 62
     7
370
    15
100
AcDbLine
 10
1191.544107941554
 20
1237.125166311028
 30
0.0
 11
1191.344107941554
 21
1237.125166311028
 31
0.0
  0
LINE
  5
773
330
746
100
AcDbEntity
  8
0
  6
Continuous
 62
     7
370
    15
100
AcDbLine
 10
1195.082677948216
 20
1243.625166311022
 30
0.0
 11
1195.082677948216
 21
1237.125166311028
 31
0.0
  0
LINE
  5
774
330
746
100
AcDbEntity
  8
0
  6
Continuous
 62
     7
370
    15
100
AcDbLine
 10
1195.282487592532
 20
1237.125166311028
 30
0.0
 11
1195.282487592532
 21
1243.625166311022
 31
0.0
  0
LINE
  5
775
330
746
100
AcDbEntity
  8
0
  6
Continuous
 62
     7
370
    15
100
AcDbLine
 10
1195.082677948216
 20
1237.125166311028
 30
0.0
 11
1195.282487592532
 21
1237.125166311028
 31
0.0
  0
LINE
  5
776
330
746
100
AcDbEntity
  8
0
  6
Continuous
 62
     7
370
    15
100
AcDbLine
 10
1193.605531467772
 20
1237.125166311028
 30
0.0
 11
1193.605531467772
 21
1243.625166311022
 31
0.0
  0
LINE
  5
777
330
746
100
AcDbEntity
  8
0
  6
Continuous
 62
     7
370
    15
100
AcDbLine
 10
1195.082677948216
 20
1237.125166311028
 30
0.0
 11
1193.605531467772
 21
1237.125166311028
 31
0.0
  0
LINE
  5
778
330
746
100
AcDbEntity
  8
0
  6
Continuous
 62
     7
370
    15
100
AcDbLine
 10
1193.405721823456
 20
1243.625166311022
 30
0.0
 11
1193.405721823456
 21
1237.125166311028
 31
0.0
  0
LINE
  5
779
330
746
100
AcDbEntity
  8
0
  6
Continuous
 62
     7
370
    15
100
AcDbLine
 10
1193.405721823456
 20
1237.125166311028
 30
0.0
 11
1193.605531467772
 21
1237.125166311028
 31
0.0
  0
LINE
  5
77A
330
746
100
AcDbEntity
  8
0
  6
Continuous
 62
     7
370
    15
100
AcDbLine
 10
1196.565785000796
 20
1243.625166311022
 30
0.0
 11
1196.565785000796
 21
1237.125166311028
 31
0.0
  0
LINE
  5
77B
330
746
100
AcDbEntity
  8
0
  6
Continuous
 62
     7
370
    15
100
AcDbLine
 10
1196.765594645112
 20
1237.125166311028
 30
0.0
 11
1196.765594645112
 21
1243.625166311022
 31
0.0
  0
LINE
  5
77C
330
746
100
AcDbEntity
  8
0
  6
Continuous
 62
     7
370
    15
100
AcDbLine
 10
1196.565785000796
 20
1237.125166311028
 30
0.0
 11
1196.765594645112
 21
1237.125166311028
 31
0.0
  0
LINE
  5
77D
330
746
100
AcDbEntity
  8
0
  6
Continuous
 62
     7
370
    15
100
AcDbLine
 10
1197.144101474435
 20
1237.125166311028
 30
0.0
 11
1196.765594645112
 21
1237.125166311028
 31
0.0
  0
LINE
  5
77E
330
746
100
AcDbEntity
  8
0
  6
Continuous
 62
     7
370
    15
100
AcDbLine
 10
1191.922614770877
 20
1243.625166311022
 30
0.0
 11
1191.922614770877
 21
1237.125166311028
 31
0.0
  0
LINE
  5
77F
330
746
100
AcDbEntity
  8
0
  6
Continuous
 62
     7
370
    15
100
AcDbLine
 10
1191.922614770877
 20
1237.125166311028
 30
0.0
 11
1191.544107941554
 21
1237.125166311028
 31
0.0
  0
LINE
  5
780
330
746
100
AcDbEntity
  8
0
  6
Continuous
 62
     7
370
    15
100
AcDbLine
 10
1192.122424415193
 20
1237.125166311028
 30
0.0
 11
1192.122424415193
 21
1243.625166311022
 31
0.0
  0
LINE
  5
781
330
746
100
AcDbEntity
  8
0
  6
Continuous
 62
     7
370
    15
100
AcDbLine
 10
1191.922614770877
 20
1237.125166311028
 30
0.0
 11
1192.122424415193
 21
1237.125166311028
 31
0.0
  0
LINE
  5
782
330
746
100
AcDbEntity
  8
0
  6
Continuous
 62
     7
370
    15
100
AcDbLine
 10
1195.308684158277
 20
1243.625166311022
 30
0.0
 11
1195.308684158277
 21
1237.125166311028
 31
0.0
  0
LINE
  5
783
330
746
100
AcDbEntity
  8
0
  6
Continuous
 62
     7
370
    15
100
AcDbLine
 10
1195.308684158277
 20
1237.125166311028
 30
0.0
 11
1195.282487592532
 21
1237.125166311028
 31
0.0
  0
LINE
  5
784
330
746
100
AcDbEntity
  8
0
  6
Continuous
 62
     7
370
    15
100
AcDbLine
 10
1193.379525257711
 20
1237.125166311028
 30
0.0
 11
1193.379525257711
 21
1243.625166311022
 31
0.0
  0
LINE
  5
785
330
746
100
AcDbEntity
  8
0
  6
Continuous
 62
     7
370
    15
100
AcDbLine
 10
1193.405721823456
 20
1237.125166311028
 30
0.0
 11
1193.379525257711
 21
1237.125166311028
 31
0.0
  0
LINE
  5
786
330
746
100
AcDbEntity
  8
0
  6
Continuous
 62
     7
370
    15
100
AcDbLine
 10
1196.539588435051
 20
1237.125166311028
 30
0.0
 11
1196.539588435051
 21
1243.625166311022
 31
0.0
  0
LINE
  5
787
330
746
100
AcDbEntity
  8
0
  6
Continuous
 62
     7
370
    15
100
AcDbLine
 10
1196.565785000796
 20
1237.125166311028
 30
0.0
 11
1196.539588435051
 21
1237.125166311028
 31
0.0
  0
LINE
  5
788
330
746
100
AcDbEntity
  8
0
  6
Continuous
 62
     7
370
    15
100
AcDbLine
 10
1192.148620980938
 20
1243.625166311022
 30
0.0
 11
1192.148620980938
 21
1237.125166311028
 31
0.0
  0
LINE
  5
789
330
746
100
AcDbEntity
  8
0
  6
Continuous
 62
     7
370
    15
100
AcDbLine
 10
1192.148620980938
 20
1237.125166311028
 30
0.0
 11
1192.122424415193
 21
1237.125166311028
 31
0.0
  0
LINE
  5
78A
330
746
100
AcDbEntity
  8
0
  6
Continuous
 62
     7
370
    15
100
AcDbLine
 10
1195.308684158277
 20
1237.125166311028
 30
0.0
 11
1195.308874513961
 21
1237.125166311028
 31
0.0
  0
LINE
  5
78B
330
746
100
AcDbEntity
  8
0
  6
Continuous
 62
     7
370
    15
100
AcDbLine
 10
1193.379334902028
 20
1237.125166311028
 30
0.0
 11
1193.379525257711
 21
1237.125166311028
 31
0.0
  0
LINE
  5
78C
330
746
100
AcDbEntity
  8
0
  6
Continuous
 62
     7
370
    15
100
AcDbLine
 10
1196.539398079367
 20
1237.125166311028
 30
0.0
 11
1196.539588435051
 21
1237.125166311028
 31
0.0
  0
LINE
  5
78D
330
746
100
AcDbEntity
  8
0
  6
Continuous
 62
     7
370
    15
100
AcDbLine
 10
1192.148620980938
 20
1237.125166311028
 30
0.0
 11
1192.148811336622
 21
1237.125166311028
 31
0.0
  0
LINE
  5
78E
330
746
100
AcDbEntity
  8
0
  6
Continuous
 62
     7
370
    15
100
AcDbLine
 10
1193.379334902028
 20
1237.125166311028
 30
0.0
 11
1192.148811336622
 21
1237.125166311028
 31
0.0
  0
LINE
  5
78F
330
746
100
AcDbEntity
  8
0
  6
Continuous
 62
     7
370
    15
100
AcDbLine
 10
1196.539398079367
 20
1237.125166311028
 30
0.0
 11
1195.308874513961
 21
1237.125166311028
 31
0.0
  0
LINE
  5
790
330
746
100
AcDbEntity
  8
0
  6
Continuous
 62
     7
370
    15
100
AcDbLine
 10
1214.456340967932
 20
1237.125166311028
 30
0.0
 11
1214.456340967932
 21
1244.625166311021
 31
0.0
  0
LINE
  5
791
330
746
100
AcDbEntity
  8
0
  6
Continuous
 62
     7
370
    15
100
AcDbLine
 10
1214.456340967932
 20
1244.625166311021
 30
0.0
 11
1214.017001139712
 21
1244.625166311021
 31
0.0
  0
LINE
  5
792
330
746
100
AcDbEntity
  8
0
  6
Continuous
 62
     7
370
    15
100
AcDbLine
 10
1214.017001139712
 20
1237.125166311028
 30
0.0
 11
1214.456340967932
 21
1237.125166311028
 31
0.0
  0
LINE
  5
793
330
746
100
AcDbEntity
  8
0
  6
Continuous
 62
     7
370
    15
100
AcDbLine
 10
1204.344109657421
 20
1238.425676568241
 30
0.0
 11
1204.344109657421
 21
1243.324656053808
 31
0.0
  0
ARC
  5
794
330
746
100
AcDbEntity
  8
0
  6
Continuous
 62
     7
370
    15
100
AcDbCircle
 10
1203.844109657421
 20
1240.875166311025
 30
0.0
 40
2.500000000000007
100
AcDbArc
 50
281.5369590328181
 51
78.46304096718187
  0
LINE
  5
795
330
746
100
AcDbEntity
  8
0
  6
Continuous
 62
     7
370
    15
100
AcDbLine
 10
1203.344109657421
 20
1243.324656053808
 30
0.0
 11
1203.344109657421
 21
1238.425676568241
 31
0.0
  0
ARC
  5
796
330
746
100
AcDbEntity
  8
0
  6
Continuous
 62
     7
370
    15
100
AcDbCircle
 10
1203.844109657421
 20
1240.875166311025
 30
0.0
 40
2.500000000000007
100
AcDbArc
 50
101.5369590328181
 51
258.4630409671819
  0
LINE
  5
797
330
746
100
AcDbEntity
  8
0
  6
Continuous
 62
     7
370
    15
100
AcDbLine
 10
1184.094885161834
 20
1243.625166311022
 30
0.0
 11
1184.094885161834
 21
1237.125166311028
 31
0.0
  0
LINE
  5
798
330
746
100
AcDbEntity
  8
0
  6
Continuous
 62
     7
370
    15
100
AcDbLine
 10
1184.371424559594
 20
1237.125166311028
 30
0.0
 11
1184.371424559594
 21
1243.625166311022
 31
0.0
  0
LINE
  5
799
330
746
100
AcDbEntity
  8
0
  6
Continuous
 62
     7
370
    15
100
AcDbLine
 10
1184.094885161834
 20
1237.125166311028
 30
0.0
 11
1184.371424559594
 21
1237.125166311028
 31
0.0
  0
LINE
  5
79A
330
746
100
AcDbEntity
  8
0
  6
Continuous
 62
     7
370
    15
100
AcDbLine
 10
1184.814212397588
 20
1243.625166311022
 30
0.0
 11
1184.814212397588
 21
1237.125166311028
 31
0.0
  0
LINE
  5
79B
330
746
100
AcDbEntity
  8
0
  6
Continuous
 62
     7
370
    15
100
AcDbLine
 10
1184.814212397588
 20
1237.125166311028
 30
0.0
 11
1184.371424559594
 21
1237.125166311028
 31
0.0
  0
LINE
  5
79C
330
746
100
AcDbEntity
  8
0
  6
Continuous
 62
     7
370
    15
100
AcDbLine
 10
1183.050384868706
 20
1237.125166311028
 30
0.0
 11
1183.050384868706
 21
1243.625166311022
 31
0.0
  0
LINE
  5
79D
330
746
100
AcDbEntity
  8
0
  6
Continuous
 62
     7
370
    15
100
AcDbLine
 10
1184.094885161834
 20
1237.125166311028
 30
0.0
 11
1183.050384868706
 21
1237.125166311028
 31
0.0
  0
LINE
  5
79E
330
746
100
AcDbEntity
  8
0
  6
Continuous
 62
     7
370
    15
100
AcDbLine
 10
1184.814212397588
 20
1237.125166311028
 30
0.0
 11
1184.879094356064
 21
1237.125166311028
 31
0.0
  0
LINE
  5
79F
330
746
100
AcDbEntity
  8
0
  6
Continuous
 62
     7
370
    15
100
AcDbLine
 10
1185.114150134817
 20
1237.125166311028
 30
0.0
 11
1185.114150134817
 21
1243.625166311022
 31
0.0
  0
LINE
  5
7A0
330
746
100
AcDbEntity
  8
0
  6
Continuous
 62
     7
370
    15
100
AcDbLine
 10
1185.114150134817
 20
1237.125166311028
 30
0.0
 11
1184.879094356064
 21
1237.125166311028
 31
0.0
  0
ARC
  5
7A1
330
746
100
AcDbEntity
  8
0
  6
Continuous
 62
     7
370
    15
100
AcDbCircle
 10
1203.844109657421
 20
1240.875166311025
 30
0.0
 40
2.500000000000007
100
AcDbArc
 50
258.4630409671819
 51
281.5369590328181
  0
ARC
  5
7A2
330
746
100
AcDbEntity
  8
0
  6
Continuous
 62
     7
370
    15
100
AcDbCircle
 10
1203.844109657421
 20
1240.875166311025
 30
0.0
 40
2.499999999999979
100
AcDbArc
 50
78.46304096718187
 51
101.5369590328181
  0
LINE
  5
7A3
330
746
100
AcDbEntity
  8
0
  6
Continuous
 62
     7
370
    15
100
AcDbLine
 10
1182.991806224944
 20
1237.125166311028
 30
0.0
 11
1183.050384868706
 21
1237.125166311028
 31
0.0
  0
LINE
  5
7A4
330
746
100
AcDbEntity
  8
0
  6
Continuous
 62
     7
370
    15
100
AcDbLine
 10
1185.198977205617
 20
1237.125166311028
 30
0.0
 11
1185.114150134817
 21
1237.125166311028
 31
0.0
  0
LINE
  5
7A5
330
746
100
AcDbEntity
  8
0
  6
Continuous
 62
     7
370
    15
100
AcDbLine
 10
1181.860383060159
 20
1243.625166311022
 30
0.0
 11
1181.860383060159
 21
1237.125166311028
 31
0.0
  0
LINE
  5
7A6
330
746
100
AcDbEntity
  8
0
  6
Continuous
 62
     7
370
    15
100
AcDbLine
 10
1182.136922457919
 20
1237.125166311028
 30
0.0
 11
1182.136922457919
 21
1243.625166311022
 31
0.0
  0
LINE
  5
7A7
330
746
100
AcDbEntity
  8
0
  6
Continuous
 62
     7
370
    15
100
AcDbLine
 10
1181.860383060159
 20
1237.125166311028
 30
0.0
 11
1182.136922457919
 21
1237.125166311028
 31
0.0
  0
LINE
  5
7A8
330
746
100
AcDbEntity
  8
0
  6
Continuous
 62
     7
370
    15
100
AcDbLine
 10
1182.579710295913
 20
1243.625166311022
 30
0.0
 11
1182.579710295913
 21
1237.125166311028
 31
0.0
  0
LINE
  5
7A9
330
746
100
AcDbEntity
  8
0
  6
Continuous
 62
     7
370
    15
100
AcDbLine
 10
1182.579710295913
 20
1237.125166311028
 30
0.0
 11
1182.136922457919
 21
1237.125166311028
 31
0.0
  0
LINE
  5
7AA
330
746
100
AcDbEntity
  8
0
  6
Continuous
 62
     7
370
    15
100
AcDbLine
 10
1180.815882767032
 20
1237.125166311028
 30
0.0
 11
1180.815882767032
 21
1243.625166311022
 31
0.0
  0
LINE
  5
7AB
330
746
100
AcDbEntity
  8
0
  6
Continuous
 62
     7
370
    15
100
AcDbLine
 10
1181.860383060159
 20
1237.125166311028
 30
0.0
 11
1180.815882767032
 21
1237.125166311028
 31
0.0
  0
LINE
  5
7AC
330
746
100
AcDbEntity
  8
0
  6
Continuous
 62
     7
370
    15
100
AcDbLine
 10
1182.579710295913
 20
1237.125166311028
 30
0.0
 11
1182.644592254391
 21
1237.125166311028
 31
0.0
  0
LINE
  5
7AD
330
746
100
AcDbEntity
  8
0
  6
Continuous
 62
     7
370
    15
100
AcDbLine
 10
1182.879648033143
 20
1237.125166311028
 30
0.0
 11
1182.879648033143
 21
1243.625166311022
 31
0.0
  0
LINE
  5
7AE
330
746
100
AcDbEntity
  8
0
  6
Continuous
 62
     7
370
    15
100
AcDbLine
 10
1182.879648033143
 20
1237.125166311028
 30
0.0
 11
1182.644592254391
 21
1237.125166311028
 31
0.0
  0
LINE
  5
7AF
330
746
100
AcDbEntity
  8
0
  6
Continuous
 62
     7
370
    15
100
AcDbLine
 10
1180.757304123269
 20
1237.125166311028
 30
0.0
 11
1180.815882767032
 21
1237.125166311028
 31
0.0
  0
LINE
  5
7B0
330
746
100
AcDbEntity
  8
0
  6
Continuous
 62
     7
370
    15
100
AcDbLine
 10
1182.991806224944
 20
1237.125166311028
 30
0.0
 11
1182.879648033143
 21
1237.125166311028
 31
0.0
  0
LINE
  5
7B1
330
746
100
AcDbEntity
  8
0
  6
Continuous
 62
     7
370
    15
100
AcDbLine
 10
1179.625880958484
 20
1243.625166311022
 30
0.0
 11
1179.625880958484
 21
1237.125166311028
 31
0.0
  0
LINE
  5
7B2
330
746
100
AcDbEntity
  8
0
  6
Continuous
 62
     7
370
    15
100
AcDbLine
 10
1179.902420356245
 20
1237.125166311028
 30
0.0
 11
1179.902420356245
 21
1243.625166311022
 31
0.0
  0
LINE
  5
7B3
330
746
100
AcDbEntity
  8
0
  6
Continuous
 62
     7
370
    15
100
AcDbLine
 10
1179.625880958484
 20
1237.125166311028
 30
0.0
 11
1179.902420356245
 21
1237.125166311028
 31
0.0
  0
LINE
  5
7B4
330
746
100
AcDbEntity
  8
0
  6
Continuous
 62
     7
370
    15
100
AcDbLine
 10
1180.345208194238
 20
1243.625166311022
 30
0.0
 11
1180.345208194238
 21
1237.125166311028
 31
0.0
  0
LINE
  5
7B5
330
746
100
AcDbEntity
  8
0
  6
Continuous
 62
     7
370
    15
100
AcDbLine
 10
1180.345208194238
 20
1237.125166311028
 30
0.0
 11
1179.902420356245
 21
1237.125166311028
 31
0.0
  0
LINE
  5
7B6
330
746
100
AcDbEntity
  8
0
  6
Continuous
 62
     7
370
    15
100
AcDbLine
 10
1178.581380665357
 20
1237.125166311028
 30
0.0
 11
1178.581380665357
 21
1243.625166311022
 31
0.0
  0
LINE
  5
7B7
330
746
100
AcDbEntity
  8
0
  6
Continuous
 62
     7
370
    15
100
AcDbLine
 10
1179.625880958484
 20
1237.125166311028
 30
0.0
 11
1178.581380665357
 21
1237.125166311028
 31
0.0
  0
LINE
  5
7B8
330
746
100
AcDbEntity
  8
0
  6
Continuous
 62
     7
370
    15
100
AcDbLine
 10
1180.345208194238
 20
1237.125166311028
 30
0.0
 11
1180.410090152715
 21
1237.125166311028
 31
0.0
  0
LINE
  5
7B9
330
746
100
AcDbEntity
  8
0
  6
Continuous
 62
     7
370
    15
100
AcDbLine
 10
1180.645145931468
 20
1243.625166311022
 30
0.0
 11
1180.645145931468
 21
1237.125166311028
 31
0.0
  0
LINE
  5
7BA
330
746
100
AcDbEntity
  8
0
  6
Continuous
 62
     7
370
    15
100
AcDbLine
 10
1180.645145931468
 20
1237.125166311028
 30
0.0
 11
1180.410090152715
 21
1237.125166311028
 31
0.0
  0
LINE
  5
7BB
330
746
100
AcDbEntity
  8
0
  6
Continuous
 62
     7
370
    15
100
AcDbLine
 10
1178.522802021594
 20
1237.125166311028
 30
0.0
 11
1178.581380665357
 21
1237.125166311028
 31
0.0
  0
LINE
  5
7BC
330
746
100
AcDbEntity
  8
0
  6
Continuous
 62
     7
370
    15
100
AcDbLine
 10
1180.757304123269
 20
1237.125166311028
 30
0.0
 11
1180.645145931468
 21
1237.125166311028
 31
0.0
  0
LINE
  5
7BD
330
746
100
AcDbEntity
  8
0
  6
Continuous
 62
     7
370
    15
100
AcDbLine
 10
1176.840891398596
 20
1243.625166311022
 30
0.0
 11
1176.840891398596
 21
1237.125166311028
 31
0.0
  0
LINE
  5
7BE
330
746
100
AcDbEntity
  8
0
  6
Continuous
 62
     7
370
    15
100
AcDbLine
 10
1176.487336888092
 20
1237.125166311028
 30
0.0
 11
1176.840891398596
 21
1237.125166311028
 31
0.0
  0
LINE
  5
7BF
330
746
100
AcDbEntity
  8
0
  6
Continuous
 62
     7
370
    15
100
AcDbLine
 10
1177.39137885681
 20
1243.625166311022
 30
0.0
 11
1177.39137885681
 21
1237.125166311028
 31
0.0
  0
LINE
  5
7C0
330
746
100
AcDbEntity
  8
0
  6
Continuous
 62
     7
370
    15
100
AcDbLine
 10
1177.66791825457
 20
1237.125166311028
 30
0.0
 11
1177.66791825457
 21
1243.625166311022
 31
0.0
  0
LINE
  5
7C1
330
746
100
AcDbEntity
  8
0
  6
Continuous
 62
     7
370
    15
100
AcDbLine
 10
1177.39137885681
 20
1237.125166311028
 30
0.0
 11
1177.66791825457
 21
1237.125166311028
 31
0.0
  0
LINE
  5
7C2
330
746
100
AcDbEntity
  8
0
  6
Continuous
 62
     7
370
    15
100
AcDbLine
 10
1178.110706092564
 20
1243.625166311022
 30
0.0
 11
1178.110706092564
 21
1237.125166311028
 31
0.0
  0
LINE
  5
7C3
330
746
100
AcDbEntity
  8
0
  6
Continuous
 62
     7
370
    15
100
AcDbLine
 10
1178.110706092564
 20
1237.125166311028
 30
0.0
 11
1177.66791825457
 21
1237.125166311028
 31
0.0
  0
LINE
  5
7C4
330
746
100
AcDbEntity
  8
0
  6
Continuous
 62
     7
370
    15
100
AcDbLine
 10
1177.12373411107
 20
1243.625166311022
 30
0.0
 11
1177.12373411107
 21
1237.125166311028
 31
0.0
  0
LINE
  5
7C5
330
746
100
AcDbEntity
  8
0
  6
Continuous
 62
     7
370
    15
100
AcDbLine
 10
1177.39137885681
 20
1237.125166311028
 30
0.0
 11
1177.12373411107
 21
1237.125166311028
 31
0.0
  0
LINE
  5
7C6
330
746
100
AcDbEntity
  8
0
  6
Continuous
 62
     7
370
    15
100
AcDbLine
 10
1177.12373411107
 20
1237.125166311028
 30
0.0
 11
1176.840891398596
 21
1237.125166311028
 31
0.0
  0
LINE
  5
7C7
330
746
100
AcDbEntity
  8
0
  6
Continuous
 62
     7
370
    15
100
AcDbLine
 10
1178.110706092564
 20
1237.125166311028
 30
0.0
 11
1178.175588051041
 21
1237.125166311028
 31
0.0
  0
LINE
  5
7C8
330
746
100
AcDbEntity
  8
0
  6
Continuous
 62
     7
370
    15
100
AcDbLine
 10
1178.410643829793
 20
1243.625166311022
 30
0.0
 11
1178.410643829793
 21
1237.125166311028
 31
0.0
  0
LINE
  5
7C9
330
746
100
AcDbEntity
  8
0
  6
Continuous
 62
     7
370
    15
100
AcDbLine
 10
1178.410643829793
 20
1237.125166311028
 30
0.0
 11
1178.175588051041
 21
1237.125166311028
 31
0.0
  0
LINE
  5
7CA
330
746
100
AcDbEntity
  8
0
  6
Continuous
 62
     7
370
    15
100
AcDbLine
 10
1178.522802021594
 20
1237.125166311028
 30
0.0
 11
1178.410643829793
 21
1237.125166311028
 31
0.0
  0
LINE
  5
7CB
330
746
100
AcDbEntity
  8
0
  6
Continuous
 62
     7
370
    15
100
AcDbLine
 10
1174.344109601468
 20
1244.625166311021
 30
0.0
 11
1174.344109601468
 21
1237.125166311028
 31
0.0
  0
LINE
  5
7CC
330
746
100
AcDbEntity
  8
0
  6
Continuous
 62
     7
370
    15
100
AcDbLine
 10
1174.783449429688
 20
1244.625166311021
 30
0.0
 11
1174.344109601468
 21
1244.625166311021
 31
0.0
  0
LINE
  5
7CD
330
746
100
AcDbEntity
  8
0
  6
Continuous
 62
     7
370
    15
100
AcDbLine
 10
1174.344109601468
 20
1237.125166311028
 30
0.0
 11
1174.783449429688
 21
1237.125166311028
 31
0.0
  0
LINE
  5
7CE
330
746
100
AcDbEntity
  8
0
  6
Continuous
 62
     7
370
    15
100
AcDbLine
 10
1215.365748238597
 20
1243.125166311022
 30
0.0
 11
1215.365748238597
 21
1244.625166311021
 31
0.0
  0
LINE
  5
7CF
330
746
100
AcDbEntity
  8
0
  6
Continuous
 62
     7
370
    15
100
AcDbLine
 10
1215.365748238597
 20
1244.625166311021
 30
0.0
 11
1214.456340967932
 21
1244.625166311021
 31
0.0
  0
LINE
  5
7D0
330
746
100
AcDbEntity
  8
0
  6
Continuous
 62
     7
370
    15
100
AcDbLine
 10
1214.456340967932
 20
1237.125166311028
 30
0.0
 11
1215.396132732573
 21
1237.125166311028
 31
0.0
  0
LINE
  5
7D1
330
746
100
AcDbEntity
  8
0
  6
Continuous
 62
     7
370
    15
100
AcDbLine
 10
1217.273162548739
 20
1244.625166311021
 30
0.0
 11
1217.273162548739
 21
1237.125166311028
 31
0.0
  0
LINE
  5
7D2
330
746
100
AcDbEntity
  8
0
  6
Continuous
 62
     7
370
    15
100
AcDbLine
 10
1217.253131191175
 20
1237.125166311028
 30
0.0
 11
1217.253131037255
 21
1243.125166311022
 31
0.0
  0
LINE
  5
7D3
330
746
100
AcDbEntity
  8
0
  6
Continuous
 62
     7
370
    15
100
AcDbLine
 10
1217.253131037255
 20
1243.125166311022
 30
0.0
 11
1215.365748238597
 21
1243.125166311022
 31
0.0
  0
LINE
  5
7D4
330
746
100
AcDbEntity
  8
0
  6
Continuous
 62
     7
370
    15
100
AcDbLine
 10
1217.273162548739
 20
1244.625166311021
 30
0.0
 11
1215.365748238597
 21
1244.625166311021
 31
0.0
  0
LINE
  5
7D5
330
746
100
AcDbEntity
  8
0
  6
Continuous
 62
     7
370
    15
100
AcDbLine
 10
1217.273162548739
 20
1237.125166311028
 30
0.0
 11
1217.253131191175
 21
1237.125166311028
 31
0.0
  0
LINE
  5
7D6
330
746
100
AcDbEntity
  8
0
  6
Continuous
 62
     7
370
    15
100
AcDbLine
 10
1216.960225450877
 20
1243.125166311022
 30
0.0
 11
1216.960225450877
 21
1237.125166311028
 31
0.0
  0
LINE
  5
7D7
330
746
100
AcDbEntity
  8
0
  6
Continuous
 62
     7
370
    15
100
AcDbLine
 10
1216.960225450877
 20
1237.125166311028
 30
0.0
 11
1217.253131191175
 21
1237.125166311028
 31
0.0
  0
LINE
  5
7D8
330
746
100
AcDbEntity
  8
0
  6
Continuous
 62
     7
370
    15
100
AcDbLine
 10
1215.828933273125
 20
1237.125166311028
 30
0.0
 11
1215.828933273125
 21
1243.125166311022
 31
0.0
  0
LINE
  5
7D9
330
746
100
AcDbEntity
  8
0
  6
Continuous
 62
     7
370
    15
100
AcDbLine
 10
1216.960225450877
 20
1237.125166311028
 30
0.0
 11
1215.828933273125
 21
1237.125166311028
 31
0.0
  0
LINE
  5
7DA
330
746
100
AcDbEntity
  8
0
  6
Continuous
 62
     7
370
    15
100
AcDbLine
 10
1215.528933397056
 20
1237.125166311028
 30
0.0
 11
1215.828933273125
 21
1237.125166311028
 31
0.0
  0
LINE
  5
7DB
330
746
100
AcDbEntity
  8
0
  6
Continuous
 62
     7
370
    15
100
AcDbLine
 10
1217.344109657408
 20
1237.125166311028
 30
0.0
 11
1217.344109657408
 21
1244.625166311021
 31
0.0
  0
LINE
  5
7DC
330
746
100
AcDbEntity
  8
0
  6
Continuous
 62
     7
370
    15
100
AcDbLine
 10
1217.344109657408
 20
1244.625166311021
 30
0.0
 11
1217.273162548739
 21
1244.625166311021
 31
0.0
  0
LINE
  5
7DD
330
746
100
AcDbEntity
  8
0
  6
Continuous
 62
     7
370
    15
100
AcDbLine
 10
1217.273162548739
 20
1237.125166311028
 30
0.0
 11
1217.344109657408
 21
1237.125166311028
 31
0.0
  0
LINE
  5
7DE
330
746
100
AcDbEntity
  8
0
  6
Continuous
 62
     7
370
    15
100
AcDbLine
 10
1215.528933397056
 20
1237.125166311028
 30
0.0
 11
1215.396132732573
 21
1237.125166311028
 31
0.0
  0
ENDBLK
  5
748
330
746
100
AcDbEntity
  8
0
100
AcDbBlockEnd
  0
BLOCK
  5
7E1
330
7E0
100
AcDbEntity
  8
0
100
AcDbBlockBegin
  2
3
 70
     0
 10
0.0
 20
0.0
 30
0.0
  3
3
  1

  0
LINE
  5
7E3
330
7E0
100
AcDbEntity
  8
0
  6
Continuous
 62
     7
370
    15
100
AcDbLine
 10
1148.042392738273
 20
1260.777637154342
 30
0.0
 11
1155.542392738265
 21
1260.777637093429
 31
0.0
  0
LINE
  5
7E4
330
7E0
100
AcDbEntity
  8
0
  6
Continuous
 62
     7
370
    15
100
AcDbLine
 10
1148.042392738273
 20
1261.777637154341
 30
0.0
 11
1148.042392738273
 21
1260.777637154342
 31
0.0
  0
LINE
  5
7E5
330
7E0
100
AcDbEntity
  8
0
  6
Continuous
 62
     7
370
    15
100
AcDbLine
 10
1155.542392738265
 20
1261.777637154341
 30
0.0
 11
1148.042392738273
 21
1261.777637154341
 31
0.0
  0
LINE
  5
7E6
330
7E0
100
AcDbEntity
  8
0
  6
Continuous
 62
     7
370
    15
100
AcDbLine
 10
1155.542392738265
 20
1260.777637093429
 30
0.0
 11
1155.542392738265
 21
1261.777637154341
 31
0.0
  0
LINE
  5
7E7
330
7E0
100
AcDbEntity
  8
0
  6
Continuous
 62
     7
370
    15
100
AcDbLine
 10
1148.042392738273
 20
1263.597167445827
 30
0.0
 11
1155.542392738265
 21
1263.597167445827
 31
0.0
  0
LINE
  5
7E8
330
7E0
100
AcDbEntity
  8
0
  6
Continuous
 62
     7
370
    15
100
AcDbLine
 10
1148.042392738273
 20
1261.777637154341
 30
0.0
 11
1148.042392738273
 21
1263.597167445827
 31
0.0
  0
LINE
  5
7E9
330
7E0
100
AcDbEntity
  8
0
  6
Continuous
 62
     7
370
    15
100
AcDbLine
 10
1155.542392738265
 20
1261.777637154341
 30
0.0
 11
1155.542392738265
 21
1263.597167445827
 31
0.0
  0
LINE
  5
7EA
330
7E0
100
AcDbEntity
  8
0
  6
Continuous
 62
     7
370
    15
100
AcDbLine
 10
1148.042392738273
 20
1264.245739932153
 30
0.0
 11
1148.042392738273
 21
1263.597167445827
 31
0.0
  0
LINE
  5
7EB
330
7E0
100
AcDbEntity
  8
0
  6
Continuous
 62
     7
370
    15
100
AcDbLine
 10
1155.542392738265
 20
1264.245739932153
 30
0.0
 11
1148.042392738273
 21
1264.245739932153
 31
0.0
  0
LINE
  5
7EC
330
7E0
100
AcDbEntity
  8
0
  6
Continuous
 62
     7
370
    15
100
AcDbLine
 10
1155.542392738265
 20
1263.597167445827
 30
0.0
 11
1155.542392738265
 21
1264.245739932153
 31
0.0
  0
LINE
  5
7ED
330
7E0
100
AcDbEntity
  8
0
  6
Continuous
 62
     7
370
    15
100
AcDbLine
 10
1148.042392738273
 20
1264.336204632927
 30
0.0
 11
1154.042392738267
 21
1264.336204593254
 31
0.0
  0
LINE
  5
7EE
330
7E0
100
AcDbEntity
  8
0
  6
Continuous
 62
     7
370
    15
100
AcDbLine
 10
1154.042392738267
 20
1264.336204593254
 30
0.0
 11
1154.042392738267
 21
1272.859917192403
 31
0.0
  0
LINE
  5
7EF
330
7E0
100
AcDbEntity
  8
0
  6
Continuous
 62
     7
370
    15
100
AcDbLine
 10
1154.042392738267
 20
1272.859917192403
 30
0.0
 11
1155.542392738265
 21
1272.859917192403
 31
0.0
  0
LINE
  5
7F0
330
7E0
100
AcDbEntity
  8
0
  6
Continuous
 62
     7
370
    15
100
AcDbLine
 10
1148.042392738273
 20
1264.245739932153
 30
0.0
 11
1148.042392738273
 21
1264.336204632927
 31
0.0
  0
LINE
  5
7F1
330
7E0
100
AcDbEntity
  8
0
  6
Continuous
 62
     7
370
    15
100
AcDbLine
 10
1155.542392738265
 20
1264.245739932153
 30
0.0
 11
1155.542392738265
 21
1272.859917192403
 31
0.0
  0
LINE
  5
7F2
330
7E0
100
AcDbEntity
  8
0
  6
Continuous
 62
     7
370
    15
100
AcDbLine
 10
1154.042392738267
 20
1264.571347344868
 30
0.0
 11
1148.042392738273
 21
1264.571346410187
 31
0.0
  0
LINE
  5
7F3
330
7E0
100
AcDbEntity
  8
0
  6
Continuous
 62
     7
370
    15
100
AcDbLine
 10
1148.042392738273
 20
1264.571346410187
 30
0.0
 11
1148.042392738273
 21
1264.336204632927
 31
0.0
  0
LINE
  5
7F4
330
7E0
100
AcDbEntity
  8
0
  6
Continuous
 62
     7
370
    15
100
AcDbLine
 10
1155.542392738265
 20
1260.777637032516
 30
0.0
 11
1148.042392738273
 21
1260.777637093429
 31
0.0
  0
LINE
  5
7F5
330
7E0
100
AcDbEntity
  8
0
  6
Continuous
 62
     7
370
    15
100
AcDbLine
 10
1148.042392738273
 20
1260.777637093429
 30
0.0
 11
1148.042392738273
 21
1260.777637154342
 31
0.0
  0
LINE
  5
7F6
330
7E0
100
AcDbEntity
  8
0
  6
Continuous
 62
     7
370
    15
100
AcDbLine
 10
1155.542392738265
 20
1260.777637032516
 30
0.0
 11
1155.542392738265
 21
1260.777637093429
 31
0.0
  0
LINE
  5
7F7
330
7E0
100
AcDbEntity
  8
0
  6
Continuous
 62
     7
370
    15
100
AcDbLine
 10
1148.042392738273
 20
1272.165324481734
 30
0.0
 11
1154.042392738267
 21
1272.165324481734
 31
0.0
  0
LINE
  5
7F8
330
7E0
100
AcDbEntity
  8
0
  6
Continuous
 62
     7
370
    15
100
AcDbLine
 10
1155.542392738265
 20
1274.378344377315
 30
0.0
 11
1148.042392738273
 21
1274.378344377315
 31
0.0
  0
LINE
  5
7F9
330
7E0
100
AcDbEntity
  8
0
  6
Continuous
 62
     7
370
    15
100
AcDbLine
 10
1148.042392738273
 20
1274.378344377315
 30
0.0
 11
1148.042392738273
 21
1272.165324481734
 31
0.0
  0
LINE
  5
7FA
330
7E0
100
AcDbEntity
  8
0
  6
Continuous
 62
     7
370
    15
100
AcDbLine
 10
1155.542392738265
 20
1272.859917192403
 30
0.0
 11
1155.542392738265
 21
1274.378344377315
 31
0.0
  0
LINE
  5
7FB
330
7E0
100
AcDbEntity
  8
0
  6
Continuous
 62
     7
370
    15
100
AcDbLine
 10
1148.042392738273
 20
1272.165324481734
 30
0.0
 11
1148.042392738273
 21
1264.571346410187
 31
0.0
  0
LINE
  5
7FC
330
7E0
100
AcDbEntity
  8
0
  6
Continuous
 62
     7
370
    15
100
AcDbLine
 10
1148.042392738273
 20
1277.182589823946
 30
0.0
 11
1155.542392738265
 21
1277.182589823946
 31
0.0
  0
LINE
  5
7FD
330
7E0
100
AcDbEntity
  8
0
  6
Continuous
 62
     7
370
    15
100
AcDbLine
 10
1155.542392738265
 20
1277.650907421095
 30
0.0
 11
1148.042392738273
 21
1277.650907421095
 31
0.0
  0
LINE
  5
7FE
330
7E0
100
AcDbEntity
  8
0
  6
Continuous
 62
     7
370
    15
100
AcDbLine
 10
1148.042392738273
 20
1277.650907421095
 30
0.0
 11
1148.042392738273
 21
1277.182589823946
 31
0.0
  0
LINE
  5
7FF
330
7E0
100
AcDbEntity
  8
0
  6
Continuous
 62
     7
370
    15
100
AcDbLine
 10
1155.542392738265
 20
1277.182589823946
 30
0.0
 11
1155.542392738265
 21
1277.650907421095
 31
0.0
  0
LINE
  5
800
330
7E0
100
AcDbEntity
  8
0
  6
Continuous
 62
     7
370
    15
100
AcDbLine
 10
1155.542392738265
 20
1287.21697686071
 30
0.0
 11
1148.042392738273
 21
1287.21697686071
 31
0.0
  0
LINE
  5
801
330
7E0
100
AcDbEntity
  8
0
  6
Continuous
 62
     7
370
    15
100
AcDbLine
 10
1148.042392738273
 20
1286.156316688931
 30
0.0
 11
1155.542392738265
 21
1286.156316688931
 31
0.0
  0
LINE
  5
802
330
7E0
100
AcDbEntity
  8
0
  6
Continuous
 62
     7
370
    15
100
AcDbLine
 10
1148.042392738273
 20
1287.21697686071
 30
0.0
 11
1148.042392738273
 21
1286.156316688931
 31
0.0
  0
LINE
  5
803
330
7E0
100
AcDbEntity
  8
0
  6
Continuous
 62
     7
370
    15
100
AcDbLine
 10
1155.542392738265
 20
1286.156316688931
 30
0.0
 11
1155.542392738265
 21
1287.21697686071
 31
0.0
  0
LINE
  5
804
330
7E0
100
AcDbEntity
  8
0
  6
Continuous
 62
     7
370
    15
100
AcDbLine
 10
1148.042392738273
 20
1277.650907421095
 30
0.0
 11
1148.042392738273
 21
1286.156316688931
 31
0.0
  0
LINE
  5
805
330
7E0
100
AcDbEntity
  8
0
  6
Continuous
 62
     7
370
    15
100
AcDbLine
 10
1155.542392738265
 20
1277.650907421095
 30
0.0
 11
1155.542392738265
 21
1286.156316688931
 31
0.0
  0
LINE
  5
806
330
7E0
100
AcDbEntity
  8
0
  6
Continuous
 62
     7
370
    15
100
AcDbLine
 10
1148.042392738273
 20
1274.378344377315
 30
0.0
 11
1148.042392738273
 21
1277.182589823946
 31
0.0
  0
LINE
  5
807
330
7E0
100
AcDbEntity
  8
0
  6
Continuous
 62
     7
370
    15
100
AcDbLine
 10
1155.542392738265
 20
1274.378344377315
 30
0.0
 11
1155.542392738265
 21
1277.182589823946
 31
0.0
  0
LINE
  5
808
330
7E0
100
AcDbEntity
  8
0
  6
Continuous
 62
     7
370
    15
100
AcDbLine
 10
1148.042392738273
 20
1290.338297204266
 30
0.0
 11
1155.542392738265
 21
1290.338297204266
 31
0.0
  0
LINE
  5
809
330
7E0
100
AcDbEntity
  8
0
  6
Continuous
 62
     7
370
    15
100
AcDbLine
 10
1148.042392738273
 20
1287.21697686071
 30
0.0
 11
1148.042392738273
 21
1290.338297204266
 31
0.0
  0
LINE
  5
80A
330
7E0
100
AcDbEntity
  8
0
  6
Continuous
 62
     7
370
    15
100
AcDbLine
 10
1155.542392738265
 20
1287.21697686071
 30
0.0
 11
1155.542392738265
 21
1290.338297204266
 31
0.0
  0
LINE
  5
80B
330
7E0
100
AcDbEntity
  8
0
  6
Continuous
 62
     7
370
    15
100
AcDbLine
 10
1155.542392738265
 20
1290.777637032486
 30
0.0
 11
1148.042392738273
 21
1290.777637045604
 31
0.0
  0
LINE
  5
80C
330
7E0
100
AcDbEntity
  8
0
  6
Continuous
 62
     7
370
    15
100
AcDbLine
 10
1148.042392738273
 20
1290.777637045604
 30
0.0
 11
1148.042392738273
 21
1290.338297204266
 31
0.0
  0
LINE
  5
80D
330
7E0
100
AcDbEntity
  8
0
  6
Continuous
 62
     7
370
    15
100
AcDbLine
 10
1155.542392738265
 20
1290.338297204266
 30
0.0
 11
1155.542392738265
 21
1290.777637032486
 31
0.0
  0
ENDBLK
  5
7E2
330
7E0
100
AcDbEntity
  8
0
100
AcDbBlockEnd
  0
BLOCK
  5
810
330
80F
100
AcDbEntity
  8
0
100
AcDbBlockBegin
  2
4
 70
     0
 10
0.0
 20
0.0
 30
0.0
  3
4
  1

  0
LINE
  5
812
330
80F
100
AcDbEntity
  8
0
  6
Continuous
 62
     7
370
    15
100
AcDbLine
 10
1261.394898888142
 20
1268.115928125803
 30
0.0
 11
1266.698199747036
 21
1271.177458545135
 31
0.0
  0
LINE
  5
813
330
80F
100
AcDbEntity
  8
0
  6
Continuous
 62
     7
370
    15
100
AcDbLine
 10
1249.398292008437
 20
1286.016991382872
 30
0.0
 11
1248.889234033197
 21
1285.723118469026
 31
0.0
  0
LINE
  5
814
330
80F
100
AcDbEntity
  8
0
  6
Continuous
 62
     7
370
    15
100
AcDbLine
 10
1247.917739740458
 20
1285.563054313988
 30
0.0
 11
1252.513933818166
 21
1288.21638067741
 31
0.0
  0
LINE
  5
815
330
80F
100
AcDbEntity
  8
0
  6
Continuous
 62
     7
370
    15
100
AcDbLine
 10
1251.25092600923
 20
1289.666395438374
 30
0.0
 11
1246.654731931522
 21
1287.013069074953
 31
0.0
  0
LINE
  5
816
330
80F
100
AcDbEntity
  8
0
  6
Continuous
 62
     7
370
    15
100
AcDbLine
 10
1245.683237638784
 20
1286.853004919916
 30
0.0
 11
1250.279431716492
 21
1289.506331283337
 31
0.0
  0
LINE
  5
817
330
80F
100
AcDbEntity
  8
0
  6
Continuous
 62
     7
370
    15
100
AcDbLine
 10
1266.561694887236
 20
1259.568633352809
 30
0.0
 11
1262.319054200121
 21
1257.119409017343
 31
0.0
  0
LINE
  5
818
330
80F
100
AcDbEntity
  8
0
  6
Continuous
 62
     7
370
    15
100
AcDbLine
 10
1263.333286003535
 20
1253.747033840094
 30
0.0
 11
1268.636586862429
 21
1256.808564259426
 31
0.0
  0
LINE
  5
819
330
80F
100
AcDbEntity
  8
0
  6
Continuous
 62
     7
370
    15
100
AcDbLine
 10
1252.43407839883
 20
1272.86455300422
 30
0.0
 11
1250.916085064493
 21
1271.98823410528
 31
0.0
  0
LINE
  5
81A
330
80F
100
AcDbEntity
  8
0
  6
Continuous
 62
     7
370
    15
100
AcDbLine
 10
1259.651346121882
 20
1259.885986715011
 30
0.0
 11
1258.22626854471
 21
1259.063306940941
 31
0.0
  0
LINE
  5
81B
330
80F
100
AcDbEntity
  8
0
  6
Continuous
 62
     7
370
    15
100
AcDbLine
 10
1236.97013569431
 20
1268.846600291887
 30
0.0
 11
1240.131988139209
 21
1270.671898855755
 31
0.0
  0
ARC
  5
81C
330
80F
100
AcDbEntity
  8
0
  6
Continuous
 62
     7
370
    15
100
AcDbCircle
 10
1257.085446057306
 20
1279.11377361129
 30
0.0
 40
2.163936768823698
100
AcDbArc
 50
28.85560754814443
 51
58.04532890749188
  0
LINE
  5
81D
330
80F
100
AcDbEntity
  8
0
  6
Continuous
 62
     7
370
    15
100
AcDbLine
 10
1261.187812423797
 20
1276.335276935619
 30
0.0
 11
1258.980705642613
 21
1280.158098007141
 31
0.0
  0
ARC
  5
81E
330
80F
100
AcDbEntity
  8
0
  6
Continuous
 62
     7
370
    15
100
AcDbCircle
 10
1259.335524870459
 20
1275.215976678966
 30
0.0
 40
2.164209380996855
100
AcDbArc
 50
1.956498643037532
 51
31.14372779936289
  0
LINE
  5
81F
330
80F
100
AcDbEntity
  8
0
  6
Continuous
 62
     7
370
    15
100
AcDbLine
 10
1261.498472595577
 20
1268.344850529037
 30
0.0
 11
1261.498472595577
 21
1275.289864318017
 31
0.0
  0
LWPOLYLINE
  5
820
330
80F
100
AcDbEntity
  8
0
  6
Continuous
 62
     7
370
    15
100
AcDbPolyline
 90
        9
 70
   128
 43
0.0
 10
1261.498472595577
 20
1268.344850529037
 10
1261.494416934219
 20
1268.285529871885
 10
1261.482342996286
 20
1268.232252733099
 10
1261.462527785505
 20
1268.18624141199
 10
1261.435425908093
 20
1268.148551513409
 10
1261.401659143049
 20
1268.120047729759
 10
1261.362002177129
 20
1268.101384002972
 10
1261.317364831753
 20
1268.092988521591
 10
1261.268771189628
 20
1268.095053897144
  0
LWPOLYLINE
  5
821
330
80F
100
AcDbEntity
  8
0
  6
Continuous
 62
     7
370
    15
100
AcDbPolyline
 90
       16
 70
   128
 43
0.0
 10
1261.258240723272
 20
1265.811352152255
 10
1261.104557347871
 20
1265.985585162394
 10
1260.964733695559
 20
1266.179162158333
 10
1260.842386836797
 20
1266.387075534976
 10
1260.740681738324
 20
1266.603946822221
 10
1260.662249389257
 20
1266.824165819548
 10
1260.609118740553
 20
1267.042035725185
 10
1260.582664218474
 20
1267.251920505547
 10
1260.583570169832
 20
1267.448390692681
 10
1260.611813158748
 20
1267.626363838098
 10
1260.666662572918
 20
1267.781235989628
 10
1260.746699523673
 20
1267.909000790156
 10
1260.849853550933
 20
1268.006353117274
 10
1260.973456183528
 20
1268.07077458285
 10
1261.114309969354
 20
1268.100598680707
 10
1261.268771189628
 20
1268.095053897144
  0
ARC
  5
822
330
80F
100
AcDbEntity
  8
0
  6
Continuous
 62
     7
370
    15
100
AcDbCircle
 10
1259.223096283454
 20
1263.708666379115
 30
0.0
 40
2.926277558859932
100
AcDbArc
 50
355.8014402229957
 51
45.93514946467689
  0
LINE
  5
823
330
80F
100
AcDbEntity
  8
0
  6
Continuous
 62
     7
370
    15
100
AcDbLine
 10
1262.141520643525
 20
1263.494424445704
 30
0.0
 11
1261.050024759923
 21
1256.976339341555
 31
0.0
  0
ARC
  5
824
330
80F
100
AcDbEntity
  8
0
  6
Continuous
 62
     7
370
    15
100
AcDbCircle
 10
1261.768518823536
 20
1256.883854567078
 30
0.0
 40
0.7244219440053116
100
AcDbArc
 50
172.6652022615525
 51
238.6410499849426
  0
LINE
  5
825
330
80F
100
AcDbEntity
  8
0
  6
Continuous
 62
     7
370
    15
100
AcDbLine
 10
1262.018022918133
 20
1255.903587366774
 30
0.0
 11
1261.39153111779
 21
1256.265253384834
 31
0.0
  0
LWPOLYLINE
  5
826
330
80F
100
AcDbEntity
  8
0
  6
Continuous
 62
     7
370
    15
100
AcDbPolyline
 90
        9
 70
   128
 43
0.0
 10
1262.366205116898
 20
1256.181751321323
 10
1262.371239778862
 20
1256.090141019567
 10
1262.359529167515
 20
1256.009041845779
 10
1262.331628458459
 20
1255.942298542258
 10
1262.288860365986
 20
1255.893075269502
 10
1262.233252435959
 20
1255.863705599975
 10
1262.167440924094
 20
1255.855581888315
 10
1262.094545816598
 20
1255.869089262709
 10
1262.018022918133
 20
1255.903587366774
  0
LINE
  5
827
330
80F
100
AcDbEntity
  8
0
  6
Continuous
 62
     7
370
    15
100
AcDbLine
 10
1262.260132686755
 20
1256.937658231775
 30
0.0
 11
1262.366205116898
 21
1256.181751321323
 31
0.0
  0
LWPOLYLINE
  5
828
330
80F
100
AcDbEntity
  8
0
  6
Continuous
 62
     7
370
    15
100
AcDbPolyline
 90
        9
 70
   128
 43
0.0
 10
1262.260132686755
 20
1256.937658231775
 10
1262.25711188912
 20
1256.992624401032
 10
1262.264138250974
 20
1257.041283896905
 10
1262.280878667338
 20
1257.081329875451
 10
1262.306539510424
 20
1257.110863841395
 10
1262.339904253851
 20
1257.128485651779
 10
1262.379391145591
 20
1257.133359893787
 10
1262.423128195493
 20
1257.125255489897
 10
1262.469041922384
 20
1257.104556652784
  0
LINE
  5
829
330
80F
100
AcDbEntity
  8
0
  6
Continuous
 62
     7
370
    15
100
AcDbLine
 10
1263.268986292775
 20
1256.64275936061
 30
0.0
 11
1262.469041922384
 21
1257.104556652784
 31
0.0
  0
ARC
  5
82A
330
80F
100
AcDbEntity
  8
0
  6
Continuous
 62
     7
370
    15
100
AcDbCircle
 10
1263.013517375078
 20
1256.248311453076
 30
0.0
 40
0.4699505502360204
100
AcDbArc
 50
10.15771971347102
 51
57.07040387551484
  0
LINE
  5
82B
330
80F
100
AcDbEntity
  8
0
  6
Continuous
 62
     7
370
    15
100
AcDbLine
 10
1263.490266236758
 20
1256.249146190088
 30
0.0
 11
1263.476101927988
 21
1256.331191191708
 31
0.0
  0
ARC
  5
82C
330
80F
100
AcDbEntity
  8
0
  6
Continuous
 62
     7
370
    15
100
AcDbCircle
 10
1260.246936980477
 20
1255.67631267845
 30
0.0
 40
3.293527424617166
100
AcDbArc
 50
0.2485392174596717
 51
10.01622514819973
  0
LINE
  5
82D
330
80F
100
AcDbEntity
  8
0
  6
Continuous
 62
     7
370
    15
100
AcDbLine
 10
1263.540433418404
 20
1254.204878646563
 30
0.0
 11
1263.540433418404
 21
1255.690599388023
 31
0.0
  0
ARC
  5
82E
330
80F
100
AcDbEntity
  8
0
  6
Continuous
 62
     7
370
    15
100
AcDbCircle
 10
1263.109359052289
 20
1254.1349514488
 30
0.0
 40
0.4367091962719091
100
AcDbArc
 50
230.796715625714
 51
9.214037129600715
  0
LINE
  5
82F
330
80F
100
AcDbEntity
  8
0
  6
Continuous
 62
     7
370
    15
100
AcDbLine
 10
1260.697434916402
 20
1255.029565885623
 30
0.0
 11
1262.833326644347
 21
1253.796541886473
 31
0.0
  0
ARC
  5
830
330
80F
100
AcDbEntity
  8
0
  6
Continuous
 62
     7
370
    15
100
AcDbCircle
 10
1263.128022936517
 20
1258.85330373835
 30
0.0
 40
4.530864077624513
100
AcDbArc
 50
203.0778905692732
 51
237.5576099347095
  0
LINE
  5
831
330
80F
100
AcDbEntity
  8
0
  6
Continuous
 62
     7
370
    15
100
AcDbLine
 10
1258.202487974185
 20
1258.763302047145
 30
0.0
 11
1258.959751112203
 21
1257.07728592072
 31
0.0
  0
LWPOLYLINE
  5
832
330
80F
100
AcDbEntity
  8
0
  6
Continuous
 62
     7
370
    15
100
AcDbPolyline
 90
        9
 70
   128
 43
0.0
 10
1258.202487974185
 20
1258.763302047145
 10
1258.177720730289
 20
1258.831816484576
 10
1258.165385161977
 20
1258.898557349653
 10
1258.166253683691
 20
1258.959345539578
 10
1258.180271911335
 20
1259.010374689327
 10
1258.206562067639
 20
1259.048449514239
 10
1258.243477945808
 20
1259.07118588868
 10
1258.288707989801
 20
1259.077160132482
 10
1258.339420036698
 20
1259.065998157312
  0
LINE
  5
833
330
80F
100
AcDbEntity
  8
0
  6
Continuous
 62
     7
370
    15
100
AcDbLine
 10
1259.534482310916
 20
1258.619436900209
 30
0.0
 11
1258.339420036698
 21
1259.065998157312
 31
0.0
  0
LWPOLYLINE
  5
834
330
80F
100
AcDbEntity
  8
0
  6
Continuous
 62
     7
370
    15
100
AcDbPolyline
 90
        9
 70
   128
 43
0.0
 10
1259.534482310916
 20
1258.619436900209
 10
1259.558293703298
 20
1258.613058542227
 10
1259.580635429994
 20
1258.612191392847
 10
1259.600828648947
 20
1258.616861799965
 10
1259.618259799421
 20
1258.626927855624
 10
1259.632399244732
 20
1258.642083707819
 10
1259.642817364991
 20
1258.661868853653
 10
1259.649197610888
 20
1258.685682131484
 10
1259.651346121882
 20
1258.712799986919
  0
LINE
  5
835
330
80F
100
AcDbEntity
  8
0
  6
Continuous
 62
     7
370
    15
100
AcDbLine
 10
1259.651346121882
 20
1260.417244452177
 30
0.0
 11
1259.651346121882
 21
1258.712799986919
 31
0.0
  0
ARC
  5
836
330
80F
100
AcDbEntity
  8
0
  6
Continuous
 62
     7
370
    15
100
AcDbCircle
 10
1257.351446790317
 20
1260.311226306574
 30
0.0
 40
2.302341586847207
100
AcDbArc
 50
2.639287361215705
 51
39.77207237906677
  0
LINE
  5
837
330
80F
100
AcDbEntity
  8
0
  6
Continuous
 62
     7
370
    15
100
AcDbLine
 10
1257.843599322394
 20
1263.373209371133
 30
0.0
 11
1259.121016035992
 21
1261.784115123589
 31
0.0
  0
LINE
  5
838
330
80F
100
AcDbEntity
  8
0
  6
Continuous
 62
     7
370
    15
100
AcDbLine
 10
1251.135250539293
 20
1267.923592310969
 30
0.0
 11
1257.843599322394
 21
1263.373209371133
 31
0.0
  0
ARC
  5
839
330
80F
100
AcDbEntity
  8
0
  6
Continuous
 62
     7
370
    15
100
AcDbCircle
 10
1251.58848824717
 20
1268.554589293868
 30
0.0
 40
0.7769051501111619
100
AcDbArc
 50
182.8011199041358
 51
234.3107575399149
  0
LINE
  5
83A
330
80F
100
AcDbEntity
  8
0
  6
Continuous
 62
     7
370
    15
100
AcDbLine
 10
1250.812511357058
 20
1271.759311702046
 30
0.0
 11
1250.812511357058
 21
1268.516622488869
 31
0.0
  0
ARC
  5
83B
330
80F
100
AcDbEntity
  8
0
  6
Continuous
 62
     7
370
    15
100
AcDbCircle
 10
1251.028048540772
 20
1271.794275300496
 30
0.0
 40
0.2183545987140091
100
AcDbArc
 50
50.79671476428251
 51
189.2140369904564
  0
LINE
  5
83C
330
80F
100
AcDbEntity
  8
0
  6
Continuous
 62
     7
370
    15
100
AcDbLine
 10
1258.104827291465
 20
1267.957817726409
 30
0.0
 11
1251.166064747651
 21
1271.963480080032
 31
0.0
  0
LWPOLYLINE
  5
83D
330
80F
100
AcDbEntity
  8
0
  6
Continuous
 62
     7
370
    15
100
AcDbPolyline
 90
       17
 70
   128
 43
0.0
 10
1258.104827291465
 20
1269.590899350179
 10
1258.242776981106
 20
1269.495573086724
 10
1258.375425341538
 20
1269.372530952634
 10
1258.497674770658
 20
1269.22650138812
 10
1258.604827291464
 20
1269.063096227451
 10
1258.692765092674
 20
1268.888595039314
 10
1258.758108773903
 20
1268.709703806508
 10
1258.798347214125
 20
1268.533297218786
 10
1258.811934072651
 20
1268.366154482383
 10
1258.798347214125
 20
1268.214698798926
 10
1258.758108773903
 20
1268.084750525392
 10
1258.692765092674
 20
1267.981303501057
 10
1258.604827291464
 20
1267.908333137052
 10
1258.497674770658
 20
1267.868643643545
 10
1258.375425341538
 20
1267.863760265512
 10
1258.242776981106
 20
1267.893870668433
 10
1258.104827291465
 20
1267.957817726409
  0
LINE
  5
83E
330
80F
100
AcDbEntity
  8
0
  6
Continuous
 62
     7
370
    15
100
AcDbLine
 10
1251.166064747651
 20
1273.596561703802
 30
0.0
 11
1258.104827291465
 21
1269.590899350179
 31
0.0
  0
ARC
  5
83F
330
80F
100
AcDbEntity
  8
0
  6
Continuous
 62
     7
370
    15
100
AcDbCircle
 10
1250.479563824009
 20
1272.744338215815
 30
0.0
 40
1.094334679904003
100
AcDbArc
 50
51.14713294434441
 51
188.863618810406
  0
LINE
  5
840
330
80F
100
AcDbEntity
  8
0
  6
Continuous
 62
     7
370
    15
100
AcDbLine
 10
1249.398297794687
 20
1269.333030600691
 30
0.0
 11
1249.398297794687
 21
1272.575719813867
 31
0.0
  0
ARC
  5
841
330
80F
100
AcDbEntity
  8
0
  6
Continuous
 62
     7
370
    15
100
AcDbCircle
 10
1253.278182245246
 20
1269.522864625685
 30
0.0
 40
3.884525750556028
100
AcDbArc
 50
182.8011199041358
 51
234.3107575399149
  0
LINE
  5
842
330
80F
100
AcDbEntity
  8
0
  6
Continuous
 62
     7
370
    15
100
AcDbLine
 10
1258.621500158461
 20
1261.206226752757
 30
0.0
 11
1251.011993705861
 21
1266.367879711189
 31
0.0
  0
ARC
  5
843
330
80F
100
AcDbEntity
  8
0
  6
Continuous
 62
     7
370
    15
100
AcDbCircle
 10
1258.168262450584
 20
1260.575229769858
 30
0.0
 40
0.7769051501111984
100
AcDbArc
 50
2.801119904148822
 51
54.31075753991493
  0
LINE
  5
844
330
80F
100
AcDbEntity
  8
0
  6
Continuous
 62
     7
370
    15
100
AcDbLine
 10
1258.944239340695
 20
1260.613196574857
 30
0.0
 11
1258.944239340695
 21
1259.81181740047
 31
0.0
  0
LINE
  5
845
330
80F
100
AcDbEntity
  8
0
  6
Continuous
 62
     7
370
    15
100
AcDbLine
 10
1235.397583487621
 20
1273.405012485157
 30
0.0
 11
1258.944239340695
 21
1259.81181740047
 31
0.0
  0
ARC
  5
846
330
80F
100
AcDbEntity
  8
0
  6
Continuous
 62
     7
370
    15
100
AcDbCircle
 10
1235.342377004869
 20
1273.337330573342
 30
0.0
 40
0.0873418394856081
100
AcDbArc
 50
50.79671476428251
 51
189.2140369904692
  0
LINE
  5
847
330
80F
100
AcDbEntity
  8
0
  6
Continuous
 62
     7
370
    15
100
AcDbLine
 10
1235.256162131384
 20
1272.795839957531
 30
0.0
 11
1235.256162131384
 21
1273.323345133962
 31
0.0
  0
ARC
  5
848
330
80F
100
AcDbEntity
  8
0
  6
Continuous
 62
     7
370
    15
100
AcDbCircle
 10
1235.568568210623
 20
1272.811705467715
 30
0.0
 40
0.3128086839570552
100
AcDbArc
 50
182.9072625303694
 51
231.309167709661
  0
LINE
  5
849
330
80F
100
AcDbEntity
  8
0
  6
Continuous
 62
     7
370
    15
100
AcDbLine
 10
1236.781549874329
 20
1271.467627543864
 30
0.0
 11
1235.37302594235
 21
1272.567548767874
 31
0.0
  0
ARC
  5
84A
330
80F
100
AcDbEntity
  8
0
  6
Continuous
 62
     7
370
    15
100
AcDbCircle
 10
1236.292694203646
 20
1270.85723579426
 30
0.0
 40
0.7820217098929865
100
AcDbArc
 50
2.907262530382396
 51
51.30916770966105
  0
LINE
  5
84B
330
80F
100
AcDbEntity
  8
0
  6
Continuous
 62
     7
370
    15
100
AcDbLine
 10
1237.073709401744
 20
1269.075522695121
 30
0.0
 11
1237.073709401744
 21
1270.896899569719
 31
0.0
  0
ARC
  5
84C
330
80F
100
AcDbEntity
  8
0
  6
Continuous
 62
     7
370
    15
100
AcDbCircle
 10
1236.858172218031
 20
1269.040559096671
 30
0.0
 40
0.2183545987140246
100
AcDbArc
 50
230.7967147643008
 51
9.214036990469226
  0
LINE
  5
84D
330
80F
100
AcDbEntity
  8
0
  6
Continuous
 62
     7
370
    15
100
AcDbLine
 10
1234.195501959606
 20
1270.328806078358
 30
0.0
 11
1236.720156011151
 21
1268.871354317134
 31
0.0
  0
ARC
  5
84E
330
80F
100
AcDbEntity
  8
0
  6
Continuous
 62
     7
370
    15
100
AcDbCircle
 10
1235.421231216692
 20
1272.261226066561
 30
0.0
 40
2.288374799390141
100
AcDbArc
 50
182.3868561233861
 51
237.6131440222414
  0
LINE
  5
84F
330
80F
100
AcDbEntity
  8
0
  6
Continuous
 62
     7
370
    15
100
AcDbLine
 10
1233.134841787827
 20
1283.498431734613
 30
0.0
 11
1233.134841787827
 21
1272.165923380052
 31
0.0
  0
ARC
  5
850
330
80F
100
AcDbEntity
  8
0
  6
Continuous
 62
     7
370
    15
100
AcDbCircle
 10
1233.885831147876
 20
1283.572336574505
 30
0.0
 40
0.7546170845316946
100
AcDbArc
 50
125.6980385287779
 51
185.6203789636615
  0
LINE
  5
851
330
80F
100
AcDbEntity
  8
0
  6
Continuous
 62
     7
370
    15
100
AcDbLine
 10
1234.650332335823
 20
1284.88092362992
 30
0.0
 11
1233.445501959607
 21
1284.18516375261
 31
0.0
  0
LINE
  5
852
330
80F
100
AcDbEntity
  8
0
  6
Continuous
 62
     7
370
    15
100
AcDbLine
 10
1234.650332335823
 20
1284.88092362992
 30
0.0
 11
1234.900333127719
 21
1284.447909557695
 31
0.0
  0
LWPOLYLINE
  5
853
330
80F
100
AcDbEntity
  8
0
  6
Continuous
 62
     7
370
    15
100
AcDbPolyline
 90
        9
 70
   128
 43
0.0
 10
1235.100333127719
 20
1284.332452015278
 10
1235.078902623557
 20
1284.324514116576
 10
1235.054452737733
 20
1284.32353744097
 10
1235.027923065647
 20
1284.329559521554
 10
1235.000333127719
 20
1284.342348933149
 10
1234.972743189791
 20
1284.36141418584
 10
1234.946213517704
 20
1284.386022612658
 10
1234.92176363188
 20
1284.415228525561
 10
1234.900333127719
 20
1284.447909557695
  0
LINE
  5
854
330
80F
100
AcDbEntity
  8
0
  6
Continuous
 62
     7
370
    15
100
AcDbLine
 10
1235.28958654238
 20
1284.441741202507
 30
0.0
 11
1235.100333127719
 21
1284.332452015278
 31
0.0
  0
LWPOLYLINE
  5
855
330
80F
100
AcDbEntity
  8
0
  6
Continuous
 62
     7
370
    15
100
AcDbPolyline
 90
        9
 70
   128
 43
0.0
 10
1235.28958654238
 20
1284.441741202507
 10
1235.310376877701
 20
1284.449551794839
 10
1235.334044941375
 20
1284.450785993552
 10
1235.359730860328
 20
1284.445398959564
 10
1235.386501451752
 20
1284.433586406625
 10
1235.413384126125
 20
1284.415777490932
 10
1235.439402221891
 20
1284.392619219664
 10
1235.463610488088
 20
1284.36495294487
 10
1235.485129425802
 20
1284.333783796719
  0
LINE
  5
856
330
80F
100
AcDbEntity
  8
0
  6
Continuous
 62
     7
370
    15
100
AcDbLine
 10
1235.798227708674
 20
1283.821732491831
 30
0.0
 11
1235.485129425802
 21
1284.333783796719
 31
0.0
  0
LWPOLYLINE
  5
857
330
80F
100
AcDbEntity
  8
0
  6
Continuous
 62
     7
370
    15
100
AcDbPolyline
 90
        9
 70
   128
 43
0.0
 10
1235.798227708674
 20
1283.821732491831
 10
1235.816790460931
 20
1283.787088664387
 10
1235.830937706223
 20
1283.751260570287
 10
1235.840121993413
 20
1283.715634637099
 10
1235.843987921263
 20
1283.681589469439
 10
1235.842385891279
 20
1283.650442501579
 10
1235.835377896669
 20
1283.623399017136
 10
1235.823235123418
 20
1283.601505508629
 10
1235.80642745629
 20
1283.585609181708
  0
LWPOLYLINE
  5
858
330
80F
100
AcDbEntity
  8
0
  6
Continuous
 62
     7
370
    15
100
AcDbPolyline
 90
        9
 70
   128
 43
0.0
 10
1235.810170087328
 20
1283.356986008216
 10
1235.792958676683
 20
1283.391022372848
 10
1235.780036081153
 20
1283.425926339341
 10
1235.771875143976
 20
1283.460420756791
 10
1235.768774477297
 20
1283.493243459867
 10
1235.770847535822
 20
1283.523193451975
 10
1235.778018465462
 20
1283.549174850228
 10
1235.790024878867
 20
1283.570236984271
 10
1235.80642745629
 20
1283.585609181708
  0
LINE
  5
859
330
80F
100
AcDbEntity
  8
0
  6
Continuous
 62
     7
370
    15
100
AcDbLine
 10
1236.010315716602
 20
1283.010323610418
 30
0.0
 11
1235.810170087328
 21
1283.356986008216
 31
0.0
  0
LWPOLYLINE
  5
85A
330
80F
100
AcDbEntity
  8
0
  6
Continuous
 62
     7
370
    15
100
AcDbPolyline
 90
        9
 70
   128
 43
0.0
 10
1236.210315716602
 20
1282.894866068001
 10
1236.188885212441
 20
1282.886928169299
 10
1236.164435326617
 20
1282.885951493692
 10
1236.137905654531
 20
1282.891973574277
 10
1236.110315716602
 20
1282.904762985872
 10
1236.082725778674
 20
1282.923828238563
 10
1236.056196106588
 20
1282.948436665381
 10
1236.031746220764
 20
1282.977642578284
 10
1236.010315716602
 20
1283.010323610418
  0
LINE
  5
85B
330
80F
100
AcDbEntity
  8
0
  6
Continuous
 62
     7
370
    15
100
AcDbLine
 10
1237.010315716602
 20
1283.356846370652
 30
0.0
 11
1236.210315716602
 21
1282.894866068001
 31
0.0
  0
LWPOLYLINE
  5
85C
330
80F
100
AcDbEntity
  8
0
  6
Continuous
 62
     7
370
    15
100
AcDbPolyline
 90
        9
 70
   128
 43
0.0
 10
1237.010315716602
 20
1283.587798988731
 10
1237.027903276844
 20
1283.552898751104
 10
1237.040972013089
 20
1283.517120504543
 10
1237.049019701134
 20
1283.481839186998
 10
1237.051737072839
 20
1283.448410639718
 10
1237.049019701134
 20
1283.418119503026
 10
1237.040972013089
 20
1283.392129848319
 10
1237.027903276844
 20
1283.371440443453
 10
1237.010315716602
 20
1283.356846370652
  0
LINE
  5
85D
330
80F
100
AcDbEntity
  8
0
  6
Continuous
 62
     7
370
    15
100
AcDbLine
 10
1236.810170087327
 20
1283.93446138653
 30
0.0
 11
1237.010315716602
 21
1283.587798988731
 31
0.0
  0
LWPOLYLINE
  5
85E
330
80F
100
AcDbEntity
  8
0
  6
Continuous
 62
     7
370
    15
100
AcDbPolyline
 90
        9
 70
   128
 43
0.0
 10
1236.61405834764
 20
1284.051996136231
 10
1236.63557029588
 20
1284.058518643846
 10
1236.659811882055
 20
1284.058388837073
 10
1236.685896096272
 20
1284.051611465599
 10
1236.712868506093
 20
1284.038434516312
 10
1236.73974217963
 20
1284.019340139365
 10
1236.765533797794
 20
1283.995027006088
 10
1236.789299634366
 20
1283.966384744317
 10
1236.810170087327
 20
1283.93446138653
  0
LWPOLYLINE
  5
85F
330
80F
100
AcDbEntity
  8
0
  6
Continuous
 62
     7
370
    15
100
AcDbPolyline
 90
        9
 70
   128
 43
0.0
 10
1236.61405834764
 20
1284.051996136231
 10
1236.591890002604
 20
1284.045384775783
 10
1236.566860295181
 20
1284.04581209195
 10
1236.539937791444
 20
1284.053261549023
 10
1236.512164302362
 20
1284.067444877897
 10
1236.484614569191
 20
1284.087813231119
 10
1236.458354674585
 20
1284.113578421454
 10
1236.434400788751
 20
1284.143743422096
 10
1236.413679847061
 20
1284.17714094828
  0
LINE
  5
860
330
80F
100
AcDbEntity
  8
0
  6
Continuous
 62
     7
370
    15
100
AcDbLine
 10
1236.126778129933
 20
1284.704320124882
 30
0.0
 11
1236.413679847061
 21
1284.17714094828
 31
0.0
  0
LWPOLYLINE
  5
861
330
80F
100
AcDbEntity
  8
0
  6
Continuous
 62
     7
370
    15
100
AcDbPolyline
 90
        9
 70
   128
 43
0.0
 10
1236.126778129933
 20
1284.704320124882
 10
1236.110544038293
 20
1284.738541141519
 10
1236.098687805356
 20
1284.773340411392
 10
1236.091640174237
 20
1284.80745365891
 10
1236.089657189044
 20
1284.839641532031
 10
1236.092810892661
 20
1284.86873462857
 10
1236.100986709394
 20
1284.893675981184
 10
1236.113887607565
 20
1284.913559457547
 10
1236.131044890828
 20
1284.927662680612
  0
LINE
  5
862
330
80F
100
AcDbEntity
  8
0
  6
Continuous
 62
     7
370
    15
100
AcDbLine
 10
1236.86961813105
 20
1285.354170541922
 30
0.0
 11
1236.131044890828
 21
1284.927662680612
 31
0.0
  0
LWPOLYLINE
  5
863
330
80F
100
AcDbEntity
  8
0
  6
Continuous
 62
     7
370
    15
100
AcDbPolyline
 90
        9
 70
   128
 43
0.0
 10
1236.86961813105
 20
1285.354170541922
 10
1236.890408466371
 20
1285.361981134255
 10
1236.914076530045
 20
1285.363215332968
 10
1236.939762448998
 20
1285.35782829898
 10
1236.966533040422
 20
1285.346015746041
 10
1236.993415714795
 20
1285.328206830348
 10
1237.019433810562
 20
1285.305048559079
 10
1237.043642076758
 20
1285.277382284286
 10
1237.065161014471
 20
1285.246213136134
  0
LINE
  5
864
330
80F
100
AcDbEntity
  8
0
  6
Continuous
 62
     7
370
    15
100
AcDbLine
 10
1237.378259297344
 20
1284.734161831246
 30
0.0
 11
1237.065161014471
 21
1285.246213136134
 31
0.0
  0
LWPOLYLINE
  5
865
330
80F
100
AcDbEntity
  8
0
  6
Continuous
 62
     7
370
    15
100
AcDbPolyline
 90
        9
 70
   128
 43
0.0
 10
1237.378259297344
 20
1284.734161831246
 10
1237.3968220496
 20
1284.699518003803
 10
1237.410969294892
 20
1284.663689909703
 10
1237.420153582082
 20
1284.628063976516
 10
1237.424019509932
 20
1284.594018808856
 10
1237.422417479948
 20
1284.562871840997
 10
1237.415409485338
 20
1284.535828356555
 10
1237.403266712087
 20
1284.513934848048
 10
1237.38645904496
 20
1284.498038521126
  0
LWPOLYLINE
  5
866
330
80F
100
AcDbEntity
  8
0
  6
Continuous
 62
     7
370
    15
100
AcDbPolyline
 90
        9
 70
   128
 43
0.0
 10
1237.390201675998
 20
1284.269415347632
 10
1237.372990265353
 20
1284.303451712264
 10
1237.360067669822
 20
1284.338355678758
 10
1237.351906732645
 20
1284.372850096208
 10
1237.348806065966
 20
1284.405672799285
 10
1237.350879124491
 20
1284.435622791392
 10
1237.358050054131
 20
1284.461604189646
 10
1237.370056467536
 20
1284.48266632369
 10
1237.38645904496
 20
1284.498038521126
  0
LINE
  5
867
330
80F
100
AcDbEntity
  8
0
  6
Continuous
 62
     7
370
    15
100
AcDbLine
 10
1237.590347305272
 20
1283.922752949833
 30
0.0
 11
1237.390201675998
 21
1284.269415347632
 31
0.0
  0
LWPOLYLINE
  5
868
330
80F
100
AcDbEntity
  8
0
  6
Continuous
 62
     7
370
    15
100
AcDbPolyline
 90
        9
 70
   128
 43
0.0
 10
1237.790347305272
 20
1283.807295407416
 10
1237.768916801111
 20
1283.799357508715
 10
1237.744466915287
 20
1283.798380833108
 10
1237.717937243201
 20
1283.804402913693
 10
1237.690347305272
 20
1283.817192325288
 10
1237.662757367344
 20
1283.836257577979
 10
1237.636227695258
 20
1283.860866004797
 10
1237.611777809434
 20
1283.890071917699
 10
1237.590347305272
 20
1283.922752949833
  0
LINE
  5
869
330
80F
100
AcDbEntity
  8
0
  6
Continuous
 62
     7
370
    15
100
AcDbLine
 10
1238.590347305271
 20
1284.269275710068
 30
0.0
 11
1237.790347305272
 21
1283.807295407416
 31
0.0
  0
LWPOLYLINE
  5
86A
330
80F
100
AcDbEntity
  8
0
  6
Continuous
 62
     7
370
    15
100
AcDbPolyline
 90
        9
 70
   128
 43
0.0
 10
1238.590347305271
 20
1284.500228328147
 10
1238.607934865513
 20
1284.46532809052
 10
1238.621003601759
 20
1284.429549843959
 10
1238.629051289804
 20
1284.394268526414
 10
1238.631768661509
 20
1284.360839979133
 10
1238.629051289804
 20
1284.330548842442
 10
1238.621003601759
 20
1284.304559187735
 10
1238.607934865513
 20
1284.283869782868
 10
1238.590347305271
 20
1284.269275710068
  0
LINE
  5
86B
330
80F
100
AcDbEntity
  8
0
  6
Continuous
 62
     7
370
    15
100
AcDbLine
 10
1238.390201675997
 20
1284.846890725946
 30
0.0
 11
1238.590347305271
 21
1284.500228328147
 31
0.0
  0
LWPOLYLINE
  5
86C
330
80F
100
AcDbEntity
  8
0
  6
Continuous
 62
     7
370
    15
100
AcDbPolyline
 90
        9
 70
   128
 43
0.0
 10
1238.19408993631
 20
1284.964425475647
 10
1238.215601884549
 20
1284.970947983261
 10
1238.239843470726
 20
1284.970818176489
 10
1238.265927684942
 20
1284.964040805015
 10
1238.292900094763
 20
1284.950863855728
 10
1238.319773768299
 20
1284.931769478781
 10
1238.345565386464
 20
1284.907456345504
 10
1238.369331223036
 20
1284.878814083733
 10
1238.390201675997
 20
1284.846890725946
  0
LWPOLYLINE
  5
86D
330
80F
100
AcDbEntity
  8
0
  6
Continuous
 62
     7
370
    15
100
AcDbPolyline
 90
        9
 70
   128
 43
0.0
 10
1238.19408993631
 20
1284.964425475647
 10
1238.171921591274
 20
1284.957814115199
 10
1238.146891883851
 20
1284.958241431366
 10
1238.119969380114
 20
1284.965690888439
 10
1238.092195891032
 20
1284.979874217313
 10
1238.064646157861
 20
1285.000242570535
 10
1238.038386263255
 20
1285.026007760869
 10
1238.014432377421
 20
1285.056172761512
 10
1237.99371143573
 20
1285.089570287695
  0
LINE
  5
86E
330
80F
100
AcDbEntity
  8
0
  6
Continuous
 62
     7
370
    15
100
AcDbLine
 10
1237.706809718603
 20
1285.616749464298
 30
0.0
 11
1237.99371143573
 21
1285.089570287695
 31
0.0
  0
LWPOLYLINE
  5
86F
330
80F
100
AcDbEntity
  8
0
  6
Continuous
 62
     7
370
    15
100
AcDbPolyline
 90
        9
 70
   128
 43
0.0
 10
1237.706809718603
 20
1285.616749464298
 10
1237.690575626962
 20
1285.650970480935
 10
1237.678719394025
 20
1285.685769750807
 10
1237.671671762907
 20
1285.719882998325
 10
1237.669688777713
 20
1285.752070871448
 10
1237.672842481331
 20
1285.781163967986
 10
1237.681018298064
 20
1285.8061053206
 10
1237.693919196235
 20
1285.825988796963
 10
1237.711076479498
 20
1285.840092020028
  0
LINE
  5
870
330
80F
100
AcDbEntity
  8
0
  6
Continuous
 62
     7
370
    15
100
AcDbLine
 10
1238.44964971972
 20
1286.266599881338
 30
0.0
 11
1237.711076479498
 21
1285.840092020028
 31
0.0
  0
LWPOLYLINE
  5
871
330
80F
100
AcDbEntity
  8
0
  6
Continuous
 62
     7
370
    15
100
AcDbPolyline
 90
        9
 70
   128
 43
0.0
 10
1238.44964971972
 20
1286.266599881338
 10
1238.470440055041
 20
1286.27441047367
 10
1238.494108118715
 20
1286.275644672383
 10
1238.519794037667
 20
1286.270257638396
 10
1238.546564629092
 20
1286.258445085457
 10
1238.573447303465
 20
1286.240636169764
 10
1238.599465399231
 20
1286.217477898495
 10
1238.623673665428
 20
1286.189811623702
 10
1238.645192603141
 20
1286.15864247555
  0
LINE
  5
872
330
80F
100
AcDbEntity
  8
0
  6
Continuous
 62
     7
370
    15
100
AcDbLine
 10
1238.958290886013
 20
1285.646591170662
 30
0.0
 11
1238.645192603141
 21
1286.15864247555
 31
0.0
  0
LWPOLYLINE
  5
873
330
80F
100
AcDbEntity
  8
0
  6
Continuous
 62
     7
370
    15
100
AcDbPolyline
 90
        9
 70
   128
 43
0.0
 10
1238.958290886013
 20
1285.646591170662
 10
1238.97685363827
 20
1285.611947343219
 10
1238.991000883563
 20
1285.576119249119
 10
1239.000185170752
 20
1285.54049331593
 10
1239.004051098602
 20
1285.506448148271
 10
1239.002449068618
 20
1285.47530118041
 10
1238.995441074009
 20
1285.448257695968
 10
1238.983298300757
 20
1285.426364187461
 10
1238.96649063363
 20
1285.410467860539
  0
LWPOLYLINE
  5
874
330
80F
100
AcDbEntity
  8
0
  6
Continuous
 62
     7
370
    15
100
AcDbPolyline
 90
        9
 70
   128
 43
0.0
 10
1238.970233264668
 20
1285.181844687048
 10
1238.953021854023
 20
1285.21588105168
 10
1238.940099258492
 20
1285.250785018173
 10
1238.931938321315
 20
1285.285279435623
 10
1238.928837654636
 20
1285.318102138699
 10
1238.930910713161
 20
1285.348052130806
 10
1238.938081642801
 20
1285.374033529059
 10
1238.950088056206
 20
1285.395095663103
 10
1238.96649063363
 20
1285.410467860539
  0
LINE
  5
875
330
80F
100
AcDbEntity
  8
0
  6
Continuous
 62
     7
370
    15
100
AcDbLine
 10
1239.170378893942
 20
1284.835182289249
 30
0.0
 11
1238.970233264668
 21
1285.181844687048
 31
0.0
  0
LWPOLYLINE
  5
876
330
80F
100
AcDbEntity
  8
0
  6
Continuous
 62
     7
370
    15
100
AcDbPolyline
 90
        9
 70
   128
 43
0.0
 10
1239.370378893942
 20
1284.719724746832
 10
1239.348948389781
 20
1284.711786848131
 10
1239.324498503957
 20
1284.710810172524
 10
1239.29796883187
 20
1284.716832253108
 10
1239.270378893942
 20
1284.729621664703
 10
1239.242788956014
 20
1284.748686917394
 10
1239.216259283927
 20
1284.773295344213
 10
1239.191809398104
 20
1284.802501257116
 10
1239.170378893942
 20
1284.835182289249
  0
LINE
  5
877
330
80F
100
AcDbEntity
  8
0
  6
Continuous
 62
     7
370
    15
100
AcDbLine
 10
1240.170378893941
 20
1285.181705049483
 30
0.0
 11
1239.370378893942
 21
1284.719724746832
 31
0.0
  0
LWPOLYLINE
  5
878
330
80F
100
AcDbEntity
  8
0
  6
Continuous
 62
     7
370
    15
100
AcDbPolyline
 90
        9
 70
   128
 43
0.0
 10
1240.170378893941
 20
1285.412657667563
 10
1240.187966454183
 20
1285.377757429936
 10
1240.201035190429
 20
1285.341979183374
 10
1240.209082878473
 20
1285.30669786583
 10
1240.211800250178
 20
1285.273269318549
 10
1240.209082878473
 20
1285.242978181858
 10
1240.201035190429
 20
1285.216988527151
 10
1240.187966454183
 20
1285.196299122284
 10
1240.170378893941
 20
1285.181705049483
  0
LINE
  5
879
330
80F
100
AcDbEntity
  8
0
  6
Continuous
 62
     7
370
    15
100
AcDbLine
 10
1239.970233264667
 20
1285.759320065362
 30
0.0
 11
1240.170378893941
 21
1285.412657667563
 31
0.0
  0
LWPOLYLINE
  5
87A
330
80F
100
AcDbEntity
  8
0
  6
Continuous
 62
     7
370
    15
100
AcDbPolyline
 90
        9
 70
   128
 43
0.0
 10
1239.774121524982
 20
1285.876854815061
 10
1239.795633473221
 20
1285.883377322675
 10
1239.819875059397
 20
1285.883247515903
 10
1239.845959273613
 20
1285.876470144429
 10
1239.872931683434
 20
1285.863293195143
 10
1239.89980535697
 20
1285.844198818195
 10
1239.925596975135
 20
1285.819885684919
 10
1239.949362811706
 20
1285.791243423148
 10
1239.970233264667
 20
1285.759320065362
  0
LWPOLYLINE
  5
87B
330
80F
100
AcDbEntity
  8
0
  6
Continuous
 62
     7
370
    15
100
AcDbPolyline
 90
        9
 70
   128
 43
0.0
 10
1239.774121524982
 20
1285.876854815061
 10
1239.751953179946
 20
1285.870243454613
 10
1239.726923472522
 20
1285.87067077078
 10
1239.700000968785
 20
1285.878120227853
 10
1239.672227479702
 20
1285.892303556727
 10
1239.644677746531
 20
1285.912671909949
 10
1239.618417851925
 20
1285.938437100285
 10
1239.594463966091
 20
1285.968602100928
 10
1239.5737430244
 20
1286.001999627111
  0
LINE
  5
87C
330
80F
100
AcDbEntity
  8
0
  6
Continuous
 62
     7
370
    15
100
AcDbLine
 10
1239.286841307273
 20
1286.529178803714
 30
0.0
 11
1239.5737430244
 21
1286.001999627111
 31
0.0
  0
LWPOLYLINE
  5
87D
330
80F
100
AcDbEntity
  8
0
  6
Continuous
 62
     7
370
    15
100
AcDbPolyline
 90
        9
 70
   128
 43
0.0
 10
1239.286841307273
 20
1286.529178803714
 10
1239.270607215632
 20
1286.56339982035
 10
1239.258750982695
 20
1286.598199090223
 10
1239.251703351576
 20
1286.632312337741
 10
1239.249720366383
 20
1286.664500210863
 10
1239.252874070001
 20
1286.693593307402
 10
1239.261049886734
 20
1286.718534660015
 10
1239.273950784905
 20
1286.738418136379
 10
1239.291108068167
 20
1286.752521359444
  0
LINE
  5
87E
330
80F
100
AcDbEntity
  8
0
  6
Continuous
 62
     7
370
    15
100
AcDbLine
 10
1240.029681308389
 20
1287.179029220754
 30
0.0
 11
1239.291108068167
 21
1286.752521359444
 31
0.0
  0
LWPOLYLINE
  5
87F
330
80F
100
AcDbEntity
  8
0
  6
Continuous
 62
     7
370
    15
100
AcDbPolyline
 90
        9
 70
   128
 43
0.0
 10
1240.029681308389
 20
1287.179029220754
 10
1240.050471643711
 20
1287.186839813086
 10
1240.074139707384
 20
1287.188074011799
 10
1240.099825626337
 20
1287.182686977812
 10
1240.126596217762
 20
1287.170874424872
 10
1240.153478892134
 20
1287.15306550918
 10
1240.179496987901
 20
1287.129907237911
 10
1240.203705254098
 20
1287.102240963118
 10
1240.225224191811
 20
1287.071071814966
  0
LINE
  5
880
330
80F
100
AcDbEntity
  8
0
  6
Continuous
 62
     7
370
    15
100
AcDbLine
 10
1240.538322474683
 20
1286.559020510078
 30
0.0
 11
1240.225224191811
 21
1287.071071814966
 31
0.0
  0
LWPOLYLINE
  5
881
330
80F
100
AcDbEntity
  8
0
  6
Continuous
 62
     7
370
    15
100
AcDbPolyline
 90
        9
 70
   128
 43
0.0
 10
1240.538322474683
 20
1286.559020510078
 10
1240.55688522694
 20
1286.524376682635
 10
1240.571032472232
 20
1286.488548588535
 10
1240.580216759421
 20
1286.452922655347
 10
1240.584082687271
 20
1286.418877487688
 10
1240.582480657287
 20
1286.387730519828
 10
1240.575472662678
 20
1286.360687035386
 10
1240.563329889427
 20
1286.338793526879
 10
1240.546522222299
 20
1286.322897199958
  0
LWPOLYLINE
  5
882
330
80F
100
AcDbEntity
  8
0
  6
Continuous
 62
     7
370
    15
100
AcDbPolyline
 90
        9
 70
   128
 43
0.0
 10
1240.550264853337
 20
1286.094274026464
 10
1240.533053442692
 20
1286.128310391096
 10
1240.520130847162
 20
1286.163214357589
 10
1240.511969909985
 20
1286.19770877504
 10
1240.508869243306
 20
1286.230531478116
 10
1240.510942301831
 20
1286.260481470224
 10
1240.518113231471
 20
1286.286462868477
 10
1240.530119644876
 20
1286.307525002521
 10
1240.546522222299
 20
1286.322897199958
  0
LINE
  5
883
330
80F
100
AcDbEntity
  8
0
  6
Continuous
 62
     7
370
    15
100
AcDbLine
 10
1240.750410482612
 20
1285.747611628665
 30
0.0
 11
1240.550264853337
 21
1286.094274026464
 31
0.0
  0
LWPOLYLINE
  5
884
330
80F
100
AcDbEntity
  8
0
  6
Continuous
 62
     7
370
    15
100
AcDbPolyline
 90
        9
 70
   128
 43
0.0
 10
1240.950410482612
 20
1285.632154086248
 10
1240.92897997845
 20
1285.624216187546
 10
1240.904530092626
 20
1285.62323951194
 10
1240.87800042054
 20
1285.629261592524
 10
1240.850410482612
 20
1285.642051004119
 10
1240.822820544684
 20
1285.66111625681
 10
1240.796290872597
 20
1285.685724683628
 10
1240.771840986773
 20
1285.714930596531
 10
1240.750410482612
 20
1285.747611628665
  0
LINE
  5
885
330
80F
100
AcDbEntity
  8
0
  6
Continuous
 62
     7
370
    15
100
AcDbLine
 10
1241.750410482611
 20
1286.094134388899
 30
0.0
 11
1240.950410482612
 21
1285.632154086248
 31
0.0
  0
LWPOLYLINE
  5
886
330
80F
100
AcDbEntity
  8
0
  6
Continuous
 62
     7
370
    15
100
AcDbPolyline
 90
        9
 70
   128
 43
0.0
 10
1241.750410482611
 20
1286.325087006979
 10
1241.767998042853
 20
1286.290186769351
 10
1241.781066779098
 20
1286.25440852279
 10
1241.789114467143
 20
1286.219127205246
 10
1241.791831838848
 20
1286.185698657965
 10
1241.789114467143
 20
1286.155407521274
 10
1241.781066779098
 20
1286.129417866567
 10
1241.767998042853
 20
1286.1087284617
 10
1241.750410482611
 20
1286.094134388899
  0
LINE
  5
887
330
80F
100
AcDbEntity
  8
0
  6
Continuous
 62
     7
370
    15
100
AcDbLine
 10
1241.550264853336
 20
1286.671749404777
 30
0.0
 11
1241.750410482611
 21
1286.325087006979
 31
0.0
  0
LWPOLYLINE
  5
888
330
80F
100
AcDbEntity
  8
0
  6
Continuous
 62
     7
370
    15
100
AcDbPolyline
 90
        9
 70
   128
 43
0.0
 10
1241.354153113652
 20
1286.789284154477
 10
1241.375665061891
 20
1286.795806662091
 10
1241.399906648066
 20
1286.795676855319
 10
1241.425990862283
 20
1286.788899483845
 10
1241.452963272103
 20
1286.775722534559
 10
1241.479836945639
 20
1286.756628157611
 10
1241.505628563804
 20
1286.732315024335
 10
1241.529394400376
 20
1286.703672762564
 10
1241.550264853336
 20
1286.671749404777
  0
LWPOLYLINE
  5
889
330
80F
100
AcDbEntity
  8
0
  6
Continuous
 62
     7
370
    15
100
AcDbPolyline
 90
        9
 70
   128
 43
0.0
 10
1241.354153113652
 20
1286.789284154477
 10
1241.331984768615
 20
1286.782672794029
 10
1241.306955061192
 20
1286.783100110196
 10
1241.280032557455
 20
1286.79054956727
 10
1241.252259068372
 20
1286.804732896143
 10
1241.224709335201
 20
1286.825101249365
 10
1241.198449440595
 20
1286.8508664397
 10
1241.174495554761
 20
1286.881031440344
 10
1241.15377461307
 20
1286.914428966527
  0
LINE
  5
88A
330
80F
100
AcDbEntity
  8
0
  6
Continuous
 62
     7
370
    15
100
AcDbLine
 10
1240.866872895942
 20
1287.441608143129
 30
0.0
 11
1241.15377461307
 21
1286.914428966527
 31
0.0
  0
LWPOLYLINE
  5
88B
330
80F
100
AcDbEntity
  8
0
  6
Continuous
 62
     7
370
    15
100
AcDbPolyline
 90
        9
 70
   128
 43
0.0
 10
1240.866872895942
 20
1287.441608143129
 10
1240.850638804302
 20
1287.475829159767
 10
1240.838782571365
 20
1287.510628429639
 10
1240.831734940246
 20
1287.544741677157
 10
1240.829751955053
 20
1287.576929550279
 10
1240.832905658671
 20
1287.606022646818
 10
1240.841081475404
 20
1287.630963999431
 10
1240.853982373575
 20
1287.650847475794
 10
1240.871139656837
 20
1287.66495069886
  0
LINE
  5
88C
330
80F
100
AcDbEntity
  8
0
  6
Continuous
 62
     7
370
    15
100
AcDbLine
 10
1241.060393071499
 20
1287.774239886089
 30
0.0
 11
1240.871139656837
 21
1287.66495069886
 31
0.0
  0
LWPOLYLINE
  5
88D
330
80F
100
AcDbEntity
  8
0
  6
Continuous
 62
     7
370
    15
100
AcDbPolyline
 90
        9
 70
   128
 43
0.0
 10
1241.060393071499
 20
1288.005192504169
 10
1241.077980631741
 20
1287.970292266541
 10
1241.091049367986
 20
1287.93451401998
 10
1241.099097056031
 20
1287.899232702436
 10
1241.101814427736
 20
1287.865804155155
 10
1241.099097056031
 20
1287.835513018463
 10
1241.091049367986
 20
1287.809523363757
 10
1241.077980631741
 20
1287.78883395889
 10
1241.060393071499
 20
1287.774239886089
  0
LINE
  5
88E
330
80F
100
AcDbEntity
  8
0
  6
Continuous
 62
     7
370
    15
100
AcDbLine
 10
1241.060393071499
 20
1288.005192504169
 30
0.0
 11
1240.810392279603
 21
1288.438206576394
 31
0.0
  0
LINE
  5
88F
330
80F
100
AcDbEntity
  8
0
  6
Continuous
 62
     7
370
    15
100
AcDbLine
 10
1242.723676552648
 20
1289.543081135795
 30
0.0
 11
1240.810392279603
 21
1288.438206576394
 31
0.0
  0
ARC
  5
890
330
80F
100
AcDbEntity
  8
0
  6
Continuous
 62
     7
370
    15
100
AcDbCircle
 10
1243.034306162581
 20
1288.855559244363
 30
0.0
 40
0.7544382716726092
100
AcDbArc
 50
54.38182734007813
 51
114.3139521614384
  0
LINE
  5
891
330
80F
100
AcDbEntity
  8
0
  6
Continuous
 62
     7
370
    15
100
AcDbLine
 10
1245.155655894262
 20
1288.497868245864
 30
0.0
 11
1243.473676552647
 21
1289.468854251759
 31
0.0
  0
LINE
  5
892
330
80F
100
AcDbEntity
  8
0
  6
Continuous
 62
     7
370
    15
100
AcDbLine
 10
1245.155655894262
 20
1288.497868245864
 30
0.0
 11
1245.155655894262
 21
1288.089597882766
 31
0.0
  0
ARC
  5
893
330
80F
100
AcDbEntity
  8
0
  6
Continuous
 62
     7
370
    15
100
AcDbCircle
 10
1245.462699114535
 20
1288.103570053219
 30
0.0
 40
0.3073609615143939
100
AcDbArc
 50
182.6054784856759
 51
237.3945216599699
  0
LINE
  5
894
330
80F
100
AcDbEntity
  8
0
  6
Continuous
 62
     7
370
    15
100
AcDbLine
 10
1245.564721996238
 20
1287.690140886288
 30
0.0
 11
1245.297077250498
 21
1287.844648909207
 31
0.0
  0
ARC
  5
895
330
80F
100
AcDbEntity
  8
0
  6
Continuous
 62
     7
370
    15
100
AcDbCircle
 10
1245.397597588255
 20
1287.429968361583
 30
0.0
 40
0.3092253391215671
100
AcDbArc
 50
4.158672903023314
 51
57.28493549849731
  0
LINE
  5
896
330
80F
100
AcDbEntity
  8
0
  6
Continuous
 62
     7
370
    15
100
AcDbLine
 10
1245.724532519963
 20
1286.951774987166
 30
0.0
 11
1245.706008750681
 21
1287.452393018685
 31
0.0
  0
LWPOLYLINE
  5
897
330
80F
100
AcDbEntity
  8
0
  6
Continuous
 62
     7
370
    15
100
AcDbPolyline
 90
        9
 70
   128
 43
0.0
 10
1245.724532519963
 20
1286.951774987166
 10
1245.723006449579
 20
1286.920579229497
 10
1245.716072107551
 20
1286.893471211397
 10
1245.703997829754
 20
1286.871499922622
 10
1245.687250850408
 20
1286.855515578657
 10
1245.666479221674
 20
1286.846136720225
 10
1245.642486736205
 20
1286.843726277817
 10
1245.616201823047
 20
1286.848377527505
 10
1245.588641620543
 20
1286.859910481462
  0
ARC
  5
898
330
80F
100
AcDbEntity
  8
0
  6
Continuous
 62
     7
370
    15
100
AcDbCircle
 10
1245.537899276818
 20
1286.789831068177
 30
0.0
 40
0.0865211512464418
100
AcDbArc
 50
54.09286088722341
 51
189.704092340154
  0
LINE
  5
899
330
80F
100
AcDbEntity
  8
0
  6
Continuous
 62
     7
370
    15
100
AcDbLine
 10
1245.452616119326
 20
1286.448392932468
 30
0.0
 11
1245.452616119326
 21
1286.775247081713
 31
0.0
  0
ARC
  5
89A
330
80F
100
AcDbEntity
  8
0
  6
Continuous
 62
     7
370
    15
100
AcDbCircle
 10
1245.759659339599
 20
1286.462365102919
 30
0.0
 40
0.3073609615141583
100
AcDbArc
 50
182.6054784856498
 51
237.3945216599699
  0
LINE
  5
89B
330
80F
100
AcDbEntity
  8
0
  6
Continuous
 62
     7
370
    15
100
AcDbLine
 10
1246.725408325461
 20
1285.550317469451
 30
0.0
 11
1245.594037475563
 21
1286.203443958908
 31
0.0
  0
ARC
  5
89C
330
80F
100
AcDbEntity
  8
0
  6
Continuous
 62
     7
370
    15
100
AcDbCircle
 10
1246.780614808213
 20
1285.617999381266
 30
0.0
 40
0.0873418394856701
100
AcDbArc
 50
230.7967147642926
 51
9.214036990430646
  0
LINE
  5
89D
330
80F
100
AcDbEntity
  8
0
  6
Continuous
 62
     7
370
    15
100
AcDbLine
 10
1246.866829681698
 20
1285.958838969892
 30
0.0
 11
1246.866829681698
 21
1285.631984820646
 31
0.0
  0
ARC
  5
89E
330
80F
100
AcDbEntity
  8
0
  6
Continuous
 62
     7
370
    15
100
AcDbCircle
 10
1246.558161900035
 20
1285.944267574459
 30
0.0
 40
0.3090115289136083
100
AcDbArc
 50
2.702776742814769
 51
56.03460845538393
  0
ARC
  5
89F
330
80F
100
AcDbEntity
  8
0
  6
Continuous
 62
     7
370
    15
100
AcDbCircle
 10
1246.90146769853
 20
1286.4552797147
 30
0.0
 40
0.3066124430857041
100
AcDbArc
 50
181.1147037747968
 51
236.178328294146
  0
LINE
  5
8A0
330
80F
100
AcDbEntity
  8
0
  6
Continuous
 62
     7
370
    15
100
AcDbLine
 10
1246.613437050343
 20
1286.928545811692
 30
0.0
 11
1246.594913281061
 21
1286.449314868949
 31
0.0
  0
ARC
  5
8A1
330
80F
100
AcDbEntity
  8
0
  6
Continuous
 62
     7
370
    15
100
AcDbCircle
 10
1246.699459490584
 20
1286.936738308561
 30
0.0
 40
0.0864116729960375
100
AcDbArc
 50
50.2419616549723
 51
185.4402551414274
  0
LINE
  5
8A2
330
80F
100
AcDbEntity
  8
0
  6
Continuous
 62
     7
370
    15
100
AcDbLine
 10
1247.799224097913
 20
1286.400190280361
 30
0.0
 11
1246.754723804785
 21
1287.003167464854
 31
0.0
  0
ARC
  5
8A3
330
80F
100
AcDbEntity
  8
0
  6
Continuous
 62
     7
370
    15
100
AcDbCircle
 10
1247.63209968993
 20
1286.140017755657
 30
0.0
 40
0.3092253391214425
100
AcDbArc
 50
4.158672903036308
 51
57.28493549851531
  0
LINE
  5
8A4
330
80F
100
AcDbEntity
  8
0
  6
Continuous
 62
     7
370
    15
100
AcDbLine
 10
1247.959034621638
 20
1285.66182438124
 30
0.0
 11
1247.940510852356
 21
1286.162442412759
 31
0.0
  0
LWPOLYLINE
  5
8A5
330
80F
100
AcDbEntity
  8
0
  6
Continuous
 62
     7
370
    15
100
AcDbPolyline
 90
        9
 70
   128
 43
0.0
 10
1247.959034621638
 20
1285.66182438124
 10
1247.957508551254
 20
1285.63062862357
 10
1247.950574209226
 20
1285.60352060547
 10
1247.938499931428
 20
1285.581549316695
 10
1247.921752952082
 20
1285.56556497273
 10
1247.900981323349
 20
1285.556186114297
 10
1247.876988837879
 20
1285.55377567189
 10
1247.850703924721
 20
1285.558426921578
 10
1247.823143722216
 20
1285.569959875535
  0
ARC
  5
8A6
330
80F
100
AcDbEntity
  8
0
  6
Continuous
 62
     7
370
    15
100
AcDbCircle
 10
1247.772401378492
 20
1285.499880462251
 30
0.0
 40
0.0865211512455142
100
AcDbArc
 50
54.09286088730672
 51
189.7040923401133
  0
LINE
  5
8A7
330
80F
100
AcDbEntity
  8
0
  6
Continuous
 62
     7
370
    15
100
AcDbLine
 10
1247.687118221001
 20
1285.158442326541
 30
0.0
 11
1247.687118221001
 21
1285.485296475787
 31
0.0
  0
ARC
  5
8A8
330
80F
100
AcDbEntity
  8
0
  6
Continuous
 62
     7
370
    15
100
AcDbCircle
 10
1247.994161441274
 20
1285.172414496993
 30
0.0
 40
0.3073609615140798
100
AcDbArc
 50
182.6054784856498
 51
237.3945216599699
  0
LINE
  5
8A9
330
80F
100
AcDbEntity
  8
0
  6
Continuous
 62
     7
370
    15
100
AcDbLine
 10
1248.959910427135
 20
1284.260366863525
 30
0.0
 11
1247.828539577238
 21
1284.913493352982
 31
0.0
  0
ARC
  5
8AA
330
80F
100
AcDbEntity
  8
0
  6
Continuous
 62
     7
370
    15
100
AcDbCircle
 10
1249.015116909887
 20
1284.328048775339
 30
0.0
 40
0.0873418394855941
100
AcDbArc
 50
230.7967147643292
 51
9.214036990443508
  0
LINE
  5
8AB
330
80F
100
AcDbEntity
  8
0
  6
Continuous
 62
     7
370
    15
100
AcDbLine
 10
1249.101331783372
 20
1284.668888363966
 30
0.0
 11
1249.101331783372
 21
1284.34203421472
 31
0.0
  0
ARC
  5
8AC
330
80F
100
AcDbEntity
  8
0
  6
Continuous
 62
     7
370
    15
100
AcDbCircle
 10
1248.79266400171
 20
1284.654316968532
 30
0.0
 40
0.3090115289134736
100
AcDbArc
 50
2.702776742801756
 51
56.03460845540201
  0
ARC
  5
8AD
330
80F
100
AcDbEntity
  8
0
  6
Continuous
 62
     7
370
    15
100
AcDbCircle
 10
1249.135969800205
 20
1285.165329108774
 30
0.0
 40
0.306612443085474
100
AcDbArc
 50
181.1147037747707
 51
236.1783282941714
  0
LINE
  5
8AE
330
80F
100
AcDbEntity
  8
0
  6
Continuous
 62
     7
370
    15
100
AcDbLine
 10
1248.847939152018
 20
1285.638595205765
 30
0.0
 11
1248.829415382735
 21
1285.159364263023
 31
0.0
  0
ARC
  5
8AF
330
80F
100
AcDbEntity
  8
0
  6
Continuous
 62
     7
370
    15
100
AcDbCircle
 10
1248.933961592259
 20
1285.646787702635
 30
0.0
 40
0.0864116729959607
100
AcDbArc
 50
50.24196165484219
 51
185.4402551414923
  0
LINE
  5
8B0
330
80F
100
AcDbEntity
  8
0
  6
Continuous
 62
     7
370
    15
100
AcDbLine
 10
1249.2568706522
 20
1285.558708836008
 30
0.0
 11
1248.98922590646
 21
1285.713216858928
 31
0.0
  0
ARC
  5
8B1
330
80F
100
AcDbEntity
  8
0
  6
Continuous
 62
     7
370
    15
100
AcDbCircle
 10
1249.312077134952
 20
1285.626390747823
 30
0.0
 40
0.0873418394856081
100
AcDbArc
 50
230.7967147642825
 51
9.214036990456367
  0
LINE
  5
8B2
330
80F
100
AcDbEntity
  8
0
  6
Continuous
 62
     7
370
    15
100
AcDbLine
 10
1249.398292008437
 20
1285.640376187203
 30
0.0
 11
1249.398292008437
 21
1286.048646561011
 31
0.0
  0
LINE
  5
8B3
330
80F
100
AcDbEntity
  8
0
  6
Continuous
 62
     7
370
    15
100
AcDbLine
 10
1258.230705642614
 20
1280.949802701944
 30
0.0
 11
1249.398292008437
 21
1286.048646561011
 31
0.0
  0
LINE
  5
8B4
330
80F
100
AcDbEntity
  8
0
  6
Continuous
 62
     7
370
    15
100
AcDbLine
 10
1266.491113282691
 20
1279.396807354951
 30
0.0
 11
1261.187812423797
 21
1276.335276935619
 31
0.0
  0
LINE
  5
8B5
330
80F
100
AcDbEntity
  8
0
  6
Continuous
 62
     7
370
    15
100
AcDbLine
 10
1258.980705642613
 20
1280.158098007141
 30
0.0
 11
1264.284006501507
 21
1283.219628426473
 31
0.0
  0
LINE
  5
8B6
330
80F
100
AcDbEntity
  8
0
  6
Continuous
 62
     7
370
    15
100
AcDbLine
 10
1266.491113282691
 20
1279.396807354951
 30
0.0
 11
1264.284006501507
 21
1283.219628426473
 31
0.0
  0
ARC
  5
8B7
330
80F
100
AcDbEntity
  8
0
  6
Continuous
 62
     7
370
    15
100
AcDbCircle
 10
1264.638825729353
 20
1278.277507098298
 30
0.0
 40
2.164209380996734
100
AcDbArc
 50
1.956498643037532
 51
31.14372779936289
  0
LINE
  5
8B8
330
80F
100
AcDbEntity
  8
0
  6
Continuous
 62
     7
370
    15
100
AcDbLine
 10
1261.498472595577
 20
1275.289864318017
 30
0.0
 11
1266.80177345447
 21
1278.351394737349
 31
0.0
  0
LINE
  5
8B9
330
80F
100
AcDbEntity
  8
0
  6
Continuous
 62
     7
370
    15
100
AcDbLine
 10
1263.534006501507
 20
1284.011333110565
 30
0.0
 11
1258.230705642614
 21
1280.949802701944
 31
0.0
  0
ARC
  5
8BA
330
80F
100
AcDbEntity
  8
0
  6
Continuous
 62
     7
370
    15
100
AcDbCircle
 10
1262.388746834051
 20
1282.17530392796
 30
0.0
 40
2.163936890317867
100
AcDbArc
 50
28.85560887917803
 51
58.0453283505192
  0
LINE
  5
8BB
330
80F
100
AcDbEntity
  8
0
  6
Continuous
 62
     7
370
    15
100
AcDbLine
 10
1266.80177345447
 20
1271.406380948369
 30
0.0
 11
1261.498472595577
 21
1268.344850529037
 31
0.0
  0
LINE
  5
8BC
330
80F
100
AcDbEntity
  8
0
  6
Continuous
 62
     7
370
    15
100
AcDbLine
 10
1266.80177345447
 20
1271.406380948369
 30
0.0
 11
1266.80177345447
 21
1278.351394737349
 31
0.0
  0
LWPOLYLINE
  5
8BD
330
80F
100
AcDbEntity
  8
0
  6
Continuous
 62
     7
370
    15
100
AcDbPolyline
 90
       55
 70
   128
 43
0.0
 10
1258.590685950103
 20
1286.048643209969
 10
1258.351789902828
 20
1286.171374248657
 10
1258.08982789776
 20
1286.277264846722
 10
1257.808342521627
 20
1286.364883015477
 10
1257.511140381258
 20
1286.433043869498
 10
1257.202240625754
 20
1286.480825650164
 10
1256.885820594398
 20
1286.507582190858
 10
1256.566159325298
 20
1286.51295165527
 10
1256.247579688747
 20
1286.496861430603
 10
1255.934389927811
 20
1286.459529109545
 10
1255.630825396733
 20
1286.401459547694
 10
1255.340991285037
 20
1286.323438036256
 10
1255.068807101878
 20
1286.226519682331
 10
1254.817953671405
 20
1286.112015140392
 10
1254.591823355931
 20
1285.981472887939
 10
1254.393474180049
 20
1285.836658284993
 10
1254.225588476099
 20
1285.679529700631
 10
1254.090436610221
 20
1285.512212029406
 10
1253.989846279549
 20
1285.336967955789
 10
1253.925177795747
 20
1285.15616735525
 10
1253.897305689118
 20
1284.972255245748
 10
1253.906606882092
 20
1284.787718723068
 10
1253.952955591989
 20
1284.605053327108
 10
1254.035725032019
 20
1284.426729293989
 10
1254.153795887493
 20
1284.255158150348
 10
1254.305571452642
 20
1284.092660101575
 10
1254.488999223315
 20
1283.941432655016
 10
1254.70159865358
 20
1283.803520902458
 10
1254.940494700856
 20
1283.68078986377
 10
1255.202456705923
 20
1283.574899265705
 10
1255.483942082056
 20
1283.48728109695
 10
1255.781144222426
 20
1283.419120242929
 10
1256.090043977929
 20
1283.371338462264
 10
1256.406464009286
 20
1283.344581921569
 10
1256.726125278385
 20
1283.339212457158
 10
1257.044704914936
 20
1283.355302681824
 10
1257.357894675873
 20
1283.392635002883
 10
1257.661459206951
 20
1283.450704564734
 10
1257.951293318646
 20
1283.52872607617
 10
1258.223477501806
 20
1283.625644430096
 10
1258.474330932278
 20
1283.740148972035
 10
1258.700461247753
 20
1283.870691224488
 10
1258.898810423634
 20
1284.015505827435
 10
1259.066696127584
 20
1284.172634411796
 10
1259.201847993463
 20
1284.339952083022
 10
1259.302438324134
 20
1284.515196156638
 10
1259.367106807937
 20
1284.695996757177
 10
1259.394978914565
 20
1284.879908866679
 10
1259.385677721591
 20
1285.06444538936
 10
1259.339329011694
 20
1285.24711078532
 10
1259.256559571665
 20
1285.425434818438
 10
1259.13848871619
 20
1285.597005962079
 10
1258.986713151041
 20
1285.759504010852
 10
1258.803285380368
 20
1285.910731457411
 10
1258.590685950103
 20
1286.048643209969
  0
LINE
  5
8BE
330
80F
100
AcDbEntity
  8
0
  6
Continuous
 62
     7
370
    15
100
AcDbLine
 10
1249.398292008437
 20
1286.048646561011
 30
0.0
 11
1253.994486086145
 21
1288.701972913721
 31
0.0
  0
LINE
  5
8BF
330
80F
100
AcDbEntity
  8
0
  6
Continuous
 62
     7
370
    15
100
AcDbLine
 10
1253.994486086145
 20
1288.701972913721
 30
0.0
 11
1249.751849971969
 21
1291.151194609285
 31
0.0
  0
LINE
  5
8C0
330
80F
100
AcDbEntity
  8
0
  6
Continuous
 62
     7
370
    15
100
AcDbLine
 10
1249.751849971969
 20
1291.151194609285
 30
0.0
 11
1245.155655894262
 21
1288.497868245864
 31
0.0
  0
LINE
  5
8C1
330
80F
100
AcDbEntity
  8
0
  6
Continuous
 62
     7
370
    15
100
AcDbLine
 10
1243.473676552647
 20
1289.468854251759
 30
0.0
 11
1248.776977411541
 21
1292.530384671091
 31
0.0
  0
LINE
  5
8C2
330
80F
100
AcDbEntity
  8
0
  6
Continuous
 62
     7
370
    15
100
AcDbLine
 10
1263.534006501507
 20
1284.011333110565
 30
0.0
 11
1248.776977411541
 21
1292.530384671091
 31
0.0
  0
ARC
  5
8C3
330
80F
100
AcDbEntity
  8
0
  6
Continuous
 62
     7
370
    15
100
AcDbCircle
 10
1266.556427101617
 20
1271.379493853312
 30
0.0
 40
0.2468152117256074
100
AcDbArc
 50
305.0581883755346
 51
6.253992017827624
  0
LINE
  5
8C4
330
80F
100
AcDbEntity
  8
0
  6
Continuous
 62
     7
370
    15
100
AcDbLine
 10
1266.561541582166
 20
1268.872882571587
 30
0.0
 11
1261.258240723272
 21
1265.811352152255
 31
0.0
  0
ARC
  5
8C5
330
80F
100
AcDbEntity
  8
0
  6
Continuous
 62
     7
370
    15
100
AcDbCircle
 10
1267.95526988524
 20
1270.386027571454
 30
0.0
 40
2.057203532324958
100
AcDbArc
 50
170.3035928848745
 51
227.3524340215026
  0
LINE
  5
8C6
330
80F
100
AcDbEntity
  8
0
  6
Continuous
 62
     7
370
    15
100
AcDbLine
 10
1268.793567095652
 20
1259.310676609421
 30
0.0
 11
1263.490266236758
 21
1256.249146190088
 31
0.0
  0
LINE
  5
8C7
330
80F
100
AcDbEntity
  8
0
  6
Continuous
 62
     7
370
    15
100
AcDbLine
 10
1263.476101927988
 20
1256.331191191708
 30
0.0
 11
1267.718742506266
 21
1258.78041555761
 31
0.0
  0
LINE
  5
8C8
330
80F
100
AcDbEntity
  8
0
  6
Continuous
 62
     7
370
    15
100
AcDbLine
 10
1267.718742506266
 20
1258.78041555761
 30
0.0
 11
1266.38416133064
 21
1266.51081207707
 31
0.0
  0
LINE
  5
8C9
330
80F
100
AcDbEntity
  8
0
  6
Continuous
 62
     7
370
    15
100
AcDbLine
 10
1266.38416133064
 20
1266.51081207707
 30
0.0
 11
1267.444821502419
 21
1267.123118160936
 31
0.0
  0
LINE
  5
8CA
330
80F
100
AcDbEntity
  8
0
  6
Continuous
 62
     7
370
    15
100
AcDbLine
 10
1268.793567095652
 20
1259.310676609421
 30
0.0
 11
1267.444821502419
 21
1267.123118160936
 31
0.0
  0
ARC
  5
8CB
330
80F
100
AcDbEntity
  8
0
  6
Continuous
 62
     7
370
    15
100
AcDbCircle
 10
1264.526986888195
 20
1266.227230429119
 30
0.0
 40
1.878700471262994
100
AcDbArc
 50
351.318268163449
 51
8.681731836602569
  0
LINE
  5
8CC
330
80F
100
AcDbEntity
  8
0
  6
Continuous
 62
     7
370
    15
100
AcDbLine
 10
1262.141520643525
 20
1263.494424445704
 30
0.0
 11
1266.38416133064
 21
1265.94364878117
 31
0.0
  0
ARC
  5
8CD
330
80F
100
AcDbEntity
  8
0
  6
Continuous
 62
     7
370
    15
100
AcDbCircle
 10
1264.227314540921
 20
1266.596744535089
 30
0.0
 40
3.260279166156573
100
AcDbArc
 50
9.291097107681975
 51
44.27813120063344
  0
LINE
  5
8CE
330
80F
100
AcDbEntity
  8
0
  6
Continuous
 62
     7
370
    15
100
AcDbLine
 10
1266.38416133064
 20
1265.94364878117
 30
0.0
 11
1265.292665447038
 21
1259.425563677021
 31
0.0
  0
LINE
  5
8CF
330
80F
100
AcDbEntity
  8
0
  6
Continuous
 62
     7
370
    15
100
AcDbLine
 10
1265.292665447038
 20
1259.425563677021
 30
0.0
 11
1261.050024759923
 21
1256.976339341555
 31
0.0
  0
LINE
  5
8D0
330
80F
100
AcDbEntity
  8
0
  6
Continuous
 62
     7
370
    15
100
AcDbLine
 10
1252.395418175621
 20
1289.053516643783
 30
0.0
 11
1247.799224097913
 21
1286.400190280361
 31
0.0
  0
ARC
  5
8D1
330
80F
100
AcDbEntity
  8
0
  6
Continuous
 62
     7
370
    15
100
AcDbCircle
 10
1252.228293767638
 20
1288.793344119078
 30
0.0
 40
0.3092253391216538
100
AcDbArc
 50
4.158672903023314
 51
57.28493549848635
  0
LINE
  5
8D2
330
80F
100
AcDbEntity
  8
0
  6
Continuous
 62
     7
370
    15
100
AcDbLine
 10
1247.940510852356
 20
1286.162442412759
 30
0.0
 11
1252.536704930063
 21
1288.81576877618
 31
0.0
  0
LINE
  5
8D3
330
80F
100
AcDbEntity
  8
0
  6
Continuous
 62
     7
370
    15
100
AcDbLine
 10
1252.555228699345
 20
1288.315150744661
 30
0.0
 11
1247.959034621638
 21
1285.66182438124
 31
0.0
  0
LINE
  5
8D4
330
80F
100
AcDbEntity
  8
0
  6
Continuous
 62
     7
370
    15
100
AcDbLine
 10
1252.536704930063
 20
1288.81576877618
 30
0.0
 11
1252.555228699345
 21
1288.315150744661
 31
0.0
  0
LINE
  5
8D5
330
80F
100
AcDbEntity
  8
0
  6
Continuous
 62
     7
370
    15
100
AcDbLine
 10
1246.754723804785
 20
1287.003167464854
 30
0.0
 11
1251.350917882493
 21
1289.656493828275
 31
0.0
  0
LINE
  5
8D6
330
80F
100
AcDbEntity
  8
0
  6
Continuous
 62
     7
370
    15
100
AcDbLine
 10
1251.350917882493
 20
1289.656493828275
 30
0.0
 11
1252.395418175621
 21
1289.053516643783
 31
0.0
  0
ARC
  5
8D7
330
80F
100
AcDbEntity
  8
0
  6
Continuous
 62
     7
370
    15
100
AcDbCircle
 10
1252.453574414965
 20
1288.299633947457
 30
0.0
 40
0.1028317291911224
100
AcDbArc
 50
305.9424648186434
 51
8.678798600839312
  0
ARC
  5
8D8
330
80F
100
AcDbEntity
  8
0
  6
Continuous
 62
     7
370
    15
100
AcDbCircle
 10
1267.256161120926
 20
1258.697538941553
 30
0.0
 40
0.4699468816282241
100
AcDbArc
 50
10.15741308492581
 51
57.0705584936684
  0
LINE
  5
8D9
330
80F
100
AcDbEntity
  8
0
  6
Continuous
 62
     7
370
    15
100
AcDbLine
 10
1267.51162697989
 20
1259.091984459281
 30
0.0
 11
1266.711682609498
 21
1259.553781751455
 31
0.0
  0
ARC
  5
8DA
330
80F
100
AcDbEntity
  8
0
  6
Continuous
 62
     7
370
    15
100
AcDbCircle
 10
1266.624116796822
 20
1259.434242228213
 30
0.0
 40
0.1481805289723271
100
AcDbArc
 50
53.77625292092038
 51
114.9138977914002
  0
ARC
  5
8DB
330
80F
100
AcDbEntity
  8
0
  6
Continuous
 62
     7
370
    15
100
AcDbCircle
 10
1265.959210972015
 20
1259.325274882719
 30
0.0
 40
0.6740480540202994
100
AcDbArc
 50
171.4434302271364
 51
217.7096656006088
  0
LINE
  5
8DC
330
80F
100
AcDbEntity
  8
0
  6
Continuous
 62
     7
370
    15
100
AcDbLine
 10
1247.687118221001
 20
1285.158442326541
 30
0.0
 11
1252.283312298709
 21
1287.811768689963
 31
0.0
  0
LINE
  5
8DD
330
80F
100
AcDbEntity
  8
0
  6
Continuous
 62
     7
370
    15
100
AcDbLine
 10
1252.283312298709
 20
1288.083245708084
 30
0.0
 11
1252.283312298709
 21
1287.811768689963
 31
0.0
  0
ARC
  5
8DE
330
80F
100
AcDbEntity
  8
0
  6
Continuous
 62
     7
370
    15
100
AcDbCircle
 10
1251.292817934621
 20
1289.579605896316
 30
0.0
 40
0.0963709397256366
100
AcDbArc
 50
52.92368029945649
 51
115.7658612714482
  0
ARC
  5
8DF
330
80F
100
AcDbEntity
  8
0
  6
Continuous
 62
     7
370
    15
100
AcDbCircle
 10
1252.544472911111
 20
1287.817156176347
 30
0.0
 40
0.2612161757619585
100
AcDbArc
 50
181.1817879174873
 51
200.8898888664212
  0
LINE
  5
8E0
330
80F
100
AcDbEntity
  8
0
  6
Continuous
 62
     7
370
    15
100
AcDbLine
 10
1250.160916073946
 20
1290.343467249709
 30
0.0
 11
1245.564721996238
 21
1287.690140886288
 31
0.0
  0
ARC
  5
8E1
330
80F
100
AcDbEntity
  8
0
  6
Continuous
 62
     7
370
    15
100
AcDbCircle
 10
1249.993791665963
 20
1290.083294725004
 30
0.0
 40
0.3092253391213924
100
AcDbArc
 50
4.158672903023314
 51
57.28493549851531
  0
LINE
  5
8E2
330
80F
100
AcDbEntity
  8
0
  6
Continuous
 62
     7
370
    15
100
AcDbLine
 10
1245.706008750681
 20
1287.452393018685
 30
0.0
 11
1250.302202828389
 21
1290.105719382106
 31
0.0
  0
LINE
  5
8E3
330
80F
100
AcDbEntity
  8
0
  6
Continuous
 62
     7
370
    15
100
AcDbLine
 10
1249.751849971969
 20
1290.742924246188
 30
0.0
 11
1245.155655894262
 21
1288.089597882766
 31
0.0
  0
LINE
  5
8E4
330
80F
100
AcDbEntity
  8
0
  6
Continuous
 62
     7
370
    15
100
AcDbLine
 10
1249.751849971969
 20
1291.151194609285
 30
0.0
 11
1249.751849971969
 21
1290.742924246188
 31
0.0
  0
LINE
  5
8E5
330
80F
100
AcDbEntity
  8
0
  6
Continuous
 62
     7
370
    15
100
AcDbLine
 10
1250.320726597671
 20
1289.605101350587
 30
0.0
 11
1245.724532519963
 21
1286.951774987166
 31
0.0
  0
LINE
  5
8E6
330
80F
100
AcDbEntity
  8
0
  6
Continuous
 62
     7
370
    15
100
AcDbLine
 10
1250.302202828389
 20
1290.105719382106
 30
0.0
 11
1250.320726597671
 21
1289.605101350587
 31
0.0
  0
LINE
  5
8E7
330
80F
100
AcDbEntity
  8
0
  6
Continuous
 62
     7
370
    15
100
AcDbLine
 10
1249.893271328207
 20
1290.497975272628
 30
0.0
 11
1245.297077250498
 21
1287.844648909207
 31
0.0
  0
LINE
  5
8E8
330
80F
100
AcDbEntity
  8
0
  6
Continuous
 62
     7
370
    15
100
AcDbLine
 10
1249.893271328207
 20
1290.497975272628
 30
0.0
 11
1250.160916073946
 21
1290.343467249709
 31
0.0
  0
LINE
  5
8E9
330
80F
100
AcDbEntity
  8
0
  6
Continuous
 62
     7
370
    15
100
AcDbLine
 10
1267.51162697989
 20
1259.091984459281
 30
0.0
 11
1263.268986292775
 21
1256.64275936061
 31
0.0
  0
ARC
  5
8EA
330
80F
100
AcDbEntity
  8
0
  6
Continuous
 62
     7
370
    15
100
AcDbCircle
 10
1250.058893192242
 20
1290.75689641664
 30
0.0
 40
0.3073609615137496
100
AcDbArc
 50
182.6054784856238
 51
237.3945216600348
  0
ARC
  5
8EB
330
80F
100
AcDbEntity
  8
0
  6
Continuous
 62
     7
370
    15
100
AcDbCircle
 10
1250.32804579733
 20
1289.110192697521
 30
0.0
 40
0.2793641333598502
100
AcDbArc
 50
181.7381065213068
 51
205.8310328948952
  0
LINE
  5
8EC
330
80F
100
AcDbEntity
  8
0
  6
Continuous
 62
     7
370
    15
100
AcDbLine
 10
1250.048810197034
 20
1289.373196314011
 30
0.0
 11
1250.048810197034
 21
1289.101719295889
 31
0.0
  0
ARC
  5
8ED
330
80F
100
AcDbEntity
  8
0
  6
Continuous
 62
     7
370
    15
100
AcDbCircle
 10
1250.219072313291
 20
1289.589584553384
 30
0.0
 40
0.1028317291902175
100
AcDbArc
 50
305.9424648186798
 51
8.678798600708564
  0
LINE
  5
8EE
330
80F
100
AcDbEntity
  8
0
  6
Continuous
 62
     7
370
    15
100
AcDbLine
 10
1263.540433418404
 20
1255.690599388023
 30
0.0
 11
1268.843734277298
 21
1258.752129807355
 31
0.0
  0
ARC
  5
8EF
330
80F
100
AcDbEntity
  8
0
  6
Continuous
 62
     7
370
    15
100
AcDbCircle
 10
1265.55034655072
 20
1258.737852861945
 30
0.0
 40
3.293418671948372
100
AcDbArc
 50
0.2483775553145885
 51
10.01638681033918
  0
LINE
  5
8F0
330
80F
100
AcDbEntity
  8
0
  6
Continuous
 62
     7
370
    15
100
AcDbLine
 10
1262.469041922384
 20
1257.104556652784
 30
0.0
 11
1266.711682609498
 21
1259.553781751455
 31
0.0
  0
LINE
  5
8F1
330
80F
100
AcDbEntity
  8
0
  6
Continuous
 62
     7
370
    15
100
AcDbLine
 10
1268.843734277298
 20
1257.266409065895
 30
0.0
 11
1263.540433418404
 21
1254.204878646563
 31
0.0
  0
LINE
  5
8F2
330
80F
100
AcDbEntity
  8
0
  6
Continuous
 62
     7
370
    15
100
AcDbLine
 10
1268.843734277298
 20
1257.266409065895
 30
0.0
 11
1268.843734277298
 21
1258.752129807355
 31
0.0
  0
LINE
  5
8F3
330
80F
100
AcDbEntity
  8
0
  6
Continuous
 62
     7
370
    15
100
AcDbLine
 10
1250.048810197034
 20
1289.101719295889
 30
0.0
 11
1245.452616119326
 21
1286.448392932468
 31
0.0
  0
LINE
  5
8F4
330
80F
100
AcDbEntity
  8
0
  6
Continuous
 62
     7
370
    15
100
AcDbLine
 10
1248.026977411542
 20
1292.604611555127
 30
0.0
 11
1242.723676552648
 21
1289.543081135795
 31
0.0
  0
ARC
  5
8F5
330
80F
100
AcDbEntity
  8
0
  6
Continuous
 62
     7
370
    15
100
AcDbCircle
 10
1248.337607021475
 20
1291.917089663695
 30
0.0
 40
0.7544382716727646
100
AcDbArc
 50
54.38182734009629
 51
114.3139521614384
  0
ARC
  5
8F6
330
80F
100
AcDbEntity
  8
0
  6
Continuous
 62
     7
370
    15
100
AcDbCircle
 10
1268.35402365588
 20
1257.212190541326
 30
0.0
 40
0.4927028933706363
100
AcDbArc
 50
304.9943837088041
 51
6.317796684580207
  0
LINE
  5
8F7
330
80F
100
AcDbEntity
  8
0
  6
Continuous
 62
     7
370
    15
100
AcDbLine
 10
1258.944239340695
 20
1259.81181740047
 30
0.0
 11
1259.651346121882
 21
1260.220021456381
 31
0.0
  0
LINE
  5
8F8
330
80F
100
AcDbEntity
  8
0
  6
Continuous
 62
     7
370
    15
100
AcDbLine
 10
1240.867518365165
 20
1287.66270225836
 30
0.0
 11
1240.029681308389
 21
1287.179029220754
 31
0.0
  0
LWPOLYLINE
  5
8F9
330
80F
100
AcDbEntity
  8
0
  6
Continuous
 62
     7
370
    15
100
AcDbPolyline
 90
        9
 70
   128
 43
0.0
 10
1239.496527205427
 20
1287.101235921116
 10
1239.517957709588
 20
1287.068554888982
 10
1239.542407595412
 20
1287.039348976079
 10
1239.568937267498
 20
1287.014740549262
 10
1239.596527205427
 20
1286.99567529657
 10
1239.624117143355
 20
1286.982885884975
 10
1239.650646815441
 20
1286.976863804391
 10
1239.675096701265
 20
1286.977840479998
 10
1239.688873276856
 20
1286.9819884134
  0
LINE
  5
8FA
330
80F
100
AcDbEntity
  8
0
  6
Continuous
 62
     7
370
    15
100
AcDbLine
 10
1239.246526413531
 20
1287.534249993341
 30
0.0
 11
1239.496527205427
 21
1287.101235921116
 31
0.0
  0
LINE
  5
8FB
330
80F
100
AcDbEntity
  8
0
  6
Continuous
 62
     7
370
    15
100
AcDbLine
 10
1240.810765754654
 20
1288.437559698631
 30
0.0
 11
1239.246526413531
 21
1287.534249993341
 31
0.0
  0
LINE
  5
8FC
330
80F
100
AcDbEntity
  8
0
  6
Continuous
 62
     7
370
    15
100
AcDbLine
 10
1239.287486776495
 20
1286.750272918945
 30
0.0
 11
1238.44964971972
 21
1286.266599881338
 31
0.0
  0
LINE
  5
8FD
330
80F
100
AcDbEntity
  8
0
  6
Continuous
 62
     7
370
    15
100
AcDbLine
 10
1237.707455187827
 20
1285.83784357953
 30
0.0
 11
1236.86961813105
 21
1285.354170541922
 31
0.0
  0
LINE
  5
8FE
330
80F
100
AcDbEntity
  8
0
  6
Continuous
 62
     7
370
    15
100
AcDbLine
 10
1236.127423599158
 20
1284.925414240115
 30
0.0
 11
1235.28958654238
 21
1284.441741202507
 31
0.0
  0
LINE
  5
8FF
330
80F
100
AcDbEntity
  8
0
  6
Continuous
 62
     7
370
    15
100
AcDbLine
 10
1239.496527205427
 20
1287.101235921116
 30
0.0
 11
1234.900333127719
 21
1284.447909557695
 31
0.0
  0
LINE
  5
900
330
80F
100
AcDbEntity
  8
0
  6
Continuous
 62
     7
370
    15
100
AcDbLine
 10
1239.246526413531
 20
1287.534249993341
 30
0.0
 11
1234.650332335823
 21
1284.88092362992
 31
0.0
  0
LINE
  5
901
330
80F
100
AcDbEntity
  8
0
  6
Continuous
 62
     8
370
    15
100
AcDbLine
 10
1249.2568706522
 20
1285.558708836008
 30
0.0
 11
1249.398292006569
 21
1285.640349646112
 31
0.0
  0
LINE
  5
902
330
80F
100
AcDbEntity
  8
0
  6
Continuous
 62
     8
370
    15
100
AcDbLine
 10
1258.811934063312
 20
1268.366021776929
 30
0.0
 11
1258.104827291465
 21
1267.957817726409
 31
0.0
  0
LINE
  5
903
330
80F
100
AcDbEntity
  8
0
  6
Continuous
 62
     8
370
    15
100
AcDbLine
 10
1248.98922590646
 20
1285.713216858928
 30
0.0
 11
1249.398292008437
 21
1285.94936569303
 31
0.0
  0
LINE
  5
904
330
80F
100
AcDbEntity
  8
0
  6
Continuous
 62
     8
370
    15
100
AcDbLine
 10
1248.959910427135
 20
1284.260366863525
 30
0.0
 11
1249.101331781505
 21
1284.342007673628
 31
0.0
  0
LINE
  5
905
330
80F
100
AcDbEntity
  8
0
  6
Continuous
 62
     8
370
    15
100
AcDbLine
 10
1247.828539577238
 20
1284.913493352982
 30
0.0
 11
1248.842538036047
 21
1285.498862203327
 31
0.0
  0
LINE
  5
906
330
80F
100
AcDbEntity
  8
0
  6
Continuous
 62
     8
370
    15
100
AcDbLine
 10
1251.166064747651
 20
1271.963480080032
 30
0.0
 11
1252.580508178181
 21
1272.780020891917
 31
0.0
  0
LINE
  5
907
330
80F
100
AcDbEntity
  8
0
  6
Continuous
 62
     8
370
    15
100
AcDbLine
 10
1247.687118221001
 20
1285.485296475787
 30
0.0
 11
1247.828788255269
 21
1285.567080845742
 31
0.0
  0
LINE
  5
908
330
80F
100
AcDbEntity
  8
0
  6
Continuous
 62
     8
370
    15
100
AcDbLine
 10
1246.86682967983
 20
1285.631958279555
 30
0.0
 11
1246.725408325461
 21
1285.550317469451
 31
0.0
  0
LINE
  5
909
330
80F
100
AcDbEntity
  8
0
  6
Continuous
 62
     8
370
    15
100
AcDbLine
 10
1246.608035934373
 20
1286.788812809253
 30
0.0
 11
1245.594037475563
 21
1286.203443958908
 31
0.0
  0
LINE
  5
90A
330
80F
100
AcDbEntity
  8
0
  6
Continuous
 62
     8
370
    15
100
AcDbLine
 10
1245.594286153596
 20
1286.857031451669
 30
0.0
 11
1245.452616119326
 21
1286.775247081713
 31
0.0
  0
LINE
  5
90B
330
80F
100
AcDbEntity
  8
0
  6
Continuous
 62
     8
370
    15
100
AcDbLine
 10
1262.371576297385
 20
1256.107689380481
 30
0.0
 11
1262.018022918133
 21
1255.903587366774
 31
0.0
  0
LINE
  5
90C
330
80F
100
AcDbEntity
  8
0
  6
Continuous
 62
     8
370
    15
100
AcDbLine
 10
1252.317596105149
 20
1267.121587933168
 30
0.0
 11
1251.011993705861
 21
1266.367879711189
 31
0.0
  0
LINE
  5
90D
330
80F
100
AcDbEntity
  8
0
  6
Continuous
 62
     8
370
    15
100
AcDbLine
 10
1259.2687875425
 20
1261.579897805751
 30
0.0
 11
1258.621500158461
 21
1261.206226752757
 31
0.0
  0
LINE
  5
90E
330
80F
100
AcDbEntity
  8
0
  6
Continuous
 62
     8
370
    15
100
AcDbLine
 10
1262.282326400037
 20
1256.779498555259
 30
0.0
 11
1261.39153111779
 21
1256.265253384834
 31
0.0
  0
LINE
  5
90F
330
80F
100
AcDbEntity
  8
0
  6
Continuous
 62
     8
370
    15
100
AcDbLine
 10
1258.944239340695
 20
1260.613196574857
 30
0.0
 11
1259.559618605833
 21
1260.968447462893
 31
0.0
  0
LINE
  5
910
330
80F
100
AcDbEntity
  8
0
  6
Continuous
 62
     8
370
    15
100
AcDbLine
 10
1251.166352082849
 20
1273.596395828723
 30
0.0
 11
1249.398297794687
 21
1272.575719813867
 31
0.0
  0
LINE
  5
911
330
80F
100
AcDbEntity
  8
0
  6
Continuous
 62
     8
370
    15
100
AcDbLine
 10
1259.534482310916
 20
1258.619436900209
 30
0.0
 11
1259.649193623314
 21
1258.685658331294
 31
0.0
  0
LINE
  5
912
330
80F
100
AcDbEntity
  8
0
  6
Continuous
 62
     8
370
    15
100
AcDbLine
 10
1258.339420036698
 20
1259.065998157312
 30
0.0
 11
1259.651346121882
 21
1259.823356965453
 31
0.0
  0
LINE
  5
913
330
80F
100
AcDbEntity
  8
0
  6
Continuous
 62
     8
370
    15
100
AcDbLine
 10
1250.812511357058
 20
1270.149438712513
 30
0.0
 11
1249.398297794687
 21
1269.333030600691
 31
0.0
  0
LINE
  5
914
330
80F
100
AcDbEntity
  8
0
  6
Continuous
 62
     8
370
    15
100
AcDbLine
 10
1241.15382245592
 20
1286.914341086035
 30
0.0
 11
1240.538322474683
 21
1286.559020510078
 31
0.0
  0
LINE
  5
915
330
80F
100
AcDbEntity
  8
0
  6
Continuous
 62
     8
370
    15
100
AcDbLine
 10
1240.225224191811
 20
1287.071071814966
 30
0.0
 11
1240.866922762134
 21
1287.441516514477
 31
0.0
  0
LINE
  5
916
330
80F
100
AcDbEntity
  8
0
  6
Continuous
 62
     8
370
    15
100
AcDbLine
 10
1240.546522222299
 20
1286.322897199958
 30
0.0
 11
1241.355665880149
 21
1286.790005890946
 31
0.0
  0
LINE
  5
917
330
80F
100
AcDbEntity
  8
0
  6
Continuous
 62
     8
370
    15
100
AcDbLine
 10
1240.750410482612
 20
1285.747611628665
 30
0.0
 11
1241.750491713651
 21
1286.324946234431
 31
0.0
  0
LINE
  5
918
330
80F
100
AcDbEntity
  8
0
  6
Continuous
 62
     8
370
    15
100
AcDbLine
 10
1240.550264853337
 20
1286.094274026464
 30
0.0
 11
1241.550346117399
 21
1286.671608651293
 31
0.0
  0
LINE
  5
919
330
80F
100
AcDbEntity
  8
0
  6
Continuous
 62
     8
370
    15
100
AcDbLine
 10
1239.57379086725
 20
1286.001911746619
 30
0.0
 11
1238.958290886013
 21
1285.646591170662
 31
0.0
  0
LINE
  5
91A
330
80F
100
AcDbEntity
  8
0
  6
Continuous
 62
     8
370
    15
100
AcDbLine
 10
1238.645192603141
 20
1286.15864247555
 30
0.0
 11
1239.286891173464
 21
1286.52908717506
 31
0.0
  0
LINE
  5
91B
330
80F
100
AcDbEntity
  8
0
  6
Continuous
 62
     8
370
    15
100
AcDbLine
 10
1238.96649063363
 20
1285.410467860539
 30
0.0
 11
1239.7756342915
 21
1285.87757655154
 31
0.0
  0
LINE
  5
91C
330
80F
100
AcDbEntity
  8
0
  6
Continuous
 62
     8
370
    15
100
AcDbLine
 10
1239.170378893942
 20
1284.835182289249
 30
0.0
 11
1240.170460124981
 21
1285.412516895015
 31
0.0
  0
LINE
  5
91D
330
80F
100
AcDbEntity
  8
0
  6
Continuous
 62
     8
370
    15
100
AcDbLine
 10
1238.970233264668
 20
1285.181844687048
 30
0.0
 11
1239.970314528729
 21
1285.759179311877
 31
0.0
  0
LINE
  5
91E
330
80F
100
AcDbEntity
  8
0
  6
Continuous
 62
     8
370
    15
100
AcDbLine
 10
1237.99375927858
 20
1285.089482407203
 30
0.0
 11
1237.378259297344
 21
1284.734161831246
 31
0.0
  0
LINE
  5
91F
330
80F
100
AcDbEntity
  8
0
  6
Continuous
 62
     8
370
    15
100
AcDbLine
 10
1237.065161014471
 20
1285.246213136134
 30
0.0
 11
1237.706859584795
 21
1285.616657835645
 31
0.0
  0
LINE
  5
920
330
80F
100
AcDbEntity
  8
0
  6
Continuous
 62
     8
370
    15
100
AcDbLine
 10
1237.38645904496
 20
1284.498038521126
 30
0.0
 11
1238.195602702829
 21
1284.965147212126
 31
0.0
  0
LINE
  5
921
330
80F
100
AcDbEntity
  8
0
  6
Continuous
 62
     8
370
    15
100
AcDbLine
 10
1238.590428536312
 20
1284.5000875556
 30
0.0
 11
1237.590347305272
 21
1283.922752949833
 31
0.0
  0
LINE
  5
922
330
80F
100
AcDbEntity
  8
0
  6
Continuous
 62
     8
370
    15
100
AcDbLine
 10
1238.390282940059
 20
1284.846749972462
 30
0.0
 11
1237.390201675998
 21
1284.269415347632
 31
0.0
  0
LINE
  5
923
330
80F
100
AcDbEntity
  8
0
  6
Continuous
 62
     8
370
    15
100
AcDbLine
 10
1236.41372768991
 20
1284.177053067787
 30
0.0
 11
1235.798227708674
 21
1283.821732491831
 31
0.0
  0
LINE
  5
924
330
80F
100
AcDbEntity
  8
0
  6
Continuous
 62
     8
370
    15
100
AcDbLine
 10
1235.485129425802
 20
1284.333783796719
 30
0.0
 11
1236.126827996125
 21
1284.704228496229
 31
0.0
  0
LINE
  5
925
330
80F
100
AcDbEntity
  8
0
  6
Continuous
 62
     8
370
    15
100
AcDbLine
 10
1235.80642745629
 20
1283.585609181708
 30
0.0
 11
1236.615571114181
 21
1284.05271787272
 31
0.0
  0
LINE
  5
926
330
80F
100
AcDbEntity
  8
0
  6
Continuous
 62
     8
370
    15
100
AcDbLine
 10
1237.010396947642
 20
1283.587658216184
 30
0.0
 11
1236.010315716602
 21
1283.010323610418
 31
0.0
  0
LINE
  5
927
330
80F
100
AcDbEntity
  8
0
  6
Continuous
 62
     8
370
    15
100
AcDbLine
 10
1236.81025135139
 20
1283.934320633046
 30
0.0
 11
1235.810170087328
 21
1283.356986008216
 31
0.0
  0
LINE
  5
928
330
80F
100
AcDbEntity
  8
0
  6
Continuous
 62
     8
370
    15
100
AcDbLine
 10
1237.073709401744
 20
1270.896899569719
 30
0.0
 11
1238.407971320936
 21
1271.667152580372
 31
0.0
  0
LINE
  5
929
330
80F
100
AcDbEntity
  8
0
  6
Continuous
 62
     8
370
    15
100
AcDbLine
 10
1237.767573072532
 20
1272.036846620017
 30
0.0
 11
1236.781549874329
 21
1271.467627543864
 31
0.0
  0
LINE
  5
92A
330
80F
100
AcDbEntity
  8
0
  6
Continuous
 62
     8
370
    15
100
AcDbLine
 10
1235.37302594235
 20
1272.567548767874
 30
0.0
 11
1236.110648161374
 21
1272.993369011077
 31
0.0
  0
LINE
  5
92B
330
80F
100
AcDbEntity
  8
0
  6
Continuous
 62
     8
370
    15
100
AcDbLine
 10
1239.985500892818
 20
1270.756464143073
 30
0.0
 11
1237.073709401744
 21
1269.075522695121
 31
0.0
  0
LINE
  5
92C
330
80F
100
AcDbEntity
  8
0
  6
Continuous
 62
     8
370
    15
100
AcDbLine
 10
1235.397606474436
 20
1273.404999215151
 30
0.0
 11
1235.256162131384
 21
1273.323345133962
 31
0.0
  0
LINE
  5
92D
330
80F
100
AcDbEntity
  8
0
  6
Continuous
 62
     8
370
    15
100
AcDbLine
 10
1235.256162131384
 20
1272.795839957531
 30
0.0
 11
1235.854488862012
 21
1273.141246626935
 31
0.0
  0
ENDBLK
  5
811
330
80F
100
AcDbEntity
  8
0
100
AcDbBlockEnd
  0
ENDSEC
  0
SECTION
  2
ENTITIES
  0
INSERT
  5
745
330
1F
100
AcDbEntity
  8
0
100
AcDbBlockReference
  2
1
 10
0.0
 20
0.0
 30
0.0
  0
INSERT
  5
7DF
330
1F
100
AcDbEntity
  8
0
100
AcDbBlockReference
  2
2
 10
0.0
 20
0.0
 30
0.0
  0
INSERT
  5
80E
330
1F
100
AcDbEntity
  8
0
100
AcDbBlockReference
  2
3
 10
0.0
 20
0.0
 30
0.0
  0
INSERT
  5
92E
330
1F
100
AcDbEntity
  8
0
100
AcDbBlockReference
  2
4
 10
0.0
 20
0.0
 30
0.0
  0
ENDSEC
  0
SECTION
  2
OBJECTS
  0
DICTIONARY
  5
C
330
0
100
AcDbDictionary
281
     1
  3
ACAD_COLOR
350
6B
  3
ACAD_GROUP
350
D
  3
ACAD_LAYOUT
350
1A
  3
ACAD_MATERIAL
350
6A
  3
ACAD_MLEADERSTYLE
350
12D
  3
ACAD_MLINESTYLE
350
17
  3
ACAD_PLOTSETTINGS
350
19
  3
ACAD_PLOTSTYLENAME
350
E
  3
ACAD_SCALELIST
350
10C
  3
ACAD_TABLESTYLE
350
7E
  3
ACAD_VISUALSTYLE
350
EF
  3
ACDB_RECOMPOSE_DATA
350
15D
  3
AcDbVariableDictionary
350
5E
  3
DWGPROPS
350
93C
  0
DICTIONARY
  5
13C
330
10
100
AcDbDictionary
280
     1
281
     1
  3
ADSK_XREC_LAYER_RECONCILED
360
92F
  0
DICTIONARY
  5
6B
102
{ACAD_REACTORS
330
C
102
}
330
C
100
AcDbDictionary
281
     1
  0
DICTIONARY
  5
D
102
{ACAD_REACTORS
330
C
102
}
330
C
100
AcDbDictionary
281
     1
  0
DICTIONARY
  5
1A
102
{ACAD_REACTORS
330
C
102
}
330
C
100
AcDbDictionary
281
     1
  3
Layout1
350
D3
  3
Layout2
350
D7
  3
Model
350
22
  0
DICTIONARY
  5
6A
102
{ACAD_REACTORS
330
C
102
}
330
C
100
AcDbDictionary
281
     1
  3
ByBlock
350
ED
  3
ByLayer
350
EC
  3
Global
350
EE
  0
DICTIONARY
  5
12D
102
{ACAD_REACTORS
330
C
102
}
330
C
100
AcDbDictionary
281
     1
  3
Annotative
350
13B
  3
Standard
350
12E
  0
DICTIONARY
  5
17
102
{ACAD_REACTORS
330
C
102
}
330
C
100
AcDbDictionary
281
     1
  3
Standard
350
18
  0
DICTIONARY
  5
19
102
{ACAD_REACTORS
330
C
102
}
330
C
100
AcDbDictionary
281
     1
  0
ACDBDICTIONARYWDFLT
  5
E
102
{ACAD_REACTORS
330
C
102
}
330
C
100
AcDbDictionary
281
     1
  3
Normal
350
F
100
AcDbDictionaryWithDefault
340
F
  0
DICTIONARY
  5
10C
102
{ACAD_REACTORS
330
C
102
}
330
C
100
AcDbDictionary
281
     1
  3
A0
350
10D
  3
A1
350
188
  3
A2
350
189
  3
A3
350
18A
  3
A4
350
18B
  3
A5
350
18C
  3
A6
350
18D
  3
A7
350
18E
  3
A8
350
18F
  3
A9
350
190
  3
B0
350
191
  3
B1
350
192
  3
B2
350
193
  3
B3
350
194
  3
B4
350
195
  3
B5
350
196
  3
B6
350
197
  3
B7
350
198
  3
B8
350
199
  3
B9
350
19A
  3
C0
350
19B
  3
C1
350
19C
  3
C2
350
19D
  3
C3
350
19E
  3
C4
350
19F
  3
C5
350
1A0
  3
C6
350
1A1
  3
C7
350
1A2
  3
C8
350
1A3
  3
C9
350
1A4
  3
D0
350
1A5
  3
D1
350
1A6
  3
D2
350
1A7
  0
DICTIONARY
  5
7E
102
{ACAD_REACTORS
330
C
102
}
330
C
100
AcDbDictionary
281
     1
  3
Standard
350
7F
  0
DICTIONARY
  5
EF
102
{ACAD_REACTORS
330
C
102
}
330
C
100
AcDbDictionary
281
     1
  3
2dWireframe
350
F5
  3
3D Hidden
350
F7
  3
3dWireframe
350
F6
  3
Basic
350
F4
  3
Brighten
350
FB
  3
ColorChange
350
FF
  3
Conceptual
350
F8
  3
Dim
350
FA
  3
Facepattern
350
FE
  3
Flat
350
F0
  3
FlatWithEdges
350
F1
  3
Gouraud
350
F2
  3
GouraudWithEdges
350
F3
  3
Linepattern
350
FD
  3
Realistic
350
F9
  3
Thicken
350
FC
  0
XRECORD
  5
15D
102
{ACAD_REACTORS
330
C
102
}
330
C
100
AcDbXrecord
280
     1
 90
        1
330
7F
  0
DICTIONARY
  5
5E
102
{ACAD_REACTORS
330
C
102
}
330
C
100
AcDbDictionary
281
     1
  3
CANNOSCALE
350
146
  3
CMLEADERSTYLE
350
145
  3
CTABLESTYLE
350
84
  3
DIMASSOC
350
5F
  3
HIDETEXT
350
63
  3
INDEXCTL
350
938
  3
LIGHTINGUNITS
350
936
  3
MSLTSCALE
350
935
  3
PSOLHEIGHT
350
93A
  3
PSOLWIDTH
350
939
  3
SORTENTS
350
937
  0
XRECORD
  5
93C
102
{ACAD_REACTORS
330
C
102
}
330
C
100
AcDbXrecord
280
     1
  1
DWGPROPS COOKIE
  2

  3

  4

  6

  7

  8
orhan kara
  9

300
=
301
=
302
=
303
=
304
=
305
=
306
=
307
=
308
=
309
=
 40
0.0004457060185185
 41
2458589.548170428
 42
2458956.383814074
  1

 90
        0
  0
XRECORD
  5
92F
102
{ACAD_REACTORS
330
13C
102
}
330
13C
100
AcDbXrecord
280
     1
290
     1
  0
LAYOUT
  5
D3
102
{ACAD_XDICTIONARY
360
940
102
}
102
{ACAD_REACTORS
330
1A
102
}
330
1A
100
AcDbPlotSettings
  1

  2
C:\Documents and Settings\basas\Application Data\Autodesk\AutoCAD 2005\R16.1\enu\plotters\Default Windows System Printer.pc3
  4

  6

 40
0.0
 41
0.0
 42
0.0
 43
0.0
 44
0.0
 45
0.0
 46
0.0
 47
0.0
 48
0.0
 49
0.0
140
0.0
141
0.0
142
1.0
143
1.0
 70
   688
 72
     0
 73
     0
 74
     5
  7

 75
    16
147
1.0
148
0.0
149
0.0
100
AcDbLayout
  1
Layout1
 70
     1
 71
     1
 10
0.0
 20
0.0
 11
12.0
 21
9.0
 12
0.0
 22
0.0
 32
0.0
 14
0.0
 24
0.0
 34
0.0
 15
0.0
 25
0.0
 35
0.0
146
0.0
 13
0.0
 23
0.0
 33
0.0
 16
1.0
 26
0.0
 36
0.0
 17
0.0
 27
1.0
 37
0.0
 76
     0
330
D2
  0
LAYOUT
  5
D7
102
{ACAD_XDICTIONARY
360
942
102
}
102
{ACAD_REACTORS
330
1A
102
}
330
1A
100
AcDbPlotSettings
  1

  2
C:\Documents and Settings\basas\Application Data\Autodesk\AutoCAD 2005\R16.1\enu\plotters\Default Windows System Printer.pc3
  4

  6

 40
0.0
 41
0.0
 42
0.0
 43
0.0
 44
0.0
 45
0.0
 46
0.0
 47
0.0
 48
0.0
 49
0.0
140
0.0
141
0.0
142
1.0
143
1.0
 70
   688
 72
     0
 73
     0
 74
     5
  7

 75
    16
147
1.0
148
0.0
149
0.0
100
AcDbLayout
  1
Layout2
 70
     1
 71
     2
 10
0.0
 20
0.0
 11
12.0
 21
9.0
 12
0.0
 22
0.0
 32
0.0
 14
0.0
 24
0.0
 34
0.0
 15
0.0
 25
0.0
 35
0.0
146
0.0
 13
0.0
 23
0.0
 33
0.0
 16
1.0
 26
0.0
 36
0.0
 17
0.0
 27
1.0
 37
0.0
 76
     0
330
D6
  0
LAYOUT
  5
22
102
{ACAD_XDICTIONARY
360
93D
102
}
102
{ACAD_REACTORS
330
1A
102
}
330
1A
100
AcDbPlotSettings
  1

  2
none_device
  4
ISO_A4_(210.00_x_297.00_MM)
  6

 40
7.5
 41
20.0
 42
7.5
 43
20.0
 44
210.0
 45
297.0
 46
11.54999923706054
 47
-13.65000009536743
 48
0.0
 49
0.0
140
0.0
141
0.0
142
1.0
143
8.704084754739808
 70
 11952
 72
     1
 73
     0
 74
     0
  7

 75
     0
147
0.1148885871608098
148
0.0
149
0.0
100
AcDbLayout
  1
Model
 70
     1
 71
     0
 10
0.0
 20
0.0
 11
12.0
 21
9.0
 12
0.0
 22
0.0
 32
0.0
 14
0.0
 24
0.0
 34
0.0
 15
0.0
 25
0.0
 35
0.0
146
0.0
 13
0.0
 23
0.0
 33
0.0
 16
1.0
 26
0.0
 36
0.0
 17
0.0
 27
1.0
 37
0.0
 76
     0
330
1F
331
EA
1001
ACAD_PSEXT
1000
None
1000
None
1000
Not applicable
1000
The layout will not be plotted unless a new plotter configuration name is selected.
1070
     0
  0
MATERIAL
  5
ED
102
{ACAD_XDICTIONARY
360
946
102
}
102
{ACAD_REACTORS
330
6A
102
}
330
6A
100
AcDbMaterial
  1
ByBlock
  0
MATERIAL
  5
EC
102
{ACAD_XDICTIONARY
360
944
102
}
102
{ACAD_REACTORS
330
6A
102
}
330
6A
100
AcDbMaterial
  1
ByLayer
  0
MATERIAL
  5
EE
102
{ACAD_XDICTIONARY
360
173
102
}
102
{ACAD_REACTORS
330
6A
102
}
330
6A
100
AcDbMaterial
  1
Global
 43
0.0007999999797903
 43
0.0
 43
0.0
 43
0.0
 43
0.0
 43
0.0007999999797903
 43
0.0
 43
0.0
 43
0.0
 43
0.0
 43
1.0
 43
0.0
 43
0.0
 43
0.0
 43
0.0
 43
1.0
 49
0.0007999999797903
 49
0.0
 49
0.0
 49
0.0
 49
0.0
 49
0.0007999999797903
 49
0.0
 49
0.0
 49
0.0
 49
0.0
 49
1.0
 49
0.0
 49
0.0
 49
0.0
 49
0.0
 49
1.0
142
0.0007999999797903
142
0.0
142
0.0
142
0.0
142
0.0
142
0.0007999999797903
142
0.0
142
0.0
142
0.0
142
0.0
142
1.0
142
0.0
142
0.0
142
0.0
142
0.0
142
1.0
144
0.0007999999797903
144
0.0
144
0.0
144
0.0
144
0.0
144
0.0007999999797903
144
0.0
144
0.0
144
0.0
144
0.0
144
1.0
144
0.0
144
0.0
144
0.0
144
0.0
144
1.0
1001
ACAD
1070
    -1
1070
     3
1070
     0
1000

1071
        0
1070
     0
  0
MLEADERSTYLE
  5
13B
102
{ACAD_REACTORS
330
12D
102
}
330
12D
100
AcDbMLeaderStyle
170
     2
171
     1
172
     0
 90
        2
 40
0.0
 41
0.0
173
     1
 91
-1056964608
340
14
 92
       -2
290
     1
 42
2.0
291
     1
 43
8.0
  3
Standard
 44
4.0
300

342
11
174
     1
178
     1
175
     1
176
     0
 93
-1056964608
 45
4.0
292
     0
297
     0
 46
4.0
 94
-1056964608
 47
1.0
 49
1.0
140
1.0
293
     1
141
0.0
294
     1
177
     0
142
1.0
295
     0
296
     1
143
3.75
1001
ACAD_MLEADERVER
1070
     2
  0
MLEADERSTYLE
  5
12E
102
{ACAD_REACTORS
330
12D
102
}
330
12D
100
AcDbMLeaderStyle
170
     2
171
     1
172
     0
 90
        2
 40
0.0
 41
0.0
173
     1
 91
-1056964608
340
14
 92
       -2
290
     1
 42
2.0
291
     1
 43
8.0
  3
Standard
 44
4.0
300

342
11
174
     1
178
     1
175
     1
176
     0
 93
-1056964608
 45
4.0
292
     0
297
     0
 46
4.0
 94
-1056964608
 47
1.0
 49
1.0
140
1.0
293
     1
141
0.0
294
     1
177
     0
142
1.0
295
     0
296
     0
143
3.75
1001
ACAD_MLEADERVER
1070
     2
  0
MLINESTYLE
  5
18
102
{ACAD_REACTORS
330
17
102
}
330
17
100
AcDbMlineStyle
  2
STANDARD
 70
     0
  3

 62
   256
 51
90.0
 52
90.0
 71
     2
 49
0.5
 62
   256
  6
BYLAYER
 49
-0.5
 62
   256
  6
BYLAYER
  0
ACDBPLACEHOLDER
  5
F
102
{ACAD_REACTORS
330
E
102
}
330
E
  0
SCALE
  5
10D
102
{ACAD_REACTORS
330
10C
102
}
330
10C
100
AcDbScale
 70
     0
300
1:1
140
1.0
141
1.0
290
     1
  0
SCALE
  5
188
102
{ACAD_REACTORS
330
10C
102
}
330
10C
100
AcDbScale
 70
     0
300
1:2
140
1.0
141
2.0
290
     0
  0
SCALE
  5
189
102
{ACAD_REACTORS
330
10C
102
}
330
10C
100
AcDbScale
 70
     0
300
1:4
140
1.0
141
4.0
290
     0
  0
SCALE
  5
18A
102
{ACAD_REACTORS
330
10C
102
}
330
10C
100
AcDbScale
 70
     0
300
1:5
140
1.0
141
5.0
290
     0
  0
SCALE
  5
18B
102
{ACAD_REACTORS
330
10C
102
}
330
10C
100
AcDbScale
 70
     0
300
1:8
140
1.0
141
8.0
290
     0
  0
SCALE
  5
18C
102
{ACAD_REACTORS
330
10C
102
}
330
10C
100
AcDbScale
 70
     0
300
1:10
140
1.0
141
10.0
290
     0
  0
SCALE
  5
18D
102
{ACAD_REACTORS
330
10C
102
}
330
10C
100
AcDbScale
 70
     0
300
1:16
140
1.0
141
16.0
290
     0
  0
SCALE
  5
18E
102
{ACAD_REACTORS
330
10C
102
}
330
10C
100
AcDbScale
 70
     0
300
1:20
140
1.0
141
20.0
290
     0
  0
SCALE
  5
18F
102
{ACAD_REACTORS
330
10C
102
}
330
10C
100
AcDbScale
 70
     0
300
1:30
140
1.0
141
30.0
290
     0
  0
SCALE
  5
190
102
{ACAD_REACTORS
330
10C
102
}
330
10C
100
AcDbScale
 70
     0
300
1:40
140
1.0
141
40.0
290
     0
  0
SCALE
  5
191
102
{ACAD_REACTORS
330
10C
102
}
330
10C
100
AcDbScale
 70
     0
300
1:50
140
1.0
141
50.0
290
     0
  0
SCALE
  5
192
102
{ACAD_REACTORS
330
10C
102
}
330
10C
100
AcDbScale
 70
     0
300
1:100
140
1.0
141
100.0
290
     0
  0
SCALE
  5
193
102
{ACAD_REACTORS
330
10C
102
}
330
10C
100
AcDbScale
 70
     0
300
2:1
140
2.0
141
1.0
290
     0
  0
SCALE
  5
194
102
{ACAD_REACTORS
330
10C
102
}
330
10C
100
AcDbScale
 70
     0
300
4:1
140
4.0
141
1.0
290
     0
  0
SCALE
  5
195
102
{ACAD_REACTORS
330
10C
102
}
330
10C
100
AcDbScale
 70
     0
300
8:1
140
8.0
141
1.0
290
     0
  0
SCALE
  5
196
102
{ACAD_REACTORS
330
10C
102
}
330
10C
100
AcDbScale
 70
     0
300
10:1
140
10.0
141
1.0
290
     0
  0
SCALE
  5
197
102
{ACAD_REACTORS
330
10C
102
}
330
10C
100
AcDbScale
 70
     0
300
100:1
140
100.0
141
1.0
290
     0
  0
SCALE
  5
198
102
{ACAD_REACTORS
330
10C
102
}
330
10C
100
AcDbScale
 70
     0
300
1/128" = 1'-0"
140
0.0078125
141
12.0
290
     0
  0
SCALE
  5
199
102
{ACAD_REACTORS
330
10C
102
}
330
10C
100
AcDbScale
 70
     0
300
1/64" = 1'-0"
140
0.015625
141
12.0
290
     0
  0
SCALE
  5
19A
102
{ACAD_REACTORS
330
10C
102
}
330
10C
100
AcDbScale
 70
     0
300
1/32" = 1'-0"
140
0.03125
141
12.0
290
     0
  0
SCALE
  5
19B
102
{ACAD_REACTORS
330
10C
102
}
330
10C
100
AcDbScale
 70
     0
300
1/16" = 1'-0"
140
0.0625
141
12.0
290
     0
  0
SCALE
  5
19C
102
{ACAD_REACTORS
330
10C
102
}
330
10C
100
AcDbScale
 70
     0
300
3/32" = 1'-0"
140
0.09375
141
12.0
290
     0
  0
SCALE
  5
19D
102
{ACAD_REACTORS
330
10C
102
}
330
10C
100
AcDbScale
 70
     0
300
1/8" = 1'-0"
140
0.125
141
12.0
290
     0
  0
SCALE
  5
19E
102
{ACAD_REACTORS
330
10C
102
}
330
10C
100
AcDbScale
 70
     0
300
3/16" = 1'-0"
140
0.1875
141
12.0
290
     0
  0
SCALE
  5
19F
102
{ACAD_REACTORS
330
10C
102
}
330
10C
100
AcDbScale
 70
     0
300
1/4" = 1'-0"
140
0.25
141
12.0
290
     0
  0
SCALE
  5
1A0
102
{ACAD_REACTORS
330
10C
102
}
330
10C
100
AcDbScale
 70
     0
300
3/8" = 1'-0"
140
0.375
141
12.0
290
     0
  0
SCALE
  5
1A1
102
{ACAD_REACTORS
330
10C
102
}
330
10C
100
AcDbScale
 70
     0
300
1/2" = 1'-0"
140
0.5
141
12.0
290
     0
  0
SCALE
  5
1A2
102
{ACAD_REACTORS
330
10C
102
}
330
10C
100
AcDbScale
 70
     0
300
3/4" = 1'-0"
140
0.75
141
12.0
290
     0
  0
SCALE
  5
1A3
102
{ACAD_REACTORS
330
10C
102
}
330
10C
100
AcDbScale
 70
     0
300
1" = 1'-0"
140
1.0
141
12.0
290
     0
  0
SCALE
  5
1A4
102
{ACAD_REACTORS
330
10C
102
}
330
10C
100
AcDbScale
 70
     0
300
1-1/2" = 1'-0"
140
1.5
141
12.0
290
     0
  0
SCALE
  5
1A5
102
{ACAD_REACTORS
330
10C
102
}
330
10C
100
AcDbScale
 70
     0
300
3" = 1'-0"
140
3.0
141
12.0
290
     0
  0
SCALE
  5
1A6
102
{ACAD_REACTORS
330
10C
102
}
330
10C
100
AcDbScale
 70
     0
300
6" = 1'-0"
140
6.0
141
12.0
290
     0
  0
SCALE
  5
1A7
102
{ACAD_REACTORS
330
10C
102
}
330
10C
100
AcDbScale
 70
     0
300
1'-0" = 1'-0"
140
12.0
141
12.0
290
     0
  0
TABLESTYLE
  5
7F
102
{ACAD_XDICTIONARY
360
162
102
}
102
{ACAD_REACTORS
330
7E
102
}
330
7E
100
AcDbTableStyle
  3
Standard
 70
     0
 71
     0
 40
1.5
 41
1.5
280
     0
281
     0
  7
Standard
140
4.5
170
     2
 62
     0
 63
     7
283
     0
274
    -2
284
     1
 64
     0
275
    -2
285
     1
 65
     0
276
    -2
286
     1
 66
     0
277
    -2
287
     1
 67
     0
278
    -2
288
     1
 68
     0
279
    -2
289
     1
 69
     0
  7
Standard
140
6.0
170
     5
 62
     0
 63
     7
283
     0
274
    -2
284
     1
 64
     0
275
    -2
285
     1
 65
     0
276
    -2
286
     1
 66
     0
277
    -2
287
     1
 67
     0
278
    -2
288
     1
 68
     0
279
    -2
289
     1
 69
     0
  7
Standard
140
4.5
170
     5
 62
     0
 63
     7
283
     0
274
    -2
284
     1
 64
     0
275
    -2
285
     1
 65
     0
276
    -2
286
     1
 66
     0
277
    -2
287
     1
 67
     0
278
    -2
288
     1
 68
     0
279
    -2
289
     1
 69
     0
  0
VISUALSTYLE
  5
F5
102
{ACAD_REACTORS
330
EF
102
}
330
EF
100
AcDbVisualStyle
  2
2dWireframe
 70
     4
 71
     0
 72
     2
 73
     1
 90
        0
 40
-0.6
 41
-30.0
 62
     5
 63
     7
 74
     1
 91
        4
 64
     7
 65
   257
 75
     1
175
     1
 42
1.0
 92
        0
 66
   257
 43
1.0
 76
     1
 77
     6
 78
     2
 67
     7
 79
     5
170
     0
171
     0
290
     0
174
     0
 93
        1
 44
0.0
173
     0
291
     0
 45
0.0
1001
ACAD
1000
AcDbSavedByObjectVersion
1070
     0
  0
VISUALSTYLE
  5
F7
102
{ACAD_REACTORS
330
EF
102
}
330
EF
100
AcDbVisualStyle
  2
3D Hidden
 70
     6
 71
     1
 72
     2
 73
     2
 90
        0
 40
-0.6
 41
-30.0
 62
     5
 63
     7
 74
     2
 91
        2
 64
     7
 65
   257
 75
     2
175
     1
 42
40.0
 92
        0
 66
   257
 43
1.0
 76
     1
 77
     6
 78
     2
 67
     7
 79
     3
170
     0
171
     0
290
     0
174
     0
 93
        1
 44
0.0
173
     0
291
     0
 45
0.0
1001
ACAD
1000
AcDbSavedByObjectVersion
1070
     0
  0
VISUALSTYLE
  5
F6
102
{ACAD_REACTORS
330
EF
102
}
330
EF
100
AcDbVisualStyle
  2
3dWireframe
 70
     5
 71
     0
 72
     2
 73
     1
 90
        0
 40
-0.6
 41
-30.0
 62
     5
 63
     7
 74
     1
 91
        4
 64
     7
 65
   257
 75
     1
175
     1
 42
1.0
 92
        0
 66
   257
 43
1.0
 76
     1
 77
     6
 78
     2
 67
     7
 79
     5
170
     0
171
     0
290
     0
174
     0
 93
        1
 44
0.0
173
     0
291
     0
 45
0.0
1001
ACAD
1000
AcDbSavedByObjectVersion
1070
     0
  0
VISUALSTYLE
  5
F4
102
{ACAD_REACTORS
330
EF
102
}
330
EF
100
AcDbVisualStyle
  2
Basic
 70
     7
 71
     1
 72
     0
 73
     1
 90
        0
 40
-0.6
 41
-30.0
 62
     5
 63
     7
 74
     0
 91
        4
 64
     7
 65
   257
 75
     1
175
     1
 42
1.0
 92
        8
 66
     7
 43
1.0
 76
     1
 77
     6
 78
     2
 67
     7
 79
     5
170
     0
171
     0
290
     0
174
     0
 93
        1
 44
0.0
173
     0
291
     1
 45
0.0
1001
ACAD
1000
AcDbSavedByObjectVersion
1070
     0
  0
VISUALSTYLE
  5
FB
102
{ACAD_REACTORS
330
EF
102
}
330
EF
100
AcDbVisualStyle
  2
Brighten
 70
    12
 71
     2
 72
     2
 73
     1
 90
        0
 40
-0.6
 41
-30.0
 62
     5
 63
     7
 74
     1
 91
        4
 64
     7
 65
   257
 75
     1
175
     1
 42
1.0
 92
        8
 66
     7
 43
1.0
 76
     1
 77
     6
 78
     2
 67
     7
 79
     5
170
     0
171
     0
290
     0
174
     0
 93
        1
 44
50.0
173
     0
291
     1
 45
0.0
1001
ACAD
1000
AcDbSavedByObjectVersion
1070
     0
  0
VISUALSTYLE
  5
FF
102
{ACAD_REACTORS
330
EF
102
}
330
EF
100
AcDbVisualStyle
  2
ColorChange
 70
    16
 71
     2
 72
     2
 73
     3
 90
        0
 40
-0.6
 41
-30.0
 62
     5
 63
     8
 74
     1
 91
        4
 64
     7
 65
   257
 75
     1
175
     1
 42
1.0
 92
        8
 66
     8
 43
1.0
 76
     1
 77
     6
 78
     2
 67
     7
 79
     5
170
     0
171
     0
290
     0
174
     0
 93
        1
 44
0.0
173
     0
291
     1
 45
0.0
1001
ACAD
1000
AcDbSavedByObjectVersion
1070
     0
  0
VISUALSTYLE
  5
F8
102
{ACAD_REACTORS
330
EF
102
}
330
EF
100
AcDbVisualStyle
  2
Conceptual
 70
     9
 71
     3
 72
     2
 73
     1
 90
        0
 40
-0.6
 41
-30.0
 62
     5
 63
     7
 74
     2
 91
        2
 64
     7
 65
   257
 75
     1
175
     1
 42
40.0
 92
        8
 66
     7
 43
1.0
 76
     1
 77
     6
 78
     2
 67
     7
 79
     3
170
     0
171
     0
290
     0
174
     0
 93
        1
 44
0.0
173
     0
291
     0
 45
0.0
1001
ACAD
1000
AcDbSavedByObjectVersion
1070
     0
  0
VISUALSTYLE
  5
FA
102
{ACAD_REACTORS
330
EF
102
}
330
EF
100
AcDbVisualStyle
  2
Dim
 70
    11
 71
     2
 72
     2
 73
     1
 90
        0
 40
-0.6
 41
-30.0
 62
     5
 63
     7
 74
     1
 91
        4
 64
     7
 65
   257
 75
     1
175
     1
 42
1.0
 92
        8
 66
     7
 43
1.0
 76
     1
 77
     6
 78
     2
 67
     7
 79
     5
170
     0
171
     0
290
     0
174
     0
 93
        1
 44
-50.0
173
     0
291
     1
 45
0.0
1001
ACAD
1000
AcDbSavedByObjectVersion
1070
     0
  0
VISUALSTYLE
  5
FE
102
{ACAD_REACTORS
330
EF
102
}
330
EF
100
AcDbVisualStyle
  2
Facepattern
 70
    15
 71
     2
 72
     2
 73
     1
 90
        0
 40
-0.6
 41
-30.0
 62
     5
 63
     7
 74
     1
 91
        4
 64
     7
 65
   257
 75
     1
175
     1
 42
1.0
 92
        8
 66
     7
 43
1.0
 76
     1
 77
     6
 78
     2
 67
     7
 79
     5
170
     0
171
     0
290
     0
174
     0
 93
        1
 44
0.0
173
     0
291
     1
 45
0.0
1001
ACAD
1000
AcDbSavedByObjectVersion
1070
     0
  0
VISUALSTYLE
  5
F0
102
{ACAD_REACTORS
330
EF
102
}
330
EF
100
AcDbVisualStyle
  2
Flat
 70
     0
 71
     2
 72
     1
 73
     1
 90
        2
 40
-0.6
 41
30.0
 62
     5
 63
     7
 74
     0
 91
        4
 64
     7
 65
   257
 75
     1
175
     1
 42
1.0
 92
        8
 66
     7
 43
1.0
 76
     1
 77
     6
 78
     2
 67
     7
 79
     5
170
     0
171
     0
290
     0
174
     0
 93
        1
 44
0.0
173
     0
291
     1
 45
0.0
1001
ACAD
1000
AcDbSavedByObjectVersion
1070
     0
  0
VISUALSTYLE
  5
F1
102
{ACAD_REACTORS
330
EF
102
}
330
EF
100
AcDbVisualStyle
  2
FlatWithEdges
 70
     1
 71
     2
 72
     1
 73
     1
 90
        2
 40
-0.6
 41
30.0
 62
     5
 63
     7
 74
     1
 91
        4
 64
     7
 65
   257
 75
     1
175
     1
 42
1.0
 92
        0
 66
   257
 43
1.0
 76
     1
 77
     6
 78
     2
 67
     7
 79
     5
170
     0
171
     0
290
     0
174
     0
 93
        1
 44
0.0
173
     0
291
     1
 45
0.0
1001
ACAD
1000
AcDbSavedByObjectVersion
1070
     0
  0
VISUALSTYLE
  5
F2
102
{ACAD_REACTORS
330
EF
102
}
330
EF
100
AcDbVisualStyle
  2
Gouraud
 70
     2
 71
     2
 72
     2
 73
     1
 90
        2
 40
-0.6
 41
30.0
 62
     5
 63
     7
 74
     0
 91
        4
 64
     7
 65
   257
 75
     1
175
     1
 42
1.0
 92
        0
 66
     7
 43
1.0
 76
     1
 77
     6
 78
     2
 67
     7
 79
     5
170
     0
171
     0
290
     0
174
     0
 93
        1
 44
0.0
173
     0
291
     1
 45
0.0
1001
ACAD
1000
AcDbSavedByObjectVersion
1070
     0
  0
VISUALSTYLE
  5
F3
102
{ACAD_REACTORS
330
EF
102
}
330
EF
100
AcDbVisualStyle
  2
GouraudWithEdges
 70
     3
 71
     2
 72
     2
 73
     1
 90
        2
 40
-0.6
 41
30.0
 62
     5
 63
     7
 74
     1
 91
        4
 64
     7
 65
   257
 75
     1
175
     1
 42
1.0
 92
        0
 66
   257
 43
1.0
 76
     1
 77
     6
 78
     2
 67
     7
 79
     5
170
     0
171
     0
290
     0
174
     0
 93
        1
 44
0.0
173
     0
291
     1
 45
0.0
1001
ACAD
1000
AcDbSavedByObjectVersion
1070
     0
  0
VISUALSTYLE
  5
FD
102
{ACAD_REACTORS
330
EF
102
}
330
EF
100
AcDbVisualStyle
  2
Linepattern
 70
    14
 71
     2
 72
     2
 73
     1
 90
        0
 40
-0.6
 41
-30.0
 62
     5
 63
     7
 74
     1
 91
        4
 64
     7
 65
   257
 75
     7
175
     7
 42
1.0
 92
        8
 66
     7
 43
1.0
 76
     1
 77
     6
 78
     2
 67
     7
 79
     5
170
     0
171
     0
290
     0
174
     0
 93
        1
 44
0.0
173
     0
291
     1
 45
0.0
1001
ACAD
1000
AcDbSavedByObjectVersion
1070
     0
  0
VISUALSTYLE
  5
F9
102
{ACAD_REACTORS
330
EF
102
}
330
EF
100
AcDbVisualStyle
  2
Realistic
 70
     8
 71
     2
 72
     2
 73
     1
 90
        0
 40
-0.6
 41
-30.0
 62
     5
 63
     7
 74
     1
 91
        0
 64
     7
 65
   257
 75
     1
175
     1
 42
1.0
 92
        8
 66
     8
 43
1.0
 76
     1
 77
     6
 78
     2
 67
     7
 79
     5
170
     0
171
     0
290
     0
174
     0
 93
       13
 44
0.0
173
     0
291
     0
 45
0.0
1001
ACAD
1000
AcDbSavedByObjectVersion
1070
     0
  0
VISUALSTYLE
  5
FC
102
{ACAD_REACTORS
330
EF
102
}
330
EF
100
AcDbVisualStyle
  2
Thicken
 70
    13
 71
     2
 72
     2
 73
     1
 90
        0
 40
-0.6
 41
-30.0
 62
     5
 63
     7
 74
     1
 91
        4
 64
     7
 65
   257
 75
     1
175
     1
 42
1.0
 92
       12
 66
     7
 43
1.0
 76
     1
 77
     6
 78
     2
 67
     7
 79
     5
170
     0
171
     0
290
     0
174
     0
 93
        1
 44
0.0
173
     0
291
     1
 45
0.0
1001
ACAD
1000
AcDbSavedByObjectVersion
1070
     0
  0
DICTIONARYVAR
  5
146
102
{ACAD_REACTORS
330
5E
102
}
330
5E
100
DictionaryVariables
280
     0
  1
1:1
  0
DICTIONARYVAR
  5
145
102
{ACAD_REACTORS
330
5E
102
}
330
5E
100
DictionaryVariables
280
     0
  1
STANDARD
  0
DICTIONARYVAR
  5
84
102
{ACAD_REACTORS
330
5E
102
}
330
5E
100
DictionaryVariables
280
     0
  1
STANDARD
  0
DICTIONARYVAR
  5
5F
102
{ACAD_REACTORS
330
5E
102
}
330
5E
100
DictionaryVariables
280
     0
  1
2
  0
DICTIONARYVAR
  5
63
102
{ACAD_REACTORS
330
5E
102
}
330
5E
100
DictionaryVariables
280
     0
  1
1
  0
DICTIONARYVAR
  5
938
102
{ACAD_REACTORS
330
5E
102
}
330
5E
100
DictionaryVariables
280
     0
  1
0
  0
DICTIONARYVAR
  5
936
102
{ACAD_REACTORS
330
5E
102
}
330
5E
100
DictionaryVariables
280
     0
  1
2
  0
DICTIONARYVAR
  5
935
102
{ACAD_REACTORS
330
5E
102
}
330
5E
100
DictionaryVariables
280
     0
  1
1
  0
DICTIONARYVAR
  5
93A
102
{ACAD_REACTORS
330
5E
102
}
330
5E
100
DictionaryVariables
280
     0
  1
80.000000
  0
DICTIONARYVAR
  5
939
102
{ACAD_REACTORS
330
5E
102
}
330
5E
100
DictionaryVariables
280
     0
  1
5.000000
  0
DICTIONARYVAR
  5
937
102
{ACAD_REACTORS
330
5E
102
}
330
5E
100
DictionaryVariables
280
     0
  1
127
  0
DICTIONARY
  5
940
330
D3
100
AcDbDictionary
280
     1
281
     1
  3
ACAD_XREC_ROUNDTRIP
360
941
  0
DICTIONARY
  5
942
330
D7
100
AcDbDictionary
280
     1
281
     1
  3
ACAD_XREC_ROUNDTRIP
360
943
  0
DICTIONARY
  5
93D
330
22
100
AcDbDictionary
280
     1
281
     1
  3
ACAD_XREC_ROUNDTRIP
360
93E
  0
DICTIONARY
  5
946
330
ED
100
AcDbDictionary
280
     1
281
     1
  3
ACAD_XREC_ROUNDTRIP
360
947
  0
DICTIONARY
  5
944
330
EC
100
AcDbDictionary
280
     1
281
     1
  3
ACAD_XREC_ROUNDTRIP
360
945
  0
DICTIONARY
  5
173
330
EE
100
AcDbDictionary
280
     1
281
     1
  3
ACAD_XREC_ROUNDTRIP
360
948
  3
BUMPTILE
360
175
  3
DIFFUSETILE
360
174
  3
OPACITYTILE
360
176
  3
REFLECTIONTILE
360
177
  0
DICTIONARY
  5
162
330
7F
100
AcDbDictionary
280
     1
281
     1
  3
ACAD_ROUNDTRIP_2008_TABLESTYLE_CELLSTYLEMAP
360
93B
  3
ACAD_XREC_ROUNDTRIP
360
93F
  0
XRECORD
  5
941
102
{ACAD_REACTORS
330
940
102
}
330
940
100
AcDbXrecord
280
     1
102
SHADEPLOT
 70
     0
102
SHADEPLOTRESLEVEL
 70
     2
102
SHADEPLOTCUSTOMDPI
 70
   300
  0
XRECORD
  5
943
102
{ACAD_REACTORS
330
942
102
}
330
942
100
AcDbXrecord
280
     1
102
SHADEPLOT
 70
     0
102
SHADEPLOTRESLEVEL
 70
     2
102
SHADEPLOTCUSTOMDPI
 70
   300
  0
XRECORD
  5
93E
102
{ACAD_REACTORS
330
93D
102
}
330
93D
100
AcDbXrecord
280
     1
102
SHADEPLOT
 70
     0
102
SHADEPLOTRESLEVEL
 70
     2
102
SHADEPLOTCUSTOMDPI
 70
   300
  0
XRECORD
  5
947
102
{ACAD_REACTORS
330
946
102
}
330
946
100
AcDbXrecord
280
     1
102
MATERIAL
148
0.0
149
0.0
149
0.0
 93
        0
 94
       63
282
     0
 72
     1
 77
     1
171
     1
175
     1
179
     1
273
     0
  0
XRECORD
  5
945
102
{ACAD_REACTORS
330
944
102
}
330
944
100
AcDbXrecord
280
     1
102
MATERIAL
148
0.0
149
0.0
149
0.0
 93
        0
 94
       63
282
     0
 72
     1
 77
     1
171
     1
175
     1
179
     1
273
     0
  0
XRECORD
  5
948
102
{ACAD_REACTORS
330
173
102
}
330
173
100
AcDbXrecord
280
     1
102
MATERIAL
148
0.0
149
0.0
149
0.0
 93
        0
 94
       63
282
     0
 72
     1
 77
     1
171
     1
175
     1
179
     1
273
     0
  0
XRECORD
  5
175
102
{ACAD_REACTORS
330
173
102
}
330
173
100
AcDbXrecord
280
     1
270
     1
271
     1
  0
XRECORD
  5
174
102
{ACAD_REACTORS
330
173
102
}
330
173
100
AcDbXrecord
280
     1
270
     1
271
     1
  0
XRECORD
  5
176
102
{ACAD_REACTORS
330
173
102
}
330
173
100
AcDbXrecord
280
     1
270
     1
271
     1
  0
XRECORD
  5
177
102
{ACAD_REACTORS
330
173
102
}
330
173
100
AcDbXrecord
280
     1
270
     1
271
     1
  0
CELLSTYLEMAP
  5
93B
102
{ACAD_REACTORS
330
162
102
}
330
162
100
AcDbCellStyleMap
 90
        3
300
CELLSTYLE
  1
TABLEFORMAT_BEGIN
 90
        5
170
     1
 91
        0
 92
    32768
 62
   257
 93
        1
300
CONTENTFORMAT
  1
CONTENTFORMAT_BEGIN
 90
        0
 91
        0
 92
      512
 93
        0
300

 40
0.0
140
1.0
 94
        5
 62
     0
340
11
144
6.0
309
CONTENTFORMAT_END
171
     1
301
MARGIN
  1
CELLMARGIN_BEGIN
 40
1.5
 40
1.5
 40
1.5
 40
1.5
 40
4.5
 40
4.5
309
CELLMARGIN_END
 94
        6
 95
        1
302
GRIDFORMAT
  1
GRIDFORMAT_BEGIN
 90
        0
 91
        1
 62
     0
 92
       -2
340
14
 93
        0
 40
1.125
309
GRIDFORMAT_END
 95
        2
302
GRIDFORMAT
  1
GRIDFORMAT_BEGIN
 90
        0
 91
        1
 62
     0
 92
       -2
340
14
 93
        0
 40
1.125
309
GRIDFORMAT_END
 95
        4
302
GRIDFORMAT
  1
GRIDFORMAT_BEGIN
 90
        0
 91
        1
 62
     0
 92
       -2
340
14
 93
        0
 40
1.125
309
GRIDFORMAT_END
 95
        8
302
GRIDFORMAT
  1
GRIDFORMAT_BEGIN
 90
        0
 91
        1
 62
     0
 92
       -2
340
14
 93
        0
 40
1.125
309
GRIDFORMAT_END
 95
       16
302
GRIDFORMAT
  1
GRIDFORMAT_BEGIN
 90
        0
 91
        1
 62
     0
 92
       -2
340
14
 93
        0
 40
1.125
309
GRIDFORMAT_END
 95
       32
302
GRIDFORMAT
  1
GRIDFORMAT_BEGIN
 90
        0
 91
        1
 62
     0
 92
       -2
340
14
 93
        0
 40
1.125
309
GRIDFORMAT_END
309
TABLEFORMAT_END
  1
CELLSTYLE_BEGIN
 90
        1
 91
        1
300
_TITLE
309
CELLSTYLE_END
300
CELLSTYLE
  1
TABLEFORMAT_BEGIN
 90
        5
170
     1
 91
        0
 92
        0
 62
   257
 93
        1
300
CONTENTFORMAT
  1
CONTENTFORMAT_BEGIN
 90
        0
 91
        0
 92
      512
 93
        0
300

 40
0.0
140
1.0
 94
        5
 62
     0
340
11
144
4.5
309
CONTENTFORMAT_END
171
     1
301
MARGIN
  1
CELLMARGIN_BEGIN
 40
1.5
 40
1.5
 40
1.5
 40
1.5
 40
4.5
 40
4.5
309
CELLMARGIN_END
 94
        6
 95
        1
302
GRIDFORMAT
  1
GRIDFORMAT_BEGIN
 90
        0
 91
        1
 62
     0
 92
       -2
340
14
 93
        0
 40
1.125
309
GRIDFORMAT_END
 95
        2
302
GRIDFORMAT
  1
GRIDFORMAT_BEGIN
 90
        0
 91
        1
 62
     0
 92
       -2
340
14
 93
        0
 40
1.125
309
GRIDFORMAT_END
 95
        4
302
GRIDFORMAT
  1
GRIDFORMAT_BEGIN
 90
        0
 91
        1
 62
     0
 92
       -2
340
14
 93
        0
 40
1.125
309
GRIDFORMAT_END
 95
        8
302
GRIDFORMAT
  1
GRIDFORMAT_BEGIN
 90
        0
 91
        1
 62
     0
 92
       -2
340
14
 93
        0
 40
1.125
309
GRIDFORMAT_END
 95
       16
302
GRIDFORMAT
  1
GRIDFORMAT_BEGIN
 90
        0
 91
        1
 62
     0
 92
       -2
340
14
 93
        0
 40
1.125
309
GRIDFORMAT_END
 95
       32
302
GRIDFORMAT
  1
GRIDFORMAT_BEGIN
 90
        0
 91
        1
 62
     0
 92
       -2
340
14
 93
        0
 40
1.125
309
GRIDFORMAT_END
309
TABLEFORMAT_END
  1
CELLSTYLE_BEGIN
 90
        2
 91
        1
300
_HEADER
309
CELLSTYLE_END
300
CELLSTYLE
  1
TABLEFORMAT_BEGIN
 90
        5
170
     1
 91
        0
 92
        0
 62
   257
 93
        1
300
CONTENTFORMAT
  1
CONTENTFORMAT_BEGIN
 90
        0
 91
        0
 92
      512
 93
        0
300

 40
0.0
140
1.0
 94
        2
 62
     0
340
11
144
4.5
309
CONTENTFORMAT_END
171
     1
301
MARGIN
  1
CELLMARGIN_BEGIN
 40
1.5
 40
1.5
 40
1.5
 40
1.5
 40
4.5
 40
4.5
309
CELLMARGIN_END
 94
        6
 95
        1
302
GRIDFORMAT
  1
GRIDFORMAT_BEGIN
 90
        0
 91
        1
 62
     0
 92
       -2
340
14
 93
        0
 40
1.125
309
GRIDFORMAT_END
 95
        2
302
GRIDFORMAT
  1
GRIDFORMAT_BEGIN
 90
        0
 91
        1
 62
     0
 92
       -2
340
14
 93
        0
 40
1.125
309
GRIDFORMAT_END
 95
        4
302
GRIDFORMAT
  1
GRIDFORMAT_BEGIN
 90
        0
 91
        1
 62
     0
 92
       -2
340
14
 93
        0
 40
1.125
309
GRIDFORMAT_END
 95
        8
302
GRIDFORMAT
  1
GRIDFORMAT_BEGIN
 90
        0
 91
        1
 62
     0
 92
       -2
340
14
 93
        0
 40
1.125
309
GRIDFORMAT_END
 95
       16
302
GRIDFORMAT
  1
GRIDFORMAT_BEGIN
 90
        0
 91
        1
 62
     0
 92
       -2
340
14
 93
        0
 40
1.125
309
GRIDFORMAT_END
 95
       32
302
GRIDFORMAT
  1
GRIDFORMAT_BEGIN
 90
        0
 91
        1
 62
     0
 92
       -2
340
14
 93
        0
 40
1.125
309
GRIDFORMAT_END
309
TABLEFORMAT_END
  1
CELLSTYLE_BEGIN
 90
        3
 91
        2
300
_DATA
309
CELLSTYLE_END
  0
XRECORD
  5
93F
102
{ACAD_REACTORS
330
162
102
}
330
162
100
AcDbXrecord
280
     1
102
ACAD_ROUNDTRIP_PRE2007_TABLESTYLE
 90
      512
 91
        0
  1

 92
      512
 93
        0
  2

 94
      512
 95
        0
  3

  0
ENDSEC
  0
EOF
