  0
SECTION
  2
HEADER
  9
$ACADVER
  1
AC1015
  9
$ACADMAINTVER
 70
    20
  9
$DWGCODEPAGE
  3
ANSI_1254
  9
$INSBASE
 10
0.0
 20
0.0
 30
0.0
  9
$EXTMIN
 10
1714.370920290586
 20
715.1744224244644
 30
0.0
  9
$EXTMAX
 10
1875.265132758945
 20
810.3340678999376
 30
0.0
  9
$LIMMIN
 10
0.0
 20
0.0
  9
$LIMMAX
 10
420.0
 20
297.0
  9
$ORTHOMODE
 70
     1
  9
$REGENMODE
 70
     1
  9
$FILLMODE
 70
     1
  9
$QTEXTMODE
 70
     0
  9
$MIRRTEXT
 70
     0
  9
$LTSCALE
 40
1.0
  9
$ATTMODE
 70
     1
  9
$TEXTSIZE
 40
2.5
  9
$TRACEWID
 40
1.0
  9
$TEXTSTYLE
  7
Standard
  9
$CLAYER
  8
0
  9
$CELTYPE
  6
ByLayer
  9
$CECOLOR
 62
   256
  9
$CELTSCALE
 40
1.0
  9
$DISPSILH
 70
     0
  9
$DIMSCALE
 40
1.0
  9
$DIMASZ
 40
2.5
  9
$DIMEXO
 40
0.625
  9
$DIMDLI
 40
3.75
  9
$DIMRND
 40
0.0
  9
$DIMDLE
 40
0.0
  9
$DIMEXE
 40
1.25
  9
$DIMTP
 40
0.0
  9
$DIMTM
 40
0.0
  9
$DIMTXT
 40
2.5
  9
$DIMCEN
 40
2.5
  9
$DIMTSZ
 40
0.0
  9
$DIMTOL
 70
     0
  9
$DIMLIM
 70
     0
  9
$DIMTIH
 70
     0
  9
$DIMTOH
 70
     0
  9
$DIMSE1
 70
     0
  9
$DIMSE2
 70
     0
  9
$DIMTAD
 70
     1
  9
$DIMZIN
 70
     8
  9
$DIMBLK
  1

  9
$DIMASO
 70
     1
  9
$DIMSHO
 70
     1
  9
$DIMPOST
  1

  9
$DIMAPOST
  1

  9
$DIMALT
 70
     0
  9
$DIMALTD
 70
     3
  9
$DIMALTF
 40
0.03937007874016
  9
$DIMLFAC
 40
1.0
  9
$DIMTOFL
 70
     1
  9
$DIMTVP
 40
0.0
  9
$DIMTIX
 70
     0
  9
$DIMSOXD
 70
     0
  9
$DIMSAH
 70
     0
  9
$DIMBLK1
  1

  9
$DIMBLK2
  1

  9
$DIMSTYLE
  2
ISO-25
  9
$DIMCLRD
 70
     0
  9
$DIMCLRE
 70
     0
  9
$DIMCLRT
 70
     0
  9
$DIMTFAC
 40
1.0
  9
$DIMGAP
 40
0.625
  9
$DIMJUST
 70
     0
  9
$DIMSD1
 70
     0
  9
$DIMSD2
 70
     0
  9
$DIMTOLJ
 70
     0
  9
$DIMTZIN
 70
     8
  9
$DIMALTZ
 70
     0
  9
$DIMALTTZ
 70
     0
  9
$DIMUPT
 70
     0
  9
$DIMDEC
 70
     2
  9
$DIMTDEC
 70
     2
  9
$DIMALTU
 70
     2
  9
$DIMALTTD
 70
     3
  9
$DIMTXSTY
  7
Standard
  9
$DIMAUNIT
 70
     0
  9
$DIMADEC
 70
     0
  9
$DIMALTRND
 40
0.0
  9
$DIMAZIN
 70
     0
  9
$DIMDSEP
 70
    44
  9
$DIMATFIT
 70
     3
  9
$DIMFRAC
 70
     0
  9
$DIMLDRBLK
  1

  9
$DIMLUNIT
 70
     2
  9
$DIMLWD
 70
    -2
  9
$DIMLWE
 70
    -2
  9
$DIMTMOVE
 70
     0
  9
$LUNITS
 70
     2
  9
$LUPREC
 70
     4
  9
$SKETCHINC
 40
1.0
  9
$FILLETRAD
 40
0.0
  9
$AUNITS
 70
     0
  9
$AUPREC
 70
     0
  9
$MENU
  1
.
  9
$ELEVATION
 40
0.0
  9
$PELEVATION
 40
0.0
  9
$THICKNESS
 40
0.0
  9
$LIMCHECK
 70
     0
  9
$CHAMFERA
 40
0.0
  9
$CHAMFERB
 40
0.0
  9
$CHAMFERC
 40
0.0
  9
$CHAMFERD
 40
0.0
  9
$SKPOLY
 70
     0
  9
$TDCREATE
 40
2458425.509586806
  9
$TDUCREATE
 40
2458425.384586806
  9
$TDUPDATE
 40
2458956.398339167
  9
$TDUUPDATE
 40
2458956.273339167
  9
$TDINDWG
 40
0.0015901736
  9
$TDUSRTIMER
 40
0.0015901736
  9
$USRTIMER
 70
     1
  9
$ANGBASE
 50
0.0
  9
$ANGDIR
 70
     0
  9
$PDMODE
 70
     0
  9
$PDSIZE
 40
0.0
  9
$PLINEWID
 40
0.0
  9
$SPLFRAME
 70
     0
  9
$SPLINETYPE
 70
     6
  9
$SPLINESEGS
 70
     8
  9
$HANDSEED
  5
CBB
  9
$SURFTAB1
 70
     6
  9
$SURFTAB2
 70
     6
  9
$SURFTYPE
 70
     6
  9
$SURFU
 70
     6
  9
$SURFV
 70
     6
  9
$UCSBASE
  2

  9
$UCSNAME
  2

  9
$UCSORG
 10
0.0
 20
0.0
 30
0.0
  9
$UCSXDIR
 10
1.0
 20
0.0
 30
0.0
  9
$UCSYDIR
 10
0.0
 20
1.0
 30
0.0
  9
$UCSORTHOREF
  2

  9
$UCSORTHOVIEW
 70
     0
  9
$UCSORGTOP
 10
0.0
 20
0.0
 30
0.0
  9
$UCSORGBOTTOM
 10
0.0
 20
0.0
 30
0.0
  9
$UCSORGLEFT
 10
0.0
 20
0.0
 30
0.0
  9
$UCSORGRIGHT
 10
0.0
 20
0.0
 30
0.0
  9
$UCSORGFRONT
 10
0.0
 20
0.0
 30
0.0
  9
$UCSORGBACK
 10
0.0
 20
0.0
 30
0.0
  9
$PUCSBASE
  2

  9
$PUCSNAME
  2

  9
$PUCSORG
 10
0.0
 20
0.0
 30
0.0
  9
$PUCSXDIR
 10
1.0
 20
0.0
 30
0.0
  9
$PUCSYDIR
 10
0.0
 20
1.0
 30
0.0
  9
$PUCSORTHOREF
  2

  9
$PUCSORTHOVIEW
 70
     0
  9
$PUCSORGTOP
 10
0.0
 20
0.0
 30
0.0
  9
$PUCSORGBOTTOM
 10
0.0
 20
0.0
 30
0.0
  9
$PUCSORGLEFT
 10
0.0
 20
0.0
 30
0.0
  9
$PUCSORGRIGHT
 10
0.0
 20
0.0
 30
0.0
  9
$PUCSORGFRONT
 10
0.0
 20
0.0
 30
0.0
  9
$PUCSORGBACK
 10
0.0
 20
0.0
 30
0.0
  9
$USERI1
 70
     0
  9
$USERI2
 70
     0
  9
$USERI3
 70
     0
  9
$USERI4
 70
     0
  9
$USERI5
 70
     0
  9
$USERR1
 40
0.0
  9
$USERR2
 40
0.0
  9
$USERR3
 40
0.0
  9
$USERR4
 40
0.0
  9
$USERR5
 40
0.0
  9
$WORLDVIEW
 70
     1
  9
$SHADEDGE
 70
     3
  9
$SHADEDIF
 70
    70
  9
$TILEMODE
 70
     1
  9
$MAXACTVP
 70
    64
  9
$PINSBASE
 10
0.0
 20
0.0
 30
0.0
  9
$PLIMCHECK
 70
     0
  9
$PEXTMIN
 10
0.0
 20
0.0
 30
0.0
  9
$PEXTMAX
 10
0.0
 20
0.0
 30
0.0
  9
$PLIMMIN
 10
0.0
 20
0.0
  9
$PLIMMAX
 10
12.0
 20
9.0
  9
$UNITMODE
 70
     0
  9
$VISRETAIN
 70
     1
  9
$PLINEGEN
 70
     0
  9
$PSLTSCALE
 70
     1
  9
$TREEDEPTH
 70
  3020
  9
$CMLSTYLE
  2
Standard
  9
$CMLJUST
 70
     0
  9
$CMLSCALE
 40
20.0
  9
$PROXYGRAPHICS
 70
     1
  9
$MEASUREMENT
 70
     1
  9
$CELWEIGHT
370
    -1
  9
$ENDCAPS
280
     0
  9
$JOINSTYLE
280
     0
  9
$LWDISPLAY
290
     0
  9
$INSUNITS
 70
     4
  9
$HYPERLINKBASE
  1

  9
$STYLESHEET
  1

  9
$XEDIT
290
     1
  9
$CEPSNTYPE
380
     0
  9
$PSTYLEMODE
290
     1
  9
$FINGERPRINTGUID
  2
{99E872A0-0BC4-4BAC-9D71-6E8BA5ED241D}
  9
$VERSIONGUID
  2
{ED26DECC-B6B2-480C-BEE2-0302458A1E9F}
  9
$EXTNAMES
290
     1
  9
$PSVPSCALE
 40
0.0
  9
$OLESTARTUP
290
     0
  0
ENDSEC
  0
SECTION
  2
CLASSES
  0
CLASS
  1
ACDBDICTIONARYWDFLT
  2
AcDbDictionaryWithDefault
  3
ObjectDBX Classes
 90
        0
280
     0
281
     0
  0
CLASS
  1
ACDBPLACEHOLDER
  2
AcDbPlaceHolder
  3
ObjectDBX Classes
 90
        0
280
     0
281
     0
  0
CLASS
  1
LAYOUT
  2
AcDbLayout
  3
ObjectDBX Classes
 90
        0
280
     0
281
     0
  0
CLASS
  1
DICTIONARYVAR
  2
AcDbDictionaryVar
  3
ObjectDBX Classes
 90
        0
280
     0
281
     0
  0
CLASS
  1
TABLESTYLE
  2
AcDbTableStyle
  3
ObjectDBX Classes
 90
     4095
280
     0
281
     0
  0
CLASS
  1
MATERIAL
  2
AcDbMaterial
  3
ObjectDBX Classes
 90
     1153
280
     0
281
     0
  0
CLASS
  1
VISUALSTYLE
  2
AcDbVisualStyle
  3
ObjectDBX Classes
 90
     4095
280
     0
281
     0
  0
CLASS
  1
SCALE
  2
AcDbScale
  3
ObjectDBX Classes
 90
     1153
280
     0
281
     0
  0
CLASS
  1
MLEADERSTYLE
  2
AcDbMLeaderStyle
  3
ACDB_MLEADERSTYLE_CLASS
 90
     4095
280
     0
281
     0
  0
CLASS
  1
CELLSTYLEMAP
  2
AcDbCellStyleMap
  3
ObjectDBX Classes
 90
     1152
280
     0
281
     0
  0
CLASS
  1
DIMASSOC
  2
AcDbDimAssoc
  3
"AcDbDimAssoc|Product Desc:     AcDim ARX App For Dimension|Company:          Autodesk, Inc.|WEB Address:      www.autodesk.com"
 90
    32768
280
     0
281
     0
  0
ENDSEC
  0
SECTION
  2
TABLES
  0
TABLE
  2
VPORT
  5
8
330
0
100
AcDbSymbolTable
 70
     1
  0
VPORT
  5
EA
330
8
100
AcDbSymbolTableRecord
100
AcDbViewportTableRecord
  2
*Active
 70
     0
 10
0.0
 20
0.0
 11
1.0
 21
1.0
 12
1795.195387977608
 22
765.3767517824259
 13
0.0
 23
0.0
 14
10.0
 24
10.0
 15
10.0
 25
10.0
 16
0.0
 26
0.0
 36
1.0
 17
0.0
 27
0.0
 37
0.0
 40
100.2212364645843
 41
1.903110047846889
 42
50.0
 43
0.0
 44
0.0
 50
0.0
 51
0.0
 71
     0
 72
  1000
 73
     1
 74
     3
 75
     0
 76
     0
 77
     0
 78
     0
281
     0
 65
     1
110
0.0
120
0.0
130
0.0
111
1.0
121
0.0
131
0.0
112
0.0
122
1.0
132
0.0
 79
     0
146
0.0
  0
ENDTAB
  0
TABLE
  2
LTYPE
  5
5
330
0
100
AcDbSymbolTable
 70
     1
  0
LTYPE
  5
14
330
5
100
AcDbSymbolTableRecord
100
AcDbLinetypeTableRecord
  2
ByBlock
 70
     0
  3

 72
    65
 73
     0
 40
0.0
  0
LTYPE
  5
15
330
5
100
AcDbSymbolTableRecord
100
AcDbLinetypeTableRecord
  2
ByLayer
 70
     0
  3

 72
    65
 73
     0
 40
0.0
  0
LTYPE
  5
16
330
5
100
AcDbSymbolTableRecord
100
AcDbLinetypeTableRecord
  2
Continuous
 70
     0
  3
Solid line
 72
    65
 73
     0
 40
0.0
  0
ENDTAB
  0
TABLE
  2
LAYER
  5
2
330
0
100
AcDbSymbolTable
 70
     2
  0
LAYER
  5
10
102
{ACAD_XDICTIONARY
360
13C
102
}
330
2
100
AcDbSymbolTableRecord
100
AcDbLayerTableRecord
  2
0
 70
     0
 62
     7
  6
Continuous
370
    -3
390
F
  0
LAYER
  5
8C7
330
2
100
AcDbSymbolTableRecord
100
AcDbLayerTableRecord
  2
Defpoints
 70
     0
 62
     7
  6
Continuous
290
     0
370
    -3
390
F
  0
ENDTAB
  0
TABLE
  2
STYLE
  5
3
330
0
100
AcDbSymbolTable
 70
     2
  0
STYLE
  5
11
330
3
100
AcDbSymbolTableRecord
100
AcDbTextStyleTableRecord
  2
Standard
 70
     0
 40
0.0
 41
1.0
 50
0.0
 71
     0
 42
2.5
  3
txt
  4

  0
STYLE
  5
132
330
3
100
AcDbSymbolTableRecord
100
AcDbTextStyleTableRecord
  2
Annotative
 70
     0
 40
0.0
 41
1.0
 50
0.0
 71
     0
 42
2.5
  3
txt.shx
  4

1001
AcadAnnotative
1000
AnnotativeData
1002
{
1070
     1
1070
     1
1002
}
  0
ENDTAB
  0
TABLE
  2
VIEW
  5
6
330
0
100
AcDbSymbolTable
 70
     0
  0
ENDTAB
  0
TABLE
  2
UCS
  5
7
330
0
100
AcDbSymbolTable
 70
     0
  0
ENDTAB
  0
TABLE
  2
APPID
  5
9
330
0
100
AcDbSymbolTable
 70
     7
  0
APPID
  5
12
330
9
100
AcDbSymbolTableRecord
100
AcDbRegAppTableRecord
  2
ACAD
 70
     0
  0
APPID
  5
9E
330
9
100
AcDbSymbolTableRecord
100
AcDbRegAppTableRecord
  2
ACAD_PSEXT
 70
     0
  0
APPID
  5
133
330
9
100
AcDbSymbolTableRecord
100
AcDbRegAppTableRecord
  2
AcadAnnoPO
 70
     0
  0
APPID
  5
134
330
9
100
AcDbSymbolTableRecord
100
AcDbRegAppTableRecord
  2
AcadAnnotative
 70
     0
  0
APPID
  5
135
330
9
100
AcDbSymbolTableRecord
100
AcDbRegAppTableRecord
  2
ACAD_DSTYLE_DIMJAG
 70
     0
  0
APPID
  5
136
330
9
100
AcDbSymbolTableRecord
100
AcDbRegAppTableRecord
  2
ACAD_DSTYLE_DIMTALN
 70
     0
  0
APPID
  5
165
330
9
100
AcDbSymbolTableRecord
100
AcDbRegAppTableRecord
  2
ACAD_MLEADERVER
 70
     0
  0
ENDTAB
  0
TABLE
  2
DIMSTYLE
  5
A
330
0
100
AcDbSymbolTable
 70
     2
100
AcDbDimStyleTable
 71
     2
340
27
340
137
  0
DIMSTYLE
105
27
330
A
100
AcDbSymbolTableRecord
100
AcDbDimStyleTableRecord
  2
ISO-25
 70
     0
 41
2.5
 42
0.625
 43
3.75
 44
1.25
 73
     0
 74
     0
 77
     1
 78
     8
140
2.5
141
2.5
143
0.03937007874016
147
0.625
171
     3
172
     1
271
     2
272
     2
274
     3
278
    44
283
     0
284
     8
340
11
  0
DIMSTYLE
105
137
330
A
100
AcDbSymbolTableRecord
100
AcDbDimStyleTableRecord
  2
Annotative
 70
     0
 40
0.0
 41
2.5
 42
0.625
 43
3.75
 44
1.25
 73
     0
 74
     0
 77
     1
 78
     8
140
2.5
141
2.5
143
0.03937007874016
147
0.625
171
     3
172
     1
271
     2
272
     2
274
     3
278
    44
283
     0
284
     8
340
11
1001
AcadAnnotative
1000
AnnotativeData
1002
{
1070
     1
1070
     1
1002
}
1001
ACAD_DSTYLE_DIMJAG
1070
   388
1040
1.5
1001
ACAD_DSTYLE_DIMTALN
1070
   392
1070
     0
  0
ENDTAB
  0
TABLE
  2
BLOCK_RECORD
  5
1
330
0
100
AcDbSymbolTable
 70
    14
  0
BLOCK_RECORD
  5
1F
330
1
100
AcDbSymbolTableRecord
100
AcDbBlockTableRecord
  2
*Model_Space
340
22
  0
BLOCK_RECORD
  5
D2
330
1
100
AcDbSymbolTableRecord
100
AcDbBlockTableRecord
  2
*Paper_Space
340
D3
  0
BLOCK_RECORD
  5
D6
330
1
100
AcDbSymbolTableRecord
100
AcDbBlockTableRecord
  2
*Paper_Space0
340
D7
  0
BLOCK_RECORD
  5
1AD
330
1
100
AcDbSymbolTableRecord
100
AcDbBlockTableRecord
  2
SW_CENTERMARKSYMBOL_0
340
0
  0
BLOCK_RECORD
  5
1B8
330
1
100
AcDbSymbolTableRecord
100
AcDbBlockTableRecord
  2
SW_CENTERMARKSYMBOL_1
340
0
  0
BLOCK_RECORD
  5
1C3
330
1
100
AcDbSymbolTableRecord
100
AcDbBlockTableRecord
  2
SW_CENTERMARKSYMBOL_2
340
0
  0
BLOCK_RECORD
  5
1CE
330
1
100
AcDbSymbolTableRecord
100
AcDbBlockTableRecord
  2
SW_CENTERMARKSYMBOL_3
340
0
  0
BLOCK_RECORD
  5
1D9
330
1
100
AcDbSymbolTableRecord
100
AcDbBlockTableRecord
  2
SW_CENTERMARKSYMBOL_4
340
0
  0
BLOCK_RECORD
  5
927
330
1
100
AcDbSymbolTableRecord
100
AcDbBlockTableRecord
  2
1
340
0
310
2800000020000000200000000100080000000000000400000000000000000000000000000000000000000000000080000080000000808000800000008000800080800000C0C0C000C0DCC000F0CAA6000020400000206000002080000020A0000020C0000020E00000400000004020000040400000406000004080000040A0
310
000040C0000040E00000600000006020000060400000606000006080000060A0000060C0000060E00000800000008020000080400000806000008080000080A0000080C0000080E00000A0000000A0200000A0400000A0600000A0800000A0A00000A0C00000A0E00000C0000000C0200000C0400000C0600000C0800000C0
310
A00000C0C00000C0E00000E0000000E0200000E0400000E0600000E0800000E0A00000E0C00000E0E00040000000400020004000400040006000400080004000A0004000C0004000E00040200000402020004020400040206000402080004020A0004020C0004020E000404000004040200040404000404060004040800040
310
40A0004040C0004040E00040600000406020004060400040606000406080004060A0004060C0004060E00040800000408020004080400040806000408080004080A0004080C0004080E00040A0000040A0200040A0400040A0600040A0800040A0A00040A0C00040A0E00040C0000040C0200040C0400040C0600040C08000
310
40C0A00040C0C00040C0E00040E0000040E0200040E0400040E0600040E0800040E0A00040E0C00040E0E00080000000800020008000400080006000800080008000A0008000C0008000E00080200000802020008020400080206000802080008020A0008020C0008020E00080400000804020008040400080406000804080
310
008040A0008040C0008040E00080600000806020008060400080606000806080008060A0008060C0008060E00080800000808020008080400080806000808080008080A0008080C0008080E00080A0000080A0200080A0400080A0600080A0800080A0A00080A0C00080A0E00080C0000080C0200080C0400080C0600080C0
310
800080C0A00080C0C00080C0E00080E0000080E0200080E0400080E0600080E0800080E0A00080E0C00080E0E000C0000000C0002000C0004000C0006000C0008000C000A000C000C000C000E000C0200000C0202000C0204000C0206000C0208000C020A000C020C000C020E000C0400000C0402000C0404000C0406000C0
310
408000C040A000C040C000C040E000C0600000C0602000C0604000C0606000C0608000C060A000C060C000C060E000C0800000C0802000C0804000C0806000C0808000C080A000C080C000C080E000C0A00000C0A02000C0A04000C0A06000C0A08000C0A0A000C0A0C000C0A0E000C0C00000C0C02000C0C04000C0C06000
310
C0C08000C0C0A000F0FBFF00A4A0A000808080000000FF0000FF000000FFFF00FF000000FF00FF00FFFF0000FFFFFF000000000000000000000000000000000000000000000000000000000000000000000000FFFFFFFF000000000000000000000000000000000000FFFFFFFF0000000000FF0000FFFFFF00FFFF00000000
310
000000000000FFFF00FFFFFF0000FF00000000FF0000FFFFFF00FFFF00000000000000000000FFFF00FFFFFF0000FF00000000FFFFFFFFFFFF00FFFF00000000000000000000FFFF00FFFFFFFFFFFF000000000000FF00FFFF00FFFF0000000000000000000000FF00FFFF00FF00000000000000FFFF00FFFFFFFF00000000
310
0000000000000000FFFFFFFF00FFFF000000000000FFFFFFFFFFFFFFFFFFFFFFFFFFFFFFFFFFFFFFFFFFFFFFFFFFFF0000000000FFFFFFFFFFFFFFFFFFFFFFFFFFFFFFFFFFFFFFFFFFFFFFFFFFFFFFFF00000000FF0000000000000000000000000000000000000000000000000000FF00000000FF00000000000000000000
310
00000000000000000000000000000000FF00000000FF0000000000000000000000000000000000000000000000000000FF00000000FF0000000000000000000000000000000000000000000000000000FF00000000FF0000000000000000000000000000000000000000000000000000FF00000000FF000000000000000000
310
0000000000000000000000000000000000FF00000000FF0000000000000000000000000000000000000000000000000000FF00000000FF0000000000000000000000000000000000000000000000000000FF00000000FF0000000000000000000000000000000000000000000000000000FF00000000FF0000000000000000
310
000000000000000000000000000000000000FF00000000FF0000000000000000000000000000000000000000000000000000FF00000000FF0000000000000000000000000000000000000000000000000000FF00000000FF0000000000000000000000000000000000000000000000000000FF00000000FF00000000000000
310
00000000000000000000000000000000000000FF00000000FFFF00000000000000000000FFFFFFFF00000000000000000000FFFF000000000000FF000000000000000000FF0000FF000000000000000000FF000000000000000000FF0000000000000000FF0000FF0000000000000000FF00000000000000000000FFFF0000
310
0000000000FF0000FF00000000000000FFFF00000000000000000000FF0000000000000000FF0000FF0000000000000000FF00000000000000000000FFFF00000000000000FF0000FF00000000000000FFFF00000000000000000000FFFFFFFFFFFFFFFFFF00000000FFFFFFFFFFFFFFFFFF00000000000000000000000000
310
FFFFFFFFFF000000000000FFFFFFFFFF00000000000000000000000000000000000000000000000000000000000000000000000000000000
102
{BLKREFS
331
9E7
102
}
1001
ACAD
1000
DesignCenter Data
1002
{
1070
     1
1070
     4
1002
}
  0
BLOCK_RECORD
  5
9E8
330
1
100
AcDbSymbolTableRecord
100
AcDbBlockTableRecord
  2
2
340
0
310
2800000020000000200000000100080000000000000400000000000000000000000000000000000000000000000080000080000000808000800000008000800080800000C0C0C000C0DCC000F0CAA6000020400000206000002080000020A0000020C0000020E00000400000004020000040400000406000004080000040A0
310
000040C0000040E00000600000006020000060400000606000006080000060A0000060C0000060E00000800000008020000080400000806000008080000080A0000080C0000080E00000A0000000A0200000A0400000A0600000A0800000A0A00000A0C00000A0E00000C0000000C0200000C0400000C0600000C0800000C0
310
A00000C0C00000C0E00000E0000000E0200000E0400000E0600000E0800000E0A00000E0C00000E0E00040000000400020004000400040006000400080004000A0004000C0004000E00040200000402020004020400040206000402080004020A0004020C0004020E000404000004040200040404000404060004040800040
310
40A0004040C0004040E00040600000406020004060400040606000406080004060A0004060C0004060E00040800000408020004080400040806000408080004080A0004080C0004080E00040A0000040A0200040A0400040A0600040A0800040A0A00040A0C00040A0E00040C0000040C0200040C0400040C0600040C08000
310
40C0A00040C0C00040C0E00040E0000040E0200040E0400040E0600040E0800040E0A00040E0C00040E0E00080000000800020008000400080006000800080008000A0008000C0008000E00080200000802020008020400080206000802080008020A0008020C0008020E00080400000804020008040400080406000804080
310
008040A0008040C0008040E00080600000806020008060400080606000806080008060A0008060C0008060E00080800000808020008080400080806000808080008080A0008080C0008080E00080A0000080A0200080A0400080A0600080A0800080A0A00080A0C00080A0E00080C0000080C0200080C0400080C0600080C0
310
800080C0A00080C0C00080C0E00080E0000080E0200080E0400080E0600080E0800080E0A00080E0C00080E0E000C0000000C0002000C0004000C0006000C0008000C000A000C000C000C000E000C0200000C0202000C0204000C0206000C0208000C020A000C020C000C020E000C0400000C0402000C0404000C0406000C0
310
408000C040A000C040C000C040E000C0600000C0602000C0604000C0606000C0608000C060A000C060C000C060E000C0800000C0802000C0804000C0806000C0808000C080A000C080C000C080E000C0A00000C0A02000C0A04000C0A06000C0A08000C0A0A000C0A0C000C0A0E000C0C00000C0C02000C0C04000C0C06000
310
C0C08000C0C0A000F0FBFF00A4A0A000808080000000FF0000FF000000FFFF00FF000000FF00FF00FFFF0000FFFFFF000000000000000000000000000000000000000000000000000000000000000000000000000000000000000000FFFFFFFFFFFFFFFF000000000000000000000000000000000000000000000000FFFFFF
310
FFFFFFFFFF000000000000000000000000000000000000000000000000FF000000000000FF000000000000000000000000000000000000000000000000FFFFFFFFFFFFFFFF000000000000000000000000000000000000000000000000FF000000000000FF000000000000000000000000000000000000000000000000FF00
310
0000000000FF000000000000000000000000000000000000000000000000FFFFFFFFFFFFFFFF000000000000000000000000000000000000000000000000FFFFFFFFFFFFFFFF000000000000000000000000000000000000000000000000FF000000000000FF000000000000000000000000000000000000000000000000FF
310
FFFFFFFFFFFFFF000000000000000000000000000000000000000000000000FFFFFFFFFFFFFFFF000000000000000000000000000000000000000000000000FFFFFFFFFFFFFFFF000000000000000000000000000000000000000000000000FF000000000000FF000000000000000000000000000000000000000000000000
310
FF000000000000FF000000000000000000000000000000000000000000000000FF000000000000FF000000000000000000000000000000000000000000000000FFFFFFFFFFFFFFFF000000000000000000000000000000000000000000000000FFFFFFFFFFFFFFFF0000000000000000000000000000000000000000000000
310
00FFFFFFFFFFFFFFFF000000000000000000000000000000000000000000000000FF000000000000FF000000000000000000000000000000000000000000000000FF000000000000FF000000000000000000000000000000000000000000000000FF000000000000FF00000000000000000000000000000000000000000000
310
0000FF000000000000FF000000000000000000000000000000000000000000000000FFFFFFFFFFFFFFFF000000000000000000000000000000000000000000000000FFFFFFFFFFFFFFFF000000000000000000000000000000000000000000000000FF000000000000FF000000000000000000000000000000000000000000
310
000000FFFFFFFFFFFFFFFF000000000000000000000000000000000000000000000000FFFFFFFFFFFFFFFF000000000000000000000000000000000000000000000000FFFFFFFFFFFFFFFF000000000000000000000000000000000000000000000000FFFFFFFFFFFFFFFF0000000000000000000000000000000000000000
310
0000000000FFFFFFFFFFFF000000000000000000000000000000000000000000000000000000000000000000000000000000000000000000
102
{BLKREFS
331
A65
102
}
1001
ACAD
1000
DesignCenter Data
1002
{
1070
     1
1070
     4
1002
}
  0
BLOCK_RECORD
  5
A66
330
1
100
AcDbSymbolTableRecord
100
AcDbBlockTableRecord
  2
3
340
0
310
2800000020000000200000000100080000000000000400000000000000000000000000000000000000000000000080000080000000808000800000008000800080800000C0C0C000C0DCC000F0CAA6000020400000206000002080000020A0000020C0000020E00000400000004020000040400000406000004080000040A0
310
000040C0000040E00000600000006020000060400000606000006080000060A0000060C0000060E00000800000008020000080400000806000008080000080A0000080C0000080E00000A0000000A0200000A0400000A0600000A0800000A0A00000A0C00000A0E00000C0000000C0200000C0400000C0600000C0800000C0
310
A00000C0C00000C0E00000E0000000E0200000E0400000E0600000E0800000E0A00000E0C00000E0E00040000000400020004000400040006000400080004000A0004000C0004000E00040200000402020004020400040206000402080004020A0004020C0004020E000404000004040200040404000404060004040800040
310
40A0004040C0004040E00040600000406020004060400040606000406080004060A0004060C0004060E00040800000408020004080400040806000408080004080A0004080C0004080E00040A0000040A0200040A0400040A0600040A0800040A0A00040A0C00040A0E00040C0000040C0200040C0400040C0600040C08000
310
40C0A00040C0C00040C0E00040E0000040E0200040E0400040E0600040E0800040E0A00040E0C00040E0E00080000000800020008000400080006000800080008000A0008000C0008000E00080200000802020008020400080206000802080008020A0008020C0008020E00080400000804020008040400080406000804080
310
008040A0008040C0008040E00080600000806020008060400080606000806080008060A0008060C0008060E00080800000808020008080400080806000808080008080A0008080C0008080E00080A0000080A0200080A0400080A0600080A0800080A0A00080A0C00080A0E00080C0000080C0200080C0400080C0600080C0
310
800080C0A00080C0C00080C0E00080E0000080E0200080E0400080E0600080E0800080E0A00080E0C00080E0E000C0000000C0002000C0004000C0006000C0008000C000A000C000C000C000E000C0200000C0202000C0204000C0206000C0208000C020A000C020C000C020E000C0400000C0402000C0404000C0406000C0
310
408000C040A000C040C000C040E000C0600000C0602000C0604000C0606000C0608000C060A000C060C000C060E000C0800000C0802000C0804000C0806000C0808000C080A000C080C000C080E000C0A00000C0A02000C0A04000C0A06000C0A08000C0A0A000C0A0C000C0A0E000C0C00000C0C02000C0C04000C0C06000
310
C0C08000C0C0A000F0FBFF00A4A0A000808080000000FF0000FF000000FFFF00FF000000FF00FF00FFFF0000FFFFFF0000000000000000000000000000000000000000000000000000000000000000000000000000000000000000000000000000000000000000000000000000000000000000000000000000000000000000
310
00000000000000000000000000000000000000000000000000000000000000000000000000000000000000000000000000000000000000000000000000000000000000000000000000000000000000000000000000000000000000000000000000000000000000000000000000000000000000000000000000000000000000
310
00000000000000000000000000000000000000000000000000000000000000000000000000000000000000000000000000000000000000000000000000000000000000000000000000000000000000000000000000000000000000000000000000000000000000000000000000000000000000000000000000000000000000
310
0000000000000000000000000000000000000000FFFFFFFFFFFFFFFFFFFFFFFFFFFFFFFFFFFFFFFFFFFFFFFFFFFFFFFFFFFF0000FFFFFFFFFF00000000000000FFFF0000FFFF00000000000000FFFFFFFFFF0000FFFFFFFFFF00000000FF0000FFFF0000FFFF0000FF00000000FFFFFFFFFF0000FFFFFFFFFF000000FFFFFF
310
00FFFFFF00FFFF00FFFFFF000000FFFFFFFFFF0000FFFFFFFFFF0000FFFFFFFF00FFFFFFFFFFFF00FFFFFFFF0000FFFFFFFFFF0000FFFFFFFFFF00FF00FFFFFFFFFFFFFF00FFFFFF00FFFFFFFF00FFFFFFFFFF0000FFFFFFFFFF0000FFFFFFFF00FFFFFFFFFFFF00FFFFFFFF0000FFFFFFFFFF0000FFFFFFFFFF00000000FF
310
0000FFFF0000FFFF0000FF00000000FFFFFFFFFF0000FFFFFFFFFF00000000000000FFFF0000FFFF00000000000000FFFFFFFFFF0000FFFFFFFFFFFFFFFFFFFFFFFFFFFFFFFFFFFFFFFFFFFFFFFFFFFFFFFFFFFF00000000000000000000000000000000000000000000000000000000000000000000000000000000000000
310
00000000000000000000000000000000000000000000000000000000000000000000000000000000000000000000000000000000000000000000000000000000000000000000000000000000000000000000000000000000000000000000000000000000000000000000000000000000000000000000000000000000000000
310
00000000000000000000000000000000000000000000000000000000000000000000000000000000000000000000000000000000000000000000000000000000000000000000000000000000000000000000000000000000000000000000000000000000000000000000000000000000000000000000000000000000000000
310
0000000000000000000000000000000000000000000000000000000000000000000000000000000000000000000000000000000000000000
102
{BLKREFS
331
B08
102
}
1001
ACAD
1000
DesignCenter Data
1002
{
1070
     1
1070
     4
1002
}
  0
BLOCK_RECORD
  5
B09
330
1
100
AcDbSymbolTableRecord
100
AcDbBlockTableRecord
  2
4
340
0
310
2800000020000000200000000100080000000000000400000000000000000000000000000000000000000000000080000080000000808000800000008000800080800000C0C0C000C0DCC000F0CAA6000020400000206000002080000020A0000020C0000020E00000400000004020000040400000406000004080000040A0
310
000040C0000040E00000600000006020000060400000606000006080000060A0000060C0000060E00000800000008020000080400000806000008080000080A0000080C0000080E00000A0000000A0200000A0400000A0600000A0800000A0A00000A0C00000A0E00000C0000000C0200000C0400000C0600000C0800000C0
310
A00000C0C00000C0E00000E0000000E0200000E0400000E0600000E0800000E0A00000E0C00000E0E00040000000400020004000400040006000400080004000A0004000C0004000E00040200000402020004020400040206000402080004020A0004020C0004020E000404000004040200040404000404060004040800040
310
40A0004040C0004040E00040600000406020004060400040606000406080004060A0004060C0004060E00040800000408020004080400040806000408080004080A0004080C0004080E00040A0000040A0200040A0400040A0600040A0800040A0A00040A0C00040A0E00040C0000040C0200040C0400040C0600040C08000
310
40C0A00040C0C00040C0E00040E0000040E0200040E0400040E0600040E0800040E0A00040E0C00040E0E00080000000800020008000400080006000800080008000A0008000C0008000E00080200000802020008020400080206000802080008020A0008020C0008020E00080400000804020008040400080406000804080
310
008040A0008040C0008040E00080600000806020008060400080606000806080008060A0008060C0008060E00080800000808020008080400080806000808080008080A0008080C0008080E00080A0000080A0200080A0400080A0600080A0800080A0A00080A0C00080A0E00080C0000080C0200080C0400080C0600080C0
310
800080C0A00080C0C00080C0E00080E0000080E0200080E0400080E0600080E0800080E0A00080E0C00080E0E000C0000000C0002000C0004000C0006000C0008000C000A000C000C000C000E000C0200000C0202000C0204000C0206000C0208000C020A000C020C000C020E000C0400000C0402000C0404000C0406000C0
310
408000C040A000C040C000C040E000C0600000C0602000C0604000C0606000C0608000C060A000C060C000C060E000C0800000C0802000C0804000C0806000C0808000C080A000C080C000C080E000C0A00000C0A02000C0A04000C0A06000C0A08000C0A0A000C0A0C000C0A0E000C0C00000C0C02000C0C04000C0C06000
310
C0C08000C0C0A000F0FBFF00A4A0A000808080000000FF0000FF000000FFFF00FF000000FF00FF00FFFF0000FFFFFF000000000000000000000000000000000000000000000000000000000000000000000000000000000000000000FFFF000000000000000000000000000000000000000000000000000000FFFFFFFFFFFF
310
000000000000000000000000000000000000000000000000FFFFFFFFFFFFFFFF000000000000000000000000000000000000000000000000FFFFFFFFFF00FFFFFF0000000000000000000000000000000000000000000000FFFFFF00FFFFFFFFFFFF0000000000000000000000000000000000000000000000FFFFFFFFFFFF
310
FFFFFF00000000000000000000000000000000000000000000FFFF0000FFFFFFFFFF0000000000000000000000000000000000000000000000FF00FFFFFFFF00FF00FF00000000000000000000000000000000000000000000FFFF00FFFFFF0000FFFFFF0000FFFF0000000000000000000000000000000000FFFF00FFFFFF
310
00000000FFFFFF00FFFF00000000000000000000000000000000FF00FFFFFFFF0000000000FFA4FFFFFFFFFF0000000000000000000000000000FF00FFFFFFFF000000000000FF00FFFFFFFF0000000000000000000000000000FF00FFFFFFFF00000000000000FFFFFFFFFF0000000000000000000000000000FFFF000000
310
FF0000000000000000FFFFFF000000000000000000000000000000FF000000FFFFFF000000000000000000FFFF0000000000000000000000000000FF00FFFFFFFFFF00000000000000000000FF0000000000000000000000000000FFFFFFFFFFFFFF00000000000000000000FF000000000000000000000000000000FFFFFF
310
FF0000FF000000000000000000FF000000000000000000000000000000FFFF0000FFFFFF000000000000000000FF000000000000000000000000000000FFFFFFFFFFFFFF0000FF000000000000FF000000000000000000000000000000FFFFFFFFFF00FFFF00FFFFFF00000000FF000000000000000000000000000000FFFF
310
00FFFFFFFFFFFFFFA4FF00000000FF00000000000000000000000000000000FFFFFFFFFFFFFF00FF00FF00000000FF000000000000000000000000000000000000FFFFFFFFFFFF00FFFF00000000FF00000000000000000000000000000000000000FF00FF00FFFFFFFF000000FFFF00000000000000000000000000000000
310
0000000000FFFFFFFFFFFFFF00FFFFFF000000000000000000000000000000000000000000FFFFFFFFFFFFFFFFFF000000000000000000000000000000000000000000000000FFFFFFFFFFFFFFFF00000000000000000000000000000000000000000000000000FFFFFFFFFF00000000000000000000000000000000000000
310
000000000000000000FFFF000000000000000000000000000000000000000000000000000000000000000000000000000000000000000000
102
{BLKREFS
331
CA0
102
}
1001
ACAD
1000
DesignCenter Data
1002
{
1070
     1
1070
     4
1002
}
  0
ENDTAB
  0
ENDSEC
  0
SECTION
  2
BLOCKS
  0
BLOCK
  5
20
330
1F
100
AcDbEntity
  8
0
100
AcDbBlockBegin
  2
*Model_Space
 70
     0
 10
0.0
 20
0.0
 30
0.0
  3
*Model_Space
  1

  0
ENDBLK
  5
21
330
1F
100
AcDbEntity
  8
0
100
AcDbBlockEnd
  0
BLOCK
  5
D4
330
D2
100
AcDbEntity
 67
     1
  8
0
100
AcDbBlockBegin
  2
*Paper_Space
 70
     0
 10
0.0
 20
0.0
 30
0.0
  3
*Paper_Space
  1

  0
ENDBLK
  5
D5
330
D2
100
AcDbEntity
 67
     1
  8
0
100
AcDbBlockEnd
  0
BLOCK
  5
D8
330
D6
100
AcDbEntity
 67
     1
  8
0
100
AcDbBlockBegin
  2
*Paper_Space0
 70
     0
 10
0.0
 20
0.0
 30
0.0
  3
*Paper_Space0
  1

  0
ENDBLK
  5
D9
330
D6
100
AcDbEntity
 67
     1
  8
0
100
AcDbBlockEnd
  0
BLOCK
  5
1AE
330
1AD
100
AcDbEntity
  8
0
100
AcDbBlockBegin
  2
SW_CENTERMARKSYMBOL_0
 70
     0
 10
0.0
 20
0.0
 30
0.0
  3
SW_CENTERMARKSYMBOL_0
  1

  0
LINE
  5
1AF
330
1AD
100
AcDbEntity
  8
0
  6
Continuous
 62
     0
370
     0
100
AcDbLine
 10
0.0
 20
0.0
 30
0.0
 11
0.0
 21
2.500000000000002
 31
0.0
  0
LINE
  5
1B0
330
1AD
100
AcDbEntity
  8
0
  6
Continuous
 62
     0
370
     0
100
AcDbLine
 10
0.0
 20
0.0
 30
0.0
 11
-2.500000000000002
 21
0.0
 31
0.0
  0
LINE
  5
1B1
330
1AD
100
AcDbEntity
  8
0
  6
Continuous
 62
     0
370
     0
100
AcDbLine
 10
0.0
 20
0.0
 30
0.0
 11
0.0
 21
-2.500000000000002
 31
0.0
  0
LINE
  5
1B2
330
1AD
100
AcDbEntity
  8
0
  6
Continuous
 62
     0
370
     0
100
AcDbLine
 10
0.0
 20
0.0
 30
0.0
 11
2.500000000000002
 21
0.0
 31
0.0
  0
LINE
  5
1B3
330
1AD
100
AcDbEntity
  8
0
  6
Continuous
 62
     0
370
     0
100
AcDbLine
 10
0.0
 20
5.000000000000004
 30
0.0
 11
0.0
 21
5.628106284019384
 31
0.0
  0
LINE
  5
1B4
330
1AD
100
AcDbEntity
  8
0
  6
Continuous
 62
     0
370
     0
100
AcDbLine
 10
-5.000000000000004
 20
0.0
 30
0.0
 11
-5.628106284019384
 21
0.0
 31
0.0
  0
LINE
  5
1B5
330
1AD
100
AcDbEntity
  8
0
  6
Continuous
 62
     0
370
     0
100
AcDbLine
 10
0.0
 20
-5.000000000000004
 30
0.0
 11
0.0
 21
-5.628106284019384
 31
0.0
  0
LINE
  5
1B6
330
1AD
100
AcDbEntity
  8
0
  6
Continuous
 62
     0
370
     0
100
AcDbLine
 10
5.000000000000004
 20
0.0
 30
0.0
 11
5.628106284019384
 21
0.0
 31
0.0
  0
ENDBLK
  5
1B7
330
1AD
100
AcDbEntity
  8
0
100
AcDbBlockEnd
  0
BLOCK
  5
1B9
330
1B8
100
AcDbEntity
  8
0
100
AcDbBlockBegin
  2
SW_CENTERMARKSYMBOL_1
 70
     0
 10
0.0
 20
0.0
 30
0.0
  3
SW_CENTERMARKSYMBOL_1
  1

  0
LINE
  5
1BA
330
1B8
100
AcDbEntity
  8
0
  6
Continuous
 62
     0
370
     0
100
AcDbLine
 10
0.0
 20
0.0
 30
0.0
 11
0.0
 21
2.500000000000002
 31
0.0
  0
LINE
  5
1BB
330
1B8
100
AcDbEntity
  8
0
  6
Continuous
 62
     0
370
     0
100
AcDbLine
 10
0.0
 20
0.0
 30
0.0
 11
-2.500000000000002
 21
0.0
 31
0.0
  0
LINE
  5
1BC
330
1B8
100
AcDbEntity
  8
0
  6
Continuous
 62
     0
370
     0
100
AcDbLine
 10
0.0
 20
0.0
 30
0.0
 11
0.0
 21
-2.500000000000002
 31
0.0
  0
LINE
  5
1BD
330
1B8
100
AcDbEntity
  8
0
  6
Continuous
 62
     0
370
     0
100
AcDbLine
 10
0.0
 20
0.0
 30
0.0
 11
2.500000000000002
 21
0.0
 31
0.0
  0
LINE
  5
1BE
330
1B8
100
AcDbEntity
  8
0
  6
Continuous
 62
     0
370
     0
100
AcDbLine
 10
0.0
 20
5.000000000000004
 30
0.0
 11
0.0
 21
5.800000000000027
 31
0.0
  0
LINE
  5
1BF
330
1B8
100
AcDbEntity
  8
0
  6
Continuous
 62
     0
370
     0
100
AcDbLine
 10
-5.000000000000004
 20
0.0
 30
0.0
 11
-5.800000000000027
 21
0.0
 31
0.0
  0
LINE
  5
1C0
330
1B8
100
AcDbEntity
  8
0
  6
Continuous
 62
     0
370
     0
100
AcDbLine
 10
0.0
 20
-5.000000000000004
 30
0.0
 11
0.0
 21
-5.800000000000027
 31
0.0
  0
LINE
  5
1C1
330
1B8
100
AcDbEntity
  8
0
  6
Continuous
 62
     0
370
     0
100
AcDbLine
 10
5.000000000000004
 20
0.0
 30
0.0
 11
5.800000000000027
 21
0.0
 31
0.0
  0
ENDBLK
  5
1C2
330
1B8
100
AcDbEntity
  8
0
100
AcDbBlockEnd
  0
BLOCK
  5
1C4
330
1C3
100
AcDbEntity
  8
0
100
AcDbBlockBegin
  2
SW_CENTERMARKSYMBOL_2
 70
     0
 10
0.0
 20
0.0
 30
0.0
  3
SW_CENTERMARKSYMBOL_2
  1

  0
LINE
  5
1C5
330
1C3
100
AcDbEntity
  8
0
  6
Continuous
 62
     0
370
     0
100
AcDbLine
 10
0.0
 20
0.0
 30
0.0
 11
0.0
 21
2.500000000000002
 31
0.0
  0
LINE
  5
1C6
330
1C3
100
AcDbEntity
  8
0
  6
Continuous
 62
     0
370
     0
100
AcDbLine
 10
0.0
 20
0.0
 30
0.0
 11
-2.500000000000002
 21
0.0
 31
0.0
  0
LINE
  5
1C7
330
1C3
100
AcDbEntity
  8
0
  6
Continuous
 62
     0
370
     0
100
AcDbLine
 10
0.0
 20
0.0
 30
0.0
 11
0.0
 21
-2.500000000000002
 31
0.0
  0
LINE
  5
1C8
330
1C3
100
AcDbEntity
  8
0
  6
Continuous
 62
     0
370
     0
100
AcDbLine
 10
0.0
 20
0.0
 30
0.0
 11
2.500000000000002
 21
0.0
 31
0.0
  0
LINE
  5
1C9
330
1C3
100
AcDbEntity
  8
0
  6
Continuous
 62
     0
370
     0
100
AcDbLine
 10
0.0
 20
5.000000000000004
 30
0.0
 11
0.0
 21
6.750006793215246
 31
0.0
  0
LINE
  5
1CA
330
1C3
100
AcDbEntity
  8
0
  6
Continuous
 62
     0
370
     0
100
AcDbLine
 10
-5.000000000000004
 20
0.0
 30
0.0
 11
-6.750006793215246
 21
0.0
 31
0.0
  0
LINE
  5
1CB
330
1C3
100
AcDbEntity
  8
0
  6
Continuous
 62
     0
370
     0
100
AcDbLine
 10
0.0
 20
-5.000000000000004
 30
0.0
 11
0.0
 21
-6.750006793215246
 31
0.0
  0
LINE
  5
1CC
330
1C3
100
AcDbEntity
  8
0
  6
Continuous
 62
     0
370
     0
100
AcDbLine
 10
5.000000000000004
 20
0.0
 30
0.0
 11
6.750006793215246
 21
0.0
 31
0.0
  0
ENDBLK
  5
1CD
330
1C3
100
AcDbEntity
  8
0
100
AcDbBlockEnd
  0
BLOCK
  5
1CF
330
1CE
100
AcDbEntity
  8
0
100
AcDbBlockBegin
  2
SW_CENTERMARKSYMBOL_3
 70
     0
 10
0.0
 20
0.0
 30
0.0
  3
SW_CENTERMARKSYMBOL_3
  1

  0
LINE
  5
1D0
330
1CE
100
AcDbEntity
  8
0
  6
Continuous
 62
     0
370
     0
100
AcDbLine
 10
0.0
 20
0.0
 30
0.0
 11
0.0
 21
2.500000000000002
 31
0.0
  0
LINE
  5
1D1
330
1CE
100
AcDbEntity
  8
0
  6
Continuous
 62
     0
370
     0
100
AcDbLine
 10
0.0
 20
0.0
 30
0.0
 11
-2.500000000000002
 21
0.0
 31
0.0
  0
LINE
  5
1D2
330
1CE
100
AcDbEntity
  8
0
  6
Continuous
 62
     0
370
     0
100
AcDbLine
 10
0.0
 20
0.0
 30
0.0
 11
0.0
 21
-2.500000000000002
 31
0.0
  0
LINE
  5
1D3
330
1CE
100
AcDbEntity
  8
0
  6
Continuous
 62
     0
370
     0
100
AcDbLine
 10
0.0
 20
0.0
 30
0.0
 11
2.500000000000002
 21
0.0
 31
0.0
  0
LINE
  5
1D4
330
1CE
100
AcDbEntity
  8
0
  6
Continuous
 62
     0
370
     0
100
AcDbLine
 10
0.0
 20
2.500000000000002
 30
0.0
 11
0.0
 21
4.949999999999842
 31
0.0
  0
LINE
  5
1D5
330
1CE
100
AcDbEntity
  8
0
  6
Continuous
 62
     0
370
     0
100
AcDbLine
 10
-2.500000000000002
 20
0.0
 30
0.0
 11
-4.949999999999842
 21
0.0
 31
0.0
  0
LINE
  5
1D6
330
1CE
100
AcDbEntity
  8
0
  6
Continuous
 62
     0
370
     0
100
AcDbLine
 10
0.0
 20
-2.500000000000002
 30
0.0
 11
0.0
 21
-4.949999999999842
 31
0.0
  0
LINE
  5
1D7
330
1CE
100
AcDbEntity
  8
0
  6
Continuous
 62
     0
370
     0
100
AcDbLine
 10
2.500000000000002
 20
0.0
 30
0.0
 11
4.949999999999842
 21
0.0
 31
0.0
  0
ENDBLK
  5
1D8
330
1CE
100
AcDbEntity
  8
0
100
AcDbBlockEnd
  0
BLOCK
  5
1DA
330
1D9
100
AcDbEntity
  8
0
100
AcDbBlockBegin
  2
SW_CENTERMARKSYMBOL_4
 70
     0
 10
0.0
 20
0.0
 30
0.0
  3
SW_CENTERMARKSYMBOL_4
  1

  0
LINE
  5
1DB
330
1D9
100
AcDbEntity
  8
0
  6
Continuous
 62
     0
370
     0
100
AcDbLine
 10
0.0
 20
0.0
 30
0.0
 11
0.0
 21
2.500000000000002
 31
0.0
  0
LINE
  5
1DC
330
1D9
100
AcDbEntity
  8
0
  6
Continuous
 62
     0
370
     0
100
AcDbLine
 10
0.0
 20
0.0
 30
0.0
 11
-2.500000000000002
 21
0.0
 31
0.0
  0
LINE
  5
1DD
330
1D9
100
AcDbEntity
  8
0
  6
Continuous
 62
     0
370
     0
100
AcDbLine
 10
0.0
 20
0.0
 30
0.0
 11
0.0
 21
-2.500000000000002
 31
0.0
  0
LINE
  5
1DE
330
1D9
100
AcDbEntity
  8
0
  6
Continuous
 62
     0
370
     0
100
AcDbLine
 10
0.0
 20
0.0
 30
0.0
 11
2.500000000000002
 21
0.0
 31
0.0
  0
LINE
  5
1DF
330
1D9
100
AcDbEntity
  8
0
  6
Continuous
 62
     0
370
     0
100
AcDbLine
 10
0.0
 20
2.500000000000002
 30
0.0
 11
0.0
 21
4.949999999999842
 31
0.0
  0
LINE
  5
1E0
330
1D9
100
AcDbEntity
  8
0
  6
Continuous
 62
     0
370
     0
100
AcDbLine
 10
-2.500000000000002
 20
0.0
 30
0.0
 11
-4.949999999999842
 21
0.0
 31
0.0
  0
LINE
  5
1E1
330
1D9
100
AcDbEntity
  8
0
  6
Continuous
 62
     0
370
     0
100
AcDbLine
 10
0.0
 20
-2.500000000000002
 30
0.0
 11
0.0
 21
-4.949999999999842
 31
0.0
  0
LINE
  5
1E2
330
1D9
100
AcDbEntity
  8
0
  6
Continuous
 62
     0
370
     0
100
AcDbLine
 10
2.500000000000002
 20
0.0
 30
0.0
 11
4.949999999999842
 21
0.0
 31
0.0
  0
ENDBLK
  5
1E3
330
1D9
100
AcDbEntity
  8
0
100
AcDbBlockEnd
  0
BLOCK
  5
928
330
927
100
AcDbEntity
  8
0
100
AcDbBlockBegin
  2
1
 70
     0
 10
0.0
 20
0.0
 30
0.0
  3
1
  1

  0
LINE
  5
92A
330
927
100
AcDbEntity
  8
0
  6
Continuous
 62
     7
370
    15
100
AcDbLine
 10
1797.427598098005
 20
798.0010877634913
 30
0.0
 11
1797.375226254867
 21
800.0010877634917
 31
0.0
  0
LINE
  5
92B
330
927
100
AcDbEntity
  8
0
  6
Continuous
 62
     7
370
    15
100
AcDbLine
 10
1788.875212668436
 20
800.0010877634917
 30
0.0
 11
1788.822840825298
 21
798.0010877634913
 31
0.0
  0
LINE
  5
92C
330
927
100
AcDbEntity
  8
0
  6
Continuous
 62
     7
370
    15
100
AcDbLine
 10
1776.027629898483
 20
798.0010877634913
 30
0.0
 11
1775.975258055345
 21
800.0010877634919
 31
0.0
  0
LINE
  5
92D
330
927
100
AcDbEntity
  8
0
  6
Continuous
 62
     7
370
    15
100
AcDbLine
 10
1767.475244468914
 20
800.0010877634917
 30
0.0
 11
1767.422872625776
 21
798.0010877634913
 31
0.0
  0
LINE
  5
92E
330
927
100
AcDbEntity
  8
0
  6
Continuous
 62
     7
370
    15
100
AcDbLine
 10
1757.075235361889
 20
758.0685384011023
 30
0.0
 11
1807.775235361891
 21
758.0685384011023
 31
0.0
  0
LINE
  5
92F
330
927
100
AcDbEntity
  8
0
  6
Continuous
 62
     7
370
    15
100
AcDbLine
 10
1807.775235361891
 20
757.9132685598624
 30
0.0
 11
1757.075235361889
 21
757.9132685598624
 31
0.0
  0
LINE
  5
930
330
927
100
AcDbEntity
  8
0
  6
Continuous
 62
     7
370
    15
100
AcDbLine
 10
1807.775235361891
 20
757.9132685598624
 30
0.0
 11
1807.775235361891
 21
758.0685384011023
 31
0.0
  0
LINE
  5
931
330
927
100
AcDbEntity
  8
0
  6
Continuous
 62
     7
370
    15
100
AcDbLine
 10
1757.075235361889
 20
758.0685384011023
 30
0.0
 11
1757.075235361889
 21
757.9132685598624
 31
0.0
  0
ARC
  5
932
330
927
100
AcDbEntity
  8
0
  6
Continuous
 62
     7
370
    15
100
AcDbCircle
 10
1760.284202783304
 20
789.6962913366199
 30
0.0
 40
0.199999999999726
100
AcDbArc
 50
62.50180123225618
 51
150.0049568377005
  0
ARC
  5
933
330
927
100
AcDbEntity
  8
0
  6
Continuous
 62
     7
370
    15
100
AcDbCircle
 10
1760.825892943023
 20
789.4143269316144
 30
0.0
 40
0.2000000000000843
100
AcDbArc
 50
329.9998729087747
 51
62.50180123013801
  0
ARC
  5
934
330
927
100
AcDbEntity
  8
0
  6
Continuous
 62
     7
370
    15
100
AcDbCircle
 10
1770.951706596463
 20
786.3591952760189
 30
0.0
 40
9.999999999999371
100
AcDbArc
 50
135.9977325991414
 51
164.0014370797145
  0
ARC
  5
935
330
927
100
AcDbEntity
  8
0
  6
Continuous
 62
     7
370
    15
100
AcDbCircle
 10
1763.231415489488
 20
797.5010877634915
 30
0.0
 40
0.5000000000001096
100
AcDbArc
 50
90.00000000028661
 51
150.0003092980818
  0
LINE
  5
936
330
927
100
AcDbEntity
  8
0
  6
Continuous
 62
     7
370
    15
100
AcDbLine
 10
1802.052069285746
 20
797.7510854259674
 30
0.0
 11
1802.197845924342
 21
797.4985897335608
 31
0.0
  0
ARC
  5
937
330
927
100
AcDbEntity
  8
0
  6
Continuous
 62
     7
370
    15
100
AcDbCircle
 10
1801.981338898615
 20
797.373590902325
 30
0.0
 40
0.249999999999879
100
AcDbArc
 50
239.9940237042624
 51
29.99969070130492
  0
LINE
  5
938
330
927
100
AcDbEntity
  8
0
  6
Continuous
 62
     7
370
    15
100
AcDbLine
 10
1801.856316316375
 20
797.1570975908114
 30
0.0
 11
1801.681290733776
 21
797.2581730011364
 31
0.0
  0
LINE
  5
939
330
927
100
AcDbEntity
  8
0
  6
Continuous
 62
     7
370
    15
100
AcDbLine
 10
1801.681290733776
 20
797.2581730011364
 30
0.0
 11
1801.246882769907
 21
797.0073536475329
 31
0.0
  0
ARC
  5
93A
330
927
100
AcDbEntity
  8
0
  6
Continuous
 62
     7
370
    15
100
AcDbCircle
 10
1801.321883600632
 20
796.8774483981234
 30
0.0
 40
0.1500016614358169
100
AcDbArc
 50
120.0000000029043
 51
194.9987270797589
  0
LINE
  5
93B
330
927
100
AcDbEntity
  8
0
  6
Continuous
 62
     7
370
    15
100
AcDbLine
 10
1801.176992259377
 20
796.8386283303374
 30
0.0
 11
1801.357435114806
 21
796.1653120502004
 31
0.0
  0
LINE
  5
93C
330
927
100
AcDbEntity
  8
0
  6
Continuous
 62
     7
370
    15
100
AcDbLine
 10
1802.106636697881
 20
794.3564311605333
 30
0.0
 11
1802.295526635628
 21
794.0292593922824
 31
0.0
  0
ARC
  5
93D
330
927
100
AcDbEntity
  8
0
  6
Continuous
 62
     7
370
    15
100
AcDbCircle
 10
1802.122320919718
 20
793.9292604924073
 30
0.0
 40
0.2000000000002676
100
AcDbArc
 50
302.5011522056806
 51
29.99963608220406
  0
LINE
  5
93E
330
927
100
AcDbEntity
  8
0
  6
Continuous
 62
     7
370
    15
100
AcDbLine
 10
1802.229784233449
 20
793.7605843642744
 30
0.0
 11
1801.714746520843
 21
793.4324545932939
 31
0.0
  0
ARC
  5
93F
330
927
100
AcDbEntity
  8
0
  6
Continuous
 62
     7
370
    15
100
AcDbCircle
 10
1801.607283207118
 20
793.6011307214299
 30
0.0
 40
0.199999999999919
100
AcDbArc
 50
209.9950693308445
 51
302.5011522038736
  0
LINE
  5
940
330
927
100
AcDbEntity
  8
0
  6
Continuous
 62
     7
370
    15
100
AcDbLine
 10
1801.434069521361
 20
793.5011456272079
 30
0.0
 11
1801.414859315638
 21
793.5344252931738
 31
0.0
  0
ARC
  5
941
330
927
100
AcDbEntity
  8
0
  6
Continuous
 62
     7
370
    15
100
AcDbCircle
 10
1801.284949051323
 20
793.459436472503
 30
0.0
 40
0.1500000000001215
100
AcDbArc
 50
29.99506933279973
 51
119.9998881201864
  0
LINE
  5
942
330
927
100
AcDbEntity
  8
0
  6
Continuous
 62
     7
370
    15
100
AcDbLine
 10
1801.209949304983
 20
793.5893404295208
 30
0.0
 11
1801.124783124676
 21
793.5401699341309
 31
0.0
  0
ARC
  5
943
330
927
100
AcDbEntity
  8
0
  6
Continuous
 62
     7
370
    15
100
AcDbCircle
 10
1801.199784070116
 20
793.4102666694183
 30
0.0
 40
0.149999999999648
100
AcDbArc
 50
120.000416999652
 51
224.0022673991494
  0
ARC
  5
944
330
927
100
AcDbEntity
  8
0
  6
Continuous
 62
     7
370
    15
100
AcDbCircle
 10
1811.420745011695
 20
793.2239230260295
 30
0.0
 40
7.49999931920699
100
AcDbArc
 50
209.9999999999917
 51
224.9999910265789
  0
LINE
  5
945
330
927
100
AcDbEntity
  8
0
  6
Continuous
 62
     7
370
    15
100
AcDbLine
 10
1806.11744380361
 20
787.9206234791039
 30
0.0
 11
1806.614393005355
 21
787.4236191724609
 31
0.0
  0
ARC
  5
946
330
927
100
AcDbEntity
  8
0
  6
Continuous
 62
     7
370
    15
100
AcDbCircle
 10
1806.720463606833
 20
787.5296780134593
 30
0.0
 40
0.1499981675627989
100
AcDbArc
 50
224.9968235156924
 51
300.0002321240842
  0
LINE
  5
947
330
927
100
AcDbEntity
  8
0
  6
Continuous
 62
     7
370
    15
100
AcDbLine
 10
1807.228599391862
 20
787.6498473806564
 30
0.0
 11
1807.228582036235
 21
787.8519463151178
 31
0.0
  0
LINE
  5
948
330
927
100
AcDbEntity
  8
0
  6
Continuous
 62
     7
370
    15
100
AcDbLine
 10
1807.69508906104
 20
787.9769666155744
 30
0.0
 11
1807.708249413346
 21
787.9541719325604
 31
0.0
  0
ARC
  5
949
330
927
100
AcDbEntity
  8
0
  6
Continuous
 62
     7
370
    15
100
AcDbCircle
 10
1807.27523536189
 20
787.7041742700868
 30
0.0
 40
0.500000000000205
100
AcDbArc
 50
0.0
 51
29.99969070146898
  0
LINE
  5
94A
330
927
100
AcDbEntity
  8
0
  6
Continuous
 62
     7
370
    15
100
AcDbLine
 10
1759.924915650884
 20
789.4739233664268
 30
0.0
 11
1760.110989051882
 21
789.7962763517304
 31
0.0
  0
ARC
  5
94B
330
927
100
AcDbEntity
  8
0
  6
Continuous
 62
     7
370
    15
100
AcDbCircle
 10
1807.478582035314
 20
787.8519677843353
 30
0.0
 40
0.2500000000004228
100
AcDbArc
 50
29.99969070206357
 51
180.0049203822215
  0
ARC
  5
94C
330
927
100
AcDbEntity
  8
0
  6
Continuous
 62
     7
370
    15
100
AcDbCircle
 10
1778.875252131291
 20
788.201087763493
 30
0.0
 40
0.1999999999999886
100
AcDbArc
 50
180.0000000004364
 51
269.9999999992705
  0
LINE
  5
94D
330
927
100
AcDbEntity
  8
0
  6
Continuous
 62
     7
370
    15
100
AcDbLine
 10
1760.376546928836
 20
789.873696406406
 30
0.0
 11
1760.918237088562
 21
789.5917320013968
 31
0.0
  0
ARC
  5
94E
330
927
100
AcDbEntity
  8
0
  6
Continuous
 62
     7
370
    15
100
AcDbCircle
 10
1808.601934229396
 20
798.1062434198394
 30
0.0
 40
7.499998800195921
100
AcDbArc
 50
194.9983299721862
 51
209.9983491954492
  0
LINE
  5
94F
330
927
100
AcDbEntity
  8
0
  6
Continuous
 62
     7
370
    15
100
AcDbLine
 10
1758.23607132855
 20
787.4236127818798
 30
0.0
 11
1758.73302692017
 21
787.9206234791044
 31
0.0
  0
ARC
  5
950
330
927
100
AcDbEntity
  8
0
  6
Continuous
 62
     7
370
    15
100
AcDbCircle
 10
1758.130007116945
 20
787.5296780134593
 30
0.0
 40
0.149998167766736
100
AcDbArc
 50
239.9997678760644
 51
314.9997245067518
  0
LINE
  5
951
330
927
100
AcDbEntity
  8
0
  6
Continuous
 62
     7
370
    15
100
AcDbLine
 10
1757.621871331917
 20
787.6498473806548
 30
0.0
 11
1758.055007506786
 21
787.3997760934994
 31
0.0
  0
LINE
  5
952
330
927
100
AcDbEntity
  8
0
  6
Continuous
 62
     7
370
    15
100
AcDbLine
 10
1757.621888687544
 20
787.8519463151165
 30
0.0
 11
1757.621871331917
 21
787.6498473806548
 31
0.0
  0
ARC
  5
953
330
927
100
AcDbEntity
  8
0
  6
Continuous
 62
     7
370
    15
100
AcDbCircle
 10
1757.371888688466
 20
787.8519677843359
 30
0.0
 40
0.2499999999999265
100
AcDbArc
 50
359.9950796173225
 51
150.0003092977901
  0
LINE
  5
954
330
927
100
AcDbEntity
  8
0
  6
Continuous
 62
     7
370
    15
100
AcDbLine
 10
1757.142221310434
 20
787.9541719325609
 30
0.0
 11
1757.155381662739
 21
787.9769666155755
 31
0.0
  0
ARC
  5
955
330
927
100
AcDbEntity
  8
0
  6
Continuous
 62
     7
370
    15
100
AcDbCircle
 10
1757.575235361889
 20
787.7041742700868
 30
0.0
 40
0.50000000000044
100
AcDbArc
 50
150.0003092984728
 51
179.9999999996417
  0
ARC
  5
956
330
927
100
AcDbEntity
  8
0
  6
Continuous
 62
     7
370
    15
100
AcDbCircle
 10
1801.619055234291
 20
797.5010877634915
 30
0.0
 40
0.5000000000000411
100
AcDbArc
 50
29.99969070178407
 51
89.99999999981762
  0
ARC
  5
957
330
927
100
AcDbEntity
  8
0
  6
Continuous
 62
     7
370
    15
100
AcDbCircle
 10
1753.429725712084
 20
793.2239230260295
 30
0.0
 40
7.499999319206454
100
AcDbArc
 50
315.0000089734211
 51
330.0000000000084
  0
LINE
  5
958
330
927
100
AcDbEntity
  8
0
  6
Continuous
 62
     7
370
    15
100
AcDbLine
 10
1787.375218592486
 20
798.0010877634918
 30
0.0
 11
1801.619055234293
 21
798.0010877634913
 31
0.0
  0
ARC
  5
959
330
927
100
AcDbEntity
  8
0
  6
Continuous
 62
     7
370
    15
100
AcDbCircle
 10
1787.375218592488
 20
796.8010877634924
 30
0.0
 40
1.200000000000045
100
AcDbArc
 50
90.00000000011725
 51
179.9999999998827
  0
LINE
  5
95A
330
927
100
AcDbEntity
  8
0
  6
Continuous
 62
     7
370
    15
100
AcDbLine
 10
1762.652624799436
 20
797.4985897335614
 30
0.0
 11
1762.798401438034
 21
797.7510854259684
 31
0.0
  0
ARC
  5
95B
330
927
100
AcDbEntity
  8
0
  6
Continuous
 62
     7
370
    15
100
AcDbCircle
 10
1762.869131825164
 20
797.373590902325
 30
0.0
 40
0.250000000000439
100
AcDbArc
 50
150.0003092986426
 51
300.0059762934092
  0
LINE
  5
95C
330
927
100
AcDbEntity
  8
0
  6
Continuous
 62
     7
370
    15
100
AcDbLine
 10
1763.169179989989
 20
797.2581730011364
 30
0.0
 11
1762.994154407395
 21
797.1570975908059
 31
0.0
  0
LINE
  5
95D
330
927
100
AcDbEntity
  8
0
  6
Continuous
 62
     7
370
    15
100
AcDbLine
 10
1763.603587953862
 20
797.0073536475378
 30
0.0
 11
1763.169179989989
 21
797.2581730011364
 31
0.0
  0
ARC
  5
95E
330
927
100
AcDbEntity
  8
0
  6
Continuous
 62
     7
370
    15
100
AcDbCircle
 10
1763.528587123148
 20
796.8774483981234
 30
0.0
 40
0.1500016614353166
100
AcDbArc
 50
345.0012729206267
 51
60.00000000133903
  0
LINE
  5
95F
330
927
100
AcDbEntity
  8
0
  6
Continuous
 62
     7
370
    15
100
AcDbLine
 10
1763.493035608973
 20
796.1653120502009
 30
0.0
 11
1763.673478464402
 21
796.8386283303384
 31
0.0
  0
ARC
  5
960
330
927
100
AcDbEntity
  8
0
  6
Continuous
 62
     7
370
    15
100
AcDbCircle
 10
1756.248536494383
 20
798.1062434198394
 30
0.0
 40
7.499998800195538
100
AcDbArc
 50
330.0016508045509
 51
345.0016700278263
  0
LINE
  5
961
330
927
100
AcDbEntity
  8
0
  6
Continuous
 62
     7
370
    15
100
AcDbLine
 10
1762.554944088151
 20
794.0292593922824
 30
0.0
 11
1762.743834025897
 21
794.3564311605338
 31
0.0
  0
ARC
  5
962
330
927
100
AcDbEntity
  8
0
  6
Continuous
 62
     7
370
    15
100
AcDbCircle
 10
1762.72814980406
 20
793.9292604924073
 30
0.0
 40
0.2000000000000753
100
AcDbArc
 50
150.0003639177321
 51
237.4988477917535
  0
LINE
  5
963
330
927
100
AcDbEntity
  8
0
  6
Continuous
 62
     7
370
    15
100
AcDbLine
 10
1763.135724202926
 20
793.4324545932989
 30
0.0
 11
1762.620686490321
 21
793.7605843642793
 31
0.0
  0
ARC
  5
964
330
927
100
AcDbEntity
  8
0
  6
Continuous
 62
     7
370
    15
100
AcDbCircle
 10
1763.243187516661
 20
793.6011307214299
 30
0.0
 40
0.2000000000003996
100
AcDbArc
 50
237.4988477931773
 51
330.0049306681925
  0
LINE
  5
965
330
927
100
AcDbEntity
  8
0
  6
Continuous
 62
     7
370
    15
100
AcDbLine
 10
1763.435611408139
 20
793.5344252931709
 30
0.0
 11
1763.416401202416
 21
793.5011456272048
 31
0.0
  0
ARC
  5
966
330
927
100
AcDbEntity
  8
0
  6
Continuous
 62
     7
370
    15
100
AcDbCircle
 10
1763.565521672456
 20
793.459436472503
 30
0.0
 40
0.1499999999997965
100
AcDbArc
 50
60.00011188349941
 51
150.0049306685487
  0
LINE
  5
967
330
927
100
AcDbEntity
  8
0
  6
Continuous
 62
     7
370
    15
100
AcDbLine
 10
1763.725687599096
 20
793.5401699341349
 30
0.0
 11
1763.640521418787
 21
793.5893404295255
 31
0.0
  0
ARC
  5
968
330
927
100
AcDbEntity
  8
0
  6
Continuous
 62
     7
370
    15
100
AcDbCircle
 10
1763.650686653662
 20
793.4102666694183
 30
0.0
 40
0.1500000000002789
100
AcDbArc
 50
315.9977325988605
 51
59.99958300308527
  0
ARC
  5
969
330
927
100
AcDbEntity
  8
0
  6
Continuous
 62
     7
370
    15
100
AcDbCircle
 10
1803.740803681678
 20
789.2058382606493
 30
0.0
 40
0.1500000000002022
100
AcDbArc
 50
300.0004401804405
 51
30.0006231055071
  0
ARC
  5
96A
330
927
100
AcDbEntity
  8
0
  6
Continuous
 62
     7
370
    15
100
AcDbCircle
 10
1761.194830214003
 20
789.1566697186858
 30
0.0
 40
0.150000000000321
100
AcDbArc
 50
239.9996345497091
 51
344.0014370798944
  0
LINE
  5
96B
330
927
100
AcDbEntity
  8
0
  6
Continuous
 62
     7
370
    15
100
AcDbLine
 10
1761.034666044105
 20
789.0759350262803
 30
0.0
 11
1761.119829385438
 21
789.0267663864938
 31
0.0
  0
ARC
  5
96C
330
927
100
AcDbEntity
  8
0
  6
Continuous
 62
     7
370
    15
100
AcDbCircle
 10
1761.109667042101
 20
789.2058382606493
 30
0.0
 40
0.1499999999997407
100
AcDbArc
 50
149.9993768959755
 51
239.9995598197115
  0
LINE
  5
96D
330
927
100
AcDbEntity
  8
0
  6
Continuous
 62
     7
370
    15
100
AcDbLine
 10
1760.999097801964
 20
789.3143265474179
 30
0.0
 11
1760.979764047183
 21
789.2808396733769
 31
0.0
  0
LINE
  5
96E
330
927
100
AcDbEntity
  8
0
  6
Continuous
 62
     7
370
    15
100
AcDbLine
 10
1804.739481671898
 20
789.7962763517295
 30
0.0
 11
1804.925555072895
 21
789.4739233664274
 31
0.0
  0
LINE
  5
96F
330
927
100
AcDbEntity
  8
0
  6
Continuous
 62
     7
370
    15
100
AcDbLine
 10
1786.175218592488
 20
788.201087763493
 30
0.0
 11
1786.175218592488
 21
796.8010877634948
 31
0.0
  0
ARC
  5
970
330
927
100
AcDbEntity
  8
0
  6
Continuous
 62
     7
370
    15
100
AcDbCircle
 10
1785.975218592488
 20
788.201087763493
 30
0.0
 40
0.2000000000005571
100
AcDbArc
 50
270.0000000002736
 51
0.0
  0
LINE
  5
971
330
927
100
AcDbEntity
  8
0
  6
Continuous
 62
     7
370
    15
100
AcDbLine
 10
1778.875252131288
 20
788.0010877634929
 30
0.0
 11
1785.975218592489
 21
788.0010877634924
 31
0.0
  0
LINE
  5
972
330
927
100
AcDbEntity
  8
0
  6
Continuous
 62
     7
370
    15
100
AcDbLine
 10
1803.870706676595
 20
789.2808396733804
 30
0.0
 11
1803.851372921814
 21
789.3143265474209
 31
0.0
  0
LINE
  5
973
330
927
100
AcDbEntity
  8
0
  6
Continuous
 62
     7
370
    15
100
AcDbLine
 10
1806.795463216891
 20
787.3997760936759
 30
0.0
 11
1807.228599391862
 21
787.6498473806564
 31
0.0
  0
LINE
  5
974
330
927
100
AcDbEntity
  8
0
  6
Continuous
 62
     7
370
    15
100
AcDbLine
 10
1778.675252131291
 20
796.8010877634924
 30
0.0
 11
1778.675252131291
 21
788.2010877634914
 31
0.0
  0
ARC
  5
975
330
927
100
AcDbEntity
  8
0
  6
Continuous
 62
     7
370
    15
100
AcDbCircle
 10
1777.475252131291
 20
796.8010877634924
 30
0.0
 40
1.199999999999988
100
AcDbArc
 50
0.0
 51
89.99999999992184
  0
LINE
  5
976
330
927
100
AcDbEntity
  8
0
  6
Continuous
 62
     7
370
    15
100
AcDbLine
 10
1763.231415489485
 20
798.0010877634913
 30
0.0
 11
1777.475252131293
 21
798.0010877634918
 31
0.0
  0
ARC
  5
977
330
927
100
AcDbEntity
  8
0
  6
Continuous
 62
     7
370
    15
100
AcDbCircle
 10
1793.898764127315
 20
786.3591952760189
 30
0.0
 40
10.0000000000004
100
AcDbArc
 50
15.9985629202891
 51
44.00226740089538
  0
ARC
  5
978
330
927
100
AcDbEntity
  8
0
  6
Continuous
 62
     7
370
    15
100
AcDbCircle
 10
1804.566267940475
 20
789.6962913366199
 30
0.0
 40
0.1999999999998664
100
AcDbArc
 50
29.99504316193187
 51
117.4981987692152
  0
LINE
  5
979
330
927
100
AcDbEntity
  8
0
  6
Continuous
 62
     7
370
    15
100
AcDbLine
 10
1803.932233635214
 20
789.5917320013964
 30
0.0
 11
1804.473923794938
 21
789.8736964064035
 31
0.0
  0
ARC
  5
97A
330
927
100
AcDbEntity
  8
0
  6
Continuous
 62
     7
370
    15
100
AcDbCircle
 10
1804.024577780755
 20
789.4143269316144
 30
0.0
 40
0.2000000000001596
100
AcDbArc
 50
117.4981987704475
 51
210.0001270902622
  0
LINE
  5
97B
330
927
100
AcDbEntity
  8
0
  6
Continuous
 62
     7
370
    15
100
AcDbLine
 10
1803.730641338342
 20
789.0267663864949
 30
0.0
 11
1803.815804679674
 21
789.0759350262803
 31
0.0
  0
ARC
  5
97C
330
927
100
AcDbEntity
  8
0
  6
Continuous
 62
     7
370
    15
100
AcDbCircle
 10
1803.655640509776
 20
789.1566697186858
 30
0.0
 40
0.1500000000001445
100
AcDbArc
 50
195.9985629196565
 51
300.0003654504685
  0
LINE
  5
97D
330
927
100
AcDbEntity
  8
0
  6
Continuous
 62
     7
370
    15
100
AcDbLine
 10
1807.77523536189
 20
787.7041742700868
 30
0.0
 11
1807.775235361891
 21
758.0685384011023
 31
0.0
  0
LINE
  5
97E
330
927
100
AcDbEntity
  8
0
  6
Continuous
 62
     7
370
    15
100
AcDbLine
 10
1757.075235361889
 20
758.0685384011023
 30
0.0
 11
1757.075235361889
 21
787.7041742700899
 31
0.0
  0
LINE
  5
97F
330
927
100
AcDbEntity
  8
0
  6
Continuous
 62
     7
370
    15
100
AcDbLine
 10
1807.775235361891
 20
757.7579987186224
 30
0.0
 11
1757.075235361889
 21
757.7579987186224
 31
0.0
  0
LINE
  5
980
330
927
100
AcDbEntity
  8
0
  6
Continuous
 62
     7
370
    15
100
AcDbLine
 10
1807.775235361891
 20
757.7579987186224
 30
0.0
 11
1807.775235361891
 21
757.9132685598624
 31
0.0
  0
LINE
  5
981
330
927
100
AcDbEntity
  8
0
  6
Continuous
 62
     7
370
    15
100
AcDbLine
 10
1757.075235361889
 20
757.7579987186224
 30
0.0
 11
1757.075235361889
 21
757.9132685598624
 31
0.0
  0
ARC
  5
982
330
927
100
AcDbEntity
  8
0
  6
Continuous
 62
     7
370
    15
100
AcDbCircle
 10
1801.045856680934
 20
756.5010877634908
 30
0.0
 40
0.5000000000005116
100
AcDbArc
 50
90.0
 51
183.9820664590574
  0
LINE
  5
983
330
927
100
AcDbEntity
  8
0
  6
Continuous
 62
     7
370
    15
100
AcDbLine
 10
1801.145729448692
 20
747.8663656467679
 30
0.0
 11
1800.547063763372
 21
756.4663656467673
 31
0.0
  0
ARC
  5
984
330
927
100
AcDbEntity
  8
0
  6
Continuous
 62
     7
370
    15
100
AcDbCircle
 10
1801.644522366254
 20
747.9010877634919
 30
0.0
 40
0.5
100
AcDbArc
 50
183.9820664591289
 51
270.0
  0
LINE
  5
985
330
927
100
AcDbEntity
  8
0
  6
Continuous
 62
     7
370
    15
100
AcDbLine
 10
1801.644522366254
 20
747.4010877634919
 30
0.0
 11
1802.147317284322
 21
747.4010877634919
 31
0.0
  0
ARC
  5
986
330
927
100
AcDbEntity
  8
0
  6
Continuous
 62
     7
370
    15
100
AcDbCircle
 10
1802.147317284322
 20
747.9010877634919
 30
0.0
 40
0.5000000000002009
100
AcDbArc
 50
270.0
 51
345.0009772028262
  0
LINE
  5
987
330
927
100
AcDbEntity
  8
0
  6
Continuous
 62
     7
370
    15
100
AcDbLine
 10
1802.630282404529
 20
747.7716864780884
 30
0.0
 11
1804.934488252753
 21
756.3716864780879
 31
0.0
  0
ARC
  5
988
330
927
100
AcDbEntity
  8
0
  6
Continuous
 62
     7
370
    15
100
AcDbCircle
 10
1804.451523132546
 20
756.5010877634908
 30
0.0
 40
0.5
100
AcDbArc
 50
345.0009772028861
 51
90.0
  0
LINE
  5
989
330
927
100
AcDbEntity
  8
0
  6
Continuous
 62
     7
370
    15
100
AcDbLine
 10
1801.045856680934
 20
757.0010877634913
 30
0.0
 11
1804.451523132546
 21
757.0010877634908
 31
0.0
  0
ARC
  5
98A
330
927
100
AcDbEntity
  8
0
  6
Continuous
 62
     7
370
    15
100
AcDbCircle
 10
1760.398947591234
 20
756.5010877634908
 30
0.0
 40
0.5000000000000538
100
AcDbArc
 50
90.0
 51
194.9990227971138
  0
LINE
  5
98B
330
927
100
AcDbEntity
  8
0
  6
Continuous
 62
     7
370
    15
100
AcDbLine
 10
1762.22018831925
 20
747.7716864780884
 30
0.0
 11
1759.915982471027
 21
756.3716864780879
 31
0.0
  0
ARC
  5
98C
330
927
100
AcDbEntity
  8
0
  6
Continuous
 62
     7
370
    15
100
AcDbCircle
 10
1762.703153439457
 20
747.9010877634919
 30
0.0
 40
0.5000000000001459
100
AcDbArc
 50
194.9990227971738
 51
270.0
  0
LINE
  5
98D
330
927
100
AcDbEntity
  8
0
  6
Continuous
 62
     7
370
    15
100
AcDbLine
 10
1762.703153439457
 20
747.4010877634919
 30
0.0
 11
1763.205948357526
 21
747.4010877634919
 31
0.0
  0
ARC
  5
98E
330
927
100
AcDbEntity
  8
0
  6
Continuous
 62
     7
370
    15
100
AcDbCircle
 10
1763.205948357526
 20
747.9010877634919
 30
0.0
 40
0.5000000000002764
100
AcDbArc
 50
270.0
 51
356.0179335408776
  0
LINE
  5
98F
330
927
100
AcDbEntity
  8
0
  6
Continuous
 62
     7
370
    15
100
AcDbLine
 10
1763.704741275088
 20
747.8663656467679
 30
0.0
 11
1764.303406960408
 21
756.4663656467673
 31
0.0
  0
ARC
  5
990
330
927
100
AcDbEntity
  8
0
  6
Continuous
 62
     7
370
    15
100
AcDbCircle
 10
1763.804614042846
 20
756.5010877634908
 30
0.0
 40
0.5000000000005116
100
AcDbArc
 50
356.0179335409426
 51
90.0
  0
LINE
  5
991
330
927
100
AcDbEntity
  8
0
  6
Continuous
 62
     7
370
    15
100
AcDbLine
 10
1760.398947591234
 20
757.0010877634908
 30
0.0
 11
1763.804614042846
 21
757.0010877634913
 31
0.0
  0
ARC
  5
992
330
927
100
AcDbEntity
  8
0
  6
Continuous
 62
     7
370
    15
100
AcDbCircle
 10
1797.275488790111
 20
756.2010877634913
 30
0.0
 40
1.0
100
AcDbArc
 50
89.99999999997395
 51
169.9998203242789
  0
LINE
  5
993
330
927
100
AcDbEntity
  8
0
  6
Continuous
 62
     7
370
    15
100
AcDbLine
 10
1795.228635343016
 20
750.3516859537294
 30
0.0
 11
1796.290681581653
 21
756.3747390294484
 31
0.0
  0
ARC
  5
994
330
927
100
AcDbEntity
  8
0
  6
Continuous
 62
     7
370
    15
100
AcDbCircle
 10
1795.721038947245
 20
750.2648603207509
 30
0.0
 40
0.5000000000003002
100
AcDbArc
 50
169.9998203242917
 51
228.7124520176118
  0
ARC
  5
995
330
927
100
AcDbEntity
  8
0
  6
Continuous
 62
     7
370
    15
100
AcDbCircle
 10
1794.566463498164
 20
748.9500584876654
 30
0.0
 40
1.249785223365008
100
AcDbArc
 50
251.5424191380432
 51
48.71245201764857
  0
ARC
  5
996
330
927
100
AcDbEntity
  8
0
  6
Continuous
 62
     7
370
    15
100
AcDbCircle
 10
1794.012477166336
 20
747.2902851681864
 30
0.0
 40
0.5000000000000643
100
AcDbArc
 50
71.54241913802872
 51
114.1160431160818
  0
ARC
  5
997
330
927
100
AcDbEntity
  8
0
  6
Continuous
 62
     7
370
    15
100
AcDbCircle
 10
1792.889023507472
 20
749.7999117812878
 30
0.0
 40
2.249613402063002
100
AcDbArc
 50
269.9997535804412
 51
294.1160431161083
  0
LINE
  5
998
330
927
100
AcDbEntity
  8
0
  6
Continuous
 62
     7
370
    15
100
AcDbLine
 10
1792.566881948633
 20
747.5503027835104
 30
0.0
 11
1792.88901383228
 21
747.5503027835104
 31
0.0
  0
ARC
  5
999
330
927
100
AcDbEntity
  8
0
  6
Continuous
 62
     7
370
    15
100
AcDbCircle
 10
1792.566881948633
 20
748.0503027835104
 30
0.0
 40
0.5
100
AcDbArc
 50
179.999999999987
 51
270.0
  0
LINE
  5
99A
330
927
100
AcDbEntity
  8
0
  6
Continuous
 62
     7
370
    15
100
AcDbLine
 10
1792.066881948632
 20
748.2500818106169
 30
0.0
 11
1792.066881948632
 21
748.0503027835104
 31
0.0
  0
ARC
  5
99B
330
927
100
AcDbEntity
  8
0
  6
Continuous
 62
     7
370
    15
100
AcDbCircle
 10
1792.566881948633
 20
748.2500818106169
 30
0.0
 40
0.5
100
AcDbArc
 50
90.0
 51
179.999999999987
  0
LINE
  5
99C
330
927
100
AcDbEntity
  8
0
  6
Continuous
 62
     7
370
    15
100
AcDbLine
 10
1792.888834298568
 20
748.750081810617
 30
0.0
 11
1792.566881948633
 21
748.750081810617
 31
0.0
  0
ARC
  5
99D
330
927
100
AcDbEntity
  8
0
  6
Continuous
 62
     7
370
    15
100
AcDbCircle
 10
1792.888834298568
 20
749.7500818106169
 30
0.0
 40
1.0
100
AcDbArc
 50
270.0
 51
349.9997971863019
  0
LINE
  5
99E
330
927
100
AcDbEntity
  8
0
  6
Continuous
 62
     7
370
    15
100
AcDbLine
 10
1794.975885258036
 20
755.8274360998354
 30
0.0
 11
1793.8736414369
 21
749.5764301469614
 31
0.0
  0
ARC
  5
99F
330
927
100
AcDbEntity
  8
0
  6
Continuous
 62
     7
370
    15
100
AcDbCircle
 10
1793.991078119703
 20
756.0010877634908
 30
0.0
 40
1.0
100
AcDbArc
 50
349.9997971863148
 51
90.0
  0
LINE
  5
9A0
330
927
100
AcDbEntity
  8
0
  6
Continuous
 62
     7
370
    15
100
AcDbLine
 10
1770.859392604076
 20
757.0010877634908
 30
0.0
 11
1793.991078119703
 21
757.0010877634908
 31
0.0
  0
ARC
  5
9A1
330
927
100
AcDbEntity
  8
0
  6
Continuous
 62
     7
370
    15
100
AcDbCircle
 10
1770.859392604076
 20
756.0010877634908
 30
0.0
 40
1.0
100
AcDbArc
 50
89.99999999997395
 51
190.0002028136852
  0
LINE
  5
9A2
330
927
100
AcDbEntity
  8
0
  6
Continuous
 62
     7
370
    15
100
AcDbLine
 10
1770.97682928688
 20
749.5764301469614
 30
0.0
 11
1769.874585465744
 21
755.8274360998354
 31
0.0
  0
ARC
  5
9A3
330
927
100
AcDbEntity
  8
0
  6
Continuous
 62
     7
370
    15
100
AcDbCircle
 10
1771.961636425212
 20
749.7500818106169
 30
0.0
 40
1.000000000000033
100
AcDbArc
 50
190.0002028136981
 51
270.0
  0
LINE
  5
9A4
330
927
100
AcDbEntity
  8
0
  6
Continuous
 62
     7
370
    15
100
AcDbLine
 10
1772.283588775147
 20
748.750081810617
 30
0.0
 11
1771.961636425212
 21
748.750081810617
 31
0.0
  0
ARC
  5
9A5
330
927
100
AcDbEntity
  8
0
  6
Continuous
 62
     7
370
    15
100
AcDbCircle
 10
1772.283588775147
 20
748.2500818106169
 30
0.0
 40
0.5
100
AcDbArc
 50
0.0
 51
90.0
  0
LINE
  5
9A6
330
927
100
AcDbEntity
  8
0
  6
Continuous
 62
     7
370
    15
100
AcDbLine
 10
1772.783588775147
 20
748.0503027835104
 30
0.0
 11
1772.783588775147
 21
748.2500818106169
 31
0.0
  0
ARC
  5
9A7
330
927
100
AcDbEntity
  8
0
  6
Continuous
 62
     7
370
    15
100
AcDbCircle
 10
1772.283588775147
 20
748.0503027835104
 30
0.0
 40
0.5
100
AcDbArc
 50
270.0
 51
0.0
  0
LINE
  5
9A8
330
927
100
AcDbEntity
  8
0
  6
Continuous
 62
     7
370
    15
100
AcDbLine
 10
1771.9614568915
 20
747.5503027835104
 30
0.0
 11
1772.283588775147
 21
747.5503027835104
 31
0.0
  0
ARC
  5
9A9
330
927
100
AcDbEntity
  8
0
  6
Continuous
 62
     7
370
    15
100
AcDbCircle
 10
1771.961447216603
 20
749.7999117814818
 30
0.0
 40
2.249613402060417
100
AcDbArc
 50
245.8839568866325
 51
270.000246412055
  0
ARC
  5
9AA
330
927
100
AcDbEntity
  8
0
  6
Continuous
 62
     7
370
    15
100
AcDbCircle
 10
1770.837993557859
 20
747.2902851683288
 30
0.0
 40
0.5000000000000916
100
AcDbArc
 50
65.88395688663247
 51
108.4575808646923
  0
ARC
  5
9AB
330
927
100
AcDbEntity
  8
0
  6
Continuous
 62
     7
370
    15
100
AcDbCircle
 10
1770.284007225953
 20
748.9500584877815
 30
0.0
 40
1.249785223365413
100
AcDbArc
 50
131.2875479850788
 51
288.4575808646779
  0
ARC
  5
9AC
330
927
100
AcDbEntity
  8
0
  6
Continuous
 62
     7
370
    15
100
AcDbCircle
 10
1769.129431776809
 20
750.2648603208124
 30
0.0
 40
0.4999999999999972
100
AcDbArc
 50
311.2875479850745
 51
10.00017967851184
  0
LINE
  5
9AD
330
927
100
AcDbEntity
  8
0
  6
Continuous
 62
     7
370
    15
100
AcDbLine
 10
1768.559789142098
 20
756.3747390294963
 30
0.0
 11
1769.621835381034
 21
750.3516859538149
 31
0.0
  0
ARC
  5
9AE
330
927
100
AcDbEntity
  8
0
  6
Continuous
 62
     7
370
    15
100
AcDbCircle
 10
1767.574981933648
 20
756.2010877634909
 30
0.0
 40
1.000000000000241
100
AcDbArc
 50
10.00017967853109
 51
90.0
  0
LINE
  5
9AF
330
927
100
AcDbEntity
  8
0
  6
Continuous
 62
     7
370
    15
100
AcDbLine
 10
1765.922148870341
 20
757.2010877634859
 30
0.0
 11
1767.574981933648
 21
757.2010877634909
 31
0.0
  0
ARC
  5
9B0
330
927
100
AcDbEntity
  8
0
  6
Continuous
 62
     7
370
    15
100
AcDbCircle
 10
1765.922148870341
 20
756.7010877634909
 30
0.0
 40
0.5
100
AcDbArc
 50
90.0
 51
180.0
  0
LINE
  5
9B1
330
927
100
AcDbEntity
  8
0
  6
Continuous
 62
     7
370
    15
100
AcDbLine
 10
1765.422148870341
 20
753.2476349524948
 30
0.0
 11
1765.422148870341
 21
756.7010877634909
 31
0.0
  0
ARC
  5
9B2
330
927
100
AcDbEntity
  8
0
  6
Continuous
 62
     7
370
    15
100
AcDbCircle
 10
1765.922148870341
 20
753.2476349524948
 30
0.0
 40
0.5
100
AcDbArc
 50
180.0
 51
240.001376934812
  0
LINE
  5
9B3
330
927
100
AcDbEntity
  8
0
  6
Continuous
 62
     7
370
    15
100
AcDbLine
 10
1766.370916399437
 20
752.4112110195183
 30
0.0
 11
1765.672159276595
 21
752.8146162427163
 31
0.0
  0
ARC
  5
9B4
330
927
100
AcDbEntity
  8
0
  6
Continuous
 62
     7
370
    15
100
AcDbCircle
 10
1766.12092680569
 20
751.9781923097398
 30
0.0
 40
0.5
100
AcDbArc
 50
0.0000000000130276
 51
60.00137693481526
  0
LINE
  5
9B5
330
927
100
AcDbEntity
  8
0
  6
Continuous
 62
     7
370
    15
100
AcDbLine
 10
1766.62092680569
 20
750.3374196434899
 30
0.0
 11
1766.62092680569
 21
751.9781923097398
 31
0.0
  0
ARC
  5
9B6
330
927
100
AcDbEntity
  8
0
  6
Continuous
 62
     7
370
    15
100
AcDbCircle
 10
1766.320926805691
 20
750.3374196434899
 30
0.0
 40
0.3000000000003582
100
AcDbArc
 50
275.0002217801596
 51
0.0
  0
LINE
  5
9B7
330
927
100
AcDbEntity
  8
0
  6
Continuous
 62
     7
370
    15
100
AcDbLine
 10
1765.355327035639
 20
749.9517907906099
 30
0.0
 11
1766.347074685334
 21
750.0385613352729
 31
0.0
  0
ARC
  5
9B8
330
927
100
AcDbEntity
  8
0
  6
Continuous
 62
     7
370
    15
100
AcDbCircle
 10
1765.372758955401
 20
749.7525519184654
 30
0.0
 40
0.2000000000000699
100
AcDbArc
 50
95.0002217802251
 51
180.0000181848145
  0
LINE
  5
9B9
330
927
100
AcDbEntity
  8
0
  6
Continuous
 62
     7
370
    15
100
AcDbLine
 10
1765.172759247304
 20
748.8328452960133
 30
0.0
 11
1765.172758955402
 21
749.7525518549885
 31
0.0
  0
ARC
  5
9BA
330
927
100
AcDbEntity
  8
0
  6
Continuous
 62
     7
370
    15
100
AcDbCircle
 10
1765.372759247303
 20
748.8328453594903
 30
0.0
 40
0.19999999999983
100
AcDbArc
 50
180.0000181848145
 51
259.994940673538
  0
LINE
  5
9BB
330
927
100
AcDbEntity
  8
0
  6
Continuous
 62
     7
370
    15
100
AcDbLine
 10
1766.190971550768
 20
748.4854094719874
 30
0.0
 11
1765.338012219825
 21
748.6358868763488
 31
0.0
  0
ARC
  5
9BC
330
927
100
AcDbEntity
  8
0
  6
Continuous
 62
     7
370
    15
100
AcDbCircle
 10
1766.138851009551
 20
748.1899717472754
 30
0.0
 40
0.3000000000002618
100
AcDbArc
 50
324.9987704270169
 51
79.99494067344598
  0
LINE
  5
9BD
330
927
100
AcDbEntity
  8
0
  6
Continuous
 62
     7
370
    15
100
AcDbLine
 10
1765.868104785128
 20
747.2803057175879
 30
0.0
 11
1766.384592930079
 21
748.0178935426849
 31
0.0
  0
ARC
  5
9BE
330
927
100
AcDbEntity
  8
0
  6
Continuous
 62
     7
370
    15
100
AcDbCircle
 10
1763.410685579844
 20
749.0010877634919
 30
0.0
 40
3.0
100
AcDbArc
 50
270.0
 51
324.9987704270095
  0
LINE
  5
9BF
330
927
100
AcDbEntity
  8
0
  6
Continuous
 62
     7
370
    15
100
AcDbLine
 10
1757.92523536189
 20
746.0010877634918
 30
0.0
 11
1763.410685579844
 21
746.0010877634918
 31
0.0
  0
ARC
  5
9C0
330
927
100
AcDbEntity
  8
0
  6
Continuous
 62
     7
370
    15
100
AcDbCircle
 10
1757.92523536189
 20
747.0010877634919
 30
0.0
 40
1.0
100
AcDbArc
 50
180.0
 51
270.0
  0
LINE
  5
9C1
330
927
100
AcDbEntity
  8
0
  6
Continuous
 62
     7
370
    15
100
AcDbLine
 10
1756.92523536189
 20
750.1010950506954
 30
0.0
 11
1756.92523536189
 21
747.0010877634919
 31
0.0
  0
ARC
  5
9C2
330
927
100
AcDbEntity
  8
0
  6
Continuous
 62
     7
370
    15
100
AcDbCircle
 10
1757.42523536189
 20
750.1010950506954
 30
0.0
 40
0.50000000000023
100
AcDbArc
 50
90.00005495701461
 51
180.0
  0
LINE
  5
9C3
330
927
100
AcDbEntity
  8
0
  6
Continuous
 62
     7
370
    15
100
AcDbLine
 10
1757.425234882299
 20
750.6010950506954
 30
0.0
 11
1759.959102939297
 21
750.6010974811345
 31
0.0
  0
ARC
  5
9C4
330
927
100
AcDbEntity
  8
0
  6
Continuous
 62
     7
370
    15
100
AcDbCircle
 10
1759.95910274746
 20
750.8010974811343
 30
0.0
 40
0.2000000000000238
100
AcDbArc
 50
270.0000549571188
 51
14.99804993937893
  0
LINE
  5
9C5
330
927
100
AcDbEntity
  8
0
  6
Continuous
 62
     7
370
    15
100
AcDbLine
 10
1760.152289674386
 20
750.852854715072
 30
0.0
 11
1758.650097937183
 21
756.4598739331739
 31
0.0
  0
ARC
  5
9C6
330
927
100
AcDbEntity
  8
0
  6
Continuous
 62
     7
370
    15
100
AcDbCircle
 10
1757.684163302553
 20
756.2010877634859
 30
0.0
 40
1.000000000000339
100
AcDbArc
 50
14.99804993937893
 51
90.0
  0
LINE
  5
9C7
330
927
100
AcDbEntity
  8
0
  6
Continuous
 62
     7
370
    15
100
AcDbLine
 10
1757.684163302553
 20
757.2010877634859
 30
0.0
 11
1757.57523536189
 21
757.2010877634859
 31
0.0
  0
ARC
  5
9C8
330
927
100
AcDbEntity
  8
0
  6
Continuous
 62
     7
370
    15
100
AcDbCircle
 10
1757.57523536189
 20
757.7010877634859
 30
0.0
 40
0.5
100
AcDbArc
 50
180.0
 51
270.0
  0
ARC
  5
9C9
330
927
100
AcDbEntity
  8
0
  6
Continuous
 62
     7
370
    15
100
AcDbCircle
 10
1807.27523536189
 20
757.7010877634834
 30
0.0
 40
0.5
100
AcDbArc
 50
270.0
 51
0.0
  0
LINE
  5
9CA
330
927
100
AcDbEntity
  8
0
  6
Continuous
 62
     7
370
    15
100
AcDbLine
 10
1807.166307421226
 20
757.2010877634834
 30
0.0
 11
1807.27523536189
 21
757.2010877634834
 31
0.0
  0
ARC
  5
9CB
330
927
100
AcDbEntity
  8
0
  6
Continuous
 62
     7
370
    15
100
AcDbCircle
 10
1807.166307421226
 20
756.2010877634834
 30
0.0
 40
1.0
100
AcDbArc
 50
90.0
 51
165.0019500605862
  0
LINE
  5
9CC
330
927
100
AcDbEntity
  8
0
  6
Continuous
 62
     7
370
    15
100
AcDbLine
 10
1806.200372786596
 20
756.4598739331718
 30
0.0
 11
1804.698181049394
 21
750.852854715072
 31
0.0
  0
ARC
  5
9CD
330
927
100
AcDbEntity
  8
0
  6
Continuous
 62
     7
370
    15
100
AcDbCircle
 10
1804.89136797632
 20
750.8010974811343
 30
0.0
 40
0.1999999999999931
100
AcDbArc
 50
165.0019500606273
 51
269.9999450430245
  0
LINE
  5
9CE
330
927
100
AcDbEntity
  8
0
  6
Continuous
 62
     7
370
    15
100
AcDbLine
 10
1807.425235841481
 20
750.6010950506954
 30
0.0
 11
1804.891367784484
 21
750.6010974811349
 31
0.0
  0
ARC
  5
9CF
330
927
100
AcDbEntity
  8
0
  6
Continuous
 62
     7
370
    15
100
AcDbCircle
 10
1807.42523536189
 20
750.1010950506954
 30
0.0
 40
0.50000000000023
100
AcDbArc
 50
0.0
 51
89.99994504290722
  0
LINE
  5
9D0
330
927
100
AcDbEntity
  8
0
  6
Continuous
 62
     7
370
    15
100
AcDbLine
 10
1801.439785143936
 20
746.0010877634904
 30
0.0
 11
1806.925235361891
 21
746.0010877634909
 31
0.0
  0
ARC
  5
9D1
330
927
100
AcDbEntity
  8
0
  6
Continuous
 62
     7
370
    15
100
AcDbCircle
 10
1801.439785143936
 20
749.0010877634919
 30
0.0
 40
3.000000000002176
100
AcDbArc
 50
215.0012295730536
 51
270.000000000013
  0
LINE
  5
9D2
330
927
100
AcDbEntity
  8
0
  6
Continuous
 62
     7
370
    15
100
AcDbLine
 10
1798.4658777937
 20
748.0178935426804
 30
0.0
 11
1798.982365938653
 21
747.2803057175838
 31
0.0
  0
ARC
  5
9D3
330
927
100
AcDbEntity
  8
0
  6
Continuous
 62
     7
370
    15
100
AcDbCircle
 10
1798.711619714226
 20
748.189971747277
 30
0.0
 40
0.3000000000028334
100
AcDbArc
 50
100.0050593273079
 51
215.0012295742083
  0
LINE
  5
9D4
330
927
100
AcDbEntity
  8
0
  6
Continuous
 62
     7
370
    15
100
AcDbLine
 10
1799.512458503954
 20
748.6358868763513
 30
0.0
 11
1798.659499173004
 21
748.4854094719914
 31
0.0
  0
ARC
  5
9D5
330
927
100
AcDbEntity
  8
0
  6
Continuous
 62
     7
370
    15
100
AcDbCircle
 10
1799.477711476477
 20
748.8328453594903
 30
0.0
 40
0.1999999999994871
100
AcDbArc
 50
280.0050593262895
 51
359.9999818160453
  0
LINE
  5
9D6
330
927
100
AcDbEntity
  8
0
  6
Continuous
 62
     7
370
    15
100
AcDbLine
 10
1799.677711768369
 20
749.7525518549998
 30
0.0
 11
1799.677711476476
 21
748.8328452960163
 31
0.0
  0
ARC
  5
9D7
330
927
100
AcDbEntity
  8
0
  6
Continuous
 62
     7
370
    15
100
AcDbCircle
 10
1799.47771176837
 20
749.7525519184754
 30
0.0
 40
0.2000000000000699
100
AcDbArc
 50
359.9999818156023
 51
84.99977821977493
  0
LINE
  5
9D8
330
927
100
AcDbEntity
  8
0
  6
Continuous
 62
     7
370
    15
100
AcDbLine
 10
1798.503396038439
 20
750.0385613352818
 30
0.0
 11
1799.495143688132
 21
749.9517907906199
 31
0.0
  0
ARC
  5
9D9
330
927
100
AcDbEntity
  8
0
  6
Continuous
 62
     7
370
    15
100
AcDbCircle
 10
1798.529543918081
 20
750.337419643499
 30
0.0
 40
0.300000000000262
100
AcDbArc
 50
180.0
 51
264.9997782199318
  0
LINE
  5
9DA
330
927
100
AcDbEntity
  8
0
  6
Continuous
 62
     7
370
    15
100
AcDbLine
 10
1798.229543918082
 20
751.9781923097454
 30
0.0
 11
1798.229543918082
 21
750.337419643499
 31
0.0
  0
ARC
  5
9DB
330
927
100
AcDbEntity
  8
0
  6
Continuous
 62
     7
370
    15
100
AcDbCircle
 10
1798.729543918081
 20
751.9781923097454
 30
0.0
 40
0.5000000000000325
100
AcDbArc
 50
119.9986230652429
 51
180.0
  0
LINE
  5
9DC
330
927
100
AcDbEntity
  8
0
  6
Continuous
 62
     7
370
    15
100
AcDbLine
 10
1799.178311447175
 20
752.8146162427214
 30
0.0
 11
1798.479554324335
 21
752.4112110195239
 31
0.0
  0
ARC
  5
9DD
330
927
100
AcDbEntity
  8
0
  6
Continuous
 62
     7
370
    15
100
AcDbCircle
 10
1798.928321853427
 20
753.2476349524992
 30
0.0
 40
0.5000000000004548
100
AcDbArc
 50
299.9986230653188
 51
0.0
  0
LINE
  5
9DE
330
927
100
AcDbEntity
  8
0
  6
Continuous
 62
     7
370
    15
100
AcDbLine
 10
1799.428321853428
 20
756.7010877634913
 30
0.0
 11
1799.428321853428
 21
753.2476349524992
 31
0.0
  0
ARC
  5
9DF
330
927
100
AcDbEntity
  8
0
  6
Continuous
 62
     7
370
    15
100
AcDbCircle
 10
1798.928321853427
 20
756.7010877634913
 30
0.0
 40
0.5000000000004548
100
AcDbArc
 50
0.0
 51
90.0
  0
LINE
  5
9E0
330
927
100
AcDbEntity
  8
0
  6
Continuous
 62
     7
370
    15
100
AcDbLine
 10
1797.275488790112
 20
757.2010877634913
 30
0.0
 11
1798.928321853427
 21
757.2010877634913
 31
0.0
  0
LINE
  5
9E1
330
927
100
AcDbEntity
  8
0
  6
Continuous
 62
     7
370
    15
100
AcDbLine
 10
1807.925235361891
 20
747.0010877634909
 30
0.0
 11
1807.92523536189
 21
750.1010950506954
 31
0.0
  0
ARC
  5
9E2
330
927
100
AcDbEntity
  8
0
  6
Continuous
 62
     7
370
    15
100
AcDbCircle
 10
1806.92523536189
 20
747.0010877634919
 30
0.0
 40
1.000000000001023
100
AcDbArc
 50
270.000000000026
 51
359.9999999999414
  0
LINE
  5
9E3
330
927
100
AcDbEntity
  8
0
  6
Continuous
 62
     7
370
    15
100
AcDbLine
 10
1807.775235361891
 20
757.7010877634834
 30
0.0
 11
1807.775235361891
 21
757.7579987186224
 31
0.0
  0
LINE
  5
9E4
330
927
100
AcDbEntity
  8
0
  6
Continuous
 62
     7
370
    15
100
AcDbLine
 10
1757.075235361889
 20
757.7010877634859
 30
0.0
 11
1757.075235361889
 21
757.7579987186224
 31
0.0
  0
LINE
  5
9E5
330
927
100
AcDbEntity
  8
0
  6
Continuous
 62
     7
370
    15
100
AcDbLine
 10
1788.875212668436
 20
800.0010877634917
 30
0.0
 11
1797.375226254867
 21
800.0010877634917
 31
0.0
  0
LINE
  5
9E6
330
927
100
AcDbEntity
  8
0
  6
Continuous
 62
     7
370
    15
100
AcDbLine
 10
1775.975258055345
 20
800.0010877634919
 30
0.0
 11
1767.475244468914
 21
800.0010877634917
 31
0.0
  0
ENDBLK
  5
929
330
927
100
AcDbEntity
  8
0
100
AcDbBlockEnd
  0
BLOCK
  5
9E9
330
9E8
100
AcDbEntity
  8
0
100
AcDbBlockBegin
  2
2
 70
     0
 10
0.0
 20
0.0
 30
0.0
  3
2
  1

  0
LINE
  5
9EB
330
9E8
100
AcDbEntity
  8
0
  6
Continuous
 62
     7
370
    15
100
AcDbLine
 10
1717.318373614449
 20
788.101961176003
 30
0.0
 11
1702.322612398762
 21
788.101961176003
 31
0.0
  0
LINE
  5
9EC
330
9E8
100
AcDbEntity
  8
0
  6
Continuous
 62
     7
370
    15
100
AcDbLine
 10
1717.318373614449
 20
789.8962994023214
 30
0.0
 11
1702.322612398762
 21
789.8962994023214
 31
0.0
  0
LINE
  5
9ED
330
9E8
100
AcDbEntity
  8
0
  6
Continuous
 62
     7
370
    15
100
AcDbLine
 10
1702.322612398762
 20
797.1236009999166
 30
0.0
 11
1717.318373614449
 21
797.1236009999166
 31
0.0
  0
LINE
  5
9EE
330
9E8
100
AcDbEntity
  8
0
  6
Continuous
 62
     7
370
    15
100
AcDbLine
 10
1702.322612398762
 20
793.4011419220815
 30
0.0
 11
1717.318373614449
 21
793.4011419220815
 31
0.0
  0
LINE
  5
9EF
330
9E8
100
AcDbEntity
  8
0
  6
Continuous
 62
     7
370
    15
100
AcDbLine
 10
1714.122871750492
 20
798.0011005802999
 30
0.0
 11
1714.070501619476
 21
800.0010748310932
 31
0.0
  0
LINE
  5
9F0
330
9E8
100
AcDbEntity
  8
0
  6
Continuous
 62
     7
370
    15
100
AcDbLine
 10
1705.570484393734
 20
800.0010748310932
 30
0.0
 11
1705.518114262718
 21
798.0011005802999
 31
0.0
  0
LINE
  5
9F1
330
9E8
100
AcDbEntity
  8
0
  6
Continuous
 62
     7
370
    15
100
AcDbLine
 10
1702.47049152245
 20
746.0010846062551
 30
0.0
 11
1702.47049152245
 21
747.0011015339742
 31
0.0
  0
LINE
  5
9F2
330
9E8
100
AcDbEntity
  8
0
  6
Continuous
 62
     7
370
    15
100
AcDbLine
 10
1717.220495337147
 20
747.0011015339742
 30
0.0
 11
1702.47049152245
 21
747.0011015339742
 31
0.0
  0
LINE
  5
9F3
330
9E8
100
AcDbEntity
  8
0
  6
Continuous
 62
     7
370
    15
100
AcDbLine
 10
1717.220495337147
 20
746.0010846062551
 30
0.0
 11
1702.47049152245
 21
746.0010846062551
 31
0.0
  0
LINE
  5
9F4
330
9E8
100
AcDbEntity
  8
0
  6
Continuous
 62
     7
370
    15
100
AcDbLine
 10
1717.220495337147
 20
747.0011015339742
 30
0.0
 11
1717.220495337147
 21
746.0010846062551
 31
0.0
  0
LINE
  5
9F5
330
9E8
100
AcDbEntity
  8
0
  6
Continuous
 62
     7
370
    15
100
AcDbLine
 10
1702.47049152245
 20
747.0011015339742
 30
0.0
 11
1702.47049152245
 21
750.1011093064199
 31
0.0
  0
LINE
  5
9F6
330
9E8
100
AcDbEntity
  8
0
  6
Continuous
 62
     7
370
    15
100
AcDbLine
 10
1717.220495337147
 20
750.1011093064199
 30
0.0
 11
1702.47049152245
 21
750.1011093064199
 31
0.0
  0
LINE
  5
9F7
330
9E8
100
AcDbEntity
  8
0
  6
Continuous
 62
     7
370
    15
100
AcDbLine
 10
1717.220495337147
 20
750.1011093064199
 30
0.0
 11
1717.220495337147
 21
747.0011015339742
 31
0.0
  0
LINE
  5
9F8
330
9E8
100
AcDbEntity
  8
0
  6
Continuous
 62
     7
370
    15
100
AcDbLine
 10
1702.47049152245
 20
750.1011093064199
 30
0.0
 11
1702.47049152245
 21
750.6011028691182
 31
0.0
  0
LINE
  5
9F9
330
9E8
100
AcDbEntity
  8
0
  6
Continuous
 62
     7
370
    15
100
AcDbLine
 10
1717.220495337147
 20
750.6011028691182
 30
0.0
 11
1702.47049152245
 21
750.6011028691182
 31
0.0
  0
LINE
  5
9FA
330
9E8
100
AcDbEntity
  8
0
  6
Continuous
 62
     7
370
    15
100
AcDbLine
 10
1717.220495337147
 20
750.6011028691182
 30
0.0
 11
1717.220495337147
 21
750.1011093064199
 31
0.0
  0
LINE
  5
9FB
330
9E8
100
AcDbEntity
  8
0
  6
Continuous
 62
     7
370
    15
100
AcDbLine
 10
1707.918877595562
 20
763.2569868965993
 30
0.0
 11
1711.722108417648
 21
763.2569868965993
 31
0.0
  0
LINE
  5
9FC
330
9E8
100
AcDbEntity
  8
0
  6
Continuous
 62
     7
370
    15
100
AcDbLine
 10
1711.722108417648
 20
763.2569868965993
 30
0.0
 11
1716.770495170254
 21
766.1716540261159
 31
0.0
  0
LINE
  5
9FD
330
9E8
100
AcDbEntity
  8
0
  6
Continuous
 62
     7
370
    15
100
AcDbLine
 10
1702.870490842957
 20
762.353738109673
 30
0.0
 11
1716.770495170254
 21
762.353738109673
 31
0.0
  0
LINE
  5
9FE
330
9E8
100
AcDbEntity
  8
0
  6
Continuous
 62
     7
370
    15
100
AcDbLine
 10
1707.918877595562
 20
763.2569868965993
 30
0.0
 11
1702.870490842957
 21
766.1716540261159
 31
0.0
  0
LINE
  5
9FF
330
9E8
100
AcDbEntity
  8
0
  6
Continuous
 62
     7
370
    15
100
AcDbLine
 10
1702.322612398762
 20
787.704159776772
 30
0.0
 11
1717.318373614449
 21
787.704159776772
 31
0.0
  0
LINE
  5
A00
330
9E8
100
AcDbEntity
  8
0
  6
Continuous
 62
     7
370
    15
100
AcDbLine
 10
1702.322612398762
 20
787.9541714592824
 30
0.0
 11
1702.322612398762
 21
787.704159776772
 31
0.0
  0
LINE
  5
A01
330
9E8
100
AcDbEntity
  8
0
  6
Continuous
 62
     7
370
    15
100
AcDbLine
 10
1702.322612398762
 20
787.9541714592824
 30
0.0
 11
1717.318373614449
 21
787.9541714592824
 31
0.0
  0
LINE
  5
A02
330
9E8
100
AcDbEntity
  8
0
  6
Continuous
 62
     7
370
    15
100
AcDbLine
 10
1717.318373614449
 20
787.9541714592824
 30
0.0
 11
1717.318373614449
 21
787.704159776772
 31
0.0
  0
LINE
  5
A03
330
9E8
100
AcDbEntity
  8
0
  6
Continuous
 62
     7
370
    15
100
AcDbLine
 10
1716.770495170254
 20
778.0222793026815
 30
0.0
 11
1702.870490842957
 21
778.0222793026815
 31
0.0
  0
LINE
  5
A04
330
9E8
100
AcDbEntity
  8
0
  6
Continuous
 62
     7
370
    15
100
AcDbLine
 10
1702.870490842957
 20
778.0222793026815
 30
0.0
 11
1702.870490842957
 21
762.353738109673
 31
0.0
  0
LINE
  5
A05
330
9E8
100
AcDbEntity
  8
0
  6
Continuous
 62
     7
370
    15
100
AcDbLine
 10
1709.820496731896
 20
758.5011024876485
 30
0.0
 11
1709.820496731896
 21
758.6010892792592
 31
0.0
  0
LINE
  5
A06
330
9E8
100
AcDbEntity
  8
0
  6
Continuous
 62
     7
370
    15
100
AcDbLine
 10
1717.220495337147
 20
758.5011024876485
 30
0.0
 11
1709.820496731896
 21
758.5011024876485
 31
0.0
  0
LINE
  5
A07
330
9E8
100
AcDbEntity
  8
0
  6
Continuous
 62
     7
370
    15
100
AcDbLine
 10
1702.47049152245
 20
757.7010889454732
 30
0.0
 11
1717.220495337147
 21
757.7010889454732
 31
0.0
  0
ARC
  5
A08
330
9E8
100
AcDbEntity
  8
0
  6
Continuous
 62
     7
370
    15
100
AcDbCircle
 10
1702.270493496085
 20
757.7579987186222
 30
0.0
 40
0.1999999999999886
100
AcDbArc
 50
0.0
 51
50.92751689647196
  0
ARC
  5
A09
330
9E8
100
AcDbEntity
  8
0
  6
Continuous
 62
     7
370
    15
100
AcDbCircle
 10
1702.522614708214
 20
758.0685384011023
 30
0.0
 40
0.1999999999999886
100
AcDbArc
 50
180.0
 51
230.9275168964719
  0
LINE
  5
A0A
330
9E8
100
AcDbEntity
  8
0
  6
Continuous
 62
     7
370
    15
100
AcDbLine
 10
1702.322612398762
 20
787.704159776772
 30
0.0
 11
1702.322612398762
 21
758.0685515805135
 31
0.0
  0
LINE
  5
A0B
330
9E8
100
AcDbEntity
  8
0
  6
Continuous
 62
     7
370
    15
100
AcDbLine
 10
1717.318373614449
 20
787.704159776772
 30
0.0
 11
1717.318373614449
 21
758.6010892792592
 31
0.0
  0
LINE
  5
A0C
330
9E8
100
AcDbEntity
  8
0
  6
Continuous
 62
     7
370
    15
100
AcDbLine
 10
1716.770495170254
 20
778.0222793026815
 30
0.0
 11
1716.770495170254
 21
762.353738109673
 31
0.0
  0
LINE
  5
A0D
330
9E8
100
AcDbEntity
  8
0
  6
Continuous
 62
     7
370
    15
100
AcDbLine
 10
1709.820496731896
 20
758.6010892792592
 30
0.0
 11
1717.318373614449
 21
758.6010892792592
 31
0.0
  0
LINE
  5
A0E
330
9E8
100
AcDbEntity
  8
0
  6
Continuous
 62
     7
370
    15
100
AcDbLine
 10
1702.47049152245
 20
757.7010889454732
 30
0.0
 11
1702.47049152245
 21
757.7580113812337
 31
0.0
  0
LINE
  5
A0F
330
9E8
100
AcDbEntity
  8
0
  6
Continuous
 62
     7
370
    15
100
AcDbLine
 10
1717.220495337147
 20
758.5011024876485
 30
0.0
 11
1717.220495337147
 21
757.7010889454732
 31
0.0
  0
LINE
  5
A10
330
9E8
100
AcDbEntity
  8
0
  6
Continuous
 62
     7
370
    15
100
AcDbLine
 10
1716.770495170254
 20
775.0385005875478
 30
0.0
 11
1702.870490842957
 21
775.0385005875478
 31
0.0
  0
LINE
  5
A11
330
9E8
100
AcDbEntity
  8
0
  6
Continuous
 62
     7
370
    15
100
AcDbLine
 10
1717.220495337147
 20
757.2010953827748
 30
0.0
 11
1702.47049152245
 21
757.2010953827748
 31
0.0
  0
LINE
  5
A12
330
9E8
100
AcDbEntity
  8
0
  6
Continuous
 62
     7
370
    15
100
AcDbLine
 10
1702.47049152245
 20
757.2010953827748
 30
0.0
 11
1702.47049152245
 21
757.7010889454732
 31
0.0
  0
LINE
  5
A13
330
9E8
100
AcDbEntity
  8
0
  6
Continuous
 62
     7
370
    15
100
AcDbLine
 10
1717.220495337147
 20
757.7010889454732
 30
0.0
 11
1717.220495337147
 21
757.2010953827748
 31
0.0
  0
LINE
  5
A14
330
9E8
100
AcDbEntity
  8
0
  6
Continuous
 62
     7
370
    15
100
AcDbLine
 10
1702.322612398762
 20
787.976970235909
 30
0.0
 11
1717.318373614449
 21
787.976970235909
 31
0.0
  0
LINE
  5
A15
330
9E8
100
AcDbEntity
  8
0
  6
Continuous
 62
     7
370
    15
100
AcDbLine
 10
1702.322612398762
 20
787.976970235909
 30
0.0
 11
1702.322612398762
 21
787.9541714592824
 31
0.0
  0
LINE
  5
A16
330
9E8
100
AcDbEntity
  8
0
  6
Continuous
 62
     7
370
    15
100
AcDbLine
 10
1717.318373614449
 20
787.976970235909
 30
0.0
 11
1717.318373614449
 21
787.9541714592824
 31
0.0
  0
LINE
  5
A17
330
9E8
100
AcDbEntity
  8
0
  6
Continuous
 62
     7
370
    15
100
AcDbLine
 10
1702.322612398762
 20
788.101961176003
 30
0.0
 11
1702.322612398762
 21
787.976970235909
 31
0.0
  0
LINE
  5
A18
330
9E8
100
AcDbEntity
  8
0
  6
Continuous
 62
     7
370
    15
100
AcDbLine
 10
1717.318373614449
 20
788.101961176003
 30
0.0
 11
1717.318373614449
 21
787.976970235909
 31
0.0
  0
LINE
  5
A19
330
9E8
100
AcDbEntity
  8
0
  6
Continuous
 62
     7
370
    15
100
AcDbLine
 10
1703.122611039776
 20
750.6011028691182
 30
0.0
 11
1702.47049152245
 21
750.6011028691182
 31
0.0
  0
LINE
  5
A1A
330
9E8
100
AcDbEntity
  8
0
  6
Continuous
 62
     7
370
    15
100
AcDbLine
 10
1717.220495337147
 20
750.6011028691182
 30
0.0
 11
1703.122611039776
 21
750.6011028691182
 31
0.0
  0
LINE
  5
A1B
330
9E8
100
AcDbEntity
  8
0
  6
Continuous
 62
     7
370
    15
100
AcDbLine
 10
1717.220495337147
 20
756.4598818226705
 30
0.0
 11
1702.47049152245
 21
756.4598818226705
 31
0.0
  0
LINE
  5
A1C
330
9E8
100
AcDbEntity
  8
0
  6
Continuous
 62
     7
370
    15
100
AcDbLine
 10
1702.47049152245
 20
756.4598818226705
 30
0.0
 11
1702.47049152245
 21
757.2010953827748
 31
0.0
  0
LINE
  5
A1D
330
9E8
100
AcDbEntity
  8
0
  6
Continuous
 62
     7
370
    15
100
AcDbLine
 10
1717.220495337147
 20
757.2010953827748
 30
0.0
 11
1717.220495337147
 21
756.4598818226705
 31
0.0
  0
ELLIPSE
  5
A1E
330
9E8
100
AcDbEntity
  8
0
  6
Continuous
 62
     7
370
    15
100
AcDbEllipse
 10
1711.722107707692
 20
762.3909502433953
 30
0.0
 11
-0.0980322408573784
 21
1.096525043835868
 31
0.0
210
0.0
220
0.0
230
1.0
 40
0.1127363686420867
 41
5.612712519383658
 42
6.136311775539654
  0
ELLIPSE
  5
A1F
330
9E8
100
AcDbEntity
  8
0
  6
Continuous
 62
     7
370
    15
100
AcDbEllipse
 10
1715.186209322801
 20
764.3909502433733
 30
0.0
 11
3.545342435216355
 21
0.9094651368444601
 31
0.0
210
0.0
220
0.0
230
1.0
 40
0.0488671933170763
 41
2.968467913267395
 42
3.167603219558814
  0
LINE
  5
A20
330
9E8
100
AcDbEntity
  8
0
  6
Continuous
 62
     7
370
    15
100
AcDbLine
 10
1716.707671874661
 20
766.4240796967397
 30
0.0
 11
1711.686211520332
 21
763.5249395771871
 31
0.0
  0
ELLIPSE
  5
A21
330
9E8
100
AcDbEntity
  8
0
  6
Continuous
 62
     7
370
    15
100
AcDbEllipse
 10
1717.207674387368
 20
765.5580436425188
 30
0.0
 11
2.322876959117309
 21
1.341113637640546
 31
0.0
210
0.0
220
0.0
230
1.0
 40
0.3728244840456662
 41
1.54382766376523
 42
1.570796326799561
  0
ELLIPSE
  5
A22
330
9E8
100
AcDbEntity
  8
0
  6
Continuous
 62
     7
370
    15
100
AcDbEllipse
 10
1711.722107707692
 20
762.3909502433953
 30
0.0
 11
-0.7536311854043448
 21
0.9020627198461285
 31
0.0
210
0.0
220
0.0
230
0.9999999999999998
 40
0.5727005166303973
 41
5.313314808763384
 42
5.836914064717055
  0
ELLIPSE
  5
A23
330
9E8
100
AcDbEntity
  8
0
  6
Continuous
 62
     7
370
    15
100
AcDbEllipse
 10
1707.918879284479
 20
762.3909502433953
 30
0.0
 11
0.7536311854045152
 21
0.9020627198460713
 31
0.0
210
0.0
220
0.0
230
1.0
 40
0.5727005166303899
 41
0.4462712424625581
 42
0.9698704984163557
  0
LINE
  5
A24
330
9E8
100
AcDbEntity
  8
0
  6
Continuous
 62
     7
370
    15
100
AcDbLine
 10
1711.265253716606
 20
763.390948335732
 30
0.0
 11
1708.375732296604
 21
763.390948335732
 31
0.0
  0
ARC
  5
A25
330
9E8
100
AcDbEntity
  8
0
  6
Continuous
 62
     7
370
    15
100
AcDbCircle
 10
1711.264199091729
 20
764.2660688693297
 30
0.0
 40
0.8751211690719358
100
AcDbArc
 50
270.0690482314623
 51
295.6650074817066
  0
ARC
  5
A26
330
9E8
100
AcDbEntity
  8
0
  6
Continuous
 62
     7
370
    15
100
AcDbCircle
 10
1708.376786921481
 20
764.2660688693297
 30
0.0
 40
0.8751211690719294
100
AcDbArc
 50
244.3349925182962
 51
269.9309517685377
  0
ELLIPSE
  5
A27
330
9E8
100
AcDbEntity
  8
0
  6
Continuous
 62
     7
370
    15
100
AcDbEllipse
 10
1707.918879284479
 20
762.3909502433953
 30
0.0
 11
0.0980322408574921
 21
1.096525043835867
 31
0.0
210
0.0
220
0.0
230
1.0
 40
0.1127363686422446
 41
0.1468735316398427
 42
0.6704727877958867
  0
ELLIPSE
  5
A28
330
9E8
100
AcDbEntity
  8
0
  6
Continuous
 62
     7
370
    15
100
AcDbEllipse
 10
1704.454777669371
 20
764.3909502433733
 30
0.0
 11
3.545342435216014
 21
-0.9094651368446307
 31
0.0
210
0.0
220
0.0
230
0.9999999999999998
 40
0.0488671933170801
 41
6.257174741211976
 42
6.456310047502801
  0
ELLIPSE
  5
A29
330
9E8
100
AcDbEntity
  8
0
  6
Continuous
 62
     7
370
    15
100
AcDbEllipse
 10
1702.433312604698
 20
765.5580436426252
 30
0.0
 11
2.322876959117195
 21
-1.34111363764066
 31
0.0
210
0.0
220
0.0
230
1.0
 40
0.3728244840456719
 41
1.570796326736104
 42
1.597764989773156
  0
LINE
  5
A2A
330
9E8
100
AcDbEntity
  8
0
  6
Continuous
 62
     7
370
    15
100
AcDbLine
 10
1702.93331413855
 20
766.4240796967397
 30
0.0
 11
1707.954774492878
 21
763.5249395771871
 31
0.0
  0
LINE
  5
A2B
330
9E8
100
AcDbEntity
  8
0
  6
Continuous
 62
     7
370
    15
100
AcDbLine
 10
1702.670494907993
 20
750.8528430863271
 30
0.0
 11
1703.122611039776
 21
750.8528430863271
 31
0.0
  0
LINE
  5
A2C
330
9E8
100
AcDbEntity
  8
0
  6
Continuous
 62
     7
370
    15
100
AcDbLine
 10
1702.47049152245
 20
750.8528430863271
 30
0.0
 11
1702.670494907993
 21
750.8528430863271
 31
0.0
  0
LINE
  5
A2D
330
9E8
100
AcDbEntity
  8
0
  6
Continuous
 62
     7
370
    15
100
AcDbLine
 10
1702.47049152245
 20
756.4598818226705
 30
0.0
 11
1702.47049152245
 21
750.8528430863271
 31
0.0
  0
LINE
  5
A2E
330
9E8
100
AcDbEntity
  8
0
  6
Continuous
 62
     7
370
    15
100
AcDbLine
 10
1717.220495337147
 20
756.4598818226705
 30
0.0
 11
1717.220495337147
 21
750.6011028691182
 31
0.0
  0
LINE
  5
A2F
330
9E8
100
AcDbEntity
  8
0
  6
Continuous
 62
     7
370
    15
100
AcDbLine
 10
1702.322612398762
 20
789.4739110871205
 30
0.0
 11
1717.318373614449
 21
789.4739110871205
 31
0.0
  0
LINE
  5
A30
330
9E8
100
AcDbEntity
  8
0
  6
Continuous
 62
     7
370
    15
100
AcDbLine
 10
1702.322612398762
 20
789.4739110871205
 30
0.0
 11
1702.322612398762
 21
788.101961176003
 31
0.0
  0
LINE
  5
A31
330
9E8
100
AcDbEntity
  8
0
  6
Continuous
 62
     7
370
    15
100
AcDbLine
 10
1717.318373614449
 20
789.4739110871205
 30
0.0
 11
1717.318373614449
 21
788.101961176003
 31
0.0
  0
ARC
  5
A32
330
9E8
100
AcDbEntity
  8
0
  6
Continuous
 62
     7
370
    15
100
AcDbCircle
 10
1708.454777669377
 20
764.3909502433839
 30
0.0
 40
1.000000000015153
100
AcDbArc
 50
239.9999999984967
 51
269.9999999982934
  0
ARC
  5
A33
330
9E8
100
AcDbEntity
  8
0
  6
Continuous
 62
     7
370
    15
100
AcDbCircle
 10
1711.186209322795
 20
764.3909502433839
 30
0.0
 40
1.000000000015096
100
AcDbArc
 50
270.0000000016936
 51
300.0000000014888
  0
LINE
  5
A34
330
9E8
100
AcDbEntity
  8
0
  6
Continuous
 62
     7
370
    15
100
AcDbLine
 10
1702.322612398762
 20
789.7962828083882
 30
0.0
 11
1717.318373614449
 21
789.7962828083882
 31
0.0
  0
LINE
  5
A35
330
9E8
100
AcDbEntity
  8
0
  6
Continuous
 62
     7
370
    15
100
AcDbLine
 10
1702.322612398762
 20
789.7962828083882
 30
0.0
 11
1702.322612398762
 21
789.4739110871205
 31
0.0
  0
LINE
  5
A36
330
9E8
100
AcDbEntity
  8
0
  6
Continuous
 62
     7
370
    15
100
AcDbLine
 10
1717.318373614449
 20
789.7962828083882
 30
0.0
 11
1717.318373614449
 21
789.4739110871205
 31
0.0
  0
LINE
  5
A37
330
9E8
100
AcDbEntity
  8
0
  6
Continuous
 62
     7
370
    15
100
AcDbLine
 10
1703.122611039776
 20
750.6011028691182
 30
0.0
 11
1703.122611039776
 21
750.8528430863271
 31
0.0
  0
LINE
  5
A38
330
9E8
100
AcDbEntity
  8
0
  6
Continuous
 62
     7
370
    15
100
AcDbLine
 10
1702.47049152245
 20
750.8528430863271
 30
0.0
 11
1702.47049152245
 21
750.6011028691182
 31
0.0
  0
LINE
  5
A39
330
9E8
100
AcDbEntity
  8
0
  6
Continuous
 62
     7
370
    15
100
AcDbLine
 10
1702.322612398762
 20
789.8962994023214
 30
0.0
 11
1702.322612398762
 21
789.7962828083882
 31
0.0
  0
LINE
  5
A3A
330
9E8
100
AcDbEntity
  8
0
  6
Continuous
 62
     7
370
    15
100
AcDbLine
 10
1717.318373614449
 20
789.8962994023214
 30
0.0
 11
1717.318373614449
 21
789.7962828083882
 31
0.0
  0
LINE
  5
A3B
330
9E8
100
AcDbEntity
  8
0
  6
Continuous
 62
     7
370
    15
100
AcDbLine
 10
1702.322612398762
 20
793.3060725136647
 30
0.0
 11
1717.318373614449
 21
793.3060725136647
 31
0.0
  0
LINE
  5
A3C
330
9E8
100
AcDbEntity
  8
0
  6
Continuous
 62
     7
370
    15
100
AcDbLine
 10
1702.322612398762
 20
793.3060725136647
 30
0.0
 11
1702.322612398762
 21
789.8737092419515
 31
0.0
  0
LINE
  5
A3D
330
9E8
100
AcDbEntity
  8
0
  6
Continuous
 62
     7
370
    15
100
AcDbLine
 10
1717.318373614449
 20
793.3060725136647
 30
0.0
 11
1717.318373614449
 21
789.8962994023214
 31
0.0
  0
LINE
  5
A3E
330
9E8
100
AcDbEntity
  8
0
  6
Continuous
 62
     7
370
    15
100
AcDbLine
 10
1716.770495170254
 20
774.6365864678273
 30
0.0
 11
1702.870490842957
 21
774.6365864678273
 31
0.0
  0
LINE
  5
A3F
330
9E8
100
AcDbEntity
  8
0
  6
Continuous
 62
     7
370
    15
100
AcDbLine
 10
1702.322612398762
 20
793.7605877323995
 30
0.0
 11
1717.318373614449
 21
793.7605877323995
 31
0.0
  0
LINE
  5
A40
330
9E8
100
AcDbEntity
  8
0
  6
Continuous
 62
     7
370
    15
100
AcDbLine
 10
1702.322612398762
 20
794.0292556687245
 30
0.0
 11
1717.318373614449
 21
794.0292556687245
 31
0.0
  0
LINE
  5
A41
330
9E8
100
AcDbEntity
  8
0
  6
Continuous
 62
     7
370
    15
100
AcDbLine
 10
1702.322612398762
 20
794.0292556687245
 30
0.0
 11
1702.322612398762
 21
793.7605877323995
 31
0.0
  0
LINE
  5
A42
330
9E8
100
AcDbEntity
  8
0
  6
Continuous
 62
     7
370
    15
100
AcDbLine
 10
1717.318373614449
 20
794.0292556687245
 30
0.0
 11
1717.318373614449
 21
793.7605877323995
 31
0.0
  0
LINE
  5
A43
330
9E8
100
AcDbEntity
  8
0
  6
Continuous
 62
     7
370
    15
100
AcDbLine
 10
1702.322612398762
 20
794.3564255638967
 30
0.0
 11
1717.318373614449
 21
794.3564255638967
 31
0.0
  0
LINE
  5
A44
330
9E8
100
AcDbEntity
  8
0
  6
Continuous
 62
     7
370
    15
100
AcDbLine
 10
1702.322612398762
 20
794.3564255638967
 30
0.0
 11
1702.322612398762
 21
794.0292556687245
 31
0.0
  0
LINE
  5
A45
330
9E8
100
AcDbEntity
  8
0
  6
Continuous
 62
     7
370
    15
100
AcDbLine
 10
1717.318373614449
 20
794.3564255638967
 30
0.0
 11
1717.318373614449
 21
794.0292556687245
 31
0.0
  0
LINE
  5
A46
330
9E8
100
AcDbEntity
  8
0
  6
Continuous
 62
     7
370
    15
100
AcDbLine
 10
1702.322612398762
 20
797.4986036225209
 30
0.0
 11
1717.318373614449
 21
797.4986036225209
 31
0.0
  0
LINE
  5
A47
330
9E8
100
AcDbEntity
  8
0
  6
Continuous
 62
     7
370
    15
100
AcDbLine
 10
1702.322612398762
 20
797.4986036225209
 30
0.0
 11
1702.322612398762
 21
797.1236009999166
 31
0.0
  0
LINE
  5
A48
330
9E8
100
AcDbEntity
  8
0
  6
Continuous
 62
     7
370
    15
100
AcDbLine
 10
1717.318373614449
 20
797.4986036225209
 30
0.0
 11
1717.318373614449
 21
797.1236009999166
 31
0.0
  0
LINE
  5
A49
330
9E8
100
AcDbEntity
  8
0
  6
Continuous
 62
     7
370
    15
100
AcDbLine
 10
1702.322612398762
 20
793.4324641629109
 30
0.0
 11
1717.318373614449
 21
793.4324641629109
 31
0.0
  0
LINE
  5
A4A
330
9E8
100
AcDbEntity
  8
0
  6
Continuous
 62
     7
370
    15
100
AcDbLine
 10
1702.322612398762
 20
793.7605877323995
 30
0.0
 11
1702.322612398762
 21
793.4324641629109
 31
0.0
  0
LINE
  5
A4B
330
9E8
100
AcDbEntity
  8
0
  6
Continuous
 62
     7
370
    15
100
AcDbLine
 10
1717.318373614449
 20
793.7605877323995
 30
0.0
 11
1717.318373614449
 21
793.4324641629109
 31
0.0
  0
LINE
  5
A4C
330
9E8
100
AcDbEntity
  8
0
  6
Continuous
 62
     7
370
    15
100
AcDbLine
 10
1702.322612398762
 20
797.7510888977895
 30
0.0
 11
1717.318373614449
 21
797.7510888977895
 31
0.0
  0
LINE
  5
A4D
330
9E8
100
AcDbEntity
  8
0
  6
Continuous
 62
     7
370
    15
100
AcDbLine
 10
1702.322612398762
 20
797.7510888977895
 30
0.0
 11
1702.322612398762
 21
797.4986036225209
 31
0.0
  0
LINE
  5
A4E
330
9E8
100
AcDbEntity
  8
0
  6
Continuous
 62
     7
370
    15
100
AcDbLine
 10
1717.318373614449
 20
797.7510888977895
 30
0.0
 11
1717.318373614449
 21
797.4986036225209
 31
0.0
  0
LINE
  5
A4F
330
9E8
100
AcDbEntity
  8
0
  6
Continuous
 62
     7
370
    15
100
AcDbLine
 10
1702.322612398762
 20
796.1653073235402
 30
0.0
 11
1717.318373614449
 21
796.1653073235402
 31
0.0
  0
LINE
  5
A50
330
9E8
100
AcDbEntity
  8
0
  6
Continuous
 62
     7
370
    15
100
AcDbLine
 10
1702.322612398762
 20
796.1653073235402
 30
0.0
 11
1702.322612398762
 21
794.3564255638967
 31
0.0
  0
LINE
  5
A51
330
9E8
100
AcDbEntity
  8
0
  6
Continuous
 62
     7
370
    15
100
AcDbLine
 10
1717.318373614449
 20
796.1653073235402
 30
0.0
 11
1717.318373614449
 21
794.3564255638967
 31
0.0
  0
LINE
  5
A52
330
9E8
100
AcDbEntity
  8
0
  6
Continuous
 62
     7
370
    15
100
AcDbLine
 10
1702.322612398762
 20
798.0011005802999
 30
0.0
 11
1717.318373614449
 21
798.0011005802999
 31
0.0
  0
LINE
  5
A53
330
9E8
100
AcDbEntity
  8
0
  6
Continuous
 62
     7
370
    15
100
AcDbLine
 10
1702.322612398762
 20
798.0011005802999
 30
0.0
 11
1702.322612398762
 21
797.7510888977895
 31
0.0
  0
LINE
  5
A54
330
9E8
100
AcDbEntity
  8
0
  6
Continuous
 62
     7
370
    15
100
AcDbLine
 10
1717.318373614449
 20
798.0011005802999
 30
0.0
 11
1717.318373614449
 21
797.7510888977895
 31
0.0
  0
LINE
  5
A55
330
9E8
100
AcDbEntity
  8
0
  6
Continuous
 62
     7
370
    15
100
AcDbLine
 10
1704.703803056377
 20
765.4018898411641
 30
0.0
 11
1714.937182956833
 21
765.4018898411641
 31
0.0
  0
LINE
  5
A56
330
9E8
100
AcDbEntity
  8
0
  6
Continuous
 62
     7
370
    15
100
AcDbLine
 10
1702.322612398762
 20
793.4324641629109
 30
0.0
 11
1702.322612398762
 21
793.4011419220815
 31
0.0
  0
LINE
  5
A57
330
9E8
100
AcDbEntity
  8
0
  6
Continuous
 62
     7
370
    15
100
AcDbLine
 10
1717.318373614449
 20
793.4324641629109
 30
0.0
 11
1717.318373614449
 21
793.4011419220815
 31
0.0
  0
LINE
  5
A58
330
9E8
100
AcDbEntity
  8
0
  6
Continuous
 62
     7
370
    15
100
AcDbLine
 10
1702.322612398762
 20
797.0073421402822
 30
0.0
 11
1717.318373614449
 21
797.0073421402822
 31
0.0
  0
LINE
  5
A59
330
9E8
100
AcDbEntity
  8
0
  6
Continuous
 62
     7
370
    15
100
AcDbLine
 10
1702.322612398762
 20
797.1236009999166
 30
0.0
 11
1702.322612398762
 21
797.0073421402822
 31
0.0
  0
LINE
  5
A5A
330
9E8
100
AcDbEntity
  8
0
  6
Continuous
 62
     7
370
    15
100
AcDbLine
 10
1717.318373614449
 20
797.1236009999166
 30
0.0
 11
1717.318373614449
 21
797.0073421402822
 31
0.0
  0
LINE
  5
A5B
330
9E8
100
AcDbEntity
  8
0
  6
Continuous
 62
     7
370
    15
100
AcDbLine
 10
1702.322612398762
 20
796.8386311932454
 30
0.0
 11
1717.318373614449
 21
796.8386311932454
 31
0.0
  0
LINE
  5
A5C
330
9E8
100
AcDbEntity
  8
0
  6
Continuous
 62
     7
370
    15
100
AcDbLine
 10
1702.322612398762
 20
796.8386311932454
 30
0.0
 11
1702.322612398762
 21
796.1653073235402
 31
0.0
  0
LINE
  5
A5D
330
9E8
100
AcDbEntity
  8
0
  6
Continuous
 62
     7
370
    15
100
AcDbLine
 10
1717.318373614449
 20
796.8386311932454
 30
0.0
 11
1717.318373614449
 21
796.1653073235402
 31
0.0
  0
LINE
  5
A5E
330
9E8
100
AcDbEntity
  8
0
  6
Continuous
 62
     7
370
    15
100
AcDbLine
 10
1702.322612398762
 20
797.0073421402822
 30
0.0
 11
1702.322612398762
 21
796.8386311932454
 31
0.0
  0
LINE
  5
A5F
330
9E8
100
AcDbEntity
  8
0
  6
Continuous
 62
     7
370
    15
100
AcDbLine
 10
1717.318373614449
 20
797.0073421402822
 30
0.0
 11
1717.318373614449
 21
796.8386311932454
 31
0.0
  0
LINE
  5
A60
330
9E8
100
AcDbEntity
  8
0
  6
Continuous
 62
     7
370
    15
100
AcDbLine
 10
1702.322612398762
 20
793.4011419220815
 30
0.0
 11
1702.322612398762
 21
793.3060725136647
 31
0.0
  0
LINE
  5
A61
330
9E8
100
AcDbEntity
  8
0
  6
Continuous
 62
     7
370
    15
100
AcDbLine
 10
1717.318373614449
 20
793.4011419220815
 30
0.0
 11
1717.318373614449
 21
793.3060725136647
 31
0.0
  0
LINE
  5
A62
330
9E8
100
AcDbEntity
  8
0
  6
Continuous
 62
     7
370
    15
100
AcDbLine
 10
1715.094978803295
 20
765.4929657383809
 30
0.0
 11
1704.546007209915
 21
765.4929657383809
 31
0.0
  0
LINE
  5
A63
330
9E8
100
AcDbEntity
  8
0
  6
Continuous
 62
     7
370
    15
100
AcDbLine
 10
1702.870490842957
 20
766.9925291939626
 30
0.0
 11
1716.770495170254
 21
766.9925291939626
 31
0.0
  0
LINE
  5
A64
330
9E8
100
AcDbEntity
  8
0
  6
Continuous
 62
     7
370
    15
100
AcDbLine
 10
1705.570484393734
 20
800.0010748310932
 30
0.0
 11
1714.070501619476
 21
800.0010748310932
 31
0.0
  0
ENDBLK
  5
9EA
330
9E8
100
AcDbEntity
  8
0
100
AcDbBlockEnd
  0
BLOCK
  5
A67
330
A66
100
AcDbEntity
  8
0
100
AcDbBlockBegin
  2
3
 70
     0
 10
0.0
 20
0.0
 30
0.0
  3
3
  1

  0
LINE
  5
A69
330
A66
100
AcDbEntity
  8
0
  6
Continuous
 62
     7
370
    15
100
AcDbLine
 10
1762.619139530942
 20
730.1701836401512
 30
0.0
 11
1762.619139530942
 21
715.1744224244644
 31
0.0
  0
LINE
  5
A6A
330
A66
100
AcDbEntity
  8
0
  6
Continuous
 62
     7
370
    15
100
AcDbLine
 10
1802.231343367383
 20
715.1744224244644
 30
0.0
 11
1802.231343367383
 21
730.1701836401512
 31
0.0
  0
LINE
  5
A6B
330
A66
100
AcDbEntity
  8
0
  6
Continuous
 62
     7
370
    15
100
AcDbLine
 10
1802.322329857632
 20
715.1744224244644
 30
0.0
 11
1802.322329857632
 21
730.1701836401512
 31
0.0
  0
LINE
  5
A6C
330
A66
100
AcDbEntity
  8
0
  6
Continuous
 62
     7
370
    15
100
AcDbLine
 10
1762.528153040692
 20
730.1701836401512
 30
0.0
 11
1762.528153040692
 21
715.1744224244644
 31
0.0
  0
LINE
  5
A6D
330
A66
100
AcDbEntity
  8
0
  6
Continuous
 62
     7
370
    15
100
AcDbLine
 10
1761.025907376096
 20
715.1744224244644
 30
0.0
 11
1761.025907376096
 21
730.1701836401512
 31
0.0
  0
LINE
  5
A6E
330
A66
100
AcDbEntity
  8
0
  6
Continuous
 62
     7
370
    15
100
AcDbLine
 10
1803.824575522229
 20
730.1701836401512
 30
0.0
 11
1803.824575522229
 21
715.1744224244644
 31
0.0
  0
CIRCLE
  5
A6F
330
A66
100
AcDbEntity
  8
0
  6
Continuous
 62
     7
370
    15
100
AcDbCircle
 10
1793.125219461651
 20
722.6723035217899
 30
0.0
 40
4.250006793215334
  0
CIRCLE
  5
A70
330
A66
100
AcDbEntity
  8
0
  6
Continuous
 62
     7
370
    15
100
AcDbCircle
 10
1793.125219461651
 20
722.6723035217899
 30
0.0
 40
3.086259606628118
  0
CIRCLE
  5
A71
330
A66
100
AcDbEntity
  8
0
  6
Continuous
 62
     7
370
    15
100
AcDbCircle
 10
1771.72525126213
 20
722.6723035217921
 30
0.0
 40
4.250006793215277
  0
CIRCLE
  5
A72
330
A66
100
AcDbEntity
  8
0
  6
Continuous
 62
     7
370
    15
100
AcDbCircle
 10
1771.72525126213
 20
722.6723035217921
 30
0.0
 40
3.128106284019338
  0
CIRCLE
  5
A73
330
A66
100
AcDbEntity
  8
0
  6
Continuous
 62
     7
370
    15
100
AcDbCircle
 10
1771.72525126213
 20
722.6723035217919
 30
0.0
 40
4.302378636353694
  0
CIRCLE
  5
A74
330
A66
100
AcDbEntity
  8
0
  6
Continuous
 62
     7
370
    15
100
AcDbCircle
 10
1793.125219461651
 20
722.6723035217899
 30
0.0
 40
4.302378636353694
  0
LINE
  5
A75
330
A66
100
AcDbEntity
  8
0
  6
Continuous
 62
     7
370
    15
100
AcDbLine
 10
1787.375213482663
 20
715.1744224244644
 30
0.0
 11
1787.375213482663
 21
730.1701836401512
 31
0.0
  0
LINE
  5
A76
330
A66
100
AcDbEntity
  8
0
  6
Continuous
 62
     7
370
    15
100
AcDbLine
 10
1786.175222971722
 20
715.1744224244644
 30
0.0
 11
1787.375213482663
 21
715.1744224244644
 31
0.0
  0
LINE
  5
A77
330
A66
100
AcDbEntity
  8
0
  6
Continuous
 62
     7
370
    15
100
AcDbLine
 10
1786.175222971722
 20
715.1744224244644
 30
0.0
 11
1786.175222971722
 21
730.1701836401512
 31
0.0
  0
LINE
  5
A78
330
A66
100
AcDbEntity
  8
0
  6
Continuous
 62
     7
370
    15
100
AcDbLine
 10
1786.175222971722
 20
730.1701836401512
 30
0.0
 11
1787.375213482663
 21
730.1701836401512
 31
0.0
  0
LINE
  5
A79
330
A66
100
AcDbEntity
  8
0
  6
Continuous
 62
     7
370
    15
100
AcDbLine
 10
1778.675259926602
 20
715.1744224244644
 30
0.0
 11
1778.675259926602
 21
730.1701836401512
 31
0.0
  0
LINE
  5
A7A
330
A66
100
AcDbEntity
  8
0
  6
Continuous
 62
     7
370
    15
100
AcDbLine
 10
1777.475239613339
 20
715.1744224244644
 30
0.0
 11
1778.675259926602
 21
715.1744224244644
 31
0.0
  0
LINE
  5
A7B
330
A66
100
AcDbEntity
  8
0
  6
Continuous
 62
     7
370
    15
100
AcDbLine
 10
1777.475239613339
 20
715.1744224244644
 30
0.0
 11
1777.475239613339
 21
730.1701836401512
 31
0.0
  0
LINE
  5
A7C
330
A66
100
AcDbEntity
  8
0
  6
Continuous
 62
     7
370
    15
100
AcDbLine
 10
1777.475239613339
 20
730.1701836401512
 30
0.0
 11
1778.675259926602
 21
730.1701836401512
 31
0.0
  0
LINE
  5
A7D
330
A66
100
AcDbEntity
  8
0
  6
Continuous
 62
     7
370
    15
100
AcDbLine
 10
1787.375213482663
 20
730.1701836401512
 30
0.0
 11
1801.619054653928
 21
730.1701836401512
 31
0.0
  0
LINE
  5
A7E
330
A66
100
AcDbEntity
  8
0
  6
Continuous
 62
     7
370
    15
100
AcDbLine
 10
1801.619054653928
 20
715.1744224244644
 30
0.0
 11
1801.619054653928
 21
730.1701836401512
 31
0.0
  0
LINE
  5
A7F
330
A66
100
AcDbEntity
  8
0
  6
Continuous
 62
     7
370
    15
100
AcDbLine
 10
1787.375213482663
 20
715.1744224244644
 30
0.0
 11
1801.619054653928
 21
715.1744224244644
 31
0.0
  0
LINE
  5
A80
330
A66
100
AcDbEntity
  8
0
  6
Continuous
 62
     7
370
    15
100
AcDbLine
 10
1763.231428244397
 20
715.1744224244644
 30
0.0
 11
1763.231428244397
 21
730.1701836401512
 31
0.0
  0
LINE
  5
A81
330
A66
100
AcDbEntity
  8
0
  6
Continuous
 62
     7
370
    15
100
AcDbLine
 10
1763.231428244397
 20
730.1701836401512
 30
0.0
 11
1777.475239613339
 21
730.1701836401512
 31
0.0
  0
LINE
  5
A82
330
A66
100
AcDbEntity
  8
0
  6
Continuous
 62
     7
370
    15
100
AcDbLine
 10
1763.231428244397
 20
715.1744224244644
 30
0.0
 11
1777.475239613339
 21
715.1744224244644
 31
0.0
  0
LINE
  5
A83
330
A66
100
AcDbEntity
  8
0
  6
Continuous
 62
     7
370
    15
100
AcDbLine
 10
1762.798400500104
 20
715.1744224244644
 30
0.0
 11
1762.798400500104
 21
730.1701836401512
 31
0.0
  0
LINE
  5
A84
330
A66
100
AcDbEntity
  8
0
  6
Continuous
 62
     7
370
    15
100
AcDbLine
 10
1762.798400500104
 20
730.1701836401512
 30
0.0
 11
1763.231428244397
 21
730.1701836401512
 31
0.0
  0
LINE
  5
A85
330
A66
100
AcDbEntity
  8
0
  6
Continuous
 62
     7
370
    15
100
AcDbLine
 10
1762.798400500104
 20
715.1744224244644
 30
0.0
 11
1763.231428244397
 21
715.1744224244644
 31
0.0
  0
LINE
  5
A86
330
A66
100
AcDbEntity
  8
0
  6
Continuous
 62
     7
370
    15
100
AcDbLine
 10
1802.052082398221
 20
715.1744224244644
 30
0.0
 11
1802.052082398221
 21
730.1701836401512
 31
0.0
  0
LINE
  5
A87
330
A66
100
AcDbEntity
  8
0
  6
Continuous
 62
     7
370
    15
100
AcDbLine
 10
1801.619054653928
 20
730.1701836401512
 30
0.0
 11
1802.052082398221
 21
730.1701836401512
 31
0.0
  0
LINE
  5
A88
330
A66
100
AcDbEntity
  8
0
  6
Continuous
 62
     7
370
    15
100
AcDbLine
 10
1801.619054653928
 20
715.1744224244644
 30
0.0
 11
1802.052082398221
 21
715.1744224244644
 31
0.0
  0
LINE
  5
A89
330
A66
100
AcDbEntity
  8
0
  6
Continuous
 62
     7
370
    15
100
AcDbLine
 10
1762.652637341306
 20
715.1744224244644
 30
0.0
 11
1762.652637341306
 21
730.1701836401512
 31
0.0
  0
LINE
  5
A8A
330
A66
100
AcDbEntity
  8
0
  6
Continuous
 62
     7
370
    15
100
AcDbLine
 10
1762.652637341306
 20
730.1701836401512
 30
0.0
 11
1762.798400500104
 21
730.1701836401512
 31
0.0
  0
LINE
  5
A8B
330
A66
100
AcDbEntity
  8
0
  6
Continuous
 62
     7
370
    15
100
AcDbLine
 10
1762.652637341306
 20
715.1744224244644
 30
0.0
 11
1762.798400500104
 21
715.1744224244644
 31
0.0
  0
LINE
  5
A8C
330
A66
100
AcDbEntity
  8
0
  6
Continuous
 62
     7
370
    15
100
AcDbLine
 10
1802.197845557019
 20
715.1744224244644
 30
0.0
 11
1802.197845557019
 21
730.1701836401512
 31
0.0
  0
LINE
  5
A8D
330
A66
100
AcDbEntity
  8
0
  6
Continuous
 62
     7
370
    15
100
AcDbLine
 10
1802.052082398221
 20
730.1701836401512
 30
0.0
 11
1802.197845557019
 21
730.1701836401512
 31
0.0
  0
LINE
  5
A8E
330
A66
100
AcDbEntity
  8
0
  6
Continuous
 62
     7
370
    15
100
AcDbLine
 10
1802.052082398221
 20
715.1744224244644
 30
0.0
 11
1802.197845557019
 21
715.1744224244644
 31
0.0
  0
LINE
  5
A8F
330
A66
100
AcDbEntity
  8
0
  6
Continuous
 62
     7
370
    15
100
AcDbLine
 10
1762.619139530942
 20
730.1701836401512
 30
0.0
 11
1762.652637341306
 21
730.1701836401512
 31
0.0
  0
LINE
  5
A90
330
A66
100
AcDbEntity
  8
0
  6
Continuous
 62
     7
370
    15
100
AcDbLine
 10
1762.619139530942
 20
715.1744224244644
 30
0.0
 11
1762.652637341306
 21
715.1744224244644
 31
0.0
  0
LINE
  5
A91
330
A66
100
AcDbEntity
  8
0
  6
Continuous
 62
     7
370
    15
100
AcDbLine
 10
1802.197845557019
 20
730.1701836401512
 30
0.0
 11
1802.231343367383
 21
730.1701836401512
 31
0.0
  0
LINE
  5
A92
330
A66
100
AcDbEntity
  8
0
  6
Continuous
 62
     7
370
    15
100
AcDbLine
 10
1802.197845557019
 20
715.1744224244644
 30
0.0
 11
1802.231343367383
 21
715.1744224244644
 31
0.0
  0
LINE
  5
A93
330
A66
100
AcDbEntity
  8
0
  6
Continuous
 62
     7
370
    15
100
AcDbLine
 10
1793.875189402386
 20
725.6660543495704
 30
0.0
 11
1793.875189402386
 21
719.6785517150451
 31
0.0
  0
LINE
  5
A94
330
A66
100
AcDbEntity
  8
0
  6
Continuous
 62
     7
370
    15
100
AcDbLine
 10
1792.375208714291
 20
719.6785666162063
 30
0.0
 11
1792.375208714291
 21
725.6660394484092
 31
0.0
  0
LINE
  5
A95
330
A66
100
AcDbEntity
  8
0
  6
Continuous
 62
     7
370
    15
100
AcDbLine
 10
1772.475274184033
 20
719.6354426557113
 30
0.0
 11
1772.475274184033
 21
725.7091634089042
 31
0.0
  0
LINE
  5
A96
330
A66
100
AcDbEntity
  8
0
  6
Continuous
 62
     7
370
    15
100
AcDbLine
 10
1770.975263693616
 20
725.7091708594848
 30
0.0
 11
1770.975263693616
 21
719.6354352051307
 31
0.0
  0
LINE
  5
A97
330
A66
100
AcDbEntity
  8
0
  6
Continuous
 62
     7
370
    15
100
AcDbLine
 10
1762.554945328519
 20
715.1744224244644
 30
0.0
 11
1762.554945328519
 21
730.1701836401512
 31
0.0
  0
LINE
  5
A98
330
A66
100
AcDbEntity
  8
0
  6
Continuous
 62
     7
370
    15
100
AcDbLine
 10
1762.554945328519
 20
730.1701836401512
 30
0.0
 11
1762.619139530942
 21
730.1701836401512
 31
0.0
  0
LINE
  5
A99
330
A66
100
AcDbEntity
  8
0
  6
Continuous
 62
     7
370
    15
100
AcDbLine
 10
1762.554945328519
 20
715.1744224244644
 30
0.0
 11
1762.619139530942
 21
715.1744224244644
 31
0.0
  0
LINE
  5
A9A
330
A66
100
AcDbEntity
  8
0
  6
Continuous
 62
     7
370
    15
100
AcDbLine
 10
1802.295537569806
 20
715.1744224244644
 30
0.0
 11
1802.295537569806
 21
730.1701836401512
 31
0.0
  0
LINE
  5
A9B
330
A66
100
AcDbEntity
  8
0
  6
Continuous
 62
     7
370
    15
100
AcDbLine
 10
1802.231343367383
 20
730.1701836401512
 30
0.0
 11
1802.295537569806
 21
730.1701836401512
 31
0.0
  0
LINE
  5
A9C
330
A66
100
AcDbEntity
  8
0
  6
Continuous
 62
     7
370
    15
100
AcDbLine
 10
1802.231343367383
 20
715.1744224244644
 30
0.0
 11
1802.295537569806
 21
715.1744224244644
 31
0.0
  0
LINE
  5
A9D
330
A66
100
AcDbEntity
  8
0
  6
Continuous
 62
     7
370
    15
100
AcDbLine
 10
1802.295537569806
 20
730.1701836401512
 30
0.0
 11
1802.322329857632
 21
730.1701836401512
 31
0.0
  0
LINE
  5
A9E
330
A66
100
AcDbEntity
  8
0
  6
Continuous
 62
     7
370
    15
100
AcDbLine
 10
1802.295537569806
 20
715.1744224244644
 30
0.0
 11
1802.322329857632
 21
715.1744224244644
 31
0.0
  0
LINE
  5
A9F
330
A66
100
AcDbEntity
  8
0
  6
Continuous
 62
     7
370
    15
100
AcDbLine
 10
1762.528153040692
 20
730.1701836401512
 30
0.0
 11
1762.554945328519
 21
730.1701836401512
 31
0.0
  0
LINE
  5
AA0
330
A66
100
AcDbEntity
  8
0
  6
Continuous
 62
     7
370
    15
100
AcDbLine
 10
1762.528153040692
 20
715.1744224244644
 30
0.0
 11
1762.554945328519
 21
715.1744224244644
 31
0.0
  0
LINE
  5
AA1
330
A66
100
AcDbEntity
  8
0
  6
Continuous
 62
     7
370
    15
100
AcDbLine
 10
1803.511442520902
 20
715.1744224244644
 30
0.0
 11
1803.511442520902
 21
730.1701836401512
 31
0.0
  0
LINE
  5
AA2
330
A66
100
AcDbEntity
  8
0
  6
Continuous
 62
     7
370
    15
100
AcDbLine
 10
1802.322329857632
 20
730.1701836401512
 30
0.0
 11
1803.511442520902
 21
730.1701836401512
 31
0.0
  0
LINE
  5
AA3
330
A66
100
AcDbEntity
  8
0
  6
Continuous
 62
     7
370
    15
100
AcDbLine
 10
1802.322329857632
 20
715.1744224244644
 30
0.0
 11
1803.511442520902
 21
715.1744224244644
 31
0.0
  0
LINE
  5
AA4
330
A66
100
AcDbEntity
  8
0
  6
Continuous
 62
     7
370
    15
100
AcDbLine
 10
1761.339010575101
 20
715.1744224244644
 30
0.0
 11
1761.339010575101
 21
730.1701836401512
 31
0.0
  0
LINE
  5
AA5
330
A66
100
AcDbEntity
  8
0
  6
Continuous
 62
     7
370
    15
100
AcDbLine
 10
1761.339010575101
 20
730.1701836401512
 30
0.0
 11
1762.528153040692
 21
730.1701836401512
 31
0.0
  0
LINE
  5
AA6
330
A66
100
AcDbEntity
  8
0
  6
Continuous
 62
     7
370
    15
100
AcDbLine
 10
1761.339010575101
 20
715.1744224244644
 30
0.0
 11
1762.528153040692
 21
715.1744224244644
 31
0.0
  0
LINE
  5
AA7
330
A66
100
AcDbEntity
  8
0
  6
Continuous
 62
     7
370
    15
100
AcDbLine
 10
1804.739477017209
 20
715.1744224244644
 30
0.0
 11
1804.739477017209
 21
730.1701836401512
 31
0.0
  0
LINE
  5
AA8
330
A66
100
AcDbEntity
  8
0
  6
Continuous
 62
     7
370
    15
100
AcDbLine
 10
1804.473938324735
 20
715.1744224244644
 30
0.0
 11
1804.473938324735
 21
730.1701836401512
 31
0.0
  0
LINE
  5
AA9
330
A66
100
AcDbEntity
  8
0
  6
Continuous
 62
     7
370
    15
100
AcDbLine
 10
1804.473938324735
 20
730.1701836401512
 30
0.0
 11
1804.739477017209
 21
730.1701836401512
 31
0.0
  0
LINE
  5
AAA
330
A66
100
AcDbEntity
  8
0
  6
Continuous
 62
     7
370
    15
100
AcDbLine
 10
1804.473938324735
 20
715.1744224244644
 30
0.0
 11
1804.739477017209
 21
715.1744224244644
 31
0.0
  0
LINE
  5
AAB
330
A66
100
AcDbEntity
  8
0
  6
Continuous
 62
     7
370
    15
100
AcDbLine
 10
1760.37654457359
 20
715.1744224244644
 30
0.0
 11
1760.37654457359
 21
730.1701836401512
 31
0.0
  0
LINE
  5
AAC
330
A66
100
AcDbEntity
  8
0
  6
Continuous
 62
     7
370
    15
100
AcDbLine
 10
1760.110976078793
 20
715.1744224244644
 30
0.0
 11
1760.110976078793
 21
730.1701836401512
 31
0.0
  0
LINE
  5
AAD
330
A66
100
AcDbEntity
  8
0
  6
Continuous
 62
     7
370
    15
100
AcDbLine
 10
1760.110976078793
 20
730.1701836401512
 30
0.0
 11
1760.37654457359
 21
730.1701836401512
 31
0.0
  0
LINE
  5
AAE
330
A66
100
AcDbEntity
  8
0
  6
Continuous
 62
     7
370
    15
100
AcDbLine
 10
1760.110976078793
 20
715.1744224244644
 30
0.0
 11
1760.37654457359
 21
715.1744224244644
 31
0.0
  0
LINE
  5
AAF
330
A66
100
AcDbEntity
  8
0
  6
Continuous
 62
     7
370
    15
100
AcDbLine
 10
1760.918231585309
 20
715.1744224244644
 30
0.0
 11
1760.918231585309
 21
730.1701836401512
 31
0.0
  0
LINE
  5
AB0
330
A66
100
AcDbEntity
  8
0
  6
Continuous
 62
     7
370
    15
100
AcDbLine
 10
1760.37654457359
 20
730.1701836401512
 30
0.0
 11
1760.918231585309
 21
730.1701836401512
 31
0.0
  0
LINE
  5
AB1
330
A66
100
AcDbEntity
  8
0
  6
Continuous
 62
     7
370
    15
100
AcDbLine
 10
1760.37654457359
 20
715.1744224244644
 30
0.0
 11
1760.918231585309
 21
715.1744224244644
 31
0.0
  0
LINE
  5
AB2
330
A66
100
AcDbEntity
  8
0
  6
Continuous
 62
     7
370
    15
100
AcDbLine
 10
1803.932221510693
 20
715.1744224244644
 30
0.0
 11
1803.932221510693
 21
730.1701836401512
 31
0.0
  0
LINE
  5
AB3
330
A66
100
AcDbEntity
  8
0
  6
Continuous
 62
     7
370
    15
100
AcDbLine
 10
1803.932221510693
 20
730.1701836401512
 30
0.0
 11
1804.473938324735
 21
730.1701836401512
 31
0.0
  0
LINE
  5
AB4
330
A66
100
AcDbEntity
  8
0
  6
Continuous
 62
     7
370
    15
100
AcDbLine
 10
1803.932221510693
 20
715.1744224244644
 30
0.0
 11
1804.473938324735
 21
715.1744224244644
 31
0.0
  0
LINE
  5
AB5
330
A66
100
AcDbEntity
  8
0
  6
Continuous
 62
     7
370
    15
100
AcDbLine
 10
1759.924920180127
 20
715.1744224244644
 30
0.0
 11
1759.924920180127
 21
730.1701836401512
 31
0.0
  0
LINE
  5
AB6
330
A66
100
AcDbEntity
  8
0
  6
Continuous
 62
     7
370
    15
100
AcDbLine
 10
1759.924920180127
 20
730.1701836401512
 30
0.0
 11
1760.110976078793
 21
730.1701836401512
 31
0.0
  0
LINE
  5
AB7
330
A66
100
AcDbEntity
  8
0
  6
Continuous
 62
     7
370
    15
100
AcDbLine
 10
1759.924920180127
 20
715.1744224244644
 30
0.0
 11
1760.110976078793
 21
715.1744224244644
 31
0.0
  0
LINE
  5
AB8
330
A66
100
AcDbEntity
  8
0
  6
Continuous
 62
     7
370
    15
100
AcDbLine
 10
1804.925562718198
 20
715.1744224244644
 30
0.0
 11
1804.925562718198
 21
730.1701836401512
 31
0.0
  0
LINE
  5
AB9
330
A66
100
AcDbEntity
  8
0
  6
Continuous
 62
     7
370
    15
100
AcDbLine
 10
1804.739477017209
 20
730.1701836401512
 30
0.0
 11
1804.925562718198
 21
730.1701836401512
 31
0.0
  0
LINE
  5
ABA
330
A66
100
AcDbEntity
  8
0
  6
Continuous
 62
     7
370
    15
100
AcDbLine
 10
1804.739477017209
 20
715.1744224244644
 30
0.0
 11
1804.925562718198
 21
715.1744224244644
 31
0.0
  0
LINE
  5
ABB
330
A66
100
AcDbEntity
  8
0
  6
Continuous
 62
     7
370
    15
100
AcDbLine
 10
1760.918231585309
 20
730.1701836401512
 30
0.0
 11
1761.025907376096
 21
730.1701836401512
 31
0.0
  0
LINE
  5
ABC
330
A66
100
AcDbEntity
  8
0
  6
Continuous
 62
     7
370
    15
100
AcDbLine
 10
1760.918231585309
 20
715.1744224244644
 30
0.0
 11
1761.025907376096
 21
715.1744224244644
 31
0.0
  0
LINE
  5
ABD
330
A66
100
AcDbEntity
  8
0
  6
Continuous
 62
     7
370
    15
100
AcDbLine
 10
1803.824575522229
 20
730.1701836401512
 30
0.0
 11
1803.932221510693
 21
730.1701836401512
 31
0.0
  0
LINE
  5
ABE
330
A66
100
AcDbEntity
  8
0
  6
Continuous
 62
     7
370
    15
100
AcDbLine
 10
1803.824575522229
 20
715.1744224244644
 30
0.0
 11
1803.932221510693
 21
715.1744224244644
 31
0.0
  0
LINE
  5
ABF
330
A66
100
AcDbEntity
  8
0
  6
Continuous
 62
     7
370
    15
100
AcDbLine
 10
1806.117446997449
 20
715.1744224244644
 30
0.0
 11
1806.117446997449
 21
730.1701836401512
 31
0.0
  0
LINE
  5
AC0
330
A66
100
AcDbEntity
  8
0
  6
Continuous
 62
     7
370
    15
100
AcDbLine
 10
1804.925562718198
 20
730.1701836401512
 30
0.0
 11
1806.117446997449
 21
730.1701836401512
 31
0.0
  0
LINE
  5
AC1
330
A66
100
AcDbEntity
  8
0
  6
Continuous
 62
     7
370
    15
100
AcDbLine
 10
1804.925562718198
 20
715.1744224244644
 30
0.0
 11
1806.117446997449
 21
715.1744224244644
 31
0.0
  0
LINE
  5
AC2
330
A66
100
AcDbEntity
  8
0
  6
Continuous
 62
     7
370
    15
100
AcDbLine
 10
1758.733035900876
 20
715.1744224244644
 30
0.0
 11
1758.733035900876
 21
730.1701836401512
 31
0.0
  0
LINE
  5
AC3
330
A66
100
AcDbEntity
  8
0
  6
Continuous
 62
     7
370
    15
100
AcDbLine
 10
1758.733035900876
 20
730.1701836401512
 30
0.0
 11
1759.924920180127
 21
730.1701836401512
 31
0.0
  0
LINE
  5
AC4
330
A66
100
AcDbEntity
  8
0
  6
Continuous
 62
     7
370
    15
100
AcDbLine
 10
1758.733035900876
 20
715.1744224244644
 30
0.0
 11
1759.924920180127
 21
715.1744224244644
 31
0.0
  0
LINE
  5
AC5
330
A66
100
AcDbEntity
  8
0
  6
Continuous
 62
     7
370
    15
100
AcDbLine
 10
1803.815813639447
 20
715.1744224244644
 30
0.0
 11
1803.815813639447
 21
730.1701836401512
 31
0.0
  0
LINE
  5
AC6
330
A66
100
AcDbEntity
  8
0
  6
Continuous
 62
     7
370
    15
100
AcDbLine
 10
1803.815813639447
 20
730.1701836401512
 30
0.0
 11
1803.824575522229
 21
730.1701836401512
 31
0.0
  0
LINE
  5
AC7
330
A66
100
AcDbEntity
  8
0
  6
Continuous
 62
     7
370
    15
100
AcDbLine
 10
1803.815813639447
 20
715.1744224244644
 30
0.0
 11
1803.824575522229
 21
715.1744224244644
 31
0.0
  0
LINE
  5
AC8
330
A66
100
AcDbEntity
  8
0
  6
Continuous
 62
     7
370
    15
100
AcDbLine
 10
1761.034669258878
 20
715.1744224244644
 30
0.0
 11
1761.034669258878
 21
730.1701836401512
 31
0.0
  0
LINE
  5
AC9
330
A66
100
AcDbEntity
  8
0
  6
Continuous
 62
     7
370
    15
100
AcDbLine
 10
1761.025907376096
 20
730.1701836401512
 30
0.0
 11
1761.034669258878
 21
730.1701836401512
 31
0.0
  0
LINE
  5
ACA
330
A66
100
AcDbEntity
  8
0
  6
Continuous
 62
     7
370
    15
100
AcDbLine
 10
1761.025907376096
 20
715.1744224244644
 30
0.0
 11
1761.034669258878
 21
715.1744224244644
 31
0.0
  0
LINE
  5
ACB
330
A66
100
AcDbEntity
  8
0
  6
Continuous
 62
     7
370
    15
100
AcDbLine
 10
1803.730638602063
 20
715.1744224244644
 30
0.0
 11
1803.730638602063
 21
730.1701836401512
 31
0.0
  0
LINE
  5
ACC
330
A66
100
AcDbEntity
  8
0
  6
Continuous
 62
     7
370
    15
100
AcDbLine
 10
1803.511442520902
 20
730.1701836401512
 30
0.0
 11
1803.730638602063
 21
730.1701836401512
 31
0.0
  0
LINE
  5
ACD
330
A66
100
AcDbEntity
  8
0
  6
Continuous
 62
     7
370
    15
100
AcDbLine
 10
1803.511442520902
 20
715.1744224244644
 30
0.0
 11
1803.730638602063
 21
715.1744224244644
 31
0.0
  0
LINE
  5
ACE
330
A66
100
AcDbEntity
  8
0
  6
Continuous
 62
     7
370
    15
100
AcDbLine
 10
1761.119814493939
 20
715.1744224244644
 30
0.0
 11
1761.119814493939
 21
730.1701836401512
 31
0.0
  0
LINE
  5
ACF
330
A66
100
AcDbEntity
  8
0
  6
Continuous
 62
     7
370
    15
100
AcDbLine
 10
1761.119814493939
 20
730.1701836401512
 30
0.0
 11
1761.339010575101
 21
730.1701836401512
 31
0.0
  0
LINE
  5
AD0
330
A66
100
AcDbEntity
  8
0
  6
Continuous
 62
     7
370
    15
100
AcDbLine
 10
1761.119814493939
 20
715.1744224244644
 30
0.0
 11
1761.339010575101
 21
715.1744224244644
 31
0.0
  0
LINE
  5
AD1
330
A66
100
AcDbEntity
  8
0
  6
Continuous
 62
     7
370
    15
100
AcDbLine
 10
1803.730638602063
 20
730.1701836401512
 30
0.0
 11
1803.815813639447
 21
730.1701836401512
 31
0.0
  0
LINE
  5
AD2
330
A66
100
AcDbEntity
  8
0
  6
Continuous
 62
     7
370
    15
100
AcDbLine
 10
1803.730638602063
 20
715.1744224244644
 30
0.0
 11
1803.815813639447
 21
715.1744224244644
 31
0.0
  0
LINE
  5
AD3
330
A66
100
AcDbEntity
  8
0
  6
Continuous
 62
     7
370
    15
100
AcDbLine
 10
1761.034669258878
 20
730.1701836401512
 30
0.0
 11
1761.119814493939
 21
730.1701836401512
 31
0.0
  0
LINE
  5
AD4
330
A66
100
AcDbEntity
  8
0
  6
Continuous
 62
     7
370
    15
100
AcDbLine
 10
1761.034669258878
 20
715.1744224244644
 30
0.0
 11
1761.119814493939
 21
715.1744224244644
 31
0.0
  0
LINE
  5
AD5
330
A66
100
AcDbEntity
  8
0
  6
Continuous
 62
     7
370
    15
100
AcDbLine
 10
1785.975219586179
 20
715.1744224244644
 30
0.0
 11
1785.975219586179
 21
730.1701836401512
 31
0.0
  0
LINE
  5
AD6
330
A66
100
AcDbEntity
  8
0
  6
Continuous
 62
     7
370
    15
100
AcDbLine
 10
1785.975219586179
 20
730.1701836401512
 30
0.0
 11
1786.175222971722
 21
730.1701836401512
 31
0.0
  0
LINE
  5
AD7
330
A66
100
AcDbEntity
  8
0
  6
Continuous
 62
     7
370
    15
100
AcDbLine
 10
1785.975219586179
 20
715.1744224244644
 30
0.0
 11
1786.175222971722
 21
715.1744224244644
 31
0.0
  0
LINE
  5
AD8
330
A66
100
AcDbEntity
  8
0
  6
Continuous
 62
     7
370
    15
100
AcDbLine
 10
1778.875263312146
 20
715.1744224244644
 30
0.0
 11
1778.875263312146
 21
730.1701836401512
 31
0.0
  0
LINE
  5
AD9
330
A66
100
AcDbEntity
  8
0
  6
Continuous
 62
     7
370
    15
100
AcDbLine
 10
1778.675259926602
 20
730.1701836401512
 30
0.0
 11
1778.875263312146
 21
730.1701836401512
 31
0.0
  0
LINE
  5
ADA
330
A66
100
AcDbEntity
  8
0
  6
Continuous
 62
     7
370
    15
100
AcDbLine
 10
1778.675259926602
 20
715.1744224244644
 30
0.0
 11
1778.875263312146
 21
715.1744224244644
 31
0.0
  0
LINE
  5
ADB
330
A66
100
AcDbEntity
  8
0
  6
Continuous
 62
     7
370
    15
100
AcDbLine
 10
1757.621886112973
 20
715.1744224244644
 30
0.0
 11
1757.621886112973
 21
730.1701836401512
 31
0.0
  0
LINE
  5
ADC
330
A66
100
AcDbEntity
  8
0
  6
Continuous
 62
     7
370
    15
100
AcDbLine
 10
1757.155390360638
 20
715.1744224244644
 30
0.0
 11
1757.155390360638
 21
730.1701836401512
 31
0.0
  0
LINE
  5
ADD
330
A66
100
AcDbEntity
  8
0
  6
Continuous
 62
     7
370
    15
100
AcDbLine
 10
1757.155390360638
 20
730.1701836401512
 30
0.0
 11
1757.621886112973
 21
730.1701836401512
 31
0.0
  0
LINE
  5
ADE
330
A66
100
AcDbEntity
  8
0
  6
Continuous
 62
     7
370
    15
100
AcDbLine
 10
1757.155390360638
 20
715.1744224244644
 30
0.0
 11
1757.621886112973
 21
715.1744224244644
 31
0.0
  0
LINE
  5
ADF
330
A66
100
AcDbEntity
  8
0
  6
Continuous
 62
     7
370
    15
100
AcDbLine
 10
1807.695092537686
 20
715.1744224244644
 30
0.0
 11
1807.695092537686
 21
730.1701836401512
 31
0.0
  0
LINE
  5
AE0
330
A66
100
AcDbEntity
  8
0
  6
Continuous
 62
     7
370
    15
100
AcDbLine
 10
1807.228596785352
 20
715.1744224244644
 30
0.0
 11
1807.228596785352
 21
730.1701836401512
 31
0.0
  0
LINE
  5
AE1
330
A66
100
AcDbEntity
  8
0
  6
Continuous
 62
     7
370
    15
100
AcDbLine
 10
1807.228596785352
 20
730.1701836401512
 30
0.0
 11
1807.695092537686
 21
730.1701836401512
 31
0.0
  0
LINE
  5
AE2
330
A66
100
AcDbEntity
  8
0
  6
Continuous
 62
     7
370
    15
100
AcDbLine
 10
1807.228596785352
 20
715.1744224244644
 30
0.0
 11
1807.695092537686
 21
715.1744224244644
 31
0.0
  0
CIRCLE
  5
AE3
330
A66
100
AcDbEntity
  8
0
  6
Continuous
 62
     7
370
    15
100
AcDbCircle
 10
1782.42523536189
 20
722.6723035217903
 30
0.0
 40
3.300000000000011
  0
LINE
  5
AE4
330
A66
100
AcDbEntity
  8
0
  6
Continuous
 62
     7
370
    15
100
AcDbLine
 10
1778.875263312146
 20
730.1701836401512
 30
0.0
 11
1785.975219586179
 21
730.1701836401512
 31
0.0
  0
LINE
  5
AE5
330
A66
100
AcDbEntity
  8
0
  6
Continuous
 62
     7
370
    15
100
AcDbLine
 10
1778.875263312146
 20
715.1744224244644
 30
0.0
 11
1785.975219586179
 21
715.1744224244644
 31
0.0
  0
LINE
  5
AE6
330
A66
100
AcDbEntity
  8
0
  6
Continuous
 62
     7
370
    15
100
AcDbLine
 10
1757.142217734143
 20
715.1744224244644
 30
0.0
 11
1757.142217734143
 21
730.1701836401512
 31
0.0
  0
LINE
  5
AE7
330
A66
100
AcDbEntity
  8
0
  6
Continuous
 62
     7
370
    15
100
AcDbLine
 10
1757.142217734143
 20
730.1701836401512
 30
0.0
 11
1757.155390360638
 21
730.1701836401512
 31
0.0
  0
LINE
  5
AE8
330
A66
100
AcDbEntity
  8
0
  6
Continuous
 62
     7
370
    15
100
AcDbLine
 10
1757.142217734143
 20
715.1744224244644
 30
0.0
 11
1757.155390360638
 21
715.1744224244644
 31
0.0
  0
LINE
  5
AE9
330
A66
100
AcDbEntity
  8
0
  6
Continuous
 62
     7
370
    15
100
AcDbLine
 10
1807.708235361859
 20
715.1744224244644
 30
0.0
 11
1807.708235361859
 21
730.1701836401512
 31
0.0
  0
LINE
  5
AEA
330
A66
100
AcDbEntity
  8
0
  6
Continuous
 62
     7
370
    15
100
AcDbLine
 10
1807.695092537686
 20
730.1701836401512
 30
0.0
 11
1807.708235361859
 21
730.1701836401512
 31
0.0
  0
LINE
  5
AEB
330
A66
100
AcDbEntity
  8
0
  6
Continuous
 62
     7
370
    15
100
AcDbLine
 10
1807.695092537686
 20
715.1744224244644
 30
0.0
 11
1807.708235361859
 21
715.1744224244644
 31
0.0
  0
LINE
  5
AEC
330
A66
100
AcDbEntity
  8
0
  6
Continuous
 62
     7
370
    15
100
AcDbLine
 10
1757.075222113416
 20
715.1744224244644
 30
0.0
 11
1757.075222113416
 21
730.1701836401512
 31
0.0
  0
LINE
  5
AED
330
A66
100
AcDbEntity
  8
0
  6
Continuous
 62
     7
370
    15
100
AcDbLine
 10
1757.075222113416
 20
730.1701836401512
 30
0.0
 11
1757.142217734143
 21
730.1701836401512
 31
0.0
  0
LINE
  5
AEE
330
A66
100
AcDbEntity
  8
0
  6
Continuous
 62
     7
370
    15
100
AcDbLine
 10
1757.075222113416
 20
715.1744224244644
 30
0.0
 11
1757.142217734143
 21
715.1744224244644
 31
0.0
  0
LINE
  5
AEF
330
A66
100
AcDbEntity
  8
0
  6
Continuous
 62
     7
370
    15
100
AcDbLine
 10
1807.775230982587
 20
715.1744224244644
 30
0.0
 11
1807.775230982587
 21
730.1701836401512
 31
0.0
  0
LINE
  5
AF0
330
A66
100
AcDbEntity
  8
0
  6
Continuous
 62
     7
370
    15
100
AcDbLine
 10
1807.708235361859
 20
730.1701836401512
 30
0.0
 11
1807.775230982587
 21
730.1701836401512
 31
0.0
  0
LINE
  5
AF1
330
A66
100
AcDbEntity
  8
0
  6
Continuous
 62
     7
370
    15
100
AcDbLine
 10
1807.708235361859
 20
715.1744224244644
 30
0.0
 11
1807.775230982587
 21
715.1744224244644
 31
0.0
  0
LINE
  5
AF2
330
A66
100
AcDbEntity
  8
0
  6
Continuous
 62
     7
370
    15
100
AcDbLine
 10
1758.236082175061
 20
715.1744224244644
 30
0.0
 11
1758.236082175061
 21
730.1701836401512
 31
0.0
  0
LINE
  5
AF3
330
A66
100
AcDbEntity
  8
0
  6
Continuous
 62
     7
370
    15
100
AcDbLine
 10
1758.236082175061
 20
730.1701836401512
 30
0.0
 11
1758.733035900876
 21
730.1701836401512
 31
0.0
  0
LINE
  5
AF4
330
A66
100
AcDbEntity
  8
0
  6
Continuous
 62
     7
370
    15
100
AcDbLine
 10
1758.236082175061
 20
715.1744224244644
 30
0.0
 11
1758.733035900876
 21
715.1744224244644
 31
0.0
  0
LINE
  5
AF5
330
A66
100
AcDbEntity
  8
0
  6
Continuous
 62
     7
370
    15
100
AcDbLine
 10
1806.614400723264
 20
715.1744224244644
 30
0.0
 11
1806.614400723264
 21
730.1701836401512
 31
0.0
  0
LINE
  5
AF6
330
A66
100
AcDbEntity
  8
0
  6
Continuous
 62
     7
370
    15
100
AcDbLine
 10
1806.117446997449
 20
730.1701836401512
 30
0.0
 11
1806.614400723264
 21
730.1701836401512
 31
0.0
  0
LINE
  5
AF7
330
A66
100
AcDbEntity
  8
0
  6
Continuous
 62
     7
370
    15
100
AcDbLine
 10
1806.117446997449
 20
715.1744224244644
 30
0.0
 11
1806.614400723264
 21
715.1744224244644
 31
0.0
  0
LINE
  5
AF8
330
A66
100
AcDbEntity
  8
0
  6
Continuous
 62
     7
370
    15
100
AcDbLine
 10
1806.795449831769
 20
715.1744224244644
 30
0.0
 11
1806.795449831769
 21
730.1701836401512
 31
0.0
  0
LINE
  5
AF9
330
A66
100
AcDbEntity
  8
0
  6
Continuous
 62
     7
370
    15
100
AcDbLine
 10
1806.795449831769
 20
730.1701836401512
 30
0.0
 11
1807.228596785352
 21
730.1701836401512
 31
0.0
  0
LINE
  5
AFA
330
A66
100
AcDbEntity
  8
0
  6
Continuous
 62
     7
370
    15
100
AcDbLine
 10
1806.795449831769
 20
715.1744224244644
 30
0.0
 11
1807.228596785352
 21
715.1744224244644
 31
0.0
  0
LINE
  5
AFB
330
A66
100
AcDbEntity
  8
0
  6
Continuous
 62
     7
370
    15
100
AcDbLine
 10
1758.055003264233
 20
715.1744224244644
 30
0.0
 11
1758.055003264233
 21
730.1701836401512
 31
0.0
  0
LINE
  5
AFC
330
A66
100
AcDbEntity
  8
0
  6
Continuous
 62
     7
370
    15
100
AcDbLine
 10
1757.621886112973
 20
730.1701836401512
 30
0.0
 11
1758.055003264233
 21
730.1701836401512
 31
0.0
  0
LINE
  5
AFD
330
A66
100
AcDbEntity
  8
0
  6
Continuous
 62
     7
370
    15
100
AcDbLine
 10
1757.621886112973
 20
715.1744224244644
 30
0.0
 11
1758.055003264233
 21
715.1744224244644
 31
0.0
  0
LINE
  5
AFE
330
A66
100
AcDbEntity
  8
0
  6
Continuous
 62
     7
370
    15
100
AcDbLine
 10
1806.614400723264
 20
730.1701836401512
 30
0.0
 11
1806.795449831769
 21
730.1701836401512
 31
0.0
  0
LINE
  5
AFF
330
A66
100
AcDbEntity
  8
0
  6
Continuous
 62
     7
370
    15
100
AcDbLine
 10
1806.614400723264
 20
715.1744224244644
 30
0.0
 11
1806.795449831769
 21
715.1744224244644
 31
0.0
  0
LINE
  5
B00
330
A66
100
AcDbEntity
  8
0
  6
Continuous
 62
     7
370
    15
100
AcDbLine
 10
1758.055003264233
 20
730.1701836401512
 30
0.0
 11
1758.236082175061
 21
730.1701836401512
 31
0.0
  0
LINE
  5
B01
330
A66
100
AcDbEntity
  8
0
  6
Continuous
 62
     7
370
    15
100
AcDbLine
 10
1758.055003264233
 20
715.1744224244644
 30
0.0
 11
1758.236082175061
 21
715.1744224244644
 31
0.0
  0
LINE
  5
B02
330
A66
100
AcDbEntity
  8
0
  6
Continuous
 62
     7
370
    15
100
AcDbLine
 10
1807.925226071164
 20
730.0723053628494
 30
0.0
 11
1807.925226071164
 21
715.3223015481521
 31
0.0
  0
LINE
  5
B03
330
A66
100
AcDbEntity
  8
0
  6
Continuous
 62
     7
370
    15
100
AcDbLine
 10
1807.925226071164
 20
715.3223015481521
 30
0.0
 11
1807.775230982587
 21
715.3223015481521
 31
0.0
  0
LINE
  5
B04
330
A66
100
AcDbEntity
  8
0
  6
Continuous
 62
     7
370
    15
100
AcDbLine
 10
1807.775230982587
 20
730.0723053628494
 30
0.0
 11
1807.925226071164
 21
730.0723053628494
 31
0.0
  0
LINE
  5
B05
330
A66
100
AcDbEntity
  8
0
  6
Continuous
 62
     7
370
    15
100
AcDbLine
 10
1756.925227024838
 20
730.0723053628494
 30
0.0
 11
1756.925227024838
 21
715.3223015481521
 31
0.0
  0
LINE
  5
B06
330
A66
100
AcDbEntity
  8
0
  6
Continuous
 62
     7
370
    15
100
AcDbLine
 10
1757.075222113416
 20
715.3223015481521
 30
0.0
 11
1756.925227024838
 21
715.3223015481521
 31
0.0
  0
LINE
  5
B07
330
A66
100
AcDbEntity
  8
0
  6
Continuous
 62
     7
370
    15
100
AcDbLine
 10
1756.925227024838
 20
730.0723053628494
 30
0.0
 11
1757.075222113416
 21
730.0723053628494
 31
0.0
  0
ENDBLK
  5
A68
330
A66
100
AcDbEntity
  8
0
100
AcDbBlockEnd
  0
BLOCK
  5
B0A
330
B09
100
AcDbEntity
  8
0
100
AcDbBlockBegin
  2
4
 70
     0
 10
0.0
 20
0.0
 30
0.0
  3
4
  1

  0
LINE
  5
B0C
330
B09
100
AcDbEntity
  8
0
  6
Continuous
 62
     7
370
    15
100
AcDbLine
 10
1852.989666459359
 20
790.9030908600738
 30
0.0
 11
1865.568159722531
 21
786.3635223369424
 31
0.0
  0
LINE
  5
B0D
330
B09
100
AcDbEntity
  8
0
  6
Continuous
 62
     7
370
    15
100
AcDbLine
 10
1862.83331987803
 20
776.3552272932181
 30
0.0
 11
1850.254826614858
 21
780.8947958163495
 31
0.0
  0
LINE
  5
B0E
330
B09
100
AcDbEntity
  8
0
  6
Continuous
 62
     7
370
    15
100
AcDbLine
 10
1852.96167694584
 20
788.0472322801592
 30
0.0
 11
1865.540170209012
 21
783.507663757028
 31
0.0
  0
LINE
  5
B0F
330
B09
100
AcDbEntity
  8
0
  6
Continuous
 62
     7
370
    15
100
AcDbLine
 10
1864.682135545037
 20
779.2536372669108
 30
0.0
 11
1852.103642281866
 21
783.7932057900421
 31
0.0
  0
LINE
  5
B10
330
B09
100
AcDbEntity
  8
0
  6
Continuous
 62
     7
370
    15
100
AcDbLine
 10
1868.479783508807
 20
793.7320322646558
 30
0.0
 11
1868.408976505058
 21
795.3771594305894
 31
0.0
  0
LINE
  5
B11
330
B09
100
AcDbEntity
  8
0
  6
Continuous
 62
     7
370
    15
100
AcDbLine
 10
1859.910876655835
 20
795.2818630508986
 30
0.0
 11
1859.87697441612
 21
793.6355718645249
 31
0.0
  0
LINE
  5
B12
330
B09
100
AcDbEntity
  8
0
  6
Continuous
 62
     7
370
    15
100
AcDbLine
 10
1874.016600314983
 20
794.273324077802
 30
0.0
 11
1867.869928276621
 21
796.4916532785698
 31
0.0
  0
LINE
  5
B13
330
B09
100
AcDbEntity
  8
0
  6
Continuous
 62
     7
370
    15
100
AcDbLine
 10
1864.543462749182
 20
797.6921721233715
 30
0.0
 11
1861.438107051811
 21
798.8128926009332
 31
0.0
  0
LINE
  5
B14
330
B09
100
AcDbEntity
  8
0
  6
Continuous
 62
     7
370
    15
100
AcDbLine
 10
1880.128997173871
 20
804.013137864312
 30
0.0
 11
1880.058173947037
 21
805.6582507124332
 31
0.0
  0
LINE
  5
B15
330
B09
100
AcDbEntity
  8
0
  6
Continuous
 62
     7
370
    15
100
AcDbLine
 10
1871.560090320899
 20
805.5629686505545
 30
0.0
 11
1871.526171858098
 21
803.9166631463686
 31
0.0
  0
LINE
  5
B16
330
B09
100
AcDbEntity
  8
0
  6
Continuous
 62
     7
370
    15
100
AcDbLine
 10
1850.51324900821
 20
755.4240574979378
 30
0.0
 11
1862.885600164405
 21
750.9588855023194
 31
0.0
  0
LINE
  5
B17
330
B09
100
AcDbEntity
  8
0
  6
Continuous
 62
     7
370
    15
100
AcDbLine
 10
1863.474827060223
 20
745.802206193613
 30
0.0
 11
1851.649475875386
 21
750.0699663211981
 31
0.0
  0
LINE
  5
B18
330
B09
100
AcDbEntity
  8
0
  6
Continuous
 62
     7
370
    15
100
AcDbLine
 10
1857.077576711827
 20
764.6678572162129
 30
0.0
 11
1855.171794298279
 21
766.4242360774076
 31
0.0
  0
LINE
  5
B19
330
B09
100
AcDbEntity
  8
0
  6
Continuous
 62
     7
370
    15
100
AcDbLine
 10
1850.632798720887
 20
746.3143553516395
 30
0.0
 11
1863.005149877082
 21
741.849183356021
 31
0.0
  0
LINE
  5
B1A
330
B09
100
AcDbEntity
  8
0
  6
Continuous
 62
     7
370
    15
100
AcDbLine
 10
1886.915345952263
 20
805.7903994092127
 30
0.0
 11
1874.336852689091
 21
810.3299679323439
 31
0.0
  0
LINE
  5
B1B
330
B09
100
AcDbEntity
  8
0
  6
Continuous
 62
     7
370
    15
100
AcDbLine
 10
1867.92980036161
 20
751.2943730411075
 30
0.0
 11
1867.369532550533
 21
751.4965732622686
 31
0.0
  0
LINE
  5
B1C
330
B09
100
AcDbEntity
  8
0
  6
Continuous
 62
     7
370
    15
100
AcDbLine
 10
1886.598668224942
 20
801.9553452185746
 30
0.0
 11
1886.707317020751
 21
801.9161339519136
 31
0.0
  0
LINE
  5
B1D
330
B09
100
AcDbEntity
  8
0
  6
Continuous
 62
     7
370
    15
100
AcDbLine
 10
1867.906618446505
 20
747.9966259503851
 30
0.0
 11
1867.26792476608
 21
748.2271300073429
 31
0.0
  0
LINE
  5
B1E
330
B09
100
AcDbEntity
  8
0
  6
Continuous
 62
     7
370
    15
100
AcDbLine
 10
1868.047239399465
 20
749.7271945119473
 30
0.0
 11
1869.629955812261
 21
749.1559933785327
 31
0.0
  0
LINE
  5
B1F
330
B09
100
AcDbEntity
  8
0
  6
Continuous
 62
     7
370
    15
100
AcDbLine
 10
1888.489879824278
 20
800.4997376639426
 30
0.0
 11
1887.134410320499
 21
800.9889255630563
 31
0.0
  0
LINE
  5
B20
330
B09
100
AcDbEntity
  8
0
  6
Continuous
 62
     7
370
    15
100
AcDbLine
 10
1871.318885766481
 20
751.1863245737179
 30
0.0
 11
1870.376181693639
 21
751.5265457469667
 31
0.0
  0
LINE
  5
B21
330
B09
100
AcDbEntity
  8
0
  6
Continuous
 62
     7
370
    15
100
AcDbLine
 10
1890.109209748968
 20
800.4277794972102
 30
0.0
 11
1886.480364967202
 21
801.7374267818233
 31
0.0
  0
LINE
  5
B22
330
B09
100
AcDbEntity
  8
0
  6
Continuous
 62
     7
370
    15
100
AcDbLine
 10
1875.781042608448
 20
762.0784658164336
 30
0.0
 11
1882.022608136345
 21
759.8258896284366
 31
0.0
  0
LINE
  5
B23
330
B09
100
AcDbEntity
  8
0
  6
Continuous
 62
     7
370
    15
100
AcDbLine
 10
1883.795904878803
 20
765.3095638414586
 30
0.0
 11
1885.315213141913
 21
764.7612466603905
 31
0.0
  0
LINE
  5
B24
330
B09
100
AcDbEntity
  8
0
  6
Continuous
 62
     7
370
    15
100
AcDbLine
 10
1883.617111033017
 20
763.377995857868
 30
0.0
 11
1885.995185377797
 21
762.5197506598651
 31
0.0
  0
LINE
  5
B25
330
B09
100
AcDbEntity
  8
0
  6
Continuous
 62
     7
370
    15
100
AcDbLine
 10
1888.655725583151
 20
767.6335000793192
 30
0.0
 11
1889.399224573081
 21
767.3651718669455
 31
0.0
  0
LINE
  5
B26
330
B09
100
AcDbEntity
  8
0
  6
Continuous
 62
     7
370
    15
100
AcDbLine
 10
1890.431381716218
 20
769.5929265795171
 30
0.0
 11
1889.010535447815
 21
770.1057089025903
 31
0.0
  0
LINE
  5
B27
330
B09
100
AcDbEntity
  8
0
  6
Continuous
 62
     7
370
    15
100
AcDbLine
 10
1867.797826049761
 20
788.2467780692064
 30
0.0
 11
1867.797854880787
 21
788.2558955988072
 31
0.0
  0
LINE
  5
B28
330
B09
100
AcDbEntity
  8
0
  6
Continuous
 62
     7
370
    15
100
AcDbLine
 10
1867.816579936597
 20
788.2633294602708
 30
0.0
 11
1867.797826049761
 21
788.2467780692064
 31
0.0
  0
ARC
  5
B29
330
B09
100
AcDbEntity
  8
0
  6
Continuous
 62
     7
370
    15
100
AcDbCircle
 10
1868.123805781075
 20
787.4621622447123
 30
0.0
 40
0.8580539766244433
100
AcDbArc
 50
110.9804607393646
 51
112.3257701566936
  0
LWPOLYLINE
  5
B2A
330
B09
100
AcDbEntity
  8
0
  6
Continuous
 62
     7
370
    15
100
AcDbPolyline
 90
        9
 70
   128
 43
0.0
 10
1874.262469007323
 20
793.7210824893473
 10
1874.247751325699
 20
793.9027183954391
 10
1874.208506572035
 20
794.0552011963103
 10
1874.146225652336
 20
794.1726869959329
 10
1874.063318136762
 20
794.2506877021825
 10
1873.962947277996
 20
794.2861731617147
 10
1873.848994814284
 20
794.2777878373405
 10
1873.725815422535
 20
794.2258322912412
 10
1873.598170175509
 20
794.1323531015195
  0
LINE
  5
B2B
330
B09
100
AcDbEntity
  8
0
  6
Continuous
 62
     7
370
    15
100
AcDbLine
 10
1874.341847740621
 20
786.6421343093937
 30
0.0
 11
1874.262469007323
 21
793.7210824893473
 31
0.0
  0
LWPOLYLINE
  5
B2C
330
B09
100
AcDbEntity
  8
0
  6
Continuous
 62
     7
370
    15
100
AcDbPolyline
 90
        9
 70
   128
 43
0.0
 10
1874.452566916438
 20
786.573591593667
 10
1874.431295412448
 20
786.5580141150156
 10
1874.410765467977
 20
786.5493589458824
 10
1874.391776140386
 20
786.547959689572
 10
1874.375047572232
 20
786.5538821099273
 10
1874.361221541427
 20
786.5668750687295
 10
1874.350844137838
 20
786.5864543330854
 10
1874.344300595866
 20
786.6118698354784
 10
1874.341847740621
 20
786.6421343093937
  0
LINE
  5
B2D
330
B09
100
AcDbEntity
  8
0
  6
Continuous
 62
     7
370
    15
100
AcDbLine
 10
1878.317473690064
 20
789.9845956163365
 30
0.0
 11
1874.452566916438
 21
786.573591593667
 31
0.0
  0
ARC
  5
B2E
330
B09
100
AcDbEntity
  8
0
  6
Continuous
 62
     7
370
    15
100
AcDbCircle
 10
1878.046465275178
 20
790.2481738070711
 30
0.0
 40
0.3780463246347876
100
AcDbArc
 50
315.7963032920898
 51
359.5662687599203
  0
LINE
  5
B2F
330
B09
100
AcDbEntity
  8
0
  6
Continuous
 62
     7
370
    15
100
AcDbLine
 10
1878.345122034503
 20
797.3242601892358
 30
0.0
 11
1878.424500767802
 21
790.2453120092821
 31
0.0
  0
ARC
  5
B30
330
B09
100
AcDbEntity
  8
0
  6
Continuous
 62
     7
370
    15
100
AcDbCircle
 10
1880.61336733914
 20
797.3070761229079
 30
0.0
 40
2.268310396339992
100
AcDbArc
 50
135.7966325293117
 51
179.5659395226611
  0
LINE
  5
B31
330
B09
100
AcDbEntity
  8
0
  6
Continuous
 62
     7
370
    15
100
AcDbLine
 10
1886.740994653121
 20
805.7316567298242
 30
0.0
 11
1878.987284500931
 21
798.8885585469096
 31
0.0
  0
LWPOLYLINE
  5
B32
330
B09
100
AcDbEntity
  8
0
  6
Continuous
 62
     7
370
    15
100
AcDbPolyline
 90
        9
 70
   128
 43
0.0
 10
1886.979023715476
 20
805.7339014673701
 10
1886.958745756746
 20
805.7612176766381
 10
1886.934817073187
 20
805.7809764471921
 10
1886.907650944124
 20
805.7928488479399
 10
1886.877708492902
 20
805.7966224951272
 10
1886.845514634898
 20
805.7922404014485
 10
1886.811608858104
 20
805.7798070852111
 10
1886.776562821606
 20
805.7594802316467
 10
1886.740994653121
 20
805.7316567298242
  0
LINE
  5
B33
330
B09
100
AcDbEntity
  8
0
  6
Continuous
 62
     7
370
    15
100
AcDbLine
 10
1887.060701288197
 20
805.5961007138764
 30
0.0
 11
1886.979023715476
 21
805.7339014673701
 31
0.0
  0
ARC
  5
B34
330
B09
100
AcDbEntity
  8
0
  6
Continuous
 62
     7
370
    15
100
AcDbCircle
 10
1886.718544874782
 20
805.476463745064
 30
0.0
 40
0.3624693304923082
100
AcDbArc
 50
296.0900975646116
 51
19.27247448733312
  0
LINE
  5
B35
330
B09
100
AcDbEntity
  8
0
  6
Continuous
 62
     7
370
    15
100
AcDbLine
 10
1886.781742100347
 20
805.150025861967
 30
0.0
 11
1886.877953071269
 21
805.1509287355179
 31
0.0
  0
LINE
  5
B36
330
B09
100
AcDbEntity
  8
0
  6
Continuous
 62
     7
370
    15
100
AcDbLine
 10
1886.547573240219
 20
804.7348596906505
 30
0.0
 11
1886.781742100347
 21
805.150025861967
 31
0.0
  0
ARC
  5
B37
330
B09
100
AcDbEntity
  8
0
  6
Continuous
 62
     7
370
    15
100
AcDbCircle
 10
1886.778464329332
 20
804.5959250202377
 30
0.0
 40
0.2694689920458466
100
AcDbArc
 50
148.96331066797
 51
187.1440391762051
  0
LINE
  5
B38
330
B09
100
AcDbEntity
  8
0
  6
Continuous
 62
     7
370
    15
100
AcDbLine
 10
1886.615532943676
 20
804.0948714240776
 30
0.0
 11
1886.511087321775
 21
804.5624127313844
 31
0.0
  0
ARC
  5
B39
330
B09
100
AcDbEntity
  8
0
  6
Continuous
 62
     7
370
    15
100
AcDbCircle
 10
1890.408595229442
 20
804.8768009617065
 30
0.0
 40
3.872820071409452
100
AcDbArc
 50
191.648196128751
 51
209.5659396837021
  0
LINE
  5
B3A
330
B09
100
AcDbEntity
  8
0
  6
Continuous
 62
     7
370
    15
100
AcDbLine
 10
1887.145902952678
 20
802.7872968064979
 30
0.0
 11
1887.040061229557
 21
802.9658551233502
 31
0.0
  0
ARC
  5
B3B
330
B09
100
AcDbEntity
  8
0
  6
Continuous
 62
     7
370
    15
100
AcDbCircle
 10
1886.858577222669
 20
802.6966016427579
 30
0.0
 40
0.3012999964341773
100
AcDbArc
 50
327.4658953241379
 51
17.51844601816424
  0
LINE
  5
B3C
330
B09
100
AcDbEntity
  8
0
  6
Continuous
 62
     7
370
    15
100
AcDbLine
 10
1886.835255901177
 20
802.0170319970207
 30
0.0
 11
1887.11259465502
 21
802.5345620429288
 31
0.0
  0
LWPOLYLINE
  5
B3D
330
B09
100
AcDbEntity
  8
0
  6
Continuous
 62
     7
370
    15
100
AcDbPolyline
 90
        9
 70
   128
 43
0.0
 10
1886.681832826967
 20
801.9387314869209
 10
1886.694967048257
 20
801.9231460403753
 10
1886.711345041847
 20
801.9148827437359
 10
1886.730323379359
 20
801.9143399230211
 10
1886.751115925578
 20
801.9214926683389
 10
1886.772890076662
 20
801.9360768659604
 10
1886.794768135525
 20
801.9574665418188
 10
1886.815841884457
 20
801.9848353671237
 10
1886.835255901177
 20
802.0170319970207
  0
LINE
  5
B3E
330
B09
100
AcDbEntity
  8
0
  6
Continuous
 62
     7
370
    15
100
AcDbLine
 10
1886.671078172761
 20
801.9568877465802
 30
0.0
 11
1886.681832826967
 21
801.9387314869209
 31
0.0
  0
LWPOLYLINE
  5
B3F
330
B09
100
AcDbEntity
  8
0
  6
Continuous
 62
     7
370
    15
100
AcDbPolyline
 90
        9
 70
   128
 43
0.0
 10
1886.559021267963
 20
801.9036496548446
 10
1886.573493865045
 20
801.92650560724
 10
1886.589022632717
 20
801.9457600360993
 10
1886.605009792519
 20
801.9606624006661
 10
1886.620855090288
 20
801.9706829418838
 10
1886.635924725377
 20
801.9753613902713
 10
1886.649662986707
 20
801.9745789097086
 10
1886.661529285975
 20
801.9683291070894
 10
1886.671078172761
 20
801.9568877465802
  0
LINE
  5
B40
330
B09
100
AcDbEntity
  8
0
  6
Continuous
 62
     7
370
    15
100
AcDbLine
 10
1886.513109568453
 20
801.82225270217
 30
0.0
 11
1886.559021267963
 21
801.9036496548446
 31
0.0
  0
ARC
  5
B41
330
B09
100
AcDbEntity
  8
0
  6
Continuous
 62
     7
370
    15
100
AcDbCircle
 10
1886.662660217335
 20
801.7061302989329
 30
0.0
 40
0.1893404582084839
100
AcDbArc
 50
142.1715393746321
 51
209.1972038483558
  0
ARC
  5
B42
330
B09
100
AcDbEntity
  8
0
  6
Continuous
 62
     7
370
    15
100
AcDbCircle
 10
1884.193295384189
 20
798.7025199787965
 30
0.0
 40
3.712700718228207
100
AcDbArc
 50
9.677675947079983
 51
51.64045445887198
  0
LWPOLYLINE
  5
B43
330
B09
100
AcDbEntity
  8
0
  6
Continuous
 62
     7
370
    15
100
AcDbPolyline
 90
        9
 70
   128
 43
0.0
 10
1887.973299142143
 20
799.3590451659964
 10
1887.956454680164
 20
799.3329315240871
 10
1887.938342040648
 20
799.3117930638658
 10
1887.919866415447
 20
799.2967259584239
 10
1887.901953620746
 20
799.2884481978647
 10
1887.885564669684
 20
799.287461094916
 10
1887.871502470713
 20
799.2937548146821
 10
1887.860523738734
 20
799.3070557871306
 10
1887.853160816232
 20
799.3266446798565
  0
LINE
  5
B44
330
B09
100
AcDbEntity
  8
0
  6
Continuous
 62
     7
370
    15
100
AcDbLine
 10
1888.019194618568
 20
799.4404278008589
 30
0.0
 11
1887.973299142143
 21
799.3590451659964
 31
0.0
  0
ARC
  5
B45
330
B09
100
AcDbEntity
  8
0
  6
Continuous
 62
     7
370
    15
100
AcDbCircle
 10
1887.828109976687
 20
799.5673839605016
 30
0.0
 40
0.2294149228670776
100
AcDbArc
 50
326.4000359641017
 51
17.2665823116056
  0
LINE
  5
B46
330
B09
100
AcDbEntity
  8
0
  6
Continuous
 62
     7
370
    15
100
AcDbLine
 10
1888.036364633038
 20
799.6537491375353
 30
0.0
 11
1888.047186105132
 21
799.635478430025
 31
0.0
  0
ARC
  5
B47
330
B09
100
AcDbEntity
  8
0
  6
Continuous
 62
     7
370
    15
100
AcDbCircle
 10
1888.332978037857
 20
799.7445364810015
 30
0.0
 40
0.3101964758852332
100
AcDbArc
 50
145.3436366822265
 51
197.0182863772971
  0
LINE
  5
B48
330
B09
100
AcDbEntity
  8
0
  6
Continuous
 62
     7
370
    15
100
AcDbLine
 10
1888.370085450321
 20
800.4132864205933
 30
0.0
 11
1888.077817437164
 21
799.9209307028621
 31
0.0
  0
LWPOLYLINE
  5
B49
330
B09
100
AcDbEntity
  8
0
  6
Continuous
 62
     7
370
    15
100
AcDbPolyline
 90
        9
 70
   128
 43
0.0
 10
1888.515364018063
 20
800.4771401289355
 10
1888.503023634171
 20
800.492063608973
 10
1888.487758438128
 20
800.5004419213515
 10
1888.470096371167
 20
800.5019482344657
 10
1888.450692958582
 20
800.496566509609
 10
1888.430234796448
 20
800.4844320001996
 10
1888.409486570409
 20
800.4660213930176
 10
1888.389194267318
 20
800.4420178387304
 10
1888.370085450321
 20
800.4132864205933
  0
LINE
  5
B4A
330
B09
100
AcDbEntity
  8
0
  6
Continuous
 62
     7
370
    15
100
AcDbLine
 10
1888.61962026049
 20
800.3011711592119
 30
0.0
 11
1888.515364018063
 21
800.4771401289355
 31
0.0
  0
ARC
  5
B4B
330
B09
100
AcDbEntity
  8
0
  6
Continuous
 62
     7
370
    15
100
AcDbCircle
 10
1890.386471145624
 20
801.2964281208157
 30
0.0
 40
2.027880289839155
100
AcDbArc
 50
209.3923114857866
 51
237.0255598027195
  0
LINE
  5
B4C
330
B09
100
AcDbEntity
  8
0
  6
Continuous
 62
     7
370
    15
100
AcDbLine
 10
1889.557874616618
 20
799.4248531023888
 30
0.0
 11
1889.282767188688
 21
799.5952120718197
 31
0.0
  0
LWPOLYLINE
  5
B4D
330
B09
100
AcDbEntity
  8
0
  6
Continuous
 62
     7
370
    15
100
AcDbPolyline
 90
        9
 70
   128
 43
0.0
 10
1889.656665871495
 20
799.4922476214586
 10
1889.644692723371
 20
799.4729601514762
 10
1889.63192243039
 20
799.4560906881145
 10
1889.618694026878
 20
799.4420870932327
 10
1889.605347647475
 20
799.43129910349
 10
1889.592256423148
 20
799.4240560285701
 10
1889.579762689159
 20
799.420511354732
 10
1889.568209055853
 20
799.4207940369351
 10
1889.557874616618
 20
799.4248531023888
  0
LINE
  5
B4E
330
B09
100
AcDbEntity
  8
0
  6
Continuous
 62
     7
370
    15
100
AcDbLine
 10
1889.890127792813
 20
799.9061705265317
 30
0.0
 11
1889.656665871495
 21
799.4922476214586
 31
0.0
  0
LINE
  5
B4F
330
B09
100
AcDbEntity
  8
0
  6
Continuous
 62
     7
370
    15
100
AcDbLine
 10
1889.888262488308
 20
800.0725172718682
 30
0.0
 11
1889.890127792813
 21
799.9061705265317
 31
0.0
  0
LWPOLYLINE
  5
B50
330
B09
100
AcDbEntity
  8
0
  6
Continuous
 62
     7
370
    15
100
AcDbPolyline
 90
        9
 70
   128
 43
0.0
 10
1890.141048493035
 20
800.399542791939
 10
1890.112336422785
 20
800.4265503422539
 10
1890.07430192675
 20
800.4287316835345
 10
1890.030945524741
 20
800.4058270730903
 10
1889.986892453114
 20
800.3603082351258
 10
1889.946823481391
 20
800.296999893807
 10
1889.914972271688
 20
800.2226113897799
 10
1889.894740150833
 20
800.1450250831737
 10
1889.888262488308
 20
800.0725172718682
  0
LINE
  5
B51
330
B09
100
AcDbEntity
  8
0
  6
Continuous
 62
     7
370
    15
100
AcDbLine
 10
1890.148429531562
 20
800.3871048204889
 30
0.0
 11
1890.141048493035
 21
800.399542791939
 31
0.0
  0
ARC
  5
B52
330
B09
100
AcDbEntity
  8
0
  6
Continuous
 62
     7
370
    15
100
AcDbCircle
 10
1889.832146105222
 20
800.2253251341187
 30
0.0
 40
0.3552574738118462
100
AcDbArc
 50
358.0922022917297
 51
27.08984651779444
  0
LINE
  5
B53
330
B09
100
AcDbEntity
  8
0
  6
Continuous
 62
     7
370
    15
100
AcDbLine
 10
1890.4558305873
 20
776.2577760735247
 30
0.0
 11
1890.18720665783
 21
800.2134981868827
 31
0.0
  0
LINE
  5
B54
330
B09
100
AcDbEntity
  8
0
  6
Continuous
 62
     7
370
    15
100
AcDbLine
 10
1862.856955307181
 20
751.900170543668
 30
0.0
 11
1890.4558305873
 21
776.2577760735247
 31
0.0
  0
LINE
  5
B55
330
B09
100
AcDbEntity
  8
0
  6
Continuous
 62
     7
370
    15
100
AcDbLine
 10
1862.588331377711
 20
775.855892657026
 30
0.0
 11
1862.856955307181
 21
751.900170543668
 31
0.0
  0
ARC
  5
B56
330
B09
100
AcDbEntity
  8
0
  6
Continuous
 62
     7
370
    15
100
AcDbCircle
 10
1863.459000928903
 20
775.8523501057816
 30
0.0
 40
0.8706767580694554
100
AcDbArc
 50
163.8951612419083
 51
179.766878128808
  0
LINE
  5
B57
330
B09
100
AcDbEntity
  8
0
  6
Continuous
 62
     7
370
    15
100
AcDbLine
 10
1862.629437189811
 20
776.1189527746559
 30
0.0
 11
1862.622493243842
 21
776.09387217491
 31
0.0
  0
LWPOLYLINE
  5
B58
330
B09
100
AcDbEntity
  8
0
  6
Continuous
 62
     7
370
    15
100
AcDbPolyline
 90
        9
 70
   128
 43
0.0
 10
1862.884531099685
 20
776.2401606876815
 10
1862.876586439202
 20
776.2999399638172
 10
1862.855011668728
 20
776.3406292680246
 10
1862.822148990379
 20
776.3579040186301
 10
1862.781443219408
 20
776.3499239723111
 10
1862.737242705926
 20
776.3175539111496
 10
1862.694243623829
 20
776.2642448065112
 10
1862.656986780067
 20
776.1956144981636
 10
1862.629437189811
 20
776.1189527746559
  0
LINE
  5
B59
330
B09
100
AcDbEntity
  8
0
  6
Continuous
 62
     7
370
    15
100
AcDbLine
 10
1862.88639640419
 20
776.0738139423449
 30
0.0
 11
1862.884531099685
 21
776.2401606876815
 31
0.0
  0
LINE
  5
B5A
330
B09
100
AcDbEntity
  8
0
  6
Continuous
 62
     7
370
    15
100
AcDbLine
 10
1863.124490909043
 20
776.07606688854
 30
0.0
 11
1862.88639640419
 21
776.0738139423449
 31
0.0
  0
ARC
  5
B5B
330
B09
100
AcDbEntity
  8
0
  6
Continuous
 62
     7
370
    15
100
AcDbCircle
 10
1863.075994791173
 20
776.2194566357564
 30
0.0
 40
0.151368732092419
100
AcDbArc
 50
288.6861483645864
 51
345.935784818358
  0
LINE
  5
B5C
330
B09
100
AcDbEntity
  8
0
  6
Continuous
 62
     7
370
    15
100
AcDbLine
 10
1863.488758839482
 20
776.8305061181547
 30
0.0
 11
1863.222826090975
 21
776.1826726385061
 31
0.0
  0
ARC
  5
B5D
330
B09
100
AcDbEntity
  8
0
  6
Continuous
 62
     7
370
    15
100
AcDbCircle
 10
1848.240193562936
 20
783.0911049263797
 30
0.0
 40
16.48374473324006
100
AcDbArc
 50
337.6784326146743
 51
344.4843951338857
  0
LINE
  5
B5E
330
B09
100
AcDbEntity
  8
0
  6
Continuous
 62
     7
370
    15
100
AcDbLine
 10
1864.221553054117
 20
779.0364452357291
 30
0.0
 11
1864.123231627931
 21
778.6816897433238
 31
0.0
  0
ARC
  5
B5F
330
B09
100
AcDbEntity
  8
0
  6
Continuous
 62
     7
370
    15
100
AcDbCircle
 10
1864.46909172814
 20
779.0000547148281
 30
0.0
 40
0.2501992508948208
100
AcDbArc
 50
114.4873412571753
 51
171.6368836820497
  0
LINE
  5
B60
330
B09
100
AcDbEntity
  8
0
  6
Continuous
 62
     7
370
    15
100
AcDbLine
 10
1864.662875906989
 20
779.2558889753286
 30
0.0
 11
1864.365386093036
 21
779.2277492610867
 31
0.0
  0
LWPOLYLINE
  5
B61
330
B09
100
AcDbEntity
  8
0
  6
Continuous
 62
     7
370
    15
100
AcDbPolyline
 90
        9
 70
   128
 43
0.0
 10
1864.709449564776
 20
779.0663958597551
 10
1864.71809798286
 20
779.1045750206978
 10
1864.722553411257
 20
779.1411841956696
 10
1864.722587082822
 20
779.1747084585854
 10
1864.718246573019
 20
779.2038272235695
 10
1864.709676795829
 20
779.2273058116202
 10
1864.697232189951
 20
779.2442183317964
 10
1864.681411826464
 20
779.253890409968
 10
1864.662875906989
 20
779.2558889753286
  0
LINE
  5
B62
330
B09
100
AcDbEntity
  8
0
  6
Continuous
 62
     7
370
    15
100
AcDbLine
 10
1864.699229694979
 20
779.0295549496408
 30
0.0
 11
1864.709449564776
 21
779.0663958597551
 31
0.0
  0
LWPOLYLINE
  5
B63
330
B09
100
AcDbEntity
  8
0
  6
Continuous
 62
     7
370
    15
100
AcDbPolyline
 90
        9
 70
   128
 43
0.0
 10
1864.731004055389
 20
778.8872511411329
 10
1864.717834970921
 20
778.8898737531399
 10
1864.706702555072
 20
778.897886083627
 10
1864.698019812092
 20
778.9109837328027
 10
1864.692120281264
 20
778.9286435240135
 10
1864.689256661528
 20
778.9502461602444
 10
1864.689504573271
 20
778.9748921920447
 10
1864.692874194381
 20
779.0016739613138
 10
1864.699229694979
 20
779.0295549496408
  0
LINE
  5
B64
330
B09
100
AcDbEntity
  8
0
  6
Continuous
 62
     7
370
    15
100
AcDbLine
 10
1864.777823512586
 20
778.88769480379
 30
0.0
 11
1864.731004055389
 21
778.8872511411329
 31
0.0
  0
ARC
  5
B65
330
B09
100
AcDbEntity
  8
0
  6
Continuous
 62
     7
370
    15
100
AcDbCircle
 10
1864.693825214787
 20
779.0720557149182
 30
0.0
 40
0.2025948162838629
100
AcDbArc
 50
294.4949020048856
 51
358.2614779795838
  0
ARC
  5
B66
330
B09
100
AcDbEntity
  8
0
  6
Continuous
 62
     7
370
    15
100
AcDbCircle
 10
1885.720496673008
 20
775.7766783859379
 30
0.0
 40
21.08234076706466
100
AcDbArc
 50
157.9894191240488
 51
171.0241409623191
  0
LWPOLYLINE
  5
B67
330
B09
100
AcDbEntity
  8
0
  6
Continuous
 62
     7
370
    15
100
AcDbPolyline
 90
        9
 70
   128
 43
0.0
 10
1866.154678461536
 20
783.8547584084351
 10
1866.169725310795
 20
783.8512413031343
 10
1866.181968611687
 20
783.8405923784606
 10
1866.190780058604
 20
783.8233224034459
 10
1866.195723272186
 20
783.8003592738689
 10
1866.196507330684
 20
783.7728088084206
 10
1866.193131677421
 20
783.7421817342135
 10
1866.185759637042
 20
783.7099847686838
 10
1866.174749486296
 20
783.6778719117153
  0
LINE
  5
B68
330
B09
100
AcDbEntity
  8
0
  6
Continuous
 62
     7
370
    15
100
AcDbLine
 10
1866.10785900434
 20
783.854314745778
 30
0.0
 11
1866.154678461536
 21
783.8547584084351
 31
0.0
  0
ARC
  5
B69
330
B09
100
AcDbEntity
  8
0
  6
Continuous
 62
     7
370
    15
100
AcDbCircle
 10
1866.17562380943
 20
783.6872077060633
 30
0.0
 40
0.1803242399989687
100
AcDbArc
 50
112.0734082905087
 51
172.5244013910996
  0
LINE
  5
B6A
330
B09
100
AcDbEntity
  8
0
  6
Continuous
 62
     7
370
    15
100
AcDbLine
 10
1865.986675357453
 20
783.67405668027
 30
0.0
 11
1865.996832260454
 21
783.710668600035
 31
0.0
  0
ARC
  5
B6B
330
B09
100
AcDbEntity
  8
0
  6
Continuous
 62
     7
370
    15
100
AcDbCircle
 10
1865.757256915917
 20
783.7002678981288
 30
0.0
 40
0.230910911951413
100
AcDbArc
 50
289.5483966652692
 51
353.4821784827432
  0
LINE
  5
B6C
330
B09
100
AcDbEntity
  8
0
  6
Continuous
 62
     7
370
    15
100
AcDbLine
 10
1865.551124419911
 20
783.5053160573558
 30
0.0
 11
1865.834520393222
 21
783.4826668771454
 31
0.0
  0
LWPOLYLINE
  5
B6D
330
B09
100
AcDbEntity
  8
0
  6
Continuous
 62
     7
370
    15
100
AcDbPolyline
 90
        9
 70
   128
 43
0.0
 10
1865.512856464352
 20
783.6948806328837
 10
1865.504562196845
 20
783.6587234413253
 10
1865.500037193257
 20
783.6239356917167
 10
1865.499415357922
 20
783.5917256215695
 10
1865.502764602519
 20
783.5633423223454
 10
1865.509926815842
 20
783.5397363109339
 10
1865.520646273096
 20
783.5217967286496
 10
1865.534555063275
 20
783.5101898356218
 10
1865.551124419911
 20
783.5053160573558
  0
LINE
  5
B6E
330
B09
100
AcDbEntity
  8
0
  6
Continuous
 62
     7
370
    15
100
AcDbLine
 10
1865.612658573003
 20
784.0549315389496
 30
0.0
 11
1865.512856464352
 21
783.6948806328837
 31
0.0
  0
ARC
  5
B6F
330
B09
100
AcDbEntity
  8
0
  6
Continuous
 62
     7
370
    15
100
AcDbCircle
 10
1851.318985506758
 20
788.0446047238348
 30
0.0
 40
14.84003308105833
100
AcDbArc
 50
344.404432812737
 51
351.7057155813591
  0
LINE
  5
B70
330
B09
100
AcDbEntity
  8
0
  6
Continuous
 62
     7
370
    15
100
AcDbLine
 10
1866.095810523273
 20
786.5447488232124
 30
0.0
 11
1866.003794579793
 21
785.9038188084759
 31
0.0
  0
LWPOLYLINE
  5
B71
330
B09
100
AcDbEntity
  8
0
  6
Continuous
 62
     7
370
    15
100
AcDbPolyline
 90
        9
 70
   128
 43
0.0
 10
1866.056210170732
 20
786.650045242607
 10
1866.067305713073
 20
786.648243435346
 10
1866.077067124354
 20
786.6426876766476
 10
1866.085198262863
 20
786.6334882153905
 10
1866.091483002006
 20
786.6209250147139
 10
1866.095786880771
 20
786.605300564219
 10
1866.097973512601
 20
786.5870890726077
 10
1866.097972778669
 20
786.5666993633308
 10
1866.095810523273
 20
786.5447488232124
  0
LINE
  5
B72
330
B09
100
AcDbEntity
  8
0
  6
Continuous
 62
     7
370
    15
100
AcDbLine
 10
1865.817427419336
 20
786.6478042307938
 30
0.0
 11
1866.056210170732
 21
786.650045242607
 31
0.0
  0
LINE
  5
B73
330
B09
100
AcDbEntity
  8
0
  6
Continuous
 62
     7
370
    15
100
AcDbLine
 10
1865.723082027997
 20
786.4805300806064
 30
0.0
 11
1865.817427419336
 21
786.6478042307938
 31
0.0
  0
LWPOLYLINE
  5
B74
330
B09
100
AcDbEntity
  8
0
  6
Continuous
 62
     7
370
    15
100
AcDbPolyline
 90
        9
 70
   128
 43
0.0
 10
1865.534013348395
 20
786.5975521179588
 10
1865.519094166806
 20
786.5210129992623
 10
1865.518401825529
 20
786.4527192023495
 10
1865.531986061526
 20
786.3999238780204
 10
1865.558424437147
 20
786.3682092866528
 10
1865.59490978236
 20
786.3609941673623
 10
1865.637551562938
 20
786.3789573944254
 10
1865.681848275491
 20
786.4202814747372
 10
1865.723082027997
 20
786.4805300806064
  0
LINE
  5
B75
330
B09
100
AcDbEntity
  8
0
  6
Continuous
 62
     7
370
    15
100
AcDbLine
 10
1865.611029998016
 20
786.8754097117563
 30
0.0
 11
1865.534013348395
 21
786.5975521179588
 31
0.0
  0
ARC
  5
B76
330
B09
100
AcDbEntity
  8
0
  6
Continuous
 62
     7
370
    15
100
AcDbCircle
 10
1866.473519803152
 20
786.6616798446991
 30
0.0
 40
0.8885770197546511
100
AcDbArc
 50
135.069086953959
 51
166.0821475108421
  0
LINE
  5
B77
330
B09
100
AcDbEntity
  8
0
  6
Continuous
 62
     7
370
    15
100
AcDbLine
 10
1873.598170175509
 20
794.1323531015195
 30
0.0
 11
1865.844443800234
 21
787.2892406007926
 31
0.0
  0
LINE
  5
B78
330
B09
100
AcDbEntity
  8
0
  6
Continuous
 62
     7
370
    15
100
AcDbLine
 10
1853.032536734844
 20
791.4149782348877
 30
0.0
 11
1865.611029998016
 21
786.8754097117563
 31
0.0
  0
ARC
  5
B79
330
B09
100
AcDbEntity
  8
0
  6
Continuous
 62
     7
370
    15
100
AcDbCircle
 10
1853.895026539981
 20
791.2012483678303
 30
0.0
 40
0.8885770197553465
100
AcDbArc
 50
135.0690869539774
 51
166.0821475108421
  0
LINE
  5
B7A
330
B09
100
AcDbEntity
  8
0
  6
Continuous
 62
     7
370
    15
100
AcDbLine
 10
1853.265950537062
 20
791.8288091239239
 30
0.0
 11
1865.844443800234
 21
787.2892406007926
 31
0.0
  0
LINE
  5
B7B
330
B09
100
AcDbEntity
  8
0
  6
Continuous
 62
     7
370
    15
100
AcDbLine
 10
1852.955520085223
 20
791.1371206410903
 30
0.0
 11
1865.534013348395
 21
786.5975521179588
 31
0.0
  0
LINE
  5
B7C
330
B09
100
AcDbEntity
  8
0
  6
Continuous
 62
     7
370
    15
100
AcDbLine
 10
1853.032536734844
 20
791.4149782348877
 30
0.0
 11
1852.955520085223
 21
791.1371206410903
 31
0.0
  0
LWPOLYLINE
  5
B7D
330
B09
100
AcDbEntity
  8
0
  6
Continuous
 62
     7
370
    15
100
AcDbPolyline
 90
        6
 70
   128
 43
0.0
 10
1852.955520085223
 20
791.1371206410903
 10
1852.940600903634
 20
791.0605815223937
 10
1852.939908562357
 20
790.9922877254808
 10
1852.953492798354
 20
790.9394924011516
 10
1852.979931173975
 20
790.9077778097842
 10
1852.989666459359
 20
790.9030908600738
  0
LWPOLYLINE
  5
B7E
330
B09
100
AcDbEntity
  8
0
  6
Continuous
 62
     7
370
    15
100
AcDbPolyline
 90
       30
 70
   128
 43
0.0
 10
1859.87697441612
 20
793.6355718645249
 10
1859.892483896312
 20
793.3979278059498
 10
1859.959020069981
 20
793.1319432790266
 10
1860.076788673495
 20
792.872140233693
 10
1860.244345227569
 20
792.6216422611798
 10
1860.459678127244
 20
792.3835153826867
 10
1860.720131379405
 20
792.1606143789526
 10
1861.022584384035
 20
791.9556792890301
 10
1861.363349673439
 20
791.7711907617167
 10
1861.738296576361
 20
791.6093859434065
 10
1862.142856269237
 20
791.4722163096728
 10
1862.572145440308
 20
791.3613635531199
 10
1863.020922671619
 20
791.2781544615284
 10
1863.483760772386
 20
791.2236197591453
 10
1863.955038132798
 20
791.1984165362436
 10
1864.429027416326
 20
791.2028365855596
 10
1864.899997949492
 20
791.2368501407497
 10
1865.362207075671
 20
791.3000283059504
 10
1865.810037516658
 20
791.3915943456534
 10
1866.238077289781
 20
791.5104553608132
 10
1866.641118509585
 20
791.6551623758968
 10
1867.014282250259
 20
791.8239661396867
 10
1867.353008572122
 20
792.0148005520031
 10
1867.653220079789
 20
792.2253648446671
 10
1867.911248254636
 20
792.4530896499248
 10
1868.123978264245
 20
792.6952259478071
 10
1868.288832739327
 20
792.9488307483168
 10
1868.403772972033
 20
793.2108070043814
 10
1868.467437475836
 20
793.4779948146768
 10
1868.479783508807
 20
793.7320322646558
  0
LINE
  5
B7F
330
B09
100
AcDbEntity
  8
0
  6
Continuous
 62
     7
370
    15
100
AcDbLine
 10
1861.019676912337
 20
798.6719216246509
 30
0.0
 11
1853.265950537062
 21
791.8288091239239
 31
0.0
  0
LINE
  5
B80
330
B09
100
AcDbEntity
  8
0
  6
Continuous
 62
     7
370
    15
100
AcDbLine
 10
1853.034165309832
 20
788.5945000620808
 30
0.0
 11
1865.612658573003
 21
784.0549315389496
 31
0.0
  0
ARC
  5
B81
330
B09
100
AcDbEntity
  8
0
  6
Continuous
 62
     7
370
    15
100
AcDbCircle
 10
1838.740492243562
 20
792.5841732469712
 30
0.0
 40
14.84003308108265
100
AcDbArc
 50
344.404432812737
 51
351.7057155813526
  0
LINE
  5
B82
330
B09
100
AcDbEntity
  8
0
  6
Continuous
 62
     7
370
    15
100
AcDbLine
 10
1853.425301316621
 20
790.4433873316072
 30
0.0
 11
1866.003794579793
 21
785.9038188084759
 31
0.0
  0
LINE
  5
B83
330
B09
100
AcDbEntity
  8
0
  6
Continuous
 62
     7
370
    15
100
AcDbLine
 10
1853.466590973356
 20
790.7309626158878
 30
0.0
 11
1853.425301316621
 21
790.4433873316072
 31
0.0
  0
ARC
  5
B84
330
B09
100
AcDbEntity
  8
0
  6
Continuous
 62
     7
370
    15
100
AcDbCircle
 10
1873.112424779492
 20
780.3176282052098
 30
0.0
 40
21.05340689325135
100
AcDbArc
 50
158.9850529765354
 51
170.7273805399316
  0
LINE
  5
B85
330
B09
100
AcDbEntity
  8
0
  6
Continuous
 62
     7
370
    15
100
AcDbLine
 10
1850.050943926639
 20
780.6585212977872
 30
0.0
 11
1862.629437189811
 21
776.1189527746559
 31
0.0
  0
LWPOLYLINE
  5
B86
330
B09
100
AcDbEntity
  8
0
  6
Continuous
 62
     7
370
    15
100
AcDbPolyline
 90
        7
 70
   128
 43
0.0
 10
1850.254826614858
 20
780.8947958163495
 10
1850.243655727208
 20
780.8974725417615
 10
1850.202949956235
 20
780.8894924954424
 10
1850.158749442754
 20
780.8571224342808
 10
1850.115750360657
 20
780.8038133296425
 10
1850.078493516895
 20
780.7351830212949
 10
1850.050943926639
 20
780.6585212977872
  0
LINE
  5
B87
330
B09
100
AcDbEntity
  8
0
  6
Continuous
 62
     7
370
    15
100
AcDbLine
 10
1850.009838114539
 20
780.3954611801573
 30
0.0
 11
1862.588331377711
 21
775.855892657026
 31
0.0
  0
ARC
  5
B88
330
B09
100
AcDbEntity
  8
0
  6
Continuous
 62
     7
370
    15
100
AcDbCircle
 10
1850.880507665731
 20
780.3919186289129
 30
0.0
 40
0.8706767580694007
100
AcDbArc
 50
163.8951612419083
 51
179.766878128808
  0
LINE
  5
B89
330
B09
100
AcDbEntity
  8
0
  6
Continuous
 62
     7
370
    15
100
AcDbLine
 10
1850.04399998067
 20
780.6334406980413
 30
0.0
 11
1862.622493243842
 21
776.09387217491
 31
0.0
  0
LINE
  5
B8A
330
B09
100
AcDbEntity
  8
0
  6
Continuous
 62
     7
370
    15
100
AcDbLine
 10
1850.050943926639
 20
780.6585212977872
 30
0.0
 11
1850.04399998067
 21
780.6334406980413
 31
0.0
  0
LINE
  5
B8B
330
B09
100
AcDbEntity
  8
0
  6
Continuous
 62
     7
370
    15
100
AcDbLine
 10
1852.93436320118
 20
788.2344491560149
 30
0.0
 11
1865.512856464352
 21
783.6948806328837
 31
0.0
  0
LINE
  5
B8C
330
B09
100
AcDbEntity
  8
0
  6
Continuous
 62
     7
370
    15
100
AcDbLine
 10
1853.034165309832
 20
788.5945000620808
 30
0.0
 11
1852.93436320118
 21
788.2344491560149
 31
0.0
  0
LINE
  5
B8D
330
B09
100
AcDbEntity
  8
0
  6
Continuous
 62
     7
370
    15
100
AcDbLine
 10
1862.218133775412
 20
768.0522648753501
 30
0.0
 11
1862.362755804372
 21
755.1549584288194
 31
0.0
  0
LINE
  5
B8E
330
B09
100
AcDbEntity
  8
0
  6
Continuous
 62
     7
370
    15
100
AcDbLine
 10
1862.218133775412
 20
768.0522648753501
 30
0.0
 11
1850.558764952836
 21
772.2601220963347
 31
0.0
  0
LINE
  5
B8F
330
B09
100
AcDbEntity
  8
0
  6
Continuous
 62
     7
370
    15
100
AcDbLine
 10
1850.558764952836
 20
772.2601220963347
 30
0.0
 11
1850.703386981797
 21
759.3628156498039
 31
0.0
  0
LINE
  5
B90
330
B09
100
AcDbEntity
  8
0
  6
Continuous
 62
     7
370
    15
100
AcDbLine
 10
1850.703386981797
 20
759.3628156498039
 30
0.0
 11
1862.362755804372
 21
755.1549584288194
 31
0.0
  0
LINE
  5
B91
330
B09
100
AcDbEntity
  8
0
  6
Continuous
 62
     7
370
    15
100
AcDbLine
 10
1856.56771180038
 20
754.1699536775011
 30
0.0
 11
1862.856955307181
 21
751.900170543668
 31
0.0
  0
LINE
  5
B92
330
B09
100
AcDbEntity
  8
0
  6
Continuous
 62
     7
370
    15
100
AcDbLine
 10
1856.568634687361
 20
754.087651165983
 30
0.0
 11
1856.56771180038
 21
754.1699536775011
 31
0.0
  0
LINE
  5
B93
330
B09
100
AcDbEntity
  8
0
  6
Continuous
 62
     7
370
    15
100
AcDbLine
 10
1862.775777576931
 20
751.8474980816251
 30
0.0
 11
1856.568634687361
 21
754.087651165983
 31
0.0
  0
LINE
  5
B94
330
B09
100
AcDbEntity
  8
0
  6
Continuous
 62
     7
370
    15
100
AcDbLine
 10
1862.775777576931
 20
751.8474980816251
 30
0.0
 11
1862.783161773088
 21
751.1889798642807
 31
0.0
  0
LINE
  5
B95
330
B09
100
AcDbEntity
  8
0
  6
Continuous
 62
     7
370
    15
100
AcDbLine
 10
1850.410810616893
 20
755.6541518598991
 30
0.0
 11
1862.783161773088
 21
751.1889798642807
 31
0.0
  0
LINE
  5
B96
330
B09
100
AcDbEntity
  8
0
  6
Continuous
 62
     7
370
    15
100
AcDbLine
 10
1850.410810616893
 20
755.6541518598991
 30
0.0
 11
1850.410285217747
 21
755.7010066429093
 31
0.0
  0
ARC
  5
B97
330
B09
100
AcDbEntity
  8
0
  6
Continuous
 62
     7
370
    15
100
AcDbCircle
 10
1850.169044598303
 20
755.6875854629629
 30
0.0
 40
0.2416136679513489
100
AcDbArc
 50
3.184310646630352
 51
42.62255699440654
  0
ARC
  5
B98
330
B09
100
AcDbEntity
  8
0
  6
Continuous
 62
     7
370
    15
100
AcDbCircle
 10
1850.524503845395
 20
756.0147622038211
 30
0.0
 40
0.2414969796770157
100
AcDbArc
 50
183.1743873931813
 51
222.6324802477838
  0
LINE
  5
B99
330
B09
100
AcDbEntity
  8
0
  6
Continuous
 62
     7
370
    15
100
AcDbLine
 10
1850.009838114539
 20
780.3954611801573
 30
0.0
 11
1850.283377414339
 21
756.001389267003
 31
0.0
  0
LINE
  5
B9A
330
B09
100
AcDbEntity
  8
0
  6
Continuous
 62
     7
370
    15
100
AcDbLine
 10
1850.91026557631
 20
781.3700746412861
 30
0.0
 11
1863.488758839482
 21
776.8305061181547
 31
0.0
  0
ARC
  5
B9B
330
B09
100
AcDbEntity
  8
0
  6
Continuous
 62
     7
370
    15
100
AcDbCircle
 10
1835.661700299795
 20
787.6306734495005
 30
0.0
 40
16.48374473320767
100
AcDbArc
 50
337.6784326146634
 51
344.484395133892
  0
LINE
  5
B9C
330
B09
100
AcDbEntity
  8
0
  6
Continuous
 62
     7
370
    15
100
AcDbLine
 10
1851.544738364759
 20
783.2212582664551
 30
0.0
 11
1864.123231627931
 21
778.6816897433238
 31
0.0
  0
LWPOLYLINE
  5
B9D
330
B09
100
AcDbEntity
  8
0
  6
Continuous
 62
     7
370
    15
100
AcDbPolyline
 90
        9
 70
   128
 43
0.0
 10
1852.93436320118
 20
788.2344491560149
 10
1852.926068933673
 20
788.1982919644565
 10
1852.921543930085
 20
788.1635042148481
 10
1852.92092209475
 20
788.1312941447008
 10
1852.924271339347
 20
788.1029108454768
 10
1852.93143355267
 20
788.0793048340652
 10
1852.942153009924
 20
788.0613652517809
 10
1852.956061800103
 20
788.0497583587533
 10
1852.96167694584
 20
788.0472322801592
  0
LINE
  5
B9E
330
B09
100
AcDbEntity
  8
0
  6
Continuous
 62
     7
370
    15
100
AcDbLine
 10
1850.91026557631
 20
781.3700746412861
 30
0.0
 11
1850.655767549116
 21
780.7500959751885
 31
0.0
  0
LINE
  5
B9F
330
B09
100
AcDbEntity
  8
0
  6
Continuous
 62
     7
370
    15
100
AcDbLine
 10
1851.643059790946
 20
783.5760137588604
 30
0.0
 11
1851.544738364759
 21
783.2212582664551
 31
0.0
  0
LINE
  5
BA0
330
B09
100
AcDbEntity
  8
0
  6
Continuous
 62
     7
370
    15
100
AcDbLine
 10
1851.643059790946
 20
783.5760137588604
 30
0.0
 11
1864.221553054117
 21
779.0364452357291
 31
0.0
  0
ARC
  5
BA1
330
B09
100
AcDbEntity
  8
0
  6
Continuous
 62
     7
370
    15
100
AcDbCircle
 10
1851.890598464968
 20
783.5396232379597
 30
0.0
 40
0.2501992508943218
100
AcDbArc
 50
114.4873412571343
 51
171.6368836821353
  0
LINE
  5
BA2
330
B09
100
AcDbEntity
  8
0
  6
Continuous
 62
     7
370
    15
100
AcDbLine
 10
1851.786892829864
 20
783.7673177842181
 30
0.0
 11
1864.365386093036
 21
779.2277492610867
 31
0.0
  0
LINE
  5
BA3
330
B09
100
AcDbEntity
  8
0
  6
Continuous
 62
     7
370
    15
100
AcDbLine
 10
1852.084382643818
 20
783.7954574984599
 30
0.0
 11
1864.662875906989
 21
779.2558889753286
 31
0.0
  0
LINE
  5
BA4
330
B09
100
AcDbEntity
  8
0
  6
Continuous
 62
     7
370
    15
100
AcDbLine
 10
1852.084382643818
 20
783.7954574984599
 30
0.0
 11
1851.786892829864
 21
783.7673177842181
 31
0.0
  0
LINE
  5
BA5
330
B09
100
AcDbEntity
  8
0
  6
Continuous
 62
     7
370
    15
100
AcDbLine
 10
1867.816579936597
 20
788.2633294602708
 30
0.0
 11
1867.797594815626
 21
788.2468615214277
 31
0.0
  0
LWPOLYLINE
  5
BA6
330
B09
100
AcDbEntity
  8
0
  6
Continuous
 62
     7
370
    15
100
AcDbPolyline
 90
        3
 70
   128
 43
0.0
 10
1852.103642281866
 20
783.7932057900421
 10
1852.102918563292
 20
783.7934589330993
 10
1852.084382643818
 20
783.7954574984599
  0
LWPOLYLINE
  5
BA7
330
B09
100
AcDbEntity
  8
0
  6
Continuous
 62
     7
370
    15
100
AcDbPolyline
 90
       57
 70
   128
 43
0.0
 10
1867.72533497632
 20
793.9993565103457
 10
1867.96195177047
 20
794.2360593744987
 10
1868.150760780717
 20
794.4859613160225
 10
1868.289387278678
 20
794.7459251757047
 10
1868.37608388972
 20
795.0126680736935
 10
1868.409777934908
 20
795.2828653600935
 10
1868.390041510459
 20
795.5531008951343
 10
1868.317097608317
 20
795.8199657038159
 10
1868.191885008492
 20
796.0801152471589
 10
1868.015973310692
 20
796.3302799145115
 10
1867.791580355727
 20
796.567319254315
 10
1867.521522228934
 20
796.7882400178246
 10
1867.209193184152
 20
796.9902639226692
 10
1866.858531870238
 20
797.1708600143857
 10
1866.473926389184
 20
797.3277385854487
 10
1866.060242889347
 20
797.458961892265
 10
1865.622658283335
 20
797.5628431454671
 10
1865.166690039553
 20
797.6380971398591
 10
1864.698061346264
 20
797.6837678803348
 10
1864.222671062044
 20
797.6992797721578
 10
1863.746502497847
 20
797.6844503687337
 10
1863.275537250316
 20
797.6394609509656
 10
1862.815705205217
 20
797.5648745709779
 10
1862.372773372467
 20
797.4616156533338
 10
1861.952318362223
 20
797.3310001011058
 10
1861.559655242969
 20
797.1746802800907
 10
1861.199681431233
 20
796.9946004953348
 10
1860.876944109556
 20
796.7930331781737
 10
1860.595492891411
 20
796.5725110230815
 10
1860.358876097261
 20
796.3358081589283
 10
1860.170067087014
 20
796.0859062174045
 10
1860.031440589054
 20
795.8259423577222
 10
1859.944727754926
 20
795.5591851419214
 10
1859.911049932824
 20
795.2890021733335
 10
1859.930786357272
 20
795.0187666382928
 10
1860.003730259414
 20
794.7519018296112
 10
1860.12894910881
 20
794.4917500308028
 10
1860.304844583524
 20
794.2415710456374
 10
1860.529247512004
 20
794.0045482791121
 10
1860.799305638797
 20
793.7836275156024
 10
1861.111634683579
 20
793.5816036107577
 10
1861.462295997493
 20
793.4010075190414
 10
1861.846891505032
 20
793.2441123747005
 10
1862.260584978384
 20
793.112905641162
 10
1862.698169584396
 20
793.0090243879599
 10
1863.154137828178
 20
792.933770393568
 10
1863.622766521467
 20
792.8880996530921
 10
1864.098146832172
 20
792.8725711879912
 10
1864.574331619455
 20
792.8874149092278
 10
1865.045290617415
 20
792.9324065824614
 10
1865.505122662514
 20
793.006992962449
 10
1865.948054495264
 20
793.1102518800932
 10
1866.368493282423
 20
793.240853114509
 10
1866.761172624762
 20
793.3971872533363
 10
1867.121146436499
 20
793.5772670380922
 10
1867.443883758175
 20
793.7788343552534
 10
1867.72533497632
 20
793.9993565103457
  0
LWPOLYLINE
  5
BA8
330
B09
100
AcDbEntity
  8
0
  6
Continuous
 62
     7
370
    15
100
AcDbPolyline
 90
       49
 70
   128
 43
0.0
 10
1861.57165091904
 20
796.2202163433363
 10
1861.374511952798
 20
796.0186891044286
 10
1861.225030006757
 20
795.804622379995
 10
1861.125785271163
 20
795.5816843595629
 10
1861.078461979942
 20
795.3536850282008
 10
1861.083872210673
 20
795.1245272317057
 10
1861.14191226659
 20
794.8981215547476
 10
1861.251618922719
 20
794.6783660216814
 10
1861.411079664254
 20
794.4689969370473
 10
1861.617591322462
 20
794.2736123248376
 10
1861.867615258374
 20
794.0955468936908
 10
1862.156858607206
 20
793.9378427158411
 10
1862.480386770645
 20
793.8032086287407
 10
1862.832662241587
 20
793.6939457051051
 10
1863.207654570791
 20
793.6119277387469
 10
1863.598949135219
 20
793.5585418174513
 10
1863.999845803865
 20
793.5347132326918
 10
1864.403496428316
 20
793.54085585939
 10
1864.802979837611
 20
793.5768450903298
 10
1865.191484145123
 20
793.6420932507245
 10
1865.562335599783
 20
793.7354584949858
 10
1865.909200839993
 20
793.8553533678458
 10
1866.226143139766
 20
793.9997245051678
 10
1866.507747271151
 20
794.1661084347507
 10
1866.749176948691
 20
794.3516511900907
 10
1866.946322164505
 20
794.5531761735332
 10
1867.095797860974
 20
794.767245153432
 10
1867.195042596568
 20
794.9901831738642
 10
1867.24236588779
 20
795.218182505226
 10
1867.236955657058
 20
795.4473403017212
 10
1867.178899378056
 20
795.6737316608673
 10
1867.069208945012
 20
795.8935015117456
 10
1866.909731980392
 20
796.1028562785672
 10
1866.703236545269
 20
796.2982552085893
 10
1866.453212609357
 20
796.4763206397362
 10
1866.163975510096
 20
796.6340225621204
 10
1865.840447346657
 20
796.7686566492211
 10
1865.488171875716
 20
796.8779195728564
 10
1865.113173296941
 20
796.9599397946803
 10
1864.721878732512
 20
797.0133257159758
 10
1864.320965840781
 20
797.0371399829229
 10
1863.917331439415
 20
797.031011674037
 10
1863.517831807034
 20
796.9950081252849
 10
1863.129343722608
 20
796.9297742827026
 10
1862.758492267948
 20
796.8364090384413
 10
1862.411627027737
 20
796.7165141655812
 10
1862.094684727965
 20
796.5721430282591
 10
1861.813086846152
 20
796.4057568432108
 10
1861.57165091904
 20
796.2202163433363
  0
ARC
  5
BA9
330
B09
100
AcDbEntity
  8
0
  6
Continuous
 62
     7
370
    15
100
AcDbCircle
 10
1861.345212313233
 20
798.3971450335048
 30
0.0
 40
0.4259993806078234
100
AcDbArc
 50
77.40470599262294
 51
139.8330941534291
  0
LINE
  5
BAA
330
B09
100
AcDbEntity
  8
0
  6
Continuous
 62
     7
370
    15
100
AcDbLine
 10
1857.04625277194
 20
768.8168958978272
 30
0.0
 11
1855.716108581025
 21
766.3964096300136
 31
0.0
  0
LINE
  5
BAB
330
B09
100
AcDbEntity
  8
0
  6
Continuous
 62
     7
370
    15
100
AcDbLine
 10
1855.716949219657
 20
766.321441977197
 30
0.0
 11
1855.716108581025
 21
766.3964096300136
 31
0.0
  0
LINE
  5
BAC
330
B09
100
AcDbEntity
  8
0
  6
Continuous
 62
     7
370
    15
100
AcDbLine
 10
1855.716949219657
 20
766.321441977197
 30
0.0
 11
1855.57117660699
 21
766.0561849707383
 31
0.0
  0
ELLIPSE
  5
BAD
330
B09
100
AcDbEntity
  8
0
  6
Continuous
 62
     7
370
    15
100
AcDbEllipse
 10
1854.786047138671
 20
765.4198512796451
 30
0.0
 11
0.2929375192451857
 21
1.057375138010115
 31
0.0
210
0.0
220
0.0
230
0.9999999999999998
 40
0.4340362306873025
 41
6.063905910914661
 42
6.843894447968733
  0
ELLIPSE
  5
BAE
330
B09
100
AcDbEntity
  8
0
  6
Continuous
 62
     7
370
    15
100
AcDbEllipse
 10
1854.548065112116
 20
765.2098183610176
 30
0.0
 11
0.6400214645607321
 21
1.334488396789595
 31
0.0
210
0.0
220
0.0
230
1.0
 40
0.3155572743047164
 41
0.667461809693366
 42
1.363227708966733
  0
LINE
  5
BAF
330
B09
100
AcDbEntity
  8
0
  6
Continuous
 62
     7
370
    15
100
AcDbLine
 10
1850.703386981797
 20
759.3628156498039
 30
0.0
 11
1854.267887719436
 21
765.6824508108761
 31
0.0
  0
LINE
  5
BB0
330
B09
100
AcDbEntity
  8
0
  6
Continuous
 62
     7
370
    15
100
AcDbLine
 10
1857.033846750234
 20
769.9232575280699
 30
0.0
 11
1857.04625277194
 21
768.8168958978272
 31
0.0
  0
LINE
  5
BB1
330
B09
100
AcDbEntity
  8
0
  6
Continuous
 62
     7
370
    15
100
AcDbLine
 10
1855.781284010183
 20
759.329658810416
 30
0.0
 11
1858.971446389126
 21
758.1783316668439
 31
0.0
  0
LINE
  5
BB2
330
B09
100
AcDbEntity
  8
0
  6
Continuous
 62
     7
370
    15
100
AcDbLine
 10
1855.781284010183
 20
759.329658810416
 30
0.0
 11
1854.267887719436
 21
765.6824508108761
 31
0.0
  0
ELLIPSE
  5
BB3
330
B09
100
AcDbEntity
  8
0
  6
Continuous
 62
     7
370
    15
100
AcDbEllipse
 10
1859.251612549191
 20
757.7056763815662
 30
0.0
 11
0.3978533442082721
 21
1.246957606046237
 31
0.0
210
0.0
220
0.0
230
1.0
 40
0.3266527185493792
 41
0.7644953649608805
 42
1.288094620801397
  0
ELLIPSE
  5
BB4
330
B09
100
AcDbEntity
  8
0
  6
Continuous
 62
     7
370
    15
100
AcDbEllipse
 10
1864.024555927969
 20
759.9675221224158
 30
0.0
 11
4.798868300585752
 21
1.374124405538566
 31
0.0
210
0.0
220
0.0
230
1.0
 40
0.118138744635604
 41
2.789785408491063
 42
2.988920714812194
  0
LINE
  5
BB5
330
B09
100
AcDbEntity
  8
0
  6
Continuous
 62
     7
370
    15
100
AcDbLine
 10
1859.463679543732
 20
758.8729406468571
 30
0.0
 11
1861.446675953413
 21
760.6230498025352
 31
0.0
  0
LINE
  5
BB6
330
B09
100
AcDbEntity
  8
0
  6
Continuous
 62
     7
370
    15
100
AcDbLine
 10
1861.446675953413
 20
760.6230498025352
 30
0.0
 11
1862.297002840814
 21
761.0190746860671
 31
0.0
  0
LINE
  5
BB7
330
B09
100
AcDbEntity
  8
0
  6
Continuous
 62
     7
370
    15
100
AcDbLine
 10
1857.04625277194
 20
768.8168958978272
 30
0.0
 11
1862.230540837661
 21
766.9458903309764
 31
0.0
  0
LINE
  5
BB8
330
B09
100
AcDbEntity
  8
0
  6
Continuous
 62
     7
370
    15
100
AcDbLine
 10
1865.766628771331
 20
801.8638287123671
 30
0.0
 11
1878.345122034503
 21
797.3242601892358
 31
0.0
  0
LINE
  5
BB9
330
B09
100
AcDbEntity
  8
0
  6
Continuous
 62
     7
370
    15
100
AcDbLine
 10
1866.408791237759
 20
803.4281270700409
 30
0.0
 11
1878.987284500931
 21
798.8885585469096
 31
0.0
  0
ARC
  5
BBA
330
B09
100
AcDbEntity
  8
0
  6
Continuous
 62
     7
370
    15
100
AcDbCircle
 10
1868.034874075968
 20
801.846644646039
 30
0.0
 40
2.268310396339728
100
AcDbArc
 50
135.796632529307
 51
179.5659395226546
  0
LINE
  5
BBB
330
B09
100
AcDbEntity
  8
0
  6
Continuous
 62
     7
370
    15
100
AcDbLine
 10
1865.766628771331
 20
801.8638287123671
 30
0.0
 11
1865.815324469614
 21
797.5211753289141
 31
0.0
  0
LWPOLYLINE
  5
BBC
330
B09
100
AcDbEntity
  8
0
  6
Continuous
 62
     7
370
    15
100
AcDbPolyline
 90
       30
 70
   128
 43
0.0
 10
1880.128997173871
 20
804.013137864312
 10
1880.1166511409
 20
803.759100414333
 10
1880.052986637097
 20
803.4919126040374
 10
1879.938046404391
 20
803.2299363479729
 10
1879.773191929309
 20
802.9763315474632
 10
1879.5604619197
 20
802.7341952495808
 10
1879.302433744853
 20
802.5064704443233
 10
1879.002222237186
 20
802.2959061516592
 10
1878.663495915323
 20
802.1050717393428
 10
1878.290332174649
 20
801.9362679755529
 10
1877.887290954845
 20
801.7915609604692
 10
1877.459251181722
 20
801.6726999453094
 10
1877.011404517649
 20
801.5811195877942
 10
1876.549211614555
 20
801.5179557404058
 10
1876.07824108139
 20
801.4839421852158
 10
1875.604251797862
 20
801.4795221358998
 10
1875.13297443745
 20
801.5047253588015
 10
1874.670136336683
 20
801.5592600611846
 10
1874.221342882287
 20
801.6424548349634
 10
1873.792069934301
 20
801.7533219093289
 10
1873.387510241425
 20
801.8904915430626
 10
1873.012563338503
 20
802.0522963613727
 10
1872.671798049099
 20
802.2367848886863
 10
1872.36934504447
 20
802.4417199786087
 10
1872.108875569222
 20
802.6646066645305
 10
1871.893558892633
 20
802.9027478608357
 10
1871.726002338559
 20
803.153245833349
 10
1871.608233735045
 20
803.4130488786825
 10
1871.541681338291
 20
803.6790190877935
 10
1871.526171858098
 20
803.9166631463686
  0
LINE
  5
BBD
330
B09
100
AcDbEntity
  8
0
  6
Continuous
 62
     7
370
    15
100
AcDbLine
 10
1874.162501389949
 20
810.2712252529556
 30
0.0
 11
1886.740994653121
 21
805.7316567298242
 31
0.0
  0
LINE
  5
BBE
330
B09
100
AcDbEntity
  8
0
  6
Continuous
 62
     7
370
    15
100
AcDbLine
 10
1874.162501389949
 20
810.2712252529556
 30
0.0
 11
1866.408791237759
 21
803.4281270700409
 31
0.0
  0
LWPOLYLINE
  5
BBF
330
B09
100
AcDbEntity
  8
0
  6
Continuous
 62
     7
370
    15
100
AcDbPolyline
 90
       57
 70
   128
 43
0.0
 10
1879.374548641384
 20
804.2804621100017
 10
1879.093097423239
 20
804.0599399549094
 10
1878.770360101563
 20
803.8583726377483
 10
1878.410386289826
 20
803.6782928529925
 10
1878.017706947487
 20
803.5219587141652
 10
1877.597251937243
 20
803.3913431619369
 10
1877.154336327578
 20
803.2880985621051
 10
1876.694504282479
 20
803.2135121821175
 10
1876.223529061434
 20
803.1685061910716
 10
1875.747360497236
 20
803.1536767876472
 10
1875.271980186531
 20
803.1692052527482
 10
1874.803351493242
 20
803.214875993224
 10
1874.347367026375
 20
803.2901156698036
 10
1873.909798643447
 20
803.3940112408179
 10
1873.496105170096
 20
803.5252179743567
 10
1873.111509662557
 20
803.6821131186973
 10
1872.760832125558
 20
803.8626948926015
 10
1872.448519303861
 20
804.0647331152586
 10
1872.178461177068
 20
804.2856538787683
 10
1871.954058248588
 20
804.5226766452936
 10
1871.778146550789
 20
804.7728413126465
 10
1871.652943924478
 20
805.0330074292673
 10
1871.580000022335
 20
805.2998722379488
 10
1871.560247374802
 20
805.5700934551774
 10
1871.59394141999
 20
805.8402907415773
 10
1871.680654254117
 20
806.1070479573782
 10
1871.819280752078
 20
806.3670118170605
 10
1872.008089762325
 20
806.6169137585845
 10
1872.244706556475
 20
806.8536166227376
 10
1872.526141551534
 20
807.0741244600174
 10
1872.848895096296
 20
807.2757060949909
 10
1873.208868908033
 20
807.4557858797469
 10
1873.601532027287
 20
807.6121057007618
 10
1874.021987037531
 20
807.7427212529899
 10
1874.464902647195
 20
807.8459658528217
 10
1874.92475091538
 20
807.9205665506217
 10
1875.395716162911
 20
807.9655559683899
 10
1875.871884727108
 20
807.9803853718139
 10
1876.347275011328
 20
807.964873479991
 10
1876.815903704617
 20
807.9192027395151
 10
1877.271871948399
 20
807.8439487451232
 10
1877.709440331326
 20
807.7400531741089
 10
1878.123140054248
 20
807.6088441851048
 10
1878.507729312216
 20
807.4519512962295
 10
1878.858406849215
 20
807.2713695223253
 10
1879.170735893998
 20
807.0693456174806
 10
1879.440794020791
 20
806.8484248539709
 10
1879.665186975756
 20
806.6113855141678
 10
1879.841098673556
 20
806.361220846815
 10
1879.966311273381
 20
806.1010713034718
 10
1880.039238952438
 20
805.834192176978
 10
1880.058991599972
 20
805.5639709597496
 10
1880.025297554784
 20
805.2937736733495
 10
1879.938600943741
 20
805.0270307753608
 10
1879.799974445781
 20
804.7670669156785
 10
1879.611149212448
 20
804.5171506563425
 10
1879.374548641384
 20
804.2804621100017
  0
LWPOLYLINE
  5
BC0
330
B09
100
AcDbEntity
  8
0
  6
Continuous
 62
     7
370
    15
100
AcDbPolyline
 90
       49
 70
   128
 43
0.0
 10
1873.185760742513
 20
806.5139908923645
 10
1872.985936707958
 20
806.3097209136453
 10
1872.834434544784
 20
806.0927521959673
 10
1872.733841891124
 20
805.8667905863446
 10
1872.68588912453
 20
805.6357101074912
 10
1872.691367048241
 20
805.4034414558087
 10
1872.750199360405
 20
805.1739660200096
 10
1872.861392786508
 20
804.9512330147281
 10
1873.023017261342
 20
804.7390254238521
 10
1873.232333317065
 20
804.5409947171185
 10
1873.485727319851
 20
804.3605026687512
 10
1873.778902551975
 20
804.2006734323534
 10
1874.10682322367
 20
804.0642120198722
 10
1874.463874307348
 20
803.9534676538179
 10
1874.8439403854
 20
803.8703246203098
 10
1875.240551786962
 20
803.8162302192743
 10
1875.646880992973
 20
803.7920750255899
 10
1876.056004860166
 20
803.7982999797632
 10
1876.460901026124
 20
803.8347766490737
 10
1876.854675161481
 20
803.9009067668333
 10
1877.230558573284
 20
803.9955424064833
 10
1877.582115510165
 20
804.1170523742991
 10
1877.903355525624
 20
804.2633825211247
 10
1878.188773501085
 20
804.4320211253706
 10
1878.433494455347
 20
804.6200878403746
 10
1878.633302266816
 20
804.8243435012816
 10
1878.784804429989
 20
805.0413122189596
 10
1878.88539708365
 20
805.2672738285822
 10
1878.933366073329
 20
805.498368625248
 10
1878.927871926532
 20
805.7306229591182
 10
1878.869039614368
 20
805.9600983949172
 10
1878.757846188266
 20
806.1828314001987
 10
1878.596221713431
 20
806.3950389910747
 10
1878.386921880794
 20
806.5930840156207
 10
1878.133511654923
 20
806.7735617461758
 10
1877.840336422798
 20
806.9333909825736
 10
1877.512422000675
 20
807.0698501395893
 10
1877.155364667425
 20
807.1805967611091
 10
1876.775298589373
 20
807.263739794617
 10
1876.378703410896
 20
807.3178485134649
 10
1875.9723579818
 20
807.3419893893369
 10
1875.563234114608
 20
807.3357644351636
 10
1875.158337948649
 20
807.2992877658531
 10
1874.764563813292
 20
807.2331576480936
 10
1874.388696624575
 20
807.138536326256
 10
1874.037123464608
 20
807.0170120406277
 10
1873.715883449149
 20
806.8706818938023
 10
1873.430465473689
 20
806.7020432895562
 10
1873.185760742513
 20
806.5139908923645
  0
ARC
  5
BC1
330
B09
100
AcDbEntity
  8
0
  6
Continuous
 62
     7
370
    15
100
AcDbCircle
 10
1865.535306348905
 20
746.3166456097849
 30
0.0
 40
0.9482012971695422
100
AcDbArc
 50
315.8375624614624
 51
357.7039815634116
  0
LINE
  5
BC2
330
B09
100
AcDbEntity
  8
0
  6
Continuous
 62
     7
370
    15
100
AcDbLine
 10
1866.729256745654
 20
753.6452473564109
 30
0.0
 11
1866.482746412546
 21
746.2786584308839
 31
0.0
  0
LWPOLYLINE
  5
BC3
330
B09
100
AcDbEntity
  8
0
  6
Continuous
 62
     7
370
    15
100
AcDbPolyline
 90
        9
 70
   128
 43
0.0
 10
1866.729256745654
 20
753.6452473564109
 10
1866.726479469
 20
753.727820865235
 10
1866.712420834171
 20
753.7980843853581
 10
1866.687687160093
 20
753.8531046582114
 10
1866.653303540054
 20
753.8905905326465
 10
1866.610713291552
 20
753.9089420275367
 10
1866.561694365158
 20
753.9073995244141
 10
1866.508310400191
 20
753.8860253453329
 10
1866.452795512644
 20
753.8457507159835
  0
LINE
  5
BC4
330
B09
100
AcDbEntity
  8
0
  6
Continuous
 62
     7
370
    15
100
AcDbLine
 10
1866.452795512644
 20
753.8457507159835
 30
0.0
 11
1864.598902417355
 21
752.2095827109021
 31
0.0
  0
ARC
  5
BC5
330
B09
100
AcDbEntity
  8
0
  6
Continuous
 62
     7
370
    15
100
AcDbCircle
 10
1865.239254380272
 20
751.571005829236
 30
0.0
 40
0.9043401297132561
100
AcDbArc
 50
135.0795232659504
 51
187.0835290800919
  0
LINE
  5
BC6
330
B09
100
AcDbEntity
  8
0
  6
Continuous
 62
     7
370
    15
100
AcDbLine
 10
1864.341816690971
 20
751.459486037129
 30
0.0
 11
1865.675499502636
 21
745.4875338360059
 31
0.0
  0
LWPOLYLINE
  5
BC7
330
B09
100
AcDbEntity
  8
0
  6
Continuous
 62
     7
370
    15
100
AcDbPolyline
 90
        9
 70
   128
 43
0.0
 10
1865.675499502636
 20
745.4875338360059
 10
1865.691199885256
 20
745.4374236779935
 10
1865.713468397312
 20
745.3976934779166
 10
1865.741703402731
 20
745.3693977977313
 10
1865.775175406299
 20
745.3533049377952
 10
1865.812978384408
 20
745.3498539834292
 10
1865.854095502636
 20
745.3591384822694
 10
1865.897416164059
 20
745.3808471681761
 10
1865.941815474216
 20
745.4144827380984
  0
LINE
  5
BC8
330
B09
100
AcDbEntity
  8
0
  6
Continuous
 62
     7
370
    15
100
AcDbLine
 10
1866.215515149654
 20
745.6560385500758
 30
0.0
 11
1865.941815474216
 21
745.4144827380984
 31
0.0
  0
ARC
  5
BC9
330
B09
100
AcDbEntity
  8
0
  6
Continuous
 62
     7
370
    15
100
AcDbCircle
 10
1887.397098217974
 20
771.0817968787873
 30
0.0
 40
0.9386902745305425
100
AcDbArc
 50
135.6978370621362
 51
181.4746464189422
  0
LINE
  5
BCA
330
B09
100
AcDbEntity
  8
0
  6
Continuous
 62
     7
370
    15
100
AcDbLine
 10
1886.863987177673
 20
764.2662835687679
 30
0.0
 11
1886.458718827812
 21
771.0576400657485
 31
0.0
  0
LWPOLYLINE
  5
BCB
330
B09
100
AcDbEntity
  8
0
  6
Continuous
 62
     7
370
    15
100
AcDbPolyline
 90
        9
 70
   128
 43
0.0
 10
1886.863987177673
 20
764.2662835687679
 10
1886.873130466587
 20
764.1975038782567
 10
1886.891479652522
 20
764.1405650357796
 10
1886.918389650108
 20
764.0974742196686
 10
1886.95291016121
 20
764.0696967255204
 10
1886.993833518948
 20
764.0582725135351
 10
1887.039714211724
 20
764.063536150727
 10
1887.088948073097
 20
764.0853601190872
 10
1887.139807478742
 20
764.1229381382079
  0
LINE
  5
BCC
330
B09
100
AcDbEntity
  8
0
  6
Continuous
 62
     7
370
    15
100
AcDbLine
 10
1887.139807478742
 20
764.1229381382079
 30
0.0
 11
1887.41350715418
 21
764.3644939501854
 31
0.0
  0
ARC
  5
BCD
330
B09
100
AcDbEntity
  8
0
  6
Continuous
 62
     7
370
    15
100
AcDbCircle
 10
1886.740934226652
 20
765.0206686391365
 30
0.0
 40
0.939637996924057
100
AcDbArc
 50
315.7070584027758
 51
352.7200254971428
  0
LINE
  5
BCE
330
B09
100
AcDbEntity
  8
0
  6
Continuous
 62
     7
370
    15
100
AcDbLine
 10
1887.672997606676
 20
764.9015996638241
 30
0.0
 11
1888.847922951743
 21
773.0875438226084
 31
0.0
  0
LWPOLYLINE
  5
BCF
330
B09
100
AcDbEntity
  8
0
  6
Continuous
 62
     7
370
    15
100
AcDbPolyline
 90
        9
 70
   128
 43
0.0
 10
1888.847922951743
 20
773.0875438226084
 10
1888.856013177696
 20
773.1886519718759
 10
1888.849867780403
 20
773.277914807422
 10
1888.829833791019
 20
773.3506837898675
 10
1888.796937134591
 20
773.4031325096521
 10
1888.752928273446
 20
773.43256948477
 10
1888.700069656622
 20
773.4373992170114
 10
1888.641132694001
 20
773.4173920362609
 10
1888.579202254051
 20
773.3735858806503
  0
LINE
  5
BD0
330
B09
100
AcDbEntity
  8
0
  6
Continuous
 62
     7
370
    15
100
AcDbLine
 10
1886.725309158762
 20
771.7374178755691
 30
0.0
 11
1888.579202254051
 21
773.3735858806503
 31
0.0
  0
ARC
  5
BD1
330
B09
100
AcDbEntity
  8
0
  6
Continuous
 62
     7
370
    15
100
AcDbCircle
 10
1889.436892892175
 20
775.553776381482
 30
0.0
 40
0.9451715164093855
100
AcDbArc
 50
315.7969334353835
 51
359.5640820812485
  0
LINE
  5
BD2
330
B09
100
AcDbEntity
  8
0
  6
Continuous
 62
     7
370
    15
100
AcDbLine
 10
1890.055165732285
 20
774.8424679144165
 30
0.0
 11
1890.11446110978
 21
774.894799518517
 31
0.0
  0
ARC
  5
BD3
330
B09
100
AcDbEntity
  8
0
  6
Continuous
 62
     7
370
    15
100
AcDbCircle
 10
1891.400115613871
 20
773.5302322800069
 30
0.0
 40
1.879056290852954
100
AcDbArc
 50
135.7053679867192
 51
172.721471917375
  0
LINE
  5
BD4
330
B09
100
AcDbEntity
  8
0
  6
Continuous
 62
     7
370
    15
100
AcDbLine
 10
1888.384668211846
 20
765.7448034518881
 30
0.0
 11
1889.5362007753
 21
773.7682953362514
 31
0.0
  0
LWPOLYLINE
  5
BD5
330
B09
100
AcDbEntity
  8
0
  6
Continuous
 62
     7
370
    15
100
AcDbPolyline
 90
        9
 70
   128
 43
0.0
 10
1888.653372686453
 20
765.4587470760339
 10
1888.591458194511
 20
765.4149797695356
 10
1888.532521506967
 20
765.3949480574851
 10
1888.479662890143
 20
765.3997777897266
 10
1888.435637805913
 20
765.4292004470323
 10
1888.40275737257
 20
765.481663484629
 10
1888.382707160101
 20
765.5544181492623
 10
1888.376577985893
 20
765.6436953026207
 10
1888.384668211846
 20
765.7448034518881
  0
LINE
  5
BD6
330
B09
100
AcDbEntity
  8
0
  6
Continuous
 62
     7
370
    15
100
AcDbLine
 10
1889.333947346181
 20
766.0593936214827
 30
0.0
 11
1888.653372686453
 21
765.4587470760339
 31
0.0
  0
LWPOLYLINE
  5
BD7
330
B09
100
AcDbEntity
  8
0
  6
Continuous
 62
     7
370
    15
100
AcDbPolyline
 90
       11
 70
   128
 43
0.0
 10
1889.429633341524
 20
767.3680280638668
 10
1889.537324703243
 20
767.3912518906553
 10
1889.627829961351
 20
767.3560029073968
 10
1889.693694978287
 20
767.2651661017036
 10
1889.729560857181
 20
767.1261760063052
 10
1889.732498581449
 20
766.9503953971944
 10
1889.702232018344
 20
766.7522220479882
 10
1889.64126605969
 20
766.5478887957132
 10
1889.554574538689
 20
766.354073276059
 10
1889.44926972301
 20
766.1866895912187
 10
1889.333947346181
 20
766.0593936214827
  0
LWPOLYLINE
  5
BD8
330
B09
100
AcDbEntity
  8
0
  6
Continuous
 62
     7
370
    15
100
AcDbPolyline
 90
        9
 70
   128
 43
0.0
 10
1889.429633341524
 20
767.3680280638668
 10
1889.412302364233
 20
767.363385323977
 10
1889.39692033174
 20
767.3661111292187
 10
1889.384307475897
 20
767.3761118373083
 10
1889.375092652467
 20
767.3928276166147
 10
1889.369760359911
 20
767.4154225873953
 10
1889.368585847049
 20
767.4427275505475
 10
1889.371634287821
 20
767.4733135815078
 10
1889.378743182817
 20
767.5056003689403
  0
LINE
  5
BD9
330
B09
100
AcDbEntity
  8
0
  6
Continuous
 62
     7
370
    15
100
AcDbLine
 10
1889.762360321075
 20
768.8897544298793
 30
0.0
 11
1889.378743182817
 21
767.5056003689403
 31
0.0
  0
ARC
  5
BDA
330
B09
100
AcDbEntity
  8
0
  6
Continuous
 62
     7
370
    15
100
AcDbCircle
 10
1890.624732907117
 20
768.6761282916782
 30
0.0
 40
0.8884382950321942
100
AcDbArc
 50
135.0673764402081
 51
166.0868223440747
  0
LINE
  5
BDB
330
B09
100
AcDbEntity
  8
0
  6
Continuous
 62
     7
370
    15
100
AcDbLine
 10
1890.257046640161
 20
769.5341982179408
 30
0.0
 11
1889.995773848215
 21
769.3036098502155
 31
0.0
  0
LWPOLYLINE
  5
BDC
330
B09
100
AcDbEntity
  8
0
  6
Continuous
 62
     7
370
    15
100
AcDbPolyline
 90
        9
 70
   128
 43
0.0
 10
1890.533836330621
 20
769.3628465353681
 10
1890.527695943427
 20
769.4385128269003
 10
1890.511353449124
 20
769.5020536350455
 10
1890.485393717065
 20
769.5509874781225
 10
1890.450852837142
 20
769.5835036174965
 10
1890.409023717831
 20
769.5982657125287
 10
1890.361550123775
 20
769.5947921030529
 10
1890.310233649218
 20
769.5731368078258
 10
1890.257046640161
 20
769.5341982179408
  0
LINE
  5
BDD
330
B09
100
AcDbEntity
  8
0
  6
Continuous
 62
     7
370
    15
100
AcDbLine
 10
1890.562449678112
 20
766.8111252401081
 30
0.0
 11
1890.533836330621
 21
769.3628465353681
 31
0.0
  0
ARC
  5
BDE
330
B09
100
AcDbEntity
  8
0
  6
Continuous
 62
     7
370
    15
100
AcDbCircle
 10
1888.672310506714
 20
766.8254185098624
 30
0.0
 40
1.890193213620232
100
AcDbArc
 50
315.7958356100631
 51
359.5667364419037
  0
LINE
  5
BDF
330
B09
100
AcDbEntity
  8
0
  6
Continuous
 62
     7
370
    15
100
AcDbLine
 10
1887.041276949567
 20
762.8721924183835
 30
0.0
 11
1890.027314289422
 21
765.50754327538
 31
0.0
  0
LWPOLYLINE
  5
BE0
330
B09
100
AcDbEntity
  8
0
  6
Continuous
 62
     7
370
    15
100
AcDbPolyline
 90
        9
 70
   128
 43
0.0
 10
1885.691762536866
 20
762.7445700877474
 10
1885.81610170883
 20
762.6200429786911
 10
1885.957663091373
 20
762.5346967697417
 10
1886.114418510687
 20
762.4896895946824
 10
1886.284099472539
 20
762.4856949758109
 10
1886.464263980163
 20
762.522787376089
 10
1886.652329805661
 20
762.6003972408673
 10
1886.845605835867
 20
762.7174377587104
 10
1887.041276949567
 20
762.8721924183835
  0
LINE
  5
BE1
330
B09
100
AcDbEntity
  8
0
  6
Continuous
 62
     7
370
    15
100
AcDbLine
 10
1885.403792334534
 20
763.103553225927
 30
0.0
 11
1885.691762536866
 21
762.7445700877474
 31
0.0
  0
ARC
  5
BE2
330
B09
100
AcDbEntity
  8
0
  6
Continuous
 62
     7
370
    15
100
AcDbCircle
 10
1885.846230178731
 20
763.2595721551563
 30
0.0
 40
0.4691408661118877
100
AcDbArc
 50
136.6864082694227
 51
199.4244177721663
  0
LINE
  5
BE3
330
B09
100
AcDbEntity
  8
0
  6
Continuous
 62
     7
370
    15
100
AcDbLine
 10
1885.96781063185
 20
764.1150471965726
 30
0.0
 11
1885.50487857107
 21
763.5813985558802
 31
0.0
  0
ARC
  5
BE4
330
B09
100
AcDbEntity
  8
0
  6
Continuous
 62
     7
370
    15
100
AcDbCircle
 10
1885.661705824428
 20
764.3635979508635
 30
0.0
 40
0.3943065185682767
100
AcDbArc
 50
320.9241177014261
 51
358.9782694074878
  0
LINE
  5
BE5
330
B09
100
AcDbEntity
  8
0
  6
Continuous
 62
     7
370
    15
100
AcDbLine
 10
1886.047460740109
 20
765.1136027458961
 30
0.0
 11
1886.055949649862
 21
764.3565668277298
 31
0.0
  0
LWPOLYLINE
  5
BE6
330
B09
100
AcDbEntity
  8
0
  6
Continuous
 62
     7
370
    15
100
AcDbPolyline
 90
        9
 70
   128
 43
0.0
 10
1885.946238946261
 20
765.1899080993412
 10
1885.966124899153
 20
765.2019339861186
 10
1885.985082036086
 20
765.2076650690424
 10
1886.002441084385
 20
765.2068822873062
 10
1886.017612236331
 20
765.1995853569663
 10
1886.030068100846
 20
765.1860520470277
 10
1886.039377525052
 20
765.1667441585702
 10
1886.045254538606
 20
765.1423259468838
 10
1886.047460740109
 20
765.1136027458961
  0
LINE
  5
BE7
330
B09
100
AcDbEntity
  8
0
  6
Continuous
 62
     7
370
    15
100
AcDbLine
 10
1885.405566354747
 20
764.7848505546273
 30
0.0
 11
1885.946238946261
 21
765.1899080993412
 31
0.0
  0
LWPOLYLINE
  5
BE8
330
B09
100
AcDbEntity
  8
0
  6
Continuous
 62
     7
370
    15
100
AcDbPolyline
 90
        9
 70
   128
 43
0.0
 10
1885.253733939053
 20
764.8992840534949
 10
1885.257051077773
 20
764.8562309422195
 10
1885.265850237479
 20
764.8196015725277
 10
1885.279822622869
 20
764.7906346330974
 10
1885.298514531184
 20
764.7703418270959
 10
1885.321263010022
 20
764.7594015383297
 10
1885.347293746005
 20
764.7581956755194
 10
1885.375721339863
 20
764.7667851409988
 10
1885.405566354747
 20
764.7848505546273
  0
LINE
  5
BE9
330
B09
100
AcDbEntity
  8
0
  6
Continuous
 62
     7
370
    15
100
AcDbLine
 10
1885.238589514994
 20
766.2498547752914
 30
0.0
 11
1885.253733939053
 21
764.8992840534949
 31
0.0
  0
ARC
  5
BEA
330
B09
100
AcDbEntity
  8
0
  6
Continuous
 62
     7
370
    15
100
AcDbCircle
 10
1886.240729347814
 20
766.2286496010115
 30
0.0
 40
1.002364157349963
100
AcDbArc
 50
150.2258046040263
 51
178.7878081793214
  0
LINE
  5
BEB
330
B09
100
AcDbEntity
  8
0
  6
Continuous
 62
     7
370
    15
100
AcDbLine
 10
1885.747347323331
 20
767.3941721148785
 30
0.0
 11
1885.370688094639
 21
766.7264066920845
 31
0.0
  0
ARC
  5
BEC
330
B09
100
AcDbEntity
  8
0
  6
Continuous
 62
     7
370
    15
100
AcDbCircle
 10
1884.87711989512
 20
767.8919808130419
 30
0.0
 40
1.002551383609848
100
AcDbArc
 50
330.2285281988006
 51
358.7850845845335
  0
LINE
  5
BED
330
B09
100
AcDbEntity
  8
0
  6
Continuous
 62
     7
370
    15
100
AcDbLine
 10
1885.847570129376
 20
770.7133865449957
 30
0.0
 11
1885.879445902975
 21
767.8707240316716
 31
0.0
  0
LWPOLYLINE
  5
BEE
330
B09
100
AcDbEntity
  8
0
  6
Continuous
 62
     7
370
    15
100
AcDbPolyline
 90
        9
 70
   128
 43
0.0
 10
1885.570764215831
 20
770.884723909756
 10
1885.623951224888
 20
770.923662499641
 10
1885.67528392253
 20
770.9453321126802
 10
1885.722757516587
 20
770.9488057221561
 10
1885.764586635897
 20
770.9340436271238
 10
1885.799127515821
 20
770.9015274877502
 10
1885.825087247879
 20
770.8525936446728
 10
1885.841429742183
 20
770.7890528365276
 10
1885.847570129376
 20
770.7133865449957
  0
LINE
  5
BEF
330
B09
100
AcDbEntity
  8
0
  6
Continuous
 62
     7
370
    15
100
AcDbLine
 10
1884.671048117195
 20
770.0906723552271
 30
0.0
 11
1885.570764215831
 21
770.884723909756
 31
0.0
  0
ARC
  5
BF0
330
B09
100
AcDbEntity
  8
0
  6
Continuous
 62
     7
370
    15
100
AcDbCircle
 10
1886.028450312728
 20
768.7709631010077
 30
0.0
 40
1.893191283550017
100
AcDbArc
 50
135.8066544124611
 51
174.9583551580218
  0
LINE
  5
BF1
330
B09
100
AcDbEntity
  8
0
  6
Continuous
 62
     7
370
    15
100
AcDbLine
 10
1883.620051028595
 20
763.4693310683094
 30
0.0
 11
1884.142583622098
 21
768.9373363599234
 31
0.0
  0
ARC
  5
BF2
330
B09
100
AcDbEntity
  8
0
  6
Continuous
 62
     7
370
    15
100
AcDbCircle
 10
1883.900814685952
 20
763.3898054108965
 30
0.0
 40
0.2918091182253057
100
AcDbArc
 50
164.1853485003948
 51
229.8781689915453
  0
LWPOLYLINE
  5
BF3
330
B09
100
AcDbEntity
  8
0
  6
Continuous
 62
     7
370
    15
100
AcDbPolyline
 90
       14
 70
   128
 43
0.0
 10
1883.068075639378
 20
760.8315683793439
 10
1883.208538348171
 20
760.908488889873
 10
1883.351834393194
 20
761.033717243454
 10
1883.491619722783
 20
761.2017287693622
 10
1883.621687228511
 20
761.4050138610589
 10
1883.736256009943
 20
761.6345810098132
 10
1883.830262840021
 20
761.880263587925
 10
1883.899521370062
 20
762.131132871147
 10
1883.940977848027
 20
762.376070561884
 10
1883.95277160962
 20
762.6042185612406
 10
1883.934393458045
 20
762.8054655853459
 10
1883.886648541512
 20
762.9708355618284
 10
1883.811666249521
 20
763.0930661675286
 10
1883.712768502635
 20
763.1666660051
  0
ARC
  5
BF4
330
B09
100
AcDbEntity
  8
0
  6
Continuous
 62
     7
370
    15
100
AcDbCircle
 10
1883.271648753644
 20
760.4217093025225
 30
0.0
 40
0.4576313753503078
100
AcDbArc
 50
116.4131546465984
 51
151.1398594550249
  0
ARC
  5
BF5
330
B09
100
AcDbEntity
  8
0
  6
Continuous
 62
     7
370
    15
100
AcDbCircle
 10
1880.452550887186
 20
762.1336781676675
 30
0.0
 40
2.841042317293863
100
AcDbArc
 50
312.5104912612575
 51
328.3427688156998
  0
LINE
  5
BF6
330
B09
100
AcDbEntity
  8
0
  6
Continuous
 62
     7
370
    15
100
AcDbLine
 10
1882.196959435487
 20
759.8846323078251
 30
0.0
 11
1882.372314766636
 21
760.0393935414013
 31
0.0
  0
LWPOLYLINE
  5
BF7
330
B09
100
AcDbEntity
  8
0
  6
Continuous
 62
     7
370
    15
100
AcDbPolyline
 90
        9
 70
   128
 43
0.0
 10
1881.920169745027
 20
760.0559839903977
 10
1881.926293909135
 20
759.9803033810534
 10
1881.942652626525
 20
759.9167768907205
 10
1881.968596410576
 20
759.8678041985309
 10
1882.003153238506
 20
759.8353269082695
 10
1882.044966134731
 20
759.820550495425
 10
1882.092455951873
 20
759.8240384227131
 10
1882.14377242643
 20
759.8456937179401
 10
1882.196959435487
 20
759.8846323078251
  0
LINE
  5
BF8
330
B09
100
AcDbEntity
  8
0
  6
Continuous
 62
     7
370
    15
100
AcDbLine
 10
1881.918325621535
 20
760.2204418256337
 30
0.0
 11
1881.920169745027
 21
760.0559839903977
 31
0.0
  0
ARC
  5
BF9
330
B09
100
AcDbEntity
  8
0
  6
Continuous
 62
     7
370
    15
100
AcDbCircle
 10
1882.863404148929
 20
760.2132801710999
 30
0.0
 40
0.9451056619433977
100
AcDbArc
 50
135.796742031746
 51
179.5658300202274
  0
LINE
  5
BFA
330
B09
100
AcDbEntity
  8
0
  6
Continuous
 62
     7
370
    15
100
AcDbLine
 10
1882.361143334511
 20
761.026888710144
 30
0.0
 11
1882.185885341876
 21
760.8722133834417
 31
0.0
  0
ARC
  5
BFB
330
B09
100
AcDbEntity
  8
0
  6
Continuous
 62
     7
370
    15
100
AcDbCircle
 10
1881.00379769698
 20
762.3465475879416
 30
0.0
 40
1.893115615454409
100
AcDbArc
 50
315.8065543526801
 51
354.9592486850023
  0
LINE
  5
BFC
330
B09
100
AcDbEntity
  8
0
  6
Continuous
 62
     7
370
    15
100
AcDbLine
 10
1883.431921293164
 20
767.8551846396485
 30
0.0
 11
1882.889591606523
 21
762.1802103876352
 31
0.0
  0
LWPOLYLINE
  5
BFD
330
B09
100
AcDbEntity
  8
0
  6
Continuous
 62
     7
370
    15
100
AcDbPolyline
 90
        9
 70
   128
 43
0.0
 10
1882.884996582752
 20
768.3481196564062
 10
1883.003043814881
 20
768.4325830126226
 10
1883.115921003704
 20
768.4740341459738
 10
1883.218292941673
 20
768.4704895748251
 10
1883.30529185834
 20
768.4221125429128
 10
1883.372812461753
 20
768.3312008956654
 10
1883.417644198843
 20
768.2020808410036
 10
1883.437654385695
 20
768.0408474131736
 10
1883.431921293164
 20
767.8551846396485
  0
LINE
  5
BFE
330
B09
100
AcDbEntity
  8
0
  6
Continuous
 62
     7
370
    15
100
AcDbLine
 10
1870.293108088654
 20
757.2350489351464
 30
0.0
 11
1882.884996582752
 21
768.3481196564062
 31
0.0
  0
ARC
  5
BFF
330
B09
100
AcDbEntity
  8
0
  6
Continuous
 62
     7
370
    15
100
AcDbCircle
 10
1871.608008124268
 20
755.9397266018821
 30
0.0
 40
1.845757852674962
100
AcDbArc
 50
135.4297329977767
 51
184.4702979240249
  0
LINE
  5
C00
330
B09
100
AcDbEntity
  8
0
  6
Continuous
 62
     7
370
    15
100
AcDbLine
 10
1870.42557347232
 20
751.1799926632345
 30
0.0
 11
1869.767865301585
 21
755.7958640186923
 31
0.0
  0
LWPOLYLINE
  5
C01
330
B09
100
AcDbEntity
  8
0
  6
Continuous
 62
     7
370
    15
100
AcDbPolyline
 90
        9
 70
   128
 43
0.0
 10
1870.969292697789
 20
750.9729208854396
 10
1870.874620488767
 20
750.9020019559409
 10
1870.78254358748
 20
750.8582467044316
 10
1870.695865293303
 20
750.8429648235339
 10
1870.617217603702
 20
750.8566706961339
 10
1870.548981199115
 20
750.8989136811207
 10
1870.493251071242
 20
750.9684211968601
 10
1870.451689414954
 20
751.0630679860858
 10
1870.42557347232
 20
751.1799926632345
  0
LINE
  5
C02
330
B09
100
AcDbEntity
  8
0
  6
Continuous
 62
     7
370
    15
100
AcDbLine
 10
1871.144550690424
 20
751.1275962121418
 30
0.0
 11
1870.969292697789
 21
750.9729208854396
 31
0.0
  0
LWPOLYLINE
  5
C03
330
B09
100
AcDbEntity
  8
0
  6
Continuous
 62
     7
370
    15
100
AcDbPolyline
 90
        9
 70
   128
 43
0.0
 10
1871.421340380884
 20
750.956244529569
 10
1871.41519999369
 20
751.031910821101
 10
1871.398857499386
 20
751.0954516292463
 10
1871.37289749225
 20
751.1444100036235
 10
1871.338356887405
 20
751.1769016116972
 10
1871.296527493016
 20
751.1916882380294
 10
1871.249054174038
 20
751.1881900972537
 10
1871.197737424403
 20
751.1665593333268
 10
1871.144550690424
 20
751.1275962121418
  0
LINE
  5
C04
330
B09
100
AcDbEntity
  8
0
  6
Continuous
 62
     7
370
    15
100
AcDbLine
 10
1871.423184504376
 20
750.791786694333
 30
0.0
 11
1871.421340380884
 21
750.956244529569
 31
0.0
  0
ARC
  5
C05
330
B09
100
AcDbEntity
  8
0
  6
Continuous
 62
     7
370
    15
100
AcDbCircle
 10
1870.478105976982
 20
750.798948348867
 30
0.0
 40
0.9451056619439626
100
AcDbArc
 50
315.7967420317597
 51
359.5658300202144
  0
LINE
  5
C06
330
B09
100
AcDbEntity
  8
0
  6
Continuous
 62
     7
370
    15
100
AcDbLine
 10
1870.980269452887
 20
749.9852539029489
 30
0.0
 11
1871.155624784035
 21
750.140015136525
 31
0.0
  0
ARC
  5
C07
330
B09
100
AcDbEntity
  8
0
  6
Continuous
 62
     7
370
    15
100
AcDbCircle
 10
1870.193512840685
 20
750.8060039554252
 30
0.0
 40
1.136932986364443
100
AcDbArc
 50
284.4953405731759
 51
313.7885646406957
  0
ARC
  5
C08
330
B09
100
AcDbEntity
  8
0
  6
Continuous
 62
     7
370
    15
100
AcDbCircle
 10
1870.597256300449
 20
749.3555133811209
 30
0.0
 40
0.3694927730615971
100
AcDbArc
 50
108.8152087876482
 51
148.9958514941158
  0
LWPOLYLINE
  5
C09
330
B09
100
AcDbEntity
  8
0
  6
Continuous
 62
     7
370
    15
100
AcDbPolyline
 90
       14
 70
   128
 43
0.0
 10
1869.596640010568
 20
750.7083652254951
 10
1869.501314977872
 20
750.4633525385965
 10
1869.430516623577
 20
750.212462071215
 10
1869.387379815151
 20
749.9668837100072
 10
1869.373830934465
 20
749.737459231218
 10
1869.390460018665
 20
749.5343960390799
 10
1869.436527086961
 20
749.3667029459139
 10
1869.509999263133
 20
749.2418017756535
 10
1869.607619518957
 20
749.1652411968946
 10
1869.725057083232
 20
749.1404330824054
 10
1869.857073523726
 20
749.1684522490512
 10
1869.997850234739
 20
749.2480529697401
 10
1870.141134995039
 20
749.375748771134
 10
1870.280552957259
 20
749.5458391590837
  0
ARC
  5
C0A
330
B09
100
AcDbEntity
  8
0
  6
Continuous
 62
     7
370
    15
100
AcDbCircle
 10
1868.789281646333
 20
751.0936168447677
 30
0.0
 40
0.8945648877821437
100
AcDbArc
 50
334.4906676189221
 51
4.715138197799832
  0
LINE
  5
C0B
330
B09
100
AcDbEntity
  8
0
  6
Continuous
 62
     7
370
    15
100
AcDbLine
 10
1869.047099904686
 20
755.6146978850152
 30
0.0
 11
1869.680819060799
 21
751.1671517144527
 31
0.0
  0
LWPOLYLINE
  5
C0C
330
B09
100
AcDbEntity
  8
0
  6
Continuous
 62
     7
370
    15
100
AcDbPolyline
 90
        9
 70
   128
 43
0.0
 10
1868.503380679218
 20
755.82176966281
 10
1868.598052888239
 20
755.8926885923088
 10
1868.69011356644
 20
755.9364295260059
 10
1868.776792135696
 20
755.9516868756035
 10
1868.855439550219
 20
755.9380055343033
 10
1868.923675954805
 20
755.8957625493166
 10
1868.979422305764
 20
755.8262693513896
 10
1869.020983962053
 20
755.7316225621639
 10
1869.047099904686
 20
755.6146978850152
  0
LINE
  5
C0D
330
B09
100
AcDbEntity
  8
0
  6
Continuous
 62
     7
370
    15
100
AcDbLine
 10
1867.603648357496
 20
755.0277037904687
 30
0.0
 11
1868.503380679218
 21
755.82176966281
 31
0.0
  0
ARC
  5
C0E
330
B09
100
AcDbEntity
  8
0
  6
Continuous
 62
     7
370
    15
100
AcDbCircle
 10
1868.28116716455
 20
754.3687705781267
 30
0.0
 40
0.9451056619438835
100
AcDbArc
 50
135.7967420317507
 51
179.5658300202144
  0
LINE
  5
C0F
330
B09
100
AcDbEntity
  8
0
  6
Continuous
 62
     7
370
    15
100
AcDbLine
 10
1867.367964410754
 20
751.5332697193368
 30
0.0
 11
1867.336088637155
 21
754.3759322326608
 31
0.0
  0
LWPOLYLINE
  5
C10
330
B09
100
AcDbEntity
  8
0
  6
Continuous
 62
     7
370
    15
100
AcDbPolyline
 90
        9
 70
   128
 43
0.0
 10
1867.508056759595
 20
751.2969420579736
 10
1867.478114308374
 20
751.3007157051609
 10
1867.450948179311
 20
751.3125881059086
 10
1867.427019495752
 20
751.3323468764625
 10
1867.406741537022
 20
751.3596630857307
 10
1867.390447567329
 20
751.3940380883597
 10
1867.378422181625
 20
751.4349302855594
 10
1867.37088673299
 20
751.4815936194897
 10
1867.367964410754
 20
751.5332697193368
  0
LINE
  5
C11
330
B09
100
AcDbEntity
  8
0
  6
Continuous
 62
     7
370
    15
100
AcDbLine
 10
1867.892146679163
 20
751.3005818092096
 30
0.0
 11
1867.508056759595
 21
751.2969420579736
 31
0.0
  0
LWPOLYLINE
  5
C12
330
B09
100
AcDbEntity
  8
0
  6
Continuous
 62
     7
370
    15
100
AcDbPolyline
 90
        9
 70
   128
 43
0.0
 10
1868.032239028005
 20
751.0642541478463
 10
1868.029316705769
 20
751.1159302476935
 10
1868.021764758969
 20
751.1626037951116
 10
1868.009755871429
 20
751.2034857788234
 10
1867.993461901736
 20
751.2378607814525
 10
1867.973183943006
 20
751.2651769907206
 10
1867.949255259448
 20
751.2849357612744
 10
1867.922089130384
 20
751.2968081620224
 10
1867.892146679163
 20
751.3005818092096
  0
LINE
  5
C13
330
B09
100
AcDbEntity
  8
0
  6
Continuous
 62
     7
370
    15
100
AcDbLine
 10
1868.047383452063
 20
749.7136834260499
 30
0.0
 11
1868.032239028005
 21
751.0642541478463
 31
0.0
  0
ARC
  5
C14
330
B09
100
AcDbEntity
  8
0
  6
Continuous
 62
     7
370
    15
100
AcDbCircle
 10
1867.466774082396
 20
749.72154927062
 30
0.0
 40
0.580662648752636
100
AcDbArc
 50
318.411222108475
 51
359.2238290480974
  0
LINE
  5
C15
330
B09
100
AcDbEntity
  8
0
  6
Continuous
 62
     7
370
    15
100
AcDbLine
 10
1867.362013138666
 20
748.7882527164765
 30
0.0
 11
1867.901068002474
 21
749.3361171720094
 31
0.0
  0
ARC
  5
C16
330
B09
100
AcDbEntity
  8
0
  6
Continuous
 62
     7
370
    15
100
AcDbCircle
 10
1867.651513839514
 20
748.5313096805562
 30
0.0
 40
0.3870792935556658
100
AcDbArc
 50
138.4097090155518
 51
179.2279230787028
  0
LINE
  5
C17
330
B09
100
AcDbEntity
  8
0
  6
Continuous
 62
     7
370
    15
100
AcDbLine
 10
1867.272958598745
 20
747.7794896080835
 30
0.0
 11
1867.264469688992
 21
748.5365255262498
 31
0.0
  0
LWPOLYLINE
  5
C18
330
B09
100
AcDbEntity
  8
0
  6
Continuous
 62
     7
370
    15
100
AcDbPolyline
 90
        9
 70
   128
 43
0.0
 10
1867.364733598907
 20
747.6967545157697
 10
1867.346318163633
 20
747.6880083717278
 10
1867.328985529352
 20
747.6849744841508
 10
1867.313259236049
 20
747.6877185222333
 10
1867.299615254765
 20
747.6961650765331
 10
1867.288466039589
 20
747.7100588098585
 10
1867.280144029495
 20
747.7289746707563
 10
1867.274933819437
 20
747.7523710604359
 10
1867.272958598745
 20
747.7794896080835
  0
LINE
  5
C19
330
B09
100
AcDbEntity
  8
0
  6
Continuous
 62
     7
370
    15
100
AcDbLine
 10
1867.83042717512
 20
747.9826717711952
 30
0.0
 11
1867.364733598907
 21
747.6967545157697
 31
0.0
  0
LWPOLYLINE
  5
C1A
330
B09
100
AcDbEntity
  8
0
  6
Continuous
 62
     7
370
    15
100
AcDbPolyline
 90
        9
 70
   128
 43
0.0
 10
1867.940143711545
 20
747.6908720947797
 10
1867.958592963028
 20
747.7623512606903
 10
1867.967425749818
 20
747.8308431837344
 10
1867.96606795669
 20
747.892025966842
 10
1867.954611165084
 20
747.9421156806495
 10
1867.933762883529
 20
747.9779215352616
 10
1867.904858369485
 20
747.9972526988652
 10
1867.86968080001
 20
747.998883458292
 10
1867.83042717512
 20
747.9826717711952
  0
LINE
  5
C1B
330
B09
100
AcDbEntity
  8
0
  6
Continuous
 62
     7
370
    15
100
AcDbLine
 10
1867.66580554743
 20
746.8356192631051
 30
0.0
 11
1867.940143711545
 21
747.6908720947797
 31
0.0
  0
ARC
  5
C1C
330
B09
100
AcDbEntity
  8
0
  6
Continuous
 62
     7
370
    15
100
AcDbCircle
 10
1862.696360378887
 20
748.2752485247196
 30
0.0
 40
5.173772095294858
100
AcDbArc
 50
314.7674314883671
 51
343.8438996999835
  0
LINE
  5
C1D
330
B09
100
AcDbEntity
  8
0
  6
Continuous
 62
     7
370
    15
100
AcDbLine
 10
1863.353852475368
 20
741.9666687147979
 30
0.0
 11
1866.339889815222
 21
744.6020195717944
 31
0.0
  0
LWPOLYLINE
  5
C1E
330
B09
100
AcDbEntity
  8
0
  6
Continuous
 62
     7
370
    15
100
AcDbPolyline
 90
        9
 70
   128
 43
0.0
 10
1862.80027281937
 20
742.3093966112435
 10
1862.812521422664
 20
742.1580108612547
 10
1862.845238857442
 20
742.030957880589
 10
1862.897142373552
 20
741.9330513453222
 10
1862.966240081406
 20
741.8680579156871
 10
1863.049866148933
 20
741.8384805586979
 10
1863.144829285054
 20
741.8454666267619
 10
1863.247478732332
 20
741.8887670037279
 10
1863.353852475368
 20
741.9666687147979
  0
LINE
  5
C1F
330
B09
100
AcDbEntity
  8
0
  6
Continuous
 62
     7
370
    15
100
AcDbLine
 10
1862.771659471879
 20
744.8611179065035
 30
0.0
 11
1862.80027281937
 21
742.3093966112435
 31
0.0
  0
ARC
  5
C20
330
B09
100
AcDbEntity
  8
0
  6
Continuous
 62
     7
370
    15
100
AcDbCircle
 10
1863.716737999273
 20
744.8539562519695
 30
0.0
 40
0.9451056619435988
100
AcDbArc
 50
135.796742031746
 51
179.5658300202144
  0
LINE
  5
C21
330
B09
100
AcDbEntity
  8
0
  6
Continuous
 62
     7
370
    15
100
AcDbLine
 10
1863.30047576108
 20
745.7434635142247
 30
0.0
 11
1863.03921919222
 21
745.5128894643114
 31
0.0
  0
LWPOLYLINE
  5
C22
330
B09
100
AcDbEntity
  8
0
  6
Continuous
 62
     7
370
    15
100
AcDbPolyline
 90
        9
 70
   128
 43
0.0
 10
1863.538521321599
 20
745.7456980382828
 10
1863.518227139783
 20
745.7729999297385
 10
1863.494298456225
 20
745.7927587002924
 10
1863.467132327162
 20
745.8046311010402
 10
1863.437205823947
 20
745.8084435973399
 10
1863.404995742858
 20
745.8040471858488
 10
1863.371089966063
 20
745.7916138696114
 10
1863.336043929565
 20
745.7712870160471
 10
1863.30047576108
 20
745.7434635142247
  0
LINE
  5
C23
330
B09
100
AcDbEntity
  8
0
  6
Continuous
 62
     7
370
    15
100
AcDbLine
 10
1863.945357801148
 20
745.0591650657672
 30
0.0
 11
1863.538521321599
 21
745.7456980382828
 31
0.0
  0
ARC
  5
C24
330
B09
100
AcDbEntity
  8
0
  6
Continuous
 62
     7
370
    15
100
AcDbCircle
 10
1863.711097806495
 20
744.9913747955725
 30
0.0
 40
0.2438714124857144
100
AcDbArc
 50
320.2219898047092
 51
16.13941144705716
  0
LWPOLYLINE
  5
C25
330
B09
100
AcDbEntity
  8
0
  6
Continuous
 62
     7
370
    15
100
AcDbPolyline
 90
       11
 70
   128
 43
0.0
 10
1864.021375282215
 20
743.719583066801
 10
1863.905502467612
 20
743.6428358928885
 10
1863.798528209548
 20
743.6228710032683
 10
1863.709247922152
 20
743.6613812124774
 10
1863.64493921459
 20
743.7551523178678
 10
1863.61086502061
 20
743.896541223336
 10
1863.609825397345
 20
744.0739970164904
 10
1863.641901800518
 20
744.2729501099663
 10
1863.70447495147
 20
744.4771410359501
 10
1863.792407410755
 20
744.6698716371293
 10
1863.898520092814
 20
744.8353422591615
  0
LINE
  5
C26
330
B09
100
AcDbEntity
  8
0
  6
Continuous
 62
     7
370
    15
100
AcDbLine
 10
1864.701949941943
 20
744.3202296122498
 30
0.0
 11
1864.021375282215
 21
743.719583066801
 31
0.0
  0
ARC
  5
C27
330
B09
100
AcDbEntity
  8
0
  6
Continuous
 62
     7
370
    15
100
AcDbCircle
 10
1864.061497104606
 20
744.9588626071744
 30
0.0
 40
0.9044511811365985
100
AcDbArc
 50
315.0815185475548
 51
7.079986846756399
  0
LINE
  5
C28
330
B09
100
AcDbEntity
  8
0
  6
Continuous
 62
     7
370
    15
100
AcDbLine
 10
1863.651894732212
 20
750.9238964391056
 30
0.0
 11
1864.959051891413
 21
745.0703406038353
 31
0.0
  0
LWPOLYLINE
  5
C29
330
B09
100
AcDbEntity
  8
0
  6
Continuous
 62
     7
370
    15
100
AcDbPolyline
 90
        9
 70
   128
 43
0.0
 10
1863.119246841043
 20
751.0699597858083
 10
1863.208045461358
 20
751.1372309256528
 10
1863.294718955297
 20
751.1807014643911
 10
1863.376953741908
 20
751.1992213994711
 10
1863.452543475042
 20
751.1923051729272
 10
1863.519487207099
 20
751.1601439843546
 10
1863.575973441022
 20
751.1035669417963
 10
1863.620510190058
 20
751.0241310729426
 10
1863.651894732212
 20
750.9238964391056
  0
LINE
  5
C2A
330
B09
100
AcDbEntity
  8
0
  6
Continuous
 62
     7
370
    15
100
AcDbLine
 10
1863.059951463547
 20
751.0176281817079
 30
0.0
 11
1863.119246841043
 21
751.0699597858083
 31
0.0
  0
LWPOLYLINE
  5
C2B
330
B09
100
AcDbEntity
  8
0
  6
Continuous
 62
     7
370
    15
100
AcDbPolyline
 90
        9
 70
   128
 43
0.0
 10
1862.783161773088
 20
751.1889798642807
 10
1862.789285937196
 20
751.1132992549362
 10
1862.805644654585
 20
751.0497727646034
 10
1862.831588438636
 20
751.0008000724138
 10
1862.866145266567
 20
750.9683227821524
 10
1862.90795843787
 20
750.9535218380078
 10
1862.955447979934
 20
750.957034296596
 10
1863.006764729568
 20
750.9786650605228
 10
1863.059951463547
 20
751.0176281817079
  0
LINE
  5
C2C
330
B09
100
AcDbEntity
  8
0
  6
Continuous
 62
     7
370
    15
100
AcDbLine
 10
1862.775777576931
 20
751.8474980816251
 30
0.0
 11
1862.841708196395
 21
751.9056856709724
 31
0.0
  0
LINE
  5
C2D
330
B09
100
AcDbEntity
  8
0
  6
Continuous
 62
     7
370
    15
100
AcDbLine
 10
1890.382037053207
 20
775.5465853941371
 30
0.0
 11
1890.374863566864
 21
776.1863126356776
 31
0.0
  0
LINE
  5
C2E
330
B09
100
AcDbEntity
  8
0
  6
Continuous
 62
     7
370
    15
100
AcDbLine
 10
1856.634565306825
 20
754.1458387553301
 30
0.0
 11
1856.568634687361
 21
754.087651165983
 31
0.0
  0
ELLIPSE
  5
C2F
330
B09
100
AcDbEntity
  8
0
  6
Continuous
 62
     7
370
    15
100
AcDbEllipse
 10
1861.79546907602
 20
762.172287447534
 30
0.0
 11
0.9641835801179464
 21
1.577186644688197
 31
0.0
210
0.0
220
0.0
230
1.0
 40
0.4748008136409631
 41
3.238699450925528
 42
3.762298226523999
  0
LINE
  5
C30
330
B09
100
AcDbEntity
  8
0
  6
Continuous
 62
     7
370
    15
100
AcDbLine
 10
1858.617290390633
 20
761.3850080792137
 30
0.0
 11
1860.908426950052
 21
760.5581386609358
 31
0.0
  0
ELLIPSE
  5
C31
330
B09
100
AcDbEntity
  8
0
  6
Continuous
 62
     7
370
    15
100
AcDbEllipse
 10
1859.504335324427
 20
762.9991558524698
 30
0.0
 11
0.9641835801178332
 21
1.577186644688254
 31
0.0
210
0.0
220
0.0
230
1.0
 40
0.4748008136409602
 41
2.715100675327323
 42
3.238699450925798
  0
LINE
  5
C32
330
B09
100
AcDbEntity
  8
0
  6
Continuous
 62
     7
370
    15
100
AcDbLine
 10
1857.842972047671
 20
763.5432109499345
 30
0.0
 11
1858.316734442829
 21
761.7526432811348
 31
0.0
  0
ELLIPSE
  5
C33
330
B09
100
AcDbEntity
  8
0
  6
Continuous
 62
     7
370
    15
100
AcDbEllipse
 10
1856.165365384596
 20
764.1486594274925
 30
0.0
 11
1.608846565743533
 21
-1.196353349655226
 31
0.0
210
0.0
220
0.0
230
1.0
 40
0.4903039805614026
 41
0.5516683517570025
 42
1.358625551800012
  0
LINE
  5
C34
330
B09
100
AcDbEntity
  8
0
  6
Continuous
 62
     7
370
    15
100
AcDbLine
 10
1855.716949219657
 20
766.321441977197
 30
0.0
 11
1862.264037536209
 21
763.9586028502726
 31
0.0
  0
ARC
  5
C35
330
B09
100
AcDbEntity
  8
0
  6
Continuous
 62
     7
370
    15
100
AcDbCircle
 10
1850.637618450856
 20
755.6172770317227
 30
0.0
 40
0.2297858709762734
100
AcDbArc
 50
170.765547037104
 51
237.2318681517866
  0
ELLIPSE
  5
C36
330
B09
100
AcDbEntity
  8
0
  6
Continuous
 62
     7
370
    15
100
AcDbEllipse
 10
1855.022996166158
 20
763.2161781020196
 30
0.0
 11
-1.076012384664181
 21
3.473409181948171
 31
0.0
210
0.0
220
0.0
230
1.0
 40
0.2674393664598624
 41
3.257224734871967
 42
3.45636004120165
  0
ELLIPSE
  5
C37
330
B09
100
AcDbEntity
  8
0
  6
Continuous
 62
     7
370
    15
100
AcDbEllipse
 10
1856.06145218243
 20
758.857002798943
 30
0.0
 11
0.691545440185678
 21
1.13714196150687
 31
0.0
210
0.0
220
0.0
230
1.0
 40
0.3714467306838229
 41
0.851918052089598
 42
1.37551730804223
  0
ELLIPSE
  5
C38
330
B09
100
AcDbEntity
  8
0
  6
Continuous
 62
     7
370
    15
100
AcDbEllipse
 10
1854.417008585093
 20
765.7599604631846
 30
0.0
 11
-1.366970582618534
 21
2.332953122204798
 31
0.0
210
0.0
220
0.0
230
1.0
 40
0.2375016778376694
 41
4.814814693010113
 42
4.841783356050167
  0
LINE
  5
C39
330
B09
100
AcDbEntity
  8
0
  6
Continuous
 62
     7
370
    15
100
AcDbLine
 10
1854.828421562299
 20
766.3214650819743
 30
0.0
 11
1856.333738033147
 21
760.0025341254569
 31
0.0
  0
ELLIPSE
  5
C3A
330
B09
100
AcDbEntity
  8
0
  6
Continuous
 62
     7
370
    15
100
AcDbEllipse
 10
1859.251612549191
 20
757.7056763815662
 30
0.0
 11
-0.3902325011413269
 21
1.200424163200352
 31
0.0
210
0.0
220
0.0
230
1.0
 40
0.1052962342847389
 41
0.6085471681036699
 42
1.132146423814409
  0
ARC
  5
C3B
330
B09
100
AcDbEntity
  8
0
  6
Continuous
 62
     7
370
    15
100
AcDbCircle
 10
1858.981254480589
 20
759.7523678575408
 30
0.0
 40
1.092102319678111
100
AcDbArc
 50
263.5817549608217
 51
284.6154347626642
  0
ELLIPSE
  5
C3C
330
B09
100
AcDbEntity
  8
0
  6
Continuous
 62
     7
370
    15
100
AcDbEllipse
 10
1856.06145218243
 20
758.857002798943
 30
0.0
 11
1.246899126923835
 21
0.5238906435128002
 31
0.0
210
0.0
220
0.0
230
1.0
 40
0.4030445490175707
 41
1.102841724105784
 42
1.62644098006577
  0
LINE
  5
C3D
330
B09
100
AcDbEntity
  8
0
  6
Continuous
 62
     7
370
    15
100
AcDbLine
 10
1858.85917340993
 20
758.6671104277882
 30
0.0
 11
1856.435433448182
 21
759.5418363117556
 31
0.0
  0
ELLIPSE
  5
C3E
330
B09
100
AcDbEntity
  8
0
  6
Continuous
 62
     7
370
    15
100
AcDbEllipse
 10
1864.033786016921
 20
759.1443882845135
 30
0.0
 11
5.190334991002998
 21
0.6033402250707809
 31
0.0
210
0.0
220
0.0
230
1.0
 40
0.2200712020862384
 41
2.834937456112529
 42
3.034072762441307
  0
ARC
  5
C3F
330
B09
100
AcDbEntity
  8
0
  6
Continuous
 62
     7
370
    15
100
AcDbCircle
 10
1859.327737723059
 20
759.6381939255852
 30
0.0
 40
0.777234044038117
100
AcDbArc
 50
248.7084910813301
 51
280.0731072975345
  0
LINE
  5
C40
330
B09
100
AcDbEntity
  8
0
  6
Continuous
 62
     7
370
    15
100
AcDbLine
 10
1860.908426950052
 20
760.5581386609358
 30
0.0
 11
1859.045513819226
 21
758.9140099521939
 31
0.0
  0
ELLIPSE
  5
C41
330
B09
100
AcDbEntity
  8
0
  6
Continuous
 62
     7
370
    15
100
AcDbEllipse
 10
1855.03222625511
 20
762.3930442641173
 30
0.0
 11
-1.508314104671228
 21
2.801453899063062
 31
0.0
210
0.0
220
0.0
230
1.0
 40
0.5935634816921115
 41
3.080059033801404
 42
3.279194340131176
  0
LINE
  5
C42
330
B09
100
AcDbEntity
  8
0
  6
Continuous
 62
     7
370
    15
100
AcDbLine
 10
1858.617290390633
 20
761.3850080792137
 30
0.0
 11
1856.754377259808
 21
759.7408793704716
 31
0.0
  0
LINE
  5
C43
330
B09
100
AcDbEntity
  8
0
  6
Continuous
 62
     7
370
    15
100
AcDbLine
 10
1856.333738033147
 20
760.0025341254569
 30
0.0
 11
1858.316734442829
 21
761.7526432811348
 31
0.0
  0
LINE
  5
C44
330
B09
100
AcDbEntity
  8
0
  6
Continuous
 62
     7
370
    15
100
AcDbLine
 10
1857.842972047671
 20
763.5432109499345
 30
0.0
 11
1854.828421562299
 21
766.3214650819743
 31
0.0
  0
LINE
  5
C45
330
B09
100
AcDbEntity
  8
0
  6
Continuous
 62
     7
370
    15
100
AcDbLine
 10
1862.263196897577
 20
764.033570503089
 30
0.0
 11
1855.716108581025
 21
766.3964096300136
 31
0.0
  0
LINE
  5
C46
330
B09
100
AcDbEntity
  8
0
  6
Continuous
 62
     7
370
    15
100
AcDbLine
 10
1852.696037861283
 20
751.2980169011557
 30
0.0
 11
1853.086039716116
 21
749.551507381582
 31
0.0
  0
LINE
  5
C47
330
B09
100
AcDbEntity
  8
0
  6
Continuous
 62
     7
370
    15
100
AcDbLine
 10
1852.316801379987
 20
751.4348830549387
 30
0.0
 11
1852.696037861283
 21
751.2980169011557
 31
0.0
  0
LINE
  5
C48
330
B09
100
AcDbEntity
  8
0
  6
Continuous
 62
     7
370
    15
100
AcDbLine
 10
1852.149037889925
 20
751.4954287691891
 30
0.0
 11
1852.316801379987
 21
751.4348830549387
 31
0.0
  0
LINE
  5
C49
330
B09
100
AcDbEntity
  8
0
  6
Continuous
 62
     7
370
    15
100
AcDbLine
 10
1851.338226904269
 20
755.1263282474342
 30
0.0
 11
1852.149037889925
 21
751.4954287691891
 31
0.0
  0
ARC
  5
C4A
330
B09
100
AcDbEntity
  8
0
  6
Continuous
 62
     7
370
    15
100
AcDbCircle
 10
1857.224847517737
 20
760.5044045848858
 30
0.0
 40
1.24487439271925
100
AcDbArc
 50
214.5072567286492
 51
230.6444006162367
  0
ARC
  5
C4B
330
B09
100
AcDbEntity
  8
0
  6
Continuous
 62
     7
370
    15
100
AcDbCircle
 10
1857.197760109838
 20
760.9226064293754
 30
0.0
 40
1.262167656631248
100
AcDbArc
 50
226.799448253468
 51
249.4339576146765
  0
ARC
  5
C4C
330
B09
100
AcDbEntity
  8
0
  6
Continuous
 62
     7
370
    15
100
AcDbCircle
 10
1851.344386843078
 20
749.3191282475879
 30
0.0
 40
0.9451056619437611
100
AcDbArc
 50
135.7967420317507
 51
179.5658300202144
  0
LINE
  5
C4D
330
B09
100
AcDbEntity
  8
0
  6
Continuous
 62
     7
370
    15
100
AcDbLine
 10
1863.03921919222
 20
745.5128894643114
 30
0.0
 11
1850.666868036024
 21
749.9780614599298
 31
0.0
  0
LINE
  5
C4E
330
B09
100
AcDbEntity
  8
0
  6
Continuous
 62
     7
370
    15
100
AcDbLine
 10
1862.771659471879
 20
744.8611179065035
 30
0.0
 11
1850.399308315683
 21
749.3262899021219
 31
0.0
  0
LINE
  5
C4F
330
B09
100
AcDbEntity
  8
0
  6
Continuous
 62
     7
370
    15
100
AcDbLine
 10
1850.427921663175
 20
746.7745686068619
 30
0.0
 11
1850.399308315683
 21
749.3262899021219
 31
0.0
  0
LINE
  5
C50
330
B09
100
AcDbEntity
  8
0
  6
Continuous
 62
     7
370
    15
100
AcDbLine
 10
1862.80027281937
 20
742.3093966112435
 30
0.0
 11
1850.427921663175
 21
746.7745686068619
 31
0.0
  0
LINE
  5
C51
330
B09
100
AcDbEntity
  8
0
  6
Continuous
 62
     7
370
    15
100
AcDbLine
 10
1850.666868036024
 20
749.9780614599298
 30
0.0
 11
1852.046187211239
 21
751.1953905006476
 31
0.0
  0
LINE
  5
C52
330
B09
100
AcDbEntity
  8
0
  6
Continuous
 62
     7
370
    15
100
AcDbLine
 10
1852.593187182597
 20
750.9979786326141
 30
0.0
 11
1852.046187211239
 21
751.1953905006476
 31
0.0
  0
LINE
  5
C53
330
B09
100
AcDbEntity
  8
0
  6
Continuous
 62
     7
370
    15
100
AcDbLine
 10
1851.475124576243
 20
750.0112236418094
 30
0.0
 11
1852.593187182597
 21
750.9979786326141
 31
0.0
  0
LINE
  5
C54
330
B09
100
AcDbEntity
  8
0
  6
Continuous
 62
     7
370
    15
100
AcDbLine
 10
1863.30047576108
 20
745.7434635142247
 30
0.0
 11
1851.475124576243
 21
750.0112236418094
 31
0.0
  0
ARC
  5
C55
330
B09
100
AcDbEntity
  8
0
  6
Continuous
 62
     7
370
    15
100
AcDbCircle
 10
1851.611450400255
 20
749.8947147313018
 30
0.0
 40
0.1793294636141108
100
AcDbArc
 50
77.7579227235022
 51
139.4816190782972
  0
ARC
  5
C56
330
B09
100
AcDbEntity
  8
0
  6
Continuous
 62
     7
370
    15
100
AcDbCircle
 10
1850.881545737116
 20
746.7008022418824
 30
0.0
 40
0.4595827205860333
100
AcDbArc
 50
170.7636591563047
 51
237.2315436263731
  0
ARC
  5
C57
330
B09
100
AcDbEntity
  8
0
  6
Continuous
 62
     7
370
    15
100
AcDbCircle
 10
1874.298748336298
 20
810.1549504554121
 30
0.0
 40
0.1791174445255912
100
AcDbArc
 50
77.71738584924211
 51
139.5221559525023
  0
ARC
  5
C58
330
B09
100
AcDbEntity
  8
0
  6
Continuous
 62
     7
370
    15
100
AcDbCircle
 10
1852.336976385835
 20
751.2534529327894
 30
0.0
 40
0.3618163766715472
100
AcDbArc
 50
315.0824689191914
 51
7.074935494333038
  0
ARC
  5
C59
330
B09
100
AcDbEntity
  8
0
  6
Continuous
 62
     7
370
    15
100
AcDbCircle
 10
1851.789976414476
 20
751.4508648008232
 30
0.0
 40
0.3618163766717589
100
AcDbArc
 50
315.0824689191914
 51
7.074935494313645
  0
LINE
  5
C5A
330
B09
100
AcDbEntity
  8
0
  6
Continuous
 62
     7
370
    15
100
AcDbLine
 10
1888.571736995133
 20
800.3819767491942
 30
0.0
 11
1889.890127792813
 21
799.9061705265317
 31
0.0
  0
LINE
  5
C5B
330
B09
100
AcDbEntity
  8
0
  6
Continuous
 62
     8
370
    15
100
AcDbLine
 10
1861.019676912337
 20
798.6719216246509
 30
0.0
 11
1863.754376789708
 21
797.684970546824
 31
0.0
  0
LINE
  5
C5C
330
B09
100
AcDbEntity
  8
0
  6
Continuous
 62
     8
370
    15
100
AcDbLine
 10
1868.189378762542
 20
796.0843817533437
 30
0.0
 11
1873.598170175509
 21
794.1323531015195
 31
0.0
  0
LINE
  5
C5D
330
B09
100
AcDbEntity
  8
0
  6
Continuous
 62
     8
370
    15
100
AcDbLine
 10
1865.816204706504
 20
786.6456583469632
 30
0.0
 11
1866.095810523273
 21
786.5447488232124
 31
0.0
  0
LINE
  5
C5E
330
B09
100
AcDbEntity
  8
0
  6
Continuous
 62
     8
370
    15
100
AcDbLine
 10
1864.721526267086
 20
779.1289947054971
 30
0.0
 11
1864.896326774351
 21
779.0659093371621
 31
0.0
  0
LINE
  5
C5F
330
B09
100
AcDbEntity
  8
0
  6
Continuous
 62
     8
370
    15
100
AcDbLine
 10
1866.006004813552
 20
783.7387717340399
 30
0.0
 11
1866.174749486296
 21
783.6778719117153
 31
0.0
  0
LINE
  5
C60
330
B09
100
AcDbEntity
  8
0
  6
Continuous
 62
     8
370
    15
100
AcDbLine
 10
1862.885413561691
 20
776.1623497189177
 30
0.0
 11
1863.124490909043
 21
776.07606688854
 31
0.0
  0
LINE
  5
C61
330
B09
100
AcDbEntity
  8
0
  6
Continuous
 62
     8
370
    15
100
AcDbLine
 10
1862.873712543
 20
776.308667448872
 30
0.0
 11
1863.222826090975
 21
776.1826726385061
 31
0.0
  0
LINE
  5
C62
330
B09
100
AcDbEntity
  8
0
  6
Continuous
 62
     8
370
    15
100
AcDbLine
 10
1864.709830508067
 20
778.8948926580411
 30
0.0
 11
1864.731004055389
 21
778.8872511411329
 31
0.0
  0
LINE
  5
C63
330
B09
100
AcDbEntity
  8
0
  6
Continuous
 62
     8
370
    15
100
AcDbLine
 10
1864.695329172368
 20
778.9174669475877
 30
0.0
 11
1864.777823512586
 21
778.88769480379
 31
0.0
  0
LINE
  5
C64
330
B09
100
AcDbEntity
  8
0
  6
Continuous
 62
     8
370
    15
100
AcDbLine
 10
1858.971446389126
 20
758.1783316668439
 30
0.0
 11
1862.311105099519
 21
759.7609483467197
 31
0.0
  0
LINE
  5
C65
330
B09
100
AcDbEntity
  8
0
  6
Continuous
 62
     8
370
    15
100
AcDbLine
 10
1862.305959914518
 20
760.2198555854588
 30
0.0
 11
1859.463679543732
 21
758.8729406468571
 31
0.0
  0
LINE
  5
C66
330
B09
100
AcDbEntity
  8
0
  6
Continuous
 62
     8
370
    15
100
AcDbLine
 10
1874.344168103478
 20
786.6127126417104
 30
0.0
 11
1874.452566916438
 21
786.573591593667
 31
0.0
  0
LINE
  5
C67
330
B09
100
AcDbEntity
  8
0
  6
Continuous
 62
     8
370
    15
100
AcDbLine
 10
1874.288056390826
 20
791.4388092137419
 30
0.0
 11
1878.317473690064
 21
789.9845956163365
 31
0.0
  0
LINE
  5
C68
330
B09
100
AcDbEntity
  8
0
  6
Continuous
 62
     8
370
    15
100
AcDbLine
 10
1874.28468479281
 20
791.7393684036716
 30
0.0
 11
1878.424500767802
 21
790.2453120092821
 31
0.0
  0
LINE
  5
C69
330
B09
100
AcDbEntity
  8
0
  6
Continuous
 62
     8
370
    15
100
AcDbLine
 10
1863.651894732212
 20
750.9238964391056
 30
0.0
 11
1863.15807861201
 21
751.1021142962513
 31
0.0
  0
LINE
  5
C6A
330
B09
100
AcDbEntity
  8
0
  6
Continuous
 62
     8
370
    15
100
AcDbLine
 10
1864.959051891413
 20
745.0703406038353
 30
0.0
 11
1863.661147188221
 21
745.5387534107881
 31
0.0
  0
LINE
  5
C6B
330
B09
100
AcDbEntity
  8
0
  6
Continuous
 62
     8
370
    15
100
AcDbLine
 10
1866.729256745654
 20
753.6452473564109
 30
0.0
 11
1866.371781271376
 21
753.7742599795344
 31
0.0
  0
LINE
  5
C6C
330
B09
100
AcDbEntity
  8
0
  6
Continuous
 62
     8
370
    15
100
AcDbLine
 10
1866.482746412546
 20
746.2786584308839
 30
0.0
 11
1865.41255108664
 21
746.664891099093
 31
0.0
  0
LINE
  5
C6D
330
B09
100
AcDbEntity
  8
0
  6
Continuous
 62
     8
370
    15
100
AcDbLine
 10
1864.021375282215
 20
743.719583066801
 30
0.0
 11
1863.614871921648
 21
743.8662898162954
 31
0.0
  0
LINE
  5
C6E
330
B09
100
AcDbEntity
  8
0
  6
Continuous
 62
     8
370
    15
100
AcDbLine
 10
1864.701949941943
 20
744.3202296122498
 30
0.0
 11
1863.782850499632
 21
744.6519318925347
 31
0.0
  0
LINE
  5
C6F
330
B09
100
AcDbEntity
  8
0
  6
Continuous
 62
     8
370
    15
100
AcDbLine
 10
1869.047099904686
 20
755.6146978850152
 30
0.0
 11
1868.494662806359
 21
755.8140720079809
 31
0.0
  0
LINE
  5
C70
330
B09
100
AcDbEntity
  8
0
  6
Continuous
 62
     8
370
    15
100
AcDbLine
 10
1867.508056759595
 20
751.2969420579736
 30
0.0
 11
1867.437461602997
 21
751.3224197955751
 31
0.0
  0
LINE
  5
C71
330
B09
100
AcDbEntity
  8
0
  6
Continuous
 62
     8
370
    15
100
AcDbLine
 10
1869.680819060799
 20
751.1671517144527
 30
0.0
 11
1867.362684353673
 21
752.003764743428
 31
0.0
  0
LINE
  5
C72
330
B09
100
AcDbEntity
  8
0
  6
Continuous
 62
     8
370
    15
100
AcDbLine
 10
1867.892146679163
 20
751.3005818092096
 30
0.0
 11
1867.370157491862
 21
751.4889673045554
 31
0.0
  0
LINE
  5
C73
330
B09
100
AcDbEntity
  8
0
  6
Continuous
 62
     8
370
    15
100
AcDbLine
 10
1865.941815474216
 20
745.4144827380984
 30
0.0
 11
1865.669877881344
 21
745.5126248057553
 31
0.0
  0
LINE
  5
C74
330
B09
100
AcDbEntity
  8
0
  6
Continuous
 62
     8
370
    15
100
AcDbLine
 10
1866.215515149654
 20
745.6560385500758
 30
0.0
 11
1865.587208256611
 21
745.8827940234738
 31
0.0
  0
LINE
  5
C75
330
B09
100
AcDbEntity
  8
0
  6
Continuous
 62
     8
370
    15
100
AcDbLine
 10
1886.626443735046
 20
801.9729962807472
 30
0.0
 11
1886.671078172761
 21
801.9568877465802
 31
0.0
  0
LINE
  5
C76
330
B09
100
AcDbEntity
  8
0
  6
Continuous
 62
     8
370
    15
100
AcDbLine
 10
1886.610287735542
 20
801.9645520552689
 30
0.0
 11
1886.681832826967
 21
801.9387314869209
 31
0.0
  0
LINE
  5
C77
330
B09
100
AcDbEntity
  8
0
  6
Continuous
 62
     8
370
    15
100
AcDbLine
 10
1867.364733598907
 20
747.6967545157697
 30
0.0
 11
1867.280789358163
 21
747.7270499275493
 31
0.0
  0
LINE
  5
C78
330
B09
100
AcDbEntity
  8
0
  6
Continuous
 62
     8
370
    15
100
AcDbLine
 10
1867.83042717512
 20
747.9826717711952
 30
0.0
 11
1867.268396984957
 21
748.1855080336101
 31
0.0
  0
LINE
  5
C79
330
B09
100
AcDbEntity
  8
0
  6
Continuous
 62
     8
370
    15
100
AcDbLine
 10
1869.596640010568
 20
750.7083652254951
 30
0.0
 11
1867.368555375276
 21
751.5124792529566
 31
0.0
  0
LINE
  5
C7A
330
B09
100
AcDbEntity
  8
0
  6
Continuous
 62
     8
370
    15
100
AcDbLine
 10
1887.6172052889
 20
800.0871652721293
 30
0.0
 11
1888.077817437164
 21
799.9209307028621
 31
0.0
  0
LINE
  5
C7B
330
B09
100
AcDbEntity
  8
0
  6
Continuous
 62
     8
370
    15
100
AcDbLine
 10
1887.252024658375
 20
800.8167936986016
 30
0.0
 11
1888.370085450321
 21
800.4132864205933
 31
0.0
  0
LINE
  5
C7C
330
B09
100
AcDbEntity
  8
0
  6
Continuous
 62
     8
370
    15
100
AcDbLine
 10
1887.73143555365
 20
799.7637978072458
 30
0.0
 11
1888.036364633038
 21
799.6537491375353
 31
0.0
  0
LINE
  5
C7D
330
B09
100
AcDbEntity
  8
0
  6
Continuous
 62
     8
370
    15
100
AcDbLine
 10
1887.832540049361
 20
799.4098450140841
 30
0.0
 11
1887.973299142143
 21
799.3590451659964
 31
0.0
  0
LINE
  5
C7E
330
B09
100
AcDbEntity
  8
0
  6
Continuous
 62
     8
370
    15
100
AcDbLine
 10
1887.803978134168
 20
799.5180992641896
 30
0.0
 11
1888.019194618568
 21
799.4404278008589
 31
0.0
  0
LINE
  5
C7F
330
B09
100
AcDbEntity
  8
0
  6
Continuous
 62
     8
370
    15
100
AcDbLine
 10
1887.736563666355
 20
799.7475818287508
 30
0.0
 11
1888.047186105132
 21
799.635478430025
 31
0.0
  0
LINE
  5
C80
330
B09
100
AcDbEntity
  8
0
  6
Continuous
 62
     8
370
    15
100
AcDbLine
 10
1870.969292697789
 20
750.9729208854396
 30
0.0
 11
1870.427286133842
 21
751.1685306365873
 31
0.0
  0
LINE
  5
C81
330
B09
100
AcDbEntity
  8
0
  6
Continuous
 62
     8
370
    15
100
AcDbLine
 10
1871.144550690424
 20
751.1275962121418
 30
0.0
 11
1870.394470901991
 21
751.3982994296229
 31
0.0
  0
LINE
  5
C82
330
B09
100
AcDbEntity
  8
0
  6
Continuous
 62
     8
370
    15
100
AcDbLine
 10
1889.180236058451
 20
799.6641907737524
 30
0.0
 11
1889.656665871495
 21
799.4922476214586
 31
0.0
  0
LINE
  5
C83
330
B09
100
AcDbEntity
  8
0
  6
Continuous
 62
     8
370
    15
100
AcDbLine
 10
1887.052488295456
 20
801.0959459922437
 30
0.0
 11
1889.888262488308
 21
800.0725172718682
 31
0.0
  0
LINE
  5
C84
330
B09
100
AcDbEntity
  8
0
  6
Continuous
 62
     8
370
    15
100
AcDbLine
 10
1883.431921293164
 20
767.8551846396485
 30
0.0
 11
1882.647306374122
 21
768.1383515591468
 31
0.0
  0
LINE
  5
C85
330
B09
100
AcDbEntity
  8
0
  6
Continuous
 62
     8
370
    15
100
AcDbLine
 10
1882.889591606523
 20
762.1802103876352
 30
0.0
 11
1877.926032147027
 21
763.971555170638
 31
0.0
  0
LINE
  5
C86
330
B09
100
AcDbEntity
  8
0
  6
Continuous
 62
     8
370
    15
100
AcDbLine
 10
1885.847570129376
 20
770.7133865449957
 30
0.0
 11
1885.513305562641
 21
770.834022369478
 31
0.0
  0
LINE
  5
C87
330
B09
100
AcDbEntity
  8
0
  6
Continuous
 62
     8
370
    15
100
AcDbLine
 10
1882.185885341876
 20
760.8722133834417
 30
0.0
 11
1876.669895033624
 21
762.8629300339448
 31
0.0
  0
LINE
  5
C88
330
B09
100
AcDbEntity
  8
0
  6
Continuous
 62
     8
370
    15
100
AcDbLine
 10
1881.918325621535
 20
760.2204418256337
 30
0.0
 11
1876.068070746548
 21
762.3317943006193
 31
0.0
  0
LINE
  5
C89
330
B09
100
AcDbEntity
  8
0
  6
Continuous
 62
     8
370
    15
100
AcDbLine
 10
1882.361143334511
 20
761.026888710144
 30
0.0
 11
1876.84515302626
 21
763.017605360647
 31
0.0
  0
LINE
  5
C8A
330
B09
100
AcDbEntity
  8
0
  6
Continuous
 62
     8
370
    15
100
AcDbLine
 10
1881.920169745027
 20
760.0559839903977
 30
0.0
 11
1875.936361532884
 21
762.2155357618193
 31
0.0
  0
LINE
  5
C8B
330
B09
100
AcDbEntity
  8
0
  6
Continuous
 62
     8
370
    15
100
AcDbLine
 10
1885.879445902975
 20
767.8707240316716
 30
0.0
 11
1884.101961602839
 21
768.5122167454997
 31
0.0
  0
LINE
  5
C8C
330
B09
100
AcDbEntity
  8
0
  6
Continuous
 62
     8
370
    15
100
AcDbLine
 10
1885.747347323331
 20
767.3941721148785
 30
0.0
 11
1884.053532282803
 21
768.0054686574062
 31
0.0
  0
LINE
  5
C8D
330
B09
100
AcDbEntity
  8
0
  6
Continuous
 62
     8
370
    15
100
AcDbLine
 10
1885.370688094639
 20
766.7264066920845
 30
0.0
 11
1883.979283556294
 21
767.2285635174735
 31
0.0
  0
LINE
  5
C8E
330
B09
100
AcDbEntity
  8
0
  6
Continuous
 62
     8
370
    15
100
AcDbLine
 10
1885.238589514994
 20
766.2498547752914
 30
0.0
 11
1883.930854236259
 21
766.72181542938
 31
0.0
  0
LINE
  5
C8F
330
B09
100
AcDbEntity
  8
0
  6
Continuous
 62
     8
370
    15
100
AcDbLine
 10
1885.253733939053
 20
764.8992840534949
 30
0.0
 11
1883.806595724491
 21
765.4215551196708
 31
0.0
  0
LINE
  5
C90
330
B09
100
AcDbEntity
  8
0
  6
Continuous
 62
     8
370
    15
100
AcDbLine
 10
1887.672997606676
 20
764.9015996638241
 30
0.0
 11
1886.807444490651
 21
765.2139771162258
 31
0.0
  0
LINE
  5
C91
330
B09
100
AcDbEntity
  8
0
  6
Continuous
 62
     8
370
    15
100
AcDbLine
 10
1888.847922951743
 20
773.0875438226084
 30
0.0
 11
1888.427151820062
 21
773.2393997997005
 31
0.0
  0
LINE
  5
C92
330
B09
100
AcDbEntity
  8
0
  6
Continuous
 62
     8
370
    15
100
AcDbLine
 10
1886.047460740109
 20
765.1136027458961
 30
0.0
 11
1885.910420142207
 21
765.1630605920474
 31
0.0
  0
LINE
  5
C93
330
B09
100
AcDbEntity
  8
0
  6
Continuous
 62
     8
370
    15
100
AcDbLine
 10
1885.50487857107
 20
763.5813985558802
 30
0.0
 11
1883.693227865026
 21
764.2352218992646
 31
0.0
  0
LINE
  5
C94
330
B09
100
AcDbEntity
  8
0
  6
Continuous
 62
     8
370
    15
100
AcDbLine
 10
1885.403792334534
 20
763.103553225927
 30
0.0
 11
1883.645712953062
 21
763.7380427195661
 31
0.0
  0
LINE
  5
C95
330
B09
100
AcDbEntity
  8
0
  6
Continuous
 62
     8
370
    15
100
AcDbLine
 10
1885.96781063185
 20
764.1150471965726
 30
0.0
 11
1883.757968494973
 21
764.9125775204169
 31
0.0
  0
LINE
  5
C96
330
B09
100
AcDbEntity
  8
0
  6
Continuous
 62
     8
370
    15
100
AcDbLine
 10
1886.055949649862
 20
764.3565668277298
 30
0.0
 11
1883.783218077712
 21
765.1767939002893
 31
0.0
  0
LINE
  5
C97
330
B09
100
AcDbEntity
  8
0
  6
Continuous
 62
     8
370
    15
100
AcDbLine
 10
1885.691762536866
 20
762.7445700877474
 30
0.0
 11
1883.622160778361
 21
763.4914877671356
 31
0.0
  0
LINE
  5
C98
330
B09
100
AcDbEntity
  8
0
  6
Continuous
 62
     8
370
    15
100
AcDbLine
 10
1887.139807478742
 20
764.1229381382079
 30
0.0
 11
1886.868807321555
 21
764.2207418860489
 31
0.0
  0
LINE
  5
C99
330
B09
100
AcDbEntity
  8
0
  6
Continuous
 62
     8
370
    15
100
AcDbLine
 10
1887.41350715418
 20
764.3644939501854
 30
0.0
 11
1886.845908596052
 21
764.5693398323067
 31
0.0
  0
LINE
  5
C9A
330
B09
100
AcDbEntity
  8
0
  6
Continuous
 62
     8
370
    15
100
AcDbLine
 10
1890.257046640161
 20
769.5341982179408
 30
0.0
 11
1888.99394579914
 21
769.9900503378626
 31
0.0
  0
LINE
  5
C9B
330
B09
100
AcDbEntity
  8
0
  6
Continuous
 62
     8
370
    15
100
AcDbLine
 10
1889.995773848215
 20
769.3036098502155
 30
0.0
 11
1888.949608123683
 21
769.6811702538107
 31
0.0
  0
LINE
  5
C9C
330
B09
100
AcDbEntity
  8
0
  6
Continuous
 62
     8
370
    15
100
AcDbLine
 10
1889.378743182817
 20
767.5056003689403
 30
0.0
 11
1888.673885291795
 21
767.7599830385032
 31
0.0
  0
LINE
  5
C9D
330
B09
100
AcDbEntity
  8
0
  6
Continuous
 62
     8
370
    15
100
AcDbLine
 10
1889.762360321075
 20
768.8897544298793
 30
0.0
 11
1888.88164574525
 21
769.2076036414365
 31
0.0
  0
LINE
  5
C9E
330
B09
100
AcDbEntity
  8
0
  6
Continuous
 62
     8
370
    15
100
AcDbLine
 10
1888.653372686453
 20
765.4587470760339
 30
0.0
 11
1888.382372529265
 21
765.5565508238751
 31
0.0
  0
LINE
  5
C9F
330
B09
100
AcDbEntity
  8
0
  6
Continuous
 62
     8
370
    15
100
AcDbLine
 10
1889.333947346181
 20
766.0593936214827
 30
0.0
 11
1888.474331322824
 21
766.3696283817172
 31
0.0
  0
ENDBLK
  5
B0B
330
B09
100
AcDbEntity
  8
0
100
AcDbBlockEnd
  0
ENDSEC
  0
SECTION
  2
ENTITIES
  0
INSERT
  5
9E7
330
1F
100
AcDbEntity
  8
0
100
AcDbBlockReference
  2
1
 10
0.0
 20
0.0
 30
0.0
  0
INSERT
  5
A65
330
1F
100
AcDbEntity
  8
0
100
AcDbBlockReference
  2
2
 10
12.04830789182461
 20
0.0
 30
0.0
  0
INSERT
  5
B08
330
1F
100
AcDbEntity
  8
0
100
AcDbBlockReference
  2
3
 10
0.0
 20
0.0
 30
0.0
  0
INSERT
  5
CA0
330
1F
100
AcDbEntity
  8
0
100
AcDbBlockReference
  2
4
 10
-15.29731691916686
 20
0.0
 30
0.0
  0
ENDSEC
  0
SECTION
  2
OBJECTS
  0
DICTIONARY
  5
C
330
0
100
AcDbDictionary
281
     1
  3
ACAD_COLOR
350
6B
  3
ACAD_GROUP
350
D
  3
ACAD_LAYOUT
350
1A
  3
ACAD_MATERIAL
350
6A
  3
ACAD_MLEADERSTYLE
350
12D
  3
ACAD_MLINESTYLE
350
17
  3
ACAD_PLOTSETTINGS
350
19
  3
ACAD_PLOTSTYLENAME
350
E
  3
ACAD_SCALELIST
350
10C
  3
ACAD_TABLESTYLE
350
7E
  3
ACAD_VISUALSTYLE
350
EF
  3
ACDB_RECOMPOSE_DATA
350
15D
  3
AcDbVariableDictionary
350
5E
  3
DWGPROPS
350
CAE
  0
DICTIONARY
  5
13C
330
10
100
AcDbDictionary
280
     1
281
     1
  3
ADSK_XREC_LAYER_RECONCILED
360
CA1
  0
DICTIONARY
  5
6B
102
{ACAD_REACTORS
330
C
102
}
330
C
100
AcDbDictionary
281
     1
  0
DICTIONARY
  5
D
102
{ACAD_REACTORS
330
C
102
}
330
C
100
AcDbDictionary
281
     1
  0
DICTIONARY
  5
1A
102
{ACAD_REACTORS
330
C
102
}
330
C
100
AcDbDictionary
281
     1
  3
Layout1
350
D3
  3
Layout2
350
D7
  3
Model
350
22
  0
DICTIONARY
  5
6A
102
{ACAD_REACTORS
330
C
102
}
330
C
100
AcDbDictionary
281
     1
  3
ByBlock
350
ED
  3
ByLayer
350
EC
  3
Global
350
EE
  0
DICTIONARY
  5
12D
102
{ACAD_REACTORS
330
C
102
}
330
C
100
AcDbDictionary
281
     1
  3
Annotative
350
13B
  3
Standard
350
12E
  0
DICTIONARY
  5
17
102
{ACAD_REACTORS
330
C
102
}
330
C
100
AcDbDictionary
281
     1
  3
Standard
350
18
  0
DICTIONARY
  5
19
102
{ACAD_REACTORS
330
C
102
}
330
C
100
AcDbDictionary
281
     1
  0
ACDBDICTIONARYWDFLT
  5
E
102
{ACAD_REACTORS
330
C
102
}
330
C
100
AcDbDictionary
281
     1
  3
Normal
350
F
100
AcDbDictionaryWithDefault
340
F
  0
DICTIONARY
  5
10C
102
{ACAD_REACTORS
330
C
102
}
330
C
100
AcDbDictionary
281
     1
  3
A0
350
10D
  3
A1
350
188
  3
A2
350
189
  3
A3
350
18A
  3
A4
350
18B
  3
A5
350
18C
  3
A6
350
18D
  3
A7
350
18E
  3
A8
350
18F
  3
A9
350
190
  3
B0
350
191
  3
B1
350
192
  3
B2
350
193
  3
B3
350
194
  3
B4
350
195
  3
B5
350
196
  3
B6
350
197
  3
B7
350
198
  3
B8
350
199
  3
B9
350
19A
  3
C0
350
19B
  3
C1
350
19C
  3
C2
350
19D
  3
C3
350
19E
  3
C4
350
19F
  3
C5
350
1A0
  3
C6
350
1A1
  3
C7
350
1A2
  3
C8
350
1A3
  3
C9
350
1A4
  3
D0
350
1A5
  3
D1
350
1A6
  3
D2
350
1A7
  0
DICTIONARY
  5
7E
102
{ACAD_REACTORS
330
C
102
}
330
C
100
AcDbDictionary
281
     1
  3
Standard
350
7F
  0
DICTIONARY
  5
EF
102
{ACAD_REACTORS
330
C
102
}
330
C
100
AcDbDictionary
281
     1
  3
2dWireframe
350
F5
  3
3D Hidden
350
F7
  3
3dWireframe
350
F6
  3
Basic
350
F4
  3
Brighten
350
FB
  3
ColorChange
350
FF
  3
Conceptual
350
F8
  3
Dim
350
FA
  3
Facepattern
350
FE
  3
Flat
350
F0
  3
FlatWithEdges
350
F1
  3
Gouraud
350
F2
  3
GouraudWithEdges
350
F3
  3
Linepattern
350
FD
  3
Realistic
350
F9
  3
Thicken
350
FC
  0
XRECORD
  5
15D
102
{ACAD_REACTORS
330
C
102
}
330
C
100
AcDbXrecord
280
     1
 90
        1
330
7F
  0
DICTIONARY
  5
5E
102
{ACAD_REACTORS
330
C
102
}
330
C
100
AcDbDictionary
281
     1
  3
CANNOSCALE
350
146
  3
CMLEADERSTYLE
350
145
  3
CTABLESTYLE
350
84
  3
DIMASSOC
350
5F
  3
HIDETEXT
350
63
  3
INDEXCTL
350
CAA
  3
LIGHTINGUNITS
350
CA8
  3
MSLTSCALE
350
CA7
  3
PSOLHEIGHT
350
CAC
  3
PSOLWIDTH
350
CAB
  3
SORTENTS
350
CA9
  0
XRECORD
  5
CAE
102
{ACAD_REACTORS
330
C
102
}
330
C
100
AcDbXrecord
280
     1
  1
DWGPROPS COOKIE
  2

  3

  4

  6

  7

  8
orhan kara
  9

300
=
301
=
302
=
303
=
304
=
305
=
306
=
307
=
308
=
309
=
 40
0.0015901736111111
 41
2458425.509586806
 42
2458956.398339167
  1

 90
        0
  0
XRECORD
  5
CA1
102
{ACAD_REACTORS
330
13C
102
}
330
13C
100
AcDbXrecord
280
     1
290
     1
  0
LAYOUT
  5
D3
102
{ACAD_XDICTIONARY
360
CB2
102
}
102
{ACAD_REACTORS
330
1A
102
}
330
1A
100
AcDbPlotSettings
  1

  2
C:\Documents and Settings\basas\Application Data\Autodesk\AutoCAD 2005\R16.1\enu\plotters\Default Windows System Printer.pc3
  4

  6

 40
0.0
 41
0.0
 42
0.0
 43
0.0
 44
0.0
 45
0.0
 46
0.0
 47
0.0
 48
0.0
 49
0.0
140
0.0
141
0.0
142
1.0
143
1.0
 70
   688
 72
     0
 73
     0
 74
     5
  7

 75
    16
147
1.0
148
0.0
149
0.0
100
AcDbLayout
  1
Layout1
 70
     1
 71
     1
 10
0.0
 20
0.0
 11
12.0
 21
9.0
 12
0.0
 22
0.0
 32
0.0
 14
0.0
 24
0.0
 34
0.0
 15
0.0
 25
0.0
 35
0.0
146
0.0
 13
0.0
 23
0.0
 33
0.0
 16
1.0
 26
0.0
 36
0.0
 17
0.0
 27
1.0
 37
0.0
 76
     0
330
D2
  0
LAYOUT
  5
D7
102
{ACAD_XDICTIONARY
360
CB4
102
}
102
{ACAD_REACTORS
330
1A
102
}
330
1A
100
AcDbPlotSettings
  1

  2
C:\Documents and Settings\basas\Application Data\Autodesk\AutoCAD 2005\R16.1\enu\plotters\Default Windows System Printer.pc3
  4

  6

 40
0.0
 41
0.0
 42
0.0
 43
0.0
 44
0.0
 45
0.0
 46
0.0
 47
0.0
 48
0.0
 49
0.0
140
0.0
141
0.0
142
1.0
143
1.0
 70
   688
 72
     0
 73
     0
 74
     5
  7

 75
    16
147
1.0
148
0.0
149
0.0
100
AcDbLayout
  1
Layout2
 70
     1
 71
     2
 10
0.0
 20
0.0
 11
12.0
 21
9.0
 12
0.0
 22
0.0
 32
0.0
 14
0.0
 24
0.0
 34
0.0
 15
0.0
 25
0.0
 35
0.0
146
0.0
 13
0.0
 23
0.0
 33
0.0
 16
1.0
 26
0.0
 36
0.0
 17
0.0
 27
1.0
 37
0.0
 76
     0
330
D6
  0
LAYOUT
  5
22
102
{ACAD_XDICTIONARY
360
CAF
102
}
102
{ACAD_REACTORS
330
1A
102
}
330
1A
100
AcDbPlotSettings
  1

  2
none_device
  4
ISO_A4_(210.00_x_297.00_MM)
  6

 40
7.5
 41
20.0
 42
7.5
 43
20.0
 44
210.0
 45
297.0
 46
11.54999923706054
 47
-13.65000009536743
 48
0.0
 49
0.0
140
0.0
141
0.0
142
1.0
143
8.704084754739808
 70
 11952
 72
     1
 73
     0
 74
     0
  7

 75
     0
147
0.1148885871608098
148
0.0
149
0.0
100
AcDbLayout
  1
Model
 70
     1
 71
     0
 10
0.0
 20
0.0
 11
12.0
 21
9.0
 12
0.0
 22
0.0
 32
0.0
 14
0.0
 24
0.0
 34
0.0
 15
0.0
 25
0.0
 35
0.0
146
0.0
 13
0.0
 23
0.0
 33
0.0
 16
1.0
 26
0.0
 36
0.0
 17
0.0
 27
1.0
 37
0.0
 76
     0
330
1F
331
EA
1001
ACAD_PSEXT
1000
None
1000
None
1000
Not applicable
1000
The layout will not be plotted unless a new plotter configuration name is selected.
1070
     0
  0
MATERIAL
  5
ED
102
{ACAD_XDICTIONARY
360
CB8
102
}
102
{ACAD_REACTORS
330
6A
102
}
330
6A
100
AcDbMaterial
  1
ByBlock
  0
MATERIAL
  5
EC
102
{ACAD_XDICTIONARY
360
CB6
102
}
102
{ACAD_REACTORS
330
6A
102
}
330
6A
100
AcDbMaterial
  1
ByLayer
  0
MATERIAL
  5
EE
102
{ACAD_XDICTIONARY
360
173
102
}
102
{ACAD_REACTORS
330
6A
102
}
330
6A
100
AcDbMaterial
  1
Global
 43
0.0007999999797903
 43
0.0
 43
0.0
 43
0.0
 43
0.0
 43
0.0007999999797903
 43
0.0
 43
0.0
 43
0.0
 43
0.0
 43
1.0
 43
0.0
 43
0.0
 43
0.0
 43
0.0
 43
1.0
 49
0.0007999999797903
 49
0.0
 49
0.0
 49
0.0
 49
0.0
 49
0.0007999999797903
 49
0.0
 49
0.0
 49
0.0
 49
0.0
 49
1.0
 49
0.0
 49
0.0
 49
0.0
 49
0.0
 49
1.0
142
0.0007999999797903
142
0.0
142
0.0
142
0.0
142
0.0
142
0.0007999999797903
142
0.0
142
0.0
142
0.0
142
0.0
142
1.0
142
0.0
142
0.0
142
0.0
142
0.0
142
1.0
144
0.0007999999797903
144
0.0
144
0.0
144
0.0
144
0.0
144
0.0007999999797903
144
0.0
144
0.0
144
0.0
144
0.0
144
1.0
144
0.0
144
0.0
144
0.0
144
0.0
144
1.0
1001
ACAD
1070
    -1
1070
     3
1070
     0
1000

1071
        0
1070
     0
  0
MLEADERSTYLE
  5
13B
102
{ACAD_REACTORS
330
12D
102
}
330
12D
100
AcDbMLeaderStyle
170
     2
171
     1
172
     0
 90
        2
 40
0.0
 41
0.0
173
     1
 91
-1056964608
340
14
 92
       -2
290
     1
 42
2.0
291
     1
 43
8.0
  3
Standard
 44
4.0
300

342
11
174
     1
178
     1
175
     1
176
     0
 93
-1056964608
 45
4.0
292
     0
297
     0
 46
4.0
 94
-1056964608
 47
1.0
 49
1.0
140
1.0
293
     1
141
0.0
294
     1
177
     0
142
1.0
295
     0
296
     1
143
3.75
1001
ACAD_MLEADERVER
1070
     2
  0
MLEADERSTYLE
  5
12E
102
{ACAD_REACTORS
330
12D
102
}
330
12D
100
AcDbMLeaderStyle
170
     2
171
     1
172
     0
 90
        2
 40
0.0
 41
0.0
173
     1
 91
-1056964608
340
14
 92
       -2
290
     1
 42
2.0
291
     1
 43
8.0
  3
Standard
 44
4.0
300

342
11
174
     1
178
     1
175
     1
176
     0
 93
-1056964608
 45
4.0
292
     0
297
     0
 46
4.0
 94
-1056964608
 47
1.0
 49
1.0
140
1.0
293
     1
141
0.0
294
     1
177
     0
142
1.0
295
     0
296
     0
143
3.75
1001
ACAD_MLEADERVER
1070
     2
  0
MLINESTYLE
  5
18
102
{ACAD_REACTORS
330
17
102
}
330
17
100
AcDbMlineStyle
  2
STANDARD
 70
     0
  3

 62
   256
 51
90.0
 52
90.0
 71
     2
 49
0.5
 62
   256
  6
BYLAYER
 49
-0.5
 62
   256
  6
BYLAYER
  0
ACDBPLACEHOLDER
  5
F
102
{ACAD_REACTORS
330
E
102
}
330
E
  0
SCALE
  5
10D
102
{ACAD_REACTORS
330
10C
102
}
330
10C
100
AcDbScale
 70
     0
300
1:1
140
1.0
141
1.0
290
     1
  0
SCALE
  5
188
102
{ACAD_REACTORS
330
10C
102
}
330
10C
100
AcDbScale
 70
     0
300
1:2
140
1.0
141
2.0
290
     0
  0
SCALE
  5
189
102
{ACAD_REACTORS
330
10C
102
}
330
10C
100
AcDbScale
 70
     0
300
1:4
140
1.0
141
4.0
290
     0
  0
SCALE
  5
18A
102
{ACAD_REACTORS
330
10C
102
}
330
10C
100
AcDbScale
 70
     0
300
1:5
140
1.0
141
5.0
290
     0
  0
SCALE
  5
18B
102
{ACAD_REACTORS
330
10C
102
}
330
10C
100
AcDbScale
 70
     0
300
1:8
140
1.0
141
8.0
290
     0
  0
SCALE
  5
18C
102
{ACAD_REACTORS
330
10C
102
}
330
10C
100
AcDbScale
 70
     0
300
1:10
140
1.0
141
10.0
290
     0
  0
SCALE
  5
18D
102
{ACAD_REACTORS
330
10C
102
}
330
10C
100
AcDbScale
 70
     0
300
1:16
140
1.0
141
16.0
290
     0
  0
SCALE
  5
18E
102
{ACAD_REACTORS
330
10C
102
}
330
10C
100
AcDbScale
 70
     0
300
1:20
140
1.0
141
20.0
290
     0
  0
SCALE
  5
18F
102
{ACAD_REACTORS
330
10C
102
}
330
10C
100
AcDbScale
 70
     0
300
1:30
140
1.0
141
30.0
290
     0
  0
SCALE
  5
190
102
{ACAD_REACTORS
330
10C
102
}
330
10C
100
AcDbScale
 70
     0
300
1:40
140
1.0
141
40.0
290
     0
  0
SCALE
  5
191
102
{ACAD_REACTORS
330
10C
102
}
330
10C
100
AcDbScale
 70
     0
300
1:50
140
1.0
141
50.0
290
     0
  0
SCALE
  5
192
102
{ACAD_REACTORS
330
10C
102
}
330
10C
100
AcDbScale
 70
     0
300
1:100
140
1.0
141
100.0
290
     0
  0
SCALE
  5
193
102
{ACAD_REACTORS
330
10C
102
}
330
10C
100
AcDbScale
 70
     0
300
2:1
140
2.0
141
1.0
290
     0
  0
SCALE
  5
194
102
{ACAD_REACTORS
330
10C
102
}
330
10C
100
AcDbScale
 70
     0
300
4:1
140
4.0
141
1.0
290
     0
  0
SCALE
  5
195
102
{ACAD_REACTORS
330
10C
102
}
330
10C
100
AcDbScale
 70
     0
300
8:1
140
8.0
141
1.0
290
     0
  0
SCALE
  5
196
102
{ACAD_REACTORS
330
10C
102
}
330
10C
100
AcDbScale
 70
     0
300
10:1
140
10.0
141
1.0
290
     0
  0
SCALE
  5
197
102
{ACAD_REACTORS
330
10C
102
}
330
10C
100
AcDbScale
 70
     0
300
100:1
140
100.0
141
1.0
290
     0
  0
SCALE
  5
198
102
{ACAD_REACTORS
330
10C
102
}
330
10C
100
AcDbScale
 70
     0
300
1/128" = 1'-0"
140
0.0078125
141
12.0
290
     0
  0
SCALE
  5
199
102
{ACAD_REACTORS
330
10C
102
}
330
10C
100
AcDbScale
 70
     0
300
1/64" = 1'-0"
140
0.015625
141
12.0
290
     0
  0
SCALE
  5
19A
102
{ACAD_REACTORS
330
10C
102
}
330
10C
100
AcDbScale
 70
     0
300
1/32" = 1'-0"
140
0.03125
141
12.0
290
     0
  0
SCALE
  5
19B
102
{ACAD_REACTORS
330
10C
102
}
330
10C
100
AcDbScale
 70
     0
300
1/16" = 1'-0"
140
0.0625
141
12.0
290
     0
  0
SCALE
  5
19C
102
{ACAD_REACTORS
330
10C
102
}
330
10C
100
AcDbScale
 70
     0
300
3/32" = 1'-0"
140
0.09375
141
12.0
290
     0
  0
SCALE
  5
19D
102
{ACAD_REACTORS
330
10C
102
}
330
10C
100
AcDbScale
 70
     0
300
1/8" = 1'-0"
140
0.125
141
12.0
290
     0
  0
SCALE
  5
19E
102
{ACAD_REACTORS
330
10C
102
}
330
10C
100
AcDbScale
 70
     0
300
3/16" = 1'-0"
140
0.1875
141
12.0
290
     0
  0
SCALE
  5
19F
102
{ACAD_REACTORS
330
10C
102
}
330
10C
100
AcDbScale
 70
     0
300
1/4" = 1'-0"
140
0.25
141
12.0
290
     0
  0
SCALE
  5
1A0
102
{ACAD_REACTORS
330
10C
102
}
330
10C
100
AcDbScale
 70
     0
300
3/8" = 1'-0"
140
0.375
141
12.0
290
     0
  0
SCALE
  5
1A1
102
{ACAD_REACTORS
330
10C
102
}
330
10C
100
AcDbScale
 70
     0
300
1/2" = 1'-0"
140
0.5
141
12.0
290
     0
  0
SCALE
  5
1A2
102
{ACAD_REACTORS
330
10C
102
}
330
10C
100
AcDbScale
 70
     0
300
3/4" = 1'-0"
140
0.75
141
12.0
290
     0
  0
SCALE
  5
1A3
102
{ACAD_REACTORS
330
10C
102
}
330
10C
100
AcDbScale
 70
     0
300
1" = 1'-0"
140
1.0
141
12.0
290
     0
  0
SCALE
  5
1A4
102
{ACAD_REACTORS
330
10C
102
}
330
10C
100
AcDbScale
 70
     0
300
1-1/2" = 1'-0"
140
1.5
141
12.0
290
     0
  0
SCALE
  5
1A5
102
{ACAD_REACTORS
330
10C
102
}
330
10C
100
AcDbScale
 70
     0
300
3" = 1'-0"
140
3.0
141
12.0
290
     0
  0
SCALE
  5
1A6
102
{ACAD_REACTORS
330
10C
102
}
330
10C
100
AcDbScale
 70
     0
300
6" = 1'-0"
140
6.0
141
12.0
290
     0
  0
SCALE
  5
1A7
102
{ACAD_REACTORS
330
10C
102
}
330
10C
100
AcDbScale
 70
     0
300
1'-0" = 1'-0"
140
12.0
141
12.0
290
     0
  0
TABLESTYLE
  5
7F
102
{ACAD_XDICTIONARY
360
162
102
}
102
{ACAD_REACTORS
330
7E
102
}
330
7E
100
AcDbTableStyle
  3
Standard
 70
     0
 71
     0
 40
1.5
 41
1.5
280
     0
281
     0
  7
Standard
140
4.5
170
     2
 62
     0
 63
     7
283
     0
274
    -2
284
     1
 64
     0
275
    -2
285
     1
 65
     0
276
    -2
286
     1
 66
     0
277
    -2
287
     1
 67
     0
278
    -2
288
     1
 68
     0
279
    -2
289
     1
 69
     0
  7
Standard
140
6.0
170
     5
 62
     0
 63
     7
283
     0
274
    -2
284
     1
 64
     0
275
    -2
285
     1
 65
     0
276
    -2
286
     1
 66
     0
277
    -2
287
     1
 67
     0
278
    -2
288
     1
 68
     0
279
    -2
289
     1
 69
     0
  7
Standard
140
4.5
170
     5
 62
     0
 63
     7
283
     0
274
    -2
284
     1
 64
     0
275
    -2
285
     1
 65
     0
276
    -2
286
     1
 66
     0
277
    -2
287
     1
 67
     0
278
    -2
288
     1
 68
     0
279
    -2
289
     1
 69
     0
  0
VISUALSTYLE
  5
F5
102
{ACAD_REACTORS
330
EF
102
}
330
EF
100
AcDbVisualStyle
  2
2dWireframe
 70
     4
 71
     0
 72
     2
 73
     1
 90
        0
 40
-0.6
 41
-30.0
 62
     5
 63
     7
 74
     1
 91
        4
 64
     7
 65
   257
 75
     1
175
     1
 42
1.0
 92
        0
 66
   257
 43
1.0
 76
     1
 77
     6
 78
     2
 67
     7
 79
     5
170
     0
171
     0
290
     0
174
     0
 93
        1
 44
0.0
173
     0
291
     0
 45
0.0
1001
ACAD
1000
AcDbSavedByObjectVersion
1070
     0
  0
VISUALSTYLE
  5
F7
102
{ACAD_REACTORS
330
EF
102
}
330
EF
100
AcDbVisualStyle
  2
3D Hidden
 70
     6
 71
     1
 72
     2
 73
     2
 90
        0
 40
-0.6
 41
-30.0
 62
     5
 63
     7
 74
     2
 91
        2
 64
     7
 65
   257
 75
     2
175
     1
 42
40.0
 92
        0
 66
   257
 43
1.0
 76
     1
 77
     6
 78
     2
 67
     7
 79
     3
170
     0
171
     0
290
     0
174
     0
 93
        1
 44
0.0
173
     0
291
     0
 45
0.0
1001
ACAD
1000
AcDbSavedByObjectVersion
1070
     0
  0
VISUALSTYLE
  5
F6
102
{ACAD_REACTORS
330
EF
102
}
330
EF
100
AcDbVisualStyle
  2
3dWireframe
 70
     5
 71
     0
 72
     2
 73
     1
 90
        0
 40
-0.6
 41
-30.0
 62
     5
 63
     7
 74
     1
 91
        4
 64
     7
 65
   257
 75
     1
175
     1
 42
1.0
 92
        0
 66
   257
 43
1.0
 76
     1
 77
     6
 78
     2
 67
     7
 79
     5
170
     0
171
     0
290
     0
174
     0
 93
        1
 44
0.0
173
     0
291
     0
 45
0.0
1001
ACAD
1000
AcDbSavedByObjectVersion
1070
     0
  0
VISUALSTYLE
  5
F4
102
{ACAD_REACTORS
330
EF
102
}
330
EF
100
AcDbVisualStyle
  2
Basic
 70
     7
 71
     1
 72
     0
 73
     1
 90
        0
 40
-0.6
 41
-30.0
 62
     5
 63
     7
 74
     0
 91
        4
 64
     7
 65
   257
 75
     1
175
     1
 42
1.0
 92
        8
 66
     7
 43
1.0
 76
     1
 77
     6
 78
     2
 67
     7
 79
     5
170
     0
171
     0
290
     0
174
     0
 93
        1
 44
0.0
173
     0
291
     1
 45
0.0
1001
ACAD
1000
AcDbSavedByObjectVersion
1070
     0
  0
VISUALSTYLE
  5
FB
102
{ACAD_REACTORS
330
EF
102
}
330
EF
100
AcDbVisualStyle
  2
Brighten
 70
    12
 71
     2
 72
     2
 73
     1
 90
        0
 40
-0.6
 41
-30.0
 62
     5
 63
     7
 74
     1
 91
        4
 64
     7
 65
   257
 75
     1
175
     1
 42
1.0
 92
        8
 66
     7
 43
1.0
 76
     1
 77
     6
 78
     2
 67
     7
 79
     5
170
     0
171
     0
290
     0
174
     0
 93
        1
 44
50.0
173
     0
291
     1
 45
0.0
1001
ACAD
1000
AcDbSavedByObjectVersion
1070
     0
  0
VISUALSTYLE
  5
FF
102
{ACAD_REACTORS
330
EF
102
}
330
EF
100
AcDbVisualStyle
  2
ColorChange
 70
    16
 71
     2
 72
     2
 73
     3
 90
        0
 40
-0.6
 41
-30.0
 62
     5
 63
     8
 74
     1
 91
        4
 64
     7
 65
   257
 75
     1
175
     1
 42
1.0
 92
        8
 66
     8
 43
1.0
 76
     1
 77
     6
 78
     2
 67
     7
 79
     5
170
     0
171
     0
290
     0
174
     0
 93
        1
 44
0.0
173
     0
291
     1
 45
0.0
1001
ACAD
1000
AcDbSavedByObjectVersion
1070
     0
  0
VISUALSTYLE
  5
F8
102
{ACAD_REACTORS
330
EF
102
}
330
EF
100
AcDbVisualStyle
  2
Conceptual
 70
     9
 71
     3
 72
     2
 73
     1
 90
        0
 40
-0.6
 41
-30.0
 62
     5
 63
     7
 74
     2
 91
        2
 64
     7
 65
   257
 75
     1
175
     1
 42
40.0
 92
        8
 66
     7
 43
1.0
 76
     1
 77
     6
 78
     2
 67
     7
 79
     3
170
     0
171
     0
290
     0
174
     0
 93
        1
 44
0.0
173
     0
291
     0
 45
0.0
1001
ACAD
1000
AcDbSavedByObjectVersion
1070
     0
  0
VISUALSTYLE
  5
FA
102
{ACAD_REACTORS
330
EF
102
}
330
EF
100
AcDbVisualStyle
  2
Dim
 70
    11
 71
     2
 72
     2
 73
     1
 90
        0
 40
-0.6
 41
-30.0
 62
     5
 63
     7
 74
     1
 91
        4
 64
     7
 65
   257
 75
     1
175
     1
 42
1.0
 92
        8
 66
     7
 43
1.0
 76
     1
 77
     6
 78
     2
 67
     7
 79
     5
170
     0
171
     0
290
     0
174
     0
 93
        1
 44
-50.0
173
     0
291
     1
 45
0.0
1001
ACAD
1000
AcDbSavedByObjectVersion
1070
     0
  0
VISUALSTYLE
  5
FE
102
{ACAD_REACTORS
330
EF
102
}
330
EF
100
AcDbVisualStyle
  2
Facepattern
 70
    15
 71
     2
 72
     2
 73
     1
 90
        0
 40
-0.6
 41
-30.0
 62
     5
 63
     7
 74
     1
 91
        4
 64
     7
 65
   257
 75
     1
175
     1
 42
1.0
 92
        8
 66
     7
 43
1.0
 76
     1
 77
     6
 78
     2
 67
     7
 79
     5
170
     0
171
     0
290
     0
174
     0
 93
        1
 44
0.0
173
     0
291
     1
 45
0.0
1001
ACAD
1000
AcDbSavedByObjectVersion
1070
     0
  0
VISUALSTYLE
  5
F0
102
{ACAD_REACTORS
330
EF
102
}
330
EF
100
AcDbVisualStyle
  2
Flat
 70
     0
 71
     2
 72
     1
 73
     1
 90
        2
 40
-0.6
 41
30.0
 62
     5
 63
     7
 74
     0
 91
        4
 64
     7
 65
   257
 75
     1
175
     1
 42
1.0
 92
        8
 66
     7
 43
1.0
 76
     1
 77
     6
 78
     2
 67
     7
 79
     5
170
     0
171
     0
290
     0
174
     0
 93
        1
 44
0.0
173
     0
291
     1
 45
0.0
1001
ACAD
1000
AcDbSavedByObjectVersion
1070
     0
  0
VISUALSTYLE
  5
F1
102
{ACAD_REACTORS
330
EF
102
}
330
EF
100
AcDbVisualStyle
  2
FlatWithEdges
 70
     1
 71
     2
 72
     1
 73
     1
 90
        2
 40
-0.6
 41
30.0
 62
     5
 63
     7
 74
     1
 91
        4
 64
     7
 65
   257
 75
     1
175
     1
 42
1.0
 92
        0
 66
   257
 43
1.0
 76
     1
 77
     6
 78
     2
 67
     7
 79
     5
170
     0
171
     0
290
     0
174
     0
 93
        1
 44
0.0
173
     0
291
     1
 45
0.0
1001
ACAD
1000
AcDbSavedByObjectVersion
1070
     0
  0
VISUALSTYLE
  5
F2
102
{ACAD_REACTORS
330
EF
102
}
330
EF
100
AcDbVisualStyle
  2
Gouraud
 70
     2
 71
     2
 72
     2
 73
     1
 90
        2
 40
-0.6
 41
30.0
 62
     5
 63
     7
 74
     0
 91
        4
 64
     7
 65
   257
 75
     1
175
     1
 42
1.0
 92
        0
 66
     7
 43
1.0
 76
     1
 77
     6
 78
     2
 67
     7
 79
     5
170
     0
171
     0
290
     0
174
     0
 93
        1
 44
0.0
173
     0
291
     1
 45
0.0
1001
ACAD
1000
AcDbSavedByObjectVersion
1070
     0
  0
VISUALSTYLE
  5
F3
102
{ACAD_REACTORS
330
EF
102
}
330
EF
100
AcDbVisualStyle
  2
GouraudWithEdges
 70
     3
 71
     2
 72
     2
 73
     1
 90
        2
 40
-0.6
 41
30.0
 62
     5
 63
     7
 74
     1
 91
        4
 64
     7
 65
   257
 75
     1
175
     1
 42
1.0
 92
        0
 66
   257
 43
1.0
 76
     1
 77
     6
 78
     2
 67
     7
 79
     5
170
     0
171
     0
290
     0
174
     0
 93
        1
 44
0.0
173
     0
291
     1
 45
0.0
1001
ACAD
1000
AcDbSavedByObjectVersion
1070
     0
  0
VISUALSTYLE
  5
FD
102
{ACAD_REACTORS
330
EF
102
}
330
EF
100
AcDbVisualStyle
  2
Linepattern
 70
    14
 71
     2
 72
     2
 73
     1
 90
        0
 40
-0.6
 41
-30.0
 62
     5
 63
     7
 74
     1
 91
        4
 64
     7
 65
   257
 75
     7
175
     7
 42
1.0
 92
        8
 66
     7
 43
1.0
 76
     1
 77
     6
 78
     2
 67
     7
 79
     5
170
     0
171
     0
290
     0
174
     0
 93
        1
 44
0.0
173
     0
291
     1
 45
0.0
1001
ACAD
1000
AcDbSavedByObjectVersion
1070
     0
  0
VISUALSTYLE
  5
F9
102
{ACAD_REACTORS
330
EF
102
}
330
EF
100
AcDbVisualStyle
  2
Realistic
 70
     8
 71
     2
 72
     2
 73
     1
 90
        0
 40
-0.6
 41
-30.0
 62
     5
 63
     7
 74
     1
 91
        0
 64
     7
 65
   257
 75
     1
175
     1
 42
1.0
 92
        8
 66
     8
 43
1.0
 76
     1
 77
     6
 78
     2
 67
     7
 79
     5
170
     0
171
     0
290
     0
174
     0
 93
       13
 44
0.0
173
     0
291
     0
 45
0.0
1001
ACAD
1000
AcDbSavedByObjectVersion
1070
     0
  0
VISUALSTYLE
  5
FC
102
{ACAD_REACTORS
330
EF
102
}
330
EF
100
AcDbVisualStyle
  2
Thicken
 70
    13
 71
     2
 72
     2
 73
     1
 90
        0
 40
-0.6
 41
-30.0
 62
     5
 63
     7
 74
     1
 91
        4
 64
     7
 65
   257
 75
     1
175
     1
 42
1.0
 92
       12
 66
     7
 43
1.0
 76
     1
 77
     6
 78
     2
 67
     7
 79
     5
170
     0
171
     0
290
     0
174
     0
 93
        1
 44
0.0
173
     0
291
     1
 45
0.0
1001
ACAD
1000
AcDbSavedByObjectVersion
1070
     0
  0
DICTIONARYVAR
  5
146
102
{ACAD_REACTORS
330
5E
102
}
330
5E
100
DictionaryVariables
280
     0
  1
1:1
  0
DICTIONARYVAR
  5
145
102
{ACAD_REACTORS
330
5E
102
}
330
5E
100
DictionaryVariables
280
     0
  1
STANDARD
  0
DICTIONARYVAR
  5
84
102
{ACAD_REACTORS
330
5E
102
}
330
5E
100
DictionaryVariables
280
     0
  1
STANDARD
  0
DICTIONARYVAR
  5
5F
102
{ACAD_REACTORS
330
5E
102
}
330
5E
100
DictionaryVariables
280
     0
  1
2
  0
DICTIONARYVAR
  5
63
102
{ACAD_REACTORS
330
5E
102
}
330
5E
100
DictionaryVariables
280
     0
  1
1
  0
DICTIONARYVAR
  5
CAA
102
{ACAD_REACTORS
330
5E
102
}
330
5E
100
DictionaryVariables
280
     0
  1
0
  0
DICTIONARYVAR
  5
CA8
102
{ACAD_REACTORS
330
5E
102
}
330
5E
100
DictionaryVariables
280
     0
  1
2
  0
DICTIONARYVAR
  5
CA7
102
{ACAD_REACTORS
330
5E
102
}
330
5E
100
DictionaryVariables
280
     0
  1
1
  0
DICTIONARYVAR
  5
CAC
102
{ACAD_REACTORS
330
5E
102
}
330
5E
100
DictionaryVariables
280
     0
  1
80.000000
  0
DICTIONARYVAR
  5
CAB
102
{ACAD_REACTORS
330
5E
102
}
330
5E
100
DictionaryVariables
280
     0
  1
5.000000
  0
DICTIONARYVAR
  5
CA9
102
{ACAD_REACTORS
330
5E
102
}
330
5E
100
DictionaryVariables
280
     0
  1
127
  0
DICTIONARY
  5
CB2
330
D3
100
AcDbDictionary
280
     1
281
     1
  3
ACAD_XREC_ROUNDTRIP
360
CB3
  0
DICTIONARY
  5
CB4
330
D7
100
AcDbDictionary
280
     1
281
     1
  3
ACAD_XREC_ROUNDTRIP
360
CB5
  0
DICTIONARY
  5
CAF
330
22
100
AcDbDictionary
280
     1
281
     1
  3
ACAD_XREC_ROUNDTRIP
360
CB0
  0
DICTIONARY
  5
CB8
330
ED
100
AcDbDictionary
280
     1
281
     1
  3
ACAD_XREC_ROUNDTRIP
360
CB9
  0
DICTIONARY
  5
CB6
330
EC
100
AcDbDictionary
280
     1
281
     1
  3
ACAD_XREC_ROUNDTRIP
360
CB7
  0
DICTIONARY
  5
173
330
EE
100
AcDbDictionary
280
     1
281
     1
  3
ACAD_XREC_ROUNDTRIP
360
CBA
  3
BUMPTILE
360
175
  3
DIFFUSETILE
360
174
  3
OPACITYTILE
360
176
  3
REFLECTIONTILE
360
177
  0
DICTIONARY
  5
162
330
7F
100
AcDbDictionary
280
     1
281
     1
  3
ACAD_ROUNDTRIP_2008_TABLESTYLE_CELLSTYLEMAP
360
CAD
  3
ACAD_XREC_ROUNDTRIP
360
CB1
  0
XRECORD
  5
CB3
102
{ACAD_REACTORS
330
CB2
102
}
330
CB2
100
AcDbXrecord
280
     1
102
SHADEPLOT
 70
     0
102
SHADEPLOTRESLEVEL
 70
     2
102
SHADEPLOTCUSTOMDPI
 70
   300
  0
XRECORD
  5
CB5
102
{ACAD_REACTORS
330
CB4
102
}
330
CB4
100
AcDbXrecord
280
     1
102
SHADEPLOT
 70
     0
102
SHADEPLOTRESLEVEL
 70
     2
102
SHADEPLOTCUSTOMDPI
 70
   300
  0
XRECORD
  5
CB0
102
{ACAD_REACTORS
330
CAF
102
}
330
CAF
100
AcDbXrecord
280
     1
102
SHADEPLOT
 70
     0
102
SHADEPLOTRESLEVEL
 70
     2
102
SHADEPLOTCUSTOMDPI
 70
   300
  0
XRECORD
  5
CB9
102
{ACAD_REACTORS
330
CB8
102
}
330
CB8
100
AcDbXrecord
280
     1
102
MATERIAL
148
0.0
149
0.0
149
0.0
 93
        0
 94
       63
282
     0
 72
     1
 77
     1
171
     1
175
     1
179
     1
273
     0
  0
XRECORD
  5
CB7
102
{ACAD_REACTORS
330
CB6
102
}
330
CB6
100
AcDbXrecord
280
     1
102
MATERIAL
148
0.0
149
0.0
149
0.0
 93
        0
 94
       63
282
     0
 72
     1
 77
     1
171
     1
175
     1
179
     1
273
     0
  0
XRECORD
  5
CBA
102
{ACAD_REACTORS
330
173
102
}
330
173
100
AcDbXrecord
280
     1
102
MATERIAL
148
0.0
149
0.0
149
0.0
 93
        0
 94
       63
282
     0
 72
     1
 77
     1
171
     1
175
     1
179
     1
273
     0
  0
XRECORD
  5
175
102
{ACAD_REACTORS
330
173
102
}
330
173
100
AcDbXrecord
280
     1
270
     1
271
     1
  0
XRECORD
  5
174
102
{ACAD_REACTORS
330
173
102
}
330
173
100
AcDbXrecord
280
     1
270
     1
271
     1
  0
XRECORD
  5
176
102
{ACAD_REACTORS
330
173
102
}
330
173
100
AcDbXrecord
280
     1
270
     1
271
     1
  0
XRECORD
  5
177
102
{ACAD_REACTORS
330
173
102
}
330
173
100
AcDbXrecord
280
     1
270
     1
271
     1
  0
CELLSTYLEMAP
  5
CAD
102
{ACAD_REACTORS
330
162
102
}
330
162
100
AcDbCellStyleMap
 90
        3
300
CELLSTYLE
  1
TABLEFORMAT_BEGIN
 90
        5
170
     1
 91
        0
 92
    32768
 62
   257
 93
        1
300
CONTENTFORMAT
  1
CONTENTFORMAT_BEGIN
 90
        0
 91
        0
 92
      512
 93
        0
300

 40
0.0
140
1.0
 94
        5
 62
     0
340
11
144
6.0
309
CONTENTFORMAT_END
171
     1
301
MARGIN
  1
CELLMARGIN_BEGIN
 40
1.5
 40
1.5
 40
1.5
 40
1.5
 40
4.5
 40
4.5
309
CELLMARGIN_END
 94
        6
 95
        1
302
GRIDFORMAT
  1
GRIDFORMAT_BEGIN
 90
        0
 91
        1
 62
     0
 92
       -2
340
14
 93
        0
 40
1.125
309
GRIDFORMAT_END
 95
        2
302
GRIDFORMAT
  1
GRIDFORMAT_BEGIN
 90
        0
 91
        1
 62
     0
 92
       -2
340
14
 93
        0
 40
1.125
309
GRIDFORMAT_END
 95
        4
302
GRIDFORMAT
  1
GRIDFORMAT_BEGIN
 90
        0
 91
        1
 62
     0
 92
       -2
340
14
 93
        0
 40
1.125
309
GRIDFORMAT_END
 95
        8
302
GRIDFORMAT
  1
GRIDFORMAT_BEGIN
 90
        0
 91
        1
 62
     0
 92
       -2
340
14
 93
        0
 40
1.125
309
GRIDFORMAT_END
 95
       16
302
GRIDFORMAT
  1
GRIDFORMAT_BEGIN
 90
        0
 91
        1
 62
     0
 92
       -2
340
14
 93
        0
 40
1.125
309
GRIDFORMAT_END
 95
       32
302
GRIDFORMAT
  1
GRIDFORMAT_BEGIN
 90
        0
 91
        1
 62
     0
 92
       -2
340
14
 93
        0
 40
1.125
309
GRIDFORMAT_END
309
TABLEFORMAT_END
  1
CELLSTYLE_BEGIN
 90
        1
 91
        1
300
_TITLE
309
CELLSTYLE_END
300
CELLSTYLE
  1
TABLEFORMAT_BEGIN
 90
        5
170
     1
 91
        0
 92
        0
 62
   257
 93
        1
300
CONTENTFORMAT
  1
CONTENTFORMAT_BEGIN
 90
        0
 91
        0
 92
      512
 93
        0
300

 40
0.0
140
1.0
 94
        5
 62
     0
340
11
144
4.5
309
CONTENTFORMAT_END
171
     1
301
MARGIN
  1
CELLMARGIN_BEGIN
 40
1.5
 40
1.5
 40
1.5
 40
1.5
 40
4.5
 40
4.5
309
CELLMARGIN_END
 94
        6
 95
        1
302
GRIDFORMAT
  1
GRIDFORMAT_BEGIN
 90
        0
 91
        1
 62
     0
 92
       -2
340
14
 93
        0
 40
1.125
309
GRIDFORMAT_END
 95
        2
302
GRIDFORMAT
  1
GRIDFORMAT_BEGIN
 90
        0
 91
        1
 62
     0
 92
       -2
340
14
 93
        0
 40
1.125
309
GRIDFORMAT_END
 95
        4
302
GRIDFORMAT
  1
GRIDFORMAT_BEGIN
 90
        0
 91
        1
 62
     0
 92
       -2
340
14
 93
        0
 40
1.125
309
GRIDFORMAT_END
 95
        8
302
GRIDFORMAT
  1
GRIDFORMAT_BEGIN
 90
        0
 91
        1
 62
     0
 92
       -2
340
14
 93
        0
 40
1.125
309
GRIDFORMAT_END
 95
       16
302
GRIDFORMAT
  1
GRIDFORMAT_BEGIN
 90
        0
 91
        1
 62
     0
 92
       -2
340
14
 93
        0
 40
1.125
309
GRIDFORMAT_END
 95
       32
302
GRIDFORMAT
  1
GRIDFORMAT_BEGIN
 90
        0
 91
        1
 62
     0
 92
       -2
340
14
 93
        0
 40
1.125
309
GRIDFORMAT_END
309
TABLEFORMAT_END
  1
CELLSTYLE_BEGIN
 90
        2
 91
        1
300
_HEADER
309
CELLSTYLE_END
300
CELLSTYLE
  1
TABLEFORMAT_BEGIN
 90
        5
170
     1
 91
        0
 92
        0
 62
   257
 93
        1
300
CONTENTFORMAT
  1
CONTENTFORMAT_BEGIN
 90
        0
 91
        0
 92
      512
 93
        0
300

 40
0.0
140
1.0
 94
        2
 62
     0
340
11
144
4.5
309
CONTENTFORMAT_END
171
     1
301
MARGIN
  1
CELLMARGIN_BEGIN
 40
1.5
 40
1.5
 40
1.5
 40
1.5
 40
4.5
 40
4.5
309
CELLMARGIN_END
 94
        6
 95
        1
302
GRIDFORMAT
  1
GRIDFORMAT_BEGIN
 90
        0
 91
        1
 62
     0
 92
       -2
340
14
 93
        0
 40
1.125
309
GRIDFORMAT_END
 95
        2
302
GRIDFORMAT
  1
GRIDFORMAT_BEGIN
 90
        0
 91
        1
 62
     0
 92
       -2
340
14
 93
        0
 40
1.125
309
GRIDFORMAT_END
 95
        4
302
GRIDFORMAT
  1
GRIDFORMAT_BEGIN
 90
        0
 91
        1
 62
     0
 92
       -2
340
14
 93
        0
 40
1.125
309
GRIDFORMAT_END
 95
        8
302
GRIDFORMAT
  1
GRIDFORMAT_BEGIN
 90
        0
 91
        1
 62
     0
 92
       -2
340
14
 93
        0
 40
1.125
309
GRIDFORMAT_END
 95
       16
302
GRIDFORMAT
  1
GRIDFORMAT_BEGIN
 90
        0
 91
        1
 62
     0
 92
       -2
340
14
 93
        0
 40
1.125
309
GRIDFORMAT_END
 95
       32
302
GRIDFORMAT
  1
GRIDFORMAT_BEGIN
 90
        0
 91
        1
 62
     0
 92
       -2
340
14
 93
        0
 40
1.125
309
GRIDFORMAT_END
309
TABLEFORMAT_END
  1
CELLSTYLE_BEGIN
 90
        3
 91
        2
300
_DATA
309
CELLSTYLE_END
  0
XRECORD
  5
CB1
102
{ACAD_REACTORS
330
162
102
}
330
162
100
AcDbXrecord
280
     1
102
ACAD_ROUNDTRIP_PRE2007_TABLESTYLE
 90
      512
 91
        0
  1

 92
      512
 93
        0
  2

 94
      512
 95
        0
  3

  0
ENDSEC
  0
EOF
