  0
SECTION
  2
HEADER
  9
$ACADVER
  1
AC1015
  9
$ACADMAINTVER
 70
    20
  9
$DWGCODEPAGE
  3
ANSI_1254
  9
$INSBASE
 10
0.0
 20
0.0
 30
0.0
  9
$EXTMIN
 10
2066.170478157918
 20
942.8047895886546
 30
0.0
  9
$EXTMAX
 10
2352.971368506641
 20
1085.308363520084
 30
0.0
  9
$LIMMIN
 10
0.0
 20
0.0
  9
$LIMMAX
 10
420.0
 20
297.0
  9
$ORTHOMODE
 70
     1
  9
$REGENMODE
 70
     1
  9
$FILLMODE
 70
     1
  9
$QTEXTMODE
 70
     0
  9
$MIRRTEXT
 70
     0
  9
$LTSCALE
 40
1.0
  9
$ATTMODE
 70
     1
  9
$TEXTSIZE
 40
2.5
  9
$TRACEWID
 40
1.0
  9
$TEXTSTYLE
  7
Standard
  9
$CLAYER
  8
0
  9
$CELTYPE
  6
ByLayer
  9
$CECOLOR
 62
   256
  9
$CELTSCALE
 40
1.0
  9
$DISPSILH
 70
     0
  9
$DIMSCALE
 40
1.0
  9
$DIMASZ
 40
2.5
  9
$DIMEXO
 40
0.625
  9
$DIMDLI
 40
3.75
  9
$DIMRND
 40
0.0
  9
$DIMDLE
 40
0.0
  9
$DIMEXE
 40
1.25
  9
$DIMTP
 40
0.0
  9
$DIMTM
 40
0.0
  9
$DIMTXT
 40
2.5
  9
$DIMCEN
 40
2.5
  9
$DIMTSZ
 40
0.0
  9
$DIMTOL
 70
     0
  9
$DIMLIM
 70
     0
  9
$DIMTIH
 70
     0
  9
$DIMTOH
 70
     0
  9
$DIMSE1
 70
     0
  9
$DIMSE2
 70
     0
  9
$DIMTAD
 70
     1
  9
$DIMZIN
 70
     8
  9
$DIMBLK
  1

  9
$DIMASO
 70
     1
  9
$DIMSHO
 70
     1
  9
$DIMPOST
  1

  9
$DIMAPOST
  1

  9
$DIMALT
 70
     0
  9
$DIMALTD
 70
     3
  9
$DIMALTF
 40
0.03937007874016
  9
$DIMLFAC
 40
1.0
  9
$DIMTOFL
 70
     1
  9
$DIMTVP
 40
0.0
  9
$DIMTIX
 70
     0
  9
$DIMSOXD
 70
     0
  9
$DIMSAH
 70
     0
  9
$DIMBLK1
  1

  9
$DIMBLK2
  1

  9
$DIMSTYLE
  2
ISO-25
  9
$DIMCLRD
 70
     0
  9
$DIMCLRE
 70
     0
  9
$DIMCLRT
 70
     0
  9
$DIMTFAC
 40
1.0
  9
$DIMGAP
 40
0.625
  9
$DIMJUST
 70
     0
  9
$DIMSD1
 70
     0
  9
$DIMSD2
 70
     0
  9
$DIMTOLJ
 70
     0
  9
$DIMTZIN
 70
     8
  9
$DIMALTZ
 70
     0
  9
$DIMALTTZ
 70
     0
  9
$DIMUPT
 70
     0
  9
$DIMDEC
 70
     2
  9
$DIMTDEC
 70
     2
  9
$DIMALTU
 70
     2
  9
$DIMALTTD
 70
     3
  9
$DIMTXSTY
  7
Standard
  9
$DIMAUNIT
 70
     0
  9
$DIMADEC
 70
     0
  9
$DIMALTRND
 40
0.0
  9
$DIMAZIN
 70
     0
  9
$DIMDSEP
 70
    44
  9
$DIMATFIT
 70
     3
  9
$DIMFRAC
 70
     0
  9
$DIMLDRBLK
  1

  9
$DIMLUNIT
 70
     2
  9
$DIMLWD
 70
    -2
  9
$DIMLWE
 70
    -2
  9
$DIMTMOVE
 70
     0
  9
$LUNITS
 70
     2
  9
$LUPREC
 70
     4
  9
$SKETCHINC
 40
1.0
  9
$FILLETRAD
 40
0.0
  9
$AUNITS
 70
     0
  9
$AUPREC
 70
     0
  9
$MENU
  1
.
  9
$ELEVATION
 40
0.0
  9
$PELEVATION
 40
0.0
  9
$THICKNESS
 40
0.0
  9
$LIMCHECK
 70
     0
  9
$CHAMFERA
 40
0.0
  9
$CHAMFERB
 40
0.0
  9
$CHAMFERC
 40
0.0
  9
$CHAMFERD
 40
0.0
  9
$SKPOLY
 70
     0
  9
$TDCREATE
 40
2458927.571932813
  9
$TDUCREATE
 40
2458927.446932813
  9
$TDUPDATE
 40
2458956.397492303
  9
$TDUUPDATE
 40
2458956.272492303
  9
$TDINDWG
 40
0.0025519792
  9
$TDUSRTIMER
 40
0.0025519560
  9
$USRTIMER
 70
     1
  9
$ANGBASE
 50
0.0
  9
$ANGDIR
 70
     0
  9
$PDMODE
 70
     0
  9
$PDSIZE
 40
0.0
  9
$PLINEWID
 40
0.0
  9
$SPLFRAME
 70
     0
  9
$SPLINETYPE
 70
     6
  9
$SPLINESEGS
 70
     8
  9
$HANDSEED
  5
A81
  9
$SURFTAB1
 70
     6
  9
$SURFTAB2
 70
     6
  9
$SURFTYPE
 70
     6
  9
$SURFU
 70
     6
  9
$SURFV
 70
     6
  9
$UCSBASE
  2

  9
$UCSNAME
  2

  9
$UCSORG
 10
0.0
 20
0.0
 30
0.0
  9
$UCSXDIR
 10
1.0
 20
0.0
 30
0.0
  9
$UCSYDIR
 10
0.0
 20
1.0
 30
0.0
  9
$UCSORTHOREF
  2

  9
$UCSORTHOVIEW
 70
     0
  9
$UCSORGTOP
 10
0.0
 20
0.0
 30
0.0
  9
$UCSORGBOTTOM
 10
0.0
 20
0.0
 30
0.0
  9
$UCSORGLEFT
 10
0.0
 20
0.0
 30
0.0
  9
$UCSORGRIGHT
 10
0.0
 20
0.0
 30
0.0
  9
$UCSORGFRONT
 10
0.0
 20
0.0
 30
0.0
  9
$UCSORGBACK
 10
0.0
 20
0.0
 30
0.0
  9
$PUCSBASE
  2

  9
$PUCSNAME
  2

  9
$PUCSORG
 10
0.0
 20
0.0
 30
0.0
  9
$PUCSXDIR
 10
1.0
 20
0.0
 30
0.0
  9
$PUCSYDIR
 10
0.0
 20
1.0
 30
0.0
  9
$PUCSORTHOREF
  2

  9
$PUCSORTHOVIEW
 70
     0
  9
$PUCSORGTOP
 10
0.0
 20
0.0
 30
0.0
  9
$PUCSORGBOTTOM
 10
0.0
 20
0.0
 30
0.0
  9
$PUCSORGLEFT
 10
0.0
 20
0.0
 30
0.0
  9
$PUCSORGRIGHT
 10
0.0
 20
0.0
 30
0.0
  9
$PUCSORGFRONT
 10
0.0
 20
0.0
 30
0.0
  9
$PUCSORGBACK
 10
0.0
 20
0.0
 30
0.0
  9
$USERI1
 70
     0
  9
$USERI2
 70
     0
  9
$USERI3
 70
     0
  9
$USERI4
 70
     0
  9
$USERI5
 70
     0
  9
$USERR1
 40
0.0
  9
$USERR2
 40
0.0
  9
$USERR3
 40
0.0
  9
$USERR4
 40
0.0
  9
$USERR5
 40
0.0
  9
$WORLDVIEW
 70
     1
  9
$SHADEDGE
 70
     3
  9
$SHADEDIF
 70
    70
  9
$TILEMODE
 70
     1
  9
$MAXACTVP
 70
    64
  9
$PINSBASE
 10
0.0
 20
0.0
 30
0.0
  9
$PLIMCHECK
 70
     0
  9
$PEXTMIN
 10
0.0
 20
0.0
 30
0.0
  9
$PEXTMAX
 10
0.0
 20
0.0
 30
0.0
  9
$PLIMMIN
 10
0.0
 20
0.0
  9
$PLIMMAX
 10
12.0
 20
9.0
  9
$UNITMODE
 70
     0
  9
$VISRETAIN
 70
     1
  9
$PLINEGEN
 70
     0
  9
$PSLTSCALE
 70
     1
  9
$TREEDEPTH
 70
  3020
  9
$CMLSTYLE
  2
Standard
  9
$CMLJUST
 70
     0
  9
$CMLSCALE
 40
20.0
  9
$PROXYGRAPHICS
 70
     1
  9
$MEASUREMENT
 70
     1
  9
$CELWEIGHT
370
    -1
  9
$ENDCAPS
280
     0
  9
$JOINSTYLE
280
     0
  9
$LWDISPLAY
290
     0
  9
$INSUNITS
 70
     4
  9
$HYPERLINKBASE
  1

  9
$STYLESHEET
  1

  9
$XEDIT
290
     1
  9
$CEPSNTYPE
380
     0
  9
$PSTYLEMODE
290
     1
  9
$FINGERPRINTGUID
  2
{3A272682-F39A-4AFE-94A6-D818565DDA4F}
  9
$VERSIONGUID
  2
{B3E8DCA8-108B-4AC8-AB47-302A98AB8999}
  9
$EXTNAMES
290
     1
  9
$PSVPSCALE
 40
0.0
  9
$OLESTARTUP
290
     0
  0
ENDSEC
  0
SECTION
  2
CLASSES
  0
CLASS
  1
ACDBDICTIONARYWDFLT
  2
AcDbDictionaryWithDefault
  3
ObjectDBX Classes
 90
        0
280
     0
281
     0
  0
CLASS
  1
ACDBPLACEHOLDER
  2
AcDbPlaceHolder
  3
ObjectDBX Classes
 90
        0
280
     0
281
     0
  0
CLASS
  1
LAYOUT
  2
AcDbLayout
  3
ObjectDBX Classes
 90
        0
280
     0
281
     0
  0
CLASS
  1
DICTIONARYVAR
  2
AcDbDictionaryVar
  3
ObjectDBX Classes
 90
        0
280
     0
281
     0
  0
CLASS
  1
TABLESTYLE
  2
AcDbTableStyle
  3
ObjectDBX Classes
 90
     4095
280
     0
281
     0
  0
CLASS
  1
MATERIAL
  2
AcDbMaterial
  3
ObjectDBX Classes
 90
     1153
280
     0
281
     0
  0
CLASS
  1
VISUALSTYLE
  2
AcDbVisualStyle
  3
ObjectDBX Classes
 90
     4095
280
     0
281
     0
  0
CLASS
  1
SCALE
  2
AcDbScale
  3
ObjectDBX Classes
 90
     1153
280
     0
281
     0
  0
CLASS
  1
MLEADERSTYLE
  2
AcDbMLeaderStyle
  3
ACDB_MLEADERSTYLE_CLASS
 90
     4095
280
     0
281
     0
  0
CLASS
  1
CELLSTYLEMAP
  2
AcDbCellStyleMap
  3
ObjectDBX Classes
 90
     1152
280
     0
281
     0
  0
CLASS
  1
DIMASSOC
  2
AcDbDimAssoc
  3
"AcDbDimAssoc|Product Desc:     AcDim ARX App For Dimension|Company:          Autodesk, Inc.|WEB Address:      www.autodesk.com"
 90
    32768
280
     0
281
     0
  0
CLASS
  1
ACAD_EVALUATION_GRAPH
  2
AcDbEvalGraph
  3
ObjectDBX Classes
 90
    33921
280
     0
281
     0
  0
CLASS
  1
ACAECUSTOBJ
  2
AcAeEditorObj
  3
AcAeEditorObj
 90
    33792
280
     0
281
     0
  0
CLASS
  1
ACDB_DYNAMICBLOCKPURGEPREVENTER_VERSION
  2
AcDbDynamicBlockPurgePreventer
  3
ObjectDBX Classes
 90
    33921
280
     0
281
     0
  0
ENDSEC
  0
SECTION
  2
TABLES
  0
TABLE
  2
VPORT
  5
8
330
0
100
AcDbSymbolTable
 70
     1
  0
VPORT
  5
EA
330
8
100
AcDbSymbolTableRecord
100
AcDbViewportTableRecord
  2
*Active
 70
     0
 10
0.0
 20
0.0
 11
1.0
 21
1.0
 12
2209.571709977402
 22
1022.185590640183
 13
0.0
 23
0.0
 14
10.0
 24
10.0
 15
10.0
 25
10.0
 16
0.0
 26
0.0
 36
1.0
 17
0.0
 27
0.0
 37
0.0
 40
160.0191212616029
 41
1.903110047846889
 42
50.0
 43
0.0
 44
0.0
 50
0.0
 51
0.0
 71
     0
 72
  1000
 73
     1
 74
     3
 75
     0
 76
     0
 77
     0
 78
     0
281
     0
 65
     1
110
0.0
120
0.0
130
0.0
111
1.0
121
0.0
131
0.0
112
0.0
122
1.0
132
0.0
 79
     0
146
0.0
  0
ENDTAB
  0
TABLE
  2
LTYPE
  5
5
330
0
100
AcDbSymbolTable
 70
     1
  0
LTYPE
  5
14
330
5
100
AcDbSymbolTableRecord
100
AcDbLinetypeTableRecord
  2
ByBlock
 70
     0
  3

 72
    65
 73
     0
 40
0.0
  0
LTYPE
  5
15
330
5
100
AcDbSymbolTableRecord
100
AcDbLinetypeTableRecord
  2
ByLayer
 70
     0
  3

 72
    65
 73
     0
 40
0.0
  0
LTYPE
  5
16
330
5
100
AcDbSymbolTableRecord
100
AcDbLinetypeTableRecord
  2
Continuous
 70
     0
  3
Solid line
 72
    65
 73
     0
 40
0.0
  0
ENDTAB
  0
TABLE
  2
LAYER
  5
2
330
0
100
AcDbSymbolTable
 70
     2
  0
LAYER
  5
10
102
{ACAD_XDICTIONARY
360
13C
102
}
330
2
100
AcDbSymbolTableRecord
100
AcDbLayerTableRecord
  2
0
 70
     0
 62
     7
  6
Continuous
370
    -3
390
F
  0
LAYER
  5
8D5
330
2
100
AcDbSymbolTableRecord
100
AcDbLayerTableRecord
  2
Defpoints
 70
     0
 62
     7
  6
Continuous
290
     0
370
    -3
390
F
  0
ENDTAB
  0
TABLE
  2
STYLE
  5
3
330
0
100
AcDbSymbolTable
 70
     2
  0
STYLE
  5
11
330
3
100
AcDbSymbolTableRecord
100
AcDbTextStyleTableRecord
  2
Standard
 70
     0
 40
0.0
 41
1.0
 50
0.0
 71
     0
 42
2.5
  3
txt
  4

  0
STYLE
  5
132
330
3
100
AcDbSymbolTableRecord
100
AcDbTextStyleTableRecord
  2
Annotative
 70
     0
 40
0.0
 41
1.0
 50
0.0
 71
     0
 42
2.5
  3
txt.shx
  4

1001
AcadAnnotative
1000
AnnotativeData
1002
{
1070
     1
1070
     1
1002
}
  0
ENDTAB
  0
TABLE
  2
VIEW
  5
6
330
0
100
AcDbSymbolTable
 70
     0
  0
ENDTAB
  0
TABLE
  2
UCS
  5
7
330
0
100
AcDbSymbolTable
 70
     0
  0
ENDTAB
  0
TABLE
  2
APPID
  5
9
330
0
100
AcDbSymbolTable
 70
    12
  0
APPID
  5
12
330
9
100
AcDbSymbolTableRecord
100
AcDbRegAppTableRecord
  2
ACAD
 70
     0
  0
APPID
  5
9E
330
9
100
AcDbSymbolTableRecord
100
AcDbRegAppTableRecord
  2
ACAD_PSEXT
 70
     0
  0
APPID
  5
133
330
9
100
AcDbSymbolTableRecord
100
AcDbRegAppTableRecord
  2
AcadAnnoPO
 70
     0
  0
APPID
  5
134
330
9
100
AcDbSymbolTableRecord
100
AcDbRegAppTableRecord
  2
AcadAnnotative
 70
     0
  0
APPID
  5
135
330
9
100
AcDbSymbolTableRecord
100
AcDbRegAppTableRecord
  2
ACAD_DSTYLE_DIMJAG
 70
     0
  0
APPID
  5
136
330
9
100
AcDbSymbolTableRecord
100
AcDbRegAppTableRecord
  2
ACAD_DSTYLE_DIMTALN
 70
     0
  0
APPID
  5
165
330
9
100
AcDbSymbolTableRecord
100
AcDbRegAppTableRecord
  2
ACAD_MLEADERVER
 70
     0
  0
APPID
  5
9D2
330
9
100
AcDbSymbolTableRecord
100
AcDbRegAppTableRecord
  2
ACAUTHENVIRON
 70
     0
  0
APPID
  5
9D7
330
9
100
AcDbSymbolTableRecord
100
AcDbRegAppTableRecord
  2
ACAD_EXEMPT_FROM_CAD_STANDARDS
 70
     0
  0
APPID
  5
9DD
330
9
100
AcDbSymbolTableRecord
100
AcDbRegAppTableRecord
  2
AcDbDynamicBlockTrueName
 70
     0
  0
APPID
  5
9DE
330
9
100
AcDbSymbolTableRecord
100
AcDbRegAppTableRecord
  2
AcDbDynamicBlockGUID
 70
     0
  0
APPID
  5
9E0
330
9
100
AcDbSymbolTableRecord
100
AcDbRegAppTableRecord
  2
AcDbBlockRepETag
 70
     0
  0
ENDTAB
  0
TABLE
  2
DIMSTYLE
  5
A
330
0
100
AcDbSymbolTable
 70
     2
100
AcDbDimStyleTable
 71
     2
340
27
340
137
  0
DIMSTYLE
105
27
330
A
100
AcDbSymbolTableRecord
100
AcDbDimStyleTableRecord
  2
ISO-25
 70
     0
 41
2.5
 42
0.625
 43
3.75
 44
1.25
 73
     0
 74
     0
 77
     1
 78
     8
140
2.5
141
2.5
143
0.03937007874016
147
0.625
171
     3
172
     1
271
     2
272
     2
274
     3
278
    44
283
     0
284
     8
340
11
  0
DIMSTYLE
105
137
330
A
100
AcDbSymbolTableRecord
100
AcDbDimStyleTableRecord
  2
Annotative
 70
     0
 40
0.0
 41
2.5
 42
0.625
 43
3.75
 44
1.25
 73
     0
 74
     0
 77
     1
 78
     8
140
2.5
141
2.5
143
0.03937007874016
147
0.625
171
     3
172
     1
271
     2
272
     2
274
     3
278
    44
283
     0
284
     8
340
11
1001
AcadAnnotative
1000
AnnotativeData
1002
{
1070
     1
1070
     1
1002
}
1001
ACAD_DSTYLE_DIMJAG
1070
   388
1040
1.5
1001
ACAD_DSTYLE_DIMTALN
1070
   392
1070
     0
  0
ENDTAB
  0
TABLE
  2
BLOCK_RECORD
  5
1
330
0
100
AcDbSymbolTable
 70
     5
  0
BLOCK_RECORD
  5
1F
330
1
100
AcDbSymbolTableRecord
100
AcDbBlockTableRecord
  2
*Model_Space
340
22
  0
BLOCK_RECORD
  5
D2
330
1
100
AcDbSymbolTableRecord
100
AcDbBlockTableRecord
  2
*Paper_Space
340
D3
  0
BLOCK_RECORD
  5
D6
330
1
100
AcDbSymbolTableRecord
100
AcDbBlockTableRecord
  2
*Paper_Space0
340
D7
  0
BLOCK_RECORD
  5
667
330
1
100
AcDbSymbolTableRecord
100
AcDbBlockTableRecord
  2
1
340
0
310
2800000020000000200000000100080000000000000400000000000000000000000000000000000000000000000080000080000000808000800000008000800080800000C0C0C000C0DCC000F0CAA6000020400000206000002080000020A0000020C0000020E00000400000004020000040400000406000004080000040A0
310
000040C0000040E00000600000006020000060400000606000006080000060A0000060C0000060E00000800000008020000080400000806000008080000080A0000080C0000080E00000A0000000A0200000A0400000A0600000A0800000A0A00000A0C00000A0E00000C0000000C0200000C0400000C0600000C0800000C0
310
A00000C0C00000C0E00000E0000000E0200000E0400000E0600000E0800000E0A00000E0C00000E0E00040000000400020004000400040006000400080004000A0004000C0004000E00040200000402020004020400040206000402080004020A0004020C0004020E000404000004040200040404000404060004040800040
310
40A0004040C0004040E00040600000406020004060400040606000406080004060A0004060C0004060E00040800000408020004080400040806000408080004080A0004080C0004080E00040A0000040A0200040A0400040A0600040A0800040A0A00040A0C00040A0E00040C0000040C0200040C0400040C0600040C08000
310
40C0A00040C0C00040C0E00040E0000040E0200040E0400040E0600040E0800040E0A00040E0C00040E0E00080000000800020008000400080006000800080008000A0008000C0008000E00080200000802020008020400080206000802080008020A0008020C0008020E00080400000804020008040400080406000804080
310
008040A0008040C0008040E00080600000806020008060400080606000806080008060A0008060C0008060E00080800000808020008080400080806000808080008080A0008080C0008080E00080A0000080A0200080A0400080A0600080A0800080A0A00080A0C00080A0E00080C0000080C0200080C0400080C0600080C0
310
800080C0A00080C0C00080C0E00080E0000080E0200080E0400080E0600080E0800080E0A00080E0C00080E0E000C0000000C0002000C0004000C0006000C0008000C000A000C000C000C000E000C0200000C0202000C0204000C0206000C0208000C020A000C020C000C020E000C0400000C0402000C0404000C0406000C0
310
408000C040A000C040C000C040E000C0600000C0602000C0604000C0606000C0608000C060A000C060C000C060E000C0800000C0802000C0804000C0806000C0808000C080A000C080C000C080E000C0A00000C0A02000C0A04000C0A06000C0A08000C0A0A000C0A0C000C0A0E000C0C00000C0C02000C0C04000C0C06000
310
C0C08000C0C0A000F0FBFF00A4A0A000808080000000FF0000FF000000FFFF00FF000000FF00FF00FFFF0000FFFFFF000000000000000000000000000000000000000000000000000000000000000000000000000000000000FFFF00000000000000000000FFFF00000000000000000000000000FFFFFFFFFFFFFFFF000000
310
000000000000FFFFFFFFFFFFFF0000000000000000FF0000000000FFFF0000000000000000FFFF0000000000FF0000000000000000FF0000000000FFFFFFFFFFFFFFFFFFFFFFFF0000000000FF0000000000000000FF00000000000000000000000000000000000000000000FF0000000000000000FF000000000000000000
310
00000000000000000000000000FF0000000000000000FF00000000000000000000000000000000000000000000FF0000000000000000FF00000000000000000000000000000000000000000000FF0000000000000000FF00000000000000000000000000000000000000000000FF0000000000000000FF0000000000000000
310
0000000000000000000000000000FF0000000000000000FF00000000000000000000000000000000000000000000FF0000000000000000FF00000000000000000000000000000000000000000000FF0000000000000000FF00000000000000000000000000000000000000000000FF0000000000000000FF00000000000000
310
000000000000000000000000000000FF0000000000000000FF00000000000000000000000000000000000000000000FF0000000000000000FF00000000000000000000000000000000000000000000FF0000000000000000FF00000000000000000000000000000000000000000000FF0000000000000000FF000000000000
310
00000000000000000000000000000000FF0000000000000000FF00000000000000000000000000000000000000000000FF0000000000000000FF00000000000000000000000000000000000000000000FF0000000000000000FF00000000000000000000000000000000000000000000FF0000000000000000FF0000000000
310
0000000000000000000000000000000000FF0000000000000000FF00000000000000000000000000000000000000000000FF0000000000000000FF00000000000000000000000000000000000000000000FF0000000000000000FF00000000000000000000000000000000000000000000FF0000000000000000FF00000000
310
0000000000FFFFFFFF000000000000000000FF0000000000000000FF000000000000000000FF0000FF000000000000000000FF000000000000000000FF0000000000000000FF0000FF0000000000000000FF0000000000000000000000FF00000000000000FF0000FF00000000000000FF00000000000000000000000000FF
310
FFFFFFFFFFFFFF0000FFFFFFFFFFFFFFFF000000000000000000000000000000000000000000000000000000000000000000000000000000
102
{BLKREFS
331
69C
102
}
1001
ACAD
1000
DesignCenter Data
1002
{
1070
     1
1070
     4
1002
}
  0
BLOCK_RECORD
  5
69D
102
{ACAD_XDICTIONARY
360
9D3
102
}
330
1
100
AcDbSymbolTableRecord
100
AcDbBlockTableRecord
  2
2
340
0
310
2800000020000000200000000100080000000000000400000000000000000000000000000000000000000000000080000080000000808000800000008000800080800000C0C0C000C0DCC000F0CAA6000020400000206000002080000020A0000020C0000020E00000400000004020000040400000406000004080000040A0
310
000040C0000040E00000600000006020000060400000606000006080000060A0000060C0000060E00000800000008020000080400000806000008080000080A0000080C0000080E00000A0000000A0200000A0400000A0600000A0800000A0A00000A0C00000A0E00000C0000000C0200000C0400000C0600000C0800000C0
310
A00000C0C00000C0E00000E0000000E0200000E0400000E0600000E0800000E0A00000E0C00000E0E00040000000400020004000400040006000400080004000A0004000C0004000E00040200000402020004020400040206000402080004020A0004020C0004020E000404000004040200040404000404060004040800040
310
40A0004040C0004040E00040600000406020004060400040606000406080004060A0004060C0004060E00040800000408020004080400040806000408080004080A0004080C0004080E00040A0000040A0200040A0400040A0600040A0800040A0A00040A0C00040A0E00040C0000040C0200040C0400040C0600040C08000
310
40C0A00040C0C00040C0E00040E0000040E0200040E0400040E0600040E0800040E0A00040E0C00040E0E00080000000800020008000400080006000800080008000A0008000C0008000E00080200000802020008020400080206000802080008020A0008020C0008020E00080400000804020008040400080406000804080
310
008040A0008040C0008040E00080600000806020008060400080606000806080008060A0008060C0008060E00080800000808020008080400080806000808080008080A0008080C0008080E00080A0000080A0200080A0400080A0600080A0800080A0A00080A0C00080A0E00080C0000080C0200080C0400080C0600080C0
310
800080C0A00080C0C00080C0E00080E0000080E0200080E0400080E0600080E0800080E0A00080E0C00080E0E000C0000000C0002000C0004000C0006000C0008000C000A000C000C000C000E000C0200000C0202000C0204000C0206000C0208000C020A000C020C000C020E000C0400000C0402000C0404000C0406000C0
310
408000C040A000C040C000C040E000C0600000C0602000C0604000C0606000C0608000C060A000C060C000C060E000C0800000C0802000C0804000C0806000C0808000C080A000C080C000C080E000C0A00000C0A02000C0A04000C0A06000C0A08000C0A0A000C0A0C000C0A0E000C0C00000C0C02000C0C04000C0C06000
310
C0C08000C0C0A000F0FBFF00A4A0A000808080000000FF0000FF000000FFFF00FF000000FF00FF00FFFF0000FFFFFF0000000000000000000000000000000000000000000000000000000000000000000000000000000000000000000000FFFFFFFF0000000000000000000000000000000000000000000000000000FFFFFF
310
FFFFFFFFFF000000000000000000000000000000000000000000000000FFFFFFFFFFFFFFFF000000000000000000000000000000000000000000000000FFFFFFFFFFFFFFFF000000000000000000000000000000000000000000000000FFFFFF0000FFFFFF000000000000000000000000000000000000000000000000FFFF
310
FFFFFFFFFFFF000000000000000000000000000000000000000000000000FF00FFFFFFFF00FF000000000000000000000000000000000000000000000000FF00FFFFFFFF00FF000000000000000000000000000000000000000000000000FFFFFFFFFFFFFFFF000000000000000000000000000000000000000000000000FF
310
FFFFFFFFFFFFFF000000000000000000000000000000000000000000000000FFFFFFFFFFFFFFFF000000000000000000000000000000000000000000000000FFFFFFFFFFFFFFFF000000000000000000000000000000000000000000000000FFFF00000000FFFF000000000000000000000000000000000000000000000000
310
FFFF00000000FFFF000000000000000000000000000000000000000000000000FFFF00000000FFFF000000000000000000000000000000000000000000000000FFFF00000000FFFF000000000000000000000000000000000000000000000000FFFFFFFFFFFFFFFF0000000000000000000000000000000000000000000000
310
00FFFFFFFFFFFFFFFF000000000000000000000000000000000000000000000000FFFFFFFFFFFFFFFF000000000000000000000000000000000000000000000000FF000000000000FF000000000000000000000000000000000000000000000000FF0000FFFF0000FF00000000000000000000000000000000000000000000
310
0000FF0000FFFF0000FF000000000000000000000000000000000000000000000000FF000000000000FF000000000000000000000000000000000000000000000000FF000000000000FF000000000000000000000000000000000000000000000000FF000000000000FF000000000000000000000000000000000000000000
310
000000FFFFFFFFFFFFFFFF000000000000000000000000000000000000000000000000FFFFFFFFFFFFFFFF000000000000000000000000000000000000000000000000FF00FFFFFFFF00FF000000000000000000000000000000000000000000000000FFFFFFFFFFFFFFFF0000000000000000000000000000000000000000
310
00000000FFFFFFFFFFFFFFFF0000000000000000000000000000000000000000000000000000000000000000000000000000000000000000
102
{BLKREFS
331
74C
102
}
1001
AcDbDynamicBlockGUID
1000
{5D566674-F306-44DC-A42F-43842932C8FE}
1001
AcDbBlockRepETag
1070
     1
1071
      172
1001
ACAD
1000
DesignCenter Data
1002
{
1070
     1
1070
     4
1002
}
  0
BLOCK_RECORD
  5
74D
102
{ACAD_XDICTIONARY
360
A64
102
}
330
1
100
AcDbSymbolTableRecord
100
AcDbBlockTableRecord
  2
3
340
0
310
2800000020000000200000000100080000000000000400000000000000000000000000000000000000000000000080000080000000808000800000008000800080800000C0C0C000C0DCC000F0CAA6000020400000206000002080000020A0000020C0000020E00000400000004020000040400000406000004080000040A0
310
000040C0000040E00000600000006020000060400000606000006080000060A0000060C0000060E00000800000008020000080400000806000008080000080A0000080C0000080E00000A0000000A0200000A0400000A0600000A0800000A0A00000A0C00000A0E00000C0000000C0200000C0400000C0600000C0800000C0
310
A00000C0C00000C0E00000E0000000E0200000E0400000E0600000E0800000E0A00000E0C00000E0E00040000000400020004000400040006000400080004000A0004000C0004000E00040200000402020004020400040206000402080004020A0004020C0004020E000404000004040200040404000404060004040800040
310
40A0004040C0004040E00040600000406020004060400040606000406080004060A0004060C0004060E00040800000408020004080400040806000408080004080A0004080C0004080E00040A0000040A0200040A0400040A0600040A0800040A0A00040A0C00040A0E00040C0000040C0200040C0400040C0600040C08000
310
40C0A00040C0C00040C0E00040E0000040E0200040E0400040E0600040E0800040E0A00040E0C00040E0E00080000000800020008000400080006000800080008000A0008000C0008000E00080200000802020008020400080206000802080008020A0008020C0008020E00080400000804020008040400080406000804080
310
008040A0008040C0008040E00080600000806020008060400080606000806080008060A0008060C0008060E00080800000808020008080400080806000808080008080A0008080C0008080E00080A0000080A0200080A0400080A0600080A0800080A0A00080A0C00080A0E00080C0000080C0200080C0400080C0600080C0
310
800080C0A00080C0C00080C0E00080E0000080E0200080E0400080E0600080E0800080E0A00080E0C00080E0E000C0000000C0002000C0004000C0006000C0008000C000A000C000C000C000E000C0200000C0202000C0204000C0206000C0208000C020A000C020C000C020E000C0400000C0402000C0404000C0406000C0
310
408000C040A000C040C000C040E000C0600000C0602000C0604000C0606000C0608000C060A000C060C000C060E000C0800000C0802000C0804000C0806000C0808000C080A000C080C000C080E000C0A00000C0A02000C0A04000C0A06000C0A08000C0A0A000C0A0C000C0A0E000C0C00000C0C02000C0C04000C0C06000
310
C0C08000C0C0A000F0FBFF00A4A0A000808080000000FF0000FF000000FFFF00FF000000FF00FF00FFFF0000FFFFFF0000000000000000000000000000000000000000000000000000000000000000000000000000000000000000000000000000000000000000000000000000000000000000000000000000000000000000
310
00000000000000000000000000000000000000000000000000000000000000000000000000000000000000000000000000000000000000000000000000000000000000000000000000000000000000000000000000000000000000000000000000000000000000000000000000000000000000000000000000000000000000
310
00000000000000000000000000000000000000000000000000000000000000000000000000000000000000000000000000000000000000000000000000000000000000000000000000000000000000000000000000000000000000000000000000000000000000000000000000000000000000000000000000000000000000
310
0000000000000000000000000000000000000000FFFFFFFFFFFFFFFFFFFFFFFFFFFFFFFFFFFFFFFFFFFFFFFFFFFFFFFFFFFF0000FFFF0000FF0000000000000000FF0000FF0000000000000000FF0000FFFF0000FFFF0000FF0000000000000000FF0000FF0000000000000000FF0000FFFF0000FFFFFFFFFF0000FFFFFF00
310
0000FFFFFFFF000000FFFFFF0000FFFFFFFFFF0000FFFFFFFFFF0000FF00FFFF0000FF0000FF0000FFFF00FF0000FFFFFFFFFF0000FFFFFFFFFF0000FF00FFFF0000FF0000FF0000FFFF00FF0000FFFFFFFFFF0000FFFFFFFFFF0000FFFFFF000000FFFFFFFF000000FFFFFF0000FFFFFFFFFF0000FFFF0000FF0000000000
310
000000FF0000FF0000000000000000FF0000FFFF0000FFFF0000FF0000000000000000FF0000FF0000000000000000FF0000FFFF0000FFFFFFFFFFFFFFFFFFFFFFFFFFFFFFFFFFFFFFFFFFFFFFFFFFFFFFFFFFFF00000000000000000000000000000000000000000000000000000000000000000000000000000000000000
310
00000000000000000000000000000000000000000000000000000000000000000000000000000000000000000000000000000000000000000000000000000000000000000000000000000000000000000000000000000000000000000000000000000000000000000000000000000000000000000000000000000000000000
310
00000000000000000000000000000000000000000000000000000000000000000000000000000000000000000000000000000000000000000000000000000000000000000000000000000000000000000000000000000000000000000000000000000000000000000000000000000000000000000000000000000000000000
310
0000000000000000000000000000000000000000000000000000000000000000000000000000000000000000000000000000000000000000
102
{BLKREFS
331
7D0
102
}
1001
AcDbDynamicBlockGUID
1000
{45E121EB-F609-4C8E-8245-AA6CD53ADF34}
1001
AcDbBlockRepETag
1070
     1
1071
      128
1001
ACAD
1000
DesignCenter Data
1002
{
1070
     1
1070
     4
1002
}
  0
BLOCK_RECORD
  5
7D1
330
1
100
AcDbSymbolTableRecord
100
AcDbBlockTableRecord
  2
4
340
0
310
2800000020000000200000000100080000000000000400000000000000000000000000000000000000000000000080000080000000808000800000008000800080800000C0C0C000C0DCC000F0CAA6000020400000206000002080000020A0000020C0000020E00000400000004020000040400000406000004080000040A0
310
000040C0000040E00000600000006020000060400000606000006080000060A0000060C0000060E00000800000008020000080400000806000008080000080A0000080C0000080E00000A0000000A0200000A0400000A0600000A0800000A0A00000A0C00000A0E00000C0000000C0200000C0400000C0600000C0800000C0
310
A00000C0C00000C0E00000E0000000E0200000E0400000E0600000E0800000E0A00000E0C00000E0E00040000000400020004000400040006000400080004000A0004000C0004000E00040200000402020004020400040206000402080004020A0004020C0004020E000404000004040200040404000404060004040800040
310
40A0004040C0004040E00040600000406020004060400040606000406080004060A0004060C0004060E00040800000408020004080400040806000408080004080A0004080C0004080E00040A0000040A0200040A0400040A0600040A0800040A0A00040A0C00040A0E00040C0000040C0200040C0400040C0600040C08000
310
40C0A00040C0C00040C0E00040E0000040E0200040E0400040E0600040E0800040E0A00040E0C00040E0E00080000000800020008000400080006000800080008000A0008000C0008000E00080200000802020008020400080206000802080008020A0008020C0008020E00080400000804020008040400080406000804080
310
008040A0008040C0008040E00080600000806020008060400080606000806080008060A0008060C0008060E00080800000808020008080400080806000808080008080A0008080C0008080E00080A0000080A0200080A0400080A0600080A0800080A0A00080A0C00080A0E00080C0000080C0200080C0400080C0600080C0
310
800080C0A00080C0C00080C0E00080E0000080E0200080E0400080E0600080E0800080E0A00080E0C00080E0E000C0000000C0002000C0004000C0006000C0008000C000A000C000C000C000E000C0200000C0202000C0204000C0206000C0208000C020A000C020C000C020E000C0400000C0402000C0404000C0406000C0
310
408000C040A000C040C000C040E000C0600000C0602000C0604000C0606000C0608000C060A000C060C000C060E000C0800000C0802000C0804000C0806000C0808000C080A000C080C000C080E000C0A00000C0A02000C0A04000C0A06000C0A08000C0A0A000C0A0C000C0A0E000C0C00000C0C02000C0C04000C0C06000
310
C0C08000C0C0A000F0FBFF00A4A0A000808080000000FF0000FF000000FFFF00FF000000FF00FF00FFFF0000FFFFFF0000000000000000000000000000000000000000000000000000000000000000000000000000000000000000000000000000000000FF0000000000000000000000000000000000000000000000000000
310
000000FFFFFFFFFF0000000000000000000000000000000000000000000000000000FF0000FFFFFFFFFF000000000000000000000000000000000000000000000000FF0000FFFFFFFFFFFF000000000000000000000000000000000000000000FFFF000000FF00FFFFFFFF00000000000000000000000000000000000000FF
310
FF0000000000FFFFFFFFFFFF00000000000000000000000000000000FFFFFF00000000000000FFFFFFFF00FF000000000000000000000000000000FFFFFF0000000000000000FFFFA4FF00FF000000000000000000000000FFFFFF0000000000000000000000FFFF0000FFFF000000000000000000000000FF000000000000
310
00000000000000FFFFA4FFFFFF000000000000000000000000FF00000000000000000000000000FFFFFFFFFFFF000000000000000000000000FF00000000000000000000000000FFFFFFA4FFFF000000000000000000000000FF00000000000000000000000000FFFFFFA4FFFF000000000000000000000000FF0000000000
310
0000000000000000FF00FFFFFFFF000000000000000000000000FF00000000000000000000000000FF00FF00FFFF000000000000000000000000FF00000000000000000000000000FF00FFFF00FF000000000000000000000000FF00000000000000000000000000FF00000000FF000000000000000000000000FF00000000
310
000000000000000000FFFF000000FF000000000000000000000000FF00000000000000000000000000FFFFFFFF00FF000000000000000000000000FF000000000000000000000000FF00FFFFFFFFFF000000000000000000000000FF00000000000000FF000000FFFFFFFFFFFFFFFF000000000000000000000000FF000000
310
000000FFFF00FFFF00FFFFFFFF00FF00000000000000000000000000FF000000000000FFFFFF0000FFFFFFFFFFFF0000000000000000000000000000FF0000000000FFFFFFFFFF00FFFFFF0000FF0000000000000000000000000000FF0000000000FFFFFFFFFFFFFF0000FFFF000000000000000000000000000000FF0000
310
00FFFF0000FFFFFFFFFFFFFF000000000000000000000000000000000000FFFFFF00FFFFFF0000FFFF0000000000000000000000000000000000000000000000FFFF00FFFF00FFFF00000000000000000000000000000000000000000000000000FFFFFF00FF00000000000000000000000000000000000000000000000000
310
00000000FFFF0000000000000000000000000000000000000000000000000000000000000000000000000000000000000000000000000000
102
{BLKREFS
331
8D1
102
}
1001
ACAD
1000
DesignCenter Data
1002
{
1070
     1
1070
     4
1002
}
  0
ENDTAB
  0
ENDSEC
  0
SECTION
  2
BLOCKS
  0
BLOCK
  5
20
330
1F
100
AcDbEntity
  8
0
100
AcDbBlockBegin
  2
*Model_Space
 70
     0
 10
0.0
 20
0.0
 30
0.0
  3
*Model_Space
  1

  0
ENDBLK
  5
21
330
1F
100
AcDbEntity
  8
0
100
AcDbBlockEnd
  0
BLOCK
  5
D4
330
D2
100
AcDbEntity
 67
     1
  8
0
100
AcDbBlockBegin
  2
*Paper_Space
 70
     0
 10
0.0
 20
0.0
 30
0.0
  3
*Paper_Space
  1

  0
ENDBLK
  5
D5
330
D2
100
AcDbEntity
 67
     1
  8
0
100
AcDbBlockEnd
  0
BLOCK
  5
D8
330
D6
100
AcDbEntity
 67
     1
  8
0
100
AcDbBlockBegin
  2
*Paper_Space0
 70
     0
 10
0.0
 20
0.0
 30
0.0
  3
*Paper_Space0
  1

  0
ENDBLK
  5
D9
330
D6
100
AcDbEntity
 67
     1
  8
0
100
AcDbBlockEnd
  0
BLOCK
  5
668
330
667
100
AcDbEntity
  8
0
100
AcDbBlockBegin
  2
1
 70
     0
 10
0.0
 20
0.0
 30
0.0
  3
1
  1

  0
LINE
  5
66A
330
667
100
AcDbEntity
  8
0
  6
Continuous
 62
     7
370
    15
100
AcDbLine
 10
2190.482599797542
 20
1003.647137292205
 30
0.0
 11
2190.482599797542
 21
1003.44836325246
 31
0.0
  0
LINE
  5
66B
330
667
100
AcDbEntity
  8
0
  6
Continuous
 62
     7
370
    15
100
AcDbLine
 10
2192.982599974493
 20
1003.44836325246
 30
0.0
 11
2192.982599974493
 21
1003.647137292205
 31
0.0
  0
ARC
  5
66C
330
667
100
AcDbEntity
  8
0
  6
Continuous
 62
     7
370
    15
100
AcDbCircle
 10
2155.232598783521
 20
1000.247388366739
 30
0.0
 40
1.0
100
AcDbArc
 50
179.9999999999739
 51
261.4961382783133
  0
LINE
  5
66D
330
667
100
AcDbEntity
  8
0
  6
Continuous
 62
     7
370
    15
100
AcDbLine
 10
2154.23259967647
 20
1000.247388937055
 30
0.0
 11
2154.23259967647
 21
1075.078405298768
 31
0.0
  0
SPLINE
  5
66E
330
667
100
AcDbEntity
  8
0
  6
Continuous
 62
     7
370
    15
100
AcDbSpline
210
0.0
220
0.0
230
1.0
 70
     8
 71
     3
 72
    16
 73
    12
 74
     0
 42
0.0000000001
 43
0.0000000001
 40
0.0
 40
0.0
 40
0.0
 40
0.0
 40
0.0840471305555418
 40
0.1673408307812975
 40
0.2502358297439557
 40
0.3330919775048991
 40
0.4162696283709327
 40
0.5001249919348921
 40
0.6667710046318299
 40
0.8324319057010681
 40
1.0
 40
1.0
 40
1.0
 40
1.0
 10
2154.818385221145
 20
1076.49261905119
 30
0.0
 10
2154.787873913249
 20
1076.460908850524
 30
0.0
 10
2154.727124812383
 20
1076.397772711448
 30
0.0
 10
2154.644235425108
 20
1076.296185820995
 30
0.0
 10
2154.568130075996
 20
1076.19026836576
 30
0.0
 10
2154.499335672356
 20
1076.079500952319
 30
0.0
 10
2154.437738036817
 20
1075.964019771391
 30
0.0
 10
2154.365616093759
 20
1075.804827076817
 30
0.0
 10
2154.295370963707
 20
1075.598088020894
 30
0.0
 10
2154.242380922943
 20
1075.340716069382
 30
0.0
 10
2154.235871914483
 20
1075.16617533614
 30
0.0
 10
2154.232598783517
 20
1075.078405488818
 30
0.0
  0
LINE
  5
66F
330
667
100
AcDbEntity
  8
0
  6
Continuous
 62
     7
370
    15
100
AcDbLine
 10
2163.048342705587
 20
1084.722576521812
 30
0.0
 11
2154.818386674742
 21
1076.492618628322
 31
0.0
  0
SPLINE
  5
670
330
667
100
AcDbEntity
  8
0
  6
Continuous
 62
     7
370
    15
100
AcDbSpline
210
0.0
220
0.0
230
1.0
 70
     8
 71
     3
 72
    16
 73
    12
 74
     0
 42
0.0000000001
 43
0.0000000001
 40
0.0
 40
0.0
 40
0.0
 40
0.0
 40
0.084047130554853
 40
0.1673408307802179
 40
0.2502358297427834
 40
0.3330919775039285
 40
0.4162696283704443
 40
0.5001249919351521
 40
0.6667710046309274
 40
0.8324319057000614
 40
0.9999999999999998
 40
0.9999999999999998
 40
0.9999999999999998
 40
0.9999999999999998
 10
2164.462556326512
 20
1085.308363031812
 30
0.0
 10
2164.418559075873
 20
1085.307515286604
 30
0.0
 10
2164.330958982622
 20
1085.305827395699
 30
0.0
 10
2164.200514555673
 20
1085.292606264411
 30
0.0
 10
2164.071804996388
 20
1085.27152592201
 30
0.0
 10
2163.944835617888
 20
1085.241846522152
 30
0.0
 10
2163.81962198596
 20
1085.203745101813
 30
0.0
 10
2163.656057837102
 20
1085.142176782973
 30
0.0
 10
2163.460200440917
 20
1085.045661002401
 30
0.0
 10
2163.240741371557
 20
1084.901141167359
 30
0.0
 10
2163.112719871467
 20
1084.782324795311
 30
0.0
 10
2163.04834276414
 20
1084.722576594186
 30
0.0
  0
LINE
  5
671
330
667
100
AcDbEntity
  8
0
  6
Continuous
 62
     7
370
    15
100
AcDbLine
 10
2164.462556035141
 20
1085.308363520084
 30
0.0
 11
2186.932598784915
 21
1085.308363520084
 31
0.0
  0
SPLINE
  5
672
330
667
100
AcDbEntity
  8
0
  6
Continuous
 62
     7
370
    15
100
AcDbSpline
210
0.0
220
0.0
230
1.0
 70
     8
 71
     3
 72
    17
 73
    13
 74
     0
 42
0.0000000001
 43
0.0000000001
 40
0.0
 40
0.0
 40
0.0
 40
0.0
 40
0.0623914722789778
 40
0.1244880396367052
 40
0.1868953789811012
 40
0.2502102492126657
 40
0.3756371287414849
 40
0.5001423281605201
 40
0.6239742210603861
 40
0.7500746391838389
 40
0.8753268328771369
 40
1.0
 40
1.0
 40
1.0
 40
1.0
 10
2187.932598783517
 20
1084.308363031812
 30
0.0
 10
2187.931619676933
 20
1084.340986451489
 30
0.0
 10
2187.929666091692
 20
1084.40607909017
 30
0.0
 10
2187.914570562623
 20
1084.50283630617
 30
0.0
 10
2187.890520297688
 20
1084.598152571229
 30
0.0
 10
2187.846011156577
 20
1084.721826578187
 30
0.0
 10
2187.76916268028
 20
1084.867681135383
 30
0.0
 10
2187.644502621008
 20
1085.019727065898
 30
0.0
 10
2187.492189623418
 20
1085.144866669373
 30
0.0
 10
2187.317652358007
 20
1085.236343655601
 30
0.0
 10
2187.128750552608
 20
1085.297034515761
 30
0.0
 10
2186.997881640938
 20
1085.304592696721
 30
0.0
 10
2186.932598783518
 20
1085.308363031812
 30
0.0
  0
LINE
  5
673
330
667
100
AcDbEntity
  8
0
  6
Continuous
 62
     7
370
    15
100
AcDbLine
 10
2187.932598774204
 20
1084.308363356172
 30
0.0
 11
2187.932598774204
 21
1073.308363415776
 31
0.0
  0
LINE
  5
674
330
667
100
AcDbEntity
  8
0
  6
Continuous
 62
     7
370
    15
100
AcDbLine
 10
2195.532598436693
 20
1073.308363415776
 30
0.0
 11
2187.932598774204
 21
1073.308363415776
 31
0.0
  0
LINE
  5
675
330
667
100
AcDbEntity
  8
0
  6
Continuous
 62
     7
370
    15
100
AcDbLine
 10
2195.532598436693
 20
1073.308363415776
 30
0.0
 11
2195.532598436693
 21
1084.308363356172
 31
0.0
  0
SPLINE
  5
676
330
667
100
AcDbEntity
  8
0
  6
Continuous
 62
     7
370
    15
100
AcDbSpline
210
0.0
220
0.0
230
1.0
 70
     8
 71
     3
 72
    17
 73
    13
 74
     0
 42
0.0000000001
 43
0.0000000001
 40
0.0
 40
0.0
 40
0.0
 40
0.0
 40
0.0623914722797254
 40
0.1244880396377048
 40
0.1868953789818629
 40
0.2502102492127247
 40
0.375637128742833
 40
0.500142328160538
 40
0.6239742210605924
 40
0.7500746391838178
 40
0.875326832876944
 40
0.9999999999999998
 40
0.9999999999999998
 40
0.9999999999999998
 40
0.9999999999999998
 10
2196.532598783521
 20
1085.308363031811
 30
0.0
 10
2196.499975363844
 20
1085.307383925226
 30
0.0
 10
2196.434882725162
 20
1085.305430339986
 30
0.0
 10
2196.338125509161
 20
1085.290334810917
 30
0.0
 10
2196.242809244103
 20
1085.266284545983
 30
0.0
 10
2196.119135237146
 20
1085.221775404871
 30
0.0
 10
2195.973280679949
 20
1085.144926928573
 30
0.0
 10
2195.821234749434
 20
1085.020266869301
 30
0.0
 10
2195.696095145961
 20
1084.867953871711
 30
0.0
 10
2195.604618159732
 20
1084.693416606301
 30
0.0
 10
2195.543927299572
 20
1084.504514800902
 30
0.0
 10
2195.536369118612
 20
1084.373645889232
 30
0.0
 10
2195.532598783521
 20
1084.308363031811
 30
0.0
  0
SPLINE
  5
677
330
667
100
AcDbEntity
  8
0
  6
Continuous
 62
     7
370
    15
100
AcDbSpline
210
0.0
220
0.0
230
1.0
 70
     8
 71
     3
 72
    16
 73
    12
 74
     0
 42
0.0000000001
 43
0.0000000001
 40
0.0
 40
0.0
 40
0.0
 40
0.0
 40
0.0840471305561148
 40
0.1673408307822099
 40
0.2502358297449728
 40
0.3330919775058044
 40
0.4162696283715018
 40
0.5001249919349218
 40
0.6667710046327175
 40
0.8324319057019707
 40
1.0
 40
1.0
 40
1.0
 40
1.0
 10
2220.416854802899
 20
1084.722576594184
 30
0.0
 10
2220.385144602233
 20
1084.753087902081
 30
0.0
 10
2220.322008463157
 20
1084.813837002946
 30
0.0
 10
2220.220421572703
 20
1084.896726390222
 30
0.0
 10
2220.114504117468
 20
1084.972831739334
 30
0.0
 10
2220.003736704027
 20
1085.041626142974
 30
0.0
 10
2219.8882555231
 20
1085.103223778513
 30
0.0
 10
2219.729062828525
 20
1085.17534572157
 30
0.0
 10
2219.522323772602
 20
1085.245590851622
 30
0.0
 10
2219.26495182109
 20
1085.298580892386
 30
0.0
 10
2219.090411087848
 20
1085.305089900846
 30
0.0
 10
2219.002641240527
 20
1085.308363031811
 30
0.0
  0
LINE
  5
678
330
667
100
AcDbEntity
  8
0
  6
Continuous
 62
     7
370
    15
100
AcDbLine
 10
2228.64681193314
 20
1076.492618628322
 30
0.0
 11
2220.416855902294
 21
1084.722576521812
 31
0.0
  0
SPLINE
  5
679
330
667
100
AcDbEntity
  8
0
  6
Continuous
 62
     7
370
    15
100
AcDbSpline
210
0.0
220
0.0
230
1.0
 70
     8
 71
     3
 72
    16
 73
    12
 74
     0
 42
0.0000000001
 43
0.0000000001
 40
0.0
 40
0.0
 40
0.0
 40
0.0
 40
0.0840471305560536
 40
0.1673408307820993
 40
0.2502358297448337
 40
0.333091977505636
 40
0.4162696283713239
 40
0.5001249919347359
 40
0.6667710046324822
 40
0.8324319057017893
 40
0.9999999999999998
 40
0.9999999999999998
 40
0.9999999999999998
 40
0.9999999999999998
 10
2229.232598783521
 20
1075.078405488818
 30
0.0
 10
2229.231751038313
 20
1075.122402739458
 30
0.0
 10
2229.230063147407
 20
1075.21000283271
 30
0.0
 10
2229.21684201612
 20
1075.34044725966
 30
0.0
 10
2229.195761673718
 20
1075.469156818944
 30
0.0
 10
2229.166082273861
 20
1075.596126197444
 30
0.0
 10
2229.127980853522
 20
1075.721339829372
 30
0.0
 10
2229.066412534681
 20
1075.884903978229
 30
0.0
 10
2228.969896754107
 20
1076.080761374413
 30
0.0
 10
2228.825376919065
 20
1076.300220443775
 30
0.0
 10
2228.706560547017
 20
1076.428241943863
 30
0.0
 10
2228.646812345894
 20
1076.49261905119
 30
0.0
  0
LINE
  5
67A
330
667
100
AcDbEntity
  8
0
  6
Continuous
 62
     7
370
    15
100
AcDbLine
 10
2229.232598931412
 20
1000.247385211765
 30
0.0
 11
2229.232598931412
 21
1075.078405298768
 31
0.0
  0
ARC
  5
67B
330
667
100
AcDbEntity
  8
0
  6
Continuous
 62
     7
370
    15
100
AcDbCircle
 10
2228.232598783521
 20
1000.247386202923
 30
0.0
 40
1.000000000000013
100
AcDbArc
 50
278.5038617216867
 51
0.0000000000065138
  0
LINE
  5
67C
330
667
100
AcDbEntity
  8
0
  6
Continuous
 62
     7
370
    15
100
AcDbLine
 10
2228.380476028541
 20
999.2583802421679
 30
0.0
 11
2215.412150041083
 21
997.3193591912378
 31
0.0
  0
ARC
  5
67D
330
667
100
AcDbEntity
  8
0
  6
Continuous
 62
     7
370
    15
100
AcDbCircle
 10
2215.264274161324
 20
998.3083635086664
 30
0.0
 40
0.9999999999997278
100
AcDbArc
 50
270.0
 51
278.5038617216867
  0
LINE
  5
67E
330
667
100
AcDbEntity
  8
0
  6
Continuous
 62
     7
370
    15
100
AcDbLine
 10
2210.482605636934
 20
997.3083621342768
 30
0.0
 11
2215.264274642686
 21
997.3083621342768
 31
0.0
  0
ARC
  5
67F
330
667
100
AcDbEntity
  8
0
  6
Continuous
 62
     7
370
    15
100
AcDbCircle
 10
2210.482606019398
 20
998.3083635086664
 30
0.0
 40
1.0
100
AcDbArc
 50
179.9999999999804
 51
270.0
  0
LINE
  5
680
330
667
100
AcDbEntity
  8
0
  6
Continuous
 62
     7
370
    15
100
AcDbLine
 10
2209.482605473021
 20
998.3083641608347
 30
0.0
 11
2209.482605473021
 21
1003.647137292205
 31
0.0
  0
LINE
  5
681
330
667
100
AcDbEntity
  8
0
  6
Continuous
 62
     7
370
    15
100
AcDbLine
 10
2173.982606173376
 20
1003.647137292205
 30
0.0
 11
2209.482605473021
 21
1003.647137292205
 31
0.0
  0
LINE
  5
682
330
667
100
AcDbEntity
  8
0
  6
Continuous
 62
     7
370
    15
100
AcDbLine
 10
2173.982606173376
 20
998.3083641608347
 30
0.0
 11
2173.982606173376
 21
1003.647137292205
 31
0.0
  0
ARC
  5
683
330
667
100
AcDbEntity
  8
0
  6
Continuous
 62
     7
370
    15
100
AcDbCircle
 10
2172.982606019398
 20
998.3083635086664
 30
0.0
 40
1.0
100
AcDbArc
 50
270.0
 51
0.0000000000130276
  0
LINE
  5
684
330
667
100
AcDbEntity
  8
0
  6
Continuous
 62
     7
370
    15
100
AcDbLine
 10
2168.200937003712
 20
997.3083621342768
 30
0.0
 11
2172.982606009463
 21
997.3083621342768
 31
0.0
  0
ARC
  5
685
330
667
100
AcDbEntity
  8
0
  6
Continuous
 62
     7
370
    15
100
AcDbCircle
 10
2168.200937877472
 20
998.3083635086664
 30
0.0
 40
0.9999999999998683
100
AcDbArc
 50
261.4961382783133
 51
270.0
  0
LINE
  5
686
330
667
100
AcDbEntity
  8
0
  6
Continuous
 62
     7
370
    15
100
AcDbLine
 10
2158.55155782483
 20
998.7400209982981
 30
0.0
 11
2168.053061605314
 21
997.3193591912378
 31
0.0
  0
LINE
  5
687
330
667
100
AcDbEntity
  8
0
  6
Continuous
 62
     7
370
    15
100
AcDbLine
 10
2158.55155782483
 20
998.7400209982981
 30
0.0
 11
2156.055190504412
 21
998.7400209982981
 31
0.0
  0
LINE
  5
688
330
667
100
AcDbEntity
  8
0
  6
Continuous
 62
     7
370
    15
100
AcDbLine
 10
2156.055190504412
 20
998.7400209982981
 30
0.0
 11
2156.055190504412
 21
999.1132801850428
 31
0.0
  0
LINE
  5
689
330
667
100
AcDbEntity
  8
0
  6
Continuous
 62
     7
370
    15
100
AcDbLine
 10
2155.08472257934
 20
999.2583839674582
 30
0.0
 11
2156.055190504412
 21
999.1132801850428
 31
0.0
  0
LINE
  5
68A
330
667
100
AcDbEntity
  8
0
  6
Continuous
 62
     7
370
    15
100
AcDbLine
 10
2196.532598600606
 20
1085.308363520084
 30
0.0
 11
2219.00264257274
 21
1085.308363520084
 31
0.0
  0
LINE
  5
68B
330
667
100
AcDbEntity
  8
0
  6
Continuous
 62
     7
370
    15
100
AcDbLine
 10
2210.808615104178
 20
996.4483639677157
 30
0.0
 11
2213.092283249716
 21
996.4483639677157
 31
0.0
  0
ARC
  5
68C
330
667
100
AcDbEntity
  8
0
  6
Continuous
 62
     7
370
    15
100
AcDbCircle
 10
2210.808615709286
 20
996.9483630318228
 30
0.0
 40
0.5000000000003004
100
AcDbArc
 50
221.4014757121616
 51
270.0
  0
ARC
  5
68D
330
667
100
AcDbEntity
  8
0
  6
Continuous
 62
     7
370
    15
100
AcDbCircle
 10
2232.936389789097
 20
1016.457632989277
 30
0.0
 40
30.00000000000007
100
AcDbArc
 50
210.6692294814653
 51
221.401475712642
  0
LINE
  5
68E
330
667
100
AcDbEntity
  8
0
  6
Continuous
 62
     7
370
    15
100
AcDbLine
 10
2207.132599220494
 20
1001.905202724515
 30
0.0
 11
2207.132599220494
 21
1001.155201204597
 31
0.0
  0
LINE
  5
68F
330
667
100
AcDbEntity
  8
0
  6
Continuous
 62
     7
370
    15
100
AcDbLine
 10
2208.982598871807
 20
1002.407625176488
 30
0.0
 11
2207.132599220494
 21
1001.905202724515
 31
0.0
  0
LINE
  5
690
330
667
100
AcDbEntity
  8
0
  6
Continuous
 62
     7
370
    15
100
AcDbLine
 10
2208.982598871807
 20
1003.647137292205
 30
0.0
 11
2208.982598871807
 21
1002.407625176488
 31
0.0
  0
ARC
  5
691
330
667
100
AcDbEntity
  8
0
  6
Continuous
 62
     7
370
    15
100
AcDbCircle
 10
2213.092283471628
 20
996.9483630318231
 30
0.0
 40
0.5000000000000285
100
AcDbArc
 50
270.0
 51
345.0000146724729
  0
LINE
  5
692
330
667
100
AcDbEntity
  8
0
  6
Continuous
 62
     7
370
    15
100
AcDbLine
 10
2213.575246647815
 20
996.8189521213163
 30
0.0
 11
2213.706382454256
 21
997.3083621342768
 31
0.0
  0
LINE
  5
693
330
667
100
AcDbEntity
  8
0
  6
Continuous
 62
     7
370
    15
100
AcDbLine
 10
2174.482599736074
 20
1002.304002501546
 30
0.0
 11
2174.482599736074
 21
1003.647137292205
 31
0.0
  0
LINE
  5
694
330
667
100
AcDbEntity
  8
0
  6
Continuous
 62
     7
370
    15
100
AcDbLine
 10
2176.332599387387
 20
1001.801580049573
 30
0.0
 11
2174.482599736074
 21
1002.304002501546
 31
0.0
  0
LINE
  5
695
330
667
100
AcDbEntity
  8
0
  6
Continuous
 62
     7
370
    15
100
AcDbLine
 10
2176.332599387387
 20
1001.155201204597
 30
0.0
 11
2176.332599387387
 21
1001.801580049573
 31
0.0
  0
ARC
  5
696
330
667
100
AcDbEntity
  8
0
  6
Continuous
 62
     7
370
    15
100
AcDbCircle
 10
2172.656583885536
 20
996.9483630318228
 30
0.0
 40
0.5000000000001137
100
AcDbArc
 50
270.0
 51
318.5985242873629
  0
LINE
  5
697
330
667
100
AcDbEntity
  8
0
  6
Continuous
 62
     7
370
    15
100
AcDbLine
 10
2170.372915358166
 20
996.4483639677157
 30
0.0
 11
2172.656583503703
 21
996.4483639677157
 31
0.0
  0
ARC
  5
698
330
667
100
AcDbEntity
  8
0
  6
Continuous
 62
     7
370
    15
100
AcDbCircle
 10
2170.372916123193
 20
996.9483630318231
 30
0.0
 40
0.5000000000000285
100
AcDbArc
 50
194.9999853275271
 51
270.0
  0
ARC
  5
699
330
667
100
AcDbEntity
  8
0
  6
Continuous
 62
     7
370
    15
100
AcDbCircle
 10
2150.528809805725
 20
1016.457632989278
 30
0.0
 40
30.00000000000003
100
AcDbArc
 50
318.598524287358
 51
329.3307705185346
  0
LINE
  5
69A
330
667
100
AcDbEntity
  8
0
  6
Continuous
 62
     7
370
    15
100
AcDbLine
 10
2169.758816153625
 20
997.3083621342768
 30
0.0
 11
2169.889953822712
 21
996.8189521213163
 31
0.0
  0
LINE
  5
69B
330
667
100
AcDbEntity
  8
0
  6
Continuous
 62
     7
370
    15
100
AcDbLine
 10
2190.482599797542
 20
1003.44836325246
 30
0.0
 11
2192.982599974493
 21
1003.44836325246
 31
0.0
  0
ENDBLK
  5
669
330
667
100
AcDbEntity
  8
0
100
AcDbBlockEnd
  0
BLOCK
  5
69E
330
69D
100
AcDbEntity
  8
0
100
AcDbBlockBegin
  2
2
 70
     0
 10
0.0
 20
0.0
 30
0.0
  3
2
  1

  0
LINE
  5
926
330
69D
100
AcDbEntity
  8
0
  6
Continuous
 62
     7
370
    15
100
AcDbLine
 10
2075.667769763039
 20
1076.366526864944
 30
0.0
 11
2082.673038936572
 21
1076.366526864944
 31
0.0
1001
AcDbBlockRepETag
1070
     1
1071
        0
1005
926
  0
LINE
  5
927
330
69D
100
AcDbEntity
  8
0
  6
Continuous
 62
     7
370
    15
100
AcDbLine
 10
2082.670477799492
 20
1078.250085793911
 30
0.0
 11
2075.670478049086
 21
1078.250085793911
 31
0.0
1001
AcDbBlockRepETag
1070
     1
1071
        1
1005
927
  0
LINE
  5
928
330
69D
100
AcDbEntity
  8
0
  6
Continuous
 62
     7
370
    15
100
AcDbLine
 10
2075.670478049086
 20
1078.596614160119
 30
0.0
 11
2082.670477799492
 21
1078.596614160119
 31
0.0
1001
AcDbBlockRepETag
1070
     1
1071
        2
1005
928
  0
LINE
  5
929
330
69D
100
AcDbEntity
  8
0
  6
Continuous
 62
     7
370
    15
100
AcDbLine
 10
2082.670477799492
 20
1080.48017122644
 30
0.0
 11
2075.670478049086
 21
1080.48017122644
 31
0.0
1001
AcDbBlockRepETag
1070
     1
1071
        3
1005
929
  0
LINE
  5
92A
330
69D
100
AcDbEntity
  8
0
  6
Continuous
 62
     7
370
    15
100
AcDbLine
 10
2075.670478049086
 20
1080.826699592648
 30
0.0
 11
2082.670477799492
 21
1080.826699592648
 31
0.0
1001
AcDbBlockRepETag
1070
     1
1071
        4
1005
92A
  0
LINE
  5
92B
330
69D
100
AcDbEntity
  8
0
  6
Continuous
 62
     7
370
    15
100
AcDbLine
 10
2082.670477799492
 20
1082.710258521615
 30
0.0
 11
2075.670478049086
 21
1082.710258521615
 31
0.0
1001
AcDbBlockRepETag
1070
     1
1071
        5
1005
92B
  0
LINE
  5
92C
330
69D
100
AcDbEntity
  8
0
  6
Continuous
 62
     7
370
    15
100
AcDbLine
 10
2075.670478049086
 20
1083.056785025178
 30
0.0
 11
2082.670477799492
 21
1083.056785025178
 31
0.0
1001
AcDbBlockRepETag
1070
     1
1071
        6
1005
92C
  0
LINE
  5
92D
330
69D
100
AcDbEntity
  8
0
  6
Continuous
 62
     7
370
    15
100
AcDbLine
 10
2079.17072775157
 20
997.5898040910353
 30
0.0
 11
2084.473972789364
 21
997.5898040910353
 31
0.0
1001
AcDbBlockRepETag
1070
     1
1071
        7
1005
92D
  0
LINE
  5
92E
330
69D
100
AcDbEntity
  8
0
  6
Continuous
 62
     7
370
    15
100
AcDbLine
 10
2073.866983990537
 20
997.5898040910353
 30
0.0
 11
2079.17072775157
 21
997.5898040910353
 31
0.0
1001
AcDbBlockRepETag
1070
     1
1071
        8
1005
92E
  0
SPLINE
  5
92F
330
69D
100
AcDbEntity
  8
0
  6
Continuous
 62
     7
370
    15
100
AcDbSpline
210
0.0
220
0.0
230
1.0
 70
    24
 71
     3
 72
     8
 73
     4
 74
     0
 42
0.0000000001
 43
0.0000000001
 40
0.0
 40
0.0
 40
0.0
 40
0.0
 40
1.0
 40
1.0
 40
1.0
 40
1.0
 10
2075.670478157893
 20
1076.241187786454
 30
0.0
 10
2075.670478157893
 20
1076.330665129807
 30
0.0
 10
2075.670478157893
 20
1076.414855832533
 30
0.0
 10
2075.670478157893
 20
1076.49261905119
 30
0.0
1001
AcDbBlockRepETag
1070
     1
1071
        9
1005
92F
  0
LINE
  5
930
330
69D
100
AcDbEntity
  8
0
  6
Continuous
 62
     7
370
    15
100
AcDbLine
 10
2082.670477799492
 20
1076.241187610208
 30
0.0
 11
2075.670478049086
 21
1076.241187610208
 31
0.0
1001
AcDbBlockRepETag
1070
     1
1071
       10
1005
930
  0
SPLINE
  5
931
330
69D
100
AcDbEntity
  8
0
  6
Continuous
 62
     7
370
    15
100
AcDbSpline
210
0.0
220
0.0
230
1.0
 70
    24
 71
     3
 72
     8
 73
     4
 74
     0
 42
0.0000000001
 43
0.0000000001
 40
0.0
 40
0.0
 40
0.0
 40
0.0
 40
1.0
 40
1.0
 40
1.0
 40
1.0
 10
2082.670478157893
 20
1076.49261905119
 30
0.0
 10
2082.670478157893
 20
1076.414855832532
 30
0.0
 10
2082.670478157893
 20
1076.330665129807
 30
0.0
 10
2082.670478157893
 20
1076.241187786454
 30
0.0
1001
AcDbBlockRepETag
1070
     1
1071
       11
1005
931
  0
LINE
  5
932
330
69D
100
AcDbEntity
  8
0
  6
Continuous
 62
     7
370
    15
100
AcDbLine
 10
2075.670478157893
 20
1076.492618628322
 30
0.0
 11
2092.170478157894
 21
1076.492618628322
 31
0.0
1001
AcDbBlockRepETag
1070
     1
1071
       12
1005
932
  0
SPLINE
  5
933
330
69D
100
AcDbEntity
  8
0
  6
Continuous
 62
     7
370
    15
100
AcDbSpline
210
0.0
220
0.0
230
1.0
 70
    24
 71
     3
 72
    10
 73
     6
 74
     0
 42
0.0000000001
 43
0.0000000001
 40
0.0
 40
0.0
 40
0.0
 40
0.0
 40
0.5
 40
0.5
 40
1.0
 40
1.0
 40
1.0
 40
1.0
 10
2092.170478157894
 20
1075.078405488818
 30
0.0
 10
2092.170478157894
 20
1075.340204876616
 30
0.0
 10
2092.170478157894
 20
1075.601901257536
 30
0.0
 10
2092.170478157894
 20
1076.085643449559
 30
0.0
 10
2092.170478157894
 20
1076.307498928767
 30
0.0
 10
2092.170478157894
 20
1076.49261905119
 30
0.0
1001
AcDbBlockRepETag
1070
     1
1071
       13
1005
933
  0
LINE
  5
934
330
69D
100
AcDbEntity
  8
0
  6
Continuous
 62
     7
370
    15
100
AcDbLine
 10
2092.170478431301
 20
1075.078405298768
 30
0.0
 11
2066.170478173976
 21
1075.078405298768
 31
0.0
1001
AcDbBlockRepETag
1070
     1
1071
       14
1005
934
  0
SPLINE
  5
935
330
69D
100
AcDbEntity
  8
0
  6
Continuous
 62
     7
370
    15
100
AcDbSpline
210
0.0
220
0.0
230
1.0
 70
    24
 71
     3
 72
    16
 73
    12
 74
     0
 42
0.0000000001
 43
0.0000000001
 40
0.0
 40
0.0
 40
0.0
 40
0.0
 40
0.0840471305560536
 40
0.1673408307820993
 40
0.2502358297448337
 40
0.333091977505636
 40
0.4162696283713239
 40
0.5001249919347359
 40
0.6667710046324822
 40
0.8324319057017893
 40
0.9999999999999998
 40
0.9999999999999998
 40
0.9999999999999998
 40
0.9999999999999998
 10
2066.170478157919
 20
1075.078405488818
 30
0.0
 10
2066.170478157919
 20
1075.122402739458
 30
0.0
 10
2066.170478157919
 20
1075.21000283271
 30
0.0
 10
2066.170478157919
 20
1075.34044725966
 30
0.0
 10
2066.170478157919
 20
1075.469156818944
 30
0.0
 10
2066.170478157919
 20
1075.596126197444
 30
0.0
 10
2066.170478157919
 20
1075.721339829372
 30
0.0
 10
2066.170478157919
 20
1075.884903978229
 30
0.0
 10
2066.170478157919
 20
1076.080761374413
 30
0.0
 10
2066.170478157919
 20
1076.300220443775
 30
0.0
 10
2066.170478157919
 20
1076.428241943863
 30
0.0
 10
2066.170478157919
 20
1076.49261905119
 30
0.0
1001
AcDbBlockRepETag
1070
     1
1071
       15
1005
935
  0
LINE
  5
936
330
69D
100
AcDbEntity
  8
0
  6
Continuous
 62
     7
370
    15
100
AcDbLine
 10
2082.670478157893
 20
1076.492618628322
 30
0.0
 11
2066.170478157919
 21
1076.492618628322
 31
0.0
1001
AcDbBlockRepETag
1070
     1
1071
       16
1005
936
  0
LINE
  5
937
330
69D
100
AcDbEntity
  8
0
  6
Continuous
 62
     7
370
    15
100
AcDbLine
 10
2080.670478402989
 20
1062.135360295428
 30
0.0
 11
2077.67047791125
 21
1062.135360295428
 31
0.0
1001
AcDbBlockRepETag
1070
     1
1071
       17
1005
937
  0
ARC
  5
938
330
69D
100
AcDbEntity
  8
0
  6
Continuous
 62
     7
370
    15
100
AcDbCircle
 10
2077.670478157918
 20
1060.135360357477
 30
0.0
 40
2.0
100
AcDbArc
 50
90.0
 51
270.0
1001
AcDbBlockRepETag
1070
     1
1071
       18
1005
938
  0
LINE
  5
939
330
69D
100
AcDbEntity
  8
0
  6
Continuous
 62
     7
370
    15
100
AcDbLine
 10
2077.67047791125
 20
1058.135360338269
 30
0.0
 11
2080.670478402989
 21
1058.135360338269
 31
0.0
1001
AcDbBlockRepETag
1070
     1
1071
       19
1005
939
  0
ARC
  5
93A
330
69D
100
AcDbEntity
  8
0
  6
Continuous
 62
     7
370
    15
100
AcDbCircle
 10
2080.670478157882
 20
1060.135360357454
 30
0.0
 40
2.0
100
AcDbArc
 50
270.0000000000782
 51
90.00000000007814
1001
AcDbBlockRepETag
1070
     1
1071
       20
1005
93A
  0
LINE
  5
93B
330
69D
100
AcDbEntity
  8
0
  6
Continuous
 62
     7
370
    15
100
AcDbLine
 10
2066.170478173976
 20
1000.247385039587
 30
0.0
 11
2092.170478431301
 21
1000.247389109232
 31
0.0
1001
AcDbBlockRepETag
1070
     1
1071
       21
1005
93B
  0
LINE
  5
93C
330
69D
100
AcDbEntity
  8
0
  6
Continuous
 62
     7
370
    15
100
AcDbLine
 10
2066.170478173976
 20
1000.247385211765
 30
0.0
 11
2066.170478173976
 21
1075.078405298768
 31
0.0
1001
AcDbBlockRepETag
1070
     1
1071
       22
1005
93C
  0
LINE
  5
93D
330
69D
100
AcDbEntity
  8
0
  6
Continuous
 62
     7
370
    15
100
AcDbLine
 10
2068.720478155536
 20
1051.870745465635
 30
0.0
 11
2089.620478100495
 21
1051.870745465635
 31
0.0
1001
AcDbBlockRepETag
1070
     1
1071
       23
1005
93D
  0
LINE
  5
93E
330
69D
100
AcDbEntity
  8
0
  6
Continuous
 62
     7
370
    15
100
AcDbLine
 10
2068.720478155536
 20
1021.623428769885
 30
0.0
 11
2068.720478155536
 21
1051.870745465635
 31
0.0
1001
AcDbBlockRepETag
1070
     1
1071
       24
1005
93E
  0
LINE
  5
93F
330
69D
100
AcDbEntity
  8
0
  6
Continuous
 62
     7
370
    15
100
AcDbLine
 10
2068.720478155536
 20
1021.623428769885
 30
0.0
 11
2089.620478100495
 21
1021.623428769885
 31
0.0
1001
AcDbBlockRepETag
1070
     1
1071
       25
1005
93F
  0
LINE
  5
940
330
69D
100
AcDbEntity
  8
0
  6
Continuous
 62
     7
370
    15
100
AcDbLine
 10
2089.620478100495
 20
1021.623428769885
 30
0.0
 11
2089.620478100495
 21
1051.870745465635
 31
0.0
1001
AcDbBlockRepETag
1070
     1
1071
       26
1005
940
  0
LINE
  5
941
330
69D
100
AcDbEntity
  8
0
  6
Continuous
 62
     7
370
    15
100
AcDbLine
 10
2084.268971926884
 20
1018.673479415952
 30
0.0
 11
2084.268971926884
 21
1011.150836803495
 31
0.0
1001
AcDbBlockRepETag
1070
     1
1071
       27
1005
941
  0
LINE
  5
942
330
69D
100
AcDbEntity
  8
0
  6
Continuous
 62
     7
370
    15
100
AcDbLine
 10
2084.268971926884
 20
1018.673479415952
 30
0.0
 11
2074.071983921693
 21
1018.673479415952
 31
0.0
1001
AcDbBlockRepETag
1070
     1
1071
       28
1005
942
  0
LINE
  5
943
330
69D
100
AcDbEntity
  8
0
  6
Continuous
 62
     7
370
    15
100
AcDbLine
 10
2074.071983921693
 20
1018.673479415952
 30
0.0
 11
2074.071983921693
 21
1011.150836803495
 31
0.0
1001
AcDbBlockRepETag
1070
     1
1071
       29
1005
943
  0
ARC
  5
944
330
69D
100
AcDbEntity
  8
0
  6
Continuous
 62
     7
370
    15
100
AcDbCircle
 10
2073.571984129344
 20
1011.150838226718
 30
0.0
 40
0.4999999999999432
100
AcDbArc
 50
306.1570082013336
 51
0.0
1001
AcDbBlockRepETag
1070
     1
1071
       30
1005
944
  0
LINE
  5
945
330
69D
100
AcDbEntity
  8
0
  6
Continuous
 62
     7
370
    15
100
AcDbLine
 10
2073.866983990537
 20
1010.747138269721
 30
0.0
 11
2073.866983990537
 21
1010.05227477151
 31
0.0
1001
AcDbBlockRepETag
1070
     1
1071
       31
1005
945
  0
LINE
  5
946
330
69D
100
AcDbEntity
  8
0
  6
Continuous
 62
     7
370
    15
100
AcDbLine
 10
2070.870478053929
 20
1010.05227477151
 30
0.0
 11
2073.866983990537
 21
1010.05227477151
 31
0.0
1001
AcDbBlockRepETag
1070
     1
1071
       32
1005
946
  0
LINE
  5
947
330
69D
100
AcDbEntity
  8
0
  6
Continuous
 62
     7
370
    15
100
AcDbLine
 10
2070.870478053929
 20
1010.05227477151
 30
0.0
 11
2070.870478053929
 21
1004.649441548167
 31
0.0
1001
AcDbBlockRepETag
1070
     1
1071
       33
1005
947
  0
LINE
  5
948
330
69D
100
AcDbEntity
  8
0
  6
Continuous
 62
     7
370
    15
100
AcDbLine
 10
2073.866983990537
 20
1004.649441548167
 30
0.0
 11
2070.870478053929
 21
1004.649441548167
 31
0.0
1001
AcDbBlockRepETag
1070
     1
1071
       34
1005
948
  0
LINE
  5
949
330
69D
100
AcDbEntity
  8
0
  6
Continuous
 62
     7
370
    15
100
AcDbLine
 10
2073.866983990537
 20
1004.649441548167
 30
0.0
 11
2073.866983990537
 21
1003.647137292205
 31
0.0
1001
AcDbBlockRepETag
1070
     1
1071
       35
1005
949
  0
LINE
  5
94A
330
69D
100
AcDbEntity
  8
0
  6
Continuous
 62
     7
370
    15
100
AcDbLine
 10
2084.473972789364
 20
1003.647137292205
 30
0.0
 11
2073.866983990537
 21
1003.647137292205
 31
0.0
1001
AcDbBlockRepETag
1070
     1
1071
       36
1005
94A
  0
LINE
  5
94B
330
69D
100
AcDbEntity
  8
0
  6
Continuous
 62
     7
370
    15
100
AcDbLine
 10
2084.473972789364
 20
1003.647137292205
 30
0.0
 11
2084.473972789364
 21
1004.649441548167
 31
0.0
1001
AcDbBlockRepETag
1070
     1
1071
       37
1005
94B
  0
LINE
  5
94C
330
69D
100
AcDbEntity
  8
0
  6
Continuous
 62
     7
370
    15
100
AcDbLine
 10
2087.470478958802
 20
1004.649441548167
 30
0.0
 11
2084.473972789364
 21
1004.649441548167
 31
0.0
1001
AcDbBlockRepETag
1070
     1
1071
       38
1005
94C
  0
LINE
  5
94D
330
69D
100
AcDbEntity
  8
0
  6
Continuous
 62
     7
370
    15
100
AcDbLine
 10
2087.470478958802
 20
1004.649441548167
 30
0.0
 11
2087.470478958802
 21
1010.05227477151
 31
0.0
1001
AcDbBlockRepETag
1070
     1
1071
       39
1005
94D
  0
LINE
  5
94E
330
69D
100
AcDbEntity
  8
0
  6
Continuous
 62
     7
370
    15
100
AcDbLine
 10
2084.473972789364
 20
1010.05227477151
 30
0.0
 11
2087.470478958802
 21
1010.05227477151
 31
0.0
1001
AcDbBlockRepETag
1070
     1
1071
       40
1005
94E
  0
LINE
  5
94F
330
69D
100
AcDbEntity
  8
0
  6
Continuous
 62
     7
370
    15
100
AcDbLine
 10
2084.473972789364
 20
1010.05227477151
 30
0.0
 11
2084.473972789364
 21
1010.747138269721
 31
0.0
1001
AcDbBlockRepETag
1070
     1
1071
       41
1005
94F
  0
ARC
  5
950
330
69D
100
AcDbEntity
  8
0
  6
Continuous
 62
     7
370
    15
100
AcDbCircle
 10
2084.768972186459
 20
1011.150838226671
 30
0.0
 40
0.5000000000004623
100
AcDbArc
 50
180.0
 51
233.8429917964385
1001
AcDbBlockRepETag
1070
     1
1071
       42
1005
950
  0
LINE
  5
951
330
69D
100
AcDbEntity
  8
0
  6
Continuous
 62
     7
370
    15
100
AcDbLine
 10
2092.170478431301
 20
1000.247388937055
 30
0.0
 11
2092.170478431301
 21
1075.078405298768
 31
0.0
1001
AcDbBlockRepETag
1070
     1
1071
       43
1005
951
  0
LINE
  5
952
330
69D
100
AcDbEntity
  8
0
  6
Continuous
 62
     7
370
    15
100
AcDbLine
 10
2071.170478242801
 20
1005.74836120802
 30
0.0
 11
2071.170478242801
 21
1008.748363562404
 31
0.0
1001
AcDbBlockRepETag
1070
     1
1071
       44
1005
952
  0
LINE
  5
953
330
69D
100
AcDbEntity
  8
0
  6
Continuous
 62
     7
370
    15
100
AcDbLine
 10
2074.170478268878
 20
1008.748363562404
 30
0.0
 11
2071.170478242801
 21
1008.748363562404
 31
0.0
1001
AcDbBlockRepETag
1070
     1
1071
       45
1005
953
  0
LINE
  5
954
330
69D
100
AcDbEntity
  8
0
  6
Continuous
 62
     7
370
    15
100
AcDbLine
 10
2074.170478268878
 20
1009.948361523925
 30
0.0
 11
2074.170478268878
 21
1008.748363562404
 31
0.0
1001
AcDbBlockRepETag
1070
     1
1071
       46
1005
954
  0
LINE
  5
955
330
69D
100
AcDbEntity
  8
0
  6
Continuous
 62
     7
370
    15
100
AcDbLine
 10
2074.170478268878
 20
1009.948361523925
 30
0.0
 11
2084.170478976683
 21
1009.948361523925
 31
0.0
1001
AcDbBlockRepETag
1070
     1
1071
       47
1005
955
  0
LINE
  5
956
330
69D
100
AcDbEntity
  8
0
  6
Continuous
 62
     7
370
    15
100
AcDbLine
 10
2084.170478976683
 20
1008.748363562404
 30
0.0
 11
2084.170478976683
 21
1009.948361523925
 31
0.0
1001
AcDbBlockRepETag
1070
     1
1071
       48
1005
956
  0
LINE
  5
957
330
69D
100
AcDbEntity
  8
0
  6
Continuous
 62
     7
370
    15
100
AcDbLine
 10
2087.170477605777
 20
1008.748363562404
 30
0.0
 11
2084.170478976683
 21
1008.748363562404
 31
0.0
1001
AcDbBlockRepETag
1070
     1
1071
       49
1005
957
  0
LINE
  5
958
330
69D
100
AcDbEntity
  8
0
  6
Continuous
 62
     7
370
    15
100
AcDbLine
 10
2087.170477605777
 20
1005.74836120802
 30
0.0
 11
2087.170477605777
 21
1008.748363562404
 31
0.0
1001
AcDbBlockRepETag
1070
     1
1071
       50
1005
958
  0
LINE
  5
959
330
69D
100
AcDbEntity
  8
0
  6
Continuous
 62
     7
370
    15
100
AcDbLine
 10
2084.170478976683
 20
1005.74836120802
 30
0.0
 11
2087.170477605777
 21
1005.74836120802
 31
0.0
1001
AcDbBlockRepETag
1070
     1
1071
       51
1005
959
  0
LINE
  5
95A
330
69D
100
AcDbEntity
  8
0
  6
Continuous
 62
     7
370
    15
100
AcDbLine
 10
2084.170478976683
 20
1005.74836120802
 30
0.0
 11
2084.170478976683
 21
1004.748362906753
 31
0.0
1001
AcDbBlockRepETag
1070
     1
1071
       52
1005
95A
  0
LINE
  5
95B
330
69D
100
AcDbEntity
  8
0
  6
Continuous
 62
     7
370
    15
100
AcDbLine
 10
2074.170478268878
 20
1004.748362906753
 30
0.0
 11
2084.170478976683
 21
1004.748362906753
 31
0.0
1001
AcDbBlockRepETag
1070
     1
1071
       53
1005
95B
  0
LINE
  5
95C
330
69D
100
AcDbEntity
  8
0
  6
Continuous
 62
     7
370
    15
100
AcDbLine
 10
2074.170478268878
 20
1004.748362906753
 30
0.0
 11
2074.170478268878
 21
1005.74836120802
 31
0.0
1001
AcDbBlockRepETag
1070
     1
1071
       54
1005
95C
  0
LINE
  5
95D
330
69D
100
AcDbEntity
  8
0
  6
Continuous
 62
     7
370
    15
100
AcDbLine
 10
2071.170478242801
 20
1005.74836120802
 30
0.0
 11
2074.170478268878
 21
1005.74836120802
 31
0.0
1001
AcDbBlockRepETag
1070
     1
1071
       55
1005
95D
  0
LINE
  5
95E
330
69D
100
AcDbEntity
  8
0
  6
Continuous
 62
     7
370
    15
100
AcDbLine
 10
2084.170478976683
 20
1004.748362906753
 30
0.0
 11
2084.170478976683
 21
1004.248361893474
 31
0.0
1001
AcDbBlockRepETag
1070
     1
1071
       56
1005
95E
  0
LINE
  5
95F
330
69D
100
AcDbEntity
  8
0
  6
Continuous
 62
     7
370
    15
100
AcDbLine
 10
2074.170478268878
 20
1004.248361893474
 30
0.0
 11
2084.170478976683
 21
1004.248361893474
 31
0.0
1001
AcDbBlockRepETag
1070
     1
1071
       57
1005
95F
  0
LINE
  5
960
330
69D
100
AcDbEntity
  8
0
  6
Continuous
 62
     7
370
    15
100
AcDbLine
 10
2074.170478268878
 20
1004.248361893474
 30
0.0
 11
2074.170478268878
 21
1004.748362906753
 31
0.0
1001
AcDbBlockRepETag
1070
     1
1071
       58
1005
960
  0
LINE
  5
961
330
69D
100
AcDbEntity
  8
0
  6
Continuous
 62
     7
370
    15
100
AcDbLine
 10
2084.170478976683
 20
1009.248364575683
 30
0.0
 11
2087.170477605777
 21
1009.248364575683
 31
0.0
1001
AcDbBlockRepETag
1070
     1
1071
       59
1005
961
  0
LINE
  5
962
330
69D
100
AcDbEntity
  8
0
  6
Continuous
 62
     7
370
    15
100
AcDbLine
 10
2087.170477605777
 20
1009.248364575683
 30
0.0
 11
2087.170477605777
 21
1008.748363562404
 31
0.0
1001
AcDbBlockRepETag
1070
     1
1071
       60
1005
962
  0
LINE
  5
963
330
69D
100
AcDbEntity
  8
0
  6
Continuous
 62
     7
370
    15
100
AcDbLine
 10
2087.170477605777
 20
1005.248363920032
 30
0.0
 11
2084.170478976683
 21
1005.248363920032
 31
0.0
1001
AcDbBlockRepETag
1070
     1
1071
       61
1005
963
  0
LINE
  5
964
330
69D
100
AcDbEntity
  8
0
  6
Continuous
 62
     7
370
    15
100
AcDbLine
 10
2087.170477605777
 20
1005.74836120802
 30
0.0
 11
2087.170477605777
 21
1005.248363920032
 31
0.0
1001
AcDbBlockRepETag
1070
     1
1071
       62
1005
964
  0
LINE
  5
965
330
69D
100
AcDbEntity
  8
0
  6
Continuous
 62
     7
370
    15
100
AcDbLine
 10
2074.170478268878
 20
1010.24836287695
 30
0.0
 11
2074.170478268878
 21
1009.948361523925
 31
0.0
1001
AcDbBlockRepETag
1070
     1
1071
       63
1005
965
  0
LINE
  5
966
330
69D
100
AcDbEntity
  8
0
  6
Continuous
 62
     7
370
    15
100
AcDbLine
 10
2074.170478268878
 20
1010.24836287695
 30
0.0
 11
2084.170478976683
 21
1010.24836287695
 31
0.0
1001
AcDbBlockRepETag
1070
     1
1071
       64
1005
966
  0
LINE
  5
967
330
69D
100
AcDbEntity
  8
0
  6
Continuous
 62
     7
370
    15
100
AcDbLine
 10
2084.170478976683
 20
1009.948361523925
 30
0.0
 11
2084.170478976683
 21
1010.24836287695
 31
0.0
1001
AcDbBlockRepETag
1070
     1
1071
       65
1005
967
  0
LINE
  5
968
330
69D
100
AcDbEntity
  8
0
  6
Continuous
 62
     7
370
    15
100
AcDbLine
 10
2071.170478242801
 20
1008.748363562404
 30
0.0
 11
2071.170478242801
 21
1009.248364575683
 31
0.0
1001
AcDbBlockRepETag
1070
     1
1071
       66
1005
968
  0
LINE
  5
969
330
69D
100
AcDbEntity
  8
0
  6
Continuous
 62
     7
370
    15
100
AcDbLine
 10
2071.170478242801
 20
1009.248364575683
 30
0.0
 11
2074.170478268878
 21
1009.248364575683
 31
0.0
1001
AcDbBlockRepETag
1070
     1
1071
       67
1005
969
  0
LINE
  5
96A
330
69D
100
AcDbEntity
  8
0
  6
Continuous
 62
     7
370
    15
100
AcDbLine
 10
2074.170478268878
 20
1005.248363920032
 30
0.0
 11
2071.170478242801
 21
1005.248363920032
 31
0.0
1001
AcDbBlockRepETag
1070
     1
1071
       68
1005
96A
  0
LINE
  5
96B
330
69D
100
AcDbEntity
  8
0
  6
Continuous
 62
     7
370
    15
100
AcDbLine
 10
2071.170478242801
 20
1005.248363920032
 30
0.0
 11
2071.170478242801
 21
1005.74836120802
 31
0.0
1001
AcDbBlockRepETag
1070
     1
1071
       69
1005
96B
  0
LINE
  5
96C
330
69D
100
AcDbEntity
  8
0
  6
Continuous
 62
     7
370
    15
100
AcDbLine
 10
2066.170478173976
 20
999.2583800699904
 30
0.0
 11
2092.170478431301
 21
999.2583841396356
 31
0.0
1001
AcDbBlockRepETag
1070
     1
1071
       70
1005
96C
  0
LINE
  5
96D
330
69D
100
AcDbEntity
  8
0
  6
Continuous
 62
     7
370
    15
100
AcDbLine
 10
2066.170478173976
 20
999.2583802421679
 30
0.0
 11
2066.170478173976
 21
1000.247385211765
 31
0.0
1001
AcDbBlockRepETag
1070
     1
1071
       71
1005
96D
  0
LINE
  5
96E
330
69D
100
AcDbEntity
  8
0
  6
Continuous
 62
     7
370
    15
100
AcDbLine
 10
2092.170478431301
 20
999.2583839674582
 30
0.0
 11
2092.170478431301
 21
1000.247388937055
 31
0.0
1001
AcDbBlockRepETag
1070
     1
1071
       72
1005
96E
  0
SPLINE
  5
96F
330
69D
100
AcDbEntity
  8
0
  6
Continuous
 62
     7
370
    15
100
AcDbSpline
210
0.0
220
0.0
230
1.0
 70
     8
 71
     3
 72
    10
 73
     6
 74
     0
 42
0.0000000001
 43
0.0000000001
 40
0.0
 40
0.0
 40
0.0
 40
0.0
 40
0.5
 40
0.5
 40
1.0
 40
1.0
 40
1.0
 40
1.0
 10
2089.51542167472
 20
1048.594137155008
 30
0.0
 10
2089.556929405253
 20
1048.73367286497
 30
0.0
 10
2089.582896075743
 20
1048.89006942193
 30
0.0
 10
2089.614719869569
 20
1049.235751196216
 30
0.0
 10
2089.62047815789
 20
1049.426390625805
 30
0.0
 10
2089.62047815789
 20
1049.630608874105
 30
0.0
1001
AcDbBlockRepETag
1070
     1
1071
       73
1005
96F
  0
LINE
  5
970
330
69D
100
AcDbEntity
  8
0
  6
Continuous
 62
     7
370
    15
100
AcDbLine
 10
2068.82553465979
 20
1048.594137512623
 30
0.0
 11
2089.515421188788
 21
1048.594137512623
 31
0.0
1001
AcDbBlockRepETag
1070
     1
1071
       74
1005
970
  0
SPLINE
  5
971
330
69D
100
AcDbEntity
  8
0
  6
Continuous
 62
     7
370
    15
100
AcDbSpline
210
0.0
220
0.0
230
1.0
 70
     8
 71
     3
 72
    10
 73
     6
 74
     0
 42
0.0000000001
 43
0.0000000001
 40
0.0
 40
0.0
 40
0.0
 40
0.0
 40
0.5
 40
0.5
 40
1.0
 40
1.0
 40
1.0
 40
1.0
 10
2068.825534641084
 20
1048.59413715503
 30
0.0
 10
2068.784026910551
 20
1048.733672864992
 30
0.0
 10
2068.758060240061
 20
1048.890069421952
 30
0.0
 10
2068.726236446234
 20
1049.235751196238
 30
0.0
 10
2068.720478157914
 20
1049.426390625827
 30
0.0
 10
2068.720478157914
 20
1049.630608874127
 30
0.0
1001
AcDbBlockRepETag
1070
     1
1071
       75
1005
971
  0
SPLINE
  5
972
330
69D
100
AcDbEntity
  8
0
  6
Continuous
 62
     7
370
    15
100
AcDbSpline
210
0.0
220
0.0
230
1.0
 70
     8
 71
     3
 72
    10
 73
     6
 74
     0
 42
0.0000000001
 43
0.0000000001
 40
0.0
 40
0.0
 40
0.0
 40
0.0
 40
0.5
 40
0.5
 40
1.0
 40
1.0
 40
1.0
 40
1.0
 10
2089.62047815789
 20
1023.863564373796
 30
0.0
 10
2089.62047815789
 20
1024.067686214425
 30
0.0
 10
2089.614839515526
 20
1024.25599257923
 30
0.0
 10
2089.583196616092
 20
1024.601954213381
 30
0.0
 10
2089.556906546133
 20
1024.760577227977
 30
0.0
 10
2089.51542167472
 20
1024.900036092894
 30
0.0
1001
AcDbBlockRepETag
1070
     1
1071
       76
1005
972
  0
SPLINE
  5
973
330
69D
100
AcDbEntity
  8
0
  6
Continuous
 62
     7
370
    15
100
AcDbSpline
210
0.0
220
0.0
230
1.0
 70
     8
 71
     3
 72
    10
 73
     6
 74
     0
 42
0.0000000001
 43
0.0000000001
 40
0.0
 40
0.0
 40
0.0
 40
0.0
 40
0.5
 40
0.5
 40
1.0
 40
1.0
 40
1.0
 40
1.0
 10
2068.720478157914
 20
1023.863564373819
 30
0.0
 10
2068.720478157914
 20
1024.067686214447
 30
0.0
 10
2068.726116800278
 20
1024.255992579253
 30
0.0
 10
2068.757759699711
 20
1024.601954213403
 30
0.0
 10
2068.78404976967
 20
1024.760577227999
 30
0.0
 10
2068.825534641084
 20
1024.900036092916
 30
0.0
1001
AcDbBlockRepETag
1070
     1
1071
       77
1005
973
  0
LINE
  5
974
330
69D
100
AcDbEntity
  8
0
  6
Continuous
 62
     7
370
    15
100
AcDbLine
 10
2068.82553465979
 20
1024.90003765422
 30
0.0
 11
2089.515421188788
 21
1024.90003765422
 31
0.0
1001
AcDbBlockRepETag
1070
     1
1071
       78
1005
974
  0
LINE
  5
975
330
69D
100
AcDbEntity
  8
0
  6
Continuous
 62
     7
370
    15
100
AcDbLine
 10
2070.870478053929
 20
1005.149442561446
 30
0.0
 11
2073.866983990537
 21
1005.149442561446
 31
0.0
1001
AcDbBlockRepETag
1070
     1
1071
       79
1005
975
  0
LINE
  5
976
330
69D
100
AcDbEntity
  8
0
  6
Continuous
 62
     7
370
    15
100
AcDbLine
 10
2073.866983990537
 20
1005.149442561446
 30
0.0
 11
2073.866983990537
 21
1004.649441548167
 31
0.0
1001
AcDbBlockRepETag
1070
     1
1071
       80
1005
976
  0
LINE
  5
977
330
69D
100
AcDbEntity
  8
0
  6
Continuous
 62
     7
370
    15
100
AcDbLine
 10
2073.866983990537
 20
1010.05227477151
 30
0.0
 11
2073.866983990537
 21
1009.552273758231
 31
0.0
1001
AcDbBlockRepETag
1070
     1
1071
       81
1005
977
  0
LINE
  5
978
330
69D
100
AcDbEntity
  8
0
  6
Continuous
 62
     7
370
    15
100
AcDbLine
 10
2073.866983990537
 20
1009.552273758231
 30
0.0
 11
2070.870478053929
 21
1009.552273758231
 31
0.0
1001
AcDbBlockRepETag
1070
     1
1071
       82
1005
978
  0
LINE
  5
979
330
69D
100
AcDbEntity
  8
0
  6
Continuous
 62
     7
370
    15
100
AcDbLine
 10
2073.866983990537
 20
1004.147138305484
 30
0.0
 11
2084.473972789364
 21
1004.147138305484
 31
0.0
1001
AcDbBlockRepETag
1070
     1
1071
       83
1005
979
  0
LINE
  5
97A
330
69D
100
AcDbEntity
  8
0
  6
Continuous
 62
     7
370
    15
100
AcDbLine
 10
2087.470478958802
 20
1009.552273758231
 30
0.0
 11
2084.473972789364
 21
1009.552273758231
 31
0.0
1001
AcDbBlockRepETag
1070
     1
1071
       84
1005
97A
  0
LINE
  5
97B
330
69D
100
AcDbEntity
  8
0
  6
Continuous
 62
     7
370
    15
100
AcDbLine
 10
2084.473972789364
 20
1009.552273758231
 30
0.0
 11
2084.473972789364
 21
1010.05227477151
 31
0.0
1001
AcDbBlockRepETag
1070
     1
1071
       85
1005
97B
  0
LINE
  5
97C
330
69D
100
AcDbEntity
  8
0
  6
Continuous
 62
     7
370
    15
100
AcDbLine
 10
2084.473972789364
 20
1004.649441548167
 30
0.0
 11
2084.473972789364
 21
1005.149442561446
 31
0.0
1001
AcDbBlockRepETag
1070
     1
1071
       86
1005
97C
  0
LINE
  5
97D
330
69D
100
AcDbEntity
  8
0
  6
Continuous
 62
     7
370
    15
100
AcDbLine
 10
2084.473972789364
 20
1005.149442561446
 30
0.0
 11
2087.470478958802
 21
1005.149442561446
 31
0.0
1001
AcDbBlockRepETag
1070
     1
1071
       87
1005
97D
  0
LINE
  5
97E
330
69D
100
AcDbEntity
  8
0
  6
Continuous
 62
     7
370
    15
100
AcDbLine
 10
2084.268971926884
 20
1015.247136213361
 30
0.0
 11
2074.071983921693
 21
1015.247136213361
 31
0.0
1001
AcDbBlockRepETag
1070
     1
1071
       88
1005
97E
  0
LINE
  5
97F
330
69D
100
AcDbEntity
  8
0
  6
Continuous
 62
     7
370
    15
100
AcDbLine
 10
2092.170478431301
 20
1084.722576521813
 30
0.0
 11
2075.670478049086
 21
1084.722576521812
 31
0.0
1001
AcDbBlockRepETag
1070
     1
1071
       89
1005
97F
  0
LINE
  5
980
330
69D
100
AcDbEntity
  8
0
  6
Continuous
 62
     7
370
    15
100
AcDbLine
 10
2082.670477799492
 20
1084.722576521812
 30
0.0
 11
2082.670477799492
 21
1076.492618628322
 31
0.0
1001
AcDbBlockRepETag
1070
     1
1071
       90
1005
980
  0
LINE
  5
981
330
69D
100
AcDbEntity
  8
0
  6
Continuous
 62
     7
370
    15
100
AcDbLine
 10
2092.170478431301
 20
1084.722576521812
 30
0.0
 11
2092.170478431301
 21
1076.492618628322
 31
0.0
1001
AcDbBlockRepETag
1070
     1
1071
       91
1005
981
  0
LINE
  5
982
330
69D
100
AcDbEntity
  8
0
  6
Continuous
 62
     7
370
    15
100
AcDbLine
 10
2066.170478173976
 20
1084.722576521812
 30
0.0
 11
2082.670477799492
 21
1084.722576521813
 31
0.0
1001
AcDbBlockRepETag
1070
     1
1071
       92
1005
982
  0
LINE
  5
983
330
69D
100
AcDbEntity
  8
0
  6
Continuous
 62
     7
370
    15
100
AcDbLine
 10
2075.670478049086
 20
1076.492618628322
 30
0.0
 11
2075.670478049086
 21
1084.722576521812
 31
0.0
1001
AcDbBlockRepETag
1070
     1
1071
       93
1005
983
  0
LINE
  5
984
330
69D
100
AcDbEntity
  8
0
  6
Continuous
 62
     7
370
    15
100
AcDbLine
 10
2066.170478173976
 20
1076.492618628322
 30
0.0
 11
2066.170478173976
 21
1084.722576521812
 31
0.0
1001
AcDbBlockRepETag
1070
     1
1071
       94
1005
984
  0
LINE
  5
985
330
69D
100
AcDbEntity
  8
0
  6
Continuous
 62
     7
370
    15
100
AcDbLine
 10
2069.560226633565
 20
1026.128150381623
 30
0.0
 11
2069.560226633565
 21
1047.366022922574
 31
0.0
1001
AcDbBlockRepETag
1070
     1
1071
       95
1005
985
  0
ELLIPSE
  5
986
330
69D
100
AcDbEntity
  8
0
  6
Continuous
 62
     7
370
    15
100
AcDbEllipse
 10
2073.720478157913
 20
1024.186123782397
 30
0.0
 11
5.0
 21
-0.0000000000007105
 31
0.0
210
0.0
220
0.0
230
1.0
 40
0.7002075382097019
 41
2.553590050042426
 42
2.936237883488983
1001
AcDbBlockRepETag
1070
     1
1071
       96
1005
986
  0
ELLIPSE
  5
987
330
69D
100
AcDbEntity
  8
0
  6
Continuous
 62
     7
370
    15
100
AcDbEllipse
 10
2073.720478157913
 20
1049.308049465548
 30
0.0
 11
4.999999999999985
 21
0.0000000000008242
 31
0.0
210
0.0
220
0.0
230
1.0
 40
0.7002075382096982
 41
3.346947423690575
 42
3.729595257137124
1001
AcDbBlockRepETag
1070
     1
1071
       97
1005
987
  0
ELLIPSE
  5
988
330
69D
100
AcDbEntity
  8
0
  6
Continuous
 62
     7
370
    15
100
AcDbEllipse
 10
2084.62047815789
 20
1024.186123782375
 30
0.0
 11
4.999999999999985
 21
-0.000000000000199
 31
0.0
210
0.0
220
0.0
230
1.0
 40
0.7002075382097834
 41
0.205354770101047
 42
0.5880026035476184
1001
AcDbBlockRepETag
1070
     1
1071
       98
1005
988
  0
LINE
  5
989
330
69D
100
AcDbEntity
  8
0
  6
Continuous
 62
     7
370
    15
100
AcDbLine
 10
2088.780728749351
 20
1026.128150381623
 30
0.0
 11
2088.780728749351
 21
1047.366022922574
 31
0.0
1001
AcDbBlockRepETag
1070
     1
1071
       99
1005
989
  0
ELLIPSE
  5
98A
330
69D
100
AcDbEntity
  8
0
  6
Continuous
 62
     7
370
    15
100
AcDbEllipse
 10
2084.62047815789
 20
1049.308049465526
 30
0.0
 11
5.000000000000014
 21
0.0000000000000853
 31
0.0
210
0.0
220
0.0
230
1.0
 40
0.700207538209626
 41
5.695182703632009
 42
6.077830537078563
1001
AcDbBlockRepETag
1070
     1
1071
      100
1005
98A
  0
LINE
  5
98B
330
69D
100
AcDbEntity
  8
0
  6
Continuous
 62
     7
370
    15
100
AcDbLine
 10
2085.67047829123
 20
1009.552273758231
 30
0.0
 11
2085.67047829123
 21
1009.248364575683
 31
0.0
1001
AcDbBlockRepETag
1070
     1
1071
      101
1005
98B
  0
LINE
  5
98C
330
69D
100
AcDbEntity
  8
0
  6
Continuous
 62
     7
370
    15
100
AcDbLine
 10
2070.870478053929
 20
1008.580461003362
 30
0.0
 11
2071.170478242801
 21
1008.580461003362
 31
0.0
1001
AcDbBlockRepETag
1070
     1
1071
      102
1005
98C
  0
LINE
  5
98D
330
69D
100
AcDbEntity
  8
0
  6
Continuous
 62
     7
370
    15
100
AcDbLine
 10
2066.170478173976
 20
997.3193591912378
 30
0.0
 11
2073.866983990537
 21
997.3193591912378
 31
0.0
1001
AcDbBlockRepETag
1070
     1
1071
      103
1005
98D
  0
LINE
  5
98E
330
69D
100
AcDbEntity
  8
0
  6
Continuous
 62
     7
370
    15
100
AcDbLine
 10
2092.170478431301
 20
997.3193591912377
 30
0.0
 11
2084.170478976683
 21
997.3193591912378
 31
0.0
1001
AcDbBlockRepETag
1070
     1
1071
      104
1005
98E
  0
LINE
  5
98F
330
69D
100
AcDbEntity
  8
0
  6
Continuous
 62
     7
370
    15
100
AcDbLine
 10
2084.473972789364
 20
997.5953026195158
 30
0.0
 11
2084.473972789364
 21
997.3193591912378
 31
0.0
1001
AcDbBlockRepETag
1070
     1
1071
      105
1005
98F
  0
LINE
  5
990
330
69D
100
AcDbEntity
  8
0
  6
Continuous
 62
     7
370
    15
100
AcDbLine
 10
2079.17047815712
 20
997.5953026195158
 30
0.0
 11
2084.473972789364
 21
997.5953026195158
 31
0.0
1001
AcDbBlockRepETag
1070
     1
1071
      106
1005
990
  0
LINE
  5
991
330
69D
100
AcDbEntity
  8
0
  6
Continuous
 62
     7
370
    15
100
AcDbLine
 10
2073.866983990537
 20
997.5953026195158
 30
0.0
 11
2079.17047815712
 21
997.5953026195158
 31
0.0
1001
AcDbBlockRepETag
1070
     1
1071
      107
1005
991
  0
LINE
  5
992
330
69D
100
AcDbEntity
  8
0
  6
Continuous
 62
     7
370
    15
100
AcDbLine
 10
2073.866983990537
 20
997.5953026195158
 30
0.0
 11
2073.866983990537
 21
997.3193591912378
 31
0.0
1001
AcDbBlockRepETag
1070
     1
1071
      108
1005
992
  0
LINE
  5
993
330
69D
100
AcDbEntity
  8
0
  6
Continuous
 62
     7
370
    15
100
AcDbLine
 10
2066.170478173976
 20
999.2583802421679
 30
0.0
 11
2066.170478173976
 21
997.3193591912378
 31
0.0
1001
AcDbBlockRepETag
1070
     1
1071
      109
1005
993
  0
LINE
  5
994
330
69D
100
AcDbEntity
  8
0
  6
Continuous
 62
     7
370
    15
100
AcDbLine
 10
2092.170478431301
 20
999.2583839674582
 30
0.0
 11
2092.170478431301
 21
997.3193591912378
 31
0.0
1001
AcDbBlockRepETag
1070
     1
1071
      110
1005
994
  0
LINE
  5
995
330
69D
100
AcDbEntity
  8
0
  6
Continuous
 62
     7
370
    15
100
AcDbLine
 10
2070.870478053929
 20
1008.747376360475
 30
0.0
 11
2071.170478242801
 21
1008.747368909894
 31
0.0
1001
AcDbBlockRepETag
1070
     1
1071
      111
1005
995
  0
LINE
  5
996
330
69D
100
AcDbEntity
  8
0
  6
Continuous
 62
     7
370
    15
100
AcDbLine
 10
2070.870478053929
 20
1009.252425142108
 30
0.0
 11
2071.170478242801
 21
1009.236700691758
 31
0.0
1001
AcDbBlockRepETag
1070
     1
1071
      112
1005
996
  0
LINE
  5
997
330
69D
100
AcDbEntity
  8
0
  6
Continuous
 62
     7
370
    15
100
AcDbLine
 10
2069.980729719044
 20
1046.924364611982
 30
0.0
 11
2069.560226633565
 21
1047.366022922574
 31
0.0
1001
AcDbBlockRepETag
1070
     1
1071
      113
1005
997
  0
LINE
  5
998
330
69D
100
AcDbEntity
  8
0
  6
Continuous
 62
     7
370
    15
100
AcDbLine
 10
2088.360227293687
 20
1046.924364611982
 30
0.0
 11
2088.780728749351
 21
1047.366022922574
 31
0.0
1001
AcDbBlockRepETag
1070
     1
1071
      114
1005
998
  0
ELLIPSE
  5
999
330
69D
100
AcDbEntity
  8
0
  6
Continuous
 62
     7
370
    15
100
AcDbEllipse
 10
2092.520478157888
 20
1044.982337880902
 30
0.0
 11
5.0
 21
0.0000000000001137
 31
0.0
210
0.0
220
0.0
230
1.0
 40
0.700207538209628
 41
2.553590050042167
 42
2.804698934750008
1001
AcDbBlockRepETag
1070
     1
1071
      115
1005
999
  0
LINE
  5
99A
330
69D
100
AcDbEntity
  8
0
  6
Continuous
 62
     7
370
    15
100
AcDbLine
 10
2070.539408245476
 20
1046.139630347966
 30
0.0
 11
2087.801547370272
 21
1046.139630347966
 31
0.0
1001
AcDbBlockRepETag
1070
     1
1071
      116
1005
99A
  0
ELLIPSE
  5
99B
330
69D
100
AcDbEntity
  8
0
  6
Continuous
 62
     7
370
    15
100
AcDbEllipse
 10
2065.820478157915
 20
1044.982337880924
 30
0.0
 11
5.000000000000014
 21
0.000000000000739
 31
0.0
210
0.0
220
0.0
230
1.0
 40
0.7002075382097055
 41
0.3368937188395258
 42
0.5880026035473627
1001
AcDbBlockRepETag
1070
     1
1071
      117
1005
99B
  0
LINE
  5
99C
330
69D
100
AcDbEntity
  8
0
  6
Continuous
 62
     7
370
    15
100
AcDbLine
 10
2070.731569894941
 20
1027.854543038188
 30
0.0
 11
2087.609385720806
 21
1027.854543038188
 31
0.0
1001
AcDbBlockRepETag
1070
     1
1071
      118
1005
99C
  0
ELLIPSE
  5
99D
330
69D
100
AcDbEntity
  8
0
  6
Continuous
 62
     7
370
    15
100
AcDbEllipse
 10
2092.520478157888
 20
1028.511835367
 30
0.0
 11
5.0
 21
-0.0000000000001705
 31
0.0
210
0.0
220
0.0
230
1.0
 40
0.7002075382097758
 41
3.33045564533223
 42
3.729595257137408
1001
AcDbBlockRepETag
1070
     1
1071
      119
1005
99D
  0
LINE
  5
99E
330
69D
100
AcDbEntity
  8
0
  6
Continuous
 62
     7
370
    15
100
AcDbLine
 10
2088.780728749351
 20
1026.128150381623
 30
0.0
 11
2088.360227293687
 21
1026.569809623538
 31
0.0
1001
AcDbBlockRepETag
1070
     1
1071
      120
1005
99E
  0
LINE
  5
99F
330
69D
100
AcDbEntity
  8
0
  6
Continuous
 62
     7
370
    15
100
AcDbLine
 10
2069.560226633565
 20
1026.128150381623
 30
0.0
 11
2069.980729719044
 21
1026.569809623538
 31
0.0
1001
AcDbBlockRepETag
1070
     1
1071
      121
1005
99F
  0
ELLIPSE
  5
9A0
330
69D
100
AcDbEntity
  8
0
  6
Continuous
 62
     7
370
    15
100
AcDbEllipse
 10
2065.820478157915
 20
1028.511835367022
 30
0.0
 11
5.000000000000014
 21
-0.000000000000739
 31
0.0
210
0.0
220
0.0
230
1.0
 40
0.7002075382096943
 41
5.695182703632267
 42
6.094322315437457
1001
AcDbBlockRepETag
1070
     1
1071
      122
1005
9A0
  0
LINE
  5
9A1
330
69D
100
AcDbEntity
  8
0
  6
Continuous
 62
     7
370
    15
100
AcDbLine
 10
2082.670477799492
 20
1077.149186142264
 30
0.0
 11
2075.670478049086
 21
1077.149186142264
 31
0.0
1001
AcDbBlockRepETag
1070
     1
1071
      123
1005
9A1
  0
LINE
  5
9A2
330
69D
100
AcDbEntity
  8
0
  6
Continuous
 62
     7
370
    15
100
AcDbLine
 10
2075.670478049086
 20
1076.873194285212
 30
0.0
 11
2082.670477799492
 21
1076.873194285212
 31
0.0
1001
AcDbBlockRepETag
1070
     1
1071
      124
1005
9A2
  0
LINE
  5
9A3
330
69D
100
AcDbEntity
  8
0
  6
Continuous
 62
     7
370
    15
100
AcDbLine
 10
2082.670477799492
 20
1076.431281723557
 30
0.0
 11
2075.670478049086
 21
1076.431281723557
 31
0.0
1001
AcDbBlockRepETag
1070
     1
1071
      125
1005
9A3
  0
LINE
  5
9A4
330
69D
100
AcDbEntity
  8
0
  6
Continuous
 62
     7
370
    15
100
AcDbLine
 10
2075.670478049086
 20
1078.191622950612
 30
0.0
 11
2082.670477799492
 21
1078.191622950612
 31
0.0
1001
AcDbBlockRepETag
1070
     1
1071
      126
1005
9A4
  0
LINE
  5
9A5
330
69D
100
AcDbEntity
  8
0
  6
Continuous
 62
     7
370
    15
100
AcDbLine
 10
2069.980729719044
 20
1046.924364611982
 30
0.0
 11
2069.980729719044
 21
1026.569809623538
 31
0.0
1001
AcDbBlockRepETag
1070
     1
1071
      127
1005
9A5
  0
LINE
  5
9A6
330
69D
100
AcDbEntity
  8
0
  6
Continuous
 62
     7
370
    15
100
AcDbLine
 10
2088.360227293687
 20
1046.924364611982
 30
0.0
 11
2088.360227293687
 21
1026.569809623538
 31
0.0
1001
AcDbBlockRepETag
1070
     1
1071
      128
1005
9A6
  0
LINE
  5
9A7
330
69D
100
AcDbEntity
  8
0
  6
Continuous
 62
     7
370
    15
100
AcDbLine
 10
2070.820478138866
 20
1028.293369196831
 30
0.0
 11
2070.820478138866
 21
1045.597855791925
 31
0.0
1001
AcDbBlockRepETag
1070
     1
1071
      129
1005
9A7
  0
SPLINE
  5
9A8
330
69D
100
AcDbEntity
  8
0
  6
Continuous
 62
     7
370
    15
100
AcDbSpline
210
0.0
220
0.0
230
1.0
 70
     8
 71
     3
 72
     8
 73
     4
 74
     0
 42
0.0000000001
 43
0.0000000001
 40
0.0
 40
0.0
 40
0.0
 40
0.0
 40
1.0
 40
1.0
 40
1.0
 40
1.0
 10
2070.731569830078
 20
1027.85454275684
 30
0.0
 10
2070.786136246604
 20
1028.054436080423
 30
0.0
 10
2070.820478157915
 20
1028.201283932038
 30
0.0
 10
2070.820478157914
 20
1028.293368303871
 30
0.0
1001
AcDbBlockRepETag
1070
     1
1071
      130
1005
9A8
  0
SPLINE
  5
9A9
330
69D
100
AcDbEntity
  8
0
  6
Continuous
 62
     7
370
    15
100
AcDbSpline
210
0.0
220
0.0
230
1.0
 70
     8
 71
     3
 72
    10
 73
     6
 74
     0
 42
0.0000000001
 43
0.0000000001
 40
0.0
 40
0.0
 40
0.0
 40
0.0
 40
0.5
 40
0.5
 40
1.0
 40
1.0
 40
1.0
 40
1.0
 10
2070.820478157914
 20
1045.597856124472
 30
0.0
 10
2070.820478157915
 20
1045.604689992148
 30
0.0
 10
2070.793430958278
 20
1045.655785131996
 30
0.0
 10
2070.693423050324
 20
1045.842077655505
 30
0.0
 10
2070.622481002875
 20
1045.973552346843
 30
0.0
 10
2070.539408259044
 20
1046.139630491106
 30
0.0
1001
AcDbBlockRepETag
1070
     1
1071
      131
1005
9A9
  0
SPLINE
  5
9AA
330
69D
100
AcDbEntity
  8
0
  6
Continuous
 62
     7
370
    15
100
AcDbSpline
210
0.0
220
0.0
230
1.0
 70
     8
 71
     3
 72
     8
 73
     4
 74
     0
 42
0.0000000001
 43
0.0000000001
 40
0.0
 40
0.0
 40
0.0
 40
0.0
 40
1.0
 40
1.0
 40
1.0
 40
1.0
 10
2087.609386485725
 20
1027.854542756818
 30
0.0
 10
2087.554820069199
 20
1028.054436080401
 30
0.0
 10
2087.520478157887
 20
1028.201283932016
 30
0.0
 10
2087.520478157887
 20
1028.29336830385
 30
0.0
1001
AcDbBlockRepETag
1070
     1
1071
      132
1005
9AA
  0
LINE
  5
9AB
330
69D
100
AcDbEntity
  8
0
  6
Continuous
 62
     7
370
    15
100
AcDbLine
 10
2087.520477942543
 20
1028.293369196831
 30
0.0
 11
2087.520477942543
 21
1045.597855791925
 31
0.0
1001
AcDbBlockRepETag
1070
     1
1071
      133
1005
9AB
  0
SPLINE
  5
9AC
330
69D
100
AcDbEntity
  8
0
  6
Continuous
 62
     7
370
    15
100
AcDbSpline
210
0.0
220
0.0
230
1.0
 70
     8
 71
     3
 72
    10
 73
     6
 74
     0
 42
0.0000000001
 43
0.0000000001
 40
0.0
 40
0.0
 40
0.0
 40
0.0
 40
0.5
 40
0.5
 40
1.0
 40
1.0
 40
1.0
 40
1.0
 10
2087.520478157888
 20
1045.59785612445
 30
0.0
 10
2087.520478157888
 20
1045.604689992126
 30
0.0
 10
2087.547525357524
 20
1045.655785131975
 30
0.0
 10
2087.647533265479
 20
1045.842077655483
 30
0.0
 10
2087.718475312928
 20
1045.973552346821
 30
0.0
 10
2087.801548056759
 20
1046.139630491084
 30
0.0
1001
AcDbBlockRepETag
1070
     1
1071
      134
1005
9AC
  0
LINE
  5
9AD
330
69D
100
AcDbEntity
  8
0
  6
Continuous
 62
     7
370
    15
100
AcDbLine
 10
2082.670477799492
 20
1079.379273437439
 30
0.0
 11
2075.670478049086
 21
1079.379273437439
 31
0.0
1001
AcDbBlockRepETag
1070
     1
1071
      135
1005
9AD
  0
LINE
  5
9AE
330
69D
100
AcDbEntity
  8
0
  6
Continuous
 62
     7
370
    15
100
AcDbLine
 10
2075.670478049086
 20
1079.103279717742
 30
0.0
 11
2082.670477799492
 21
1079.103279717742
 31
0.0
1001
AcDbBlockRepETag
1070
     1
1071
      136
1005
9AE
  0
LINE
  5
9AF
330
69D
100
AcDbEntity
  8
0
  6
Continuous
 62
     7
370
    15
100
AcDbLine
 10
2082.670477799492
 20
1078.661367156087
 30
0.0
 11
2075.670478049086
 21
1078.661367156087
 31
0.0
1001
AcDbBlockRepETag
1070
     1
1071
      137
1005
9AF
  0
LINE
  5
9B0
330
69D
100
AcDbEntity
  8
0
  6
Continuous
 62
     7
370
    15
100
AcDbLine
 10
2075.670478049086
 20
1080.421708383141
 30
0.0
 11
2082.670477799492
 21
1080.421708383141
 31
0.0
1001
AcDbBlockRepETag
1070
     1
1071
      138
1005
9B0
  0
LINE
  5
9B1
330
69D
100
AcDbEntity
  8
0
  6
Continuous
 62
     7
370
    15
100
AcDbLine
 10
2070.820478138866
 20
1045.597086519478
 30
0.0
 11
2087.520477942543
 21
1045.597086519478
 31
0.0
1001
AcDbBlockRepETag
1070
     1
1071
      139
1005
9B1
  0
LINE
  5
9B2
330
69D
100
AcDbEntity
  8
0
  6
Continuous
 62
     7
370
    15
100
AcDbLine
 10
2075.670478049086
 20
1078.362023316799
 30
0.0
 11
2082.670477799492
 21
1078.362023316799
 31
0.0
1001
AcDbBlockRepETag
1070
     1
1071
      140
1005
9B2
  0
LINE
  5
9B3
330
69D
100
AcDbEntity
  8
0
  6
Continuous
 62
     7
370
    15
100
AcDbLine
 10
2070.820478138866
 20
1028.397086866675
 30
0.0
 11
2087.520477942543
 21
1028.397086866675
 31
0.0
1001
AcDbBlockRepETag
1070
     1
1071
      141
1005
9B3
  0
LINE
  5
9B4
330
69D
100
AcDbEntity
  8
0
  6
Continuous
 62
     7
370
    15
100
AcDbLine
 10
2075.670478049086
 20
1081.333367012917
 30
0.0
 11
2082.670477799492
 21
1081.333367012917
 31
0.0
1001
AcDbBlockRepETag
1070
     1
1071
      142
1005
9B4
  0
LINE
  5
9B5
330
69D
100
AcDbEntity
  8
0
  6
Continuous
 62
     7
370
    15
100
AcDbLine
 10
2082.670477799492
 20
1081.609358869968
 30
0.0
 11
2075.670478049086
 21
1081.609358869968
 31
0.0
1001
AcDbBlockRepETag
1070
     1
1071
      143
1005
9B5
  0
LINE
  5
9B6
330
69D
100
AcDbEntity
  8
0
  6
Continuous
 62
     7
370
    15
100
AcDbLine
 10
2082.670477799492
 20
1080.891452588616
 30
0.0
 11
2075.670478049086
 21
1080.891452588616
 31
0.0
1001
AcDbBlockRepETag
1070
     1
1071
      144
1005
9B6
  0
LINE
  5
9B7
330
69D
100
AcDbEntity
  8
0
  6
Continuous
 62
     7
370
    15
100
AcDbLine
 10
2075.670478049086
 20
1082.651795678316
 30
0.0
 11
2082.670477799492
 21
1082.651795678316
 31
0.0
1001
AcDbBlockRepETag
1070
     1
1071
      145
1005
9B7
  0
LINE
  5
9B8
330
69D
100
AcDbEntity
  8
0
  6
Continuous
 62
     7
370
    15
100
AcDbLine
 10
2082.670477799492
 20
1080.592108749329
 30
0.0
 11
2075.670478049086
 21
1080.592108749329
 31
0.0
1001
AcDbBlockRepETag
1070
     1
1071
      146
1005
9B8
  0
LINE
  5
9B9
330
69D
100
AcDbEntity
  8
0
  6
Continuous
 62
     7
370
    15
100
AcDbLine
 10
2075.670478049086
 20
1084.93561097282
 30
0.0
 11
2082.670477799492
 21
1084.93561097282
 31
0.0
1001
AcDbBlockRepETag
1070
     1
1071
      147
1005
9B9
  0
LINE
  5
9BA
330
69D
100
AcDbEntity
  8
0
  6
Continuous
 62
     7
370
    15
100
AcDbLine
 10
2066.170478157918
 20
1085.308363031811
 30
0.0
 11
2092.170478157894
 21
1085.308363031812
 31
0.0
1001
AcDbBlockRepETag
1070
     1
1071
      148
1005
9BA
  0
SPLINE
  5
9BB
330
69D
100
AcDbEntity
  8
0
  6
Continuous
 62
     7
370
    15
100
AcDbSpline
210
0.0
220
0.0
230
1.0
 70
    24
 71
     3
 72
     8
 73
     4
 74
     0
 42
0.0000000001
 43
0.0000000001
 40
0.0
 40
0.0
 40
0.0
 40
0.0
 40
1.0
 40
1.0
 40
1.0
 40
1.0
 10
2075.670478157893
 20
1084.722576594184
 30
0.0
 10
2075.670478157893
 20
1084.800339812843
 30
0.0
 10
2075.670478157893
 20
1084.871673630478
 30
0.0
 10
2075.670478157893
 20
1084.935611423516
 30
0.0
1001
AcDbBlockRepETag
1070
     1
1071
      149
1005
9BB
  0
SPLINE
  5
9BC
330
69D
100
AcDbEntity
  8
0
  6
Continuous
 62
     7
370
    15
100
AcDbSpline
210
0.0
220
0.0
230
1.0
 70
    24
 71
     3
 72
     9
 73
     5
 74
     0
 42
0.0000000001
 43
0.0000000001
 40
0.0
 40
0.0
 40
0.0
 40
0.0
 40
0.5000000000004236
 40
1.0
 40
1.0
 40
1.0
 40
1.0
 10
2082.670478157893
 20
1084.722576594185
 30
0.0
 10
2082.670478157893
 20
1084.760621562214
 30
0.0
 10
2082.670478157893
 20
1084.836711498271
 30
0.0
 10
2082.670478157893
 20
1084.902644781768
 30
0.0
 10
2082.670478157893
 20
1084.935611423516
 30
0.0
1001
AcDbBlockRepETag
1070
     1
1071
      150
1005
9BC
  0
SPLINE
  5
9BD
330
69D
100
AcDbEntity
  8
0
  6
Continuous
 62
     7
370
    15
100
AcDbSpline
210
0.0
220
0.0
230
1.0
 70
    24
 71
     3
 72
    16
 73
    12
 74
     0
 42
0.0000000001
 43
0.0000000001
 40
0.0
 40
0.0
 40
0.0
 40
0.0
 40
0.0840471305561148
 40
0.1673408307822099
 40
0.2502358297449728
 40
0.3330919775058044
 40
0.4162696283715018
 40
0.5001249919349218
 40
0.6667710046327175
 40
0.8324319057019707
 40
1.0
 40
1.0
 40
1.0
 40
1.0
 10
2066.170478157918
 20
1084.722576594184
 30
0.0
 10
2066.170478157918
 20
1084.753087902081
 30
0.0
 10
2066.170478157918
 20
1084.813837002946
 30
0.0
 10
2066.170478157918
 20
1084.896726390222
 30
0.0
 10
2066.170478157918
 20
1084.972831739334
 30
0.0
 10
2066.170478157918
 20
1085.041626142974
 30
0.0
 10
2066.170478157918
 20
1085.103223778513
 30
0.0
 10
2066.170478157918
 20
1085.17534572157
 30
0.0
 10
2066.170478157918
 20
1085.245590851622
 30
0.0
 10
2066.170478157918
 20
1085.298580892386
 30
0.0
 10
2066.170478157918
 20
1085.305089900846
 30
0.0
 10
2066.170478157918
 20
1085.308363031811
 30
0.0
1001
AcDbBlockRepETag
1070
     1
1071
      151
1005
9BD
  0
SPLINE
  5
9BE
330
69D
100
AcDbEntity
  8
0
  6
Continuous
 62
     7
370
    15
100
AcDbSpline
210
0.0
220
0.0
230
1.0
 70
    24
 71
     3
 72
    10
 73
     6
 74
     0
 42
0.0000000001
 43
0.0000000001
 40
0.0
 40
0.0
 40
0.0
 40
0.0
 40
0.5
 40
0.5
 40
1.0
 40
1.0
 40
1.0
 40
1.0
 10
2092.170478157894
 20
1084.722576594185
 30
0.0
 10
2092.170478157894
 20
1084.907696716608
 30
0.0
 10
2092.170478157894
 20
1085.05593580852
 30
0.0
 10
2092.170478157894
 20
1085.256308385148
 30
0.0
 10
2092.170478157894
 20
1085.308363031812
 30
0.0
 10
2092.170478157894
 20
1085.308363031812
 30
0.0
1001
AcDbBlockRepETag
1070
     1
1071
      152
1005
9BE
  0
LINE
  5
9BF
330
69D
100
AcDbEntity
  8
0
  6
Continuous
 62
     7
370
    15
100
AcDbLine
 10
2082.670477799492
 20
1084.38884452778
 30
0.0
 11
2075.670478049086
 21
1084.38884452778
 31
0.0
1001
AcDbBlockRepETag
1070
     1
1071
      153
1005
9BF
  0
LINE
  5
9C0
330
69D
100
AcDbEntity
  8
0
  6
Continuous
 62
     7
370
    15
100
AcDbLine
 10
2075.670478049086
 20
1083.563452445446
 30
0.0
 11
2082.670477799492
 21
1083.563452445446
 31
0.0
1001
AcDbBlockRepETag
1070
     1
1071
      154
1005
9C0
  0
LINE
  5
9C1
330
69D
100
AcDbEntity
  8
0
  6
Continuous
 62
     7
370
    15
100
AcDbLine
 10
2082.670477799492
 20
1083.839444302498
 30
0.0
 11
2075.670478049086
 21
1083.839444302498
 31
0.0
1001
AcDbBlockRepETag
1070
     1
1071
      155
1005
9C1
  0
LINE
  5
9C2
330
69D
100
AcDbEntity
  8
0
  6
Continuous
 62
     7
370
    15
100
AcDbLine
 10
2082.670477799492
 20
1083.121539883791
 30
0.0
 11
2075.670478049086
 21
1083.121539883791
 31
0.0
1001
AcDbBlockRepETag
1070
     1
1071
      156
1005
9C2
  0
LINE
  5
9C3
330
69D
100
AcDbEntity
  8
0
  6
Continuous
 62
     7
370
    15
100
AcDbLine
 10
2082.670477799492
 20
1084.106560655414
 30
0.0
 11
2075.670478049086
 21
1084.106560655414
 31
0.0
1001
AcDbBlockRepETag
1070
     1
1071
      157
1005
9C3
  0
LINE
  5
9C4
330
69D
100
AcDbEntity
  8
0
  6
Continuous
 62
     7
370
    15
100
AcDbLine
 10
2082.670477799492
 20
1082.822194181858
 30
0.0
 11
2075.670478049086
 21
1082.822194181858
 31
0.0
1001
AcDbBlockRepETag
1070
     1
1071
      158
1005
9C4
  0
LINE
  5
9C5
330
69D
100
AcDbEntity
  8
0
  6
Continuous
 62
     7
370
    15
100
AcDbLine
 10
2079.17047815712
 20
997.5952988942255
 30
0.0
 11
2079.17047815712
 21
997.5898040910353
 31
0.0
1001
AcDbBlockRepETag
1070
     1
1071
      159
1005
9C5
  0
LINE
  5
9C6
330
69D
100
AcDbEntity
  8
0
  6
Continuous
 62
     7
370
    15
100
AcDbLine
 10
2066.170478173976
 20
997.3083621342768
 30
0.0
 11
2073.866983990537
 21
997.3083621342768
 31
0.0
1001
AcDbBlockRepETag
1070
     1
1071
      160
1005
9C6
  0
LINE
  5
9C7
330
69D
100
AcDbEntity
  8
0
  6
Continuous
 62
     7
370
    15
100
AcDbLine
 10
2073.866983990537
 20
997.3083621342768
 30
0.0
 11
2073.866983990537
 21
997.3193591912378
 31
0.0
1001
AcDbBlockRepETag
1070
     1
1071
      161
1005
9C7
  0
LINE
  5
9C8
330
69D
100
AcDbEntity
  8
0
  6
Continuous
 62
     7
370
    15
100
AcDbLine
 10
2066.170478173976
 20
997.3083621342768
 30
0.0
 11
2066.170478173976
 21
997.3193591912378
 31
0.0
1001
AcDbBlockRepETag
1070
     1
1071
      162
1005
9C8
  0
LINE
  5
9C9
330
69D
100
AcDbEntity
  8
0
  6
Continuous
 62
     7
370
    15
100
AcDbLine
 10
2092.170478431301
 20
997.3083621342766
 30
0.0
 11
2084.170478976683
 21
997.3083621342768
 31
0.0
1001
AcDbBlockRepETag
1070
     1
1071
      163
1005
9C9
  0
LINE
  5
9CA
330
69D
100
AcDbEntity
  8
0
  6
Continuous
 62
     7
370
    15
100
AcDbLine
 10
2084.473972789364
 20
997.3083621342768
 30
0.0
 11
2084.473972789364
 21
997.3193591912378
 31
0.0
1001
AcDbBlockRepETag
1070
     1
1071
      164
1005
9CA
  0
LINE
  5
9CB
330
69D
100
AcDbEntity
  8
0
  6
Continuous
 62
     7
370
    15
100
AcDbLine
 10
2092.170478431301
 20
997.3083621342768
 30
0.0
 11
2092.170478431301
 21
997.3193591912378
 31
0.0
1001
AcDbBlockRepETag
1070
     1
1071
      165
1005
9CB
  0
LINE
  5
9CC
330
69D
100
AcDbEntity
  8
0
  6
Continuous
 62
     7
370
    15
100
AcDbLine
 10
2074.170478268878
 20
996.8189521213163
 30
0.0
 11
2084.170478976683
 21
996.8189521213163
 31
0.0
1001
AcDbBlockRepETag
1070
     1
1071
      166
1005
9CC
  0
LINE
  5
9CD
330
69D
100
AcDbEntity
  8
0
  6
Continuous
 62
     7
370
    15
100
AcDbLine
 10
2074.170478268878
 20
996.8189521213163
 30
0.0
 11
2074.170478268878
 21
997.5898040910353
 31
0.0
1001
AcDbBlockRepETag
1070
     1
1071
      167
1005
9CD
  0
LINE
  5
9CE
330
69D
100
AcDbEntity
  8
0
  6
Continuous
 62
     7
370
    15
100
AcDbLine
 10
2084.170478976683
 20
997.5898040910353
 30
0.0
 11
2084.170478976683
 21
996.8189521213163
 31
0.0
1001
AcDbBlockRepETag
1070
     1
1071
      168
1005
9CE
  0
LINE
  5
9CF
330
69D
100
AcDbEntity
  8
0
  6
Continuous
 62
     7
370
    15
100
AcDbLine
 10
2074.170478268878
 20
996.4483639677157
 30
0.0
 11
2084.170478976683
 21
996.4483639677157
 31
0.0
1001
AcDbBlockRepETag
1070
     1
1071
      169
1005
9CF
  0
LINE
  5
9D0
330
69D
100
AcDbEntity
  8
0
  6
Continuous
 62
     7
370
    15
100
AcDbLine
 10
2074.170478268878
 20
996.4483639677157
 30
0.0
 11
2074.170478268878
 21
996.8189521213163
 31
0.0
1001
AcDbBlockRepETag
1070
     1
1071
      170
1005
9D0
  0
LINE
  5
9D1
330
69D
100
AcDbEntity
  8
0
  6
Continuous
 62
     7
370
    15
100
AcDbLine
 10
2084.170478976683
 20
996.8189521213163
 30
0.0
 11
2084.170478976683
 21
996.4483639677157
 31
0.0
1001
AcDbBlockRepETag
1070
     1
1071
      171
1005
9D1
  0
ENDBLK
  5
69F
330
69D
100
AcDbEntity
  8
0
100
AcDbBlockEnd
  0
BLOCK
  5
74E
330
74D
100
AcDbEntity
  8
0
100
AcDbBlockBegin
  2
3
 70
     0
 10
0.0
 20
0.0
 30
0.0
  3
3
  1

  0
LINE
  5
9E4
330
74D
100
AcDbEntity
  8
0
  6
Continuous
 62
     7
370
    15
100
AcDbLine
 10
2220.290762276272
 20
959.3073503673167
 30
0.0
 11
2220.290762276272
 21
952.302081193784
 31
0.0
1001
AcDbBlockRepETag
1070
     1
1071
        0
1005
9E4
  0
LINE
  5
9E5
330
74D
100
AcDbEntity
  8
0
  6
Continuous
 62
     7
370
    15
100
AcDbLine
 10
2163.174434468964
 20
952.3026111163289
 30
0.0
 11
2163.174434468964
 21
959.3070895969958
 31
0.0
1001
AcDbBlockRepETag
1070
     1
1071
        1
1005
9E5
  0
LINE
  5
9E6
330
74D
100
AcDbEntity
  8
0
  6
Continuous
 62
     7
370
    15
100
AcDbLine
 10
2161.290875539998
 20
959.3047892302365
 30
0.0
 11
2161.290875539998
 21
952.304789479831
 31
0.0
1001
AcDbBlockRepETag
1070
     1
1071
        2
1005
9E6
  0
LINE
  5
9E7
330
74D
100
AcDbEntity
  8
0
  6
Continuous
 62
     7
370
    15
100
AcDbLine
 10
2222.174321205238
 20
952.304789479831
 30
0.0
 11
2222.174321205238
 21
959.3047892302365
 31
0.0
1001
AcDbBlockRepETag
1070
     1
1071
        3
1005
9E7
  0
LINE
  5
9E8
330
74D
100
AcDbEntity
  8
0
  6
Continuous
 62
     7
370
    15
100
AcDbLine
 10
2222.520847708801
 20
959.3047892302365
 30
0.0
 11
2222.520847708801
 21
952.304789479831
 31
0.0
1001
AcDbBlockRepETag
1070
     1
1071
        4
1005
9E8
  0
LINE
  5
9E9
330
74D
100
AcDbEntity
  8
0
  6
Continuous
 62
     7
370
    15
100
AcDbLine
 10
2160.944349036435
 20
952.304789479831
 30
0.0
 11
2160.944349036435
 21
959.3047892302365
 31
0.0
1001
AcDbBlockRepETag
1070
     1
1071
        5
1005
9E9
  0
LINE
  5
9EA
330
74D
100
AcDbEntity
  8
0
  6
Continuous
 62
     7
370
    15
100
AcDbLine
 10
2159.060790107468
 20
959.3047892302365
 30
0.0
 11
2159.060790107468
 21
952.304789479831
 31
0.0
1001
AcDbBlockRepETag
1070
     1
1071
        6
1005
9EA
  0
LINE
  5
9EB
330
74D
100
AcDbEntity
  8
0
  6
Continuous
 62
     7
370
    15
100
AcDbLine
 10
2224.404406637768
 20
952.304789479831
 30
0.0
 11
2224.404406637768
 21
959.3047892302365
 31
0.0
1001
AcDbBlockRepETag
1070
     1
1071
        7
1005
9EB
  0
LINE
  5
9EC
330
74D
100
AcDbEntity
  8
0
  6
Continuous
 62
     7
370
    15
100
AcDbLine
 10
2224.750936866621
 20
959.3047892302365
 30
0.0
 11
2224.750936866621
 21
952.304789479831
 31
0.0
1001
AcDbBlockRepETag
1070
     1
1071
        8
1005
9EC
  0
LINE
  5
9ED
330
74D
100
AcDbEntity
  8
0
  6
Continuous
 62
     7
370
    15
100
AcDbLine
 10
2158.71426174126
 20
952.304789479831
 30
0.0
 11
2158.71426174126
 21
959.3047892302365
 31
0.0
1001
AcDbBlockRepETag
1070
     1
1071
        9
1005
9ED
  0
LINE
  5
9EE
330
74D
100
AcDbEntity
  8
0
  6
Continuous
 62
     7
370
    15
100
AcDbLine
 10
2156.830704674939
 20
959.3047892302365
 30
0.0
 11
2156.830704674939
 21
952.304789479831
 31
0.0
1001
AcDbBlockRepETag
1070
     1
1071
       10
1005
9EE
  0
LINE
  5
9EF
330
74D
100
AcDbEntity
  8
0
  6
Continuous
 62
     7
370
    15
100
AcDbLine
 10
2226.634492070297
 20
952.304789479831
 30
0.0
 11
2226.634492070297
 21
959.3047892302365
 31
0.0
1001
AcDbBlockRepETag
1070
     1
1071
       11
1005
9EF
  0
LINE
  5
9F0
330
74D
100
AcDbEntity
  8
0
  6
Continuous
 62
     7
370
    15
100
AcDbLine
 10
2226.98102229915
 20
959.3047892302365
 30
0.0
 11
2226.98102229915
 21
952.304789479831
 31
0.0
1001
AcDbBlockRepETag
1070
     1
1071
       12
1005
9F0
  0
LINE
  5
9F1
330
74D
100
AcDbEntity
  8
0
  6
Continuous
 62
     7
370
    15
100
AcDbLine
 10
2156.484176308731
 20
952.304789479831
 30
0.0
 11
2156.484176308731
 21
959.3047892302365
 31
0.0
1001
AcDbBlockRepETag
1070
     1
1071
       13
1005
9F1
  0
SPLINE
  5
9F2
330
74D
100
AcDbEntity
  8
0
  6
Continuous
 62
     7
370
    15
100
AcDbSpline
210
0.0
220
0.0
230
1.0
 70
    24
 71
     3
 72
    17
 73
    13
 74
     0
 42
0.0000000001
 43
0.0000000001
 40
0.0
 40
0.0
 40
0.0
 40
0.0
 40
0.0623914722789778
 40
0.1244880396367052
 40
0.1868953789811012
 40
0.2502102492126657
 40
0.3756371287414849
 40
0.5001423281605201
 40
0.6239742210603861
 40
0.7500746391838389
 40
0.8753268328771369
 40
1.0
 40
1.0
 40
1.0
 40
1.0
 10
2187.932598783517
 20
942.8047895886587
 30
0.0
 10
2187.931619676933
 20
942.8047895886587
 30
0.0
 10
2187.929666091692
 20
942.8047895886587
 30
0.0
 10
2187.914570562623
 20
942.8047895886587
 30
0.0
 10
2187.890520297688
 20
942.8047895886587
 30
0.0
 10
2187.846011156577
 20
942.8047895886587
 30
0.0
 10
2187.76916268028
 20
942.8047895886587
 30
0.0
 10
2187.644502621008
 20
942.8047895886587
 30
0.0
 10
2187.492189623418
 20
942.8047895886587
 30
0.0
 10
2187.317652358007
 20
942.8047895886587
 30
0.0
 10
2187.128750552608
 20
942.8047895886587
 30
0.0
 10
2186.997881640938
 20
942.8047895886587
 30
0.0
 10
2186.932598783518
 20
942.8047895886587
 30
0.0
1001
AcDbBlockRepETag
1070
     1
1071
       14
1005
9F2
  0
LINE
  5
9F3
330
74D
100
AcDbEntity
  8
0
  6
Continuous
 62
     7
370
    15
100
AcDbLine
 10
2186.932598784915
 20
942.8047895886587
 30
0.0
 11
2186.932598784915
 21
968.804789588639
 31
0.0
1001
AcDbBlockRepETag
1070
     1
1071
       15
1005
9F3
  0
SPLINE
  5
9F4
330
74D
100
AcDbEntity
  8
0
  6
Continuous
 62
     7
370
    15
100
AcDbSpline
210
0.0
220
0.0
230
1.0
 70
    24
 71
     3
 72
    10
 73
     6
 74
     0
 42
0.0000000001
 43
0.0000000001
 40
0.0
 40
0.0
 40
0.0
 40
0.0
 40
0.5000000000000001
 40
0.5000000000000001
 40
1.0
 40
1.0
 40
1.0
 40
1.0
 10
2187.932598783517
 20
968.804789588639
 30
0.0
 10
2187.932598783517
 20
968.804789588639
 30
0.0
 10
2187.824825687127
 20
968.804789588639
 30
0.0
 10
2187.454585442281
 20
968.804789588639
 30
0.0
 10
2187.194398171317
 20
968.804789588639
 30
0.0
 10
2186.932598783517
 20
968.804789588639
 30
0.0
1001
AcDbBlockRepETag
1070
     1
1071
       16
1005
9F4
  0
LINE
  5
9F5
330
74D
100
AcDbEntity
  8
0
  6
Continuous
 62
     7
370
    15
100
AcDbLine
 10
2187.932598774204
 20
968.804789588639
 30
0.0
 11
2187.932598774204
 21
942.8047895886587
 31
0.0
1001
AcDbBlockRepETag
1070
     1
1071
       17
1005
9F5
  0
LINE
  5
9F6
330
74D
100
AcDbEntity
  8
0
  6
Continuous
 62
     7
370
    15
100
AcDbLine
 10
2164.462556035141
 20
942.8047896047214
 30
0.0
 11
2186.932598784915
 21
942.8047896047214
 31
0.0
1001
AcDbBlockRepETag
1070
     1
1071
       18
1005
9F6
  0
LINE
  5
9F7
330
74D
100
AcDbEntity
  8
0
  6
Continuous
 62
     7
370
    15
100
AcDbLine
 10
2164.462556035141
 20
968.8047898620459
 30
0.0
 11
2164.46255603514
 21
942.8047896047212
 31
0.0
1001
AcDbBlockRepETag
1070
     1
1071
       19
1005
9F7
  0
SPLINE
  5
9F8
330
74D
100
AcDbEntity
  8
0
  6
Continuous
 62
     7
370
    15
100
AcDbSpline
210
0.0
220
0.0
230
1.0
 70
     8
 71
     3
 72
    30
 73
    26
 74
     0
 42
0.0000000001
 43
0.0000000001
 40
0.0
 40
0.0
 40
0.0
 40
0.0
 40
0.0173048380583917
 40
0.0344788584273625
 40
0.0515713687169038
 40
0.0686323832623509
 40
0.0857121930856327
 40
0.1028609238502268
 40
0.1201281010089654
 40
0.1850408523809402
 40
0.2500861352091341
 40
0.3149916041000427
 40
0.3800441773566177
 40
0.4399553189976842
 40
0.500013311532616
 40
0.5599317302341054
 40
0.6199824588324185
 40
0.6848952115797593
 40
0.7499404929721232
 40
0.8148459462683554
 40
0.8798985344640207
 40
0.909977822750716
 40
0.9398412720677853
 40
0.969759083248258
 40
0.9999999999999998
 40
0.9999999999999998
 40
0.9999999999999998
 40
0.9999999999999998
 10
2175.18259878352
 20
959.3047895886387
 30
0.0
 10
2175.245953341894
 20
959.3037827771343
 30
0.0
 10
2175.37218352339
 20
959.3017767652197
 30
0.0
 10
2175.560454086243
 20
959.2860916225667
 30
0.0
 10
2175.746751379078
 20
959.2610965681975
 30
0.0
 10
2175.931071509961
 20
959.2259004824819
 30
0.0
 10
2176.113404972354
 20
959.1807464404931
 30
0.0
 10
2176.293765158511
 20
959.1255530469364
 30
0.0
 10
2176.635362497506
 20
959.0007680055263
 30
0.0
 10
2177.118297808092
 20
958.7518682176293
 30
0.0
 10
2177.673815133875
 20
958.2967812291144
 30
0.0
 10
2178.129459974396
 20
957.7407960280174
 30
0.0
 10
2178.450288849681
 20
957.1186471893485
 30
0.0
 10
2178.642079512132
 20
956.464963377317
 30
0.0
 10
2178.70283450737
 20
955.8052993169486
 30
0.0
 10
2178.642179942899
 20
955.1451359635496
 30
0.0
 10
2178.450667920843
 20
954.4918804364195
 30
0.0
 10
2178.129751367888
 20
953.8692239994738
 30
0.0
 10
2177.674542583949
 20
953.3135427478487
 30
0.0
 10
2177.118722736845
 20
952.8579173837167
 30
0.0
 10
2176.593880927813
 20
952.587567205674
 30
0.0
 10
2176.160761111211
 20
952.4383533846608
 30
0.0
 10
2175.840421912414
 20
952.3616842915838
 30
0.0
 10
2175.513646510754
 20
952.3137437161622
 30
0.0
 10
2175.29334243517
 20
952.307784965733
 30
0.0
 10
2175.18259878352
 20
952.3047895886387
 30
0.0
1001
AcDbBlockRepETag
1070
     1
1071
       20
1005
9F8
  0
SPLINE
  5
9F9
330
74D
100
AcDbEntity
  8
0
  6
Continuous
 62
     7
370
    15
100
AcDbSpline
210
0.0
220
0.0
230
1.0
 70
     8
 71
     3
 72
    30
 73
    26
 74
     0
 42
0.0000000001
 43
0.0000000001
 40
0.0
 40
0.0
 40
0.0
 40
0.0
 40
0.0173048380582597
 40
0.0344788584271419
 40
0.0515713687166383
 40
0.0686323832620842
 40
0.0857121930854059
 40
0.1028609238500822
 40
0.1201281010089411
 40
0.1850408523804745
 40
0.2500861352091068
 40
0.3149916040995396
 40
0.3800441773565861
 40
0.4399553189971023
 40
0.5000133115325881
 40
0.5599317302348385
 40
0.6199824588324472
 40
0.6848952115823794
 40
0.7499404929721903
 40
0.814845946269185
 40
0.8798985344640017
 40
0.9099778227501317
 40
0.9398412720670059
 40
0.9697590832476702
 40
1.0
 40
1.0
 40
1.0
 40
1.0
 10
2175.18259878352
 20
952.3047895886387
 30
0.0
 10
2175.119244225148
 20
952.3057964001433
 30
0.0
 10
2174.993014043652
 20
952.3078024120577
 30
0.0
 10
2174.8047434808
 20
952.3234875547109
 30
0.0
 10
2174.618446187966
 20
952.3484826090799
 30
0.0
 10
2174.434126057083
 20
952.3836786947956
 30
0.0
 10
2174.251792594689
 20
952.4288327367845
 30
0.0
 10
2174.071432408531
 20
952.4840261303411
 30
0.0
 10
2173.729835069537
 20
952.6088111717498
 30
0.0
 10
2173.24689975895
 20
952.8577109596472
 30
0.0
 10
2172.691382433169
 20
953.3127979481605
 30
0.0
 10
2172.235737592647
 20
953.8687831492586
 30
0.0
 10
2171.914908717362
 20
954.4909319879252
 30
0.0
 10
2171.723118054909
 20
955.1446157999583
 30
0.0
 10
2171.662363059672
 20
955.8042798603294
 30
0.0
 10
2171.723017624138
 20
956.4644432137313
 30
0.0
 10
2171.914529646203
 20
957.1176987408689
 30
0.0
 10
2172.235446199156
 20
957.7403551778129
 30
0.0
 10
2172.6906549831
 20
958.2960364294383
 30
0.0
 10
2173.246474830204
 20
958.7516617935552
 30
0.0
 10
2173.771316639228
 20
959.0220119716031
 30
0.0
 10
2174.204436455825
 20
959.1712257926173
 30
0.0
 10
2174.52477565462
 20
959.2478948856941
 30
0.0
 10
2174.851551056283
 20
959.2958354611155
 30
0.0
 10
2175.071855131869
 20
959.3017942115446
 30
0.0
 10
2175.18259878352
 20
959.3047895886387
 30
0.0
1001
AcDbBlockRepETag
1070
     1
1071
       21
1005
9F9
  0
LINE
  5
9FA
330
74D
100
AcDbEntity
  8
0
  6
Continuous
 62
     7
370
    15
100
AcDbLine
 10
2164.462556035141
 20
968.8047898620459
 30
0.0
 11
2186.932598784915
 21
968.8047898620459
 31
0.0
1001
AcDbBlockRepETag
1070
     1
1071
       22
1005
9FA
  0
LINE
  5
9FB
330
74D
100
AcDbEntity
  8
0
  6
Continuous
 62
     7
370
    15
100
AcDbLine
 10
2196.532598600606
 20
942.8047896047214
 30
0.0
 11
2219.00264257274
 21
942.8047896047214
 31
0.0
1001
AcDbBlockRepETag
1070
     1
1071
       23
1005
9FB
  0
LINE
  5
9FC
330
74D
100
AcDbEntity
  8
0
  6
Continuous
 62
     7
370
    15
100
AcDbLine
 10
2196.532598600606
 20
968.8047898620459
 30
0.0
 11
2196.532598600606
 21
942.8047896047214
 31
0.0
1001
AcDbBlockRepETag
1070
     1
1071
       24
1005
9FC
  0
LINE
  5
9FD
330
74D
100
AcDbEntity
  8
0
  6
Continuous
 62
     7
370
    15
100
AcDbLine
 10
2219.00264257274
 20
942.8047896047214
 30
0.0
 11
2219.00264257274
 21
968.8047898620459
 31
0.0
1001
AcDbBlockRepETag
1070
     1
1071
       25
1005
9FD
  0
SPLINE
  5
9FE
330
74D
100
AcDbEntity
  8
0
  6
Continuous
 62
     7
370
    15
100
AcDbSpline
210
0.0
220
0.0
230
1.0
 70
     8
 71
     3
 72
    30
 73
    26
 74
     0
 42
0.0000000001
 43
0.0000000001
 40
0.0
 40
0.0
 40
0.0
 40
0.0
 40
0.0173048380582709
 40
0.03447885842716
 40
0.0515713687166589
 40
0.0686323832621016
 40
0.0857121930854154
 40
0.1028609238500784
 40
0.1201281010089206
 40
0.1850408523800776
 40
0.2500861352090726
 40
0.3149916040984308
 40
0.3800441773565402
 40
0.4399553189963982
 40
0.5000133115325767
 40
0.5599317302348705
 40
0.6199824588324402
 40
0.6848952115816135
 40
0.7499404929721639
 40
0.8148459462700824
 40
0.8798985344640918
 40
0.9099778227514114
 40
0.9398412720686902
 40
0.9697590832489343
 40
1.0
 40
1.0
 40
1.0
 40
1.0
 10
2208.282598783521
 20
952.3047895886387
 30
0.0
 10
2208.219244225148
 20
952.3057964001431
 30
0.0
 10
2208.093014043653
 20
952.3078024120577
 30
0.0
 10
2207.904743480801
 20
952.3234875547107
 30
0.0
 10
2207.718446187966
 20
952.3484826090799
 30
0.0
 10
2207.534126057083
 20
952.3836786947954
 30
0.0
 10
2207.351792594689
 20
952.4288327367843
 30
0.0
 10
2207.171432408532
 20
952.484026130341
 30
0.0
 10
2206.829835069539
 20
952.6088111717491
 30
0.0
 10
2206.346899758953
 20
952.8577109596476
 30
0.0
 10
2205.791382433173
 20
953.3127979481562
 30
0.0
 10
2205.33573759265
 20
953.8687831492556
 30
0.0
 10
2205.014908717365
 20
954.4909319879192
 30
0.0
 10
2204.823118054907
 20
955.1446157999549
 30
0.0
 10
2204.762363059673
 20
955.8042798603267
 30
0.0
 10
2204.823017624138
 20
956.4644432137313
 30
0.0
 10
2205.014529646202
 20
957.1176987408664
 30
0.0
 10
2205.335446199157
 20
957.740355177809
 30
0.0
 10
2205.790654983101
 20
958.2960364294377
 30
0.0
 10
2206.346474830203
 20
958.7516617935641
 30
0.0
 10
2206.871316639235
 20
959.0220119716081
 30
0.0
 10
2207.304436455836
 20
959.1712257926158
 30
0.0
 10
2207.624775654636
 20
959.2478948856932
 30
0.0
 10
2207.951551056294
 20
959.295835461115
 30
0.0
 10
2208.171855131874
 20
959.3017942115443
 30
0.0
 10
2208.282598783521
 20
959.3047895886385
 30
0.0
1001
AcDbBlockRepETag
1070
     1
1071
       26
1005
9FE
  0
SPLINE
  5
9FF
330
74D
100
AcDbEntity
  8
0
  6
Continuous
 62
     7
370
    15
100
AcDbSpline
210
0.0
220
0.0
230
1.0
 70
     8
 71
     3
 72
    30
 73
    26
 74
     0
 42
0.0000000001
 43
0.0000000001
 40
0.0
 40
0.0
 40
0.0
 40
0.0
 40
0.0173048380581747
 40
0.0344788584269995
 40
0.0515713687164665
 40
0.0686323832619098
 40
0.0857121930852556
 40
0.1028609238499824
 40
0.1201281010089161
 40
0.1850408523802814
 40
0.2500861352090773
 40
0.3149916040989125
 40
0.3800441773565202
 40
0.4399553189956301
 40
0.5000133115325092
 40
0.5599317302336232
 40
0.6199824588323741
 40
0.6848952115827976
 40
0.7499404929721805
 40
0.8148459462701898
 40
0.87989853446399
 40
0.9099778227502875
 40
0.9398412720672222
 40
0.9697590832478354
 40
1.0
 40
1.0
 40
1.0
 40
1.0
 10
2208.282598783521
 20
959.3047895886385
 30
0.0
 10
2208.345953341893
 20
959.3037827771341
 30
0.0
 10
2208.472183523388
 20
959.3017767652197
 30
0.0
 10
2208.66045408624
 20
959.2860916225665
 30
0.0
 10
2208.846751379074
 20
959.2610965681974
 30
0.0
 10
2209.031071509957
 20
959.2259004824818
 30
0.0
 10
2209.213404972351
 20
959.1807464404929
 30
0.0
 10
2209.39376515851
 20
959.1255530469361
 30
0.0
 10
2209.735362497504
 20
959.0007680055283
 30
0.0
 10
2210.218297808091
 20
958.7518682176311
 30
0.0
 10
2210.773815133871
 20
958.2967812291192
 30
0.0
 10
2211.229459974392
 20
957.7407960280197
 30
0.0
 10
2211.550288849677
 20
957.1186471893595
 30
0.0
 10
2211.742079512131
 20
956.4649633773246
 30
0.0
 10
2211.802834507369
 20
955.805299316958
 30
0.0
 10
2211.742179942907
 20
955.1451359635503
 30
0.0
 10
2211.550667920838
 20
954.4918804364117
 30
0.0
 10
2211.229751367888
 20
953.8692239994613
 30
0.0
 10
2210.774542583938
 20
953.3135427478358
 30
0.0
 10
2210.218722736833
 20
952.8579173837222
 30
0.0
 10
2209.693880927809
 20
952.5875672056724
 30
0.0
 10
2209.260761111216
 20
952.4383533846604
 30
0.0
 10
2208.940421912419
 20
952.3616842915833
 30
0.0
 10
2208.613646510757
 20
952.313743716162
 30
0.0
 10
2208.393342435172
 20
952.307784965733
 30
0.0
 10
2208.282598783521
 20
952.3047895886387
 30
0.0
1001
AcDbBlockRepETag
1070
     1
1071
       27
1005
9FF
  0
LINE
  5
A00
330
74D
100
AcDbEntity
  8
0
  6
Continuous
 62
     7
370
    15
100
AcDbLine
 10
2196.532598600606
 20
968.8047898620459
 30
0.0
 11
2219.00264257274
 21
968.8047898620459
 31
0.0
1001
AcDbBlockRepETag
1070
     1
1071
       28
1005
A00
  0
SPLINE
  5
A01
330
74D
100
AcDbEntity
  8
0
  6
Continuous
 62
     7
370
    15
100
AcDbSpline
210
0.0
220
0.0
230
1.0
 70
    24
 71
     3
 72
    17
 73
    13
 74
     0
 42
0.0000000001
 43
0.0000000001
 40
0.0
 40
0.0
 40
0.0
 40
0.0
 40
0.0623914722797254
 40
0.1244880396377048
 40
0.1868953789818629
 40
0.2502102492127247
 40
0.375637128742833
 40
0.500142328160538
 40
0.6239742210605924
 40
0.7500746391838178
 40
0.875326832876944
 40
0.9999999999999998
 40
0.9999999999999998
 40
0.9999999999999998
 40
0.9999999999999998
 10
2196.532598783521
 20
942.8047895886599
 30
0.0
 10
2196.499975363844
 20
942.8047895886599
 30
0.0
 10
2196.434882725162
 20
942.8047895886599
 30
0.0
 10
2196.338125509161
 20
942.8047895886598
 30
0.0
 10
2196.242809244103
 20
942.8047895886598
 30
0.0
 10
2196.119135237146
 20
942.8047895886598
 30
0.0
 10
2195.973280679949
 20
942.8047895886598
 30
0.0
 10
2195.821234749434
 20
942.8047895886598
 30
0.0
 10
2195.696095145961
 20
942.8047895886598
 30
0.0
 10
2195.604618159732
 20
942.8047895886598
 30
0.0
 10
2195.543927299572
 20
942.8047895886596
 30
0.0
 10
2195.536369118612
 20
942.8047895886596
 30
0.0
 10
2195.532598783521
 20
942.8047895886596
 30
0.0
1001
AcDbBlockRepETag
1070
     1
1071
       29
1005
A01
  0
LINE
  5
A02
330
74D
100
AcDbEntity
  8
0
  6
Continuous
 62
     7
370
    15
100
AcDbLine
 10
2195.532598436693
 20
942.8047896047214
 30
0.0
 11
2195.532598436693
 21
968.8047898620459
 31
0.0
1001
AcDbBlockRepETag
1070
     1
1071
       30
1005
A02
  0
SPLINE
  5
A03
330
74D
100
AcDbEntity
  8
0
  6
Continuous
 62
     7
370
    15
100
AcDbSpline
210
0.0
220
0.0
230
1.0
 70
    24
 71
     3
 72
    10
 73
     6
 74
     0
 42
0.0000000001
 43
0.0000000001
 40
0.0
 40
0.0
 40
0.0
 40
0.0
 40
0.5
 40
0.5
 40
1.0
 40
1.0
 40
1.0
 40
1.0
 10
2196.532598783521
 20
968.804789588639
 30
0.0
 10
2196.270799395722
 20
968.804789588639
 30
0.0
 10
2196.010612124758
 20
968.804789588639
 30
0.0
 10
2195.640371879911
 20
968.804789588639
 30
0.0
 10
2195.532598783521
 20
968.804789588639
 30
0.0
 10
2195.532598783521
 20
968.804789588639
 30
0.0
1001
AcDbBlockRepETag
1070
     1
1071
       31
1005
A03
  0
SPLINE
  5
A04
330
74D
100
AcDbEntity
  8
0
  6
Continuous
 62
     7
370
    15
100
AcDbSpline
210
0.0
220
0.0
230
1.0
 70
    24
 71
     3
 72
     8
 73
     4
 74
     0
 42
0.0000000001
 43
0.0000000001
 40
0.0
 40
0.0
 40
0.0
 40
0.0
 40
1.0
 40
1.0
 40
1.0
 40
1.0
 10
2163.299774028878
 20
952.3047895886385
 30
0.0
 10
2163.210296685525
 20
952.3047895886385
 30
0.0
 10
2163.126105982799
 20
952.3047895886385
 30
0.0
 10
2163.048342764141
 20
952.3047895886385
 30
0.0
1001
AcDbBlockRepETag
1070
     1
1071
       32
1005
A04
  0
LINE
  5
A05
330
74D
100
AcDbEntity
  8
0
  6
Continuous
 62
     7
370
    15
100
AcDbLine
 10
2163.299773723701
 20
959.3047892302365
 30
0.0
 11
2163.299773723701
 21
952.304789479831
 31
0.0
1001
AcDbBlockRepETag
1070
     1
1071
       33
1005
A05
  0
SPLINE
  5
A06
330
74D
100
AcDbEntity
  8
0
  6
Continuous
 62
     7
370
    15
100
AcDbSpline
210
0.0
220
0.0
230
1.0
 70
    24
 71
     3
 72
     8
 73
     4
 74
     0
 42
0.0000000001
 43
0.0000000001
 40
0.0
 40
0.0
 40
0.0
 40
0.0
 40
1.0
 40
1.0
 40
1.0
 40
1.0
 10
2163.04834276414
 20
959.3047895886385
 30
0.0
 10
2163.126105982798
 20
959.3047895886385
 30
0.0
 10
2163.210296685524
 20
959.3047895886385
 30
0.0
 10
2163.299774028878
 20
959.3047895886385
 30
0.0
1001
AcDbBlockRepETag
1070
     1
1071
       34
1005
A06
  0
LINE
  5
A07
330
74D
100
AcDbEntity
  8
0
  6
Continuous
 62
     7
370
    15
100
AcDbLine
 10
2163.048342705586
 20
952.3047894798308
 30
0.0
 11
2163.048342705587
 21
968.8047898620457
 31
0.0
1001
AcDbBlockRepETag
1070
     1
1071
       35
1005
A07
  0
LINE
  5
A08
330
74D
100
AcDbEntity
  8
0
  6
Continuous
 62
     7
370
    15
100
AcDbLine
 10
2163.048342705587
 20
959.3047892302363
 30
0.0
 11
2163.048342705588
 21
942.8047896047214
 31
0.0
1001
AcDbBlockRepETag
1070
     1
1071
       36
1005
A08
  0
SPLINE
  5
A09
330
74D
100
AcDbEntity
  8
0
  6
Continuous
 62
     7
370
    15
100
AcDbSpline
210
0.0
220
0.0
230
1.0
 70
    24
 71
     3
 72
    16
 73
    12
 74
     0
 42
0.0000000001
 43
0.0000000001
 40
0.0
 40
0.0
 40
0.0
 40
0.0
 40
0.084047130554853
 40
0.1673408307802179
 40
0.2502358297427834
 40
0.3330919775039285
 40
0.4162696283704443
 40
0.5001249919351521
 40
0.6667710046309274
 40
0.8324319057000614
 40
0.9999999999999998
 40
0.9999999999999998
 40
0.9999999999999998
 40
0.9999999999999998
 10
2164.462556326512
 20
942.804789588656
 30
0.0
 10
2164.418559075873
 20
942.804789588656
 30
0.0
 10
2164.330958982622
 20
942.804789588656
 30
0.0
 10
2164.200514555673
 20
942.804789588656
 30
0.0
 10
2164.071804996388
 20
942.8047895886559
 30
0.0
 10
2163.944835617888
 20
942.8047895886559
 30
0.0
 10
2163.81962198596
 20
942.8047895886559
 30
0.0
 10
2163.656057837102
 20
942.8047895886559
 30
0.0
 10
2163.460200440917
 20
942.8047895886559
 30
0.0
 10
2163.240741371557
 20
942.8047895886559
 30
0.0
 10
2163.112719871467
 20
942.8047895886559
 30
0.0
 10
2163.04834276414
 20
942.8047895886559
 30
0.0
1001
AcDbBlockRepETag
1070
     1
1071
       37
1005
A09
  0
SPLINE
  5
A0A
330
74D
100
AcDbEntity
  8
0
  6
Continuous
 62
     7
370
    15
100
AcDbSpline
210
0.0
220
0.0
230
1.0
 70
    24
 71
     3
 72
    10
 73
     6
 74
     0
 42
0.0000000001
 43
0.0000000001
 40
0.0
 40
0.0
 40
0.0
 40
0.0
 40
0.5
 40
0.5
 40
1.0
 40
1.0
 40
1.0
 40
1.0
 10
2164.462556326512
 20
968.804789588639
 30
0.0
 10
2164.200756938713
 20
968.804789588639
 30
0.0
 10
2163.939060557794
 20
968.804789588639
 30
0.0
 10
2163.455318365771
 20
968.804789588639
 30
0.0
 10
2163.233462886563
 20
968.804789588639
 30
0.0
 10
2163.04834276414
 20
968.804789588639
 30
0.0
1001
AcDbBlockRepETag
1070
     1
1071
       38
1005
A0A
  0
LINE
  5
A0B
330
74D
100
AcDbEntity
  8
0
  6
Continuous
 62
     7
370
    15
100
AcDbLine
 10
2220.416855902293
 20
968.8047898620457
 30
0.0
 11
2220.416855902294
 21
959.3047892302365
 31
0.0
1001
AcDbBlockRepETag
1070
     1
1071
       39
1005
A0B
  0
SPLINE
  5
A0C
330
74D
100
AcDbEntity
  8
0
  6
Continuous
 62
     7
370
    15
100
AcDbSpline
210
0.0
220
0.0
230
1.0
 70
    24
 71
     3
 72
     9
 73
     5
 74
     0
 42
0.0000000001
 43
0.0000000001
 40
0.0
 40
0.0
 40
0.0
 40
0.0
 40
0.5000000000004236
 40
1.0
 40
1.0
 40
1.0
 40
1.0
 10
2220.416854802899
 20
959.3047895886385
 30
0.0
 10
2220.377100995941
 20
959.3047895886385
 30
0.0
 10
2220.297593382023
 20
959.3047895886385
 30
0.0
 10
2220.209480152782
 20
959.3047895886385
 30
0.0
 10
2220.165423538162
 20
959.3047895886385
 30
0.0
1001
AcDbBlockRepETag
1070
     1
1071
       40
1005
A0C
  0
LINE
  5
A0D
330
74D
100
AcDbEntity
  8
0
  6
Continuous
 62
     7
370
    15
100
AcDbLine
 10
2220.16542488418
 20
952.304789479831
 30
0.0
 11
2220.16542488418
 21
959.3047892302365
 31
0.0
1001
AcDbBlockRepETag
1070
     1
1071
       41
1005
A0D
  0
SPLINE
  5
A0E
330
74D
100
AcDbEntity
  8
0
  6
Continuous
 62
     7
370
    15
100
AcDbSpline
210
0.0
220
0.0
230
1.0
 70
    24
 71
     3
 72
     8
 73
     4
 74
     0
 42
0.0000000001
 43
0.0000000001
 40
0.0
 40
0.0
 40
0.0
 40
0.0
 40
1.0
 40
1.0
 40
1.0
 40
1.0
 10
2220.416854802899
 20
952.3047895886385
 30
0.0
 10
2220.339091584241
 20
952.3047895886385
 30
0.0
 10
2220.254900881515
 20
952.3047895886385
 30
0.0
 10
2220.165423538162
 20
952.3047895886385
 30
0.0
1001
AcDbBlockRepETag
1070
     1
1071
       42
1005
A0E
  0
LINE
  5
A0F
330
74D
100
AcDbEntity
  8
0
  6
Continuous
 62
     7
370
    15
100
AcDbLine
 10
2220.416855902294
 20
942.8047896047214
 30
0.0
 11
2220.416855902294
 21
959.3047892302363
 31
0.0
1001
AcDbBlockRepETag
1070
     1
1071
       43
1005
A0F
  0
SPLINE
  5
A10
330
74D
100
AcDbEntity
  8
0
  6
Continuous
 62
     7
370
    15
100
AcDbSpline
210
0.0
220
0.0
230
1.0
 70
    24
 71
     3
 72
    16
 73
    12
 74
     0
 42
0.0000000001
 43
0.0000000001
 40
0.0
 40
0.0
 40
0.0
 40
0.0
 40
0.0840471305561148
 40
0.1673408307822099
 40
0.2502358297449728
 40
0.3330919775058044
 40
0.4162696283715018
 40
0.5001249919349218
 40
0.6667710046327175
 40
0.8324319057019707
 40
1.0
 40
1.0
 40
1.0
 40
1.0
 10
2220.416854802899
 20
942.8047895886628
 30
0.0
 10
2220.385144602233
 20
942.8047895886628
 30
0.0
 10
2220.322008463157
 20
942.8047895886628
 30
0.0
 10
2220.220421572703
 20
942.8047895886626
 30
0.0
 10
2220.114504117468
 20
942.8047895886626
 30
0.0
 10
2220.003736704027
 20
942.8047895886626
 30
0.0
 10
2219.8882555231
 20
942.8047895886626
 30
0.0
 10
2219.729062828525
 20
942.8047895886626
 30
0.0
 10
2219.522323772602
 20
942.8047895886626
 30
0.0
 10
2219.26495182109
 20
942.8047895886626
 30
0.0
 10
2219.090411087848
 20
942.8047895886624
 30
0.0
 10
2219.002641240527
 20
942.8047895886624
 30
0.0
1001
AcDbBlockRepETag
1070
     1
1071
       44
1005
A10
  0
SPLINE
  5
A11
330
74D
100
AcDbEntity
  8
0
  6
Continuous
 62
     7
370
    15
100
AcDbSpline
210
0.0
220
0.0
230
1.0
 70
    24
 71
     3
 72
    10
 73
     6
 74
     0
 42
0.0000000001
 43
0.0000000001
 40
0.0
 40
0.0
 40
0.0
 40
0.0
 40
0.5
 40
0.5
 40
1.0
 40
1.0
 40
1.0
 40
1.0
 10
2220.416854802899
 20
968.8047895886391
 30
0.0
 10
2220.231734680476
 20
968.8047895886391
 30
0.0
 10
2220.009879201268
 20
968.8047895886391
 30
0.0
 10
2219.526137009244
 20
968.8047895886391
 30
0.0
 10
2219.264440628325
 20
968.8047895886391
 30
0.0
 10
2219.002641240526
 20
968.8047895886391
 30
0.0
1001
AcDbBlockRepETag
1070
     1
1071
       45
1005
A11
  0
LINE
  5
A12
330
74D
100
AcDbEntity
  8
0
  6
Continuous
 62
     7
370
    15
100
AcDbLine
 10
2154.818386674741
 20
968.8047898620457
 30
0.0
 11
2154.818386674742
 21
952.3047894798308
 31
0.0
1001
AcDbBlockRepETag
1070
     1
1071
       46
1005
A12
  0
LINE
  5
A13
330
74D
100
AcDbEntity
  8
0
  6
Continuous
 62
     7
370
    15
100
AcDbLine
 10
2154.818386674742
 20
959.3047892302365
 30
0.0
 11
2163.048342705587
 21
959.3047892302365
 31
0.0
1001
AcDbBlockRepETag
1070
     1
1071
       47
1005
A13
  0
LINE
  5
A14
330
74D
100
AcDbEntity
  8
0
  6
Continuous
 62
     7
370
    15
100
AcDbLine
 10
2154.818386674742
 20
968.8047898620459
 30
0.0
 11
2163.048342705587
 21
968.8047898620459
 31
0.0
1001
AcDbBlockRepETag
1070
     1
1071
       48
1005
A14
  0
LINE
  5
A15
330
74D
100
AcDbEntity
  8
0
  6
Continuous
 62
     7
370
    15
100
AcDbLine
 10
2228.64681193314
 20
952.3047894798308
 30
0.0
 11
2228.646811933139
 21
968.8047898620457
 31
0.0
1001
AcDbBlockRepETag
1070
     1
1071
       49
1005
A15
  0
LINE
  5
A16
330
74D
100
AcDbEntity
  8
0
  6
Continuous
 62
     7
370
    15
100
AcDbLine
 10
2220.416855902294
 20
959.3047892302365
 30
0.0
 11
2228.64681193314
 21
959.3047892302365
 31
0.0
1001
AcDbBlockRepETag
1070
     1
1071
       50
1005
A16
  0
LINE
  5
A17
330
74D
100
AcDbEntity
  8
0
  6
Continuous
 62
     7
370
    15
100
AcDbLine
 10
2220.416855902294
 20
968.8047898620459
 30
0.0
 11
2228.64681193314
 21
968.8047898620459
 31
0.0
1001
AcDbBlockRepETag
1070
     1
1071
       51
1005
A17
  0
LINE
  5
A18
330
74D
100
AcDbEntity
  8
0
  6
Continuous
 62
     7
370
    15
100
AcDbLine
 10
2154.818386674742
 20
942.8047896047214
 30
0.0
 11
2154.818386674742
 21
959.3047892302363
 31
0.0
1001
AcDbBlockRepETag
1070
     1
1071
       52
1005
A18
  0
LINE
  5
A19
330
74D
100
AcDbEntity
  8
0
  6
Continuous
 62
     7
370
    15
100
AcDbLine
 10
2163.048342705587
 20
952.304789479831
 30
0.0
 11
2154.818386674742
 21
952.304789479831
 31
0.0
1001
AcDbBlockRepETag
1070
     1
1071
       53
1005
A19
  0
LINE
  5
A1A
330
74D
100
AcDbEntity
  8
0
  6
Continuous
 62
     7
370
    15
100
AcDbLine
 10
2163.048342705587
 20
942.8047896047214
 30
0.0
 11
2154.818386674742
 21
942.8047896047214
 31
0.0
1001
AcDbBlockRepETag
1070
     1
1071
       54
1005
A1A
  0
LINE
  5
A1B
330
74D
100
AcDbEntity
  8
0
  6
Continuous
 62
     7
370
    15
100
AcDbLine
 10
2228.64681193314
 20
952.304789479831
 30
0.0
 11
2228.64681193314
 21
942.8047896047212
 31
0.0
1001
AcDbBlockRepETag
1070
     1
1071
       55
1005
A1B
  0
LINE
  5
A1C
330
74D
100
AcDbEntity
  8
0
  6
Continuous
 62
     7
370
    15
100
AcDbLine
 10
2228.64681193314
 20
952.304789479831
 30
0.0
 11
2220.416855902294
 21
952.304789479831
 31
0.0
1001
AcDbBlockRepETag
1070
     1
1071
       56
1005
A1C
  0
LINE
  5
A1D
330
74D
100
AcDbEntity
  8
0
  6
Continuous
 62
     7
370
    15
100
AcDbLine
 10
2228.64681193314
 20
942.8047896047214
 30
0.0
 11
2220.416855902294
 21
942.8047896047214
 31
0.0
1001
AcDbBlockRepETag
1070
     1
1071
       57
1005
A1D
  0
LINE
  5
A1E
330
74D
100
AcDbEntity
  8
0
  6
Continuous
 62
     7
370
    15
100
AcDbLine
 10
2177.682598956744
 20
954.3614137545318
 30
0.0
 11
2177.682598956744
 21
957.2481654211969
 31
0.0
1001
AcDbBlockRepETag
1070
     1
1071
       58
1005
A1E
  0
LINE
  5
A1F
330
74D
100
AcDbEntity
  8
0
  6
Continuous
 62
     7
370
    15
100
AcDbLine
 10
2177.682598956744
 20
957.2481654211969
 30
0.0
 11
2175.182598546962
 21
958.6915412545295
 31
0.0
1001
AcDbBlockRepETag
1070
     1
1071
       59
1005
A1F
  0
LINE
  5
A20
330
74D
100
AcDbEntity
  8
0
  6
Continuous
 62
     7
370
    15
100
AcDbLine
 10
2175.182598546962
 20
958.6915412545295
 30
0.0
 11
2172.682599068502
 21
957.2481654211969
 31
0.0
1001
AcDbBlockRepETag
1070
     1
1071
       60
1005
A20
  0
LINE
  5
A21
330
74D
100
AcDbEntity
  8
0
  6
Continuous
 62
     7
370
    15
100
AcDbLine
 10
2172.682599068502
 20
957.2481654211969
 30
0.0
 11
2172.682599068502
 21
954.3614137545318
 31
0.0
1001
AcDbBlockRepETag
1070
     1
1071
       61
1005
A21
  0
LINE
  5
A22
330
74D
100
AcDbEntity
  8
0
  6
Continuous
 62
     7
370
    15
100
AcDbLine
 10
2172.682599068502
 20
954.3614137545318
 30
0.0
 11
2175.182598546962
 21
952.9180379211993
 31
0.0
1001
AcDbBlockRepETag
1070
     1
1071
       62
1005
A22
  0
LINE
  5
A23
330
74D
100
AcDbEntity
  8
0
  6
Continuous
 62
     7
370
    15
100
AcDbLine
 10
2175.182598546962
 20
952.9180379211993
 30
0.0
 11
2177.682598956744
 21
954.3614137545318
 31
0.0
1001
AcDbBlockRepETag
1070
     1
1071
       63
1005
A23
  0
LINE
  5
A24
330
74D
100
AcDbEntity
  8
0
  6
Continuous
 62
     7
370
    15
100
AcDbLine
 10
2208.282598198274
 20
958.6915412545295
 30
0.0
 11
2205.782598719815
 21
957.2481654211969
 31
0.0
1001
AcDbBlockRepETag
1070
     1
1071
       64
1005
A24
  0
LINE
  5
A25
330
74D
100
AcDbEntity
  8
0
  6
Continuous
 62
     7
370
    15
100
AcDbLine
 10
2205.782598719815
 20
957.2481654211969
 30
0.0
 11
2205.782598719815
 21
954.3614137545318
 31
0.0
1001
AcDbBlockRepETag
1070
     1
1071
       65
1005
A25
  0
LINE
  5
A26
330
74D
100
AcDbEntity
  8
0
  6
Continuous
 62
     7
370
    15
100
AcDbLine
 10
2205.782598719815
 20
954.3614137545318
 30
0.0
 11
2208.282598198274
 21
952.9180379211993
 31
0.0
1001
AcDbBlockRepETag
1070
     1
1071
       66
1005
A26
  0
LINE
  5
A27
330
74D
100
AcDbEntity
  8
0
  6
Continuous
 62
     7
370
    15
100
AcDbLine
 10
2208.282598198274
 20
952.9180379211993
 30
0.0
 11
2210.782599539379
 21
954.3614137545318
 31
0.0
1001
AcDbBlockRepETag
1070
     1
1071
       67
1005
A27
  0
LINE
  5
A28
330
74D
100
AcDbEntity
  8
0
  6
Continuous
 62
     7
370
    15
100
AcDbLine
 10
2210.782599539379
 20
954.3614137545318
 30
0.0
 11
2210.782599539379
 21
957.2481654211969
 31
0.0
1001
AcDbBlockRepETag
1070
     1
1071
       68
1005
A28
  0
LINE
  5
A29
330
74D
100
AcDbEntity
  8
0
  6
Continuous
 62
     7
370
    15
100
AcDbLine
 10
2210.782599539379
 20
957.2481654211969
 30
0.0
 11
2208.282598198274
 21
958.6915412545295
 31
0.0
1001
AcDbBlockRepETag
1070
     1
1071
       69
1005
A29
  0
LINE
  5
A2A
330
74D
100
AcDbEntity
  8
0
  6
Continuous
 62
     7
370
    15
100
AcDbLine
 10
2162.391775191645
 20
959.3047892302365
 30
0.0
 11
2162.391775191645
 21
952.304789479831
 31
0.0
1001
AcDbBlockRepETag
1070
     1
1071
       70
1005
A2A
  0
LINE
  5
A2B
330
74D
100
AcDbEntity
  8
0
  6
Continuous
 62
     7
370
    15
100
AcDbLine
 10
2162.667767048696
 20
952.304789479831
 30
0.0
 11
2162.667767048696
 21
959.3047892302365
 31
0.0
1001
AcDbBlockRepETag
1070
     1
1071
       71
1005
A2B
  0
LINE
  5
A2C
330
74D
100
AcDbEntity
  8
0
  6
Continuous
 62
     7
370
    15
100
AcDbLine
 10
2220.797431559185
 20
959.3047892302365
 30
0.0
 11
2220.797431559185
 21
952.304789479831
 31
0.0
1001
AcDbBlockRepETag
1070
     1
1071
       72
1005
A2C
  0
LINE
  5
A2D
330
74D
100
AcDbEntity
  8
0
  6
Continuous
 62
     7
370
    15
100
AcDbLine
 10
2221.073423416237
 20
952.304789479831
 30
0.0
 11
2221.073423416237
 21
959.3047892302365
 31
0.0
1001
AcDbBlockRepETag
1070
     1
1071
       73
1005
A2D
  0
LINE
  5
A2E
330
74D
100
AcDbEntity
  8
0
  6
Continuous
 62
     7
370
    15
100
AcDbLine
 10
2163.109679610351
 20
959.3047892302365
 30
0.0
 11
2163.109679610351
 21
952.304789479831
 31
0.0
1001
AcDbBlockRepETag
1070
     1
1071
       74
1005
A2E
  0
LINE
  5
A2F
330
74D
100
AcDbEntity
  8
0
  6
Continuous
 62
     7
370
    15
100
AcDbLine
 10
2220.35551527224
 20
952.304789479831
 30
0.0
 11
2220.35551527224
 21
959.3047892302365
 31
0.0
1001
AcDbBlockRepETag
1070
     1
1071
       75
1005
A2F
  0
LINE
  5
A30
330
74D
100
AcDbEntity
  8
0
  6
Continuous
 62
     7
370
    15
100
AcDbLine
 10
2222.115860224584
 20
959.3047892302365
 30
0.0
 11
2222.115860224584
 21
952.304789479831
 31
0.0
1001
AcDbBlockRepETag
1070
     1
1071
       76
1005
A30
  0
LINE
  5
A31
330
74D
100
AcDbEntity
  8
0
  6
Continuous
 62
     7
370
    15
100
AcDbLine
 10
2161.349338383297
 20
952.304789479831
 30
0.0
 11
2161.349338383297
 21
959.3047892302365
 31
0.0
1001
AcDbBlockRepETag
1070
     1
1071
       77
1005
A31
  0
LINE
  5
A32
330
74D
100
AcDbEntity
  8
0
  6
Continuous
 62
     7
370
    15
100
AcDbLine
 10
2160.16168789647
 20
959.3047892302365
 30
0.0
 11
2160.16168789647
 21
952.304789479831
 31
0.0
1001
AcDbBlockRepETag
1070
     1
1071
       78
1005
A32
  0
LINE
  5
A33
330
74D
100
AcDbEntity
  8
0
  6
Continuous
 62
     7
370
    15
100
AcDbLine
 10
2160.437681616167
 20
952.304789479831
 30
0.0
 11
2160.437681616167
 21
959.3047892302365
 31
0.0
1001
AcDbBlockRepETag
1070
     1
1071
       79
1005
A33
  0
LINE
  5
A34
330
74D
100
AcDbEntity
  8
0
  6
Continuous
 62
     7
370
    15
100
AcDbLine
 10
2223.027516991714
 20
959.3047892302365
 30
0.0
 11
2223.027516991714
 21
952.304789479831
 31
0.0
1001
AcDbBlockRepETag
1070
     1
1071
       80
1005
A34
  0
LINE
  5
A35
330
74D
100
AcDbEntity
  8
0
  6
Continuous
 62
     7
370
    15
100
AcDbLine
 10
2223.303508848766
 20
952.304789479831
 30
0.0
 11
2223.303508848766
 21
959.3047892302365
 31
0.0
1001
AcDbBlockRepETag
1070
     1
1071
       81
1005
A35
  0
LINE
  5
A36
330
74D
100
AcDbEntity
  8
0
  6
Continuous
 62
     7
370
    15
100
AcDbLine
 10
2222.585604430059
 20
952.304789479831
 30
0.0
 11
2222.585604430059
 21
959.3047892302365
 31
0.0
1001
AcDbBlockRepETag
1070
     1
1071
       82
1005
A36
  0
LINE
  5
A37
330
74D
100
AcDbEntity
  8
0
  6
Continuous
 62
     7
370
    15
100
AcDbLine
 10
2160.879594177822
 20
959.3047892302365
 30
0.0
 11
2160.879594177822
 21
952.304789479831
 31
0.0
1001
AcDbBlockRepETag
1070
     1
1071
       83
1005
A37
  0
LINE
  5
A38
330
74D
100
AcDbEntity
  8
0
  6
Continuous
 62
     7
370
    15
100
AcDbLine
 10
2159.119252950767
 20
952.304789479831
 30
0.0
 11
2159.119252950767
 21
959.3047892302365
 31
0.0
1001
AcDbBlockRepETag
1070
     1
1071
       84
1005
A38
  0
LINE
  5
A39
330
74D
100
AcDbEntity
  8
0
  6
Continuous
 62
     7
370
    15
100
AcDbLine
 10
2224.345945657114
 20
959.3047892302365
 30
0.0
 11
2224.345945657114
 21
952.304789479831
 31
0.0
1001
AcDbBlockRepETag
1070
     1
1071
       85
1005
A39
  0
LINE
  5
A3A
330
74D
100
AcDbEntity
  8
0
  6
Continuous
 62
     7
370
    15
100
AcDbLine
 10
2161.178939879755
 20
952.304789479831
 30
0.0
 11
2161.178939879755
 21
959.3047892302365
 31
0.0
1001
AcDbBlockRepETag
1070
     1
1071
       86
1005
A3A
  0
LINE
  5
A3B
330
74D
100
AcDbEntity
  8
0
  6
Continuous
 62
     7
370
    15
100
AcDbLine
 10
2222.286258728126
 20
959.3047892302365
 30
0.0
 11
2222.286258728126
 21
952.304789479831
 31
0.0
1001
AcDbBlockRepETag
1070
     1
1071
       87
1005
A3B
  0
LINE
  5
A3C
330
74D
100
AcDbEntity
  8
0
  6
Continuous
 62
     7
370
    15
100
AcDbLine
 10
2225.257602424244
 20
959.3047892302365
 30
0.0
 11
2225.257602424244
 21
952.304789479831
 31
0.0
1001
AcDbBlockRepETag
1070
     1
1071
       88
1005
A3C
  0
LINE
  5
A3D
330
74D
100
AcDbEntity
  8
0
  6
Continuous
 62
     7
370
    15
100
AcDbLine
 10
2225.533594281296
 20
952.304789479831
 30
0.0
 11
2225.533594281296
 21
959.3047892302365
 31
0.0
1001
AcDbBlockRepETag
1070
     1
1071
       89
1005
A3D
  0
LINE
  5
A3E
330
74D
100
AcDbEntity
  8
0
  6
Continuous
 62
     7
370
    15
100
AcDbLine
 10
2157.931602463941
 20
959.3047892302365
 30
0.0
 11
2157.931602463941
 21
952.304789479831
 31
0.0
1001
AcDbBlockRepETag
1070
     1
1071
       90
1005
A3E
  0
LINE
  5
A3F
330
74D
100
AcDbEntity
  8
0
  6
Continuous
 62
     7
370
    15
100
AcDbLine
 10
2158.207596183637
 20
952.304789479831
 30
0.0
 11
2158.207596183637
 21
959.3047892302365
 31
0.0
1001
AcDbBlockRepETag
1070
     1
1071
       91
1005
A3F
  0
LINE
  5
A40
330
74D
100
AcDbEntity
  8
0
  6
Continuous
 62
     7
370
    15
100
AcDbLine
 10
2224.815689862589
 20
952.304789479831
 30
0.0
 11
2224.815689862589
 21
959.3047892302365
 31
0.0
1001
AcDbBlockRepETag
1070
     1
1071
       92
1005
A40
  0
LINE
  5
A41
330
74D
100
AcDbEntity
  8
0
  6
Continuous
 62
     7
370
    15
100
AcDbLine
 10
2158.649508745293
 20
959.3047892302365
 30
0.0
 11
2158.649508745293
 21
952.304789479831
 31
0.0
1001
AcDbBlockRepETag
1070
     1
1071
       93
1005
A41
  0
LINE
  5
A42
330
74D
100
AcDbEntity
  8
0
  6
Continuous
 62
     7
370
    15
100
AcDbLine
 10
2156.889167518238
 20
952.304789479831
 30
0.0
 11
2156.889167518238
 21
959.3047892302365
 31
0.0
1001
AcDbBlockRepETag
1070
     1
1071
       94
1005
A42
  0
LINE
  5
A43
330
74D
100
AcDbEntity
  8
0
  6
Continuous
 62
     7
370
    15
100
AcDbLine
 10
2226.576031089643
 20
959.3047892302365
 30
0.0
 11
2226.576031089643
 21
952.304789479831
 31
0.0
1001
AcDbBlockRepETag
1070
     1
1071
       95
1005
A43
  0
LINE
  5
A44
330
74D
100
AcDbEntity
  8
0
  6
Continuous
 62
     7
370
    15
100
AcDbLine
 10
2158.94885258458
 20
959.3047892302365
 30
0.0
 11
2158.94885258458
 21
952.304789479831
 31
0.0
1001
AcDbBlockRepETag
1070
     1
1071
       96
1005
A44
  0
LINE
  5
A45
330
74D
100
AcDbEntity
  8
0
  6
Continuous
 62
     7
370
    15
100
AcDbLine
 10
2224.516344160656
 20
952.304789479831
 30
0.0
 11
2224.516344160656
 21
959.3047892302365
 31
0.0
1001
AcDbBlockRepETag
1070
     1
1071
       97
1005
A45
  0
LINE
  5
A46
330
74D
100
AcDbEntity
  8
0
  6
Continuous
 62
     7
370
    15
100
AcDbLine
 10
2154.605352223734
 20
952.304789479831
 30
0.0
 11
2154.605352223734
 21
959.3047892302365
 31
0.0
1001
AcDbBlockRepETag
1070
     1
1071
       98
1005
A46
  0
LINE
  5
A47
330
74D
100
AcDbEntity
  8
0
  6
Continuous
 62
     7
370
    15
100
AcDbLine
 10
2154.23259967647
 20
942.8047895886546
 30
0.0
 11
2154.23259967647
 21
968.804789588639
 31
0.0
1001
AcDbBlockRepETag
1070
     1
1071
       99
1005
A47
  0
SPLINE
  5
A48
330
74D
100
AcDbEntity
  8
0
  6
Continuous
 62
     7
370
    15
100
AcDbSpline
210
0.0
220
0.0
230
1.0
 70
    24
 71
     3
 72
     8
 73
     4
 74
     0
 42
0.0000000001
 43
0.0000000001
 40
0.0
 40
0.0
 40
0.0
 40
0.0
 40
1.0
 40
1.0
 40
1.0
 40
1.0
 10
2154.818385221145
 20
952.3047895886385
 30
0.0
 10
2154.740622002487
 20
952.3047895886385
 30
0.0
 10
2154.669288184853
 20
952.3047895886385
 30
0.0
 10
2154.605350391815
 20
952.3047895886385
 30
0.0
1001
AcDbBlockRepETag
1070
     1
1071
      100
1005
A48
  0
SPLINE
  5
A49
330
74D
100
AcDbEntity
  8
0
  6
Continuous
 62
     7
370
    15
100
AcDbSpline
210
0.0
220
0.0
230
1.0
 70
    24
 71
     3
 72
     9
 73
     5
 74
     0
 42
0.0000000001
 43
0.0000000001
 40
0.0
 40
0.0
 40
0.0
 40
0.0
 40
0.5000000000004249
 40
1.0
 40
1.0
 40
1.0
 40
1.0
 10
2154.818385221146
 20
959.3047895886385
 30
0.0
 10
2154.780340253118
 20
959.3047895886385
 30
0.0
 10
2154.704250317062
 20
959.3047895886385
 30
0.0
 10
2154.638317033565
 20
959.3047895886385
 30
0.0
 10
2154.605350391816
 20
959.3047895886385
 30
0.0
1001
AcDbBlockRepETag
1070
     1
1071
      101
1005
A49
  0
SPLINE
  5
A4A
330
74D
100
AcDbEntity
  8
0
  6
Continuous
 62
     7
370
    15
100
AcDbSpline
210
0.0
220
0.0
230
1.0
 70
    24
 71
     3
 72
    16
 73
    12
 74
     0
 42
0.0000000001
 43
0.0000000001
 40
0.0
 40
0.0
 40
0.0
 40
0.0
 40
0.0840471305555418
 40
0.1673408307812975
 40
0.2502358297439557
 40
0.3330919775048991
 40
0.4162696283709327
 40
0.5001249919348921
 40
0.6667710046318299
 40
0.8324319057010681
 40
1.0
 40
1.0
 40
1.0
 40
1.0
 10
2154.818385221145
 20
942.8047895886548
 30
0.0
 10
2154.787873913249
 20
942.8047895886548
 30
0.0
 10
2154.727124812383
 20
942.8047895886548
 30
0.0
 10
2154.644235425108
 20
942.8047895886548
 30
0.0
 10
2154.568130075996
 20
942.8047895886548
 30
0.0
 10
2154.499335672356
 20
942.8047895886548
 30
0.0
 10
2154.437738036817
 20
942.8047895886548
 30
0.0
 10
2154.365616093759
 20
942.8047895886546
 30
0.0
 10
2154.295370963707
 20
942.8047895886546
 30
0.0
 10
2154.242380922943
 20
942.8047895886546
 30
0.0
 10
2154.235871914483
 20
942.8047895886546
 30
0.0
 10
2154.232598783517
 20
942.8047895886546
 30
0.0
1001
AcDbBlockRepETag
1070
     1
1071
      102
1005
A4A
  0
SPLINE
  5
A4B
330
74D
100
AcDbEntity
  8
0
  6
Continuous
 62
     7
370
    15
100
AcDbSpline
210
0.0
220
0.0
230
1.0
 70
    24
 71
     3
 72
    10
 73
     6
 74
     0
 42
0.0000000001
 43
0.0000000001
 40
0.0
 40
0.0
 40
0.0
 40
0.0
 40
0.5
 40
0.5
 40
1.0
 40
1.0
 40
1.0
 40
1.0
 10
2154.818385221145
 20
968.804789588639
 30
0.0
 10
2154.633265098722
 20
968.804789588639
 30
0.0
 10
2154.485026006809
 20
968.804789588639
 30
0.0
 10
2154.284653430181
 20
968.804789588639
 30
0.0
 10
2154.232598783517
 20
968.804789588639
 30
0.0
 10
2154.232598783517
 20
968.804789588639
 30
0.0
1001
AcDbBlockRepETag
1070
     1
1071
      103
1005
A4B
  0
LINE
  5
A4C
330
74D
100
AcDbEntity
  8
0
  6
Continuous
 62
     7
370
    15
100
AcDbLine
 10
2228.859846384148
 20
959.3047892302365
 30
0.0
 11
2228.859846384148
 21
952.304789479831
 31
0.0
1001
AcDbBlockRepETag
1070
     1
1071
      104
1005
A4C
  0
LINE
  5
A4D
330
74D
100
AcDbEntity
  8
0
  6
Continuous
 62
     7
370
    15
100
AcDbLine
 10
2229.232598783521
 20
968.8047895886395
 30
0.0
 11
2229.232598931412
 21
943.9047896047213
 31
0.0
1001
AcDbBlockRepETag
1070
     1
1071
      105
1005
A4D
  0
SPLINE
  5
A4E
330
74D
100
AcDbEntity
  8
0
  6
Continuous
 62
     7
370
    15
100
AcDbSpline
210
0.0
220
0.0
230
1.0
 70
    24
 71
     3
 72
     8
 73
     4
 74
     0
 42
0.0000000001
 43
0.0000000001
 40
0.0
 40
0.0
 40
0.0
 40
0.0
 40
1.0
 40
1.0
 40
1.0
 40
1.0
 10
2228.859847175224
 20
952.3047895886385
 30
0.0
 10
2228.795909382186
 20
952.3047895886385
 30
0.0
 10
2228.724575564552
 20
952.3047895886385
 30
0.0
 10
2228.646812345893
 20
952.3047895886385
 30
0.0
1001
AcDbBlockRepETag
1070
     1
1071
      106
1005
A4E
  0
SPLINE
  5
A4F
330
74D
100
AcDbEntity
  8
0
  6
Continuous
 62
     7
370
    15
100
AcDbSpline
210
0.0
220
0.0
230
1.0
 70
    24
 71
     3
 72
     8
 73
     4
 74
     0
 42
0.0000000001
 43
0.0000000001
 40
0.0
 40
0.0
 40
0.0
 40
0.0
 40
1.0
 40
1.0
 40
1.0
 40
1.0
 10
2228.646812345894
 20
959.3047895886385
 30
0.0
 10
2228.724575564552
 20
959.3047895886385
 30
0.0
 10
2228.795909382186
 20
959.3047895886385
 30
0.0
 10
2228.859847175224
 20
959.3047895886385
 30
0.0
1001
AcDbBlockRepETag
1070
     1
1071
      107
1005
A4F
  0
SPLINE
  5
A50
330
74D
100
AcDbEntity
  8
0
  6
Continuous
 62
     7
370
    15
100
AcDbSpline
210
0.0
220
0.0
230
1.0
 70
    24
 71
     3
 72
    16
 73
    12
 74
     0
 42
0.0000000001
 43
0.0000000001
 40
0.0
 40
0.0
 40
0.0
 40
0.0
 40
0.0840471305560536
 40
0.1673408307820993
 40
0.2502358297448337
 40
0.333091977505636
 40
0.4162696283713239
 40
0.5001249919347359
 40
0.6667710046324822
 40
0.8324319057017893
 40
0.9999999999999998
 40
0.9999999999999998
 40
0.9999999999999998
 40
0.9999999999999998
 10
2229.232598783521
 20
942.8047895886637
 30
0.0
 10
2229.231751038313
 20
942.8047895886637
 30
0.0
 10
2229.230063147407
 20
942.8047895886637
 30
0.0
 10
2229.21684201612
 20
942.8047895886637
 30
0.0
 10
2229.195761673718
 20
942.8047895886637
 30
0.0
 10
2229.166082273861
 20
942.8047895886637
 30
0.0
 10
2229.127980853522
 20
942.8047895886637
 30
0.0
 10
2229.066412534681
 20
942.8047895886637
 30
0.0
 10
2228.969896754107
 20
942.8047895886637
 30
0.0
 10
2228.825376919065
 20
942.8047895886637
 30
0.0
 10
2228.706560547017
 20
942.8047895886637
 30
0.0
 10
2228.646812345894
 20
942.8047895886637
 30
0.0
1001
AcDbBlockRepETag
1070
     1
1071
      108
1005
A50
  0
SPLINE
  5
A51
330
74D
100
AcDbEntity
  8
0
  6
Continuous
 62
     7
370
    15
100
AcDbSpline
210
0.0
220
0.0
230
1.0
 70
    24
 71
     3
 72
    10
 73
     6
 74
     0
 42
0.0000000001
 43
0.0000000001
 40
0.0
 40
0.0
 40
0.0
 40
0.0
 40
0.5
 40
0.5
 40
1.0
 40
1.0
 40
1.0
 40
1.0
 10
2229.232598783521
 20
968.8047895886395
 30
0.0
 10
2229.232598783521
 20
968.8047895886395
 30
0.0
 10
2229.180544136857
 20
968.8047895886395
 30
0.0
 10
2228.980171560229
 20
968.8047895886393
 30
0.0
 10
2228.831932468317
 20
968.8047895886393
 30
0.0
 10
2228.646812345894
 20
968.8047895886393
 30
0.0
1001
AcDbBlockRepETag
1070
     1
1071
      109
1005
A51
  0
LINE
  5
A52
330
74D
100
AcDbEntity
  8
0
  6
Continuous
 62
     7
370
    15
100
AcDbLine
 10
2155.152116806129
 20
959.3047892302365
 30
0.0
 11
2155.152116806129
 21
952.304789479831
 31
0.0
1001
AcDbBlockRepETag
1070
     1
1071
      110
1005
A52
  0
LINE
  5
A53
330
74D
100
AcDbEntity
  8
0
  6
Continuous
 62
     7
370
    15
100
AcDbLine
 10
2228.313081801752
 20
952.304789479831
 30
0.0
 11
2228.313081801752
 21
959.3047892302365
 31
0.0
1001
AcDbBlockRepETag
1070
     1
1071
      111
1005
A53
  0
LINE
  5
A54
330
74D
100
AcDbEntity
  8
0
  6
Continuous
 62
     7
370
    15
100
AcDbLine
 10
2227.487687856773
 20
959.3047892302365
 30
0.0
 11
2227.487687856773
 21
952.304789479831
 31
0.0
1001
AcDbBlockRepETag
1070
     1
1071
      112
1005
A54
  0
LINE
  5
A55
330
74D
100
AcDbEntity
  8
0
  6
Continuous
 62
     7
370
    15
100
AcDbLine
 10
2227.763679713825
 20
952.304789479831
 30
0.0
 11
2227.763679713825
 21
959.3047892302365
 31
0.0
1001
AcDbBlockRepETag
1070
     1
1071
      113
1005
A55
  0
LINE
  5
A56
330
74D
100
AcDbEntity
  8
0
  6
Continuous
 62
     7
370
    15
100
AcDbLine
 10
2155.701517031411
 20
959.3047892302365
 30
0.0
 11
2155.701517031411
 21
952.304789479831
 31
0.0
1001
AcDbBlockRepETag
1070
     1
1071
      114
1005
A56
  0
LINE
  5
A57
330
74D
100
AcDbEntity
  8
0
  6
Continuous
 62
     7
370
    15
100
AcDbLine
 10
2155.977508888463
 20
952.304789479831
 30
0.0
 11
2155.977508888463
 21
959.3047892302365
 31
0.0
1001
AcDbBlockRepETag
1070
     1
1071
      115
1005
A57
  0
LINE
  5
A58
330
74D
100
AcDbEntity
  8
0
  6
Continuous
 62
     7
370
    15
100
AcDbLine
 10
2156.419421450118
 20
959.3047892302365
 30
0.0
 11
2156.419421450118
 21
952.304789479831
 31
0.0
1001
AcDbBlockRepETag
1070
     1
1071
      116
1005
A58
  0
LINE
  5
A59
330
74D
100
AcDbEntity
  8
0
  6
Continuous
 62
     7
370
    15
100
AcDbLine
 10
2227.045775295118
 20
952.304789479831
 30
0.0
 11
2227.045775295118
 21
959.3047892302365
 31
0.0
1001
AcDbBlockRepETag
1070
     1
1071
      117
1005
A59
  0
LINE
  5
A5A
330
74D
100
AcDbEntity
  8
0
  6
Continuous
 62
     7
370
    15
100
AcDbLine
 10
2228.030797929386
 20
952.304789479831
 30
0.0
 11
2228.030797929386
 21
959.3047892302365
 31
0.0
1001
AcDbBlockRepETag
1070
     1
1071
      118
1005
A5A
  0
LINE
  5
A5B
330
74D
100
AcDbEntity
  8
0
  6
Continuous
 62
     7
370
    15
100
AcDbLine
 10
2155.434400678495
 20
959.3047892302365
 30
0.0
 11
2155.434400678495
 21
952.304789479831
 31
0.0
1001
AcDbBlockRepETag
1070
     1
1071
      119
1005
A5B
  0
LINE
  5
A5C
330
74D
100
AcDbEntity
  8
0
  6
Continuous
 62
     7
370
    15
100
AcDbLine
 10
2156.718767152051
 20
959.3047892302365
 30
0.0
 11
2156.718767152051
 21
952.304789479831
 31
0.0
1001
AcDbBlockRepETag
1070
     1
1071
      120
1005
A5C
  0
LINE
  5
A5D
330
74D
100
AcDbEntity
  8
0
  6
Continuous
 62
     7
370
    15
100
AcDbLine
 10
2226.746429593185
 20
952.304789479831
 30
0.0
 11
2226.746429593185
 21
959.3047892302365
 31
0.0
1001
AcDbBlockRepETag
1070
     1
1071
      121
1005
A5D
  0
SPLINE
  5
A5E
330
74D
100
AcDbEntity
  8
0
  6
Continuous
 62
     7
370
    15
100
AcDbSpline
210
0.0
220
0.0
230
1.0
 70
     8
 71
     3
 72
    14
 73
    10
 74
     0
 42
0.0000000001
 43
0.0000000001
 40
0.0
 40
0.0
 40
0.0
 40
0.0
 40
0.25
 40
0.25
 40
0.5
 40
0.5
 40
0.75
 40
0.75
 40
1.0
 40
1.0
 40
1.0
 40
1.0
 10
2195.532598783521
 20
955.8047895886387
 30
0.0
 10
2195.532598783521
 20
956.3022084254571
 30
0.0
 10
2195.43369495486
 20
956.799431549204
 30
0.0
 10
2195.052987059267
 20
957.7185417140482
 30
0.0
 10
2194.771332784634
 20
958.1400671245432
 30
0.0
 10
2194.067876319426
 20
958.8435235897517
 30
0.0
 10
2193.64635090893
 20
959.1251778643847
 30
0.0
 10
2192.727240744086
 20
959.5058857599781
 30
0.0
 10
2192.230017620339
 20
959.6047895886385
 30
0.0
 10
2191.732598783521
 20
959.6047895886385
 30
0.0
1001
AcDbBlockRepETag
1070
     1
1071
      122
1005
A5E
  0
SPLINE
  5
A5F
330
74D
100
AcDbEntity
  8
0
  6
Continuous
 62
     7
370
    15
100
AcDbSpline
210
0.0
220
0.0
230
1.0
 70
     8
 71
     3
 72
    14
 73
    10
 74
     0
 42
0.0000000001
 43
0.0000000001
 40
0.0
 40
0.0
 40
0.0
 40
0.0
 40
0.2500000000000002
 40
0.2500000000000002
 40
0.5000000000000001
 40
0.5000000000000001
 40
0.75
 40
0.75
 40
1.0
 40
1.0
 40
1.0
 40
1.0
 10
2191.732598783521
 20
959.6047895886385
 30
0.0
 10
2191.235179946703
 20
959.6047895886385
 30
0.0
 10
2190.737956822955
 20
959.5058857599781
 30
0.0
 10
2189.818846658111
 20
959.1251778643847
 30
0.0
 10
2189.397321247616
 20
958.8435235897517
 30
0.0
 10
2188.693864782408
 20
958.1400671245432
 30
0.0
 10
2188.412210507775
 20
957.7185417140482
 30
0.0
 10
2188.031502612181
 20
956.799431549204
 30
0.0
 10
2187.932598783521
 20
956.3022084254571
 30
0.0
 10
2187.932598783521
 20
955.8047895886387
 30
0.0
1001
AcDbBlockRepETag
1070
     1
1071
      123
1005
A5F
  0
LINE
  5
A60
330
74D
100
AcDbEntity
  8
0
  6
Continuous
 62
     7
370
    15
100
AcDbLine
 10
2187.932598774204
 20
968.8047898620459
 30
0.0
 11
2195.532598436693
 21
968.8047898620459
 31
0.0
1001
AcDbBlockRepETag
1070
     1
1071
      124
1005
A60
  0
SPLINE
  5
A61
330
74D
100
AcDbEntity
  8
0
  6
Continuous
 62
     7
370
    15
100
AcDbSpline
210
0.0
220
0.0
230
1.0
 70
     8
 71
     3
 72
    14
 73
    10
 74
     0
 42
0.0000000001
 43
0.0000000001
 40
0.0
 40
0.0
 40
0.0
 40
0.0
 40
0.2500000000000001
 40
0.2500000000000001
 40
0.5000000000000001
 40
0.5000000000000001
 40
0.7500000000000001
 40
0.7500000000000001
 40
1.0
 40
1.0
 40
1.0
 40
1.0
 10
2191.732598783521
 20
952.0047895886385
 30
0.0
 10
2192.230017620339
 20
952.0047895886385
 30
0.0
 10
2192.727240744086
 20
952.103693417299
 30
0.0
 10
2193.646350908931
 20
952.4844013128925
 30
0.0
 10
2194.067876319426
 20
952.7660555875256
 30
0.0
 10
2194.771332784634
 20
953.469512052734
 30
0.0
 10
2195.052987059267
 20
953.8910374632292
 30
0.0
 10
2195.433694954861
 20
954.8101476280734
 30
0.0
 10
2195.532598783521
 20
955.3073707518203
 30
0.0
 10
2195.532598783521
 20
955.8047895886387
 30
0.0
1001
AcDbBlockRepETag
1070
     1
1071
      125
1005
A61
  0
SPLINE
  5
A62
330
74D
100
AcDbEntity
  8
0
  6
Continuous
 62
     7
370
    15
100
AcDbSpline
210
0.0
220
0.0
230
1.0
 70
     8
 71
     3
 72
    14
 73
    10
 74
     0
 42
0.0000000001
 43
0.0000000001
 40
0.0
 40
0.0
 40
0.0
 40
0.0
 40
0.25
 40
0.25
 40
0.5000000000000001
 40
0.5000000000000001
 40
0.75
 40
0.75
 40
1.0
 40
1.0
 40
1.0
 40
1.0
 10
2187.932598783521
 20
955.8047895886387
 30
0.0
 10
2187.932598783521
 20
955.3073707518203
 30
0.0
 10
2188.031502612181
 20
954.8101476280734
 30
0.0
 10
2188.412210507775
 20
953.8910374632292
 30
0.0
 10
2188.693864782408
 20
953.469512052734
 30
0.0
 10
2189.397321247616
 20
952.7660555875256
 30
0.0
 10
2189.818846658111
 20
952.4844013128925
 30
0.0
 10
2190.737956822955
 20
952.103693417299
 30
0.0
 10
2191.235179946703
 20
952.0047895886385
 30
0.0
 10
2191.732598783521
 20
952.0047895886385
 30
0.0
1001
AcDbBlockRepETag
1070
     1
1071
      126
1005
A62
  0
LINE
  5
A63
330
74D
100
AcDbEntity
  8
0
  6
Continuous
 62
     7
370
    15
100
AcDbLine
 10
2195.532598436693
 20
942.8047896047214
 30
0.0
 11
2187.932598774204
 21
942.8047896047214
 31
0.0
1001
AcDbBlockRepETag
1070
     1
1071
      127
1005
A63
  0
ENDBLK
  5
74F
330
74D
100
AcDbEntity
  8
0
100
AcDbBlockEnd
  0
BLOCK
  5
7D2
330
7D1
100
AcDbEntity
  8
0
100
AcDbBlockBegin
  2
4
 70
     0
 10
0.0
 20
0.0
 30
0.0
  3
4
  1

  0
LINE
  5
7D4
330
7D1
100
AcDbEntity
  8
0
  6
Continuous
 62
     7
370
    15
100
AcDbLine
 10
2329.34995012579
 20
1061.128978915841
 30
0.0
 11
2312.513887331133
 21
1051.409726744585
 31
0.0
  0
LINE
  5
7D5
330
7D1
100
AcDbEntity
  8
0
  6
Continuous
 62
     7
370
    15
100
AcDbLine
 10
2337.16500283987
 20
1009.949613769718
 30
0.0
 11
2351.114944896295
 21
1018.002743903197
 31
0.0
  0
LINE
  5
7D6
330
7D1
100
AcDbEntity
  8
0
  6
Continuous
 62
     7
370
    15
100
AcDbLine
 10
2340.949088486247
 20
985.2564712458786
 30
0.0
 11
2347.43443183741
 21
989.0003802711611
 31
0.0
  0
LINE
  5
7D7
330
7D1
100
AcDbEntity
  8
0
  6
Continuous
 62
     7
370
    15
100
AcDbLine
 10
2338.685281812507
 20
977.8646785499672
 30
0.0
 11
2340.700557740202
 21
979.0280725794874
 31
0.0
  0
LINE
  5
7D8
330
7D1
100
AcDbEntity
  8
0
  6
Continuous
 62
     7
370
    15
100
AcDbLine
 10
2338.793840240469
 20
974.413029962907
 30
0.0
 11
2340.915160602468
 21
975.6376421412857
 31
0.0
  0
LINE
  5
7D9
330
7D1
100
AcDbEntity
  8
0
  6
Continuous
 62
     7
370
    15
100
AcDbLine
 10
2346.593641722289
 20
984.4150197937937
 30
0.0
 11
2340.94908749843
 21
981.1564880001597
 31
0.0
  0
LINE
  5
7DA
330
7D1
100
AcDbEntity
  8
0
  6
Continuous
 62
     7
370
    15
100
AcDbLine
 10
2335.932550499137
 20
968.100336931575
 30
0.0
 11
2352.761689439155
 21
977.8155981298363
 31
0.0
  0
LINE
  5
7DB
330
7D1
100
AcDbEntity
  8
0
  6
Continuous
 62
     7
370
    15
100
AcDbLine
 10
2340.915160602468
 20
974.8210996746326
 30
0.0
 11
2347.986228914827
 21
978.9031405226753
 31
0.0
  0
LINE
  5
7DC
330
7D1
100
AcDbEntity
  8
0
  6
Continuous
 62
     7
370
    15
100
AcDbLine
 10
2343.666103185475
 20
986.8249708225953
 30
0.0
 11
2348.263020439889
 21
984.1712269781488
 31
0.0
  0
LINE
  5
7DD
330
7D1
100
AcDbEntity
  8
0
  6
Continuous
 62
     7
370
    15
100
AcDbLine
 10
2348.200831447822
 20
983.3578884281749
 30
0.0
 11
2350.319681280099
 21
984.5810744001029
 31
0.0
  0
LINE
  5
7DE
330
7D1
100
AcDbEntity
  8
0
  6
Continuous
 62
     7
370
    15
100
AcDbLine
 10
2348.089802160865
 20
979.7794745515664
 30
0.0
 11
2350.107548289009
 21
980.9442945974526
 31
0.0
  0
LINE
  5
7DF
330
7D1
100
AcDbEntity
  8
0
  6
Continuous
 62
     7
370
    15
100
AcDbLine
 10
2296.864904642334
 20
989.0703190016276
 30
0.0
 11
2301.140722962121
 21
991.5386963767508
 31
0.0
  0
LINE
  5
7E0
330
7D1
100
AcDbEntity
  8
0
  6
Continuous
 62
     7
370
    15
100
AcDbLine
 10
2301.263429889566
 20
991.3425368972587
 30
0.0
 11
2301.371972183188
 21
991.4051970296085
 31
0.0
  0
ARC
  5
7E1
330
7D1
100
AcDbEntity
  8
0
  6
Continuous
 62
     7
370
    15
100
AcDbCircle
 10
2284.666406177419
 20
999.2520667926203
 30
0.0
 40
1.56169533244032
100
AcDbArc
 50
182.8840826318334
 51
232.1999405476153
  0
LINE
  5
7E2
330
7D1
100
AcDbEntity
  8
0
  6
Continuous
 62
     7
370
    15
100
AcDbLine
 10
2283.106688929057
 20
999.173489337012
 30
0.0
 11
2283.106688929057
 21
1060.276068191241
 31
0.0
  0
SPLINE
  5
7E3
330
7D1
100
AcDbEntity
  8
0
  6
Continuous
 62
     7
370
    15
100
AcDbSpline
210
0.0
220
0.0
230
1.0
 70
     8
 71
     3
 72
    16
 73
    12
 74
     0
 42
0.0000000001
 43
0.0000000001
 40
0.0
 40
0.0
 40
0.0
 40
0.0
 40
0.0840471305555418
 40
0.1673408307812975
 40
0.2502358297439557
 40
0.3330919775048991
 40
0.4162696283709327
 40
0.5001249919348921
 40
0.6667710046318299
 40
0.8324319057010681
 40
1.0
 40
1.0
 40
1.0
 40
1.0
 10
2283.520901848657
 20
1061.191711395035
 30
0.0
 10
2283.499327095941
 20
1061.178273561672
 30
0.0
 10
2283.456370994768
 20
1061.151518356778
 30
0.0
 10
2283.397759346937
 20
1061.102404298849
 30
0.0
 10
2283.343944738495
 20
1061.046984886142
 30
0.0
 10
2283.295299749174
 20
1060.98462092703
 30
0.0
 10
2283.25174364338
 20
1060.915470234459
 30
0.0
 10
2283.200745728371
 20
1060.814923372061
 30
0.0
 10
2283.151074920566
 20
1060.674786842485
 30
0.0
 10
2283.113605303406
 20
1060.486262889803
 30
0.0
 10
2283.109002739386
 20
1060.346400261428
 30
0.0
 10
2283.106688286284
 20
1060.276068704372
 30
0.0
  0
LINE
  5
7E4
330
7D1
100
AcDbEntity
  8
0
  6
Continuous
 62
     7
370
    15
100
AcDbLine
 10
2289.340360606145
 20
1064.552305531313
 30
0.0
 11
2283.520902887866
 21
1061.19171046294
 31
0.0
  0
SPLINE
  5
7E5
330
7D1
100
AcDbEntity
  8
0
  6
Continuous
 62
     7
370
    15
100
AcDbSpline
210
0.0
220
0.0
230
1.0
 70
     8
 71
     3
 72
    16
 73
    12
 74
     0
 42
0.0000000001
 43
0.0000000001
 40
0.0
 40
0.0
 40
0.0
 40
0.0
 40
0.084047130554853
 40
0.1673408307802179
 40
0.2502358297427834
 40
0.3330919775039285
 40
0.4162696283704443
 40
0.5001249919351521
 40
0.6667710046309274
 40
0.8324319057000614
 40
0.9999999999999998
 40
0.9999999999999998
 40
0.9999999999999998
 40
0.9999999999999998
 10
2290.340360636188
 20
1064.453336381235
 30
0.0
 10
2290.309249881906
 20
1064.470604018835
 30
0.0
 10
2290.247307261936
 20
1064.504984500387
 30
0.0
 10
2290.155069123072
 20
1064.547436851263
 30
0.0
 10
2290.064057720899
 20
1064.582763655499
 30
0.0
 10
2289.974276812358
 20
1064.610358629523
 30
0.0
 10
2289.885737404125
 20
1064.630359977234
 30
0.0
 10
2289.770080085308
 20
1064.646854481148
 30
0.0
 10
2289.631587992321
 20
1064.647995190822
 30
0.0
 10
2289.476406996183
 20
1064.619572929602
 30
0.0
 10
2289.385882125332
 20
1064.574813408285
 30
0.0
 10
2289.340360636187
 20
1064.552305559949
 30
0.0
  0
LINE
  5
7E6
330
7D1
100
AcDbEntity
  8
0
  6
Continuous
 62
     7
370
    15
100
AcDbLine
 10
2290.340360441516
 20
1064.453336905426
 30
0.0
 11
2306.229080043433
 21
1055.280974318467
 31
0.0
  0
SPLINE
  5
7E7
330
7D1
100
AcDbEntity
  8
0
  6
Continuous
 62
     7
370
    15
100
AcDbSpline
210
0.0
220
0.0
230
1.0
 70
     8
 71
     3
 72
    17
 73
    13
 74
     0
 42
0.0000000001
 43
0.0000000001
 40
0.0
 40
0.0
 40
0.0
 40
0.0
 40
0.0623914722789778
 40
0.1244880396367052
 40
0.1868953789811012
 40
0.2502102492126657
 40
0.3756371287414849
 40
0.5001423281605201
 40
0.6239742210603861
 40
0.7500746391838389
 40
0.8753268328771369
 40
1.0
 40
1.0
 40
1.0
 40
1.0
 10
2306.936186812273
 20
1054.056229045989
 30
0.0
 10
2306.935494479368
 20
1054.083267074858
 30
0.0
 10
2306.934113085997
 20
1054.137215332313
 30
0.0
 10
2306.923438935026
 20
1054.222383604214
 30
0.0
 10
2306.906432829602
 20
1054.310030640363
 30
0.0
 10
2306.874960114097
 20
1054.42918432634
 30
0.0
 10
2306.820620035384
 20
1054.579650384606
 30
0.0
 10
2306.732472062129
 20
1054.754688833957
 30
0.0
 10
2306.62477050867
 20
1054.919045210761
 30
0.0
 10
2306.501354024728
 20
1055.064986723013
 30
0.0
 10
2306.367780277152
 20
1055.191653770375
 30
0.0
 10
2306.275241982264
 20
1055.251246554129
 30
0.0
 10
2306.229080031087
 20
1055.280973913786
 30
0.0
  0
LINE
  5
7E8
330
7D1
100
AcDbEntity
  8
0
  6
Continuous
 62
     7
370
    15
100
AcDbLine
 10
2306.936186817046
 20
1054.0562293212
 30
0.0
 11
2306.936186817046
 21
1045.074280439127
 31
0.0
  0
LINE
  5
7E9
330
7D1
100
AcDbEntity
  8
0
  6
Continuous
 62
     7
370
    15
100
AcDbLine
 10
2312.310198115407
 20
1041.971929751974
 30
0.0
 11
2306.936186817046
 21
1045.074280439127
 31
0.0
  0
LINE
  5
7EA
330
7D1
100
AcDbEntity
  8
0
  6
Continuous
 62
     7
370
    15
100
AcDbLine
 10
2312.310198115407
 20
1041.971929751974
 30
0.0
 11
2312.310198115407
 21
1050.953878634048
 31
0.0
  0
SPLINE
  5
7EB
330
7D1
100
AcDbEntity
  8
0
  6
Continuous
 62
     7
370
    15
100
AcDbSpline
210
0.0
220
0.0
230
1.0
 70
     8
 71
     3
 72
    17
 73
    13
 74
     0
 42
0.0000000001
 43
0.0000000001
 40
0.0
 40
0.0
 40
0.0
 40
0.0
 40
0.0623914722797254
 40
0.1244880396377048
 40
0.1868953789818629
 40
0.2502102492127247
 40
0.375637128742833
 40
0.500142328160538
 40
0.6239742210605924
 40
0.7500746391838178
 40
0.875326832876944
 40
0.9999999999999998
 40
0.9999999999999998
 40
0.9999999999999998
 40
0.9999999999999998
 10
2313.017305130481
 20
1051.362214977036
 30
0.0
 10
2312.994236889202
 20
1051.37473250878
 30
0.0
 10
2312.948209442985
 20
1051.399708405821
 30
0.0
 10
2312.879791759422
 20
1051.42687897827
 30
0.0
 10
2312.812392982042
 20
1051.446149441405
 30
0.0
 10
2312.724942253066
 20
1051.460290142436
 30
0.0
 10
2312.621807506605
 20
1051.457078647028
 30
0.0
 10
2312.514294798086
 20
1051.417354386542
 30
0.0
 10
2312.425807735875
 20
1051.344067101522
 30
0.0
 10
2312.36112373859
 20
1051.238891577921
 30
0.0
 10
2312.318208819815
 20
1051.109419799648
 30
0.0
 10
2312.312864378805
 20
1051.005645272385
 30
0.0
 10
2312.310198349294
 20
1050.953878221061
 30
0.0
  0
LINE
  5
7EC
330
7D1
100
AcDbEntity
  8
0
  6
Continuous
 62
     7
370
    15
100
AcDbLine
 10
2313.017305012498
 20
1051.362215456954
 30
0.0
 11
2328.906025478754
 21
1042.189852371022
 31
0.0
  0
SPLINE
  5
7ED
330
7D1
100
AcDbEntity
  8
0
  6
Continuous
 62
     7
370
    15
100
AcDbSpline
210
0.0
220
0.0
230
1.0
 70
     8
 71
     3
 72
    16
 73
    12
 74
     0
 42
0.0000000001
 43
0.0000000001
 40
0.0
 40
0.0
 40
0.0
 40
0.0
 40
0.0840471305561148
 40
0.1673408307822099
 40
0.2502358297449728
 40
0.3330919775058044
 40
0.4162696283715018
 40
0.5001249919349218
 40
0.6667710046327175
 40
0.8324319057019707
 40
1.0
 40
1.0
 40
1.0
 40
1.0
 10
2329.906024525381
 20
1041.134246264129
 30
0.0
 10
2329.883602027457
 20
1041.172104224777
 30
0.0
 10
2329.838958035378
 20
1041.247480772964
 30
0.0
 10
2329.767125256259
 20
1041.356631521258
 30
0.0
 10
2329.692230305417
 20
1041.46201057963
 30
0.0
 10
2329.613905916238
 20
1041.56339972526
 30
0.0
 10
2329.532248390105
 20
1041.660836595029
 30
0.0
 10
2329.419682156255
 20
1041.784710208565
 30
0.0
 10
2329.273495567876
 20
1041.926459945231
 30
0.0
 10
2329.091506115674
 20
1042.074788750624
 30
0.0
 10
2328.968087179606
 20
1042.151351856907
 30
0.0
 10
2328.906024525381
 20
1042.189852509587
 30
0.0
  0
LINE
  5
7EE
330
7D1
100
AcDbEntity
  8
0
  6
Continuous
 62
     7
370
    15
100
AcDbLine
 10
2335.725483032404
 20
1031.054647830913
 30
0.0
 11
2329.906025314126
 21
1041.134245762813
 31
0.0
  0
SPLINE
  5
7EF
330
7D1
100
AcDbEntity
  8
0
  6
Continuous
 62
     7
370
    15
100
AcDbSpline
210
0.0
220
0.0
230
1.0
 70
     8
 71
     3
 72
    16
 73
    12
 74
     0
 42
0.0000000001
 43
0.0000000001
 40
0.0
 40
0.0
 40
0.0
 40
0.0
 40
0.0840471305560536
 40
0.1673408307820993
 40
0.2502358297448337
 40
0.333091977505636
 40
0.4162696283713239
 40
0.5001249919347359
 40
0.6667710046324822
 40
0.8324319057017893
 40
0.9999999999999998
 40
0.9999999999999998
 40
0.9999999999999998
 40
0.9999999999999998
 10
2336.139696875283
 20
1029.660764511023
 30
0.0
 10
2336.139097428898
 20
1029.697036114814
 30
0.0
 10
2336.137903909793
 20
1029.769254169993
 30
0.0
 10
2336.128555158204
 20
1029.881164287695
 30
0.0
 10
2336.113649105143
 20
1029.994865976999
 30
0.0
 10
2336.092662600242
 20
1030.110656907803
 30
0.0
 10
2336.065720827548
 20
1030.228452102795
 30
0.0
 10
2336.022185451789
 20
1030.387141343165
 30
0.0
 10
2335.953938488854
 20
1030.586465033549
 30
0.0
 10
2335.851747533479
 20
1030.824655903044
 30
0.0
 10
2335.767731671089
 20
1030.977692007644
 30
0.0
 10
2335.725483312911
 20
1031.054648001159
 30
0.0
  0
LINE
  5
7F0
330
7D1
100
AcDbEntity
  8
0
  6
Continuous
 62
     7
370
    15
100
AcDbLine
 10
2336.139696991212
 20
968.5581824059443
 30
0.0
 11
2336.139696991212
 21
1029.660764302025
 31
0.0
  0
LWPOLYLINE
  5
7F1
330
7D1
100
AcDbEntity
  8
0
  6
Continuous
 62
     7
370
    15
100
AcDbPolyline
 90
        9
 70
   128
 43
0.0
 10
2335.537155108189
 20
968.0984595101973
 10
2335.659191308052
 20
968.0620965002219
 10
2335.774083617093
 20
968.05424409463
 10
2335.878210040517
 20
968.0751468226096
 10
2335.968285758319
 20
968.1241518987752
 10
2336.04147112658
 20
968.1997137960788
 10
2336.095461239523
 20
968.2994429238402
 10
2336.128549149782
 20
968.4202029729277
 10
2336.139696991212
 20
968.5581824059443
  0
LINE
  5
7F2
330
7D1
100
AcDbEntity
  8
0
  6
Continuous
 62
     7
370
    15
100
AcDbLine
 10
2335.537155108189
 20
968.0984595101973
 30
0.0
 11
2326.367163861819
 21
971.8088929534685
 31
0.0
  0
ARC
  5
7F3
330
7D1
100
AcDbEntity
  8
0
  6
Continuous
 62
     7
370
    15
100
AcDbCircle
 10
2326.684273169622
 20
972.5862791821962
 30
0.0
 40
0.8395758820442869
100
AcDbArc
 50
239.8513434745858
 51
247.808601715309
  0
LINE
  5
7F4
330
7D1
100
AcDbEntity
  8
0
  6
Continuous
 62
     7
370
    15
100
AcDbLine
 10
2322.881449585485
 20
973.8121734272178
 30
0.0
 11
2326.262600164842
 21
971.8602767450445
 31
0.0
  0
ARC
  5
7F5
330
7D1
100
AcDbEntity
  8
0
  6
Continuous
 62
     7
370
    15
100
AcDbCircle
 10
2323.709565784139
 20
975.1067831656385
 30
0.0
 40
1.536811899122881
100
AcDbArc
 50
182.6055521686841
 51
237.3943863578689
  0
LINE
  5
7F6
330
7D1
100
AcDbEntity
  8
0
  6
Continuous
 62
     7
370
    15
100
AcDbLine
 10
2322.174342688395
 20
975.0369200166922
 30
0.0
 11
2322.174342688395
 21
979.3962461638553
 31
0.0
  0
LINE
  5
7F7
330
7D1
100
AcDbEntity
  8
0
  6
Continuous
 62
     7
370
    15
100
AcDbLine
 10
2297.072052451498
 20
993.8874898628208
 30
0.0
 11
2322.174342688395
 21
979.3962461638553
 31
0.0
  0
LINE
  5
7F8
330
7D1
100
AcDbEntity
  8
0
  6
Continuous
 62
     7
370
    15
100
AcDbLine
 10
2297.072052451498
 20
989.5281637156577
 30
0.0
 11
2297.072052451498
 21
993.8874898628208
 31
0.0
  0
ARC
  5
7F9
330
7D1
100
AcDbEntity
  8
0
  6
Continuous
 62
     7
370
    15
100
AcDbCircle
 10
2296.640977091197
 20
989.4582368438015
 30
0.0
 40
0.4367101254456513
100
AcDbArc
 50
230.7969625549058
 51
9.213974037055677
  0
LINE
  5
7FA
330
7D1
100
AcDbEntity
  8
0
  6
Continuous
 62
     7
370
    15
100
AcDbLine
 10
2292.983794975052
 20
991.0717220539993
 30
0.0
 11
2296.364945554408
 21
989.1198253718258
 31
0.0
  0
ARC
  5
7FB
330
7D1
100
AcDbEntity
  8
0
  6
Continuous
 62
     7
370
    15
100
AcDbCircle
 10
2293.509831698907
 20
991.9784531093943
 30
0.0
 40
1.048272789718194
100
AcDbArc
 50
233.0181950662539
 51
239.8799922007184
  0
LINE
  5
7FC
330
7D1
100
AcDbEntity
  8
0
  6
Continuous
 62
     7
370
    15
100
AcDbLine
 10
2286.160653523424
 20
996.1796456630167
 30
0.0
 11
2292.879231278074
 21
991.141064937214
 31
0.0
  0
LINE
  5
7FD
330
7D1
100
AcDbEntity
  8
0
  6
Continuous
 62
     7
370
    15
100
AcDbLine
 10
2286.160653523424
 20
996.1796456630167
 30
0.0
 11
2284.395455262823
 21
997.198672928256
 31
0.0
  0
LINE
  5
7FE
330
7D1
100
AcDbEntity
  8
0
  6
Continuous
 62
     7
370
    15
100
AcDbLine
 10
2284.395455262823
 20
997.198672928256
 30
0.0
 11
2284.395455262823
 21
997.5034542876445
 31
0.0
  0
LINE
  5
7FF
330
7D1
100
AcDbEntity
  8
0
  6
Continuous
 62
     7
370
    15
100
AcDbLine
 10
2283.709230812081
 20
998.0180863910916
 30
0.0
 11
2284.395455262823
 21
997.5034542876445
 31
0.0
  0
LINE
  5
800
330
7D1
100
AcDbEntity
  8
0
  6
Continuous
 62
     7
370
    15
100
AcDbLine
 10
2341.66517990606
 20
1034.483561849588
 30
0.0
 11
2335.725483032404
 21
1031.054647830913
 31
0.0
  0
LINE
  5
801
330
7D1
100
AcDbEntity
  8
0
  6
Continuous
 62
     7
370
    15
100
AcDbLine
 10
2329.906025314126
 20
1041.134245762813
 30
0.0
 11
2335.845722187782
 21
1044.563159781488
 31
0.0
  0
LINE
  5
802
330
7D1
100
AcDbEntity
  8
0
  6
Continuous
 62
     7
370
    15
100
AcDbLine
 10
2341.66517990606
 20
1034.483561849588
 30
0.0
 11
2335.845722187782
 21
1044.563159781488
 31
0.0
  0
SPLINE
  5
803
330
7D1
100
AcDbEntity
  8
0
  6
Continuous
 62
     7
370
    15
100
AcDbSpline
210
0.0
220
0.0
230
1.0
 70
     8
 71
     3
 72
     8
 73
     4
 74
     0
 42
0.0000000001
 43
0.0000000001
 40
0.0
 40
0.0
 40
0.0
 40
0.0
 40
1.0
 40
1.0
 40
1.0
 40
1.0
 10
2341.815818647308
 20
1034.191296500381
 30
0.0
 10
2341.770607800277
 20
1034.290458069412
 30
0.0
 10
2341.720167174099
 20
1034.388321967851
 30
0.0
 10
2341.665180274859
 20
1034.483562070805
 30
0.0
  0
LINE
  5
804
330
7D1
100
AcDbEntity
  8
0
  6
Continuous
 62
     7
370
    15
100
AcDbLine
 10
2346.76556530281
 20
1037.048724924467
 30
0.0
 11
2341.815818010994
 21
1034.191296634973
 31
0.0
  0
SPLINE
  5
805
330
7D1
100
AcDbEntity
  8
0
  6
Continuous
 62
     7
370
    15
100
AcDbSpline
210
0.0
220
0.0
230
1.0
 70
     8
 71
     3
 72
     8
 73
     4
 74
     0
 42
0.0000000001
 43
0.0000000001
 40
0.0
 40
0.0
 40
0.0
 40
0.0
 40
1.0
 40
1.0
 40
1.0
 40
1.0
 10
2346.614927743166
 20
1037.340990462184
 30
0.0
 10
2346.669914642405
 20
1037.24575035923
 30
0.0
 10
2346.720355268582
 20
1037.147886460791
 30
0.0
 10
2346.765566115614
 20
1037.048724891761
 30
0.0
  0
LINE
  5
806
330
7D1
100
AcDbEntity
  8
0
  6
Continuous
 62
     7
370
    15
100
AcDbLine
 10
2346.614927197876
 20
1037.340990139082
 30
0.0
 11
2352.554624606599
 21
1040.769904466644
 31
0.0
  0
SPLINE
  5
807
330
7D1
100
AcDbEntity
  8
0
  6
Continuous
 62
     7
370
    15
100
AcDbSpline
210
0.0
220
0.0
230
1.0
 70
     8
 71
     3
 72
    10
 73
     6
 74
     0
 42
0.0000000001
 43
0.0000000001
 40
0.0
 40
0.0
 40
0.0
 40
0.0
 40
0.5
 40
0.5
 40
1.0
 40
1.0
 40
1.0
 40
1.0
 10
2352.968838267506
 20
1039.376021041703
 30
0.0
 10
2352.968838267506
 20
1039.589790926368
 30
0.0
 10
2352.932030073858
 20
1039.824725619608
 30
0.0
 10
2352.790345266161
 20
1040.301513760299
 30
0.0
 10
2352.685524399033
 20
1040.543179611976
 30
0.0
 10
2352.554624705133
 20
1040.769904531839
 30
0.0
  0
LINE
  5
808
330
7D1
100
AcDbEntity
  8
0
  6
Continuous
 62
     7
370
    15
100
AcDbLine
 10
2352.968838565408
 20
1039.376020937756
 30
0.0
 11
2336.139696991212
 21
1029.660764302025
 31
0.0
  0
SPLINE
  5
809
330
7D1
100
AcDbEntity
  8
0
  6
Continuous
 62
     7
370
    15
100
AcDbSpline
210
0.0
220
0.0
230
1.0
 70
     8
 71
     3
 72
    10
 73
     6
 74
     0
 42
0.0000000001
 43
0.0000000001
 40
0.0
 40
0.0
 40
0.0
 40
0.0
 40
0.5
 40
0.5
 40
1.0
 40
1.0
 40
1.0
 40
1.0
 10
2346.735165917604
 20
1050.849502794811
 30
0.0
 10
2346.604266223704
 20
1051.076227714675
 30
0.0
 10
2346.447390709913
 20
1051.287833289577
 30
0.0
 10
2346.105333325587
 20
1051.648911200775
 30
0.0
 10
2345.920286040028
 20
1051.798241468333
 30
0.0
 10
2345.735165917604
 20
1051.905109040268
 30
0.0
  0
LINE
  5
80A
330
7D1
100
AcDbEntity
  8
0
  6
Continuous
 62
     7
370
    15
100
AcDbLine
 10
2346.735166888321
 20
1050.849502398544
 30
0.0
 11
2340.795469479598
 21
1047.420588070982
 31
0.0
  0
SPLINE
  5
80B
330
7D1
100
AcDbEntity
  8
0
  6
Continuous
 62
     7
370
    15
100
AcDbSpline
210
0.0
220
0.0
230
1.0
 70
     8
 71
     3
 72
     9
 73
     5
 74
     0
 42
0.0000000001
 43
0.0000000001
 40
0.0
 40
0.0
 40
0.0
 40
0.0
 40
0.5000000000004236
 40
1.0
 40
1.0
 40
1.0
 40
1.0
 10
2340.795468955636
 20
1047.420588725155
 30
0.0
 10
2340.767358769158
 20
1047.467881659476
 30
0.0
 10
2340.711138396201
 20
1047.562467528117
 30
0.0
 10
2340.648832934293
 20
1047.65227292251
 30
0.0
 10
2340.617680203339
 20
1047.697175619706
 30
0.0
  0
LINE
  5
80C
330
7D1
100
AcDbEntity
  8
0
  6
Continuous
 62
     7
370
    15
100
AcDbLine
 10
2335.667933609873
 20
1044.839746266449
 30
0.0
 11
2340.617680901688
 21
1047.697174555943
 31
0.0
  0
SPLINE
  5
80D
330
7D1
100
AcDbEntity
  8
0
  6
Continuous
 62
     7
370
    15
100
AcDbSpline
210
0.0
220
0.0
230
1.0
 70
     8
 71
     3
 72
     8
 73
     4
 74
     0
 42
0.0000000001
 43
0.0000000001
 40
0.0
 40
0.0
 40
0.0
 40
0.0
 40
1.0
 40
1.0
 40
1.0
 40
1.0
 10
2335.845721487331
 20
1044.563160333775
 30
0.0
 10
2335.790734588091
 20
1044.65840043673
 30
0.0
 10
2335.731202771281
 20
1044.751014396419
 30
0.0
 10
2335.667932735033
 20
1044.839747228326
 30
0.0
  0
LINE
  5
80E
330
7D1
100
AcDbEntity
  8
0
  6
Continuous
 62
     7
370
    15
100
AcDbLine
 10
2328.906025478754
 20
1042.189852371022
 30
0.0
 11
2345.73516705295
 21
1051.905109006753
 31
0.0
  0
LINE
  5
80F
330
7D1
100
AcDbEntity
  8
0
  6
Continuous
 62
     7
370
    15
100
AcDbLine
 10
2329.846446586693
 20
1061.077472092685
 30
0.0
 11
2313.017305012498
 21
1051.362215456954
 31
0.0
  0
LINE
  5
810
330
7D1
100
AcDbEntity
  8
0
  6
Continuous
 62
     7
370
    15
100
AcDbLine
 10
2329.846446586693
 20
1061.077472092685
 30
0.0
 11
2345.73516705295
 21
1051.905109006753
 31
0.0
  0
SPLINE
  5
811
330
7D1
100
AcDbEntity
  8
0
  6
Continuous
 62
     7
370
    15
100
AcDbSpline
210
0.0
220
0.0
230
1.0
 70
     8
 71
     3
 72
    30
 73
    26
 74
     0
 42
0.0000000001
 43
0.0000000001
 40
0.0
 40
0.0
 40
0.0
 40
0.0
 40
0.0173048380582709
 40
0.03447885842716
 40
0.0515713687166589
 40
0.0686323832621016
 40
0.0857121930854154
 40
0.1028609238500784
 40
0.1201281010089206
 40
0.1850408523800776
 40
0.2500861352090726
 40
0.3149916040984308
 40
0.3800441773565402
 40
0.4399553189963982
 40
0.5000133115325767
 40
0.5599317302348705
 40
0.6199824588324402
 40
0.6848952115816135
 40
0.7499404929721639
 40
0.8148459462700824
 40
0.8798985344640918
 40
0.9099778227514114
 40
0.9398412720686902
 40
0.9697590832489343
 40
1.0
 40
1.0
 40
1.0
 40
1.0
 10
2327.265506771375
 20
1049.994731389724
 30
0.0
 10
2327.221420256773
 20
1050.021003961952
 30
0.0
 10
2327.133580504074
 20
1050.073350496217
 30
0.0
 10
2327.011544183118
 20
1050.15660604243
 30
0.0
 10
2326.897486276478
 20
1050.242856435541
 30
0.0
 10
2326.792039652902
 20
1050.332463845495
 30
0.0
 10
2326.695039154495
 20
1050.425325167453
 30
0.0
 10
2326.606532866668
 20
1050.521479094078
 30
0.0
 10
2326.453223420801
 20
1050.711858273362
 30
0.0
 10
2326.28773531567
 20
1051.010596328822
 30
0.0
 10
2326.216720343149
 20
1051.423129108836
 30
0.0
 10
2326.287671692539
 20
1051.836080594908
 30
0.0
 10
2326.500737081951
 20
1052.221007922376
 30
0.0
 10
2326.827344860201
 20
1052.566134032034
 30
0.0
 10
2327.250837521474
 20
1052.860212012488
 30
0.0
 10
2327.7605327592
 20
1053.104933931688
 30
0.0
 10
2328.357873621766
 20
1053.293419503248
 30
0.0
 10
2329.025080481466
 20
1053.416590947722
 30
0.0
 10
2329.739887680654
 20
1053.457604216539
 30
0.0
 10
2330.455087448312
 20
1053.416704422208
 30
0.0
 10
2331.017373094719
 20
1053.312819906243
 30
0.0
 10
2331.429145158784
 20
1053.196928327345
 30
0.0
 10
2331.709872414158
 20
1053.097461201884
 30
0.0
 10
2331.97483662257
 20
1052.983639694886
 30
0.0
 10
2332.134828601172
 20
1052.896143063793
 30
0.0
 10
2332.215254239681
 20
1052.852159781103
 30
0.0
  0
SPLINE
  5
812
330
7D1
100
AcDbEntity
  8
0
  6
Continuous
 62
     7
370
    15
100
AcDbSpline
210
0.0
220
0.0
230
1.0
 70
     8
 71
     3
 72
    30
 73
    26
 74
     0
 42
0.0000000001
 43
0.0000000001
 40
0.0
 40
0.0
 40
0.0
 40
0.0
 40
0.0173048380581747
 40
0.0344788584269995
 40
0.0515713687164665
 40
0.0686323832619098
 40
0.0857121930852556
 40
0.1028609238499824
 40
0.1201281010089161
 40
0.1850408523802814
 40
0.2500861352090773
 40
0.3149916040989125
 40
0.3800441773565202
 40
0.4399553189956301
 40
0.5000133115325092
 40
0.5599317302336232
 40
0.6199824588323741
 40
0.6848952115827976
 40
0.7499404929721805
 40
0.8148459462701898
 40
0.87989853446399
 40
0.9099778227502875
 40
0.9398412720672222
 40
0.9697590832478354
 40
1.0
 40
1.0
 40
1.0
 40
1.0
 10
2332.215254239681
 20
1052.852159781103
 30
0.0
 10
2332.259340754283
 20
1052.825887208876
 30
0.0
 10
2332.34718050698
 20
1052.773540674611
 30
0.0
 10
2332.469216827936
 20
1052.690285128398
 30
0.0
 10
2332.583274734576
 20
1052.604034735287
 30
0.0
 10
2332.688721358151
 20
1052.514427325333
 30
0.0
 10
2332.785721856559
 20
1052.421566003375
 30
0.0
 10
2332.874228144388
 20
1052.32541207675
 30
0.0
 10
2333.027537590255
 20
1052.135032897465
 30
0.0
 10
2333.193025695388
 20
1051.836294842005
 30
0.0
 10
2333.264040667907
 20
1051.423762061989
 30
0.0
 10
2333.193089318515
 20
1051.010810575919
 30
0.0
 10
2332.980023929106
 20
1050.625883248452
 30
0.0
 10
2332.653416150853
 20
1050.280757138796
 30
0.0
 10
2332.229923489587
 20
1049.986679158342
 30
0.0
 10
2331.72022825186
 20
1049.74195723914
 30
0.0
 10
2331.12288738929
 20
1049.55347166758
 30
0.0
 10
2330.455680529587
 20
1049.430300223101
 30
0.0
 10
2329.740873330397
 20
1049.389286954288
 30
0.0
 10
2329.025673562746
 20
1049.430186748625
 30
0.0
 10
2328.463387916341
 20
1049.534071264584
 30
0.0
 10
2328.051615852277
 20
1049.649962843478
 30
0.0
 10
2327.770888596906
 20
1049.749429968937
 30
0.0
 10
2327.505924388492
 20
1049.863251475938
 30
0.0
 10
2327.345932409886
 20
1049.950748107033
 30
0.0
 10
2327.265506771375
 20
1049.994731389724
 30
0.0
  0
LINE
  5
813
330
7D1
100
AcDbEntity
  8
0
  6
Continuous
 62
     7
370
    15
100
AcDbLine
 10
2345.614928021049
 20
1024.56217426942
 30
0.0
 11
2343.493607329778
 21
1023.337561900957
 31
0.0
  0
LWPOLYLINE
  5
814
330
7D1
100
AcDbEntity
  8
0
  6
Continuous
 62
     7
370
    15
100
AcDbPolyline
 90
       16
 70
   128
 43
0.0
 10
2343.493607329778
 20
1023.337561900957
 10
2343.199575768041
 20
1023.132134471074
 10
2342.918395043835
 20
1022.864311566176
 10
2342.662353597676
 20
1022.545798598947
 10
2342.442642076389
 20
1022.19051593325
 10
2342.268862717444
 20
1021.813991130202
 10
2342.148610514652
 20
1021.432680084221
 10
2342.087141311733
 20
1021.063248321686
 10
2342.087141311733
 20
1020.721841263358
 10
2342.148610514652
 20
1020.423380236799
 10
2342.268862717444
 20
1020.180909500157
 10
2342.442642076389
 20
1020.005026103879
 10
2342.662353597676
 20
1019.903416978892
 10
2342.918395043835
 20
1019.880523054145
 10
2343.199575768041
 20
1019.937344645753
 10
2343.493607329778
 20
1020.071398688395
  0
LINE
  5
815
330
7D1
100
AcDbEntity
  8
0
  6
Continuous
 62
     7
370
    15
100
AcDbLine
 10
2343.493607329778
 20
1020.071398688395
 30
0.0
 11
2345.614928021049
 21
1021.296011056858
 31
0.0
  0
LWPOLYLINE
  5
816
330
7D1
100
AcDbEntity
  8
0
  6
Continuous
 62
     7
370
    15
100
AcDbPolyline
 90
       16
 70
   128
 43
0.0
 10
2345.614928021049
 20
1021.296011056858
 10
2345.908959582784
 20
1021.501438629328
 10
2346.190140306991
 20
1021.769261391639
 10
2346.44618175315
 20
1022.087774477691
 10
2346.665893274438
 20
1022.443057125564
 10
2346.839672633382
 20
1022.819581898906
 10
2346.959924836173
 20
1023.200892873594
 10
2347.021394039093
 20
1023.570324731187
 10
2347.021394039093
 20
1023.911731789515
 10
2346.959924836173
 20
1024.210192721016
 10
2346.839672633382
 20
1024.452663528952
 10
2346.665893274438
 20
1024.628546954934
 10
2346.44618175315
 20
1024.730156097745
 10
2346.190140306991
 20
1024.75304990367
 10
2345.908959582784
 20
1024.696228454649
 10
2345.614928021049
 20
1024.56217426942
  0
LINE
  5
817
330
7D1
100
AcDbEntity
  8
0
  6
Continuous
 62
     7
370
    15
100
AcDbLine
 10
2352.968838565408
 20
978.2734420835272
 30
0.0
 11
2352.968838565408
 21
1039.376020937756
 31
0.0
  0
LINE
  5
818
330
7D1
100
AcDbEntity
  8
0
  6
Continuous
 62
     7
370
    15
100
AcDbLine
 10
2336.139696991212
 20
968.5581824059443
 30
0.0
 11
2352.968838565408
 21
978.2734420835272
 31
0.0
  0
LINE
  5
819
330
7D1
100
AcDbEntity
  8
0
  6
Continuous
 62
     7
370
    15
100
AcDbLine
 10
2337.165001810894
 20
1011.302658773455
 30
0.0
 11
2351.943533498773
 21
1019.834123519534
 31
0.0
  0
LINE
  5
81A
330
7D1
100
AcDbEntity
  8
0
  6
Continuous
 62
     7
370
    15
100
AcDbLine
 10
2337.165001810894
 20
986.6044902413417
 30
0.0
 11
2337.165001810894
 21
1011.302658773455
 31
0.0
  0
LINE
  5
81B
330
7D1
100
AcDbEntity
  8
0
  6
Continuous
 62
     7
370
    15
100
AcDbLine
 10
2337.165001810894
 20
986.6044902413417
 30
0.0
 11
2351.943533498773
 21
995.135954987421
 31
0.0
  0
LINE
  5
81C
330
7D1
100
AcDbEntity
  8
0
  6
Continuous
 62
     7
370
    15
100
AcDbLine
 10
2351.943533498773
 20
995.135954987421
 30
0.0
 11
2351.943533498773
 21
1019.834123519534
 31
0.0
  0
LINE
  5
81D
330
7D1
100
AcDbEntity
  8
0
  6
Continuous
 62
     7
370
    15
100
AcDbLine
 10
2348.159447193851
 20
990.5426944216358
 30
0.0
 11
2348.159447193851
 21
984.4001497153335
 31
0.0
  0
LINE
  5
81E
330
7D1
100
AcDbEntity
  8
0
  6
Continuous
 62
     7
370
    15
100
AcDbLine
 10
2348.159447193851
 20
990.5426944216358
 30
0.0
 11
2340.949087827703
 21
986.3802425598374
 31
0.0
  0
LINE
  5
81F
330
7D1
100
AcDbEntity
  8
0
  6
Continuous
 62
     7
370
    15
100
AcDbLine
 10
2340.949087827703
 20
986.3802425598374
 30
0.0
 11
2340.949087827703
 21
980.2376978535351
 31
0.0
  0
ARC
  5
820
330
7D1
100
AcDbEntity
  8
0
  6
Continuous
 62
     7
370
    15
100
AcDbCircle
 10
2340.197827743606
 20
980.2690976540556
 30
0.0
 40
0.7519159935986504
100
AcDbArc
 50
323.7402906479087
 51
357.6066483927064
  0
LINE
  5
821
330
7D1
100
AcDbEntity
  8
0
  6
Continuous
 62
     7
370
    15
100
AcDbLine
 10
2340.804130986239
 20
979.824379721651
 30
0.0
 11
2340.804130986239
 21
979.256995316672
 31
0.0
  0
LINE
  5
822
330
7D1
100
AcDbEntity
  8
0
  6
Continuous
 62
     7
370
    15
100
AcDbLine
 10
2338.685281318598
 20
978.0338094397864
 30
0.0
 11
2340.804130986239
 21
979.256995316672
 31
0.0
  0
LINE
  5
823
330
7D1
100
AcDbEntity
  8
0
  6
Continuous
 62
     7
370
    15
100
AcDbLine
 10
2338.685281318598
 20
978.0338094397864
 30
0.0
 11
2338.685281318598
 21
973.6221756131147
 31
0.0
  0
LINE
  5
824
330
7D1
100
AcDbEntity
  8
0
  6
Continuous
 62
     7
370
    15
100
AcDbLine
 10
2340.804130986239
 20
974.8453614900004
 30
0.0
 11
2338.685281318598
 21
973.6221756131147
 31
0.0
  0
LINE
  5
825
330
7D1
100
AcDbEntity
  8
0
  6
Continuous
 62
     7
370
    15
100
AcDbLine
 10
2340.804130986239
 20
974.8453614900004
 30
0.0
 11
2340.804130986239
 21
974.0269391590803
 31
0.0
  0
LINE
  5
826
330
7D1
100
AcDbEntity
  8
0
  6
Continuous
 62
     7
370
    15
100
AcDbLine
 10
2348.304404693859
 20
978.3567550077677
 30
0.0
 11
2340.804130986239
 21
974.0269391590803
 31
0.0
  0
LINE
  5
827
330
7D1
100
AcDbEntity
  8
0
  6
Continuous
 62
     7
370
    15
100
AcDbLine
 10
2348.304404693859
 20
978.3567550077677
 30
0.0
 11
2348.304404693859
 21
979.1751773386879
 31
0.0
  0
LINE
  5
828
330
7D1
100
AcDbEntity
  8
0
  6
Continuous
 62
     7
370
    15
100
AcDbLine
 10
2350.423254526136
 20
980.398363310616
 30
0.0
 11
2348.304404693859
 21
979.1751773386879
 31
0.0
  0
LINE
  5
829
330
7D1
100
AcDbEntity
  8
0
  6
Continuous
 62
     7
370
    15
100
AcDbLine
 10
2350.423254526136
 20
980.398363310616
 30
0.0
 11
2350.423254526136
 21
984.8099971372876
 31
0.0
  0
LINE
  5
82A
330
7D1
100
AcDbEntity
  8
0
  6
Continuous
 62
     7
370
    15
100
AcDbLine
 10
2348.304404693859
 20
983.5868111653596
 30
0.0
 11
2350.423254526136
 21
984.8099971372876
 31
0.0
  0
LINE
  5
82B
330
7D1
100
AcDbEntity
  8
0
  6
Continuous
 62
     7
370
    15
100
AcDbLine
 10
2348.304404693859
 20
983.5868111653596
 30
0.0
 11
2348.304404693859
 21
984.1541955703386
 31
0.0
  0
ARC
  5
82C
330
7D1
100
AcDbEntity
  8
0
  6
Continuous
 62
     7
370
    15
100
AcDbCircle
 10
2348.387290432192
 20
984.3687394990071
 30
0.0
 40
0.2299981368352198
100
AcDbArc
 50
172.1507430416803
 51
248.8767294930728
  0
LINE
  5
82D
330
7D1
100
AcDbEntity
  8
0
  6
Continuous
 62
     7
370
    15
100
AcDbLine
 10
2344.365181107925
 20
1038.008436559287
 30
0.0
 11
2344.979416107232
 21
1036.944548814896
 31
0.0
  0
LINE
  5
82E
330
7D1
100
AcDbEntity
  8
0
  6
Continuous
 62
     7
370
    15
100
AcDbLine
 10
2345.154923486966
 20
1038.494587896851
 30
0.0
 11
2344.868588334895
 21
1038.299046019804
 31
0.0
  0
SPLINE
  5
82F
330
7D1
100
AcDbEntity
  8
0
  6
Continuous
 62
     7
370
    15
100
AcDbSpline
210
0.0
220
0.0
230
1.0
 70
     8
 71
     3
 72
     8
 73
     4
 74
     0
 42
0.0000000001
 43
0.0000000001
 40
0.0
 40
0.0
 40
0.0
 40
0.0
 40
1.0
 40
1.0
 40
1.0
 40
1.0
 10
2345.154922479217
 20
1038.494588573454
 30
0.0
 10
2345.178499246028
 20
1038.510689502697
 30
0.0
 10
2345.192003646506
 20
1038.542994468192
 30
0.0
 10
2345.192003646506
 20
1038.583293424271
 30
0.0
  0
SPLINE
  5
830
330
7D1
100
AcDbEntity
  8
0
  6
Continuous
 62
     7
370
    15
100
AcDbSpline
210
0.0
220
0.0
230
1.0
 70
     8
 71
     3
 72
     8
 73
     4
 74
     0
 42
0.0000000001
 43
0.0000000001
 40
0.0
 40
0.0
 40
0.0
 40
0.0
 40
1.0
 40
1.0
 40
1.0
 40
1.0
 10
2345.192003646506
 20
1038.583293424271
 30
0.0
 10
2345.192003646506
 20
1038.625962907178
 30
0.0
 10
2345.176792350427
 20
1038.677150932859
 30
0.0
 10
2345.150664150656
 20
1038.722406302239
 30
0.0
  0
LINE
  5
831
330
7D1
100
AcDbEntity
  8
0
  6
Continuous
 62
     7
370
    15
100
AcDbLine
 10
2344.413549884947
 20
1039.99912458022
 30
0.0
 11
2345.150664021089
 21
1038.722405449193
 31
0.0
  0
SPLINE
  5
832
330
7D1
100
AcDbEntity
  8
0
  6
Continuous
 62
     7
370
    15
100
AcDbSpline
210
0.0
220
0.0
230
1.0
 70
     8
 71
     3
 72
    10
 73
     6
 74
     0
 42
0.0000000001
 43
0.0000000001
 40
0.0
 40
0.0
 40
0.0
 40
0.0
 40
0.5
 40
0.5
 40
1.0
 40
1.0
 40
1.0
 40
1.0
 10
2344.413550541343
 20
1039.999124520772
 30
0.0
 10
2344.3881481249
 20
1040.043122796558
 30
0.0
 10
2344.35274305622
 20
1040.081021499124
 30
0.0
 10
2344.280911270606
 20
1040.124299053255
 30
0.0
 10
2344.244880383123
 20
1040.129439423618
 30
0.0
 10
2344.218394106308
 20
1040.116703293302
 30
0.0
  0
LINE
  5
833
330
7D1
100
AcDbEntity
  8
0
  6
Continuous
 62
     7
370
    15
100
AcDbLine
 10
2343.905914802236
 20
1039.966443963652
 30
0.0
 11
2344.218394171273
 21
1040.116702728721
 31
0.0
  0
LINE
  5
834
330
7D1
100
AcDbEntity
  8
0
  6
Continuous
 62
     7
370
    15
100
AcDbLine
 10
2342.788272575958
 20
1040.739722247526
 30
0.0
 11
2343.402507575266
 21
1039.675834503135
 31
0.0
  0
LINE
  5
835
330
7D1
100
AcDbEntity
  8
0
  6
Continuous
 62
     7
370
    15
100
AcDbLine
 10
2343.578012320821
 20
1041.225875105769
 30
0.0
 11
2343.291679802928
 21
1041.030331708043
 31
0.0
  0
SPLINE
  5
836
330
7D1
100
AcDbEntity
  8
0
  6
Continuous
 62
     7
370
    15
100
AcDbSpline
210
0.0
220
0.0
230
1.0
 70
     8
 71
     3
 72
     8
 73
     4
 74
     0
 42
0.0000000001
 43
0.0000000001
 40
0.0
 40
0.0
 40
0.0
 40
0.0
 40
1.0
 40
1.0
 40
1.0
 40
1.0
 10
2343.578013482618
 20
1041.22587506646
 30
0.0
 10
2343.60159024943
 20
1041.241975995703
 30
0.0
 10
2343.615094649908
 20
1041.274280961197
 30
0.0
 10
2343.615094649908
 20
1041.314579917276
 30
0.0
  0
SPLINE
  5
837
330
7D1
100
AcDbEntity
  8
0
  6
Continuous
 62
     7
370
    15
100
AcDbSpline
210
0.0
220
0.0
230
1.0
 70
     8
 71
     3
 72
     8
 73
     4
 74
     0
 42
0.0000000001
 43
0.0000000001
 40
0.0
 40
0.0
 40
0.0
 40
0.0
 40
1.0
 40
1.0
 40
1.0
 40
1.0
 10
2343.615094649908
 20
1041.314579917276
 30
0.0
 10
2343.615094649908
 20
1041.357249400184
 30
0.0
 10
2343.599883353828
 20
1041.408437425865
 30
0.0
 10
2343.573755154058
 20
1041.453692795245
 30
0.0
  0
LINE
  5
838
330
7D1
100
AcDbEntity
  8
0
  6
Continuous
 62
     7
370
    15
100
AcDbLine
 10
2342.83664135298
 20
1042.730410268459
 30
0.0
 11
2343.573755489121
 21
1041.453692658358
 31
0.0
  0
SPLINE
  5
839
330
7D1
100
AcDbEntity
  8
0
  6
Continuous
 62
     7
370
    15
100
AcDbSpline
210
0.0
220
0.0
230
1.0
 70
     8
 71
     3
 72
    10
 73
     6
 74
     0
 42
0.0000000001
 43
0.0000000001
 40
0.0
 40
0.0
 40
0.0
 40
0.0
 40
0.5
 40
0.5
 40
1.0
 40
1.0
 40
1.0
 40
1.0
 10
2342.836641544745
 20
1042.730411013778
 30
0.0
 10
2342.811239128302
 20
1042.774409289564
 30
0.0
 10
2342.775834059622
 20
1042.81230799213
 30
0.0
 10
2342.704002274007
 20
1042.855585546261
 30
0.0
 10
2342.667971386524
 20
1042.860725916624
 30
0.0
 10
2342.64148510971
 20
1042.847989786308
 30
0.0
  0
LINE
  5
83A
330
7D1
100
AcDbEntity
  8
0
  6
Continuous
 62
     7
370
    15
100
AcDbLine
 10
2342.329006270269
 20
1042.697731172817
 30
0.0
 11
2342.641485639306
 21
1042.847989937887
 31
0.0
  0
LINE
  5
83B
330
7D1
100
AcDbEntity
  8
0
  6
Continuous
 62
     7
370
    15
100
AcDbLine
 10
2341.211364043991
 20
1043.471007935766
 30
0.0
 11
2341.825599043299
 21
1042.4071217123
 31
0.0
  0
LINE
  5
83C
330
7D1
100
AcDbEntity
  8
0
  6
Continuous
 62
     7
370
    15
100
AcDbLine
 10
2342.001103788854
 20
1043.957162314935
 30
0.0
 11
2341.714768636783
 21
1043.761618916961
 31
0.0
  0
SPLINE
  5
83D
330
7D1
100
AcDbEntity
  8
0
  6
Continuous
 62
     7
370
    15
100
AcDbSpline
210
0.0
220
0.0
230
1.0
 70
     8
 71
     3
 72
     8
 73
     4
 74
     0
 42
0.0000000001
 43
0.0000000001
 40
0.0
 40
0.0
 40
0.0
 40
0.0
 40
1.0
 40
1.0
 40
1.0
 40
1.0
 10
2342.00110448602
 20
1043.957161559463
 30
0.0
 10
2342.024681252831
 20
1043.973262488707
 30
0.0
 10
2342.038185653309
 20
1044.005567454201
 30
0.0
 10
2342.038185653309
 20
1044.04586641028
 30
0.0
  0
SPLINE
  5
83E
330
7D1
100
AcDbEntity
  8
0
  6
Continuous
 62
     7
370
    15
100
AcDbSpline
210
0.0
220
0.0
230
1.0
 70
     8
 71
     3
 72
     8
 73
     4
 74
     0
 42
0.0000000001
 43
0.0000000001
 40
0.0
 40
0.0
 40
0.0
 40
0.0
 40
1.0
 40
1.0
 40
1.0
 40
1.0
 10
2342.038185653309
 20
1044.04586641028
 30
0.0
 10
2342.038185653309
 20
1044.088535893188
 30
0.0
 10
2342.02297435723
 20
1044.139723918869
 30
0.0
 10
2341.996846157459
 20
1044.184979288249
 30
0.0
  0
LINE
  5
83F
330
7D1
100
AcDbEntity
  8
0
  6
Continuous
 62
     7
370
    15
100
AcDbLine
 10
2341.259732821013
 20
1045.461697477625
 30
0.0
 11
2341.996846957155
 21
1044.184978346598
 31
0.0
  0
SPLINE
  5
840
330
7D1
100
AcDbEntity
  8
0
  6
Continuous
 62
     7
370
    15
100
AcDbSpline
210
0.0
220
0.0
230
1.0
 70
     8
 71
     3
 72
    10
 73
     6
 74
     0
 42
0.0000000001
 43
0.0000000001
 40
0.0
 40
0.0
 40
0.0
 40
0.0
 40
0.5
 40
0.5
 40
1.0
 40
1.0
 40
1.0
 40
1.0
 10
2341.259732548146
 20
1045.461697506782
 30
0.0
 10
2341.234330131702
 20
1045.505695782569
 30
0.0
 10
2341.198925063022
 20
1045.543594485135
 30
0.0
 10
2341.127093277408
 20
1045.586872039265
 30
0.0
 10
2341.091062389925
 20
1045.592012409628
 30
0.0
 10
2341.06457611311
 20
1045.579276279311
 30
0.0
  0
LINE
  5
841
330
7D1
100
AcDbEntity
  8
0
  6
Continuous
 62
     7
370
    15
100
AcDbLine
 10
2340.752095104124
 20
1045.429018381735
 30
0.0
 11
2341.06457710734
 21
1045.579275626126
 31
0.0
  0
LINE
  5
842
330
7D1
100
AcDbEntity
  8
0
  6
Continuous
 62
     7
370
    15
100
AcDbLine
 10
2339.634455512024
 20
1046.202295144931
 30
0.0
 11
2340.248690511332
 21
1045.13840740054
 31
0.0
  0
LINE
  5
843
330
7D1
100
AcDbEntity
  8
0
  6
Continuous
 62
     7
370
    15
100
AcDbLine
 10
2340.424195256888
 20
1046.688448003174
 30
0.0
 11
2340.137860104817
 21
1046.492906126126
 31
0.0
  0
SPLINE
  5
844
330
7D1
100
AcDbEntity
  8
0
  6
Continuous
 62
     7
370
    15
100
AcDbSpline
210
0.0
220
0.0
230
1.0
 70
     8
 71
     3
 72
     8
 73
     4
 74
     0
 42
0.0000000001
 43
0.0000000001
 40
0.0
 40
0.0
 40
0.0
 40
0.0
 40
1.0
 40
1.0
 40
1.0
 40
1.0
 10
2340.42419548942
 20
1046.688448052471
 30
0.0
 10
2340.447772256231
 20
1046.704548981715
 30
0.0
 10
2340.461276656708
 20
1046.736853947209
 30
0.0
 10
2340.461276656708
 20
1046.777152903288
 30
0.0
  0
SPLINE
  5
845
330
7D1
100
AcDbEntity
  8
0
  6
Continuous
 62
     7
370
    15
100
AcDbSpline
210
0.0
220
0.0
230
1.0
 70
     8
 71
     3
 72
     8
 73
     4
 74
     0
 42
0.0000000001
 43
0.0000000001
 40
0.0
 40
0.0
 40
0.0
 40
0.0
 40
1.0
 40
1.0
 40
1.0
 40
1.0
 10
2340.461276656708
 20
1046.777152903288
 30
0.0
 10
2340.461276656708
 20
1046.819822386196
 30
0.0
 10
2340.446065360629
 20
1046.871010411877
 30
0.0
 10
2340.419937160859
 20
1046.916265781257
 30
0.0
  0
LINE
  5
846
330
7D1
100
AcDbEntity
  8
0
  6
Continuous
 62
     7
370
    15
100
AcDbLine
 10
2340.231057323586
 20
1047.243414177515
 30
0.0
 11
2340.419935791009
 21
1046.916265555516
 31
0.0
  0
SPLINE
  5
847
330
7D1
100
AcDbEntity
  8
0
  6
Continuous
 62
     7
370
    15
100
AcDbSpline
210
0.0
220
0.0
230
1.0
 70
     8
 71
     3
 72
    13
 73
     9
 74
     0
 42
0.0000000001
 43
0.0000000001
 40
0.0
 40
0.0
 40
0.0
 40
0.0
 40
0.1285466741280006
 40
0.2517155275314656
 40
0.3742348322976483
 40
0.500905619002287
 40
0.7462456115389746
 40
1.0
 40
1.0
 40
1.0
 40
1.0
 10
2340.231057764804
 20
1047.473910680748
 30
0.0
 10
2340.22478414377
 20
1047.46930313363
 30
0.0
 10
2340.212499362083
 20
1047.460280798658
 30
0.0
 10
2340.199505665024
 20
1047.439389463439
 30
0.0
 10
2340.19153988454
 20
1047.413464053514
 30
0.0
 10
2340.188045222034
 20
1047.373545442514
 30
0.0
 10
2340.195729624849
 20
1047.314370841533
 30
0.0
 10
2340.219150100326
 20
1047.267330961281
 30
0.0
 10
2340.231057764804
 20
1047.243414490767
 30
0.0
  0
LINE
  5
848
330
7D1
100
AcDbEntity
  8
0
  6
Continuous
 62
     7
370
    15
100
AcDbLine
 10
2340.617680901688
 20
1047.697174555943
 30
0.0
 11
2340.231057323586
 21
1047.473910479839
 31
0.0
  0
LINE
  5
849
330
7D1
100
AcDbEntity
  8
0
  6
Continuous
 62
     7
370
    15
100
AcDbLine
 10
2340.795469479598
 20
1047.420588070982
 30
0.0
 11
2346.614927197876
 21
1037.340990139082
 31
0.0
  0
SPLINE
  5
84A
330
7D1
100
AcDbEntity
  8
0
  6
Continuous
 62
     7
370
    15
100
AcDbSpline
210
0.0
220
0.0
230
1.0
 70
     8
 71
     3
 72
    13
 73
     9
 74
     0
 42
0.0000000001
 43
0.0000000001
 40
0.0
 40
0.0
 40
0.0
 40
0.0
 40
0.1285466741273706
 40
0.2517155275306208
 40
0.3742348322970162
 40
0.5009056190021802
 40
0.7462456115381992
 40
1.0
 40
1.0
 40
1.0
 40
1.0
 10
2346.179338933996
 20
1036.940689318258
 30
0.0
 10
2346.186465271442
 20
1036.929330825205
 30
0.0
 10
2346.200419812091
 20
1036.907089027895
 30
0.0
 10
2346.22500705176
 20
1036.877890474788
 30
0.0
 10
2346.251440142123
 20
1036.853432387241
 30
0.0
 10
2346.287755847977
 20
1036.82843226922
 30
0.0
 10
2346.335158202726
 20
1036.809941137042
 30
0.0
 10
2346.364185392655
 20
1036.82022919762
 30
0.0
 10
2346.378943677079
 20
1036.825459952803
 30
0.0
  0
LINE
  5
84B
330
7D1
100
AcDbEntity
  8
0
  6
Continuous
 62
     7
370
    15
100
AcDbLine
 10
2345.990458416914
 20
1037.26783889198
 30
0.0
 11
2346.179339518515
 21
1036.940688749303
 31
0.0
  0
SPLINE
  5
84C
330
7D1
100
AcDbEntity
  8
0
  6
Continuous
 62
     7
370
    15
100
AcDbSpline
210
0.0
220
0.0
230
1.0
 70
     8
 71
     3
 72
    10
 73
     6
 74
     0
 42
0.0000000001
 43
0.0000000001
 40
0.0
 40
0.0
 40
0.0
 40
0.0
 40
0.5
 40
0.5
 40
1.0
 40
1.0
 40
1.0
 40
1.0
 10
2345.99045953794
 20
1037.267838027769
 30
0.0
 10
2345.965057121497
 20
1037.311836303555
 30
0.0
 10
2345.929652052817
 20
1037.349735006121
 30
0.0
 10
2345.857820267203
 20
1037.393012560251
 30
0.0
 10
2345.82178937972
 20
1037.398152930614
 30
0.0
 10
2345.795303102905
 20
1037.385416800298
 30
0.0
  0
LINE
  5
84D
330
7D1
100
AcDbEntity
  8
0
  6
Continuous
 62
     7
370
    15
100
AcDbLine
 10
2345.482823334203
 20
1037.235158275412
 30
0.0
 11
2345.79530270324
 21
1037.385417040482
 31
0.0
  0
LINE
  5
84E
330
7D1
100
AcDbEntity
  8
0
  6
Continuous
 62
     7
370
    15
100
AcDbLine
 10
2346.735166888321
 20
1050.849502398544
 30
0.0
 11
2352.554624606599
 21
1040.769904466644
 31
0.0
  0
LINE
  5
84F
330
7D1
100
AcDbEntity
  8
0
  6
Continuous
 62
     7
370
    15
100
AcDbLine
 10
2341.428004772238
 20
1034.894361344854
 30
0.0
 11
2345.482823334203
 21
1037.235158275412
 31
0.0
  0
LINE
  5
850
330
7D1
100
AcDbEntity
  8
0
  6
Continuous
 62
     7
370
    15
100
AcDbLine
 10
2339.851096240271
 20
1037.625647033093
 30
0.0
 11
2343.905914802236
 21
1039.966443963652
 31
0.0
  0
LINE
  5
851
330
7D1
100
AcDbEntity
  8
0
  6
Continuous
 62
     7
370
    15
100
AcDbLine
 10
2338.274187708304
 20
1040.356934242258
 30
0.0
 11
2342.329006270269
 21
1042.697731172817
 31
0.0
  0
LINE
  5
852
330
7D1
100
AcDbEntity
  8
0
  6
Continuous
 62
     7
370
    15
100
AcDbLine
 10
2336.697276542159
 20
1043.088221451176
 30
0.0
 11
2340.752095104124
 21
1045.429018381735
 31
0.0
  0
LINE
  5
853
330
7D1
100
AcDbEntity
  8
0
  6
Continuous
 62
     7
370
    15
100
AcDbLine
 10
2344.868588334895
 20
1038.299046019804
 30
0.0
 11
2340.81376977293
 21
1035.958249089245
 31
0.0
  0
LINE
  5
854
330
7D1
100
AcDbEntity
  8
0
  6
Continuous
 62
     7
370
    15
100
AcDbLine
 10
2343.291679802928
 20
1041.030331708043
 30
0.0
 11
2339.236861240963
 21
1038.689534777484
 31
0.0
  0
LINE
  5
855
330
7D1
100
AcDbEntity
  8
0
  6
Continuous
 62
     7
370
    15
100
AcDbLine
 10
2341.714768636783
 20
1043.761618916961
 30
0.0
 11
2337.659950074818
 21
1041.420821986402
 31
0.0
  0
LINE
  5
856
330
7D1
100
AcDbEntity
  8
0
  6
Continuous
 62
     7
370
    15
100
AcDbLine
 10
2340.137860104817
 20
1046.492906126126
 30
0.0
 11
2336.083041542851
 21
1044.152109195568
 31
0.0
  0
SPLINE
  5
857
330
7D1
100
AcDbEntity
  8
0
  6
Continuous
 62
     7
370
    15
100
AcDbSpline
210
0.0
220
0.0
230
1.0
 70
     8
 71
     3
 72
     9
 73
     5
 74
     0
 42
0.0000000001
 43
0.0000000001
 40
0.0
 40
0.0
 40
0.0
 40
0.0
 40
0.4669430641380976
 40
0.9999999999999998
 40
0.9999999999999998
 40
0.9999999999999998
 40
0.9999999999999998
 10
2332.933843510096
 20
1050.60690449575
 30
0.0
 10
2332.847027628949
 20
1050.711843188918
 30
0.0
 10
2332.661103716987
 20
1050.936578710713
 30
0.0
 10
2332.37027945982
 20
1051.120850842831
 30
0.0
 10
2332.21525357242
 20
1051.219078380943
 30
0.0
  0
SPLINE
  5
858
330
7D1
100
AcDbEntity
  8
0
  6
Continuous
 62
     7
370
    15
100
AcDbSpline
210
0.0
220
0.0
230
1.0
 70
     8
 71
     3
 72
    17
 73
    13
 74
     0
 42
0.0000000001
 43
0.0000000001
 40
0.0
 40
0.0
 40
0.0
 40
0.0
 40
0.1012558624712706
 40
0.2025116656071976
 40
0.3037676349756711
 40
0.4050234815187426
 40
0.5062794343060712
 40
0.6075353472511051
 40
0.7087912021163801
 40
0.8100470915311476
 40
0.9113029809459151
 40
1.0
 40
1.0
 40
1.0
 40
1.0
 10
2332.21525357242
 20
1051.219078380943
 30
0.0
 10
2332.044064295906
 20
1051.307269647222
 30
0.0
 10
2331.701685843193
 20
1051.4836521281
 30
0.0
 10
2331.08726137176
 20
1051.668440224573
 30
0.0
 10
2330.427902771743
 20
1051.785000243701
 30
0.0
 10
2329.740308290519
 20
1051.82384477311
 30
0.0
 10
2329.053147249593
 20
1051.784844317488
 30
0.0
 10
2328.392488816497
 20
1051.669061870513
 30
0.0
 10
2327.782827241807
 20
1051.481323454565
 30
0.0
 10
2327.251512992941
 20
1051.22776693342
 30
0.0
 10
2326.822655584034
 20
1050.934717326907
 30
0.0
 10
2326.634688433031
 20
1050.711250810871
 30
0.0
 10
2326.546918647834
 20
1050.60690487592
 30
0.0
  0
LINE
  5
859
330
7D1
100
AcDbEntity
  8
0
  6
Continuous
 62
     7
370
    15
100
AcDbLine
 10
2331.781621770249
 20
1050.96874806998
 30
0.0
 11
2328.993234346517
 21
1051.400066127492
 31
0.0
  0
LINE
  5
85A
330
7D1
100
AcDbEntity
  8
0
  6
Continuous
 62
     7
370
    15
100
AcDbLine
 10
2328.993234346517
 20
1051.400066127492
 30
0.0
 11
2326.951992667417
 21
1050.221682388751
 31
0.0
  0
LINE
  5
85B
330
7D1
100
AcDbEntity
  8
0
  6
Continuous
 62
     7
370
    15
100
AcDbLine
 10
2332.229169934963
 20
1050.004519979104
 30
0.0
 11
2331.781621770249
 21
1050.96874806998
 31
0.0
  0
ARC
  5
85C
330
7D1
100
AcDbEntity
  8
0
  6
Continuous
 62
     7
370
    15
100
AcDbCircle
 10
2342.363560281624
 20
1021.344121161568
 30
0.0
 40
1.182101723526881
100
AcDbArc
 50
265.9647419469238
 51
302.9700829696204
  0
LINE
  5
85D
330
7D1
100
AcDbEntity
  8
0
  6
Continuous
 62
     7
370
    15
100
AcDbLine
 10
2343.006861278859
 20
1020.352391202496
 30
0.0
 11
2343.493607329778
 21
1020.071398688395
 31
0.0
  0
ARC
  5
85E
330
7D1
100
AcDbEntity
  8
0
  6
Continuous
 62
     7
370
    15
100
AcDbCircle
 10
2343.904949786971
 20
1023.863057602094
 30
0.0
 40
2.592747578762971
100
AcDbArc
 50
298.1505472372262
 51
19.99497942490026
  0
LINE
  5
85F
330
7D1
100
AcDbEntity
  8
0
  6
Continuous
 62
     7
370
    15
100
AcDbLine
 10
2345.12818197013
 20
1021.57700357096
 30
0.0
 11
2343.006861278859
 21
1020.352391202496
 31
0.0
  0
SPLINE
  5
860
330
7D1
100
AcDbEntity
  8
0
  6
Continuous
 62
     7
370
    15
100
AcDbSpline
210
0.0
220
0.0
230
1.0
 70
     8
 71
     3
 72
     9
 73
     5
 74
     0
 42
0.0000000001
 43
0.0000000001
 40
0.0
 40
0.0
 40
0.0
 40
0.0
 40
0.5000510054382591
 40
1.0
 40
1.0
 40
1.0
 40
1.0
 10
2329.846446586693
 20
1061.077472092685
 30
0.0
 10
2329.752813942781
 20
1061.120378131986
 30
0.0
 10
2329.565567756104
 20
1061.206181457717
 30
0.0
 10
2329.419513236096
 20
1061.153369300635
 30
0.0
 10
2329.346493425667
 20
1061.126965915802
 30
0.0
  0
LINE
  5
861
330
7D1
100
AcDbEntity
  8
0
  6
Continuous
 62
     7
370
    15
100
AcDbLine
 10
2331.781621770249
 20
1050.96874806998
 30
0.0
 11
2331.781621770249
 21
1049.789291418683
 31
0.0
  0
ARC
  5
862
330
7D1
100
AcDbEntity
  8
0
  6
Continuous
 62
     7
370
    15
100
AcDbCircle
 10
2349.629574791178
 20
1019.70831863961
 30
0.0
 40
2.317376052405974
100
AcDbArc
 50
322.107803786694
 51
3.11198258424453
  0
SPLINE
  5
863
330
7D1
100
AcDbEntity
  8
0
  6
Continuous
 62
     7
370
    15
100
AcDbSpline
210
0.0
220
0.0
230
1.0
 70
     8
 71
     3
 72
     9
 73
     5
 74
     0
 42
0.0000000001
 43
0.0000000001
 40
0.0
 40
0.0
 40
0.0
 40
0.0
 40
0.6918068252480722
 40
1.0
 40
1.0
 40
1.0
 40
1.0
 10
2351.092962680619
 20
1017.997346054476
 30
0.0
 10
2351.187112886429
 20
1018.055169443732
 30
0.0
 10
2351.323206088136
 20
1018.138752587386
 30
0.0
 10
2351.426529616727
 20
1018.250574996626
 30
0.0
 10
2351.45837322303
 20
1018.285037899938
 30
0.0
  0
LINE
  5
864
330
7D1
100
AcDbEntity
  8
0
  6
Continuous
 62
     7
370
    15
100
AcDbLine
 10
2328.993234346517
 20
1049.453027131404
 30
0.0
 11
2328.993234346517
 21
1051.400066127492
 31
0.0
  0
LINE
  5
865
330
7D1
100
AcDbEntity
  8
0
  6
Continuous
 62
     7
370
    15
100
AcDbLine
 10
2345.12818197013
 20
1021.57700357096
 30
0.0
 11
2345.614928021049
 21
1021.296011056858
 31
0.0
  0
LINE
  5
866
330
7D1
100
AcDbEntity
  8
0
  6
Continuous
 62
     7
370
    15
100
AcDbLine
 10
2306.229080043433
 20
1055.280974318467
 30
0.0
 11
2323.058221617628
 21
1064.996230954198
 31
0.0
  0
LINE
  5
867
330
7D1
100
AcDbEntity
  8
0
  6
Continuous
 62
     7
370
    15
100
AcDbLine
 10
2323.765328391242
 20
1063.771485956932
 30
0.0
 11
2306.936186817046
 21
1054.0562293212
 31
0.0
  0
SPLINE
  5
868
330
7D1
100
AcDbEntity
  8
0
  6
Continuous
 62
     7
370
    15
100
AcDbSpline
210
0.0
220
0.0
230
1.0
 70
     8
 71
     3
 72
    10
 73
     6
 74
     0
 42
0.0000000001
 43
0.0000000001
 40
0.0
 40
0.0
 40
0.0
 40
0.0
 40
0.5000000000000001
 40
0.5000000000000001
 40
1.0
 40
1.0
 40
1.0
 40
1.0
 10
2323.765328204499
 20
1063.771485576672
 30
0.0
 10
2323.765328204499
 20
1063.985255461336
 30
0.0
 10
2323.689121117213
 20
1064.241702401876
 30
0.0
 10
2323.427321729413
 20
1064.695152241604
 30
0.0
 10
2323.243341545736
 20
1064.889362872534
 30
0.0
 10
2323.058221423313
 20
1064.996230444469
 30
0.0
  0
LINE
  5
869
330
7D1
100
AcDbEntity
  8
0
  6
Continuous
 62
     7
370
    15
100
AcDbLine
 10
2306.936186817046
 20
1045.074280439127
 30
0.0
 11
2312.310198238884
 21
1048.176631197561
 31
0.0
  0
LINE
  5
86A
330
7D1
100
AcDbEntity
  8
0
  6
Continuous
 62
     7
370
    15
100
AcDbLine
 10
2323.765328391242
 20
1063.771485956932
 30
0.0
 11
2323.765328391242
 21
1057.905045554391
 31
0.0
  0
LINE
  5
86B
330
7D1
100
AcDbEntity
  8
0
  6
Continuous
 62
     7
370
    15
100
AcDbLine
 10
2307.169502015712
 20
1074.168593541157
 30
0.0
 11
2290.340360441516
 21
1064.453336905426
 31
0.0
  0
SPLINE
  5
86C
330
7D1
100
AcDbEntity
  8
0
  6
Continuous
 62
     7
370
    15
100
AcDbSpline
210
0.0
220
0.0
230
1.0
 70
     8
 71
     3
 72
    30
 73
    26
 74
     0
 42
0.0000000001
 43
0.0000000001
 40
0.0
 40
0.0
 40
0.0
 40
0.0
 40
0.0173048380583917
 40
0.0344788584273625
 40
0.0515713687169038
 40
0.0686323832623509
 40
0.0857121930856327
 40
0.1028609238502268
 40
0.1201281010089654
 40
0.1850408523809402
 40
0.2500861352091341
 40
0.3149916041000427
 40
0.3800441773566177
 40
0.4399553189976842
 40
0.500013311532616
 40
0.5599317302341054
 40
0.6199824588324185
 40
0.6848952115797593
 40
0.7499404929721232
 40
0.8148459462683554
 40
0.8798985344640207
 40
0.909977822750716
 40
0.9398412720677853
 40
0.969759083248258
 40
0.9999999999999998
 40
0.9999999999999998
 40
0.9999999999999998
 40
0.9999999999999998
 10
2308.810019782406
 20
1066.36371403177
 30
0.0
 10
2308.854106297008
 20
1066.337441459542
 30
0.0
 10
2308.941946049707
 20
1066.285094925277
 30
0.0
 10
2309.063982370664
 20
1066.201839379063
 30
0.0
 10
2309.178040277304
 20
1066.115588985951
 30
0.0
 10
2309.28348690088
 20
1066.025981575998
 30
0.0
 10
2309.380487399287
 20
1065.93312025404
 30
0.0
 10
2309.468993687114
 20
1065.836966327416
 30
0.0
 10
2309.622303132981
 20
1065.64658714813
 30
0.0
 10
2309.787791238113
 20
1065.34784909267
 30
0.0
 10
2309.858806210632
 20
1064.935316312652
 30
0.0
 10
2309.787854861242
 20
1064.522364826582
 30
0.0
 10
2309.574789471826
 20
1064.137437499113
 30
0.0
 10
2309.248181693574
 20
1063.792311389459
 30
0.0
 10
2308.824689032306
 20
1063.498233409005
 30
0.0
 10
2308.31499379458
 20
1063.25351148981
 30
0.0
 10
2307.717652932024
 20
1063.065025918247
 30
0.0
 10
2307.050446072321
 20
1062.941854473772
 30
0.0
 10
2306.335638873139
 20
1062.900841204956
 30
0.0
 10
2305.620439105475
 20
1062.941740999285
 30
0.0
 10
2305.058153459071
 20
1063.04562551525
 30
0.0
 10
2304.646381394999
 20
1063.161517094147
 30
0.0
 10
2304.365654139628
 20
1063.260984219606
 30
0.0
 10
2304.100689931214
 20
1063.374805726606
 30
0.0
 10
2303.94069795261
 20
1063.4623023577
 30
0.0
 10
2303.8602723141
 20
1063.506285640391
 30
0.0
  0
SPLINE
  5
86D
330
7D1
100
AcDbEntity
  8
0
  6
Continuous
 62
     7
370
    15
100
AcDbSpline
210
0.0
220
0.0
230
1.0
 70
     8
 71
     3
 72
    30
 73
    26
 74
     0
 42
0.0000000001
 43
0.0000000001
 40
0.0
 40
0.0
 40
0.0
 40
0.0
 40
0.0173048380582597
 40
0.0344788584271419
 40
0.0515713687166383
 40
0.0686323832620842
 40
0.0857121930854059
 40
0.1028609238500822
 40
0.1201281010089411
 40
0.1850408523804745
 40
0.2500861352091068
 40
0.3149916040995396
 40
0.3800441773565861
 40
0.4399553189971023
 40
0.5000133115325881
 40
0.5599317302348385
 40
0.6199824588324472
 40
0.6848952115823794
 40
0.7499404929721903
 40
0.814845946269185
 40
0.8798985344640017
 40
0.9099778227501317
 40
0.9398412720670059
 40
0.9697590832476702
 40
1.0
 40
1.0
 40
1.0
 40
1.0
 10
2303.8602723141
 20
1063.506285640391
 30
0.0
 10
2303.816185799498
 20
1063.532558212619
 30
0.0
 10
2303.7283460468
 20
1063.584904746883
 30
0.0
 10
2303.606309725843
 20
1063.668160293096
 30
0.0
 10
2303.492251819204
 20
1063.754410686208
 30
0.0
 10
2303.386805195628
 20
1063.844018096162
 30
0.0
 10
2303.28980469722
 20
1063.93687941812
 30
0.0
 10
2303.201298409393
 20
1064.033033344744
 30
0.0
 10
2303.047988963525
 20
1064.22341252403
 30
0.0
 10
2302.882500858393
 20
1064.52215057949
 30
0.0
 10
2302.811485885874
 20
1064.934683359506
 30
0.0
 10
2302.882437235264
 20
1065.347634845577
 30
0.0
 10
2303.095502624678
 20
1065.732562173046
 30
0.0
 10
2303.42211040293
 20
1066.077688282701
 30
0.0
 10
2303.8456030642
 20
1066.371766263156
 30
0.0
 10
2304.355298301925
 20
1066.616488182354
 30
0.0
 10
2304.952639164493
 20
1066.804973753916
 30
0.0
 10
2305.619846024194
 20
1066.928145198391
 30
0.0
 10
2306.334653223379
 20
1066.969158467206
 30
0.0
 10
2307.049852991032
 20
1066.928258672871
 30
0.0
 10
2307.612138637436
 20
1066.824374156911
 30
0.0
 10
2308.023910701503
 20
1066.708482578016
 30
0.0
 10
2308.304637956873
 20
1066.609015452558
 30
0.0
 10
2308.569602165288
 20
1066.495193945557
 30
0.0
 10
2308.729594143894
 20
1066.407697314462
 30
0.0
 10
2308.810019782406
 20
1066.36371403177
 30
0.0
  0
LINE
  5
86E
330
7D1
100
AcDbEntity
  8
0
  6
Continuous
 62
     7
370
    15
100
AcDbLine
 10
2307.169502015712
 20
1074.168593541157
 30
0.0
 11
2323.058221617628
 21
1064.996230954198
 31
0.0
  0
LINE
  5
86F
330
7D1
100
AcDbEntity
  8
0
  6
Continuous
 62
     7
370
    15
100
AcDbLine
 10
2342.357222268258
 20
1004.486525783033
 30
0.0
 11
2342.357222268258
 21
1012.947019176905
 31
0.0
  0
LINE
  5
870
330
7D1
100
AcDbEntity
  8
0
  6
Continuous
 62
     7
370
    15
100
AcDbLine
 10
2342.357222268258
 20
1004.486525783033
 30
0.0
 11
2337.165002510598
 21
1001.489121118488
 31
0.0
  0
ARC
  5
871
330
7D1
100
AcDbEntity
  8
0
  6
Continuous
 62
     7
370
    15
100
AcDbCircle
 10
2346.569160158628
 20
995.0101769473006
 30
0.0
 40
5.375844948902004
100
AcDbArc
 50
1.340665249782356
 51
24.56667659442028
  0
LINE
  5
872
330
7D1
100
AcDbEntity
  8
0
  6
Continuous
 62
     7
370
    15
100
AcDbLine
 10
2351.45837322303
 20
1018.285037899938
 30
0.0
 11
2351.45837322303
 21
997.2451947381735
 31
0.0
  0
SPLINE
  5
873
330
7D1
100
AcDbEntity
  8
0
  6
Continuous
 62
     7
370
    15
100
AcDbSpline
210
0.0
220
0.0
230
1.0
 70
     8
 71
     3
 72
    10
 73
     6
 74
     0
 42
0.0000000001
 43
0.0000000001
 40
0.0
 40
0.0
 40
0.0
 40
0.0
 40
0.5
 40
0.5
 40
1.0
 40
1.0
 40
1.0
 40
1.0
 10
2351.458372049262
 20
997.2451949222108
 30
0.0
 10
2351.360802923954
 20
997.4681941928002
 30
0.0
 10
2351.247529606586
 20
997.6827418856595
 30
0.0
 10
2350.984433699368
 20
998.0912821938485
 30
0.0
 10
2350.833306515612
 20
998.2865847987397
 30
0.0
 10
2350.663139309067
 20
998.4648255053221
 30
0.0
  0
ELLIPSE
  5
874
330
7D1
100
AcDbEntity
  8
0
  6
Continuous
 62
     7
370
    15
100
AcDbEllipse
 10
2347.922838143329
 20
995.4675575640164
 30
0.0
 11
-3.943834441438298
 21
4.611273140542038
 31
0.0
210
0.0
220
0.0
230
1.0
 40
0.6665105507586303
 41
4.794341569380835
 42
5.176989402827457
  0
SPLINE
  5
875
330
7D1
100
AcDbEntity
  8
0
  6
Continuous
 62
     7
370
    15
100
AcDbSpline
210
0.0
220
0.0
230
1.0
 70
     8
 71
     3
 72
     9
 73
     5
 74
     0
 42
0.0000000001
 43
0.0000000001
 40
0.0
 40
0.0
 40
0.0
 40
0.0
 40
0.4669426950478547
 40
1.0
 40
1.0
 40
1.0
 40
1.0
 10
2309.528608640837
 20
1064.11845898425
 30
0.0
 10
2309.441792980427
 20
1064.223397549735
 30
0.0
 10
2309.255869394235
 20
1064.448132975725
 30
0.0
 10
2308.965045280165
 20
1064.632404961277
 30
0.0
 10
2308.810019361705
 20
1064.730632489273
 30
0.0
  0
SPLINE
  5
876
330
7D1
100
AcDbEntity
  8
0
  6
Continuous
 62
     7
370
    15
100
AcDbSpline
210
0.0
220
0.0
230
1.0
 70
     8
 71
     3
 72
    17
 73
    13
 74
     0
 42
0.0000000001
 43
0.0000000001
 40
0.0
 40
0.0
 40
0.0
 40
0.0
 40
0.1012558559181278
 40
0.2025117840249455
 40
0.3037676256269482
 40
0.4050235718611281
 40
0.5062795180953081
 40
0.6075353596973107
 40
0.7087912479067004
 40
0.8100471172964835
 40
0.9113029866862666
 40
1.0
 40
1.0
 40
1.0
 40
1.0
 10
2308.810019361705
 20
1064.730632489273
 30
0.0
 10
2308.638830061907
 20
1064.818823725999
 30
0.0
 10
2308.296451340267
 20
1064.995206262326
 30
0.0
 10
2307.682027131714
 20
1065.179994756547
 30
0.0
 10
2307.022667968834
 20
1065.296554202334
 30
0.0
 10
2306.33507373695
 20
1065.3353993533
 30
0.0
 10
2305.647912365814
 20
1065.29639900669
 30
0.0
 10
2304.987254708434
 20
1065.180615553801
 30
0.0
 10
2304.377592009304
 20
1064.992878373764
 30
0.0
 10
2303.846279306951
 20
1064.739320710997
 30
0.0
 10
2303.417420434536
 20
1064.446271943365
 30
0.0
 10
2303.229453478813
 20
1064.222805345146
 30
0.0
 10
2303.141683778574
 20
1064.118459364419
 30
0.0
  0
ELLIPSE
  5
877
330
7D1
100
AcDbEntity
  8
0
  6
Continuous
 62
     7
370
    15
100
AcDbEllipse
 10
2349.140648287778
 20
1004.746274864663
 30
0.0
 11
-3.943834441438128
 21
4.61127314054201
 31
0.0
210
0.0
220
0.0
230
1.0
 40
0.6665105507586581
 41
1.636257137432474
 42
2.035396749237673
  0
LINE
  5
878
330
7D1
100
AcDbEntity
  8
0
  6
Continuous
 62
     7
370
    15
100
AcDbLine
 10
2348.903419412498
 20
999.8836863527616
 30
0.0
 11
2348.160068859867
 21
1000.3301454891
 31
0.0
  0
LINE
  5
879
330
7D1
100
AcDbEntity
  8
0
  6
Continuous
 62
     7
370
    15
100
AcDbLine
 10
2308.823935065703
 20
1063.516074467604
 30
0.0
 11
2308.376387559533
 21
1064.48030217831
 31
0.0
  0
LINE
  5
87A
330
7D1
100
AcDbEntity
  8
0
  6
Continuous
 62
     7
370
    15
100
AcDbLine
 10
2308.376387559533
 20
1064.48030217831
 30
0.0
 11
2305.588000135802
 21
1064.911620235823
 31
0.0
  0
LINE
  5
87B
330
7D1
100
AcDbEntity
  8
0
  6
Continuous
 62
     7
370
    15
100
AcDbLine
 10
2305.588000135802
 20
1064.911620235823
 30
0.0
 11
2303.546758456701
 21
1063.733236497081
 31
0.0
  0
SPLINE
  5
87C
330
7D1
100
AcDbEntity
  8
0
  6
Continuous
 62
     7
370
    15
100
AcDbSpline
210
0.0
220
0.0
230
1.0
 70
     8
 71
     3
 72
     8
 73
     4
 74
     0
 42
0.0000000001
 43
0.0000000001
 40
0.0
 40
0.0
 40
0.0
 40
0.0
 40
1.0
 40
1.0
 40
1.0
 40
1.0
 10
2346.331751069723
 20
1001.821655392534
 30
0.0
 10
2346.091303886067
 20
1002.079135188709
 30
0.0
 10
2345.846268610039
 20
1002.312461291599
 30
0.0
 10
2345.605114381846
 20
1002.526867311992
 30
0.0
  0
SPLINE
  5
87D
330
7D1
100
AcDbEntity
  8
0
  6
Continuous
 62
     7
370
    15
100
AcDbSpline
210
0.0
220
0.0
230
1.0
 70
     8
 71
     3
 72
     8
 73
     4
 74
     0
 42
0.0000000001
 43
0.0000000001
 40
0.0
 40
0.0
 40
0.0
 40
0.0
 40
1.0
 40
1.0
 40
1.0
 40
1.0
 10
2295.457846350441
 20
1068.052536000051
 30
0.0
 10
2295.394576314193
 20
1068.036853197082
 30
0.0
 10
2295.335044497383
 20
1068.012973210039
 30
0.0
 10
2295.280057598143
 20
1067.981219629598
 30
0.0
  0
LINE
  5
87E
330
7D1
100
AcDbEntity
  8
0
  6
Continuous
 62
     7
370
    15
100
AcDbLine
 10
2300.407593349525
 20
1070.909964001691
 30
0.0
 11
2295.457846057709
 21
1068.052535712197
 31
0.0
  0
SPLINE
  5
87F
330
7D1
100
AcDbEntity
  8
0
  6
Continuous
 62
     7
370
    15
100
AcDbSpline
210
0.0
220
0.0
230
1.0
 70
     8
 71
     3
 72
     8
 73
     4
 74
     0
 42
0.0000000001
 43
0.0000000001
 40
0.0
 40
0.0
 40
0.0
 40
0.0
 40
1.0
 40
1.0
 40
1.0
 40
1.0
 10
2300.229805066448
 20
1070.838648020977
 30
0.0
 10
2300.284791965688
 20
1070.870401601418
 30
0.0
 10
2300.344323782498
 20
1070.894281588462
 30
0.0
 10
2300.407593818746
 20
1070.909964391431
 30
0.0
  0
LINE
  5
880
330
7D1
100
AcDbEntity
  8
0
  6
Continuous
 62
     7
370
    15
100
AcDbLine
 10
2300.229804771616
 20
1070.838647839481
 30
0.0
 11
2306.16950218034
 21
1074.267562167044
 31
0.0
  0
LINE
  5
881
330
7D1
100
AcDbEntity
  8
0
  6
Continuous
 62
     7
370
    15
100
AcDbLine
 10
2295.2800574798
 20
1067.981219549987
 30
0.0
 11
2289.340360606145
 21
1064.552305531313
 31
0.0
  0
SPLINE
  5
882
330
7D1
100
AcDbEntity
  8
0
  6
Continuous
 62
     7
370
    15
100
AcDbSpline
210
0.0
220
0.0
230
1.0
 70
     8
 71
     3
 72
    10
 73
     6
 74
     0
 42
0.0000000001
 43
0.0000000001
 40
0.0
 40
0.0
 40
0.0
 40
0.0
 40
0.5
 40
0.5
 40
1.0
 40
1.0
 40
1.0
 40
1.0
 10
2307.169502028415
 20
1074.168592911918
 30
0.0
 10
2306.984381905992
 20
1074.275460483853
 30
0.0
 10
2306.799334620431
 20
1074.339781264513
 30
0.0
 10
2306.457277236106
 20
1074.373634402913
 30
0.0
 10
2306.300401722314
 20
1074.343153440888
 30
0.0
 10
2306.169502028415
 20
1074.267562090633
 30
0.0
  0
ARC
  5
883
330
7D1
100
AcDbEntity
  8
0
  6
Continuous
 62
     7
370
    15
100
AcDbCircle
 10
2343.339637316329
 20
1000.005824645154
 30
0.0
 40
3.389402061410749
100
AcDbArc
 50
48.05627246702467
 51
59.65184654881245
  0
LINE
  5
884
330
7D1
100
AcDbEntity
  8
0
  6
Continuous
 62
     7
370
    15
100
AcDbLine
 10
2342.357222268258
 20
1004.486525783033
 30
0.0
 11
2345.052143128516
 21
1002.930781085363
 31
0.0
  0
LINE
  5
885
330
7D1
100
AcDbEntity
  8
0
  6
Continuous
 62
     7
370
    15
100
AcDbLine
 10
2308.376387559533
 20
1064.48030217831
 30
0.0
 11
2308.376387559533
 21
1063.300845527014
 31
0.0
  0
LINE
  5
886
330
7D1
100
AcDbEntity
  8
0
  6
Continuous
 62
     7
370
    15
100
AcDbLine
 10
2305.588000135802
 20
1064.911620235823
 30
0.0
 11
2305.588000135802
 21
1062.964581239735
 31
0.0
  0
ARC
  5
887
330
7D1
100
AcDbEntity
  8
0
  6
Continuous
 62
     7
370
    15
100
AcDbCircle
 10
2346.409502733234
 20
990.4231504919136
 30
0.0
 40
1.753497867021932
100
AcDbArc
 50
305.7680617874593
 51
3.919505522018712
  0
ARC
  5
888
330
7D1
100
AcDbEntity
  8
0
  6
Continuous
 62
     7
370
    15
100
AcDbCircle
 10
2340.550820147744
 20
979.2337110736404
 30
0.0
 40
0.2543787272404047
100
AcDbArc
 50
306.0605851905646
 51
5.251849699922782
  0
LINE
  5
889
330
7D1
100
AcDbEntity
  8
0
  6
Continuous
 62
     7
370
    15
100
AcDbLine
 10
2338.897416120685
 20
974.6419481375614
 30
0.0
 11
2338.897416120685
 21
977.091572495669
 31
0.0
  0
LINE
  5
88A
330
7D1
100
AcDbEntity
  8
0
  6
Continuous
 62
     7
370
    15
100
AcDbLine
 10
2341.018736482684
 20
978.3161846740476
 30
0.0
 11
2338.897416120685
 21
977.091572495669
 31
0.0
  0
LINE
  5
88B
330
7D1
100
AcDbEntity
  8
0
  6
Continuous
 62
     7
370
    15
100
AcDbLine
 10
2341.018736482684
 20
979.2960319838094
 30
0.0
 11
2341.018736482684
 21
978.3161846740476
 31
0.0
  0
LINE
  5
88C
330
7D1
100
AcDbEntity
  8
0
  6
Continuous
 62
     7
370
    15
100
AcDbLine
 10
2341.018736482684
 20
979.2960319838094
 30
0.0
 11
2348.089804795043
 21
983.3780728318519
 31
0.0
  0
LINE
  5
88D
330
7D1
100
AcDbEntity
  8
0
  6
Continuous
 62
     7
370
    15
100
AcDbLine
 10
2348.089804795043
 20
982.3982255220903
 30
0.0
 11
2348.089804795043
 21
983.3780728318519
 31
0.0
  0
LINE
  5
88E
330
7D1
100
AcDbEntity
  8
0
  6
Continuous
 62
     7
370
    15
100
AcDbLine
 10
2350.211124169225
 20
983.6228371302144
 30
0.0
 11
2348.089804795043
 21
982.3982255220903
 31
0.0
  0
LINE
  5
88F
330
7D1
100
AcDbEntity
  8
0
  6
Continuous
 62
     7
370
    15
100
AcDbLine
 10
2350.211124169225
 20
981.1732127721072
 30
0.0
 11
2350.211124169225
 21
983.6228371302144
 31
0.0
  0
LINE
  5
890
330
7D1
100
AcDbEntity
  8
0
  6
Continuous
 62
     7
370
    15
100
AcDbLine
 10
2348.089804795043
 20
979.9486011639826
 30
0.0
 11
2350.211124169225
 21
981.1732127721072
 31
0.0
  0
LINE
  5
891
330
7D1
100
AcDbEntity
  8
0
  6
Continuous
 62
     7
370
    15
100
AcDbLine
 10
2348.089804795043
 20
979.9486011639826
 30
0.0
 11
2348.089804795043
 21
979.1320617391814
 31
0.0
  0
LINE
  5
892
330
7D1
100
AcDbEntity
  8
0
  6
Continuous
 62
     7
370
    15
100
AcDbLine
 10
2341.018736482684
 20
975.0500208911388
 30
0.0
 11
2348.089804795043
 21
979.1320617391814
 31
0.0
  0
LINE
  5
893
330
7D1
100
AcDbEntity
  8
0
  6
Continuous
 62
     7
370
    15
100
AcDbLine
 10
2341.018736482684
 20
975.0500208911388
 30
0.0
 11
2341.018736482684
 21
975.8665603159403
 31
0.0
  0
LINE
  5
894
330
7D1
100
AcDbEntity
  8
0
  6
Continuous
 62
     7
370
    15
100
AcDbLine
 10
2338.897416120685
 20
974.6419481375614
 30
0.0
 11
2341.018736482684
 21
975.8665603159403
 31
0.0
  0
ARC
  5
895
330
7D1
100
AcDbEntity
  8
0
  6
Continuous
 62
     7
370
    15
100
AcDbCircle
 10
2338.124704965757
 20
977.0551527155689
 30
0.0
 40
0.7735689557702076
100
AcDbArc
 50
2.698494196563121
 51
43.55931593725677
  0
ARC
  5
896
330
7D1
100
AcDbEntity
  8
0
  6
Continuous
 62
     7
370
    15
100
AcDbCircle
 10
2338.685229072857
 20
974.605518714088
 30
0.0
 40
0.2152915375963684
100
AcDbArc
 50
270.0136851441591
 51
9.74187442038216
  0
ARC
  5
897
330
7D1
100
AcDbEntity
  8
0
  6
Continuous
 62
     7
370
    15
100
AcDbCircle
 10
2340.251119185878
 20
978.2812497370052
 30
0.0
 40
0.768411845419744
100
AcDbArc
 50
2.605783148810294
 51
57.39421699682857
  0
LINE
  5
898
330
7D1
100
AcDbEntity
  8
0
  6
Continuous
 62
     7
370
    15
100
AcDbLine
 10
2295.285324848048
 20
1067.98333242505
 30
0.0
 11
2300.229804771616
 21
1070.838647839481
 31
0.0
  0
LINE
  5
899
330
7D1
100
AcDbEntity
  8
0
  6
Continuous
 62
     7
370
    15
100
AcDbLine
 10
2349.848492684637
 20
984.2404507974807
 30
0.0
 11
2349.848492684637
 21
984.3090658432284
 31
0.0
  0
LINE
  5
89A
330
7D1
100
AcDbEntity
  8
0
  6
Continuous
 62
     7
370
    15
100
AcDbLine
 10
2349.857570062135
 20
984.2352108051214
 30
0.0
 11
2349.789065628237
 21
984.2747575730342
 31
0.0
  0
LINE
  5
89B
330
7D1
100
AcDbEntity
  8
0
  6
Continuous
 62
     7
370
    15
100
AcDbLine
 10
2340.665182375594
 20
978.9285583489546
 30
0.0
 11
2340.596677941695
 21
978.9681051168674
 31
0.0
  0
LINE
  5
89C
330
7D1
100
AcDbEntity
  8
0
  6
Continuous
 62
     7
370
    15
100
AcDbLine
 10
2340.804129998422
 20
979.6648850184736
 30
0.0
 11
2340.806603491595
 21
979.6634571012596
 31
0.0
  0
ARC
  5
89D
330
7D1
100
AcDbEntity
  8
0
  6
Continuous
 62
     7
370
    15
100
AcDbCircle
 10
2340.558163491491
 20
979.2750701212421
 30
0.0
 40
0.4610497585925712
100
AcDbArc
 50
2.605880156990669
 51
57.39411998863892
  0
LINE
  5
89E
330
7D1
100
AcDbEntity
  8
0
  6
Continuous
 62
     7
370
    15
100
AcDbLine
 10
2340.806603491595
 20
979.6634571012596
 30
0.0
 11
2347.877671803954
 21
983.7454979493021
 31
0.0
  0
ARC
  5
89F
330
7D1
100
AcDbEntity
  8
0
  6
Continuous
 62
     7
370
    15
100
AcDbCircle
 10
2347.62923180385
 20
983.3571109692844
 30
0.0
 40
0.4610497585926006
100
AcDbArc
 50
2.605880157003683
 51
57.39411998864243
  0
LINE
  5
8A0
330
7D1
100
AcDbEntity
  8
0
  6
Continuous
 62
     7
370
    15
100
AcDbLine
 10
2347.877671803954
 20
983.7454979493021
 30
0.0
 11
2346.743629185249
 21
984.4001668180615
 31
0.0
  0
ARC
  5
8A1
330
7D1
100
AcDbEntity
  8
0
  6
Continuous
 62
     7
370
    15
100
AcDbCircle
 10
2340.792064624717
 20
975.8312288721699
 30
0.0
 40
0.2294088971964065
100
AcDbArc
 50
302.4510532048027
 51
8.859429398523049
  0
ARC
  5
8A2
330
7D1
100
AcDbEntity
  8
0
  6
Continuous
 62
     7
370
    15
100
AcDbCircle
 10
2340.031127661768
 20
974.8098781264873
 30
0.0
 40
0.7738172967367594
100
AcDbArc
 50
2.628217448128418
 51
50.80623409426657
  0
ARC
  5
8A3
330
7D1
100
AcDbEntity
  8
0
  6
Continuous
 62
     7
370
    15
100
AcDbCircle
 10
2346.656024613859
 20
984.2802472496254
 30
0.0
 40
0.1485101472030826
100
AcDbArc
 50
53.85083525293678
 51
114.8382561942317
  0
ARC
  5
8A4
330
7D1
100
AcDbEntity
  8
0
  6
Continuous
 62
     7
370
    15
100
AcDbCircle
 10
2352.47043143406
 20
978.2231600578354
 30
0.0
 40
0.500937072581314
100
AcDbArc
 50
305.5509259480122
 51
5.760818735065864
  0
ARC
  5
8A5
330
7D1
100
AcDbEntity
  8
0
  6
Continuous
 62
     7
370
    15
100
AcDbCircle
 10
2340.806743773621
 20
975.0135777819618
 30
0.0
 40
0.2151023219353243
100
AcDbArc
 50
269.3037640327278
 51
9.754226406731396
  0
ARC
  5
8A6
330
7D1
100
AcDbEntity
  8
0
  6
Continuous
 62
     7
370
    15
100
AcDbCircle
 10
2347.851957187921
 20
979.1017842139895
 30
0.0
 40
0.2397669967812557
100
AcDbArc
 50
304.0564348090407
 51
7.254619665760621
  0
ARC
  5
8A7
330
7D1
100
AcDbEntity
  8
0
  6
Continuous
 62
     7
370
    15
100
AcDbCircle
 10
2347.522722073028
 20
978.3168226676131
 30
0.0
 40
0.7827019301749355
100
AcDbArc
 50
2.924418842147208
 51
50.96021735453685
  0
LINE
  5
8A8
330
7D1
100
AcDbEntity
  8
0
  6
Continuous
 62
     7
370
    15
100
AcDbLine
 10
2342.827008163918
 20
986.3405736429884
 30
0.0
 11
2346.378085616847
 21
984.2905802647482
 31
0.0
  0
ARC
  5
8A9
330
7D1
100
AcDbEntity
  8
0
  6
Continuous
 62
     7
370
    15
100
AcDbCircle
 10
2348.09241495224
 20
983.5503655795186
 30
0.0
 40
0.2150998170127871
100
AcDbArc
 50
269.3043688599222
 51
9.755010491499399
  0
ARC
  5
8AA
330
7D1
100
AcDbEntity
  8
0
  6
Continuous
 62
     7
370
    15
100
AcDbCircle
 10
2350.169943687881
 20
984.786712894148
 30
0.0
 40
0.254378727012401
100
AcDbArc
 50
306.060585161432
 51
5.251849729095526
  0
ARC
  5
8AB
330
7D1
100
AcDbEntity
  8
0
  6
Continuous
 62
     7
370
    15
100
AcDbCircle
 10
2349.44350687242
 20
983.5879021931724
 30
0.0
 40
0.7684118454192356
100
AcDbArc
 50
2.605783148784266
 51
57.39421699683208
  0
ARC
  5
8AC
330
7D1
100
AcDbEntity
  8
0
  6
Continuous
 62
     7
370
    15
100
AcDbCircle
 10
2349.641340428626
 20
980.3583421241338
 30
0.0
 40
0.7829376419951612
100
AcDbArc
 50
2.930047961400002
 51
50.80305962910928
  0
ARC
  5
8AD
330
7D1
100
AcDbEntity
  8
0
  6
Continuous
 62
     7
370
    15
100
AcDbCircle
 10
2349.984452311259
 20
981.1378813283365
 30
0.0
 40
0.2294088971960638
100
AcDbArc
 50
302.4510532047957
 51
8.859429398591425
  0
ARC
  5
8AE
330
7D1
100
AcDbEntity
  8
0
  6
Continuous
 62
     7
370
    15
100
AcDbCircle
 10
2347.531503970549
 20
979.138752688458
 30
0.0
 40
0.7737585432400924
100
AcDbArc
 50
2.698193545113875
 51
43.81803841353169
  0
LINE
  5
8AF
330
7D1
100
AcDbEntity
  8
0
  6
Continuous
 62
     7
370
    15
100
AcDbLine
 10
2301.278648194601
 20
991.3524650275901
 30
0.0
 11
2301.359570143742
 21
991.4123575525051
 31
0.0
  0
ARC
  5
8B0
330
7D1
100
AcDbEntity
  8
0
  6
Continuous
 62
     7
370
    15
100
AcDbCircle
 10
2301.157323199033
 20
991.5615126833555
 30
0.0
 40
0.2417036965593185
100
AcDbArc
 50
233.4697248731456
 51
300.1295952536368
  0
LINE
  5
8B1
330
7D1
100
AcDbEntity
  8
0
  6
Continuous
 62
     7
370
    15
100
AcDbLine
 10
2300.928631130064
 20
991.416258215089
 30
0.0
 11
2301.013449687058
 21
991.3672935043791
 31
0.0
  0
LINE
  5
8B2
330
7D1
100
AcDbEntity
  8
0
  6
Continuous
 62
     8
370
    15
100
AcDbLine
 10
2340.231057323586
 20
1047.473910479839
 30
0.0
 11
2335.66796686637
 21
1044.839694429754
 31
0.0
  0
LINE
  5
8B3
330
7D1
100
AcDbEntity
  8
0
  6
Continuous
 62
     8
370
    15
100
AcDbLine
 10
2345.150664021089
 20
1038.722405449193
 30
0.0
 11
2340.700957147445
 21
1036.153644348657
 31
0.0
  0
LINE
  5
8B4
330
7D1
100
AcDbEntity
  8
0
  6
Continuous
 62
     8
370
    15
100
AcDbLine
 10
2339.963843011305
 20
1037.430363479683
 30
0.0
 11
2344.413549884947
 21
1039.99912458022
 31
0.0
  0
LINE
  5
8B5
330
7D1
100
AcDbEntity
  8
0
  6
Continuous
 62
     8
370
    15
100
AcDbLine
 10
2343.573755489121
 20
1041.453692658358
 30
0.0
 11
2339.124048615479
 21
1038.884931557822
 31
0.0
  0
LINE
  5
8B6
330
7D1
100
AcDbEntity
  8
0
  6
Continuous
 62
     8
370
    15
100
AcDbLine
 10
2338.386934479338
 20
1040.161649167923
 30
0.0
 11
2342.83664135298
 21
1042.730410268459
 31
0.0
  0
LINE
  5
8B7
330
7D1
100
AcDbEntity
  8
0
  6
Continuous
 62
     8
370
    15
100
AcDbLine
 10
2341.996846957155
 20
1044.184978346598
 30
0.0
 11
2337.547140083512
 21
1041.616217246062
 31
0.0
  0
LINE
  5
8B8
330
7D1
100
AcDbEntity
  8
0
  6
Continuous
 62
     8
370
    15
100
AcDbLine
 10
2336.81002594737
 20
1042.892936377088
 30
0.0
 11
2341.259732821013
 21
1045.461697477625
 31
0.0
  0
LINE
  5
8B9
330
7D1
100
AcDbEntity
  8
0
  6
Continuous
 62
     8
370
    15
100
AcDbLine
 10
2341.724304361259
 20
1034.368851696109
 30
0.0
 11
2346.179339518515
 21
1036.940688749303
 31
0.0
  0
LINE
  5
8BA
330
7D1
100
AcDbEntity
  8
0
  6
Continuous
 62
     8
370
    15
100
AcDbLine
 10
2340.231057323586
 20
1047.243414177515
 30
0.0
 11
2335.776028751774
 21
1044.671580926018
 31
0.0
  0
LINE
  5
8BB
330
7D1
100
AcDbEntity
  8
0
  6
Continuous
 62
     8
370
    15
100
AcDbLine
 10
2341.540751543271
 20
1034.699077791444
 30
0.0
 11
2345.990458416914
 21
1037.26783889198
 31
0.0
  0
LINE
  5
8BC
330
7D1
100
AcDbEntity
  8
0
  6
Continuous
 62
     8
370
    15
100
AcDbLine
 10
2340.419935791009
 20
1046.916265555516
 30
0.0
 11
2335.970228917366
 21
1044.34750445498
 31
0.0
  0
LINE
  5
8BD
330
7D1
100
AcDbEntity
  8
0
  6
Continuous
 62
     8
370
    15
100
AcDbLine
 10
2345.79530270324
 20
1037.385417040482
 30
0.0
 11
2341.441053173119
 21
1034.871762291388
 31
0.0
  0
LINE
  5
8BE
330
7D1
100
AcDbEntity
  8
0
  6
Continuous
 62
     8
370
    15
100
AcDbLine
 10
2344.218394171273
 20
1040.116702728721
 30
0.0
 11
2339.864144641152
 21
1037.603047979628
 31
0.0
  0
LINE
  5
8BF
330
7D1
100
AcDbEntity
  8
0
  6
Continuous
 62
     8
370
    15
100
AcDbLine
 10
2342.641485639306
 20
1042.847989937887
 30
0.0
 11
2338.287236109185
 21
1040.334335188793
 31
0.0
  0
LINE
  5
8C0
330
7D1
100
AcDbEntity
  8
0
  6
Continuous
 62
     8
370
    15
100
AcDbLine
 10
2341.06457710734
 20
1045.579275626126
 30
0.0
 11
2336.710327577218
 21
1043.065620877033
 31
0.0
  0
LINE
  5
8C1
330
7D1
100
AcDbEntity
  8
0
  6
Continuous
 62
     8
370
    15
100
AcDbLine
 10
2340.800673956844
 20
1035.980933147757
 30
0.0
 11
2345.154923486966
 21
1038.494587896851
 31
0.0
  0
LINE
  5
8C2
330
7D1
100
AcDbEntity
  8
0
  6
Continuous
 62
     8
370
    15
100
AcDbLine
 10
2339.223762790699
 20
1038.712220356676
 30
0.0
 11
2343.578012320821
 21
1041.225875105769
 31
0.0
  0
LINE
  5
8C3
330
7D1
100
AcDbEntity
  8
0
  6
Continuous
 62
     8
370
    15
100
AcDbLine
 10
2337.646854258732
 20
1041.443507565841
 30
0.0
 11
2342.001103788854
 21
1043.957162314935
 31
0.0
  0
LINE
  5
8C4
330
7D1
100
AcDbEntity
  8
0
  6
Continuous
 62
     8
370
    15
100
AcDbLine
 10
2336.069945726766
 20
1044.174793254081
 30
0.0
 11
2340.424195256888
 21
1046.688448003174
 31
0.0
  0
LINE
  5
8C5
330
7D1
100
AcDbEntity
  8
0
  6
Continuous
 62
     8
370
    15
100
AcDbLine
 10
2348.903419412498
 20
999.8836863527616
 30
0.0
 11
2348.903419412498
 21
1016.726057247275
 31
0.0
  0
LINE
  5
8C6
330
7D1
100
AcDbEntity
  8
0
  6
Continuous
 62
     8
370
    15
100
AcDbLine
 10
2337.165001522781
 20
996.5298038686585
 30
0.0
 11
2346.331750425265
 21
1001.821655369836
 31
0.0
  0
LINE
  5
8C7
330
7D1
100
AcDbEntity
  8
0
  6
Continuous
 62
     8
370
    15
100
AcDbLine
 10
2337.165001358145
 20
990.6725180469258
 30
0.0
 11
2350.663138582792
 21
998.4648268027594
 31
0.0
  0
LINE
  5
8C8
330
7D1
100
AcDbEntity
  8
0
  6
Continuous
 62
     8
370
    15
100
AcDbLine
 10
2348.160068859867
 20
1016.296930057162
 30
0.0
 11
2348.160068859867
 21
1000.3301454891
 31
0.0
  0
LINE
  5
8C9
330
7D1
100
AcDbEntity
  8
0
  6
Continuous
 62
     8
370
    15
100
AcDbLine
 10
2345.605115049335
 20
1002.526867480004
 30
0.0
 11
2345.605115049335
 21
1014.821986637681
 31
0.0
  0
LINE
  5
8CA
330
7D1
100
AcDbEntity
  8
0
  6
Continuous
 62
     8
370
    15
100
AcDbLine
 10
2337.165001193509
 20
998.3776309628087
 30
0.0
 11
2345.052143128516
 21
1002.930781085363
 31
0.0
  0
LINE
  5
8CB
330
7D1
100
AcDbEntity
  8
0
  6
Continuous
 62
     8
370
    15
100
AcDbLine
 10
2338.685281812507
 20
977.7855860827328
 30
0.0
 11
2340.665182375594
 21
978.9285583489546
 31
0.0
  0
LINE
  5
8CC
330
7D1
100
AcDbEntity
  8
0
  6
Continuous
 62
     8
370
    15
100
AcDbLine
 10
2348.089803477954
 20
983.214700878238
 30
0.0
 11
2349.857570062135
 21
984.2352108051214
 31
0.0
  0
LINE
  5
8CD
330
7D1
100
AcDbEntity
  8
0
  6
Continuous
 62
     8
370
    15
100
AcDbLine
 10
2340.949086839886
 20
981.0550487249241
 30
0.0
 11
2346.743629185249
 21
984.4001668180615
 31
0.0
  0
LINE
  5
8CE
330
7D1
100
AcDbEntity
  8
0
  6
Continuous
 62
     8
370
    15
100
AcDbLine
 10
2343.812589825831
 20
986.9095370600799
 30
0.0
 11
2348.159447193851
 21
984.4001497153335
 31
0.0
  0
LINE
  5
8CF
330
7D1
100
AcDbEntity
  8
0
  6
Continuous
 62
     8
370
    15
100
AcDbLine
 10
2297.072052451498
 20
989.5281637156577
 30
0.0
 11
2300.847748693593
 21
991.7078267607866
 31
0.0
  0
LINE
  5
8D0
330
7D1
100
AcDbEntity
  8
0
  6
Continuous
 62
     8
370
    15
100
AcDbLine
 10
2301.278648194601
 20
991.3524650275901
 30
0.0
 11
2301.37098337861
 21
991.4057689947114
 31
0.0
  0
ENDBLK
  5
7D3
330
7D1
100
AcDbEntity
  8
0
100
AcDbBlockEnd
  0
ENDSEC
  0
SECTION
  2
ENTITIES
  0
INSERT
  5
69C
330
1F
100
AcDbEntity
  8
0
100
AcDbBlockReference
  2
1
 10
0.0
 20
0.0
 30
0.0
  0
INSERT
  5
74C
330
1F
100
AcDbEntity
  8
0
100
AcDbBlockReference
  2
2
 10
0.0
 20
0.0
 30
0.0
  0
INSERT
  5
7D0
330
1F
100
AcDbEntity
  8
0
100
AcDbBlockReference
  2
3
 10
0.0
 20
0.0
 30
0.0
  0
INSERT
  5
8D1
330
1F
100
AcDbEntity
  8
0
100
AcDbBlockReference
  2
4
 10
0.0
 20
0.0
 30
0.0
  0
ENDSEC
  0
SECTION
  2
OBJECTS
  0
DICTIONARY
  5
C
330
0
100
AcDbDictionary
281
     1
  3
ACAD_COLOR
350
6B
  3
ACAD_GROUP
350
D
  3
ACAD_LAYOUT
350
1A
  3
ACAD_MATERIAL
350
6A
  3
ACAD_MLEADERSTYLE
350
12D
  3
ACAD_MLINESTYLE
350
17
  3
ACAD_PLOTSETTINGS
350
19
  3
ACAD_PLOTSTYLENAME
350
E
  3
ACAD_SCALELIST
350
10C
  3
ACAD_TABLESTYLE
350
7E
  3
ACAD_VISUALSTYLE
350
EF
  3
ACDB_RECOMPOSE_DATA
350
15D
  3
AcDbVariableDictionary
350
5E
  3
DWGPROPS
350
A74
  0
DICTIONARY
  5
13C
330
10
100
AcDbDictionary
280
     1
281
     1
  3
ADSK_XREC_LAYER_RECONCILED
360
8D2
  0
DICTIONARY
  5
9D3
330
69D
100
AcDbDictionary
280
     1
281
     1
  0
DICTIONARY
  5
A64
330
74D
100
AcDbDictionary
280
     1
281
     1
  0
DICTIONARY
  5
6B
102
{ACAD_REACTORS
330
C
102
}
330
C
100
AcDbDictionary
281
     1
  0
DICTIONARY
  5
D
102
{ACAD_REACTORS
330
C
102
}
330
C
100
AcDbDictionary
281
     1
  0
DICTIONARY
  5
1A
102
{ACAD_REACTORS
330
C
102
}
330
C
100
AcDbDictionary
281
     1
  3
Layout1
350
D3
  3
Layout2
350
D7
  3
Model
350
22
  0
DICTIONARY
  5
6A
102
{ACAD_REACTORS
330
C
102
}
330
C
100
AcDbDictionary
281
     1
  3
ByBlock
350
ED
  3
ByLayer
350
EC
  3
Global
350
EE
  0
DICTIONARY
  5
12D
102
{ACAD_REACTORS
330
C
102
}
330
C
100
AcDbDictionary
281
     1
  3
Annotative
350
13B
  3
Standard
350
12E
  0
DICTIONARY
  5
17
102
{ACAD_REACTORS
330
C
102
}
330
C
100
AcDbDictionary
281
     1
  3
Standard
350
18
  0
DICTIONARY
  5
19
102
{ACAD_REACTORS
330
C
102
}
330
C
100
AcDbDictionary
281
     1
  0
ACDBDICTIONARYWDFLT
  5
E
102
{ACAD_REACTORS
330
C
102
}
330
C
100
AcDbDictionary
281
     1
  3
Normal
350
F
100
AcDbDictionaryWithDefault
340
F
  0
DICTIONARY
  5
10C
102
{ACAD_REACTORS
330
C
102
}
330
C
100
AcDbDictionary
281
     1
  3
A0
350
10D
  3
A1
350
188
  3
A2
350
189
  3
A3
350
18A
  3
A4
350
18B
  3
A5
350
18C
  3
A6
350
18D
  3
A7
350
18E
  3
A8
350
18F
  3
A9
350
190
  3
B0
350
191
  3
B1
350
192
  3
B2
350
193
  3
B3
350
194
  3
B4
350
195
  3
B5
350
196
  3
B6
350
197
  3
B7
350
198
  3
B8
350
199
  3
B9
350
19A
  3
C0
350
19B
  3
C1
350
19C
  3
C2
350
19D
  3
C3
350
19E
  3
C4
350
19F
  3
C5
350
1A0
  3
C6
350
1A1
  3
C7
350
1A2
  3
C8
350
1A3
  3
C9
350
1A4
  3
D0
350
1A5
  3
D1
350
1A6
  3
D2
350
1A7
  0
DICTIONARY
  5
7E
102
{ACAD_REACTORS
330
C
102
}
330
C
100
AcDbDictionary
281
     1
  3
Standard
350
7F
  0
DICTIONARY
  5
EF
102
{ACAD_REACTORS
330
C
102
}
330
C
100
AcDbDictionary
281
     1
  3
2dWireframe
350
F5
  3
3D Hidden
350
F7
  3
3dWireframe
350
F6
  3
Basic
350
F4
  3
Brighten
350
FB
  3
ColorChange
350
FF
  3
Conceptual
350
F8
  3
Dim
350
FA
  3
Facepattern
350
FE
  3
Flat
350
F0
  3
FlatWithEdges
350
F1
  3
Gouraud
350
F2
  3
GouraudWithEdges
350
F3
  3
Linepattern
350
FD
  3
Realistic
350
F9
  3
Thicken
350
FC
  0
XRECORD
  5
15D
102
{ACAD_REACTORS
330
C
102
}
330
C
100
AcDbXrecord
280
     1
 90
        1
330
7F
  0
DICTIONARY
  5
5E
102
{ACAD_REACTORS
330
C
102
}
330
C
100
AcDbDictionary
281
     1
  3
CANNOSCALE
350
146
  3
CMLEADERSTYLE
350
145
  3
CTABLESTYLE
350
84
  3
DIMASSOC
350
5F
  3
HIDETEXT
350
63
  3
INDEXCTL
350
A70
  3
LIGHTINGUNITS
350
A6E
  3
MSLTSCALE
350
A6D
  3
PSOLHEIGHT
350
A72
  3
PSOLWIDTH
350
A71
  3
SORTENTS
350
A6F
  0
XRECORD
  5
A74
102
{ACAD_REACTORS
330
C
102
}
330
C
100
AcDbXrecord
280
     1
  1
DWGPROPS COOKIE
  2

  3

  4

  6

  7

  8
orhan kara
  9

300
=
301
=
302
=
303
=
304
=
305
=
306
=
307
=
308
=
309
=
 40
0.0025517939814815
 41
2458927.571932813
 42
2458956.397492303
  1

 90
        0
  0
XRECORD
  5
8D2
102
{ACAD_REACTORS
330
13C
102
}
330
13C
100
AcDbXrecord
280
     1
290
     1
  0
LAYOUT
  5
D3
102
{ACAD_XDICTIONARY
360
A78
102
}
102
{ACAD_REACTORS
330
1A
102
}
330
1A
100
AcDbPlotSettings
  1

  2
C:\Documents and Settings\basas\Application Data\Autodesk\AutoCAD 2005\R16.1\enu\plotters\Default Windows System Printer.pc3
  4

  6

 40
0.0
 41
0.0
 42
0.0
 43
0.0
 44
0.0
 45
0.0
 46
0.0
 47
0.0
 48
0.0
 49
0.0
140
0.0
141
0.0
142
1.0
143
1.0
 70
   688
 72
     0
 73
     0
 74
     5
  7

 75
    16
147
1.0
148
0.0
149
0.0
100
AcDbLayout
  1
Layout1
 70
     1
 71
     1
 10
0.0
 20
0.0
 11
12.0
 21
9.0
 12
0.0
 22
0.0
 32
0.0
 14
0.0
 24
0.0
 34
0.0
 15
0.0
 25
0.0
 35
0.0
146
0.0
 13
0.0
 23
0.0
 33
0.0
 16
1.0
 26
0.0
 36
0.0
 17
0.0
 27
1.0
 37
0.0
 76
     0
330
D2
  0
LAYOUT
  5
D7
102
{ACAD_XDICTIONARY
360
A7A
102
}
102
{ACAD_REACTORS
330
1A
102
}
330
1A
100
AcDbPlotSettings
  1

  2
C:\Documents and Settings\basas\Application Data\Autodesk\AutoCAD 2005\R16.1\enu\plotters\Default Windows System Printer.pc3
  4

  6

 40
0.0
 41
0.0
 42
0.0
 43
0.0
 44
0.0
 45
0.0
 46
0.0
 47
0.0
 48
0.0
 49
0.0
140
0.0
141
0.0
142
1.0
143
1.0
 70
   688
 72
     0
 73
     0
 74
     5
  7

 75
    16
147
1.0
148
0.0
149
0.0
100
AcDbLayout
  1
Layout2
 70
     1
 71
     2
 10
0.0
 20
0.0
 11
12.0
 21
9.0
 12
0.0
 22
0.0
 32
0.0
 14
0.0
 24
0.0
 34
0.0
 15
0.0
 25
0.0
 35
0.0
146
0.0
 13
0.0
 23
0.0
 33
0.0
 16
1.0
 26
0.0
 36
0.0
 17
0.0
 27
1.0
 37
0.0
 76
     0
330
D6
  0
LAYOUT
  5
22
102
{ACAD_XDICTIONARY
360
A75
102
}
102
{ACAD_REACTORS
330
1A
102
}
330
1A
100
AcDbPlotSettings
  1

  2
none_device
  4
ISO_A4_(210.00_x_297.00_MM)
  6

 40
7.5
 41
20.0
 42
7.5
 43
20.0
 44
210.0
 45
297.0
 46
11.54999923706054
 47
-13.65000009536743
 48
0.0
 49
0.0
140
0.0
141
0.0
142
1.0
143
8.704084754739808
 70
 11952
 72
     1
 73
     0
 74
     0
  7

 75
     0
147
0.1148885871608098
148
0.0
149
0.0
100
AcDbLayout
  1
Model
 70
     1
 71
     0
 10
0.0
 20
0.0
 11
12.0
 21
9.0
 12
0.0
 22
0.0
 32
0.0
 14
0.0
 24
0.0
 34
0.0
 15
0.0
 25
0.0
 35
0.0
146
0.0
 13
0.0
 23
0.0
 33
0.0
 16
1.0
 26
0.0
 36
0.0
 17
0.0
 27
1.0
 37
0.0
 76
     0
330
1F
331
EA
1001
ACAD_PSEXT
1000
None
1000
None
1000
Not applicable
1000
The layout will not be plotted unless a new plotter configuration name is selected.
1070
     0
  0
MATERIAL
  5
ED
102
{ACAD_XDICTIONARY
360
A7E
102
}
102
{ACAD_REACTORS
330
6A
102
}
330
6A
100
AcDbMaterial
  1
ByBlock
  0
MATERIAL
  5
EC
102
{ACAD_XDICTIONARY
360
A7C
102
}
102
{ACAD_REACTORS
330
6A
102
}
330
6A
100
AcDbMaterial
  1
ByLayer
  0
MATERIAL
  5
EE
102
{ACAD_XDICTIONARY
360
173
102
}
102
{ACAD_REACTORS
330
6A
102
}
330
6A
100
AcDbMaterial
  1
Global
 43
0.0007999999797903
 43
0.0
 43
0.0
 43
0.0
 43
0.0
 43
0.0007999999797903
 43
0.0
 43
0.0
 43
0.0
 43
0.0
 43
1.0
 43
0.0
 43
0.0
 43
0.0
 43
0.0
 43
1.0
 49
0.0007999999797903
 49
0.0
 49
0.0
 49
0.0
 49
0.0
 49
0.0007999999797903
 49
0.0
 49
0.0
 49
0.0
 49
0.0
 49
1.0
 49
0.0
 49
0.0
 49
0.0
 49
0.0
 49
1.0
142
0.0007999999797903
142
0.0
142
0.0
142
0.0
142
0.0
142
0.0007999999797903
142
0.0
142
0.0
142
0.0
142
0.0
142
1.0
142
0.0
142
0.0
142
0.0
142
0.0
142
1.0
144
0.0007999999797903
144
0.0
144
0.0
144
0.0
144
0.0
144
0.0007999999797903
144
0.0
144
0.0
144
0.0
144
0.0
144
1.0
144
0.0
144
0.0
144
0.0
144
0.0
144
1.0
1001
ACAD
1070
    -1
1070
     3
1070
     0
1000

1071
        0
1070
     0
  0
MLEADERSTYLE
  5
13B
102
{ACAD_REACTORS
330
12D
102
}
330
12D
100
AcDbMLeaderStyle
170
     2
171
     1
172
     0
 90
        2
 40
0.0
 41
0.0
173
     1
 91
-1056964608
340
14
 92
       -2
290
     1
 42
2.0
291
     1
 43
8.0
  3
Standard
 44
4.0
300

342
11
174
     1
178
     1
175
     1
176
     0
 93
-1056964608
 45
4.0
292
     0
297
     0
 46
4.0
 94
-1056964608
 47
1.0
 49
1.0
140
1.0
293
     1
141
0.0
294
     1
177
     0
142
1.0
295
     0
296
     1
143
3.75
1001
ACAD_MLEADERVER
1070
     2
  0
MLEADERSTYLE
  5
12E
102
{ACAD_REACTORS
330
12D
102
}
330
12D
100
AcDbMLeaderStyle
170
     2
171
     1
172
     0
 90
        2
 40
0.0
 41
0.0
173
     1
 91
-1056964608
340
14
 92
       -2
290
     1
 42
2.0
291
     1
 43
8.0
  3
Standard
 44
4.0
300

342
11
174
     1
178
     1
175
     1
176
     0
 93
-1056964608
 45
4.0
292
     0
297
     0
 46
4.0
 94
-1056964608
 47
1.0
 49
1.0
140
1.0
293
     1
141
0.0
294
     1
177
     0
142
1.0
295
     0
296
     0
143
3.75
1001
ACAD_MLEADERVER
1070
     2
  0
MLINESTYLE
  5
18
102
{ACAD_REACTORS
330
17
102
}
330
17
100
AcDbMlineStyle
  2
STANDARD
 70
     0
  3

 62
   256
 51
90.0
 52
90.0
 71
     2
 49
0.5
 62
   256
  6
BYLAYER
 49
-0.5
 62
   256
  6
BYLAYER
  0
ACDBPLACEHOLDER
  5
F
102
{ACAD_REACTORS
330
E
102
}
330
E
  0
SCALE
  5
10D
102
{ACAD_REACTORS
330
10C
102
}
330
10C
100
AcDbScale
 70
     0
300
1:1
140
1.0
141
1.0
290
     1
  0
SCALE
  5
188
102
{ACAD_REACTORS
330
10C
102
}
330
10C
100
AcDbScale
 70
     0
300
1:2
140
1.0
141
2.0
290
     0
  0
SCALE
  5
189
102
{ACAD_REACTORS
330
10C
102
}
330
10C
100
AcDbScale
 70
     0
300
1:4
140
1.0
141
4.0
290
     0
  0
SCALE
  5
18A
102
{ACAD_REACTORS
330
10C
102
}
330
10C
100
AcDbScale
 70
     0
300
1:5
140
1.0
141
5.0
290
     0
  0
SCALE
  5
18B
102
{ACAD_REACTORS
330
10C
102
}
330
10C
100
AcDbScale
 70
     0
300
1:8
140
1.0
141
8.0
290
     0
  0
SCALE
  5
18C
102
{ACAD_REACTORS
330
10C
102
}
330
10C
100
AcDbScale
 70
     0
300
1:10
140
1.0
141
10.0
290
     0
  0
SCALE
  5
18D
102
{ACAD_REACTORS
330
10C
102
}
330
10C
100
AcDbScale
 70
     0
300
1:16
140
1.0
141
16.0
290
     0
  0
SCALE
  5
18E
102
{ACAD_REACTORS
330
10C
102
}
330
10C
100
AcDbScale
 70
     0
300
1:20
140
1.0
141
20.0
290
     0
  0
SCALE
  5
18F
102
{ACAD_REACTORS
330
10C
102
}
330
10C
100
AcDbScale
 70
     0
300
1:30
140
1.0
141
30.0
290
     0
  0
SCALE
  5
190
102
{ACAD_REACTORS
330
10C
102
}
330
10C
100
AcDbScale
 70
     0
300
1:40
140
1.0
141
40.0
290
     0
  0
SCALE
  5
191
102
{ACAD_REACTORS
330
10C
102
}
330
10C
100
AcDbScale
 70
     0
300
1:50
140
1.0
141
50.0
290
     0
  0
SCALE
  5
192
102
{ACAD_REACTORS
330
10C
102
}
330
10C
100
AcDbScale
 70
     0
300
1:100
140
1.0
141
100.0
290
     0
  0
SCALE
  5
193
102
{ACAD_REACTORS
330
10C
102
}
330
10C
100
AcDbScale
 70
     0
300
2:1
140
2.0
141
1.0
290
     0
  0
SCALE
  5
194
102
{ACAD_REACTORS
330
10C
102
}
330
10C
100
AcDbScale
 70
     0
300
4:1
140
4.0
141
1.0
290
     0
  0
SCALE
  5
195
102
{ACAD_REACTORS
330
10C
102
}
330
10C
100
AcDbScale
 70
     0
300
8:1
140
8.0
141
1.0
290
     0
  0
SCALE
  5
196
102
{ACAD_REACTORS
330
10C
102
}
330
10C
100
AcDbScale
 70
     0
300
10:1
140
10.0
141
1.0
290
     0
  0
SCALE
  5
197
102
{ACAD_REACTORS
330
10C
102
}
330
10C
100
AcDbScale
 70
     0
300
100:1
140
100.0
141
1.0
290
     0
  0
SCALE
  5
198
102
{ACAD_REACTORS
330
10C
102
}
330
10C
100
AcDbScale
 70
     0
300
1/128" = 1'-0"
140
0.0078125
141
12.0
290
     0
  0
SCALE
  5
199
102
{ACAD_REACTORS
330
10C
102
}
330
10C
100
AcDbScale
 70
     0
300
1/64" = 1'-0"
140
0.015625
141
12.0
290
     0
  0
SCALE
  5
19A
102
{ACAD_REACTORS
330
10C
102
}
330
10C
100
AcDbScale
 70
     0
300
1/32" = 1'-0"
140
0.03125
141
12.0
290
     0
  0
SCALE
  5
19B
102
{ACAD_REACTORS
330
10C
102
}
330
10C
100
AcDbScale
 70
     0
300
1/16" = 1'-0"
140
0.0625
141
12.0
290
     0
  0
SCALE
  5
19C
102
{ACAD_REACTORS
330
10C
102
}
330
10C
100
AcDbScale
 70
     0
300
3/32" = 1'-0"
140
0.09375
141
12.0
290
     0
  0
SCALE
  5
19D
102
{ACAD_REACTORS
330
10C
102
}
330
10C
100
AcDbScale
 70
     0
300
1/8" = 1'-0"
140
0.125
141
12.0
290
     0
  0
SCALE
  5
19E
102
{ACAD_REACTORS
330
10C
102
}
330
10C
100
AcDbScale
 70
     0
300
3/16" = 1'-0"
140
0.1875
141
12.0
290
     0
  0
SCALE
  5
19F
102
{ACAD_REACTORS
330
10C
102
}
330
10C
100
AcDbScale
 70
     0
300
1/4" = 1'-0"
140
0.25
141
12.0
290
     0
  0
SCALE
  5
1A0
102
{ACAD_REACTORS
330
10C
102
}
330
10C
100
AcDbScale
 70
     0
300
3/8" = 1'-0"
140
0.375
141
12.0
290
     0
  0
SCALE
  5
1A1
102
{ACAD_REACTORS
330
10C
102
}
330
10C
100
AcDbScale
 70
     0
300
1/2" = 1'-0"
140
0.5
141
12.0
290
     0
  0
SCALE
  5
1A2
102
{ACAD_REACTORS
330
10C
102
}
330
10C
100
AcDbScale
 70
     0
300
3/4" = 1'-0"
140
0.75
141
12.0
290
     0
  0
SCALE
  5
1A3
102
{ACAD_REACTORS
330
10C
102
}
330
10C
100
AcDbScale
 70
     0
300
1" = 1'-0"
140
1.0
141
12.0
290
     0
  0
SCALE
  5
1A4
102
{ACAD_REACTORS
330
10C
102
}
330
10C
100
AcDbScale
 70
     0
300
1-1/2" = 1'-0"
140
1.5
141
12.0
290
     0
  0
SCALE
  5
1A5
102
{ACAD_REACTORS
330
10C
102
}
330
10C
100
AcDbScale
 70
     0
300
3" = 1'-0"
140
3.0
141
12.0
290
     0
  0
SCALE
  5
1A6
102
{ACAD_REACTORS
330
10C
102
}
330
10C
100
AcDbScale
 70
     0
300
6" = 1'-0"
140
6.0
141
12.0
290
     0
  0
SCALE
  5
1A7
102
{ACAD_REACTORS
330
10C
102
}
330
10C
100
AcDbScale
 70
     0
300
1'-0" = 1'-0"
140
12.0
141
12.0
290
     0
  0
TABLESTYLE
  5
7F
102
{ACAD_XDICTIONARY
360
162
102
}
102
{ACAD_REACTORS
330
7E
102
}
330
7E
100
AcDbTableStyle
  3
Standard
 70
     0
 71
     0
 40
1.5
 41
1.5
280
     0
281
     0
  7
Standard
140
4.5
170
     2
 62
     0
 63
     7
283
     0
274
    -2
284
     1
 64
     0
275
    -2
285
     1
 65
     0
276
    -2
286
     1
 66
     0
277
    -2
287
     1
 67
     0
278
    -2
288
     1
 68
     0
279
    -2
289
     1
 69
     0
  7
Standard
140
6.0
170
     5
 62
     0
 63
     7
283
     0
274
    -2
284
     1
 64
     0
275
    -2
285
     1
 65
     0
276
    -2
286
     1
 66
     0
277
    -2
287
     1
 67
     0
278
    -2
288
     1
 68
     0
279
    -2
289
     1
 69
     0
  7
Standard
140
4.5
170
     5
 62
     0
 63
     7
283
     0
274
    -2
284
     1
 64
     0
275
    -2
285
     1
 65
     0
276
    -2
286
     1
 66
     0
277
    -2
287
     1
 67
     0
278
    -2
288
     1
 68
     0
279
    -2
289
     1
 69
     0
  0
VISUALSTYLE
  5
F5
102
{ACAD_REACTORS
330
EF
102
}
330
EF
100
AcDbVisualStyle
  2
2dWireframe
 70
     4
 71
     0
 72
     2
 73
     1
 90
        0
 40
-0.6
 41
-30.0
 62
     5
 63
     7
 74
     1
 91
        4
 64
     7
 65
   257
 75
     1
175
     1
 42
1.0
 92
        0
 66
   257
 43
1.0
 76
     1
 77
     6
 78
     2
 67
     7
 79
     5
170
     0
171
     0
290
     0
174
     0
 93
        1
 44
0.0
173
     0
291
     0
 45
0.0
1001
ACAD
1000
AcDbSavedByObjectVersion
1070
     0
  0
VISUALSTYLE
  5
F7
102
{ACAD_REACTORS
330
EF
102
}
330
EF
100
AcDbVisualStyle
  2
3D Hidden
 70
     6
 71
     1
 72
     2
 73
     2
 90
        0
 40
-0.6
 41
-30.0
 62
     5
 63
     7
 74
     2
 91
        2
 64
     7
 65
   257
 75
     2
175
     1
 42
40.0
 92
        0
 66
   257
 43
1.0
 76
     1
 77
     6
 78
     2
 67
     7
 79
     3
170
     0
171
     0
290
     0
174
     0
 93
        1
 44
0.0
173
     0
291
     0
 45
0.0
1001
ACAD
1000
AcDbSavedByObjectVersion
1070
     0
  0
VISUALSTYLE
  5
F6
102
{ACAD_REACTORS
330
EF
102
}
330
EF
100
AcDbVisualStyle
  2
3dWireframe
 70
     5
 71
     0
 72
     2
 73
     1
 90
        0
 40
-0.6
 41
-30.0
 62
     5
 63
     7
 74
     1
 91
        4
 64
     7
 65
   257
 75
     1
175
     1
 42
1.0
 92
        0
 66
   257
 43
1.0
 76
     1
 77
     6
 78
     2
 67
     7
 79
     5
170
     0
171
     0
290
     0
174
     0
 93
        1
 44
0.0
173
     0
291
     0
 45
0.0
1001
ACAD
1000
AcDbSavedByObjectVersion
1070
     0
  0
VISUALSTYLE
  5
F4
102
{ACAD_REACTORS
330
EF
102
}
330
EF
100
AcDbVisualStyle
  2
Basic
 70
     7
 71
     1
 72
     0
 73
     1
 90
        0
 40
-0.6
 41
-30.0
 62
     5
 63
     7
 74
     0
 91
        4
 64
     7
 65
   257
 75
     1
175
     1
 42
1.0
 92
        8
 66
     7
 43
1.0
 76
     1
 77
     6
 78
     2
 67
     7
 79
     5
170
     0
171
     0
290
     0
174
     0
 93
        1
 44
0.0
173
     0
291
     1
 45
0.0
1001
ACAD
1000
AcDbSavedByObjectVersion
1070
     0
  0
VISUALSTYLE
  5
FB
102
{ACAD_REACTORS
330
EF
102
}
330
EF
100
AcDbVisualStyle
  2
Brighten
 70
    12
 71
     2
 72
     2
 73
     1
 90
        0
 40
-0.6
 41
-30.0
 62
     5
 63
     7
 74
     1
 91
        4
 64
     7
 65
   257
 75
     1
175
     1
 42
1.0
 92
        8
 66
     7
 43
1.0
 76
     1
 77
     6
 78
     2
 67
     7
 79
     5
170
     0
171
     0
290
     0
174
     0
 93
        1
 44
50.0
173
     0
291
     1
 45
0.0
1001
ACAD
1000
AcDbSavedByObjectVersion
1070
     0
  0
VISUALSTYLE
  5
FF
102
{ACAD_REACTORS
330
EF
102
}
330
EF
100
AcDbVisualStyle
  2
ColorChange
 70
    16
 71
     2
 72
     2
 73
     3
 90
        0
 40
-0.6
 41
-30.0
 62
     5
 63
     8
 74
     1
 91
        4
 64
     7
 65
   257
 75
     1
175
     1
 42
1.0
 92
        8
 66
     8
 43
1.0
 76
     1
 77
     6
 78
     2
 67
     7
 79
     5
170
     0
171
     0
290
     0
174
     0
 93
        1
 44
0.0
173
     0
291
     1
 45
0.0
1001
ACAD
1000
AcDbSavedByObjectVersion
1070
     0
  0
VISUALSTYLE
  5
F8
102
{ACAD_REACTORS
330
EF
102
}
330
EF
100
AcDbVisualStyle
  2
Conceptual
 70
     9
 71
     3
 72
     2
 73
     1
 90
        0
 40
-0.6
 41
-30.0
 62
     5
 63
     7
 74
     2
 91
        2
 64
     7
 65
   257
 75
     1
175
     1
 42
40.0
 92
        8
 66
     7
 43
1.0
 76
     1
 77
     6
 78
     2
 67
     7
 79
     3
170
     0
171
     0
290
     0
174
     0
 93
        1
 44
0.0
173
     0
291
     0
 45
0.0
1001
ACAD
1000
AcDbSavedByObjectVersion
1070
     0
  0
VISUALSTYLE
  5
FA
102
{ACAD_REACTORS
330
EF
102
}
330
EF
100
AcDbVisualStyle
  2
Dim
 70
    11
 71
     2
 72
     2
 73
     1
 90
        0
 40
-0.6
 41
-30.0
 62
     5
 63
     7
 74
     1
 91
        4
 64
     7
 65
   257
 75
     1
175
     1
 42
1.0
 92
        8
 66
     7
 43
1.0
 76
     1
 77
     6
 78
     2
 67
     7
 79
     5
170
     0
171
     0
290
     0
174
     0
 93
        1
 44
-50.0
173
     0
291
     1
 45
0.0
1001
ACAD
1000
AcDbSavedByObjectVersion
1070
     0
  0
VISUALSTYLE
  5
FE
102
{ACAD_REACTORS
330
EF
102
}
330
EF
100
AcDbVisualStyle
  2
Facepattern
 70
    15
 71
     2
 72
     2
 73
     1
 90
        0
 40
-0.6
 41
-30.0
 62
     5
 63
     7
 74
     1
 91
        4
 64
     7
 65
   257
 75
     1
175
     1
 42
1.0
 92
        8
 66
     7
 43
1.0
 76
     1
 77
     6
 78
     2
 67
     7
 79
     5
170
     0
171
     0
290
     0
174
     0
 93
        1
 44
0.0
173
     0
291
     1
 45
0.0
1001
ACAD
1000
AcDbSavedByObjectVersion
1070
     0
  0
VISUALSTYLE
  5
F0
102
{ACAD_REACTORS
330
EF
102
}
330
EF
100
AcDbVisualStyle
  2
Flat
 70
     0
 71
     2
 72
     1
 73
     1
 90
        2
 40
-0.6
 41
30.0
 62
     5
 63
     7
 74
     0
 91
        4
 64
     7
 65
   257
 75
     1
175
     1
 42
1.0
 92
        8
 66
     7
 43
1.0
 76
     1
 77
     6
 78
     2
 67
     7
 79
     5
170
     0
171
     0
290
     0
174
     0
 93
        1
 44
0.0
173
     0
291
     1
 45
0.0
1001
ACAD
1000
AcDbSavedByObjectVersion
1070
     0
  0
VISUALSTYLE
  5
F1
102
{ACAD_REACTORS
330
EF
102
}
330
EF
100
AcDbVisualStyle
  2
FlatWithEdges
 70
     1
 71
     2
 72
     1
 73
     1
 90
        2
 40
-0.6
 41
30.0
 62
     5
 63
     7
 74
     1
 91
        4
 64
     7
 65
   257
 75
     1
175
     1
 42
1.0
 92
        0
 66
   257
 43
1.0
 76
     1
 77
     6
 78
     2
 67
     7
 79
     5
170
     0
171
     0
290
     0
174
     0
 93
        1
 44
0.0
173
     0
291
     1
 45
0.0
1001
ACAD
1000
AcDbSavedByObjectVersion
1070
     0
  0
VISUALSTYLE
  5
F2
102
{ACAD_REACTORS
330
EF
102
}
330
EF
100
AcDbVisualStyle
  2
Gouraud
 70
     2
 71
     2
 72
     2
 73
     1
 90
        2
 40
-0.6
 41
30.0
 62
     5
 63
     7
 74
     0
 91
        4
 64
     7
 65
   257
 75
     1
175
     1
 42
1.0
 92
        0
 66
     7
 43
1.0
 76
     1
 77
     6
 78
     2
 67
     7
 79
     5
170
     0
171
     0
290
     0
174
     0
 93
        1
 44
0.0
173
     0
291
     1
 45
0.0
1001
ACAD
1000
AcDbSavedByObjectVersion
1070
     0
  0
VISUALSTYLE
  5
F3
102
{ACAD_REACTORS
330
EF
102
}
330
EF
100
AcDbVisualStyle
  2
GouraudWithEdges
 70
     3
 71
     2
 72
     2
 73
     1
 90
        2
 40
-0.6
 41
30.0
 62
     5
 63
     7
 74
     1
 91
        4
 64
     7
 65
   257
 75
     1
175
     1
 42
1.0
 92
        0
 66
   257
 43
1.0
 76
     1
 77
     6
 78
     2
 67
     7
 79
     5
170
     0
171
     0
290
     0
174
     0
 93
        1
 44
0.0
173
     0
291
     1
 45
0.0
1001
ACAD
1000
AcDbSavedByObjectVersion
1070
     0
  0
VISUALSTYLE
  5
FD
102
{ACAD_REACTORS
330
EF
102
}
330
EF
100
AcDbVisualStyle
  2
Linepattern
 70
    14
 71
     2
 72
     2
 73
     1
 90
        0
 40
-0.6
 41
-30.0
 62
     5
 63
     7
 74
     1
 91
        4
 64
     7
 65
   257
 75
     7
175
     7
 42
1.0
 92
        8
 66
     7
 43
1.0
 76
     1
 77
     6
 78
     2
 67
     7
 79
     5
170
     0
171
     0
290
     0
174
     0
 93
        1
 44
0.0
173
     0
291
     1
 45
0.0
1001
ACAD
1000
AcDbSavedByObjectVersion
1070
     0
  0
VISUALSTYLE
  5
F9
102
{ACAD_REACTORS
330
EF
102
}
330
EF
100
AcDbVisualStyle
  2
Realistic
 70
     8
 71
     2
 72
     2
 73
     1
 90
        0
 40
-0.6
 41
-30.0
 62
     5
 63
     7
 74
     1
 91
        0
 64
     7
 65
   257
 75
     1
175
     1
 42
1.0
 92
        8
 66
     8
 43
1.0
 76
     1
 77
     6
 78
     2
 67
     7
 79
     5
170
     0
171
     0
290
     0
174
     0
 93
       13
 44
0.0
173
     0
291
     0
 45
0.0
1001
ACAD
1000
AcDbSavedByObjectVersion
1070
     0
  0
VISUALSTYLE
  5
FC
102
{ACAD_REACTORS
330
EF
102
}
330
EF
100
AcDbVisualStyle
  2
Thicken
 70
    13
 71
     2
 72
     2
 73
     1
 90
        0
 40
-0.6
 41
-30.0
 62
     5
 63
     7
 74
     1
 91
        4
 64
     7
 65
   257
 75
     1
175
     1
 42
1.0
 92
       12
 66
     7
 43
1.0
 76
     1
 77
     6
 78
     2
 67
     7
 79
     5
170
     0
171
     0
290
     0
174
     0
 93
        1
 44
0.0
173
     0
291
     1
 45
0.0
1001
ACAD
1000
AcDbSavedByObjectVersion
1070
     0
  0
DICTIONARYVAR
  5
146
102
{ACAD_REACTORS
330
5E
102
}
330
5E
100
DictionaryVariables
280
     0
  1
1:1
  0
DICTIONARYVAR
  5
145
102
{ACAD_REACTORS
330
5E
102
}
330
5E
100
DictionaryVariables
280
     0
  1
STANDARD
  0
DICTIONARYVAR
  5
84
102
{ACAD_REACTORS
330
5E
102
}
330
5E
100
DictionaryVariables
280
     0
  1
STANDARD
  0
DICTIONARYVAR
  5
5F
102
{ACAD_REACTORS
330
5E
102
}
330
5E
100
DictionaryVariables
280
     0
  1
2
  0
DICTIONARYVAR
  5
63
102
{ACAD_REACTORS
330
5E
102
}
330
5E
100
DictionaryVariables
280
     0
  1
1
  0
DICTIONARYVAR
  5
A70
102
{ACAD_REACTORS
330
5E
102
}
330
5E
100
DictionaryVariables
280
     0
  1
0
  0
DICTIONARYVAR
  5
A6E
102
{ACAD_REACTORS
330
5E
102
}
330
5E
100
DictionaryVariables
280
     0
  1
2
  0
DICTIONARYVAR
  5
A6D
102
{ACAD_REACTORS
330
5E
102
}
330
5E
100
DictionaryVariables
280
     0
  1
1
  0
DICTIONARYVAR
  5
A72
102
{ACAD_REACTORS
330
5E
102
}
330
5E
100
DictionaryVariables
280
     0
  1
80.000000
  0
DICTIONARYVAR
  5
A71
102
{ACAD_REACTORS
330
5E
102
}
330
5E
100
DictionaryVariables
280
     0
  1
5.000000
  0
DICTIONARYVAR
  5
A6F
102
{ACAD_REACTORS
330
5E
102
}
330
5E
100
DictionaryVariables
280
     0
  1
127
  0
DICTIONARY
  5
A78
330
D3
100
AcDbDictionary
280
     1
281
     1
  3
ACAD_XREC_ROUNDTRIP
360
A79
  0
DICTIONARY
  5
A7A
330
D7
100
AcDbDictionary
280
     1
281
     1
  3
ACAD_XREC_ROUNDTRIP
360
A7B
  0
DICTIONARY
  5
A75
330
22
100
AcDbDictionary
280
     1
281
     1
  3
ACAD_XREC_ROUNDTRIP
360
A76
  0
DICTIONARY
  5
A7E
330
ED
100
AcDbDictionary
280
     1
281
     1
  3
ACAD_XREC_ROUNDTRIP
360
A7F
  0
DICTIONARY
  5
A7C
330
EC
100
AcDbDictionary
280
     1
281
     1
  3
ACAD_XREC_ROUNDTRIP
360
A7D
  0
DICTIONARY
  5
173
330
EE
100
AcDbDictionary
280
     1
281
     1
  3
ACAD_XREC_ROUNDTRIP
360
A80
  3
BUMPTILE
360
175
  3
DIFFUSETILE
360
174
  3
OPACITYTILE
360
176
  3
REFLECTIONTILE
360
177
  0
DICTIONARY
  5
162
330
7F
100
AcDbDictionary
280
     1
281
     1
  3
ACAD_ROUNDTRIP_2008_TABLESTYLE_CELLSTYLEMAP
360
A73
  3
ACAD_XREC_ROUNDTRIP
360
A77
  0
XRECORD
  5
A79
102
{ACAD_REACTORS
330
A78
102
}
330
A78
100
AcDbXrecord
280
     1
102
SHADEPLOT
 70
     0
102
SHADEPLOTRESLEVEL
 70
     2
102
SHADEPLOTCUSTOMDPI
 70
   300
  0
XRECORD
  5
A7B
102
{ACAD_REACTORS
330
A7A
102
}
330
A7A
100
AcDbXrecord
280
     1
102
SHADEPLOT
 70
     0
102
SHADEPLOTRESLEVEL
 70
     2
102
SHADEPLOTCUSTOMDPI
 70
   300
  0
XRECORD
  5
A76
102
{ACAD_REACTORS
330
A75
102
}
330
A75
100
AcDbXrecord
280
     1
102
SHADEPLOT
 70
     0
102
SHADEPLOTRESLEVEL
 70
     2
102
SHADEPLOTCUSTOMDPI
 70
   300
  0
XRECORD
  5
A7F
102
{ACAD_REACTORS
330
A7E
102
}
330
A7E
100
AcDbXrecord
280
     1
102
MATERIAL
148
0.0
149
0.0
149
0.0
 93
        0
 94
       63
282
     0
 72
     1
 77
     1
171
     1
175
     1
179
     1
273
     0
  0
XRECORD
  5
A7D
102
{ACAD_REACTORS
330
A7C
102
}
330
A7C
100
AcDbXrecord
280
     1
102
MATERIAL
148
0.0
149
0.0
149
0.0
 93
        0
 94
       63
282
     0
 72
     1
 77
     1
171
     1
175
     1
179
     1
273
     0
  0
XRECORD
  5
A80
102
{ACAD_REACTORS
330
173
102
}
330
173
100
AcDbXrecord
280
     1
102
MATERIAL
148
0.0
149
0.0
149
0.0
 93
        0
 94
       63
282
     0
 72
     1
 77
     1
171
     1
175
     1
179
     1
273
     0
  0
XRECORD
  5
175
102
{ACAD_REACTORS
330
173
102
}
330
173
100
AcDbXrecord
280
     1
270
     1
271
     1
  0
XRECORD
  5
174
102
{ACAD_REACTORS
330
173
102
}
330
173
100
AcDbXrecord
280
     1
270
     1
271
     1
  0
XRECORD
  5
176
102
{ACAD_REACTORS
330
173
102
}
330
173
100
AcDbXrecord
280
     1
270
     1
271
     1
  0
XRECORD
  5
177
102
{ACAD_REACTORS
330
173
102
}
330
173
100
AcDbXrecord
280
     1
270
     1
271
     1
  0
CELLSTYLEMAP
  5
A73
102
{ACAD_REACTORS
330
162
102
}
330
162
100
AcDbCellStyleMap
 90
        3
300
CELLSTYLE
  1
TABLEFORMAT_BEGIN
 90
        5
170
     1
 91
        0
 92
    32768
 62
   257
 93
        1
300
CONTENTFORMAT
  1
CONTENTFORMAT_BEGIN
 90
        0
 91
        0
 92
      512
 93
        0
300

 40
0.0
140
1.0
 94
        5
 62
     0
340
11
144
6.0
309
CONTENTFORMAT_END
171
     1
301
MARGIN
  1
CELLMARGIN_BEGIN
 40
1.5
 40
1.5
 40
1.5
 40
1.5
 40
4.5
 40
4.5
309
CELLMARGIN_END
 94
        6
 95
        1
302
GRIDFORMAT
  1
GRIDFORMAT_BEGIN
 90
        0
 91
        1
 62
     0
 92
       -2
340
14
 93
        0
 40
1.125
309
GRIDFORMAT_END
 95
        2
302
GRIDFORMAT
  1
GRIDFORMAT_BEGIN
 90
        0
 91
        1
 62
     0
 92
       -2
340
14
 93
        0
 40
1.125
309
GRIDFORMAT_END
 95
        4
302
GRIDFORMAT
  1
GRIDFORMAT_BEGIN
 90
        0
 91
        1
 62
     0
 92
       -2
340
14
 93
        0
 40
1.125
309
GRIDFORMAT_END
 95
        8
302
GRIDFORMAT
  1
GRIDFORMAT_BEGIN
 90
        0
 91
        1
 62
     0
 92
       -2
340
14
 93
        0
 40
1.125
309
GRIDFORMAT_END
 95
       16
302
GRIDFORMAT
  1
GRIDFORMAT_BEGIN
 90
        0
 91
        1
 62
     0
 92
       -2
340
14
 93
        0
 40
1.125
309
GRIDFORMAT_END
 95
       32
302
GRIDFORMAT
  1
GRIDFORMAT_BEGIN
 90
        0
 91
        1
 62
     0
 92
       -2
340
14
 93
        0
 40
1.125
309
GRIDFORMAT_END
309
TABLEFORMAT_END
  1
CELLSTYLE_BEGIN
 90
        1
 91
        1
300
_TITLE
309
CELLSTYLE_END
300
CELLSTYLE
  1
TABLEFORMAT_BEGIN
 90
        5
170
     1
 91
        0
 92
        0
 62
   257
 93
        1
300
CONTENTFORMAT
  1
CONTENTFORMAT_BEGIN
 90
        0
 91
        0
 92
      512
 93
        0
300

 40
0.0
140
1.0
 94
        5
 62
     0
340
11
144
4.5
309
CONTENTFORMAT_END
171
     1
301
MARGIN
  1
CELLMARGIN_BEGIN
 40
1.5
 40
1.5
 40
1.5
 40
1.5
 40
4.5
 40
4.5
309
CELLMARGIN_END
 94
        6
 95
        1
302
GRIDFORMAT
  1
GRIDFORMAT_BEGIN
 90
        0
 91
        1
 62
     0
 92
       -2
340
14
 93
        0
 40
1.125
309
GRIDFORMAT_END
 95
        2
302
GRIDFORMAT
  1
GRIDFORMAT_BEGIN
 90
        0
 91
        1
 62
     0
 92
       -2
340
14
 93
        0
 40
1.125
309
GRIDFORMAT_END
 95
        4
302
GRIDFORMAT
  1
GRIDFORMAT_BEGIN
 90
        0
 91
        1
 62
     0
 92
       -2
340
14
 93
        0
 40
1.125
309
GRIDFORMAT_END
 95
        8
302
GRIDFORMAT
  1
GRIDFORMAT_BEGIN
 90
        0
 91
        1
 62
     0
 92
       -2
340
14
 93
        0
 40
1.125
309
GRIDFORMAT_END
 95
       16
302
GRIDFORMAT
  1
GRIDFORMAT_BEGIN
 90
        0
 91
        1
 62
     0
 92
       -2
340
14
 93
        0
 40
1.125
309
GRIDFORMAT_END
 95
       32
302
GRIDFORMAT
  1
GRIDFORMAT_BEGIN
 90
        0
 91
        1
 62
     0
 92
       -2
340
14
 93
        0
 40
1.125
309
GRIDFORMAT_END
309
TABLEFORMAT_END
  1
CELLSTYLE_BEGIN
 90
        2
 91
        1
300
_HEADER
309
CELLSTYLE_END
300
CELLSTYLE
  1
TABLEFORMAT_BEGIN
 90
        5
170
     1
 91
        0
 92
        0
 62
   257
 93
        1
300
CONTENTFORMAT
  1
CONTENTFORMAT_BEGIN
 90
        0
 91
        0
 92
      512
 93
        0
300

 40
0.0
140
1.0
 94
        2
 62
     0
340
11
144
4.5
309
CONTENTFORMAT_END
171
     1
301
MARGIN
  1
CELLMARGIN_BEGIN
 40
1.5
 40
1.5
 40
1.5
 40
1.5
 40
4.5
 40
4.5
309
CELLMARGIN_END
 94
        6
 95
        1
302
GRIDFORMAT
  1
GRIDFORMAT_BEGIN
 90
        0
 91
        1
 62
     0
 92
       -2
340
14
 93
        0
 40
1.125
309
GRIDFORMAT_END
 95
        2
302
GRIDFORMAT
  1
GRIDFORMAT_BEGIN
 90
        0
 91
        1
 62
     0
 92
       -2
340
14
 93
        0
 40
1.125
309
GRIDFORMAT_END
 95
        4
302
GRIDFORMAT
  1
GRIDFORMAT_BEGIN
 90
        0
 91
        1
 62
     0
 92
       -2
340
14
 93
        0
 40
1.125
309
GRIDFORMAT_END
 95
        8
302
GRIDFORMAT
  1
GRIDFORMAT_BEGIN
 90
        0
 91
        1
 62
     0
 92
       -2
340
14
 93
        0
 40
1.125
309
GRIDFORMAT_END
 95
       16
302
GRIDFORMAT
  1
GRIDFORMAT_BEGIN
 90
        0
 91
        1
 62
     0
 92
       -2
340
14
 93
        0
 40
1.125
309
GRIDFORMAT_END
 95
       32
302
GRIDFORMAT
  1
GRIDFORMAT_BEGIN
 90
        0
 91
        1
 62
     0
 92
       -2
340
14
 93
        0
 40
1.125
309
GRIDFORMAT_END
309
TABLEFORMAT_END
  1
CELLSTYLE_BEGIN
 90
        3
 91
        2
300
_DATA
309
CELLSTYLE_END
  0
XRECORD
  5
A77
102
{ACAD_REACTORS
330
162
102
}
330
162
100
AcDbXrecord
280
     1
102
ACAD_ROUNDTRIP_PRE2007_TABLESTYLE
 90
      512
 91
        0
  1

 92
      512
 93
        0
  2

 94
      512
 95
        0
  3

  0
ENDSEC
  0
EOF
