  0
SECTION
  2
HEADER
  9
$ACADVER
  1
AC1015
  9
$ACADMAINTVER
 70
    20
  9
$DWGCODEPAGE
  3
ANSI_1254
  9
$INSBASE
 10
0.0
 20
0.0
 30
0.0
  9
$EXTMIN
 10
2059.474362335903
 20
788.1020767444356
 30
0.0
  9
$EXTMAX
 10
2265.055392502709
 20
909.4748122536772
 30
0.0
  9
$LIMMIN
 10
0.0
 20
0.0
  9
$LIMMAX
 10
420.0
 20
297.0
  9
$ORTHOMODE
 70
     0
  9
$REGENMODE
 70
     1
  9
$FILLMODE
 70
     1
  9
$QTEXTMODE
 70
     0
  9
$MIRRTEXT
 70
     0
  9
$LTSCALE
 40
1.0
  9
$ATTMODE
 70
     1
  9
$TEXTSIZE
 40
2.5
  9
$TRACEWID
 40
1.0
  9
$TEXTSTYLE
  7
Standard
  9
$CLAYER
  8
0
  9
$CELTYPE
  6
ByLayer
  9
$CECOLOR
 62
   256
  9
$CELTSCALE
 40
1.0
  9
$DISPSILH
 70
     0
  9
$DIMSCALE
 40
1.0
  9
$DIMASZ
 40
2.5
  9
$DIMEXO
 40
0.625
  9
$DIMDLI
 40
3.75
  9
$DIMRND
 40
0.0
  9
$DIMDLE
 40
0.0
  9
$DIMEXE
 40
1.25
  9
$DIMTP
 40
0.0
  9
$DIMTM
 40
0.0
  9
$DIMTXT
 40
2.5
  9
$DIMCEN
 40
2.5
  9
$DIMTSZ
 40
0.0
  9
$DIMTOL
 70
     0
  9
$DIMLIM
 70
     0
  9
$DIMTIH
 70
     0
  9
$DIMTOH
 70
     0
  9
$DIMSE1
 70
     0
  9
$DIMSE2
 70
     0
  9
$DIMTAD
 70
     1
  9
$DIMZIN
 70
     8
  9
$DIMBLK
  1

  9
$DIMASO
 70
     1
  9
$DIMSHO
 70
     1
  9
$DIMPOST
  1

  9
$DIMAPOST
  1

  9
$DIMALT
 70
     0
  9
$DIMALTD
 70
     3
  9
$DIMALTF
 40
0.03937007874016
  9
$DIMLFAC
 40
1.0
  9
$DIMTOFL
 70
     1
  9
$DIMTVP
 40
0.0
  9
$DIMTIX
 70
     0
  9
$DIMSOXD
 70
     0
  9
$DIMSAH
 70
     0
  9
$DIMBLK1
  1

  9
$DIMBLK2
  1

  9
$DIMSTYLE
  2
ISO-25
  9
$DIMCLRD
 70
     0
  9
$DIMCLRE
 70
     0
  9
$DIMCLRT
 70
     0
  9
$DIMTFAC
 40
1.0
  9
$DIMGAP
 40
0.625
  9
$DIMJUST
 70
     0
  9
$DIMSD1
 70
     0
  9
$DIMSD2
 70
     0
  9
$DIMTOLJ
 70
     0
  9
$DIMTZIN
 70
     8
  9
$DIMALTZ
 70
     0
  9
$DIMALTTZ
 70
     0
  9
$DIMUPT
 70
     0
  9
$DIMDEC
 70
     2
  9
$DIMTDEC
 70
     2
  9
$DIMALTU
 70
     2
  9
$DIMALTTD
 70
     3
  9
$DIMTXSTY
  7
Standard
  9
$DIMAUNIT
 70
     0
  9
$DIMADEC
 70
     0
  9
$DIMALTRND
 40
0.0
  9
$DIMAZIN
 70
     0
  9
$DIMDSEP
 70
    44
  9
$DIMATFIT
 70
     3
  9
$DIMFRAC
 70
     0
  9
$DIMLDRBLK
  1

  9
$DIMLUNIT
 70
     2
  9
$DIMLWD
 70
    -2
  9
$DIMLWE
 70
    -2
  9
$DIMTMOVE
 70
     0
  9
$LUNITS
 70
     2
  9
$LUPREC
 70
     4
  9
$SKETCHINC
 40
1.0
  9
$FILLETRAD
 40
0.0
  9
$AUNITS
 70
     0
  9
$AUPREC
 70
     0
  9
$MENU
  1
.
  9
$ELEVATION
 40
0.0
  9
$PELEVATION
 40
0.0
  9
$THICKNESS
 40
0.0
  9
$LIMCHECK
 70
     0
  9
$CHAMFERA
 40
0.0
  9
$CHAMFERB
 40
0.0
  9
$CHAMFERC
 40
0.0
  9
$CHAMFERD
 40
0.0
  9
$SKPOLY
 70
     0
  9
$TDCREATE
 40
2458927.452197870
  9
$TDUCREATE
 40
2458927.327197870
  9
$TDUPDATE
 40
2458956.396033137
  9
$TDUUPDATE
 40
2458956.271033137
  9
$TDINDWG
 40
0.0005248380
  9
$TDUSRTIMER
 40
0.0005248380
  9
$USRTIMER
 70
     1
  9
$ANGBASE
 50
0.0
  9
$ANGDIR
 70
     0
  9
$PDMODE
 70
     0
  9
$PDSIZE
 40
0.0
  9
$PLINEWID
 40
0.0
  9
$SPLFRAME
 70
     0
  9
$SPLINETYPE
 70
     6
  9
$SPLINESEGS
 70
     8
  9
$HANDSEED
  5
AA2
  9
$SURFTAB1
 70
     6
  9
$SURFTAB2
 70
     6
  9
$SURFTYPE
 70
     6
  9
$SURFU
 70
     6
  9
$SURFV
 70
     6
  9
$UCSBASE
  2

  9
$UCSNAME
  2

  9
$UCSORG
 10
0.0
 20
0.0
 30
0.0
  9
$UCSXDIR
 10
1.0
 20
0.0
 30
0.0
  9
$UCSYDIR
 10
0.0
 20
1.0
 30
0.0
  9
$UCSORTHOREF
  2

  9
$UCSORTHOVIEW
 70
     0
  9
$UCSORGTOP
 10
0.0
 20
0.0
 30
0.0
  9
$UCSORGBOTTOM
 10
0.0
 20
0.0
 30
0.0
  9
$UCSORGLEFT
 10
0.0
 20
0.0
 30
0.0
  9
$UCSORGRIGHT
 10
0.0
 20
0.0
 30
0.0
  9
$UCSORGFRONT
 10
0.0
 20
0.0
 30
0.0
  9
$UCSORGBACK
 10
0.0
 20
0.0
 30
0.0
  9
$PUCSBASE
  2

  9
$PUCSNAME
  2

  9
$PUCSORG
 10
0.0
 20
0.0
 30
0.0
  9
$PUCSXDIR
 10
1.0
 20
0.0
 30
0.0
  9
$PUCSYDIR
 10
0.0
 20
1.0
 30
0.0
  9
$PUCSORTHOREF
  2

  9
$PUCSORTHOVIEW
 70
     0
  9
$PUCSORGTOP
 10
0.0
 20
0.0
 30
0.0
  9
$PUCSORGBOTTOM
 10
0.0
 20
0.0
 30
0.0
  9
$PUCSORGLEFT
 10
0.0
 20
0.0
 30
0.0
  9
$PUCSORGRIGHT
 10
0.0
 20
0.0
 30
0.0
  9
$PUCSORGFRONT
 10
0.0
 20
0.0
 30
0.0
  9
$PUCSORGBACK
 10
0.0
 20
0.0
 30
0.0
  9
$USERI1
 70
     0
  9
$USERI2
 70
     0
  9
$USERI3
 70
     0
  9
$USERI4
 70
     0
  9
$USERI5
 70
     0
  9
$USERR1
 40
0.0
  9
$USERR2
 40
0.0
  9
$USERR3
 40
0.0
  9
$USERR4
 40
0.0
  9
$USERR5
 40
0.0
  9
$WORLDVIEW
 70
     1
  9
$SHADEDGE
 70
     3
  9
$SHADEDIF
 70
    70
  9
$TILEMODE
 70
     1
  9
$MAXACTVP
 70
    64
  9
$PINSBASE
 10
0.0
 20
0.0
 30
0.0
  9
$PLIMCHECK
 70
     0
  9
$PEXTMIN
 10
0.0
 20
0.0
 30
0.0
  9
$PEXTMAX
 10
0.0
 20
0.0
 30
0.0
  9
$PLIMMIN
 10
0.0
 20
0.0
  9
$PLIMMAX
 10
12.0
 20
9.0
  9
$UNITMODE
 70
     0
  9
$VISRETAIN
 70
     1
  9
$PLINEGEN
 70
     0
  9
$PSLTSCALE
 70
     1
  9
$TREEDEPTH
 70
  3020
  9
$CMLSTYLE
  2
Standard
  9
$CMLJUST
 70
     0
  9
$CMLSCALE
 40
20.0
  9
$PROXYGRAPHICS
 70
     1
  9
$MEASUREMENT
 70
     1
  9
$CELWEIGHT
370
    -1
  9
$ENDCAPS
280
     0
  9
$JOINSTYLE
280
     0
  9
$LWDISPLAY
290
     0
  9
$INSUNITS
 70
     4
  9
$HYPERLINKBASE
  1

  9
$STYLESHEET
  1

  9
$XEDIT
290
     1
  9
$CEPSNTYPE
380
     0
  9
$PSTYLEMODE
290
     1
  9
$FINGERPRINTGUID
  2
{87E02A10-2F8A-4A84-A14F-A393795EF3E8}
  9
$VERSIONGUID
  2
{0BBC8E5B-0782-4DF7-BB4A-5443224B1C92}
  9
$EXTNAMES
290
     1
  9
$PSVPSCALE
 40
0.0
  9
$OLESTARTUP
290
     0
  0
ENDSEC
  0
SECTION
  2
CLASSES
  0
CLASS
  1
ACDBDICTIONARYWDFLT
  2
AcDbDictionaryWithDefault
  3
ObjectDBX Classes
 90
        0
280
     0
281
     0
  0
CLASS
  1
ACDBPLACEHOLDER
  2
AcDbPlaceHolder
  3
ObjectDBX Classes
 90
        0
280
     0
281
     0
  0
CLASS
  1
LAYOUT
  2
AcDbLayout
  3
ObjectDBX Classes
 90
        0
280
     0
281
     0
  0
CLASS
  1
DICTIONARYVAR
  2
AcDbDictionaryVar
  3
ObjectDBX Classes
 90
        0
280
     0
281
     0
  0
CLASS
  1
TABLESTYLE
  2
AcDbTableStyle
  3
ObjectDBX Classes
 90
     4095
280
     0
281
     0
  0
CLASS
  1
MATERIAL
  2
AcDbMaterial
  3
ObjectDBX Classes
 90
     1153
280
     0
281
     0
  0
CLASS
  1
VISUALSTYLE
  2
AcDbVisualStyle
  3
ObjectDBX Classes
 90
     4095
280
     0
281
     0
  0
CLASS
  1
SCALE
  2
AcDbScale
  3
ObjectDBX Classes
 90
     1153
280
     0
281
     0
  0
CLASS
  1
MLEADERSTYLE
  2
AcDbMLeaderStyle
  3
ACDB_MLEADERSTYLE_CLASS
 90
     4095
280
     0
281
     0
  0
CLASS
  1
CELLSTYLEMAP
  2
AcDbCellStyleMap
  3
ObjectDBX Classes
 90
     1152
280
     0
281
     0
  0
ENDSEC
  0
SECTION
  2
TABLES
  0
TABLE
  2
VPORT
  5
8
330
0
100
AcDbSymbolTable
 70
     1
  0
VPORT
  5
EA
330
8
100
AcDbSymbolTableRecord
100
AcDbViewportTableRecord
  2
*Active
 70
     0
 10
0.0
 20
0.0
 11
1.0
 21
1.0
 12
2162.216160687939
 22
855.731942726649
 13
0.0
 23
0.0
 14
10.0
 24
10.0
 15
10.0
 25
10.0
 16
0.0
 26
0.0
 36
1.0
 17
0.0
 27
0.0
 37
0.0
 40
136.2799923082431
 41
1.903110047846889
 42
50.0
 43
0.0
 44
0.0
 50
0.0
 51
0.0
 71
     0
 72
  1000
 73
     1
 74
     3
 75
     0
 76
     0
 77
     0
 78
     0
281
     0
 65
     1
110
0.0
120
0.0
130
0.0
111
1.0
121
0.0
131
0.0
112
0.0
122
1.0
132
0.0
 79
     0
146
0.0
  0
ENDTAB
  0
TABLE
  2
LTYPE
  5
5
330
0
100
AcDbSymbolTable
 70
     1
  0
LTYPE
  5
14
330
5
100
AcDbSymbolTableRecord
100
AcDbLinetypeTableRecord
  2
ByBlock
 70
     0
  3

 72
    65
 73
     0
 40
0.0
  0
LTYPE
  5
15
330
5
100
AcDbSymbolTableRecord
100
AcDbLinetypeTableRecord
  2
ByLayer
 70
     0
  3

 72
    65
 73
     0
 40
0.0
  0
LTYPE
  5
16
330
5
100
AcDbSymbolTableRecord
100
AcDbLinetypeTableRecord
  2
Continuous
 70
     0
  3
Solid line
 72
    65
 73
     0
 40
0.0
  0
ENDTAB
  0
TABLE
  2
LAYER
  5
2
330
0
100
AcDbSymbolTable
 70
     1
  0
LAYER
  5
10
102
{ACAD_XDICTIONARY
360
13C
102
}
330
2
100
AcDbSymbolTableRecord
100
AcDbLayerTableRecord
  2
0
 70
     0
 62
     7
  6
Continuous
370
    -3
390
F
  0
ENDTAB
  0
TABLE
  2
STYLE
  5
3
330
0
100
AcDbSymbolTable
 70
     2
  0
STYLE
  5
11
330
3
100
AcDbSymbolTableRecord
100
AcDbTextStyleTableRecord
  2
Standard
 70
     0
 40
0.0
 41
1.0
 50
0.0
 71
     0
 42
2.5
  3
txt
  4

  0
STYLE
  5
132
330
3
100
AcDbSymbolTableRecord
100
AcDbTextStyleTableRecord
  2
Annotative
 70
     0
 40
0.0
 41
1.0
 50
0.0
 71
     0
 42
2.5
  3
txt.shx
  4

1001
AcadAnnotative
1000
AnnotativeData
1002
{
1070
     1
1070
     1
1002
}
  0
ENDTAB
  0
TABLE
  2
VIEW
  5
6
330
0
100
AcDbSymbolTable
 70
     0
  0
ENDTAB
  0
TABLE
  2
UCS
  5
7
330
0
100
AcDbSymbolTable
 70
     0
  0
ENDTAB
  0
TABLE
  2
APPID
  5
9
330
0
100
AcDbSymbolTable
 70
     7
  0
APPID
  5
12
330
9
100
AcDbSymbolTableRecord
100
AcDbRegAppTableRecord
  2
ACAD
 70
     0
  0
APPID
  5
9E
330
9
100
AcDbSymbolTableRecord
100
AcDbRegAppTableRecord
  2
ACAD_PSEXT
 70
     0
  0
APPID
  5
133
330
9
100
AcDbSymbolTableRecord
100
AcDbRegAppTableRecord
  2
AcadAnnoPO
 70
     0
  0
APPID
  5
134
330
9
100
AcDbSymbolTableRecord
100
AcDbRegAppTableRecord
  2
AcadAnnotative
 70
     0
  0
APPID
  5
135
330
9
100
AcDbSymbolTableRecord
100
AcDbRegAppTableRecord
  2
ACAD_DSTYLE_DIMJAG
 70
     0
  0
APPID
  5
136
330
9
100
AcDbSymbolTableRecord
100
AcDbRegAppTableRecord
  2
ACAD_DSTYLE_DIMTALN
 70
     0
  0
APPID
  5
165
330
9
100
AcDbSymbolTableRecord
100
AcDbRegAppTableRecord
  2
ACAD_MLEADERVER
 70
     0
  0
ENDTAB
  0
TABLE
  2
DIMSTYLE
  5
A
330
0
100
AcDbSymbolTable
 70
     2
100
AcDbDimStyleTable
 71
     2
340
27
340
137
  0
DIMSTYLE
105
27
330
A
100
AcDbSymbolTableRecord
100
AcDbDimStyleTableRecord
  2
ISO-25
 70
     0
 41
2.5
 42
0.625
 43
3.75
 44
1.25
 73
     0
 74
     0
 77
     1
 78
     8
140
2.5
141
2.5
143
0.03937007874016
147
0.625
171
     3
172
     1
271
     2
272
     2
274
     3
278
    44
283
     0
284
     8
340
11
  0
DIMSTYLE
105
137
330
A
100
AcDbSymbolTableRecord
100
AcDbDimStyleTableRecord
  2
Annotative
 70
     0
 40
0.0
 41
2.5
 42
0.625
 43
3.75
 44
1.25
 73
     0
 74
     0
 77
     1
 78
     8
140
2.5
141
2.5
143
0.03937007874016
147
0.625
171
     3
172
     1
271
     2
272
     2
274
     3
278
    44
283
     0
284
     8
340
11
1001
AcadAnnotative
1000
AnnotativeData
1002
{
1070
     1
1070
     1
1002
}
1001
ACAD_DSTYLE_DIMJAG
1070
   388
1040
1.5
1001
ACAD_DSTYLE_DIMTALN
1070
   392
1070
     0
  0
ENDTAB
  0
TABLE
  2
BLOCK_RECORD
  5
1
330
0
100
AcDbSymbolTable
 70
     5
  0
BLOCK_RECORD
  5
1F
330
1
100
AcDbSymbolTableRecord
100
AcDbBlockTableRecord
  2
*Model_Space
340
22
  0
BLOCK_RECORD
  5
D2
330
1
100
AcDbSymbolTableRecord
100
AcDbBlockTableRecord
  2
*Paper_Space
340
D3
  0
BLOCK_RECORD
  5
D6
330
1
100
AcDbSymbolTableRecord
100
AcDbBlockTableRecord
  2
*Paper_Space0
340
D7
  0
BLOCK_RECORD
  5
78B
330
1
100
AcDbSymbolTableRecord
100
AcDbBlockTableRecord
  2
1
340
0
310
2800000020000000200000000100080000000000000400000000000000000000000000000000000000000000000080000080000000808000800000008000800080800000C0C0C000C0DCC000F0CAA6000020400000206000002080000020A0000020C0000020E00000400000004020000040400000406000004080000040A0
310
000040C0000040E00000600000006020000060400000606000006080000060A0000060C0000060E00000800000008020000080400000806000008080000080A0000080C0000080E00000A0000000A0200000A0400000A0600000A0800000A0A00000A0C00000A0E00000C0000000C0200000C0400000C0600000C0800000C0
310
A00000C0C00000C0E00000E0000000E0200000E0400000E0600000E0800000E0A00000E0C00000E0E00040000000400020004000400040006000400080004000A0004000C0004000E00040200000402020004020400040206000402080004020A0004020C0004020E000404000004040200040404000404060004040800040
310
40A0004040C0004040E00040600000406020004060400040606000406080004060A0004060C0004060E00040800000408020004080400040806000408080004080A0004080C0004080E00040A0000040A0200040A0400040A0600040A0800040A0A00040A0C00040A0E00040C0000040C0200040C0400040C0600040C08000
310
40C0A00040C0C00040C0E00040E0000040E0200040E0400040E0600040E0800040E0A00040E0C00040E0E00080000000800020008000400080006000800080008000A0008000C0008000E00080200000802020008020400080206000802080008020A0008020C0008020E00080400000804020008040400080406000804080
310
008040A0008040C0008040E00080600000806020008060400080606000806080008060A0008060C0008060E00080800000808020008080400080806000808080008080A0008080C0008080E00080A0000080A0200080A0400080A0600080A0800080A0A00080A0C00080A0E00080C0000080C0200080C0400080C0600080C0
310
800080C0A00080C0C00080C0E00080E0000080E0200080E0400080E0600080E0800080E0A00080E0C00080E0E000C0000000C0002000C0004000C0006000C0008000C000A000C000C000C000E000C0200000C0202000C0204000C0206000C0208000C020A000C020C000C020E000C0400000C0402000C0404000C0406000C0
310
408000C040A000C040C000C040E000C0600000C0602000C0604000C0606000C0608000C060A000C060C000C060E000C0800000C0802000C0804000C0806000C0808000C080A000C080C000C080E000C0A00000C0A02000C0A04000C0A06000C0A08000C0A0A000C0A0C000C0A0E000C0C00000C0C02000C0C04000C0C06000
310
C0C08000C0C0A000F0FBFF00A4A0A000808080000000FF0000FF000000FFFF00FF000000FF00FF00FFFF0000FFFFFF0000000000000000000000000000000000000000000000000000000000000000000000000000000000FFFF000000000000000000000000FFFF00000000000000000000000000FFFFFFFFFFFF00000000
310
00000000000000FFFFFFFFFF000000000000000000FF00000000FFFF00000000000000000000FFFF00000000FF0000000000000000FF00000000FFFFFFFFFFFFFFFFFFFFFFFFFFFF00000000FF0000000000000000FF00000000000000000000000000000000000000000000FF0000000000000000FF000000000000000000
310
00000000000000000000000000FF0000000000000000FF00000000000000000000000000000000000000000000FF0000000000000000FF00000000000000000000000000000000000000000000FF0000000000000000FF00000000000000000000000000000000000000000000FF0000000000000000FF0000000000000000
310
0000000000000000000000000000FF0000000000000000FF00000000000000000000000000000000000000000000FF0000000000000000FF00000000000000000000000000000000000000000000FF0000000000000000FF00000000000000000000000000000000000000000000FF0000000000000000FF00000000000000
310
000000000000000000000000000000FF0000000000000000FF00000000000000000000000000000000000000000000FF0000000000000000FF00000000000000000000000000000000000000000000FF0000000000000000FF00000000000000000000000000000000000000000000FF0000000000000000FF000000000000
310
00000000000000000000000000000000FF0000000000000000FF00000000000000000000000000000000000000000000FF0000000000000000FF00000000000000000000000000000000000000000000FF0000000000000000FF00000000000000000000000000000000000000000000FF0000000000000000FF0000000000
310
0000000000000000000000000000000000FF0000000000000000FF00000000000000000000000000000000000000000000FF0000000000000000FF00000000000000000000000000000000000000000000FF0000000000000000FF000000000000000000FFFFFFFF000000000000000000FF000000000000000000FF000000
310
0000000000FF0000FF0000000000000000FF0000000000000000000000FF00000000000000FF0000FF00000000000000FF00000000000000000000000000FF000000000000FF0000FF000000000000FF000000000000000000000000000000FFFFFFFFFFFFFF0000FFFFFFFFFFFFFF00000000000000000000000000000000
310
FFFFFFFFFF000000000000FFFFFFFFFF00000000000000000000000000000000000000000000000000000000000000000000000000000000
102
{BLKREFS
331
7CC
102
}
1001
ACAD
1000
DesignCenter Data
1002
{
1070
     1
1070
     4
1002
}
  0
BLOCK_RECORD
  5
7CD
330
1
100
AcDbSymbolTableRecord
100
AcDbBlockTableRecord
  2
2
340
0
310
2800000020000000200000000100080000000000000400000000000000000000000000000000000000000000000080000080000000808000800000008000800080800000C0C0C000C0DCC000F0CAA6000020400000206000002080000020A0000020C0000020E00000400000004020000040400000406000004080000040A0
310
000040C0000040E00000600000006020000060400000606000006080000060A0000060C0000060E00000800000008020000080400000806000008080000080A0000080C0000080E00000A0000000A0200000A0400000A0600000A0800000A0A00000A0C00000A0E00000C0000000C0200000C0400000C0600000C0800000C0
310
A00000C0C00000C0E00000E0000000E0200000E0400000E0600000E0800000E0A00000E0C00000E0E00040000000400020004000400040006000400080004000A0004000C0004000E00040200000402020004020400040206000402080004020A0004020C0004020E000404000004040200040404000404060004040800040
310
40A0004040C0004040E00040600000406020004060400040606000406080004060A0004060C0004060E00040800000408020004080400040806000408080004080A0004080C0004080E00040A0000040A0200040A0400040A0600040A0800040A0A00040A0C00040A0E00040C0000040C0200040C0400040C0600040C08000
310
40C0A00040C0C00040C0E00040E0000040E0200040E0400040E0600040E0800040E0A00040E0C00040E0E00080000000800020008000400080006000800080008000A0008000C0008000E00080200000802020008020400080206000802080008020A0008020C0008020E00080400000804020008040400080406000804080
310
008040A0008040C0008040E00080600000806020008060400080606000806080008060A0008060C0008060E00080800000808020008080400080806000808080008080A0008080C0008080E00080A0000080A0200080A0400080A0600080A0800080A0A00080A0C00080A0E00080C0000080C0200080C0400080C0600080C0
310
800080C0A00080C0C00080C0E00080E0000080E0200080E0400080E0600080E0800080E0A00080E0C00080E0E000C0000000C0002000C0004000C0006000C0008000C000A000C000C000C000E000C0200000C0202000C0204000C0206000C0208000C020A000C020C000C020E000C0400000C0402000C0404000C0406000C0
310
408000C040A000C040C000C040E000C0600000C0602000C0604000C0606000C0608000C060A000C060C000C060E000C0800000C0802000C0804000C0806000C0808000C080A000C080C000C080E000C0A00000C0A02000C0A04000C0A06000C0A08000C0A0A000C0A0C000C0A0E000C0C00000C0C02000C0C04000C0C06000
310
C0C08000C0C0A000F0FBFF00A4A0A000808080000000FF0000FF000000FFFF00FF000000FF00FF00FFFF0000FFFFFF0000000000000000000000000000000000000000000000000000000000000000000000000000000000000000000000FFFFFFFF0000000000000000000000000000000000000000000000000000FFFFFF
310
FFFFFFFFFF000000000000000000000000000000000000000000000000FFFFFFFFFFFFFFFF000000000000000000000000000000000000000000000000FF00FFFFFFFF00FF000000000000000000000000000000000000000000000000FFFFFFFFFFFFFFFF000000000000000000000000000000000000000000000000FFFF
310
FFFFFFFFFFFF000000000000000000000000000000000000000000000000FF00FFFFFFFF00FF000000000000000000000000000000000000000000000000FF00FFFFFFFF00FF000000000000000000000000000000000000000000000000FF00FFFFFFFF00FF000000000000000000000000000000000000000000000000FF
310
00FF0000FF00FF000000000000000000000000000000000000000000000000FF00FFFFFFFF00FF000000000000000000000000000000000000000000000000FF000000000000FF000000000000000000000000000000000000000000000000FFFFFFFFFFFFFFFF000000000000000000000000000000000000000000000000
310
FFFFFFFFFFFFFFFF000000000000000000000000000000000000000000000000FFFF00000000FFFF000000000000000000000000000000000000000000000000FFFF00000000FFFF000000000000000000000000000000000000000000000000FFFF00000000FFFF0000000000000000000000000000000000000000000000
310
00FFFFFFFFFFFFFFFF000000000000000000000000000000000000000000000000FFFF0000000000FF000000000000000000000000000000000000000000000000FFFFFFFFFFFFFFFF000000000000000000000000000000000000000000000000FF000000000000FF00000000000000000000000000000000000000000000
310
0000FF000000000000FF000000000000000000000000000000000000000000000000FF000000000000FF000000000000000000000000000000000000000000000000FF000000000000FF000000000000000000000000000000000000000000000000FFFFFFFFFFFFFFFF000000000000000000000000000000000000000000
310
000000FF00FFFFFFFF00FF000000000000000000000000000000000000000000000000FF00FFFFFFFF00FF000000000000000000000000000000000000000000000000FFFFFFFFFFFFFFFF000000000000000000000000000000000000000000000000FFFFFFFFFFFFFFFF0000000000000000000000000000000000000000
310
000000000000FFFFFFFF00000000000000000000000000000000000000000000000000000000000000000000000000000000000000000000
102
{BLKREFS
331
897
102
}
1001
ACAD
1000
DesignCenter Data
1002
{
1070
     1
1070
     4
1002
}
  0
BLOCK_RECORD
  5
898
330
1
100
AcDbSymbolTableRecord
100
AcDbBlockTableRecord
  2
3
340
0
310
2800000020000000200000000100080000000000000400000000000000000000000000000000000000000000000080000080000000808000800000008000800080800000C0C0C000C0DCC000F0CAA6000020400000206000002080000020A0000020C0000020E00000400000004020000040400000406000004080000040A0
310
000040C0000040E00000600000006020000060400000606000006080000060A0000060C0000060E00000800000008020000080400000806000008080000080A0000080C0000080E00000A0000000A0200000A0400000A0600000A0800000A0A00000A0C00000A0E00000C0000000C0200000C0400000C0600000C0800000C0
310
A00000C0C00000C0E00000E0000000E0200000E0400000E0600000E0800000E0A00000E0C00000E0E00040000000400020004000400040006000400080004000A0004000C0004000E00040200000402020004020400040206000402080004020A0004020C0004020E000404000004040200040404000404060004040800040
310
40A0004040C0004040E00040600000406020004060400040606000406080004060A0004060C0004060E00040800000408020004080400040806000408080004080A0004080C0004080E00040A0000040A0200040A0400040A0600040A0800040A0A00040A0C00040A0E00040C0000040C0200040C0400040C0600040C08000
310
40C0A00040C0C00040C0E00040E0000040E0200040E0400040E0600040E0800040E0A00040E0C00040E0E00080000000800020008000400080006000800080008000A0008000C0008000E00080200000802020008020400080206000802080008020A0008020C0008020E00080400000804020008040400080406000804080
310
008040A0008040C0008040E00080600000806020008060400080606000806080008060A0008060C0008060E00080800000808020008080400080806000808080008080A0008080C0008080E00080A0000080A0200080A0400080A0600080A0800080A0A00080A0C00080A0E00080C0000080C0200080C0400080C0600080C0
310
800080C0A00080C0C00080C0E00080E0000080E0200080E0400080E0600080E0800080E0A00080E0C00080E0E000C0000000C0002000C0004000C0006000C0008000C000A000C000C000C000E000C0200000C0202000C0204000C0206000C0208000C020A000C020C000C020E000C0400000C0402000C0404000C0406000C0
310
408000C040A000C040C000C040E000C0600000C0602000C0604000C0606000C0608000C060A000C060C000C060E000C0800000C0802000C0804000C0806000C0808000C080A000C080C000C080E000C0A00000C0A02000C0A04000C0A06000C0A08000C0A0A000C0A0C000C0A0E000C0C00000C0C02000C0C04000C0C06000
310
C0C08000C0C0A000F0FBFF00A4A0A000808080000000FF0000FF000000FFFF00FF000000FF00FF00FFFF0000FFFFFF0000000000000000000000000000000000000000000000000000000000000000000000000000000000000000000000000000000000000000000000000000000000000000000000000000000000000000
310
00000000000000000000000000000000000000000000000000000000000000000000000000000000000000000000000000000000000000000000000000000000000000000000000000000000000000000000000000000000000000000000000000000000000000000000000000000000000000000000000000000000000000
310
00000000000000000000000000000000000000000000000000000000000000000000000000000000000000000000000000000000000000000000000000000000000000000000000000000000000000000000000000000000000000000000000000000000000000000000000000000000000000000000000000000000000000
310
0000000000000000000000000000000000000000FFFFFFFFFFFFFFFFFFFFFFFFFFFFFFFFFFFFFFFFFFFFFFFFFFFFFFFFFFFF0000FF000000FFFF000000000000FFFF0000FFFF000000000000FFFF000000FF0000FF000000FFFF000000000000FFFF0000FFFF000000000000FFFF000000FF0000FFFFFFFFFFFF00FFFFFF00
310
00FFFFFFFFFFFF0000FFFFFF00FFFFFFFFFFFF0000FFFFFFFFFFFFFFFFFFFFFF00FFFFFFFFFFFF00FFFFFFFFFFFFFFFFFFFFFF0000FFFFFFFFFFFFFFFF00FFFF00FFFFFFFFFFFF00FFFF00FFFFFFFFFFFFFFFF0000FFFFFFFFFFFFFFFFFFFFFF00FFFFFFFFFFFF00FFFFFFFFFFFFFFFFFFFFFF0000FF000000FFFF00FFFFFF
310
0000FFFF0000FFFF0000FFFFFF00FFFF000000FF0000FF000000FFFF000000000000FFFF0000FFFF000000000000FFFF000000FF0000FFFFFFFFFFFFFFFFFFFFFFFFFFFFFFFFFFFFFFFFFFFFFFFFFFFFFFFFFFFF00000000000000000000000000000000000000000000000000000000000000000000000000000000000000
310
00000000000000000000000000000000000000000000000000000000000000000000000000000000000000000000000000000000000000000000000000000000000000000000000000000000000000000000000000000000000000000000000000000000000000000000000000000000000000000000000000000000000000
310
00000000000000000000000000000000000000000000000000000000000000000000000000000000000000000000000000000000000000000000000000000000000000000000000000000000000000000000000000000000000000000000000000000000000000000000000000000000000000000000000000000000000000
310
0000000000000000000000000000000000000000000000000000000000000000000000000000000000000000000000000000000000000000
102
{BLKREFS
331
95A
102
}
1001
ACAD
1000
DesignCenter Data
1002
{
1070
     1
1070
     4
1002
}
  0
BLOCK_RECORD
  5
95B
330
1
100
AcDbSymbolTableRecord
100
AcDbBlockTableRecord
  2
4
340
0
310
2800000020000000200000000100080000000000000400000000000000000000000000000000000000000000000080000080000000808000800000008000800080800000C0C0C000C0DCC000F0CAA6000020400000206000002080000020A0000020C0000020E00000400000004020000040400000406000004080000040A0
310
000040C0000040E00000600000006020000060400000606000006080000060A0000060C0000060E00000800000008020000080400000806000008080000080A0000080C0000080E00000A0000000A0200000A0400000A0600000A0800000A0A00000A0C00000A0E00000C0000000C0200000C0400000C0600000C0800000C0
310
A00000C0C00000C0E00000E0000000E0200000E0400000E0600000E0800000E0A00000E0C00000E0E00040000000400020004000400040006000400080004000A0004000C0004000E00040200000402020004020400040206000402080004020A0004020C0004020E000404000004040200040404000404060004040800040
310
40A0004040C0004040E00040600000406020004060400040606000406080004060A0004060C0004060E00040800000408020004080400040806000408080004080A0004080C0004080E00040A0000040A0200040A0400040A0600040A0800040A0A00040A0C00040A0E00040C0000040C0200040C0400040C0600040C08000
310
40C0A00040C0C00040C0E00040E0000040E0200040E0400040E0600040E0800040E0A00040E0C00040E0E00080000000800020008000400080006000800080008000A0008000C0008000E00080200000802020008020400080206000802080008020A0008020C0008020E00080400000804020008040400080406000804080
310
008040A0008040C0008040E00080600000806020008060400080606000806080008060A0008060C0008060E00080800000808020008080400080806000808080008080A0008080C0008080E00080A0000080A0200080A0400080A0600080A0800080A0A00080A0C00080A0E00080C0000080C0200080C0400080C0600080C0
310
800080C0A00080C0C00080C0E00080E0000080E0200080E0400080E0600080E0800080E0A00080E0C00080E0E000C0000000C0002000C0004000C0006000C0008000C000A000C000C000C000E000C0200000C0202000C0204000C0206000C0208000C020A000C020C000C020E000C0400000C0402000C0404000C0406000C0
310
408000C040A000C040C000C040E000C0600000C0602000C0604000C0606000C0608000C060A000C060C000C060E000C0800000C0802000C0804000C0806000C0808000C080A000C080C000C080E000C0A00000C0A02000C0A04000C0A06000C0A08000C0A0A000C0A0C000C0A0E000C0C00000C0C02000C0C04000C0C06000
310
C0C08000C0C0A000F0FBFF00A4A0A000808080000000FF0000FF000000FFFF00FF000000FF00FF00FFFF0000FFFFFF00000000000000000000000000000000000000000000000000000000000000000000000000000000000000000000000000000000FFFF0000000000000000000000000000000000000000000000000000
310
000000FF00FFFFFF0000000000000000000000000000000000000000000000000000FF0000FFFFFFFFFF000000000000000000000000000000000000000000000000FF0000FFFFFFFFFF00000000000000000000000000000000000000000000FFFF000000FFFFFFFFFF0000000000000000000000000000000000000000FF
310
FF0000000000FFFFFFFFFF000000000000000000000000000000FFFFFFFFFF00000000000000FFFFFFFFFF00000000000000000000000000FFFF00FFFF000000000000000000FFFF00FFFF00000000000000000000000000FF00000000000000000000000000FFFFFFFFFF00000000000000000000000000FF000000000000
310
00000000000000FFFFFFFFFF00000000000000000000000000FF00000000000000000000000000FF0000FFFF00000000000000000000000000FF00000000000000000000000000FFA40000FF00000000000000000000000000FF00000000000000000000000000FFFFFFFFFFFF000000000000000000000000FF0000000000
310
0000000000000000FF00FF00FFFF000000000000000000000000FF00000000000000000000000000FF00FF00FFFF000000000000000000000000FF00000000000000000000000000FFFFFF00FFFF000000000000000000000000FF00000000000000000000000000FF0000FFFFFF00000000000000000000000000FF000000
310
000000000000000000FF00000000FF00000000000000000000000000FF000000000000000000000000FFFF000000FF00000000000000000000000000FF000000000000000000000000FFFFFFFF00FF00000000000000000000000000FF0000000000000000000000FF00FFFFFFFFFF00000000000000000000000000FF0000
310
00000000FF00000000FFFFFFFF0000FF00000000000000000000000000FF00000000FFFFFF000000FF00FFFFFF00FF0000000000000000000000000000FF00000000FFA4FF00FFFFFFFFFFFF0000FF0000000000000000000000000000FF00000000FFFFFFFF00FFFFFFFF00FFFF000000000000000000000000000000FF00
310
000000FFFFFFFFFFFFFFFFFFFFFF0000000000000000000000000000000000FF00FFFFFFFFFFFFFFFFFFFFFF00000000000000000000000000000000000000FFFF00FFFFFFFF00FFFF000000000000000000000000000000000000000000000000FFFFFFFFFFFFFF0000000000000000000000000000000000000000000000
310
0000000000FFFF00000000000000000000000000000000000000000000000000000000000000000000000000000000000000000000000000
102
{BLKREFS
331
A87
102
}
1001
ACAD
1000
DesignCenter Data
1002
{
1070
     1
1070
     4
1002
}
  0
ENDTAB
  0
ENDSEC
  0
SECTION
  2
BLOCKS
  0
BLOCK
  5
20
330
1F
100
AcDbEntity
  8
0
100
AcDbBlockBegin
  2
*Model_Space
 70
     0
 10
0.0
 20
0.0
 30
0.0
  3
*Model_Space
  1

  0
ENDBLK
  5
21
330
1F
100
AcDbEntity
  8
0
100
AcDbBlockEnd
  0
BLOCK
  5
D4
330
D2
100
AcDbEntity
 67
     1
  8
0
100
AcDbBlockBegin
  2
*Paper_Space
 70
     0
 10
0.0
 20
0.0
 30
0.0
  3
*Paper_Space
  1

  0
ENDBLK
  5
D5
330
D2
100
AcDbEntity
 67
     1
  8
0
100
AcDbBlockEnd
  0
BLOCK
  5
D8
330
D6
100
AcDbEntity
 67
     1
  8
0
100
AcDbBlockBegin
  2
*Paper_Space0
 70
     0
 10
0.0
 20
0.0
 30
0.0
  3
*Paper_Space0
  1

  0
ENDBLK
  5
D9
330
D6
100
AcDbEntity
 67
     1
  8
0
100
AcDbBlockEnd
  0
BLOCK
  5
78C
330
78B
100
AcDbEntity
  8
0
100
AcDbBlockBegin
  2
1
 70
     0
 10
0.0
 20
0.0
 30
0.0
  3
1
  1

  0
LINE
  5
78E
330
78B
100
AcDbEntity
  8
0
  6
Continuous
 62
     7
370
    15
100
AcDbLine
 10
2147.071628150507
 20
909.4727982686096
 30
0.0
 11
2147.071628150507
 21
906.4728578662768
 31
0.0
  0
LINE
  5
78F
330
78B
100
AcDbEntity
  8
0
  6
Continuous
 62
     7
370
    15
100
AcDbLine
 10
2158.071628090902
 20
906.4728578662768
 30
0.0
 11
2158.071628090902
 21
909.4748122536772
 31
0.0
  0
LINE
  5
790
330
78B
100
AcDbEntity
  8
0
  6
Continuous
 62
     7
370
    15
100
AcDbLine
 10
2117.230428633257
 20
909.4727982686096
 30
0.0
 11
2117.230428633257
 21
906.4728578662768
 31
0.0
  0
LINE
  5
791
330
78B
100
AcDbEntity
  8
0
  6
Continuous
 62
     7
370
    15
100
AcDbLine
 10
2128.230428573652
 20
906.4728578662768
 30
0.0
 11
2128.230428573652
 21
909.4748122536772
 31
0.0
  0
LINE
  5
792
330
78B
100
AcDbEntity
  8
0
  6
Continuous
 62
     7
370
    15
100
AcDbLine
 10
2136.401599523588
 20
837.5115746551388
 30
0.0
 11
2136.401599523588
 21
837.311571269595
 31
0.0
  0
LINE
  5
793
330
78B
100
AcDbEntity
  8
0
  6
Continuous
 62
     7
370
    15
100
AcDbLine
 10
2138.901604589983
 20
837.311571269595
 30
0.0
 11
2138.901604589983
 21
837.5115746551388
 31
0.0
  0
LINE
  5
794
330
78B
100
AcDbEntity
  8
0
  6
Continuous
 62
     7
370
    15
100
AcDbLine
 10
2119.901625690027
 20
837.5115746551388
 30
0.0
 11
2119.901625690027
 21
832.4727991515034
 31
0.0
  0
ARC
  5
795
330
78B
100
AcDbEntity
  8
0
  6
Continuous
 62
     7
370
    15
100
AcDbCircle
 10
2118.901626523125
 20
832.4727984291376
 30
0.0
 40
1.0
100
AcDbArc
 50
269.9999998498965
 51
359.9999998499031
  0
LINE
  5
796
330
78B
100
AcDbEntity
  8
0
  6
Continuous
 62
     7
370
    15
100
AcDbLine
 10
2112.113548693224
 20
831.4727971249455
 30
0.0
 11
2118.901623663469
 21
831.4727971249455
 31
0.0
  0
ARC
  5
797
330
78B
100
AcDbEntity
  8
0
  6
Continuous
 62
     7
370
    15
100
AcDbCircle
 10
2112.11354933891
 20
832.4727984469204
 30
0.0
 40
1.0
100
AcDbArc
 50
261.4961381276213
 51
269.9999998498965
  0
LINE
  5
798
330
78B
100
AcDbEntity
  8
0
  6
Continuous
 62
     7
370
    15
100
AcDbLine
 10
2106.503738340898
 20
832.300459771716
 30
0.0
 11
2111.965669569536
 21
831.4837941819066
 31
0.0
  0
ARC
  5
799
330
78B
100
AcDbEntity
  8
0
  6
Continuous
 62
     7
370
    15
100
AcDbCircle
 10
2106.651614783129
 20
833.289466409607
 30
0.0
 40
1.000000000000133
100
AcDbArc
 50
179.999999849903
 51
261.4961381275689
  0
LINE
  5
79A
330
78B
100
AcDbEntity
  8
0
  6
Continuous
 62
     7
370
    15
100
AcDbLine
 10
2105.650453147455
 20
833.2894647413128
 30
0.0
 11
2105.651615438028
 21
833.2894647413128
 31
0.0
  0
LINE
  5
79B
330
78B
100
AcDbEntity
  8
0
  6
Continuous
 62
     7
370
    15
100
AcDbLine
 10
2105.650453147455
 20
896.9264559366935
 30
0.0
 11
2105.650453147455
 21
833.2894647413128
 31
0.0
  0
LINE
  5
79C
330
78B
100
AcDbEntity
  8
0
  6
Continuous
 62
     7
370
    15
100
AcDbLine
 10
2105.650453147455
 20
896.9264559366935
 30
0.0
 11
2105.651727196737
 21
896.9264559366935
 31
0.0
  0
ARC
  5
79D
330
78B
100
AcDbEntity
  8
0
  6
Continuous
 62
     7
370
    15
100
AcDbCircle
 10
2106.351711195381
 20
896.9264368894464
 30
0.0
 40
0.6999860757417754
100
AcDbArc
 50
135.0041100649021
 51
180.0005295628943
  0
LINE
  5
79E
330
78B
100
AcDbEntity
  8
0
  6
Continuous
 62
     7
370
    15
100
AcDbLine
 10
2114.61420196013
 20
906.179941588846
 30
0.0
 11
2105.85670757012
 21
897.4213663407796
 31
0.0
  0
ARC
  5
79F
330
78B
100
AcDbEntity
  8
0
  6
Continuous
 62
     7
370
    15
100
AcDbCircle
 10
2115.321325673665
 20
905.4728777582127
 30
0.0
 40
0.9999801084213594
100
AcDbArc
 50
89.99941740990795
 51
135.00234094717
  0
LINE
  5
7A0
330
78B
100
AcDbEntity
  8
0
  6
Continuous
 62
     7
370
    15
100
AcDbLine
 10
2132.851196703478
 20
906.4728578662768
 30
0.0
 11
2115.321336564584
 21
906.4728578662768
 31
0.0
  0
ARC
  5
7A1
330
78B
100
AcDbEntity
  8
0
  6
Continuous
 62
     7
370
    15
100
AcDbCircle
 10
2132.851184062715
 20
905.472877758196
 30
0.0
 40
0.9999801083914228
100
AcDbArc
 50
0.0011122524778132
 51
89.99941743252378
  0
LINE
  5
7A2
330
78B
100
AcDbEntity
  8
0
  6
Continuous
 62
     7
370
    15
100
AcDbLine
 10
2133.851161477132
 20
896.7730699026221
 30
0.0
 11
2133.851161477132
 21
905.4728971480587
 31
0.0
  0
ARC
  5
7A3
330
78B
100
AcDbEntity
  8
0
  6
Continuous
 62
     7
370
    15
100
AcDbCircle
 10
2134.151158203371
 20
896.7730508168289
 30
0.0
 40
0.2999940324609108
100
AcDbArc
 50
179.9962931134174
 51
270.0019398942816
  0
LINE
  5
7A4
330
78B
100
AcDbEntity
  8
0
  6
Continuous
 62
     7
370
    15
100
AcDbLine
 10
2134.151166555448
 20
896.4730564424032
 30
0.0
 11
2141.150897619291
 21
896.4730564424032
 31
0.0
  0
LINE
  5
7A5
330
78B
100
AcDbEntity
  8
0
  6
Continuous
 62
     7
370
    15
100
AcDbLine
 10
2141.450887796445
 20
896.7730699026221
 30
0.0
 11
2141.450887796445
 21
905.4728971480587
 31
0.0
  0
ARC
  5
7A6
330
78B
100
AcDbEntity
  8
0
  6
Continuous
 62
     7
370
    15
100
AcDbCircle
 10
2142.450871100782
 20
905.4728777581871
 30
0.0
 40
0.9999801083913945
100
AcDbArc
 50
90.00058256737199
 51
179.9988877474179
  0
LINE
  5
7A7
330
78B
100
AcDbEntity
  8
0
  6
Continuous
 62
     7
370
    15
100
AcDbLine
 10
2142.450860020681
 20
906.4728578662768
 30
0.0
 11
2159.980720159574
 21
906.4728578662768
 31
0.0
  0
ARC
  5
7A8
330
78B
100
AcDbEntity
  8
0
  6
Continuous
 62
     7
370
    15
100
AcDbCircle
 10
2159.980729489833
 20
905.4728777581713
 30
0.0
 40
0.9999801084213595
100
AcDbArc
 50
44.99765905272403
 51
90.00058258998782
  0
LINE
  5
7A9
330
78B
100
AcDbEntity
  8
0
  6
Continuous
 62
     7
370
    15
100
AcDbLine
 10
2160.687854764028
 20
906.179941588846
 30
0.0
 11
2169.445349154039
 21
897.4213663407796
 31
0.0
  0
ARC
  5
7AA
330
78B
100
AcDbEntity
  8
0
  6
Continuous
 62
     7
370
    15
100
AcDbCircle
 10
2168.950343968101
 20
896.9264368893885
 30
0.0
 40
0.6999860757417754
100
AcDbArc
 50
359.9994704370015
 51
44.99588993501032
  0
LINE
  5
7AB
330
78B
100
AcDbEntity
  8
0
  6
Continuous
 62
     7
370
    15
100
AcDbLine
 10
2169.651596126123
 20
896.9264559366935
 30
0.0
 11
2169.650329527422
 21
896.9264559366935
 31
0.0
  0
LINE
  5
7AC
330
78B
100
AcDbEntity
  8
0
  6
Continuous
 62
     7
370
    15
100
AcDbLine
 10
2169.651596126123
 20
896.9264559366935
 30
0.0
 11
2169.651596126123
 21
833.2846293145054
 31
0.0
  0
ARC
  5
7AD
330
78B
100
AcDbEntity
  8
0
  6
Continuous
 62
     7
370
    15
100
AcDbCircle
 10
2168.651614783141
 20
833.2894627358157
 30
0.0
 40
0.9999999999998589
100
AcDbArc
 50
278.5038615715742
 51
359.7232629788778
  0
LINE
  5
7AE
330
78B
100
AcDbEntity
  8
0
  6
Continuous
 62
     7
370
    15
100
AcDbLine
 10
2168.799488124414
 20
832.300459771716
 30
0.0
 11
2163.337586698099
 21
831.4837941819066
 31
0.0
  0
ARC
  5
7AF
330
78B
100
AcDbEntity
  8
0
  6
Continuous
 62
     7
370
    15
100
AcDbCircle
 10
2163.189703706988
 20
832.4727983131161
 30
0.0
 40
0.9999999999999147
100
AcDbArc
 50
269.9999998498705
 51
278.5038615716
  0
LINE
  5
7B0
330
78B
100
AcDbEntity
  8
0
  6
Continuous
 62
     7
370
    15
100
AcDbLine
 10
2163.189707574411
 20
831.4727971249455
 30
0.0
 11
2156.401625153585
 21
831.4727971249455
 31
0.0
  0
ARC
  5
7B1
330
78B
100
AcDbEntity
  8
0
  6
Continuous
 62
     7
370
    15
100
AcDbCircle
 10
2156.401626523126
 20
832.4727983308989
 30
0.0
 40
1.0
100
AcDbArc
 50
179.9999998498965
 51
269.9999998498965
  0
LINE
  5
7B2
330
78B
100
AcDbEntity
  8
0
  6
Continuous
 62
     7
370
    15
100
AcDbLine
 10
2155.401623127027
 20
837.5115746551388
 30
0.0
 11
2155.401623127027
 21
832.4727991515034
 31
0.0
  0
LINE
  5
7B3
330
78B
100
AcDbEntity
  8
0
  6
Continuous
 62
     7
370
    15
100
AcDbLine
 10
2155.401623127027
 20
837.5115746551388
 30
0.0
 11
2119.901625690027
 21
837.5115746551388
 31
0.0
  0
ARC
  5
7B4
330
78B
100
AcDbEntity
  8
0
  6
Continuous
 62
     7
370
    15
100
AcDbCircle
 10
2141.150896960111
 20
896.7730508168225
 30
0.0
 40
0.2999940324609017
100
AcDbArc
 50
269.9999999999739
 51
0.0037068864718735
  0
LINE
  5
7B5
330
78B
100
AcDbEntity
  8
0
  6
Continuous
 62
     7
370
    15
100
AcDbLine
 10
2147.071628150507
 20
909.4727982686096
 30
0.0
 11
2158.071628090902
 21
909.4727982686096
 31
0.0
  0
LINE
  5
7B6
330
78B
100
AcDbEntity
  8
0
  6
Continuous
 62
     7
370
    15
100
AcDbLine
 10
2128.230428573652
 20
909.4727982686096
 30
0.0
 11
2117.230428633257
 21
909.4727982686096
 31
0.0
  0
LINE
  5
7B7
330
78B
100
AcDbEntity
  8
0
  6
Continuous
 62
     7
370
    15
100
AcDbLine
 10
2120.401604351564
 20
835.4308361106747
 30
0.0
 11
2120.401604351564
 21
837.5115746551388
 31
0.0
  0
LINE
  5
7B8
330
78B
100
AcDbEntity
  8
0
  6
Continuous
 62
     7
370
    15
100
AcDbLine
 10
2122.251605865522
 20
834.9284062081212
 30
0.0
 11
2120.401604351564
 21
835.4308361106747
 31
0.0
  0
LINE
  5
7B9
330
78B
100
AcDbEntity
  8
0
  6
Continuous
 62
     7
370
    15
100
AcDbLine
 10
2122.251605865522
 20
834.178408413493
 30
0.0
 11
2122.251605865522
 21
834.9284062081212
 31
0.0
  0
ARC
  5
7BA
330
78B
100
AcDbEntity
  8
0
  6
Continuous
 62
     7
370
    15
100
AcDbCircle
 10
2096.447812996325
 20
849.4808412077867
 30
0.0
 40
30.00000000000011
100
AcDbArc
 50
318.5985244374397
 51
329.3307706686452
  0
ARC
  5
7BB
330
78B
100
AcDbEntity
  8
0
  6
Continuous
 62
     7
370
    15
100
AcDbCircle
 10
2118.575587127246
 20
829.9715713083013
 30
0.0
 40
0.500000000000199
100
AcDbArc
 50
270.0000001501035
 51
318.5985244374668
  0
LINE
  5
7BC
330
78B
100
AcDbEntity
  8
0
  6
Continuous
 62
     7
370
    15
100
AcDbLine
 10
2116.291916248365
 20
829.4715711766118
 30
0.0
 11
2118.575586256548
 21
829.4715711766118
 31
0.0
  0
ARC
  5
7BD
330
78B
100
AcDbEntity
  8
0
  6
Continuous
 62
     7
370
    15
100
AcDbCircle
 10
2116.291919364903
 20
829.9715713023188
 30
0.0
 40
0.5
100
AcDbArc
 50
194.9999854776251
 51
270.0000001501035
  0
LINE
  5
7BE
330
78B
100
AcDbEntity
  8
0
  6
Continuous
 62
     7
370
    15
100
AcDbLine
 10
2115.372030314966
 20
831.4727971249455
 30
0.0
 11
2115.808954712911
 21
829.8421630555028
 31
0.0
  0
LINE
  5
7BF
330
78B
100
AcDbEntity
  8
0
  6
Continuous
 62
     7
370
    15
100
AcDbLine
 10
2159.494249400659
 20
829.8421630555028
 30
0.0
 11
2159.931173798605
 21
831.4727971249455
 31
0.0
  0
ARC
  5
7C0
330
78B
100
AcDbEntity
  8
0
  6
Continuous
 62
     7
370
    15
100
AcDbCircle
 10
2159.011286713338
 20
829.971571414233
 30
0.0
 40
0.500000000000081
100
AcDbArc
 50
270.0000001501035
 51
345.0000148225836
  0
LINE
  5
7C1
330
78B
100
AcDbEntity
  8
0
  6
Continuous
 62
     7
370
    15
100
AcDbLine
 10
2156.727617857023
 20
829.4715711766118
 30
0.0
 11
2159.011287865205
 21
829.4715711766118
 31
0.0
  0
ARC
  5
7C2
330
78B
100
AcDbEntity
  8
0
  6
Continuous
 62
     7
370
    15
100
AcDbCircle
 10
2156.727618950996
 20
829.9715714082502
 30
0.0
 40
0.5000000000001137
100
AcDbArc
 50
221.4014758623022
 51
270.0000001501035
  0
ARC
  5
7C3
330
78B
100
AcDbEntity
  8
0
  6
Continuous
 62
     7
370
    15
100
AcDbCircle
 10
2178.855392979697
 20
849.4808414236741
 30
0.0
 40
30.00000000000007
100
AcDbArc
 50
210.6692296315569
 51
221.4014758627459
  0
LINE
  5
7C4
330
78B
100
AcDbEntity
  8
0
  6
Continuous
 62
     7
370
    15
100
AcDbLine
 10
2153.051605698629
 20
834.9284136587018
 30
0.0
 11
2153.051605698629
 21
834.178408413493
 31
0.0
  0
LINE
  5
7C5
330
78B
100
AcDbEntity
  8
0
  6
Continuous
 62
     7
370
    15
100
AcDbLine
 10
2154.901599762006
 20
835.4308361106747
 30
0.0
 11
2153.051605698629
 21
834.9284136587018
 31
0.0
  0
LINE
  5
7C6
330
78B
100
AcDbEntity
  8
0
  6
Continuous
 62
     7
370
    15
100
AcDbLine
 10
2154.901599762006
 20
837.5115746551388
 30
0.0
 11
2154.901599762006
 21
835.4308361106747
 31
0.0
  0
LINE
  5
7C7
330
78B
100
AcDbEntity
  8
0
  6
Continuous
 62
     7
370
    15
100
AcDbLine
 10
2136.401599523588
 20
837.311571269595
 30
0.0
 11
2138.901604589983
 21
837.311571269595
 31
0.0
  0
LINE
  5
7C8
330
78B
100
AcDbEntity
  8
0
  6
Continuous
 62
     7
370
    15
100
AcDbLine
 10
2105.650453147455
 20
833.2846963697308
 30
0.0
 11
2105.651615438028
 21
833.2846963697308
 31
0.0
  0
LINE
  5
7C9
330
78B
100
AcDbEntity
  8
0
  6
Continuous
 62
     7
370
    15
100
AcDbLine
 10
2105.650453147455
 20
833.2846889191502
 30
0.0
 11
2105.651600536867
 21
833.2846889191502
 31
0.0
  0
LINE
  5
7CA
330
78B
100
AcDbEntity
  8
0
  6
Continuous
 62
     7
370
    15
100
AcDbLine
 10
2105.650453147455
 20
833.2846889191502
 30
0.0
 11
2105.650453147455
 21
833.2846963697308
 31
0.0
  0
LINE
  5
7CB
330
78B
100
AcDbEntity
  8
0
  6
Continuous
 62
     7
370
    15
100
AcDbLine
 10
2105.650453147455
 20
833.2846963697308
 30
0.0
 11
2105.650453147455
 21
833.2894647413128
 31
0.0
  0
ENDBLK
  5
78D
330
78B
100
AcDbEntity
  8
0
100
AcDbBlockEnd
  0
BLOCK
  5
7CE
330
7CD
100
AcDbEntity
  8
0
100
AcDbBlockBegin
  2
2
 70
     0
 10
0.0
 20
0.0
 30
0.0
  3
2
  1

  0
LINE
  5
7D0
330
7CD
100
AcDbEntity
  8
0
  6
Continuous
 62
     7
370
    15
100
AcDbLine
 10
2066.854359857542
 20
897.9178041138881
 30
0.0
 11
2073.094358943206
 21
897.9178041138881
 31
0.0
  0
LINE
  5
7D1
330
7CD
100
AcDbEntity
  8
0
  6
Continuous
 62
     7
370
    15
100
AcDbLine
 10
2073.094358943206
 20
899.6187982068592
 30
0.0
 11
2066.854359857542
 21
899.6187982068592
 31
0.0
  0
LINE
  5
7D2
330
7CD
100
AcDbEntity
  8
0
  6
Continuous
 62
     7
370
    15
100
AcDbLine
 10
2066.854359857542
 20
900.1395579346651
 30
0.0
 11
2073.094358943206
 21
900.1395579346651
 31
0.0
  0
LINE
  5
7D3
330
7CD
100
AcDbEntity
  8
0
  6
Continuous
 62
     7
370
    15
100
AcDbLine
 10
2073.094358943206
 20
901.8405520276361
 30
0.0
 11
2066.854359857542
 21
901.8405520276361
 31
0.0
  0
LINE
  5
7D4
330
7CD
100
AcDbEntity
  8
0
  6
Continuous
 62
     7
370
    15
100
AcDbLine
 10
2066.854359857542
 20
902.3613112897807
 30
0.0
 11
2073.094358943206
 21
902.3613112897807
 31
0.0
  0
LINE
  5
7D5
330
7CD
100
AcDbEntity
  8
0
  6
Continuous
 62
     7
370
    15
100
AcDbLine
 10
2073.094358943206
 20
904.0657689714068
 30
0.0
 11
2066.854359857542
 21
904.0657689714068
 31
0.0
  0
LINE
  5
7D6
330
7CD
100
AcDbEntity
  8
0
  6
Continuous
 62
     7
370
    15
100
AcDbLine
 10
2066.854359857542
 20
904.5865285827973
 30
0.0
 11
2073.094358943206
 21
904.5865285827973
 31
0.0
  0
LINE
  5
7D7
330
7CD
100
AcDbEntity
  8
0
  6
Continuous
 62
     7
370
    15
100
AcDbLine
 10
2064.474182478887
 20
909.4727982686096
 30
0.0
 11
2064.474182478887
 21
906.4728578662768
 31
0.0
  0
LINE
  5
7D8
330
7CD
100
AcDbEntity
  8
0
  6
Continuous
 62
     7
370
    15
100
AcDbLine
 10
2075.474182419283
 20
906.4728578662768
 30
0.0
 11
2075.474182419283
 21
909.4748122536772
 31
0.0
  0
SPLINE
  5
7D9
330
7CD
100
AcDbEntity
  8
0
  6
Continuous
 62
     7
370
    15
100
AcDbSpline
210
0.0
220
0.0
230
1.0
 70
    24
 71
     3
 72
     8
 73
     4
 74
     0
 42
0.0000000001
 43
0.0000000001
 40
0.0
 40
0.0
 40
0.0
 40
0.0
 40
1.0
 40
1.0
 40
1.0
 40
1.0
 10
2069.974181729752
 20
897.2511029893086
 30
0.0
 10
2069.974181729752
 20
897.1513816976809
 30
0.0
 10
2069.974181729752
 20
897.0389036668866
 30
0.0
 10
2069.974181729752
 20
896.9263204471854
 30
0.0
  0
SPLINE
  5
7DA
330
7CD
100
AcDbEntity
  8
0
  6
Continuous
 62
     7
370
    15
100
AcDbSpline
210
0.0
220
0.0
230
1.0
 70
    24
 71
     3
 72
     8
 73
     4
 74
     0
 42
0.0000000001
 43
0.0000000001
 40
0.0
 40
0.0
 40
0.0
 40
0.0
 40
1.0
 40
1.0
 40
1.0
 40
1.0
 10
2069.974181729751
 20
897.4212270132101
 30
0.0
 10
2069.974181729751
 20
897.3712678063838
 30
0.0
 10
2069.974181729751
 20
897.3136916684431
 30
0.0
 10
2069.974181729751
 20
897.2511029893086
 30
0.0
  0
LINE
  5
7DB
330
7CD
100
AcDbEntity
  8
0
  6
Continuous
 62
     7
370
    15
100
AcDbLine
 10
2069.974182449085
 20
897.4212266423934
 30
0.0
 11
2078.474002234441
 21
897.4211428233617
 31
0.0
  0
LINE
  5
7DC
330
7CD
100
AcDbEntity
  8
0
  6
Continuous
 62
     7
370
    15
100
AcDbLine
 10
2080.474002562267
 20
897.4211428233617
 30
0.0
 11
2078.474002234441
 21
897.4211428233617
 31
0.0
  0
LINE
  5
7DD
330
7CD
100
AcDbEntity
  8
0
  6
Continuous
 62
     7
370
    15
100
AcDbLine
 10
2080.474002562267
 20
897.4211428233617
 30
0.0
 11
2080.474002562267
 21
896.9262100675338
 31
0.0
  0
LINE
  5
7DE
330
7CD
100
AcDbEntity
  8
0
  6
Continuous
 62
     7
370
    15
100
AcDbLine
 10
2059.474362335903
 20
897.4213663407796
 30
0.0
 11
2059.474362335903
 21
896.926430790984
 31
0.0
  0
LINE
  5
7DF
330
7CD
100
AcDbEntity
  8
0
  6
Continuous
 62
     7
370
    15
100
AcDbLine
 10
2059.474362335903
 20
897.4213663407796
 30
0.0
 11
2061.474358938438
 21
897.4213663407796
 31
0.0
  0
LINE
  5
7E0
330
7CD
100
AcDbEntity
  8
0
  6
Continuous
 62
     7
370
    15
100
AcDbLine
 10
2069.974182449085
 20
897.4212825217479
 30
0.0
 11
2061.474358938438
 21
897.4213663407796
 31
0.0
  0
LINE
  5
7E1
330
7CD
100
AcDbEntity
  8
0
  6
Continuous
 62
     7
370
    15
100
AcDbLine
 10
2059.474362335903
 20
896.926430790984
 30
0.0
 11
2061.474358938438
 21
896.926430790984
 31
0.0
  0
LINE
  5
7E2
330
7CD
100
AcDbEntity
  8
0
  6
Continuous
 62
     7
370
    15
100
AcDbLine
 10
2077.274361900789
 20
843.4115702205533
 30
0.0
 11
2076.274359874231
 21
843.4115702205533
 31
0.0
  0
LINE
  5
7E3
330
7CD
100
AcDbEntity
  8
0
  6
Continuous
 62
     7
370
    15
100
AcDbLine
 10
2076.274359874231
 20
843.4115702205533
 30
0.0
 11
2076.274359874231
 21
843.4161821299428
 31
0.0
  0
LINE
  5
7E4
330
7CD
100
AcDbEntity
  8
0
  6
Continuous
 62
     7
370
    15
100
AcDbLine
 10
2075.274003945095
 20
843.4161821299428
 30
0.0
 11
2076.274359874231
 21
843.4161821299428
 31
0.0
  0
LINE
  5
7E5
330
7CD
100
AcDbEntity
  8
0
  6
Continuous
 62
     7
370
    15
100
AcDbLine
 10
2075.274003945095
 20
843.4161821299428
 30
0.0
 11
2075.274003945095
 21
843.9115712338322
 31
0.0
  0
LINE
  5
7E6
330
7CD
100
AcDbEntity
  8
0
  6
Continuous
 62
     7
370
    15
100
AcDbLine
 10
2075.274003945095
 20
843.9115712338322
 30
0.0
 11
2076.274359874231
 21
843.9115712338322
 31
0.0
  0
LINE
  5
7E7
330
7CD
100
AcDbEntity
  8
0
  6
Continuous
 62
     7
370
    15
100
AcDbLine
 10
2076.274359874231
 20
843.9115712338322
 30
0.0
 11
2077.274361900789
 21
843.9115712338322
 31
0.0
  0
LINE
  5
7E8
330
7CD
100
AcDbEntity
  8
0
  6
Continuous
 62
     7
370
    15
100
AcDbLine
 10
2062.67436062525
 20
843.9115712338322
 30
0.0
 11
2064.674360953075
 21
843.9115712338322
 31
0.0
  0
LINE
  5
7E9
330
7CD
100
AcDbEntity
  8
0
  6
Continuous
 62
     7
370
    15
100
AcDbLine
 10
2062.67436062525
 20
843.9115712338322
 30
0.0
 11
2062.67436062525
 21
838.5115692311162
 31
0.0
  0
LINE
  5
7EA
330
7CD
100
AcDbEntity
  8
0
  6
Continuous
 62
     7
370
    15
100
AcDbLine
 10
2064.674360953075
 20
838.5115692311162
 30
0.0
 11
2062.67436062525
 21
838.5115692311162
 31
0.0
  0
LINE
  5
7EB
330
7CD
100
AcDbEntity
  8
0
  6
Continuous
 62
     7
370
    15
100
AcDbLine
 10
2064.674360953075
 20
838.5115692311162
 30
0.0
 11
2064.674360953075
 21
837.5115746551388
 31
0.0
  0
LINE
  5
7EC
330
7CD
100
AcDbEntity
  8
0
  6
Continuous
 62
     7
370
    15
100
AcDbLine
 10
2069.974361263019
 20
837.5115746551388
 30
0.0
 11
2064.674360953075
 21
837.5115746551388
 31
0.0
  0
LINE
  5
7ED
330
7CD
100
AcDbEntity
  8
0
  6
Continuous
 62
     7
370
    15
100
AcDbLine
 10
2075.274361572963
 20
837.5115746551388
 30
0.0
 11
2069.974361263019
 21
837.5115746551388
 31
0.0
  0
LINE
  5
7EE
330
7CD
100
AcDbEntity
  8
0
  6
Continuous
 62
     7
370
    15
100
AcDbLine
 10
2075.274361572963
 20
838.5115692311162
 30
0.0
 11
2075.274361572963
 21
837.5115746551388
 31
0.0
  0
LINE
  5
7EF
330
7CD
100
AcDbEntity
  8
0
  6
Continuous
 62
     7
370
    15
100
AcDbLine
 10
2077.274361900789
 20
838.5115692311162
 30
0.0
 11
2075.274361572963
 21
838.5115692311162
 31
0.0
  0
LINE
  5
7F0
330
7CD
100
AcDbEntity
  8
0
  6
Continuous
 62
     7
370
    15
100
AcDbLine
 10
2077.274361900789
 20
843.9115712338322
 30
0.0
 11
2077.274361900789
 21
838.5115692311162
 31
0.0
  0
LINE
  5
7F1
330
7CD
100
AcDbEntity
  8
0
  6
Continuous
 62
     7
370
    15
100
AcDbLine
 10
2075.274003945095
 20
856.9765666418904
 30
0.0
 11
2075.274003945095
 21
843.9115712338322
 31
0.0
  0
LINE
  5
7F2
330
7CD
100
AcDbEntity
  8
0
  6
Continuous
 62
     7
370
    15
100
AcDbLine
 10
2064.674360953075
 20
856.9765666418904
 30
0.0
 11
2075.274003945095
 21
856.9765666418904
 31
0.0
  0
LINE
  5
7F3
330
7CD
100
AcDbEntity
  8
0
  6
Continuous
 62
     7
370
    15
100
AcDbLine
 10
2064.674360953075
 20
856.9765666418904
 30
0.0
 11
2064.674360953075
 21
843.9115712338322
 31
0.0
  0
LINE
  5
7F4
330
7CD
100
AcDbEntity
  8
0
  6
Continuous
 62
     7
370
    15
100
AcDbLine
 10
2069.974361263019
 20
833.2894647413128
 30
0.0
 11
2080.474002562267
 21
833.2894647413128
 31
0.0
  0
LINE
  5
7F5
330
7CD
100
AcDbEntity
  8
0
  6
Continuous
 62
     7
370
    15
100
AcDbLine
 10
2069.974361263019
 20
833.2846293145054
 30
0.0
 11
2069.974361263019
 21
833.2894647413128
 31
0.0
  0
LINE
  5
7F6
330
7CD
100
AcDbEntity
  8
0
  6
Continuous
 62
     7
370
    15
100
AcDbLine
 10
2069.974361263019
 20
833.2846293145054
 30
0.0
 11
2059.474362335903
 21
833.2846293145054
 31
0.0
  0
LINE
  5
7F7
330
7CD
100
AcDbEntity
  8
0
  6
Continuous
 62
     7
370
    15
100
AcDbLine
 10
2059.474362335903
 20
896.9264559366935
 30
0.0
 11
2059.474362335903
 21
833.2846293145054
 31
0.0
  0
LINE
  5
7F8
330
7CD
100
AcDbEntity
  8
0
  6
Continuous
 62
     7
370
    15
100
AcDbLine
 10
2080.474002562267
 20
896.9261849218243
 30
0.0
 11
2080.474002562267
 21
833.2894647413128
 31
0.0
  0
LINE
  5
7F9
330
7CD
100
AcDbEntity
  8
0
  6
Continuous
 62
     7
370
    15
100
AcDbLine
 10
2060.298802606565
 20
881.5160354518527
 30
0.0
 11
2060.298802606565
 21
860.9806725674504
 31
0.0
  0
LINE
  5
7FA
330
7CD
100
AcDbEntity
  8
0
  6
Continuous
 62
     7
370
    15
100
AcDbLine
 10
2060.298802606565
 20
860.9806725674504
 30
0.0
 11
2079.649200938446
 21
860.9806725674504
 31
0.0
  0
LINE
  5
7FB
330
7CD
100
AcDbEntity
  8
0
  6
Continuous
 62
     7
370
    15
100
AcDbLine
 10
2079.649200938446
 20
860.9806725674504
 30
0.0
 11
2079.649200938446
 21
881.5160354518527
 31
0.0
  0
LINE
  5
7FC
330
7CD
100
AcDbEntity
  8
0
  6
Continuous
 62
     7
370
    15
100
AcDbLine
 10
2079.649200938446
 20
881.5160354518527
 30
0.0
 11
2060.298802606565
 21
881.5160354518527
 31
0.0
  0
LINE
  5
7FD
330
7CD
100
AcDbEntity
  8
0
  6
Continuous
 62
     7
370
    15
100
AcDbLine
 10
2080.474002562267
 20
896.9261849218243
 30
0.0
 11
2059.474362335903
 21
896.9264559366935
 31
0.0
  0
SPLINE
  5
7FE
330
7CD
100
AcDbEntity
  8
0
  6
Continuous
 62
     7
370
    15
100
AcDbSpline
210
0.0
220
0.0
230
1.0
 70
    24
 71
     3
 72
     8
 73
     4
 74
     0
 42
0.0000000001
 43
0.0000000001
 40
0.0
 40
0.0
 40
0.0
 40
0.0
 40
1.0
 40
1.0
 40
1.0
 40
1.0
 10
2069.974360755923
 20
838.0115164424358
 30
0.0
 10
2069.974360755923
 20
838.0115528855025
 30
0.0
 10
2069.974360755923
 20
838.0115711080321
 30
0.0
 10
2069.974360755923
 20
838.0115711080321
 30
0.0
  0
LINE
  5
7FF
330
7CD
100
AcDbEntity
  8
0
  6
Continuous
 62
     7
370
    15
100
AcDbLine
 10
2069.974361263019
 20
838.0115682178372
 30
0.0
 11
2075.274361572963
 21
838.0115682178372
 31
0.0
  0
SPLINE
  5
800
330
7CD
100
AcDbEntity
  8
0
  6
Continuous
 62
     7
370
    15
100
AcDbSpline
210
0.0
220
0.0
230
1.0
 70
    24
 71
     3
 72
    10
 73
     6
 74
     0
 42
0.0000000001
 43
0.0000000001
 40
0.0
 40
0.0
 40
0.0
 40
0.0
 40
0.5
 40
0.5
 40
1.0
 40
1.0
 40
1.0
 40
1.0
 10
2069.974360755923
 20
837.5115712770689
 30
0.0
 10
2069.974360755923
 20
837.641238661798
 30
0.0
 10
2069.974360755923
 20
837.7701367794632
 30
0.0
 10
2069.974360755923
 20
837.9548649328595
 30
0.0
 10
2069.974360755923
 20
838.0095990724644
 30
0.0
 10
2069.974360755923
 20
838.0115164424358
 30
0.0
  0
LINE
  5
801
330
7CD
100
AcDbEntity
  8
0
  6
Continuous
 62
     7
370
    15
100
AcDbLine
 10
2064.674360953075
 20
838.0115682178372
 30
0.0
 11
2069.974361263019
 21
838.0115682178372
 31
0.0
  0
LINE
  5
802
330
7CD
100
AcDbEntity
  8
0
  6
Continuous
 62
     7
370
    15
100
AcDbLine
 10
2069.974361263019
 20
832.3004523211354
 30
0.0
 11
2069.974361263019
 21
833.2846293145054
 31
0.0
  0
LINE
  5
803
330
7CD
100
AcDbEntity
  8
0
  6
Continuous
 62
     7
370
    15
100
AcDbLine
 10
2059.474362335903
 20
832.300459771716
 30
0.0
 11
2069.974361263019
 21
832.300459771716
 31
0.0
  0
LINE
  5
804
330
7CD
100
AcDbEntity
  8
0
  6
Continuous
 62
     7
370
    15
100
AcDbLine
 10
2059.474362335903
 20
833.2846293145054
 30
0.0
 11
2059.474362335903
 21
832.300459771716
 31
0.0
  0
LINE
  5
805
330
7CD
100
AcDbEntity
  8
0
  6
Continuous
 62
     7
370
    15
100
AcDbLine
 10
2080.474002562267
 20
832.300459771716
 30
0.0
 11
2069.974361263019
 21
832.300459771716
 31
0.0
  0
LINE
  5
806
330
7CD
100
AcDbEntity
  8
0
  6
Continuous
 62
     7
370
    15
100
AcDbLine
 10
2080.474002562267
 20
833.2894647413128
 30
0.0
 11
2080.474002562267
 21
832.300459771716
 31
0.0
  0
LINE
  5
807
330
7CD
100
AcDbEntity
  8
0
  6
Continuous
 62
     7
370
    15
100
AcDbLine
 10
2064.9743623061
 20
838.6115709238881
 30
0.0
 11
2074.974360219938
 21
838.6115709238881
 31
0.0
  0
LINE
  5
808
330
7CD
100
AcDbEntity
  8
0
  6
Continuous
 62
     7
370
    15
100
AcDbLine
 10
2064.9743623061
 20
838.6115709238881
 30
0.0
 11
2064.9743623061
 21
839.611572950446
 31
0.0
  0
LINE
  5
809
330
7CD
100
AcDbEntity
  8
0
  6
Continuous
 62
     7
370
    15
100
AcDbLine
 10
2062.974361978275
 20
839.611572950446
 30
0.0
 11
2064.9743623061
 21
839.611572950446
 31
0.0
  0
LINE
  5
80A
330
7CD
100
AcDbEntity
  8
0
  6
Continuous
 62
     7
370
    15
100
AcDbLine
 10
2062.974361978275
 20
839.611572950446
 30
0.0
 11
2062.974361978275
 21
842.6115715795392
 31
0.0
  0
LINE
  5
80B
330
7CD
100
AcDbEntity
  8
0
  6
Continuous
 62
     7
370
    15
100
AcDbLine
 10
2064.9743623061
 20
842.6115715795392
 30
0.0
 11
2062.974361978275
 21
842.6115715795392
 31
0.0
  0
LINE
  5
80C
330
7CD
100
AcDbEntity
  8
0
  6
Continuous
 62
     7
370
    15
100
AcDbLine
 10
2064.9743623061
 20
843.8115695410603
 30
0.0
 11
2064.9743623061
 21
842.6115715795392
 31
0.0
  0
LINE
  5
80D
330
7CD
100
AcDbEntity
  8
0
  6
Continuous
 62
     7
370
    15
100
AcDbLine
 10
2064.9743623061
 20
843.8115695410603
 30
0.0
 11
2074.974360219938
 21
843.8115695410603
 31
0.0
  0
LINE
  5
80E
330
7CD
100
AcDbEntity
  8
0
  6
Continuous
 62
     7
370
    15
100
AcDbLine
 10
2074.974360219938
 20
842.6115715795392
 30
0.0
 11
2074.974360219938
 21
843.8115695410603
 31
0.0
  0
LINE
  5
80F
330
7CD
100
AcDbEntity
  8
0
  6
Continuous
 62
     7
370
    15
100
AcDbLine
 10
2076.974360547763
 20
842.6115715795392
 30
0.0
 11
2074.974360219938
 21
842.6115715795392
 31
0.0
  0
LINE
  5
810
330
7CD
100
AcDbEntity
  8
0
  6
Continuous
 62
     7
370
    15
100
AcDbLine
 10
2076.974360547763
 20
839.611572950446
 30
0.0
 11
2076.974360547763
 21
842.6115715795392
 31
0.0
  0
LINE
  5
811
330
7CD
100
AcDbEntity
  8
0
  6
Continuous
 62
     7
370
    15
100
AcDbLine
 10
2074.974360219938
 20
839.611572950446
 30
0.0
 11
2076.974360547763
 21
839.611572950446
 31
0.0
  0
LINE
  5
812
330
7CD
100
AcDbEntity
  8
0
  6
Continuous
 62
     7
370
    15
100
AcDbLine
 10
2074.974360219938
 20
839.611572950446
 30
0.0
 11
2074.974360219938
 21
838.6115709238881
 31
0.0
  0
LINE
  5
813
330
7CD
100
AcDbEntity
  8
0
  6
Continuous
 62
     7
370
    15
100
AcDbLine
 10
2074.974360219938
 20
838.6115709238881
 30
0.0
 11
2074.974360219938
 21
838.1115699106091
 31
0.0
  0
LINE
  5
814
330
7CD
100
AcDbEntity
  8
0
  6
Continuous
 62
     7
370
    15
100
AcDbLine
 10
2064.9743623061
 20
838.1115699106091
 30
0.0
 11
2074.974360219938
 21
838.1115699106091
 31
0.0
  0
LINE
  5
815
330
7CD
100
AcDbEntity
  8
0
  6
Continuous
 62
     7
370
    15
100
AcDbLine
 10
2064.9743623061
 20
838.1115699106091
 30
0.0
 11
2064.9743623061
 21
838.6115709238881
 31
0.0
  0
LINE
  5
816
330
7CD
100
AcDbEntity
  8
0
  6
Continuous
 62
     7
370
    15
100
AcDbLine
 10
2076.974360547763
 20
839.611572950446
 30
0.0
 11
2076.974360547763
 21
839.111571937167
 31
0.0
  0
LINE
  5
817
330
7CD
100
AcDbEntity
  8
0
  6
Continuous
 62
     7
370
    15
100
AcDbLine
 10
2076.974360547763
 20
839.111571937167
 30
0.0
 11
2074.974360219938
 21
839.111571937167
 31
0.0
  0
LINE
  5
818
330
7CD
100
AcDbEntity
  8
0
  6
Continuous
 62
     7
370
    15
100
AcDbLine
 10
2064.9743623061
 20
839.111571937167
 30
0.0
 11
2064.224360786182
 21
839.111571937167
 31
0.0
  0
LINE
  5
819
330
7CD
100
AcDbEntity
  8
0
  6
Continuous
 62
     7
370
    15
100
AcDbLine
 10
2062.974361978275
 20
839.111571937167
 30
0.0
 11
2064.224360786182
 21
839.111571937167
 31
0.0
  0
LINE
  5
81A
330
7CD
100
AcDbEntity
  8
0
  6
Continuous
 62
     7
370
    15
100
AcDbLine
 10
2062.974361978275
 20
839.111571937167
 30
0.0
 11
2062.974361978275
 21
839.611572950446
 31
0.0
  0
LINE
  5
81B
330
7CD
100
AcDbEntity
  8
0
  6
Continuous
 62
     7
370
    15
100
AcDbLine
 10
2062.974361978275
 20
843.1115725928181
 30
0.0
 11
2064.224360786182
 21
843.1115725928181
 31
0.0
  0
LINE
  5
81C
330
7CD
100
AcDbEntity
  8
0
  6
Continuous
 62
     7
370
    15
100
AcDbLine
 10
2064.224360786182
 20
843.1115725928181
 30
0.0
 11
2064.9743623061
 21
843.1115725928181
 31
0.0
  0
LINE
  5
81D
330
7CD
100
AcDbEntity
  8
0
  6
Continuous
 62
     7
370
    15
100
AcDbLine
 10
2062.974361978275
 20
842.6115715795392
 30
0.0
 11
2062.974361978275
 21
843.1115725928181
 31
0.0
  0
LINE
  5
81E
330
7CD
100
AcDbEntity
  8
0
  6
Continuous
 62
     7
370
    15
100
AcDbLine
 10
2074.974360219938
 20
843.1115725928181
 30
0.0
 11
2076.974360547763
 21
843.1115725928181
 31
0.0
  0
LINE
  5
81F
330
7CD
100
AcDbEntity
  8
0
  6
Continuous
 62
     7
370
    15
100
AcDbLine
 10
2076.974360547763
 20
843.1115725928181
 30
0.0
 11
2076.974360547763
 21
842.6115715795392
 31
0.0
  0
LINE
  5
820
330
7CD
100
AcDbEntity
  8
0
  6
Continuous
 62
     7
370
    15
100
AcDbLine
 10
2064.9743623061
 20
844.1115708940857
 30
0.0
 11
2074.274359546405
 21
844.1115708940857
 31
0.0
  0
LINE
  5
821
330
7CD
100
AcDbEntity
  8
0
  6
Continuous
 62
     7
370
    15
100
AcDbLine
 10
2074.274359546405
 20
843.8552001410359
 30
0.0
 11
2074.274359546405
 21
844.1115708940857
 31
0.0
  0
LINE
  5
822
330
7CD
100
AcDbEntity
  8
0
  6
Continuous
 62
     7
370
    15
100
AcDbLine
 10
2074.274359546405
 20
843.8552001410359
 30
0.0
 11
2074.974360219938
 21
843.8552001410359
 31
0.0
  0
LINE
  5
823
330
7CD
100
AcDbEntity
  8
0
  6
Continuous
 62
     7
370
    15
100
AcDbLine
 10
2074.974360219938
 20
843.8115695410603
 30
0.0
 11
2074.974360219938
 21
843.8552001410359
 31
0.0
  0
LINE
  5
824
330
7CD
100
AcDbEntity
  8
0
  6
Continuous
 62
     7
370
    15
100
AcDbLine
 10
2064.9743623061
 20
844.1115708940857
 30
0.0
 11
2064.9743623061
 21
843.8115695410603
 31
0.0
  0
ELLIPSE
  5
825
330
7CD
100
AcDbEntity
  8
0
  6
Continuous
 62
     7
370
    15
100
AcDbEllipse
 10
2076.603949573769
 20
863.498354933241
 30
0.0
 11
-0.0000000000012221
 21
2.000000000000028
 31
0.0
210
0.0
220
0.0
230
1.0
 40
0.4299675378445126
 41
5.67232006898042
 42
6.283185307179586
  0
LINE
  5
826
330
7CD
100
AcDbEntity
  8
0
  6
Continuous
 62
     7
370
    15
100
AcDbLine
 10
2075.874002925855
 20
876.9983554178113
 30
0.0
 11
2075.874002925855
 21
865.4983544641369
 31
0.0
  0
ELLIPSE
  5
827
330
7CD
100
AcDbEntity
  8
0
  6
Continuous
 62
     7
370
    15
100
AcDbEllipse
 10
2076.603949573767
 20
878.9983549332411
 30
0.0
 11
-0.0000000000012221
 21
2.0
 31
0.0
210
0.0
220
0.0
230
1.0
 40
0.4299675378445258
 41
3.141592653588636
 42
3.752457891786654
  0
LINE
  5
828
330
7CD
100
AcDbEntity
  8
0
  6
Continuous
 62
     7
370
    15
100
AcDbLine
 10
2079.649200938446
 20
881.5160354518527
 30
0.0
 11
2077.097187094194
 21
877.3600513034695
 31
0.0
  0
LINE
  5
829
330
7CD
100
AcDbEntity
  8
0
  6
Continuous
 62
     7
370
    15
100
AcDbLine
 10
2077.097187094194
 20
865.1366585784787
 30
0.0
 11
2079.649200938446
 21
860.9806725674504
 31
0.0
  0
LINE
  5
82A
330
7CD
100
AcDbEntity
  8
0
  6
Continuous
 62
     7
370
    15
100
AcDbLine
 10
2062.850816450817
 20
877.3600513034695
 30
0.0
 11
2077.097187094194
 21
877.3600513034695
 31
0.0
  0
LINE
  5
82B
330
7CD
100
AcDbEntity
  8
0
  6
Continuous
 62
     7
370
    15
100
AcDbLine
 10
2060.298802606565
 20
881.5160354518527
 30
0.0
 11
2062.850816450817
 21
877.3600513034695
 31
0.0
  0
ELLIPSE
  5
82C
330
7CD
100
AcDbEntity
  8
0
  6
Continuous
 62
     7
370
    15
100
AcDbEllipse
 10
2063.344055833397
 20
878.9983549333737
 30
0.0
 11
0.0000000000007674
 21
2.0
 31
0.0
210
0.0
220
0.0
230
1.0
 40
0.4299675378444193
 41
2.530727415392942
 42
3.141592653591032
  0
LINE
  5
82D
330
7CD
100
AcDbEntity
  8
0
  6
Continuous
 62
     7
370
    15
100
AcDbLine
 10
2064.074004344446
 20
876.9983554178113
 30
0.0
 11
2064.074004344446
 21
865.4983544641369
 31
0.0
  0
ELLIPSE
  5
82E
330
7CD
100
AcDbEntity
  8
0
  6
Continuous
 62
     7
370
    15
100
AcDbEllipse
 10
2063.344055833399
 20
863.4983549333737
 30
0.0
 11
0.0000000000007674
 21
2.0
 31
0.0
210
0.0
220
0.0
230
1.0
 40
0.4299675378444121
 41
0.0
 42
0.610865238199188
  0
LINE
  5
82F
330
7CD
100
AcDbEntity
  8
0
  6
Continuous
 62
     7
370
    15
100
AcDbLine
 10
2062.850816450817
 20
865.1366585784787
 30
0.0
 11
2060.298802606565
 21
860.9806725674504
 31
0.0
  0
LINE
  5
830
330
7CD
100
AcDbEntity
  8
0
  6
Continuous
 62
     7
370
    15
100
AcDbLine
 10
2077.097187094194
 20
865.1366585784787
 30
0.0
 11
2062.850816450817
 21
865.1366585784787
 31
0.0
  0
LINE
  5
831
330
7CD
100
AcDbEntity
  8
0
  6
Continuous
 62
     7
370
    15
100
AcDbLine
 10
2064.674360953075
 20
843.4115702205533
 30
0.0
 11
2064.224360786182
 21
843.4115702205533
 31
0.0
  0
LINE
  5
832
330
7CD
100
AcDbEntity
  8
0
  6
Continuous
 62
     7
370
    15
100
AcDbLine
 10
2064.224360786182
 20
843.4115702205533
 30
0.0
 11
2062.67436062525
 21
843.4115702205533
 31
0.0
  0
LINE
  5
833
330
7CD
100
AcDbEntity
  8
0
  6
Continuous
 62
     7
370
    15
100
AcDbLine
 10
2064.674360953075
 20
843.9115712338322
 30
0.0
 11
2064.674360953075
 21
843.4115702205533
 31
0.0
  0
LINE
  5
834
330
7CD
100
AcDbEntity
  8
0
  6
Continuous
 62
     7
370
    15
100
AcDbLine
 10
2062.67436062525
 20
839.0115702443951
 30
0.0
 11
2064.224360786182
 21
839.0115702443951
 31
0.0
  0
LINE
  5
835
330
7CD
100
AcDbEntity
  8
0
  6
Continuous
 62
     7
370
    15
100
AcDbLine
 10
2064.224360786182
 20
839.0115702443951
 30
0.0
 11
2064.674360953075
 21
839.0115702443951
 31
0.0
  0
LINE
  5
836
330
7CD
100
AcDbEntity
  8
0
  6
Continuous
 62
     7
370
    15
100
AcDbLine
 10
2064.674360953075
 20
839.0115702443951
 30
0.0
 11
2064.674360953075
 21
838.5115692311162
 31
0.0
  0
LINE
  5
837
330
7CD
100
AcDbEntity
  8
0
  6
Continuous
 62
     7
370
    15
100
AcDbLine
 10
2075.274361572963
 20
839.0115702443951
 30
0.0
 11
2077.274361900789
 21
839.0115702443951
 31
0.0
  0
LINE
  5
838
330
7CD
100
AcDbEntity
  8
0
  6
Continuous
 62
     7
370
    15
100
AcDbLine
 10
2075.274361572963
 20
838.5115692311162
 30
0.0
 11
2075.274361572963
 21
839.0115702443951
 31
0.0
  0
LINE
  5
839
330
7CD
100
AcDbEntity
  8
0
  6
Continuous
 62
     7
370
    15
100
AcDbLine
 10
2069.974182449085
 20
897.4212825217479
 30
0.0
 11
2069.974182449085
 21
897.51448369708
 31
0.0
  0
LINE
  5
83A
330
7CD
100
AcDbEntity
  8
0
  6
Continuous
 62
     7
370
    15
100
AcDbLine
 10
2073.094358943206
 20
897.5144287490481
 30
0.0
 11
2069.974182449085
 21
897.5144287490481
 31
0.0
  0
LINE
  5
83B
330
7CD
100
AcDbEntity
  8
0
  6
Continuous
 62
     7
370
    15
100
AcDbLine
 10
2073.094358943206
 20
906.0867581668505
 30
0.0
 11
2073.094358943206
 21
897.5144287490481
 31
0.0
  0
LINE
  5
83C
330
7CD
100
AcDbEntity
  8
0
  6
Continuous
 62
     7
370
    15
100
AcDbLine
 10
2069.974182449085
 20
906.0867583123696
 30
0.0
 11
2073.094358943206
 21
906.0867581668505
 31
0.0
  0
LINE
  5
83D
330
7CD
100
AcDbEntity
  8
0
  6
Continuous
 62
     7
370
    15
100
AcDbLine
 10
2069.974182449085
 20
906.0868137842705
 30
0.0
 11
2069.974182449085
 21
906.179838066521
 31
0.0
  0
LINE
  5
83E
330
7CD
100
AcDbEntity
  8
0
  6
Continuous
 62
     7
370
    15
100
AcDbLine
 10
2080.474002562267
 20
906.1796790722953
 30
0.0
 11
2069.974182449085
 21
906.1797825946202
 31
0.0
  0
LINE
  5
83F
330
7CD
100
AcDbEntity
  8
0
  6
Continuous
 62
     7
370
    15
100
AcDbLine
 10
2080.474002562267
 20
906.1796790722953
 30
0.0
 11
2080.474002562267
 21
897.4211428233617
 31
0.0
  0
LINE
  5
840
330
7CD
100
AcDbEntity
  8
0
  6
Continuous
 62
     7
370
    15
100
AcDbLine
 10
2069.974182449085
 20
906.179838066521
 30
0.0
 11
2059.474362335903
 21
906.179941588846
 31
0.0
  0
LINE
  5
841
330
7CD
100
AcDbEntity
  8
0
  6
Continuous
 62
     7
370
    15
100
AcDbLine
 10
2066.854359857542
 20
906.0868137842705
 30
0.0
 11
2069.974182449085
 21
906.0868137842705
 31
0.0
  0
LINE
  5
842
330
7CD
100
AcDbEntity
  8
0
  6
Continuous
 62
     7
370
    15
100
AcDbLine
 10
2066.854359857542
 20
897.51448369708
 30
0.0
 11
2066.854359857542
 21
906.0868137842705
 31
0.0
  0
LINE
  5
843
330
7CD
100
AcDbEntity
  8
0
  6
Continuous
 62
     7
370
    15
100
AcDbLine
 10
2069.974182449085
 20
897.51448369708
 30
0.0
 11
2066.854359857542
 21
897.51448369708
 31
0.0
  0
LINE
  5
844
330
7CD
100
AcDbEntity
  8
0
  6
Continuous
 62
     7
370
    15
100
AcDbLine
 10
2059.474362335903
 20
906.179941588846
 30
0.0
 11
2059.474362335903
 21
897.4213663407796
 31
0.0
  0
LINE
  5
845
330
7CD
100
AcDbEntity
  8
0
  6
Continuous
 62
     7
370
    15
100
AcDbLine
 10
2075.274003945095
 20
843.4115702205533
 30
0.0
 11
2076.274359874231
 21
843.4115702205533
 31
0.0
  0
LINE
  5
846
330
7CD
100
AcDbEntity
  8
0
  6
Continuous
 62
     7
370
    15
100
AcDbLine
 10
2075.274003945095
 20
843.4115702205533
 30
0.0
 11
2075.274003945095
 21
843.4161821299428
 31
0.0
  0
LINE
  5
847
330
7CD
100
AcDbEntity
  8
0
  6
Continuous
 62
     7
370
    15
100
AcDbLine
 10
2077.274361900789
 20
843.4115702205533
 30
0.0
 11
2076.174361906749
 21
843.4115702205533
 31
0.0
  0
LINE
  5
848
330
7CD
100
AcDbEntity
  8
0
  6
Continuous
 62
     7
370
    15
100
AcDbLine
 10
2064.224360786182
 20
843.4115702205533
 30
0.0
 11
2064.9743623061
 21
843.4115702205533
 31
0.0
  0
LINE
  5
849
330
7CD
100
AcDbEntity
  8
0
  6
Continuous
 62
     7
370
    15
100
AcDbLine
 10
2074.974360219938
 20
843.4115702205533
 30
0.0
 11
2076.174361906749
 21
843.4115702205533
 31
0.0
  0
LINE
  5
84A
330
7CD
100
AcDbEntity
  8
0
  6
Continuous
 62
     7
370
    15
100
AcDbLine
 10
2064.9743623061
 20
843.4115702205533
 30
0.0
 11
2064.674360953075
 21
843.4115702205533
 31
0.0
  0
LINE
  5
84B
330
7CD
100
AcDbEntity
  8
0
  6
Continuous
 62
     7
370
    15
100
AcDbLine
 10
2074.974360219938
 20
843.4115702205533
 30
0.0
 11
2075.274361572963
 21
843.4115702205533
 31
0.0
  0
LINE
  5
84C
330
7CD
100
AcDbEntity
  8
0
  6
Continuous
 62
     7
370
    15
100
AcDbLine
 10
2064.224360786182
 20
839.111571937167
 30
0.0
 11
2064.224360786182
 21
839.0115702443951
 31
0.0
  0
LINE
  5
84D
330
7CD
100
AcDbEntity
  8
0
  6
Continuous
 62
     7
370
    15
100
AcDbLine
 10
2064.224360786182
 20
843.4115702205533
 30
0.0
 11
2064.224360786182
 21
843.1115725928181
 31
0.0
  0
LINE
  5
84E
330
7CD
100
AcDbEntity
  8
0
  6
Continuous
 62
     7
370
    15
100
AcDbLine
 10
2069.974361263019
 20
832.300459771716
 30
0.0
 11
2069.974361263019
 21
831.4837941819066
 31
0.0
  0
LINE
  5
84F
330
7CD
100
AcDbEntity
  8
0
  6
Continuous
 62
     7
370
    15
100
AcDbLine
 10
2080.474002562267
 20
831.4837941819066
 30
0.0
 11
2069.974361263019
 21
831.4837941819066
 31
0.0
  0
LINE
  5
850
330
7CD
100
AcDbEntity
  8
0
  6
Continuous
 62
     7
370
    15
100
AcDbLine
 10
2080.474002562267
 20
832.300459771716
 30
0.0
 11
2080.474002562267
 21
831.4837941819066
 31
0.0
  0
LINE
  5
851
330
7CD
100
AcDbEntity
  8
0
  6
Continuous
 62
     7
370
    15
100
AcDbLine
 10
2059.474362335903
 20
831.4837941819066
 30
0.0
 11
2069.974361263019
 21
831.4837941819066
 31
0.0
  0
LINE
  5
852
330
7CD
100
AcDbEntity
  8
0
  6
Continuous
 62
     7
370
    15
100
AcDbLine
 10
2059.474362335903
 20
832.300459771716
 30
0.0
 11
2059.474362335903
 21
831.4837941819066
 31
0.0
  0
LINE
  5
853
330
7CD
100
AcDbEntity
  8
0
  6
Continuous
 62
     7
370
    15
100
AcDbLine
 10
2064.674360953075
 20
852.3656034761303
 30
0.0
 11
2075.274003945095
 21
852.3656034761303
 31
0.0
  0
LINE
  5
854
330
7CD
100
AcDbEntity
  8
0
  6
Continuous
 62
     7
370
    15
100
AcDbLine
 10
2077.274361900789
 20
843.1115725928181
 30
0.0
 11
2076.974360547763
 21
843.1115725928181
 31
0.0
  0
LINE
  5
855
330
7CD
100
AcDbEntity
  8
0
  6
Continuous
 62
     7
370
    15
100
AcDbLine
 10
2076.174361906749
 20
843.4115702205533
 30
0.0
 11
2076.174361906749
 21
843.1115725928181
 31
0.0
  0
LINE
  5
856
330
7CD
100
AcDbEntity
  8
0
  6
Continuous
 62
     7
370
    15
100
AcDbLine
 10
2076.174361906749
 20
839.111571937167
 30
0.0
 11
2076.174361906749
 21
839.0115702443951
 31
0.0
  0
LINE
  5
857
330
7CD
100
AcDbEntity
  8
0
  6
Continuous
 62
     7
370
    15
100
AcDbLine
 10
2066.854359857542
 20
898.4567465179795
 30
0.0
 11
2073.094358943206
 21
898.4567465179795
 31
0.0
  0
LINE
  5
858
330
7CD
100
AcDbEntity
  8
0
  6
Continuous
 62
     7
370
    15
100
AcDbLine
 10
2073.094358943206
 20
898.7296002836162
 30
0.0
 11
2066.854359857542
 21
898.7296002836162
 31
0.0
  0
LINE
  5
859
330
7CD
100
AcDbEntity
  8
0
  6
Continuous
 62
     7
370
    15
100
AcDbLine
 10
2073.094358943206
 20
897.9887531989449
 30
0.0
 11
2066.854359857542
 21
897.9887531989449
 31
0.0
  0
LINE
  5
85A
330
7CD
100
AcDbEntity
  8
0
  6
Continuous
 62
     7
370
    15
100
AcDbLine
 10
2066.854359857542
 20
899.5598007844025
 30
0.0
 11
2073.094358943206
 21
899.5598007844025
 31
0.0
  0
LINE
  5
85B
330
7CD
100
AcDbEntity
  8
0
  6
Continuous
 62
     7
370
    15
100
AcDbLine
 10
2066.854359857542
 20
897.6818647154802
 30
0.0
 11
2073.094358943206
 21
897.6818647154802
 31
0.0
  0
LINE
  5
85C
330
7CD
100
AcDbEntity
  8
0
  6
Continuous
 62
     7
370
    15
100
AcDbLine
 10
2075.274003945095
 20
851.7259078019494
 30
0.0
 11
2074.974360219938
 21
851.7259078019494
 31
0.0
  0
LINE
  5
85D
330
7CD
100
AcDbEntity
  8
0
  6
Continuous
 62
     7
370
    15
100
AcDbLine
 10
2069.974361263019
 20
851.7259078019494
 30
0.0
 11
2074.974360219938
 21
851.7259078019494
 31
0.0
  0
LINE
  5
85E
330
7CD
100
AcDbEntity
  8
0
  6
Continuous
 62
     7
370
    15
100
AcDbLine
 10
2064.9743623061
 20
851.7259078019494
 30
0.0
 11
2069.974361263019
 21
851.7259078019494
 31
0.0
  0
LINE
  5
85F
330
7CD
100
AcDbEntity
  8
0
  6
Continuous
 62
     7
370
    15
100
AcDbLine
 10
2064.674360953075
 20
851.7259078019494
 30
0.0
 11
2064.9743623061
 21
851.7259078019494
 31
0.0
  0
LINE
  5
860
330
7CD
100
AcDbEntity
  8
0
  6
Continuous
 62
     7
370
    15
100
AcDbLine
 10
2064.674360953075
 20
852.229362159335
 30
0.0
 11
2075.274003945095
 21
852.229362159335
 31
0.0
  0
LINE
  5
861
330
7CD
100
AcDbEntity
  8
0
  6
Continuous
 62
     7
370
    15
100
AcDbLine
 10
2066.854359857542
 20
900.6785003387564
 30
0.0
 11
2073.094358943206
 21
900.6785003387564
 31
0.0
  0
LINE
  5
862
330
7CD
100
AcDbEntity
  8
0
  6
Continuous
 62
     7
370
    15
100
AcDbLine
 10
2073.094358943206
 20
900.9513541043931
 30
0.0
 11
2066.854359857542
 21
900.9513541043931
 31
0.0
  0
LINE
  5
863
330
7CD
100
AcDbEntity
  8
0
  6
Continuous
 62
     7
370
    15
100
AcDbLine
 10
2073.094358943206
 20
900.2105065540606
 30
0.0
 11
2066.854359857542
 21
900.2105065540606
 31
0.0
  0
LINE
  5
864
330
7CD
100
AcDbEntity
  8
0
  6
Continuous
 62
     7
370
    15
100
AcDbLine
 10
2066.854359857542
 20
901.7815546051794
 30
0.0
 11
2073.094358943206
 21
901.7815546051794
 31
0.0
  0
LINE
  5
865
330
7CD
100
AcDbEntity
  8
0
  6
Continuous
 62
     7
370
    15
100
AcDbLine
 10
2066.854359857542
 20
899.9036185362571
 30
0.0
 11
2073.094358943206
 21
899.9036185362571
 31
0.0
  0
LINE
  5
866
330
7CD
100
AcDbEntity
  8
0
  6
Continuous
 62
     7
370
    15
100
AcDbLine
 10
2076.603951208097
 20
876.9983554178113
 30
0.0
 11
2063.344056062204
 21
876.9983554178113
 31
0.0
  0
LINE
  5
867
330
7CD
100
AcDbEntity
  8
0
  6
Continuous
 62
     7
370
    15
100
AcDbLine
 10
2063.344056062204
 20
865.4983544641369
 30
0.0
 11
2076.603951208097
 21
865.4983544641369
 31
0.0
  0
LWPOLYLINE
  5
868
330
7CD
100
AcDbEntity
  8
0
  6
Continuous
 62
     7
370
    15
100
AcDbPolyline
 90
        2
 70
   128
 43
0.0
 10
2069.974361263019
 20
831.4727971249455
 10
2069.974361263019
 20
831.4727971249455
  0
LINE
  5
869
330
7CD
100
AcDbEntity
  8
0
  6
Continuous
 62
     7
370
    15
100
AcDbLine
 10
2069.974361263019
 20
831.4837941819066
 30
0.0
 11
2069.974361263019
 21
831.4727971249455
 31
0.0
  0
LINE
  5
86A
330
7CD
100
AcDbEntity
  8
0
  6
Continuous
 62
     7
370
    15
100
AcDbLine
 10
2080.474002562267
 20
831.4727971249455
 30
0.0
 11
2069.974361263019
 21
831.4727971249455
 31
0.0
  0
LINE
  5
86B
330
7CD
100
AcDbEntity
  8
0
  6
Continuous
 62
     7
370
    15
100
AcDbLine
 10
2080.474002562267
 20
831.4837941819066
 30
0.0
 11
2080.474002562267
 21
831.4727971249455
 31
0.0
  0
LINE
  5
86C
330
7CD
100
AcDbEntity
  8
0
  6
Continuous
 62
     7
370
    15
100
AcDbLine
 10
2059.474362335903
 20
831.4727971249455
 30
0.0
 11
2069.974361263019
 21
831.4727971249455
 31
0.0
  0
LINE
  5
86D
330
7CD
100
AcDbEntity
  8
0
  6
Continuous
 62
     7
370
    15
100
AcDbLine
 10
2059.474362335903
 20
831.4837941819066
 30
0.0
 11
2059.474362335903
 21
831.4727971249455
 31
0.0
  0
LINE
  5
86E
330
7CD
100
AcDbEntity
  8
0
  6
Continuous
 62
     7
370
    15
100
AcDbLine
 10
2074.974360219938
 20
838.1115699106091
 30
0.0
 11
2074.974360219938
 21
838.0115682178372
 31
0.0
  0
LINE
  5
86F
330
7CD
100
AcDbEntity
  8
0
  6
Continuous
 62
     7
370
    15
100
AcDbLine
 10
2064.9743623061
 20
838.0115682178372
 30
0.0
 11
2064.9743623061
 21
838.1115699106091
 31
0.0
  0
LINE
  5
870
330
7CD
100
AcDbEntity
  8
0
  6
Continuous
 62
     7
370
    15
100
AcDbLine
 10
2066.854359857542
 20
902.9002539267027
 30
0.0
 11
2073.094358943206
 21
902.9002539267027
 31
0.0
  0
LINE
  5
871
330
7CD
100
AcDbEntity
  8
0
  6
Continuous
 62
     7
370
    15
100
AcDbLine
 10
2073.094358943206
 20
903.1731074595088
 30
0.0
 11
2066.854359857542
 21
903.1731074595088
 31
0.0
  0
LINE
  5
872
330
7CD
100
AcDbEntity
  8
0
  6
Continuous
 62
     7
370
    15
100
AcDbLine
 10
2073.094358943206
 20
902.4322603748375
 30
0.0
 11
2066.854359857542
 21
902.4322603748375
 31
0.0
  0
LINE
  5
873
330
7CD
100
AcDbEntity
  8
0
  6
Continuous
 62
     7
370
    15
100
AcDbLine
 10
2066.854359857542
 20
904.0067715489501
 30
0.0
 11
2073.094358943206
 21
904.0067715489501
 31
0.0
  0
LINE
  5
874
330
7CD
100
AcDbEntity
  8
0
  6
Continuous
 62
     7
370
    15
100
AcDbLine
 10
2071.974361590845
 20
849.8259054416054
 30
0.0
 11
2073.474360905391
 21
849.8259054416054
 31
0.0
  0
ARC
  5
875
330
7CD
100
AcDbEntity
  8
0
  6
Continuous
 62
     7
370
    15
100
AcDbCircle
 10
2071.974360755923
 20
849.325905984203
 30
0.0
 40
0.5
100
AcDbArc
 50
90.0
 51
179.9999999994854
  0
ARC
  5
876
330
7CD
100
AcDbEntity
  8
0
  6
Continuous
 62
     7
370
    15
100
AcDbCircle
 10
2067.974360755923
 20
849.325905984203
 30
0.0
 40
0.4999999999999858
100
AcDbArc
 50
359.999999999987
 51
90.0
  0
LINE
  5
877
330
7CD
100
AcDbEntity
  8
0
  6
Continuous
 62
     7
370
    15
100
AcDbLine
 10
2066.474361620647
 20
849.8259054416054
 30
0.0
 11
2067.974360935194
 21
849.8259054416054
 31
0.0
  0
LINE
  5
878
330
7CD
100
AcDbEntity
  8
0
  6
Continuous
 62
     7
370
    15
100
AcDbLine
 10
2066.474361620647
 20
851.7259078019494
 30
0.0
 11
2066.474361620647
 21
849.8259054416054
 31
0.0
  0
LINE
  5
879
330
7CD
100
AcDbEntity
  8
0
  6
Continuous
 62
     7
370
    15
100
AcDbLine
 10
2073.474360905391
 20
849.8259054416054
 30
0.0
 11
2073.474360905391
 21
851.7259078019494
 31
0.0
  0
LINE
  5
87A
330
7CD
100
AcDbEntity
  8
0
  6
Continuous
 62
     7
370
    15
100
AcDbLine
 10
2071.474360577566
 20
844.1115708940857
 30
0.0
 11
2071.474360577566
 21
849.3259044283265
 31
0.0
  0
LINE
  5
87B
330
7CD
100
AcDbEntity
  8
0
  6
Continuous
 62
     7
370
    15
100
AcDbLine
 10
2068.474361948473
 20
849.3259044283265
 30
0.0
 11
2068.474361948473
 21
844.1115708940857
 31
0.0
  0
LINE
  5
87C
330
7CD
100
AcDbEntity
  8
0
  6
Continuous
 62
     7
370
    15
100
AcDbLine
 10
2066.854359857542
 20
902.1253718913728
 30
0.0
 11
2073.094358943206
 21
902.1253718913728
 31
0.0
  0
LINE
  5
87D
330
7CD
100
AcDbEntity
  8
0
  6
Continuous
 62
     7
370
    15
100
AcDbLine
 10
2064.9743623061
 20
829.8421630555028
 30
0.0
 11
2074.974360219938
 21
829.8421630555028
 31
0.0
  0
LINE
  5
87E
330
7CD
100
AcDbEntity
  8
0
  6
Continuous
 62
     7
370
    15
100
AcDbLine
 10
2074.974360219938
 20
831.4727971249455
 30
0.0
 11
2074.974360219938
 21
829.8421630555028
 31
0.0
  0
LINE
  5
87F
330
7CD
100
AcDbEntity
  8
0
  6
Continuous
 62
     7
370
    15
100
AcDbLine
 10
2064.9743623061
 20
829.8421630555028
 30
0.0
 11
2064.9743623061
 21
831.4727971249455
 31
0.0
  0
LINE
  5
880
330
7CD
100
AcDbEntity
  8
0
  6
Continuous
 62
     7
370
    15
100
AcDbLine
 10
2073.094358943206
 20
905.7976639981577
 30
0.0
 11
2066.854359857542
 21
905.7976639981577
 31
0.0
  0
SPLINE
  5
881
330
7CD
100
AcDbEntity
  8
0
  6
Continuous
 62
     7
370
    15
100
AcDbSpline
210
0.0
220
0.0
230
1.0
 70
    24
 71
     3
 72
     8
 73
     4
 74
     0
 42
0.0000000001
 43
0.0000000001
 40
0.0
 40
0.0
 40
0.0
 40
0.0
 40
1.0
 40
1.0
 40
1.0
 40
1.0
 10
2069.974181729751
 20
906.1798380436988
 30
0.0
 10
2069.974181729751
 20
906.3650189111557
 30
0.0
 10
2069.974181729751
 20
906.4728418886828
 30
0.0
 10
2069.974181729751
 20
906.4728578645128
 30
0.0
  0
LINE
  5
882
330
7CD
100
AcDbEntity
  8
0
  6
Continuous
 62
     7
370
    15
100
AcDbLine
 10
2069.974182449085
 20
906.4726249415004
 30
0.0
 11
2080.474002562267
 21
906.4726249415004
 31
0.0
  0
LINE
  5
883
330
7CD
100
AcDbEntity
  8
0
  6
Continuous
 62
     7
370
    15
100
AcDbLine
 10
2080.474002562267
 20
906.1796790722953
 30
0.0
 11
2080.474002562267
 21
906.4726249415004
 31
0.0
  0
LINE
  5
884
330
7CD
100
AcDbEntity
  8
0
  6
Continuous
 62
     7
370
    15
100
AcDbLine
 10
2059.474362335903
 20
906.4728578662768
 30
0.0
 11
2069.974182449085
 21
906.4728578662768
 31
0.0
  0
LINE
  5
885
330
7CD
100
AcDbEntity
  8
0
  6
Continuous
 62
     7
370
    15
100
AcDbLine
 10
2059.474362335903
 20
906.4728578662768
 30
0.0
 11
2059.474362335903
 21
906.179941588846
 31
0.0
  0
LINE
  5
886
330
7CD
100
AcDbEntity
  8
0
  6
Continuous
 62
     7
370
    15
100
AcDbLine
 10
2066.854359857542
 20
905.125471103304
 30
0.0
 11
2073.094358943206
 21
905.125471103304
 31
0.0
  0
LINE
  5
887
330
7CD
100
AcDbEntity
  8
0
  6
Continuous
 62
     7
370
    15
100
AcDbLine
 10
2073.094358943206
 20
905.39832463611
 30
0.0
 11
2066.854359857542
 21
905.39832463611
 31
0.0
  0
LINE
  5
888
330
7CD
100
AcDbEntity
  8
0
  6
Continuous
 62
     7
370
    15
100
AcDbLine
 10
2073.094358943206
 20
904.6574775514388
 30
0.0
 11
2066.854359857542
 21
904.6574775514388
 31
0.0
  0
LINE
  5
889
330
7CD
100
AcDbEntity
  8
0
  6
Continuous
 62
     7
370
    15
100
AcDbLine
 10
2075.274003945095
 20
845.1079929166668
 30
0.0
 11
2071.474360577566
 21
845.1079929166668
 31
0.0
  0
LINE
  5
88A
330
7CD
100
AcDbEntity
  8
0
  6
Continuous
 62
     7
370
    15
100
AcDbLine
 10
2068.474361948473
 20
845.1079929166668
 30
0.0
 11
2064.674360953075
 21
845.1079929166668
 31
0.0
  0
LINE
  5
88B
330
7CD
100
AcDbEntity
  8
0
  6
Continuous
 62
     7
370
    15
100
AcDbLine
 10
2073.094358943206
 20
905.5119335337737
 30
0.0
 11
2066.854359857542
 21
905.5119335337737
 31
0.0
  0
LINE
  5
88C
330
7CD
100
AcDbEntity
  8
0
  6
Continuous
 62
     7
370
    15
100
AcDbLine
 10
2069.974182449085
 20
906.4728578662768
 30
0.0
 11
2080.474002562267
 21
906.4728578662768
 31
0.0
  0
LINE
  5
88D
330
7CD
100
AcDbEntity
  8
0
  6
Continuous
 62
     7
370
    15
100
AcDbLine
 10
2080.474002562267
 20
906.4728578662768
 30
0.0
 11
2080.474002562267
 21
906.4726249415004
 31
0.0
  0
LINE
  5
88E
330
7CD
100
AcDbEntity
  8
0
  6
Continuous
 62
     7
370
    15
100
AcDbLine
 10
2066.854359857542
 20
904.3505893008047
 30
0.0
 11
2073.094358943206
 21
904.3505893008047
 31
0.0
  0
LINE
  5
88F
330
7CD
100
AcDbEntity
  8
0
  6
Continuous
 62
     7
370
    15
100
AcDbLine
 10
2064.9743623061
 20
829.4715711766118
 30
0.0
 11
2074.974360219938
 21
829.4715711766118
 31
0.0
  0
LINE
  5
890
330
7CD
100
AcDbEntity
  8
0
  6
Continuous
 62
     7
370
    15
100
AcDbLine
 10
2074.974360219938
 20
829.8421630555028
 30
0.0
 11
2074.974360219938
 21
829.4715711766118
 31
0.0
  0
LINE
  5
891
330
7CD
100
AcDbEntity
  8
0
  6
Continuous
 62
     7
370
    15
100
AcDbLine
 10
2064.9743623061
 20
829.4715711766118
 30
0.0
 11
2064.9743623061
 21
829.8421630555028
 31
0.0
  0
LINE
  5
892
330
7CD
100
AcDbEntity
  8
0
  6
Continuous
 62
     7
370
    15
100
AcDbLine
 10
2064.474182478887
 20
909.4727982686096
 30
0.0
 11
2069.974182449085
 21
909.4727982686096
 31
0.0
  0
SPLINE
  5
893
330
7CD
100
AcDbEntity
  8
0
  6
Continuous
 62
     7
370
    15
100
AcDbSpline
210
0.0
220
0.0
230
1.0
 70
    24
 71
     3
 72
    25
 73
    21
 74
     0
 42
0.0000000001
 43
0.0000000001
 40
0.0
 40
0.0
 40
0.0
 40
0.0
 40
0.0250629574095796
 40
0.0500629579172484
 40
0.0750385187267145
 40
0.1000282700501291
 40
0.1250707764294805
 40
0.1875533775931127
 40
0.2500999115320444
 40
0.312582512694278
 40
0.375129046634617
 40
0.5000068506819467
 40
0.6248846547292767
 40
0.6873672558939618
 40
0.7499137898318585
 40
0.8123963909962927
 40
0.8749429249344242
 40
0.9166301072545277
 40
0.9582560419369707
 40
1.0
 40
1.0
 40
1.0
 40
1.0
 10
2069.974181729751
 20
909.4725652658965
 30
0.0
 10
2070.046316969336
 20
909.4725652658965
 30
0.0
 10
2070.190406248374
 20
909.4725652658965
 30
0.0
 10
2070.406047868427
 20
909.4725652658965
 30
0.0
 10
2070.620812388288
 20
909.4725652658965
 30
0.0
 10
2070.834704293539
 20
909.4725652658965
 30
0.0
 10
2071.153534086525
 20
909.4725652658965
 30
0.0
 10
2071.573283591013
 20
909.4725652658965
 30
0.0
 10
2072.082120556518
 20
909.4725652658965
 30
0.0
 10
2072.571027516137
 20
909.4725652658965
 30
0.0
 10
2073.188699004294
 20
909.4725652658965
 30
0.0
 10
2073.88842952859
 20
909.4725652658965
 30
0.0
 10
2074.462196687248
 20
909.4725652658965
 30
0.0
 10
2074.832582271377
 20
909.4725652658965
 30
0.0
 10
2075.063576646096
 20
909.4725652658965
 30
0.0
 10
2075.24587387833
 20
909.4725652658965
 30
0.0
 10
2075.362638363947
 20
909.4725652658965
 30
0.0
 10
2075.430801671749
 20
909.4725652658965
 30
0.0
 10
2075.467408454076
 20
909.4725652658965
 30
0.0
 10
2075.471921841386
 20
909.4725652658965
 30
0.0
 10
2075.474181729751
 20
909.4725652658965
 30
0.0
  0
SPLINE
  5
894
330
7CD
100
AcDbEntity
  8
0
  6
Continuous
 62
     7
370
    15
100
AcDbSpline
210
0.0
220
0.0
230
1.0
 70
     8
 71
     3
 72
    11
 73
     7
 74
     0
 42
0.0000000001
 43
0.0000000001
 40
0.0
 40
0.0
 40
0.0
 40
0.0
 40
0.2543243414297091
 40
0.5086470637475136
 40
0.7629721452246562
 40
1.0
 40
1.0
 40
1.0
 40
1.0
 10
2073.724126718742
 20
906.4728536025656
 30
0.0
 10
2073.710292438323
 20
906.4728539641427
 30
0.0
 10
2073.682623965559
 20
906.4728546872947
 30
0.0
 10
2073.457811624649
 20
906.472855771071
 30
0.0
 10
2073.125903531989
 20
906.4728568313809
 30
0.0
 10
2072.809932811233
 20
906.4728575295035
 30
0.0
 10
2072.657509051067
 20
906.4728578662768
 30
0.0
  0
LINE
  5
895
330
7CD
100
AcDbEntity
  8
0
  6
Continuous
 62
     7
370
    15
100
AcDbLine
 10
2064.674360953075
 20
839.0115702443951
 30
0.0
 11
2064.9743623061
 21
839.0115702443951
 31
0.0
  0
LINE
  5
896
330
7CD
100
AcDbEntity
  8
0
  6
Continuous
 62
     7
370
    15
100
AcDbLine
 10
2074.974360219938
 20
839.0115702443951
 30
0.0
 11
2075.274361572963
 21
839.0115702443951
 31
0.0
  0
ENDBLK
  5
7CF
330
7CD
100
AcDbEntity
  8
0
100
AcDbBlockEnd
  0
BLOCK
  5
899
330
898
100
AcDbEntity
  8
0
100
AcDbBlockBegin
  2
3
 70
     0
 10
0.0
 20
0.0
 30
0.0
  3
3
  1

  0
LINE
  5
89B
330
898
100
AcDbEntity
  8
0
  6
Continuous
 62
     7
370
    15
100
AcDbLine
 10
2114.119997498556
 20
795.4820742660745
 30
0.0
 11
2114.119997498556
 21
801.7220733517392
 31
0.0
  0
LINE
  5
89C
330
898
100
AcDbEntity
  8
0
  6
Continuous
 62
     7
370
    15
100
AcDbLine
 10
2161.182059225603
 20
801.7220733517392
 30
0.0
 11
2161.182059225603
 21
795.4820742660745
 31
0.0
  0
LINE
  5
89D
330
898
100
AcDbEntity
  8
0
  6
Continuous
 62
     7
370
    15
100
AcDbLine
 10
2112.410014745756
 20
801.7220733517392
 30
0.0
 11
2112.410014745756
 21
795.4820742660745
 31
0.0
  0
LINE
  5
89E
330
898
100
AcDbEntity
  8
0
  6
Continuous
 62
     7
370
    15
100
AcDbLine
 10
2162.892041978403
 20
795.4820742660745
 30
0.0
 11
2162.892041978403
 21
801.7220733517392
 31
0.0
  0
LINE
  5
89F
330
898
100
AcDbEntity
  8
0
  6
Continuous
 62
     7
370
    15
100
AcDbLine
 10
2111.895052966638
 20
795.4820742660745
 30
0.0
 11
2111.895052966638
 21
801.7220733517392
 31
0.0
  0
LINE
  5
8A0
330
898
100
AcDbEntity
  8
0
  6
Continuous
 62
     7
370
    15
100
AcDbLine
 10
2163.40699630694
 20
801.7220733517392
 30
0.0
 11
2163.40699630694
 21
795.4820742660745
 31
0.0
  0
LINE
  5
8A1
330
898
100
AcDbEntity
  8
0
  6
Continuous
 62
     7
370
    15
100
AcDbLine
 10
2110.188534733816
 20
801.7220733517392
 30
0.0
 11
2110.188534733816
 21
795.4820742660745
 31
0.0
  0
LINE
  5
8A2
330
898
100
AcDbEntity
  8
0
  6
Continuous
 62
     7
370
    15
100
AcDbLine
 10
2165.113521990343
 20
795.4820742660745
 30
0.0
 11
2165.113521990343
 21
801.7220733517392
 31
0.0
  0
LINE
  5
8A3
330
898
100
AcDbEntity
  8
0
  6
Continuous
 62
     7
370
    15
100
AcDbLine
 10
2109.673572954698
 20
795.4820742660745
 30
0.0
 11
2109.673572954698
 21
801.7220733517392
 31
0.0
  0
LINE
  5
8A4
330
898
100
AcDbEntity
  8
0
  6
Continuous
 62
     7
370
    15
100
AcDbLine
 10
2165.62847631888
 20
801.7220733517392
 30
0.0
 11
2165.62847631888
 21
795.4820742660745
 31
0.0
  0
LINE
  5
8A5
330
898
100
AcDbEntity
  8
0
  6
Continuous
 62
     7
370
    15
100
AcDbLine
 10
2107.967054721876
 20
801.7220733517392
 30
0.0
 11
2107.967054721876
 21
795.4820742660745
 31
0.0
  0
LINE
  5
8A6
330
898
100
AcDbEntity
  8
0
  6
Continuous
 62
     7
370
    15
100
AcDbLine
 10
2167.335002002283
 20
795.4820742660745
 30
0.0
 11
2167.335002002283
 21
801.7220733517392
 31
0.0
  0
LINE
  5
8A7
330
898
100
AcDbEntity
  8
0
  6
Continuous
 62
     7
370
    15
100
AcDbLine
 10
2107.452092942758
 20
795.4820742660745
 30
0.0
 11
2107.452092942758
 21
801.7220733517392
 31
0.0
  0
LINE
  5
8A8
330
898
100
AcDbEntity
  8
0
  6
Continuous
 62
     7
370
    15
100
AcDbLine
 10
2167.84995633082
 20
801.7220733517392
 30
0.0
 11
2167.84995633082
 21
795.4820742660745
 31
0.0
  0
SPLINE
  5
8A9
330
898
100
AcDbEntity
  8
0
  6
Continuous
 62
     7
370
    15
100
AcDbSpline
210
0.0
220
0.0
230
1.0
 70
     8
 71
     3
 72
    22
 73
    18
 74
     0
 42
0.0000000001
 43
0.0000000001
 40
0.0
 40
0.0
 40
0.0
 40
0.0
 40
0.125
 40
0.125
 40
0.25
 40
0.25
 40
0.375
 40
0.375
 40
0.5
 40
0.5
 40
0.625
 40
0.625
 40
0.75
 40
0.75
 40
0.875
 40
0.875
 40
1.0
 40
1.0
 40
1.0
 40
1.0
 10
2117.230427945984
 20
798.6018961382845
 30
0.0
 10
2117.230427945984
 20
799.3218444547322
 30
0.0
 10
2117.373578224308
 20
800.0415095022605
 30
0.0
 10
2117.924602810035
 20
801.3718005303243
 30
0.0
 10
2118.332260312794
 20
801.9819030981464
 30
0.0
 10
2119.350420986122
 20
803.0000637714742
 30
0.0
 10
2119.960523553944
 20
803.4077212742326
 30
0.0
 10
2121.290814582008
 20
803.9587458599598
 30
0.0
 10
2122.010479629536
 20
804.1018961382841
 30
0.0
 10
2123.450376262431
 20
804.1018961382839
 30
0.0
 10
2124.17004130996
 20
803.9587458599594
 30
0.0
 10
2125.500332338023
 20
803.4077212742323
 30
0.0
 10
2126.110434905846
 20
803.0000637714739
 30
0.0
 10
2127.128595579174
 20
801.9819030981459
 30
0.0
 10
2127.536253081932
 20
801.3718005303237
 30
0.0
 10
2128.087277667659
 20
800.0415095022598
 30
0.0
 10
2128.230427945984
 20
799.3218444547315
 30
0.0
 10
2128.230427945984
 20
798.6018961382839
 30
0.0
  0
LINE
  5
8AA
330
898
100
AcDbEntity
  8
0
  6
Continuous
 62
     7
370
    15
100
AcDbLine
 10
2128.230428573652
 20
798.6018968576177
 30
0.0
 11
2126.742756244703
 21
798.6018968576177
 31
0.0
  0
SPLINE
  5
8AB
330
898
100
AcDbEntity
  8
0
  6
Continuous
 62
     7
370
    15
100
AcDbSpline
210
0.0
220
0.0
230
1.0
 70
     8
 71
     3
 72
    22
 73
    18
 74
     0
 42
0.0000000001
 43
0.0000000001
 40
0.0
 40
0.0
 40
0.0
 40
0.0
 40
0.125
 40
0.125
 40
0.25
 40
0.25
 40
0.375
 40
0.375
 40
0.5
 40
0.5
 40
0.625
 40
0.625
 40
0.75
 40
0.75
 40
0.875
 40
0.875
 40
1.0
 40
1.0
 40
1.0
 40
1.0
 10
2118.71792023598
 20
798.6018961382845
 30
0.0
 10
2118.717920196106
 20
799.1271161994419
 30
0.0
 10
2118.822351816497
 20
799.6521296249852
 30
0.0
 10
2119.224337786304
 20
800.6226098135732
 30
0.0
 10
2119.521733971521
 20
801.0676947340572
 30
0.0
 10
2120.264507293139
 20
801.8104681684578
 30
0.0
 10
2120.709592180043
 20
802.1078644326573
 30
0.0
 10
2121.680072365461
 20
802.5098505737918
 30
0.0
 10
2122.20508582151
 20
802.6142822862304
 30
0.0
 10
2123.255526069096
 20
802.61428236598
 30
0.0
 10
2123.78053955725
 20
802.5098507331344
 30
0.0
 10
2124.751019861572
 20
802.1078647153883
 30
0.0
 10
2125.196104835134
 20
801.8104684947045
 30
0.0
 10
2125.938878358114
 20
801.0676950845073
 30
0.0
 10
2126.23627465778
 20
800.6226101445246
 30
0.0
 10
2126.638260846853
 20
799.6521298433723
 30
0.0
 10
2126.742692571745
 20
799.127116324712
 30
0.0
 10
2126.74269261162
 20
798.6018961382842
 30
0.0
  0
LINE
  5
8AC
330
898
100
AcDbEntity
  8
0
  6
Continuous
 62
     7
370
    15
100
AcDbLine
 10
2118.717981752916
 20
798.6018968576177
 30
0.0
 11
2117.230428633257
 21
798.6018968576177
 31
0.0
  0
LINE
  5
8AD
330
898
100
AcDbEntity
  8
0
  6
Continuous
 62
     7
370
    15
100
AcDbLine
 10
2126.480249938532
 20
798.6018968576177
 30
0.0
 11
2126.742704090639
 21
798.6018968576177
 31
0.0
  0
SPLINE
  5
8AE
330
898
100
AcDbEntity
  8
0
  6
Continuous
 62
     7
370
    15
100
AcDbSpline
210
0.0
220
0.0
230
1.0
 70
     8
 71
     3
 72
    22
 73
    18
 74
     0
 42
0.0000000001
 43
0.0000000001
 40
0.0
 40
0.0
 40
0.0
 40
0.0
 40
0.125
 40
0.125
 40
0.25
 40
0.25
 40
0.375
 40
0.375
 40
0.5
 40
0.5
 40
0.625
 40
0.625
 40
0.75
 40
0.75
 40
0.875
 40
0.875
 40
1.0
 40
1.0
 40
1.0
 40
1.0
 10
2126.480252115315
 20
798.6018961382844
 30
0.0
 10
2126.480252052066
 20
799.0927629440797
 30
0.0
 10
2126.382650927498
 20
799.5834365892863
 30
0.0
 10
2126.006957641488
 20
800.4904400851103
 30
0.0
 10
2125.729013299494
 20
800.9064130686589
 30
0.0
 10
2125.034822786224
 20
801.6006034030338
 30
0.0
 10
2124.618849749412
 20
801.8785476197473
 30
0.0
 10
2123.711846248559
 20
802.2542406339999
 30
0.0
 10
2123.221172651741
 20
802.3518416125641
 30
0.0
 10
2122.239439238853
 20
802.3518414860662
 30
0.0
 10
2121.748765692959
 20
802.2542403812522
 30
0.0
 10
2120.841762380712
 20
801.8785471712819
 30
0.0
 10
2120.425789481357
 20
801.6006028855439
 30
0.0
 10
2119.731599287486
 20
800.9064125127778
 30
0.0
 10
2119.453655127028
 20
800.4904395601583
 30
0.0
 10
2119.077962188816
 20
799.5834362428828
 30
0.0
 10
2118.980361230006
 20
799.0927627453774
 30
0.0
 10
2118.980361293256
 20
798.6018961382848
 30
0.0
  0
LINE
  5
8AF
330
898
100
AcDbEntity
  8
0
  6
Continuous
 62
     7
370
    15
100
AcDbLine
 10
2118.71790724711
 20
798.6018968576177
 30
0.0
 11
2118.980361399217
 21
798.6018968576177
 31
0.0
  0
ARC
  5
8B0
330
898
100
AcDbEntity
  8
0
  6
Continuous
 62
     7
370
    15
100
AcDbCircle
 10
2122.730427945984
 20
798.6018961382839
 30
0.0
 40
5.5
100
AcDbArc
 50
179.9999999998957
 51
359.9999999998958
  0
SPLINE
  5
8B1
330
898
100
AcDbEntity
  8
0
  6
Continuous
 62
     7
370
    15
100
AcDbSpline
210
0.0
220
0.0
230
1.0
 70
     8
 71
     3
 72
    14
 73
    10
 74
     0
 42
0.0000000001
 43
0.0000000001
 40
0.0
 40
0.0
 40
0.0
 40
0.0
 40
0.25
 40
0.25
 40
0.5
 40
0.5
 40
0.75
 40
0.75
 40
1.0
 40
1.0
 40
1.0
 40
1.0
 10
2122.730427945983
 20
794.5895099628403
 30
0.0
 10
2122.205207823811
 20
794.5895099244538
 30
0.0
 10
2121.680194337876
 20
794.6939415584624
 30
0.0
 10
2120.709714038766
 20
795.0959275772712
 30
0.0
 10
2120.264629068193
 20
795.3933237978498
 30
0.0
 10
2119.521855551262
 20
796.1360972062075
 30
0.0
 10
2119.22445925465
 20
796.5811821444535
 30
0.0
 10
2118.822473070908
 20
797.5516624405114
 30
0.0
 10
2118.718041348289
 20
798.0766759558146
 30
0.0
 10
2118.718041309902
 20
798.6018961382845
 30
0.0
  0
SPLINE
  5
8B2
330
898
100
AcDbEntity
  8
0
  6
Continuous
 62
     7
370
    15
100
AcDbSpline
210
0.0
220
0.0
230
1.0
 70
     8
 71
     3
 72
    14
 73
    10
 74
     0
 42
0.0000000001
 43
0.0000000001
 40
0.0
 40
0.0
 40
0.0
 40
0.0
 40
0.25
 40
0.25
 40
0.5
 40
0.5
 40
0.75
 40
0.75
 40
1.0
 40
1.0
 40
1.0
 40
1.0
 10
2126.742813685595
 20
798.6018961382839
 30
0.0
 10
2126.742813721914
 20
798.0766760731617
 30
0.0
 10
2126.638382097186
 20
797.5516626450865
 30
0.0
 10
2126.236396118843
 20
796.5811824544738
 30
0.0
 10
2125.938999929441
 20
796.1360975344935
 30
0.0
 10
2125.196226601137
 20
795.3933241034633
 30
0.0
 10
2124.751141711743
 20
795.0959278421211
 30
0.0
 10
2123.780661524017
 20
794.6939417077276
 30
0.0
 10
2123.255648068156
 20
794.5895099991596
 30
0.0
 10
2122.730427945984
 20
794.5895099628403
 30
0.0
  0
SPLINE
  5
8B3
330
898
100
AcDbEntity
  8
0
  6
Continuous
 62
     7
370
    15
100
AcDbSpline
210
0.0
220
0.0
230
1.0
 70
     8
 71
     3
 72
    14
 73
    10
 74
     0
 42
0.0000000001
 43
0.0000000001
 40
0.0
 40
0.0
 40
0.0
 40
0.0
 40
0.25
 40
0.25
 40
0.5
 40
0.5
 40
0.75
 40
0.75
 40
1.0
 40
1.0
 40
1.0
 40
1.0
 10
2118.980502695633
 20
798.6018961382848
 30
0.0
 10
2118.980502695633
 20
798.1110320708682
 30
0.0
 10
2119.078103212594
 20
797.6203611375015
 30
0.0
 10
2119.453794304881
 20
796.7133626072388
 30
0.0
 10
2119.731737061805
 20
796.2973918755339
 30
0.0
 10
2120.425923683227
 20
795.6032052541118
 30
0.0
 10
2120.841894414932
 20
795.3252624971869
 30
0.0
 10
2121.748892945195
 20
794.9495714048996
 30
0.0
 10
2122.239563878562
 20
794.8519708879392
 30
0.0
 10
2122.730427945977
 20
794.8519708879392
 30
0.0
  0
SPLINE
  5
8B4
330
898
100
AcDbEntity
  8
0
  6
Continuous
 62
     7
370
    15
100
AcDbSpline
210
0.0
220
0.0
230
1.0
 70
     8
 71
     3
 72
    14
 73
    10
 74
     0
 42
0.0000000001
 43
0.0000000001
 40
0.0
 40
0.0
 40
0.0
 40
0.0
 40
0.25
 40
0.25
 40
0.5
 40
0.5
 40
0.75
 40
0.75
 40
1.0
 40
1.0
 40
1.0
 40
1.0
 10
2122.730427945977
 20
794.8519711184748
 30
0.0
 10
2123.221291983217
 20
794.8519711184748
 30
0.0
 10
2123.711962886419
 20
794.9495716294348
 30
0.0
 10
2124.618961360921
 20
795.3252626986256
 30
0.0
 10
2125.034932067054
 20
795.6032054384632
 30
0.0
 10
2125.729118645799
 20
796.2973920172084
 30
0.0
 10
2126.007061385636
 20
796.7133627233403
 30
0.0
 10
2126.382752454827
 20
797.6203611978429
 30
0.0
 10
2126.480352965787
 20
798.1110321010445
 30
0.0
 10
2126.480352965787
 20
798.6018961382839
 30
0.0
  0
SPLINE
  5
8B5
330
898
100
AcDbEntity
  8
0
  6
Continuous
 62
     7
370
    15
100
AcDbSpline
210
0.0
220
0.0
230
1.0
 70
     8
 71
     3
 72
    31
 73
    27
 74
     0
 42
0.0000000001
 43
0.0000000001
 40
0.0
 40
0.0
 40
0.0
 40
0.0
 40
0.0156149716808869
 40
0.031229575729435
 40
0.0468814988593421
 40
0.0626081594969237
 40
0.0938932814925489
 40
0.125110580571353
 40
0.1562318477308223
 40
0.1876552883801186
 40
0.2501272534885115
 40
0.3125959365787782
 40
0.3750679178529694
 40
0.437536600943407
 40
0.5000085822173449
 40
0.5624772653054952
 40
0.6249492465818657
 40
0.6874177461954058
 40
0.7498899182216632
 40
0.8123303357404719
 40
0.8436932118566714
 40
0.8749047639832578
 40
0.9060421046658834
 40
0.937353418533589
 40
0.9686899357276423
 40
0.9999999999999998
 40
0.9999999999999998
 40
0.9999999999999998
 40
0.9999999999999998
 10
2148.559298417648
 20
798.6018961382841
 30
0.0
 10
2148.560269667568
 20
798.6674344085839
 30
0.0
 10
2148.562212144543
 20
798.7985094061782
 30
0.0
 10
2148.577386877427
 20
798.9947933130212
 30
0.0
 10
2148.601552166023
 20
799.1905912357881
 30
0.0
 10
2148.646662491761
 20
799.449770111879
 30
0.0
 10
2148.72628379661
 20
799.7688571206012
 30
0.0
 10
2148.858640552655
 20
800.1394672637397
 30
0.0
 10
2149.027248356664
 20
800.4957650261877
 30
0.0
 10
2149.297786072448
 20
800.9460697871107
 30
0.0
 10
2149.715959413277
 20
801.4578062538708
 30
0.0
 10
2150.328736075779
 20
801.9587486284034
 30
0.0
 10
2151.02618703107
 20
802.3331900044434
 30
0.0
 10
2151.784104796266
 20
802.5616104436563
 30
0.0
 10
2152.571735436667
 20
802.6406175669002
 30
0.0
 10
2153.359379459397
 20
802.5616131708778
 30
0.0
 10
2154.117285417143
 20
802.3332011071458
 30
0.0
 10
2154.814748837122
 20
801.9587558560438
 30
0.0
 10
2155.427431488158
 20
801.4579087970059
 30
0.0
 10
2155.845371568219
 20
800.9464585801918
 30
0.0
 10
2156.115855678129
 20
800.4961307049084
 30
0.0
 10
2156.284537791792
 20
800.1401309466174
 30
0.0
 10
2156.417395717947
 20
799.7694656507895
 30
0.0
 10
2156.512343393917
 20
799.3869934391479
 30
0.0
 10
2156.572792732062
 20
798.9963704729964
 30
0.0
 10
2156.580314658854
 20
798.7333505625723
 30
0.0
 10
2156.584074034159
 20
798.6018961382842
 30
0.0
  0
LINE
  5
8B6
330
898
100
AcDbEntity
  8
0
  6
Continuous
 62
     7
370
    15
100
AcDbLine
 10
2147.071628150507
 20
798.6018968576177
 30
0.0
 11
2148.559300479456
 21
798.6018968576177
 31
0.0
  0
SPLINE
  5
8B7
330
898
100
AcDbEntity
  8
0
  6
Continuous
 62
     7
370
    15
100
AcDbSpline
210
0.0
220
0.0
230
1.0
 70
     8
 71
     3
 72
    33
 73
    29
 74
     0
 42
0.0000000001
 43
0.0000000001
 40
0.0
 40
0.0
 40
0.0
 40
0.0
 40
0.0125376080374536
 40
0.025043722227373
 40
0.0375376105912812
 40
0.0500385976825593
 40
0.0625659752034471
 40
0.0938225563701506
 40
0.1251111195597397
 40
0.1563677007257435
 40
0.1876562639160366
 40
0.2501257057355768
 40
0.3125951475551171
 40
0.3750645893746572
 40
0.4375340311941972
 40
0.500003473013737
 40
0.5624729148332773
 40
0.6249423566528175
 40
0.6874117984723574
 40
0.7498812402918973
 40
0.8123506821114375
 40
0.8436072632795655
 40
0.8748958264677341
 40
0.9061524076349403
 40
0.9374409708240246
 40
0.9582875996971763
 40
0.9791107469703563
 40
1.0
 40
1.0
 40
1.0
 40
1.0
 10
2158.071627217521
 20
798.6018961382842
 30
0.0
 10
2158.070803534661
 20
798.6740313778626
 30
0.0
 10
2158.069158237992
 20
798.818120656887
 30
0.0
 10
2158.055981831622
 20
799.0337622770388
 30
0.0
 10
2158.034957932972
 20
799.2485267965271
 30
0.0
 10
2158.005319152573
 20
799.4624187031695
 30
0.0
 10
2157.948390327012
 20
799.7812484883577
 30
0.0
 10
2157.843397574843
 20
800.2009980684292
 30
0.0
 10
2157.66115714516
 20
800.7098347149161
 30
0.0
 10
2157.430113944356
 20
801.1987428555912
 30
0.0
 10
2157.059774921509
 20
801.8164084700124
 30
0.0
 10
2156.485742826795
 20
802.5161836894687
 30
0.0
 10
2155.646971838195
 20
803.2044230199401
 30
0.0
 10
2154.689950815201
 20
803.7159982664586
 30
0.0
 10
2153.651541474179
 20
804.0309853168009
 30
0.0
 10
2152.571627219746
 20
804.1373515493466
 30
0.0
 10
2151.491712951967
 20
804.0309853155143
 30
0.0
 10
2150.453303650983
 20
803.7159982716046
 30
0.0
 10
2149.496282481182
 20
803.2044230006416
 30
0.0
 10
2148.657512039769
 20
802.5161837615145
 30
0.0
 10
2148.083595755889
 20
801.8165515120351
 30
0.0
 10
2147.713229844994
 20
801.19890615947
 30
0.0
 10
2147.482231231023
 20
800.7101765675823
 30
0.0
 10
2147.299936182196
 20
800.2011679809889
 30
0.0
 10
2147.183177718271
 20
799.734940188302
 30
0.0
 10
2147.115026089802
 20
799.3205614674954
 30
0.0
 10
2147.078426622204
 20
798.9621156171558
 30
0.0
 10
2147.073896079082
 20
798.7220960921156
 30
0.0
 10
2147.071627217521
 20
798.6018961382836
 30
0.0
  0
LINE
  5
8B8
330
898
100
AcDbEntity
  8
0
  6
Continuous
 62
     7
370
    15
100
AcDbLine
 10
2156.584074971243
 20
798.6018968576177
 30
0.0
 11
2158.071628090902
 21
798.6018968576177
 31
0.0
  0
LINE
  5
8B9
330
898
100
AcDbEntity
  8
0
  6
Continuous
 62
     7
370
    15
100
AcDbLine
 10
2156.584000465437
 20
798.6018968576177
 30
0.0
 11
2156.32155376391
 21
798.6018968576177
 31
0.0
  0
SPLINE
  5
8BA
330
898
100
AcDbEntity
  8
0
  6
Continuous
 62
     7
370
    15
100
AcDbSpline
210
0.0
220
0.0
230
1.0
 70
     8
 71
     3
 72
    30
 73
    26
 74
     0
 42
0.0000000001
 43
0.0000000001
 40
0.0
 40
0.0
 40
0.0
 40
0.0
 40
0.0156373134660655
 40
0.0312692946277332
 40
0.0469335568772618
 40
0.0626674820959051
 40
0.0939618846335285
 40
0.1251176185482356
 40
0.1562170455781259
 40
0.1876660277000283
 40
0.2501433762766836
 40
0.312615516749716
 40
0.3750929372559557
 40
0.437565077709018
 40
0.5000424982352052
 40
0.5625146789492264
 40
0.6249920576233988
 40
0.6874618413828145
 40
0.749941708487596
 40
0.8123875230359166
 40
0.8748924978961836
 40
0.9060140341696365
 40
0.9373002260940568
 40
0.9686218425813901
 40
0.9999999999999998
 40
0.9999999999999998
 40
0.9999999999999998
 40
0.9999999999999998
 10
2156.32162331081
 20
798.6018961382844
 30
0.0
 10
2156.32069476554
 20
798.663229246797
 30
0.0
 10
2156.318837991634
 20
798.7858745493082
 30
0.0
 10
2156.30460508902
 20
798.969503153373
 30
0.0
 10
2156.281980396078
 20
799.1526183305459
 30
0.0
 10
2156.239766106038
 20
799.3949265830159
 30
0.0
 10
2156.16544835434
 20
799.6929514659869
 30
0.0
 10
2156.04195198756
 20
800.0390488974931
 30
0.0
 10
2155.884414845491
 20
800.3717818520344
 30
0.0
 10
2155.631406327263
 20
800.792504669763
 30
0.0
 10
2155.24087552915
 20
801.2711285086979
 30
0.0
 10
2154.667865938279
 20
801.7388982168036
 30
0.0
 10
2154.016291155828
 20
802.0892866662688
 30
0.0
 10
2153.307813277931
 20
802.3022812168415
 30
0.0
 10
2152.5717699185
 20
802.3766204256956
 30
0.0
 10
2151.835705252626
 20
802.3022886465749
 30
0.0
 10
2151.12725725277
 20
802.0892914424424
 30
0.0
 10
2150.475646495205
 20
801.7389665024532
 30
0.0
 10
2149.902765297917
 20
801.2710677789705
 30
0.0
 10
2149.43459851273
 20
800.6982676212217
 30
0.0
 10
2149.143224856131
 20
800.1552408630999
 30
0.0
 10
2148.977725255897
 20
799.6933600335621
 30
0.0
 10
2148.888970826532
 20
799.3361457511188
 30
0.0
 10
2148.832505913164
 20
798.9710018934652
 30
0.0
 10
2148.825339207272
 20
798.7250053343212
 30
0.0
 10
2148.821752622957
 20
798.6018961382842
 30
0.0
  0
LINE
  5
8BB
330
898
100
AcDbEntity
  8
0
  6
Continuous
 62
     7
370
    15
100
AcDbLine
 10
2148.821702477499
 20
798.6018968576177
 30
0.0
 11
2148.559248325391
 21
798.6018968576177
 31
0.0
  0
SPLINE
  5
8BC
330
898
100
AcDbEntity
  8
0
  6
Continuous
 62
     7
370
    15
100
AcDbSpline
210
0.0
220
0.0
230
1.0
 70
     8
 71
     3
 72
    23
 73
    19
 74
     0
 42
0.0000000001
 43
0.0000000001
 40
0.0
 40
0.0
 40
0.0
 40
0.0
 40
0.0312790992544
 40
0.0625215055378493
 40
0.0938020946956283
 40
0.125195469366079
 40
0.1877049111470232
 40
0.2501007698209572
 40
0.3123139621902504
 40
0.3751308749721462
 40
0.5000160418638949
 40
0.6248381832128826
 40
0.6875345841634431
 40
0.7499276189945358
 40
0.8121722166468199
 40
0.8747648194489006
 40
0.9374087487736854
 40
0.9999999999999998
 40
0.9999999999999998
 40
0.9999999999999998
 40
0.9999999999999998
 10
2152.571627217521
 20
794.5895099628475
 30
0.0
 10
2152.505955228136
 20
794.5905039559237
 30
0.0
 10
2152.374688288041
 20
794.5924907760399
 30
0.0
 10
2152.178230692854
 20
794.6076767161546
 30
0.0
 10
2151.982483554676
 20
794.6318148704059
 30
0.0
 10
2151.723475919145
 20
794.6768713184263
 30
0.0
 10
2151.404565290524
 20
794.7564602223441
 30
0.0
 10
2151.034038840725
 20
794.8887978481832
 30
0.0
 10
2150.677758933033
 20
795.0573918283375
 30
0.0
 10
2150.227451367557
 20
795.3279479188688
 30
0.0
 10
2149.715828231574
 20
795.7459077682517
 30
0.0
 10
2149.298019389322
 20
796.2573330537128
 30
0.0
 10
2149.027517654482
 20
796.707664033869
 30
0.0
 10
2148.858839421863
 20
797.0636610134826
 30
0.0
 10
2148.725981789307
 20
797.4343230925548
 30
0.0
 10
2148.631033725327
 20
797.8167937005872
 30
0.0
 10
2148.570582505161
 20
798.207417939048
 30
0.0
 10
2148.563058725234
 20
798.4704402838655
 30
0.0
 10
2148.559298417648
 20
798.6018961382841
 30
0.0
  0
SPLINE
  5
8BD
330
898
100
AcDbEntity
  8
0
  6
Continuous
 62
     7
370
    15
100
AcDbSpline
210
0.0
220
0.0
230
1.0
 70
     8
 71
     3
 72
    23
 73
    19
 74
     0
 42
0.0000000001
 43
0.0000000001
 40
0.0
 40
0.0
 40
0.0
 40
0.0
 40
0.0312151157096688
 40
0.0624293814631143
 40
0.0937181296960037
 40
0.125156157419309
 40
0.1876974391820958
 40
0.2501026372481431
 40
0.3123157607766483
 40
0.3751328653792587
 40
0.5000176782827177
 40
0.6248641409644592
 40
0.6875637148550862
 40
0.7499277214791214
 40
0.8121739978966843
 40
0.8749642805960363
 40
0.9373266558641441
 40
1.0
 40
1.0
 40
1.0
 40
1.0
 10
2156.584074034159
 20
798.6018961382842
 30
0.0
 10
2156.583102792851
 20
798.5363579759989
 30
0.0
 10
2156.581160336683
 20
798.4052834359666
 30
0.0
 10
2156.565986173674
 20
798.2090005545882
 30
0.0
 10
2156.541821852956
 20
798.0132043427297
 30
0.0
 10
2156.496712748485
 20
797.7540253699992
 30
0.0
 10
2156.417093071507
 20
797.4349371924952
 30
0.0
 10
2156.284735253187
 20
797.0643251236976
 30
0.0
 10
2156.116131165194
 20
796.708027297421
 30
0.0
 10
2155.845573458978
 20
796.2577218419637
 30
0.0
 10
2155.427594496927
 20
795.7460426865262
 30
0.0
 10
2154.916068867551
 20
795.3282610027518
 30
0.0
 10
2154.465746649578
 20
795.0577591506673
 30
0.0
 10
2154.109812321681
 20
794.8890554318897
 30
0.0
 10
2153.738769074175
 20
794.7562069545267
 30
0.0
 10
2153.356481506695
 20
794.6612317321372
 30
0.0
 10
2152.965857896012
 20
794.6008302348953
 30
0.0
 10
2152.703255144889
 20
794.5932896381195
 30
0.0
 10
2152.571627217521
 20
794.5895099628475
 30
0.0
  0
ARC
  5
8BE
330
898
100
AcDbEntity
  8
0
  6
Continuous
 62
     7
370
    15
100
AcDbCircle
 10
2152.571627217521
 20
798.6018961382836
 30
0.0
 40
5.5
100
AcDbArc
 50
180.0
 51
0.0000000000065138
  0
SPLINE
  5
8BF
330
898
100
AcDbEntity
  8
0
  6
Continuous
 62
     7
370
    15
100
AcDbSpline
210
0.0
220
0.0
230
1.0
 70
     8
 71
     3
 72
    26
 73
    22
 74
     0
 42
0.0000000001
 43
0.0000000001
 40
0.0
 40
0.0
 40
0.0
 40
0.0
 40
0.0345759519712319
 40
0.0688911241839731
 40
0.1030440783345593
 40
0.1371347831436756
 40
0.1712637543485242
 40
0.2055311709504376
 40
0.2400360061128524
 40
0.3042241872351304
 40
0.3686627808829987
 40
0.4342117989621002
 40
0.5000267336619788
 40
0.5655730170372695
 40
0.6313907008993787
 40
0.695563421117286
 40
0.7600174888775637
 40
0.8201282782246568
 40
0.8798028391769257
 40
0.9395810473516277
 40
1.0
 40
1.0
 40
1.0
 40
1.0
 10
2152.571627217521
 20
794.8519709952035
 30
0.0
 10
2152.639502202257
 20
794.8530473622104
 30
0.0
 10
2152.774740243028
 20
794.8551919780177
 30
0.0
 10
2152.976447905001
 20
794.8719929969367
 30
0.0
 10
2153.176045450265
 20
794.8987706624798
 30
0.0
 10
2153.373527162969
 20
794.9364803846491
 30
0.0
 10
2153.568888744069
 20
794.9848600692856
 30
0.0
 10
2153.762122431939
 20
795.0440028797332
 30
0.0
 10
2154.007369503659
 20
795.1335519318554
 30
0.0
 10
2154.299365265136
 20
795.2664009724433
 30
0.0
 10
2154.628996639448
 20
795.4589996636962
 30
0.0
 10
2154.940076762301
 20
795.6858654221063
 30
0.0
 10
2155.227544941009
 20
795.9452532447565
 30
0.0
 10
2155.487351728073
 20
796.2330479486568
 30
0.0
 10
2155.713971314922
 20
796.5436609531774
 30
0.0
 10
2155.906955531901
 20
796.8736981271206
 30
0.0
 10
2156.060567596126
 20
797.2114947886195
 30
0.0
 10
2156.178512057817
 20
797.5539477570261
 30
0.0
 10
2156.260663740056
 20
797.8971380770043
 30
0.0
 10
2156.312033739608
 20
798.2472435062492
 30
0.0
 10
2156.318415447252
 20
798.4832592117683
 30
0.0
 10
2156.32162331081
 20
798.6018961382844
 30
0.0
  0
SPLINE
  5
8C0
330
898
100
AcDbEntity
  8
0
  6
Continuous
 62
     7
370
    15
100
AcDbSpline
210
0.0
220
0.0
230
1.0
 70
     8
 71
     3
 72
    22
 73
    18
 74
     0
 42
0.0000000001
 43
0.0000000001
 40
0.0
 40
0.0
 40
0.0
 40
0.0
 40
0.0312632827201569
 40
0.0625153373196823
 40
0.0938313360071965
 40
0.1252859925425102
 40
0.187848950986861
 40
0.2501348033322355
 40
0.3123086367592303
 40
0.3751758249090852
 40
0.500085741825891
 40
0.6249254673332909
 40
0.7498867336477512
 40
0.8121084257853336
 40
0.8746563899212102
 40
0.9372730089032625
 40
1.0
 40
1.0
 40
1.0
 40
1.0
 10
2148.821752622957
 20
798.6018961382842
 30
0.0
 10
2148.822683592273
 20
798.5405609338311
 30
0.0
 10
2148.824545196548
 20
798.4179125532922
 30
0.0
 10
2148.838783200511
 20
798.2342813544603
 30
0.0
 10
2148.861411463583
 20
798.0511670927418
 30
0.0
 10
2148.903628569562
 20
797.8088627667992
 30
0.0
 10
2148.977947915996
 20
797.5108434243991
 30
0.0
 10
2149.101444373173
 20
797.1647502953593
 30
0.0
 10
2149.258973373183
 20
796.8320294573406
 30
0.0
 10
2149.511966412144
 20
796.4112969334163
 30
0.0
 10
2149.902491029699
 20
795.9328187929513
 30
0.0
 10
2150.475254540369
 20
795.464789685481
 30
0.0
 10
2151.018295400452
 20
795.1733850665446
 30
0.0
 10
2151.480184379444
 20
795.0078870020218
 30
0.0
 10
2151.837404886472
 20
794.9191379247945
 30
0.0
 10
2152.202540765557
 20
794.8626903500629
 30
0.0
 10
2152.448526198853
 20
794.8555462104292
 30
0.0
 10
2152.571627217521
 20
794.8519709952035
 30
0.0
  0
LINE
  5
8C1
330
898
100
AcDbEntity
  8
0
  6
Continuous
 62
     7
370
    15
100
AcDbLine
 10
2133.851042267843
 20
798.6018968576177
 30
0.0
 11
2133.851042267843
 21
809.1017169707997
 31
0.0
  0
SPLINE
  5
8C2
330
898
100
AcDbEntity
  8
0
  6
Continuous
 62
     7
370
    15
100
AcDbSpline
210
0.0
220
0.0
230
1.0
 70
    24
 71
     3
 72
    10
 73
     6
 74
     0
 42
0.0000000001
 43
0.0000000001
 40
0.0
 40
0.0
 40
0.0
 40
0.0
 40
0.5
 40
0.5
 40
1.0
 40
1.0
 40
1.0
 40
1.0
 10
2132.851123051718
 20
798.6018961382836
 30
0.0
 10
2133.11294681275
 20
798.6018961382836
 30
0.0
 10
2133.373164165668
 20
798.6018961382836
 30
0.0
 10
2133.743428610931
 20
798.6018961382836
 30
0.0
 10
2133.851194661262
 20
798.6018961382836
 30
0.0
 10
2133.851164164134
 20
798.6018961382836
 30
0.0
  0
LINE
  5
8C3
330
898
100
AcDbEntity
  8
0
  6
Continuous
 62
     7
370
    15
100
AcDbLine
 10
2132.851055142446
 20
809.1017169707997
 30
0.0
 11
2133.851042267843
 21
809.1017169707997
 31
0.0
  0
LINE
  5
8C4
330
898
100
AcDbEntity
  8
0
  6
Continuous
 62
     7
370
    15
100
AcDbLine
 10
2115.321262058778
 20
798.6018968576177
 30
0.0
 11
2115.321195003553
 21
809.1017169707997
 31
0.0
  0
LINE
  5
8C5
330
898
100
AcDbEntity
  8
0
  6
Continuous
 62
     7
370
    15
100
AcDbLine
 10
2115.321195003553
 20
809.1017169707997
 30
0.0
 11
2132.851055142446
 21
809.1017169707997
 31
0.0
  0
LINE
  5
8C6
330
898
100
AcDbEntity
  8
0
  6
Continuous
 62
     7
370
    15
100
AcDbLine
 10
2132.851122197672
 20
798.6018968576177
 30
0.0
 11
2132.851196703478
 21
788.1020767444356
 31
0.0
  0
LINE
  5
8C7
330
898
100
AcDbEntity
  8
0
  6
Continuous
 62
     7
370
    15
100
AcDbLine
 10
2132.851196703478
 20
788.1020767444356
 30
0.0
 11
2115.321336564584
 21
788.1020767444356
 31
0.0
  0
LINE
  5
8C8
330
898
100
AcDbEntity
  8
0
  6
Continuous
 62
     7
370
    15
100
AcDbLine
 10
2115.321336564584
 20
788.1020767444356
 30
0.0
 11
2115.321262058778
 21
798.6018968576177
 31
0.0
  0
LINE
  5
8C9
330
898
100
AcDbEntity
  8
0
  6
Continuous
 62
     7
370
    15
100
AcDbLine
 10
2132.851055142446
 20
809.1017169707997
 30
0.0
 11
2132.851122197672
 21
798.6018968576177
 31
0.0
  0
LINE
  5
8CA
330
898
100
AcDbEntity
  8
0
  6
Continuous
 62
     7
370
    15
100
AcDbLine
 10
2133.851161477132
 20
788.1020767444356
 30
0.0
 11
2133.851161477132
 21
798.6018968576177
 31
0.0
  0
LINE
  5
8CB
330
898
100
AcDbEntity
  8
0
  6
Continuous
 62
     7
370
    15
100
AcDbLine
 10
2133.851161477132
 20
788.1020767444356
 30
0.0
 11
2132.851196703478
 21
788.1020767444356
 31
0.0
  0
SPLINE
  5
8CC
330
898
100
AcDbEntity
  8
0
  6
Continuous
 62
     7
370
    15
100
AcDbSpline
210
0.0
220
0.0
230
1.0
 70
    24
 71
     3
 72
    10
 73
     6
 74
     0
 42
0.0000000001
 43
0.0000000001
 40
0.0
 40
0.0
 40
0.0
 40
0.0
 40
0.5
 40
0.5
 40
1.0
 40
1.0
 40
1.0
 40
1.0
 10
2141.451013000041
 20
798.6018961382836
 30
0.0
 10
2141.451043482529
 20
798.6018961382836
 30
0.0
 10
2141.558819332135
 20
798.6018961382836
 30
0.0
 10
2141.929020654939
 20
798.6018961382836
 30
0.0
 10
2142.189167505021
 20
798.6018961382836
 30
0.0
 10
2142.450932111779
 20
798.6018961382836
 30
0.0
  0
LINE
  5
8CD
330
898
100
AcDbEntity
  8
0
  6
Continuous
 62
     7
370
    15
100
AcDbLine
 10
2141.451014456316
 20
798.6018968576177
 30
0.0
 11
2141.451014456316
 21
809.1017169707997
 31
0.0
  0
LINE
  5
8CE
330
898
100
AcDbEntity
  8
0
  6
Continuous
 62
     7
370
    15
100
AcDbLine
 10
2142.451001581712
 20
809.1017169707997
 30
0.0
 11
2141.451014456316
 21
809.1017169707997
 31
0.0
  0
LINE
  5
8CF
330
898
100
AcDbEntity
  8
0
  6
Continuous
 62
     7
370
    15
100
AcDbLine
 10
2142.450860020681
 20
788.1020767444356
 30
0.0
 11
2159.980720159574
 21
788.1020767444356
 31
0.0
  0
LINE
  5
8D0
330
898
100
AcDbEntity
  8
0
  6
Continuous
 62
     7
370
    15
100
AcDbLine
 10
2142.450934526487
 20
798.6018968576177
 30
0.0
 11
2142.450860020681
 21
788.1020767444356
 31
0.0
  0
LINE
  5
8D1
330
898
100
AcDbEntity
  8
0
  6
Continuous
 62
     7
370
    15
100
AcDbLine
 10
2159.980861720605
 20
809.1017169707997
 30
0.0
 11
2142.451001581712
 21
809.1017169707997
 31
0.0
  0
LINE
  5
8D2
330
898
100
AcDbEntity
  8
0
  6
Continuous
 62
     7
370
    15
100
AcDbLine
 10
2159.9807872148
 20
798.6018968576177
 30
0.0
 11
2159.980861720605
 21
809.1017169707997
 31
0.0
  0
LINE
  5
8D3
330
898
100
AcDbEntity
  8
0
  6
Continuous
 62
     7
370
    15
100
AcDbLine
 10
2159.980720159574
 20
788.1020767444356
 30
0.0
 11
2159.9807872148
 21
798.6018968576177
 31
0.0
  0
LINE
  5
8D4
330
898
100
AcDbEntity
  8
0
  6
Continuous
 62
     7
370
    15
100
AcDbLine
 10
2142.451001581712
 20
809.1017169707997
 30
0.0
 11
2142.450934526487
 21
798.6018968576177
 31
0.0
  0
LINE
  5
8D5
330
898
100
AcDbEntity
  8
0
  6
Continuous
 62
     7
370
    15
100
AcDbLine
 10
2141.450887796445
 20
788.1020767444356
 30
0.0
 11
2141.450887796445
 21
798.6018968576177
 31
0.0
  0
LINE
  5
8D6
330
898
100
AcDbEntity
  8
0
  6
Continuous
 62
     7
370
    15
100
AcDbLine
 10
2141.450887796445
 20
788.1020767444356
 30
0.0
 11
2142.450860020681
 21
788.1020767444356
 31
0.0
  0
LINE
  5
8D7
330
898
100
AcDbEntity
  8
0
  6
Continuous
 62
     7
370
    15
100
AcDbLine
 10
2119.738346216245
 20
798.6390417271836
 30
0.0
 11
2121.181717392965
 21
796.1390403860791
 31
0.0
  0
LINE
  5
8D8
330
898
100
AcDbEntity
  8
0
  6
Continuous
 62
     7
370
    15
100
AcDbLine
 10
2121.181717392965
 20
796.1390403860791
 30
0.0
 11
2124.068474647565
 21
796.1390403860791
 31
0.0
  0
LINE
  5
8D9
330
898
100
AcDbEntity
  8
0
  6
Continuous
 62
     7
370
    15
100
AcDbLine
 10
2124.068474647565
 20
796.1390403860791
 30
0.0
 11
2125.511845824285
 21
798.6390417271836
 31
0.0
  0
LINE
  5
8DA
330
898
100
AcDbEntity
  8
0
  6
Continuous
 62
     7
370
    15
100
AcDbLine
 10
2125.511845824285
 20
798.6390417271836
 30
0.0
 11
2124.068474647565
 21
801.1390393429978
 31
0.0
  0
LINE
  5
8DB
330
898
100
AcDbEntity
  8
0
  6
Continuous
 62
     7
370
    15
100
AcDbLine
 10
2124.068474647565
 20
801.1390393429978
 30
0.0
 11
2121.181717392965
 21
801.1390393429978
 31
0.0
  0
LINE
  5
8DC
330
898
100
AcDbEntity
  8
0
  6
Continuous
 62
     7
370
    15
100
AcDbLine
 10
2121.181717392965
 20
801.1390393429978
 30
0.0
 11
2119.738346216245
 21
798.6390417271836
 31
0.0
  0
LINE
  5
8DD
330
898
100
AcDbEntity
  8
0
  6
Continuous
 62
     7
370
    15
100
AcDbLine
 10
2151.233582076593
 20
801.1390393429978
 30
0.0
 11
2154.120331880613
 21
801.1390393429978
 31
0.0
  0
LINE
  5
8DE
330
898
100
AcDbEntity
  8
0
  6
Continuous
 62
     7
370
    15
100
AcDbLine
 10
2149.790210899873
 20
798.6390417271836
 30
0.0
 11
2151.233582076593
 21
801.1390393429978
 31
0.0
  0
LINE
  5
8DF
330
898
100
AcDbEntity
  8
0
  6
Continuous
 62
     7
370
    15
100
AcDbLine
 10
2151.233582076593
 20
796.1390403860791
 30
0.0
 11
2149.790210899873
 21
798.6390417271836
 31
0.0
  0
LINE
  5
8E0
330
898
100
AcDbEntity
  8
0
  6
Continuous
 62
     7
370
    15
100
AcDbLine
 10
2154.120331880613
 20
796.1390403860791
 30
0.0
 11
2151.233582076593
 21
796.1390403860791
 31
0.0
  0
LINE
  5
8E1
330
898
100
AcDbEntity
  8
0
  6
Continuous
 62
     7
370
    15
100
AcDbLine
 10
2155.563710507913
 20
798.6390417271836
 30
0.0
 11
2154.120331880613
 21
796.1390403860791
 31
0.0
  0
LINE
  5
8E2
330
898
100
AcDbEntity
  8
0
  6
Continuous
 62
     7
370
    15
100
AcDbLine
 10
2154.120331880613
 20
801.1390393429978
 30
0.0
 11
2155.563710507913
 21
798.6390417271836
 31
0.0
  0
SPLINE
  5
8E3
330
898
100
AcDbEntity
  8
0
  6
Continuous
 62
     7
370
    15
100
AcDbSpline
210
0.0
220
0.0
230
1.0
 70
    24
 71
     3
 72
     8
 73
     4
 74
     0
 42
0.0000000001
 43
0.0000000001
 40
0.0
 40
0.0
 40
0.0
 40
0.0
 40
1.0
 40
1.0
 40
1.0
 40
1.0
 10
2115.321264660302
 20
798.6018961382844
 30
0.0
 10
2115.059471389304
 20
798.6018961382844
 30
0.0
 10
2114.799283602679
 20
798.6018961382844
 30
0.0
 10
2114.614156010949
 20
798.6018961382844
 30
0.0
  0
LINE
  5
8E4
330
898
100
AcDbEntity
  8
0
  6
Continuous
 62
     7
370
    15
100
AcDbLine
 10
2114.614052948518
 20
809.1017169707997
 30
0.0
 11
2114.614157256647
 21
798.6018968576177
 31
0.0
  0
LINE
  5
8E5
330
898
100
AcDbEntity
  8
0
  6
Continuous
 62
     7
370
    15
100
AcDbLine
 10
2114.614052948518
 20
809.1017169707997
 30
0.0
 11
2115.321195003553
 21
809.1017169707997
 31
0.0
  0
LINE
  5
8E6
330
898
100
AcDbEntity
  8
0
  6
Continuous
 62
     7
370
    15
100
AcDbLine
 10
2114.614097652002
 20
798.6018968576177
 30
0.0
 11
2114.61420196013
 21
788.1020767444356
 31
0.0
  0
LINE
  5
8E7
330
898
100
AcDbEntity
  8
0
  6
Continuous
 62
     7
370
    15
100
AcDbLine
 10
2115.321336564584
 20
788.1020767444356
 30
0.0
 11
2114.61420196013
 21
788.1020767444356
 31
0.0
  0
LINE
  5
8E8
330
898
100
AcDbEntity
  8
0
  6
Continuous
 62
     7
370
    15
100
AcDbLine
 10
2160.68800377564
 20
809.1017169707997
 30
0.0
 11
2159.980861720605
 21
809.1017169707997
 31
0.0
  0
LINE
  5
8E9
330
898
100
AcDbEntity
  8
0
  6
Continuous
 62
     7
370
    15
100
AcDbLine
 10
2160.68800377564
 20
809.1017169707997
 30
0.0
 11
2160.687899467512
 21
798.6018968576177
 31
0.0
  0
SPLINE
  5
8EA
330
898
100
AcDbEntity
  8
0
  6
Continuous
 62
     7
370
    15
100
AcDbSpline
210
0.0
220
0.0
230
1.0
 70
    24
 71
     3
 72
     8
 73
     4
 74
     0
 42
0.0000000001
 43
0.0000000001
 40
0.0
 40
0.0
 40
0.0
 40
0.0
 40
1.0
 40
1.0
 40
1.0
 40
1.0
 10
2160.687954610632
 20
798.6018961382836
 30
0.0
 10
2160.502843088032
 20
798.6018961382836
 30
0.0
 10
2160.242626767335
 20
798.6018961382836
 30
0.0
 10
2159.980790503201
 20
798.6018961382836
 30
0.0
  0
LINE
  5
8EB
330
898
100
AcDbEntity
  8
0
  6
Continuous
 62
     7
370
    15
100
AcDbLine
 10
2160.687951621576
 20
798.6018968576177
 30
0.0
 11
2160.687854764028
 21
788.1020767444356
 31
0.0
  0
LINE
  5
8EC
330
898
100
AcDbEntity
  8
0
  6
Continuous
 62
     7
370
    15
100
AcDbLine
 10
2159.980720159574
 20
788.1020767444356
 30
0.0
 11
2160.687854764028
 21
788.1020767444356
 31
0.0
  0
LINE
  5
8ED
330
898
100
AcDbEntity
  8
0
  6
Continuous
 62
     7
370
    15
100
AcDbLine
 10
2114.521144208475
 20
798.6018968576177
 30
0.0
 11
2114.614157256647
 21
798.6018968576177
 31
0.0
  0
LINE
  5
8EE
330
898
100
AcDbEntity
  8
0
  6
Continuous
 62
     7
370
    15
100
AcDbLine
 10
2114.521144208475
 20
798.6018968576177
 30
0.0
 11
2114.521144208475
 21
801.7220733517392
 31
0.0
  0
LINE
  5
8EF
330
898
100
AcDbEntity
  8
0
  6
Continuous
 62
     7
370
    15
100
AcDbLine
 10
2114.521144208475
 20
801.7220733517392
 30
0.0
 11
2105.949869629903
 21
801.7220733517392
 31
0.0
  0
LINE
  5
8F0
330
898
100
AcDbEntity
  8
0
  6
Continuous
 62
     7
370
    15
100
AcDbLine
 10
2105.949869629903
 20
801.7220733517392
 30
0.0
 11
2105.949869629903
 21
798.6018968576177
 31
0.0
  0
LINE
  5
8F1
330
898
100
AcDbEntity
  8
0
  6
Continuous
 62
     7
370
    15
100
AcDbLine
 10
2105.856685218378
 20
798.6018968576177
 30
0.0
 11
2105.949869629903
 21
798.6018968576177
 31
0.0
  0
LINE
  5
8F2
330
898
100
AcDbEntity
  8
0
  6
Continuous
 62
     7
370
    15
100
AcDbLine
 10
2105.856685218378
 20
798.6018968576177
 30
0.0
 11
2105.856595811411
 21
807.1017166429742
 31
0.0
  0
LINE
  5
8F3
330
898
100
AcDbEntity
  8
0
  6
Continuous
 62
     7
370
    15
100
AcDbLine
 10
2105.856595811411
 20
809.1017169707997
 30
0.0
 11
2105.856595811411
 21
807.1017166429742
 31
0.0
  0
LINE
  5
8F4
330
898
100
AcDbEntity
  8
0
  6
Continuous
 62
     7
370
    15
100
AcDbLine
 10
2114.614052948518
 20
809.1017169707997
 30
0.0
 11
2105.856595811411
 21
809.1017169707997
 31
0.0
  0
LINE
  5
8F5
330
898
100
AcDbEntity
  8
0
  6
Continuous
 62
     7
370
    15
100
AcDbLine
 10
2105.85670757012
 20
788.1020767444356
 30
0.0
 11
2105.85670757012
 21
790.1020733469708
 31
0.0
  0
LINE
  5
8F6
330
898
100
AcDbEntity
  8
0
  6
Continuous
 62
     7
370
    15
100
AcDbLine
 10
2105.856625613733
 20
798.6018968576177
 30
0.0
 11
2105.85670757012
 21
790.1020733469708
 31
0.0
  0
LINE
  5
8F7
330
898
100
AcDbEntity
  8
0
  6
Continuous
 62
     7
370
    15
100
AcDbLine
 10
2105.949817475839
 20
798.6018968576177
 30
0.0
 11
2105.949817475839
 21
795.4820742660745
 31
0.0
  0
LINE
  5
8F8
330
898
100
AcDbEntity
  8
0
  6
Continuous
 62
     7
370
    15
100
AcDbLine
 10
2105.949817475839
 20
795.4820742660745
 30
0.0
 11
2114.52108460383
 21
795.4820742660745
 31
0.0
  0
LINE
  5
8F9
330
898
100
AcDbEntity
  8
0
  6
Continuous
 62
     7
370
    15
100
AcDbLine
 10
2114.52108460383
 20
795.4820742660745
 30
0.0
 11
2114.52108460383
 21
798.6018968576177
 31
0.0
  0
LINE
  5
8FA
330
898
100
AcDbEntity
  8
0
  6
Continuous
 62
     7
370
    15
100
AcDbLine
 10
2114.61420196013
 20
788.1020767444356
 30
0.0
 11
2105.85670757012
 21
788.1020767444356
 31
0.0
  0
LINE
  5
8FB
330
898
100
AcDbEntity
  8
0
  6
Continuous
 62
     7
370
    15
100
AcDbLine
 10
2169.445378956361
 20
798.6018968576177
 30
0.0
 11
2169.445453462167
 21
807.1017166429742
 31
0.0
  0
LINE
  5
8FC
330
898
100
AcDbEntity
  8
0
  6
Continuous
 62
     7
370
    15
100
AcDbLine
 10
2169.445423659845
 20
798.6018968576177
 30
0.0
 11
2169.352231797739
 21
798.6018968576177
 31
0.0
  0
LINE
  5
8FD
330
898
100
AcDbEntity
  8
0
  6
Continuous
 62
     7
370
    15
100
AcDbLine
 10
2169.352187094255
 20
801.7220733517392
 30
0.0
 11
2169.352187094255
 21
798.6018968576177
 31
0.0
  0
LINE
  5
8FE
330
898
100
AcDbEntity
  8
0
  6
Continuous
 62
     7
370
    15
100
AcDbLine
 10
2160.780912515684
 20
801.7220733517392
 30
0.0
 11
2169.352187094255
 21
801.7220733517392
 31
0.0
  0
LINE
  5
8FF
330
898
100
AcDbEntity
  8
0
  6
Continuous
 62
     7
370
    15
100
AcDbLine
 10
2160.780912515684
 20
798.6018968576177
 30
0.0
 11
2160.780912515684
 21
801.7220733517392
 31
0.0
  0
LINE
  5
900
330
898
100
AcDbEntity
  8
0
  6
Continuous
 62
     7
370
    15
100
AcDbLine
 10
2160.780964669748
 20
798.6018968576177
 30
0.0
 11
2160.687951621576
 21
798.6018968576177
 31
0.0
  0
LINE
  5
901
330
898
100
AcDbEntity
  8
0
  6
Continuous
 62
     7
370
    15
100
AcDbLine
 10
2169.445453462167
 20
809.1017169707997
 30
0.0
 11
2169.445453462167
 21
807.1017166429742
 31
0.0
  0
LINE
  5
902
330
898
100
AcDbEntity
  8
0
  6
Continuous
 62
     7
370
    15
100
AcDbLine
 10
2160.68800377564
 20
809.1017169707997
 30
0.0
 11
2169.445453462167
 21
809.1017169707997
 31
0.0
  0
LINE
  5
903
330
898
100
AcDbEntity
  8
0
  6
Continuous
 62
     7
370
    15
100
AcDbLine
 10
2160.780964669748
 20
795.4820742660745
 30
0.0
 11
2160.780964669748
 21
798.6018968576177
 31
0.0
  0
LINE
  5
904
330
898
100
AcDbEntity
  8
0
  6
Continuous
 62
     7
370
    15
100
AcDbLine
 10
2169.352231797739
 20
795.4820742660745
 30
0.0
 11
2160.780964669748
 21
795.4820742660745
 31
0.0
  0
LINE
  5
905
330
898
100
AcDbEntity
  8
0
  6
Continuous
 62
     7
370
    15
100
AcDbLine
 10
2169.352231797739
 20
798.6018968576177
 30
0.0
 11
2169.352231797739
 21
795.4820742660745
 31
0.0
  0
LINE
  5
906
330
898
100
AcDbEntity
  8
0
  6
Continuous
 62
     7
370
    15
100
AcDbLine
 10
2169.445423659845
 20
798.6018968576177
 30
0.0
 11
2169.445349154039
 21
790.1020733469708
 31
0.0
  0
LINE
  5
907
330
898
100
AcDbEntity
  8
0
  6
Continuous
 62
     7
370
    15
100
AcDbLine
 10
2169.445349154039
 20
788.1020767444356
 30
0.0
 11
2169.445349154039
 21
790.1020733469708
 31
0.0
  0
LINE
  5
908
330
898
100
AcDbEntity
  8
0
  6
Continuous
 62
     7
370
    15
100
AcDbLine
 10
2160.687854764028
 20
788.1020767444356
 30
0.0
 11
2169.445349154039
 21
788.1020767444356
 31
0.0
  0
LINE
  5
909
330
898
100
AcDbEntity
  8
0
  6
Continuous
 62
     7
370
    15
100
AcDbLine
 10
2113.302549597784
 20
795.4820742660745
 30
0.0
 11
2113.302549597784
 21
801.7220733517392
 31
0.0
  0
LINE
  5
90A
330
898
100
AcDbEntity
  8
0
  6
Continuous
 62
     7
370
    15
100
AcDbLine
 10
2113.573430356546
 20
801.7220733517392
 30
0.0
 11
2113.573430356546
 21
795.4820742660745
 31
0.0
  0
LINE
  5
90B
330
898
100
AcDbEntity
  8
0
  6
Continuous
 62
     7
370
    15
100
AcDbLine
 10
2161.999499675794
 20
795.4820742660745
 30
0.0
 11
2161.999499675794
 21
801.7220733517392
 31
0.0
  0
LINE
  5
90C
330
898
100
AcDbEntity
  8
0
  6
Continuous
 62
     7
370
    15
100
AcDbLine
 10
2161.728626367612
 20
801.7220733517392
 30
0.0
 11
2161.728626367612
 21
795.4820742660745
 31
0.0
  0
LINE
  5
90D
330
898
100
AcDbEntity
  8
0
  6
Continuous
 62
     7
370
    15
100
AcDbLine
 10
2114.047056314512
 20
795.4820742660745
 30
0.0
 11
2114.047056314512
 21
801.7220733517392
 31
0.0
  0
LINE
  5
90E
330
898
100
AcDbEntity
  8
0
  6
Continuous
 62
     7
370
    15
100
AcDbLine
 10
2161.255000409647
 20
795.4820742660745
 30
0.0
 11
2161.255000409647
 21
801.7220733517392
 31
0.0
  0
LINE
  5
90F
330
898
100
AcDbEntity
  8
0
  6
Continuous
 62
     7
370
    15
100
AcDbLine
 10
2112.468993541761
 20
801.7220733517392
 30
0.0
 11
2112.468993541761
 21
795.4820742660745
 31
0.0
  0
LINE
  5
910
330
898
100
AcDbEntity
  8
0
  6
Continuous
 62
     7
370
    15
100
AcDbLine
 10
2162.833063182397
 20
801.7220733517392
 30
0.0
 11
2162.833063182397
 21
795.4820742660745
 31
0.0
  0
LINE
  5
911
330
898
100
AcDbEntity
  8
0
  6
Continuous
 62
     7
370
    15
100
AcDbLine
 10
2114.366291341348
 20
801.7220733517392
 30
0.0
 11
2114.366291341348
 21
795.4820742660745
 31
0.0
  0
LINE
  5
912
330
898
100
AcDbEntity
  8
0
  6
Continuous
 62
     7
370
    15
100
AcDbLine
 10
2160.93576538281
 20
801.7220733517392
 30
0.0
 11
2160.93576538281
 21
795.4820742660745
 31
0.0
  0
LINE
  5
913
330
898
100
AcDbEntity
  8
0
  6
Continuous
 62
     7
370
    15
100
AcDbLine
 10
2111.077612516447
 20
795.4820742660745
 30
0.0
 11
2111.077612516447
 21
801.7220733517392
 31
0.0
  0
LINE
  5
914
330
898
100
AcDbEntity
  8
0
  6
Continuous
 62
     7
370
    15
100
AcDbLine
 10
2111.348485824628
 20
801.7220733517392
 30
0.0
 11
2111.348485824628
 21
795.4820742660745
 31
0.0
  0
LINE
  5
915
330
898
100
AcDbEntity
  8
0
  6
Continuous
 62
     7
370
    15
100
AcDbLine
 10
2164.224444207712
 20
795.4820742660745
 30
0.0
 11
2164.224444207712
 21
801.7220733517392
 31
0.0
  0
LINE
  5
916
330
898
100
AcDbEntity
  8
0
  6
Continuous
 62
     7
370
    15
100
AcDbLine
 10
2163.95357089953
 20
801.7220733517392
 30
0.0
 11
2163.95357089953
 21
795.4820742660745
 31
0.0
  0
LINE
  5
917
330
898
100
AcDbEntity
  8
0
  6
Continuous
 62
     7
370
    15
100
AcDbLine
 10
2111.822111782594
 20
795.4820742660745
 30
0.0
 11
2111.822111782594
 21
801.7220733517392
 31
0.0
  0
LINE
  5
918
330
898
100
AcDbEntity
  8
0
  6
Continuous
 62
     7
370
    15
100
AcDbLine
 10
2163.479937490984
 20
795.4820742660745
 30
0.0
 11
2163.479937490984
 21
801.7220733517392
 31
0.0
  0
LINE
  5
919
330
898
100
AcDbEntity
  8
0
  6
Continuous
 62
     7
370
    15
100
AcDbLine
 10
2110.247513529821
 20
801.7220733517392
 30
0.0
 11
2110.247513529821
 21
795.4820742660745
 31
0.0
  0
LINE
  5
91A
330
898
100
AcDbEntity
  8
0
  6
Continuous
 62
     7
370
    15
100
AcDbLine
 10
2165.054543194337
 20
801.7220733517392
 30
0.0
 11
2165.054543194337
 21
795.4820742660745
 31
0.0
  0
LINE
  5
91B
330
898
100
AcDbEntity
  8
0
  6
Continuous
 62
     7
370
    15
100
AcDbLine
 10
2112.141346809431
 20
801.7220733517392
 30
0.0
 11
2112.141346809431
 21
795.4820742660745
 31
0.0
  0
LINE
  5
91C
330
898
100
AcDbEntity
  8
0
  6
Continuous
 62
     7
370
    15
100
AcDbLine
 10
2163.160709914728
 20
801.7220733517392
 30
0.0
 11
2163.160709914728
 21
795.4820742660745
 31
0.0
  0
LINE
  5
91D
330
898
100
AcDbEntity
  8
0
  6
Continuous
 62
     7
370
    15
100
AcDbLine
 10
2108.856132504507
 20
795.4820742660745
 30
0.0
 11
2108.856132504507
 21
801.7220733517392
 31
0.0
  0
LINE
  5
91E
330
898
100
AcDbEntity
  8
0
  6
Continuous
 62
     7
370
    15
100
AcDbLine
 10
2109.127013263269
 20
801.7220733517392
 30
0.0
 11
2109.127013263269
 21
795.4820742660745
 31
0.0
  0
LINE
  5
91F
330
898
100
AcDbEntity
  8
0
  6
Continuous
 62
     7
370
    15
100
AcDbLine
 10
2166.445924219652
 20
795.4820742660745
 30
0.0
 11
2166.445924219652
 21
801.7220733517392
 31
0.0
  0
LINE
  5
920
330
898
100
AcDbEntity
  8
0
  6
Continuous
 62
     7
370
    15
100
AcDbLine
 10
2166.17505091147
 20
801.7220733517392
 30
0.0
 11
2166.17505091147
 21
795.4820742660745
 31
0.0
  0
LINE
  5
921
330
898
100
AcDbEntity
  8
0
  6
Continuous
 62
     7
370
    15
100
AcDbLine
 10
2109.600631770654
 20
795.4820742660745
 30
0.0
 11
2109.600631770654
 21
801.7220733517392
 31
0.0
  0
LINE
  5
922
330
898
100
AcDbEntity
  8
0
  6
Continuous
 62
     7
370
    15
100
AcDbLine
 10
2165.701417502924
 20
795.4820742660745
 30
0.0
 11
2165.701417502924
 21
801.7220733517392
 31
0.0
  0
LINE
  5
923
330
898
100
AcDbEntity
  8
0
  6
Continuous
 62
     7
370
    15
100
AcDbLine
 10
2108.026033517881
 20
801.7220733517392
 30
0.0
 11
2108.026033517881
 21
795.4820742660745
 31
0.0
  0
LINE
  5
924
330
898
100
AcDbEntity
  8
0
  6
Continuous
 62
     7
370
    15
100
AcDbLine
 10
2167.276023206277
 20
801.7220733517392
 30
0.0
 11
2167.276023206277
 21
795.4820742660745
 31
0.0
  0
LINE
  5
925
330
898
100
AcDbEntity
  8
0
  6
Continuous
 62
     7
370
    15
100
AcDbLine
 10
2109.919866797491
 20
801.7220733517392
 30
0.0
 11
2109.919866797491
 21
795.4820742660745
 31
0.0
  0
LINE
  5
926
330
898
100
AcDbEntity
  8
0
  6
Continuous
 62
     7
370
    15
100
AcDbLine
 10
2165.382189926668
 20
801.7220733517392
 30
0.0
 11
2165.382189926668
 21
795.4820742660745
 31
0.0
  0
LINE
  5
927
330
898
100
AcDbEntity
  8
0
  6
Continuous
 62
     7
370
    15
100
AcDbLine
 10
2106.235323724313
 20
795.4820742660745
 30
0.0
 11
2106.235323724313
 21
801.7220733517392
 31
0.0
  0
LINE
  5
928
330
898
100
AcDbEntity
  8
0
  6
Continuous
 62
     7
370
    15
100
AcDbLine
 10
2169.066725549265
 20
795.4820742660745
 30
0.0
 11
2169.066725549265
 21
801.7220733517392
 31
0.0
  0
LINE
  5
929
330
898
100
AcDbEntity
  8
0
  6
Continuous
 62
     7
370
    15
100
AcDbLine
 10
2105.651600536867
 20
809.1017169707997
 30
0.0
 11
2105.651600536867
 21
807.1017166429742
 31
0.0
  0
SPLINE
  5
92A
330
898
100
AcDbEntity
  8
0
  6
Continuous
 62
     7
370
    15
100
AcDbSpline
210
0.0
220
0.0
230
1.0
 70
    24
 71
     3
 72
     8
 73
     4
 74
     0
 42
0.0000000001
 43
0.0000000001
 40
0.0
 40
0.0
 40
0.0
 40
0.0
 40
1.0
 40
1.0
 40
1.0
 40
1.0
 10
2105.731572154686
 20
798.6018961382857
 30
0.0
 10
2105.764347977666
 20
798.6018961382857
 30
0.0
 10
2105.806671139859
 20
798.6018961382857
 30
0.0
 10
2105.856626988953
 20
798.6018961382857
 30
0.0
  0
SPLINE
  5
92B
330
898
100
AcDbEntity
  8
0
  6
Continuous
 62
     7
370
    15
100
AcDbSpline
210
0.0
220
0.0
230
1.0
 70
    24
 71
     3
 72
     8
 73
     4
 74
     0
 42
0.0000000001
 43
0.0000000001
 40
0.0
 40
0.0
 40
0.0
 40
0.0
 40
1.0
 40
1.0
 40
1.0
 40
1.0
 10
2105.651725129324
 20
798.6018961382864
 30
0.0
 10
2105.651706402847
 20
798.6018961382864
 30
0.0
 10
2105.679358677615
 20
798.6018961382864
 30
0.0
 10
2105.731572154686
 20
798.6018961382864
 30
0.0
  0
LINE
  5
92C
330
898
100
AcDbEntity
  8
0
  6
Continuous
 62
     7
370
    15
100
AcDbLine
 10
2105.651600536867
 20
807.1017166429742
 30
0.0
 11
2105.651600536867
 21
798.6018968576177
 31
0.0
  0
LINE
  5
92D
330
898
100
AcDbEntity
  8
0
  6
Continuous
 62
     7
370
    15
100
AcDbLine
 10
2105.856595811411
 20
809.1017169707997
 30
0.0
 11
2105.651600536867
 21
809.1017169707997
 31
0.0
  0
LINE
  5
92E
330
898
100
AcDbEntity
  8
0
  6
Continuous
 62
     7
370
    15
100
AcDbLine
 10
2105.651727196737
 20
788.1020767444356
 30
0.0
 11
2105.651727196737
 21
790.1020733469708
 31
0.0
  0
LINE
  5
92F
330
898
100
AcDbEntity
  8
0
  6
Continuous
 62
     7
370
    15
100
AcDbLine
 10
2105.651727196737
 20
790.1020733469708
 30
0.0
 11
2105.651727196737
 21
798.6018968576177
 31
0.0
  0
LINE
  5
930
330
898
100
AcDbEntity
  8
0
  6
Continuous
 62
     7
370
    15
100
AcDbLine
 10
2105.85670757012
 20
788.1020767444356
 30
0.0
 11
2105.651727196737
 21
788.1020767444356
 31
0.0
  0
SPLINE
  5
931
330
898
100
AcDbEntity
  8
0
  6
Continuous
 62
     7
370
    15
100
AcDbSpline
210
0.0
220
0.0
230
1.0
 70
    24
 71
     3
 72
     8
 73
     4
 74
     0
 42
0.0000000001
 43
0.0000000001
 40
0.0
 40
0.0
 40
0.0
 40
0.0
 40
1.0
 40
1.0
 40
1.0
 40
1.0
 10
2169.570483008797
 20
798.6018961382852
 30
0.0
 10
2169.622738589412
 20
798.6018961382852
 30
0.0
 10
2169.65043330022
 20
798.6018961382852
 30
0.0
 10
2169.65045203489
 20
798.6018961382852
 30
0.0
  0
SPLINE
  5
932
330
898
100
AcDbEntity
  8
0
  6
Continuous
 62
     7
370
    15
100
AcDbSpline
210
0.0
220
0.0
230
1.0
 70
    24
 71
     3
 72
     8
 73
     4
 74
     0
 42
0.0000000001
 43
0.0000000001
 40
0.0
 40
0.0
 40
0.0
 40
0.0
 40
1.0
 40
1.0
 40
1.0
 40
1.0
 10
2169.44537271497
 20
798.6018961382844
 30
0.0
 10
2169.495343662171
 20
798.6018961382844
 30
0.0
 10
2169.537685521774
 20
798.6018961382844
 30
0.0
 10
2169.570483008797
 20
798.6018961382844
 30
0.0
  0
LINE
  5
933
330
898
100
AcDbEntity
  8
0
  6
Continuous
 62
     7
370
    15
100
AcDbLine
 10
2169.650448736711
 20
809.1017169707997
 30
0.0
 11
2169.650448736711
 21
807.1017166429742
 31
0.0
  0
LINE
  5
934
330
898
100
AcDbEntity
  8
0
  6
Continuous
 62
     7
370
    15
100
AcDbLine
 10
2169.650448736711
 20
807.1017166429742
 30
0.0
 11
2169.650448736711
 21
798.6018968576177
 31
0.0
  0
LINE
  5
935
330
898
100
AcDbEntity
  8
0
  6
Continuous
 62
     7
370
    15
100
AcDbLine
 10
2169.445453462167
 20
809.1017169707997
 30
0.0
 11
2169.650448736711
 21
809.1017169707997
 31
0.0
  0
LINE
  5
936
330
898
100
AcDbEntity
  8
0
  6
Continuous
 62
     7
370
    15
100
AcDbLine
 10
2169.650329527422
 20
790.1020733469708
 30
0.0
 11
2169.650329527422
 21
798.6018968576177
 31
0.0
  0
LINE
  5
937
330
898
100
AcDbEntity
  8
0
  6
Continuous
 62
     7
370
    15
100
AcDbLine
 10
2169.650329527422
 20
788.1020767444356
 30
0.0
 11
2169.650329527422
 21
790.1020733469708
 31
0.0
  0
LINE
  5
938
330
898
100
AcDbEntity
  8
0
  6
Continuous
 62
     7
370
    15
100
AcDbLine
 10
2169.445349154039
 20
788.1020767444356
 30
0.0
 11
2169.650329527422
 21
788.1020767444356
 31
0.0
  0
LINE
  5
939
330
898
100
AcDbEntity
  8
0
  6
Continuous
 62
     7
370
    15
100
AcDbLine
 10
2106.634652492567
 20
795.4820742660745
 30
0.0
 11
2106.634652492567
 21
801.7220733517392
 31
0.0
  0
LINE
  5
93A
330
898
100
AcDbEntity
  8
0
  6
Continuous
 62
     7
370
    15
100
AcDbLine
 10
2106.905533251329
 20
801.7220733517392
 30
0.0
 11
2106.905533251329
 21
795.4820742660745
 31
0.0
  0
LINE
  5
93B
330
898
100
AcDbEntity
  8
0
  6
Continuous
 62
     7
370
    15
100
AcDbLine
 10
2168.667404231592
 20
795.4820742660745
 30
0.0
 11
2168.667404231592
 21
801.7220733517392
 31
0.0
  0
LINE
  5
93C
330
898
100
AcDbEntity
  8
0
  6
Continuous
 62
     7
370
    15
100
AcDbLine
 10
2168.39653092341
 20
801.7220733517392
 30
0.0
 11
2168.39653092341
 21
795.4820742660745
 31
0.0
  0
LINE
  5
93D
330
898
100
AcDbEntity
  8
0
  6
Continuous
 62
     7
370
    15
100
AcDbLine
 10
2107.379151758714
 20
795.4820742660745
 30
0.0
 11
2107.379151758714
 21
801.7220733517392
 31
0.0
  0
LINE
  5
93E
330
898
100
AcDbEntity
  8
0
  6
Continuous
 62
     7
370
    15
100
AcDbLine
 10
2167.922897514864
 20
795.4820742660745
 30
0.0
 11
2167.922897514864
 21
801.7220733517392
 31
0.0
  0
LINE
  5
93F
330
898
100
AcDbEntity
  8
0
  6
Continuous
 62
     7
370
    15
100
AcDbLine
 10
2106.521060940786
 20
795.4820742660745
 30
0.0
 11
2106.521060940786
 21
801.7220733517392
 31
0.0
  0
LINE
  5
940
330
898
100
AcDbEntity
  8
0
  6
Continuous
 62
     7
370
    15
100
AcDbLine
 10
2168.780995783373
 20
795.4820742660745
 30
0.0
 11
2168.780995783373
 21
801.7220733517392
 31
0.0
  0
LINE
  5
941
330
898
100
AcDbEntity
  8
0
  6
Continuous
 62
     7
370
    15
100
AcDbLine
 10
2105.650453147455
 20
809.1017169707997
 30
0.0
 11
2105.650453147455
 21
788.1020767444356
 31
0.0
  0
LINE
  5
942
330
898
100
AcDbEntity
  8
0
  6
Continuous
 62
     7
370
    15
100
AcDbLine
 10
2105.650453147455
 20
788.1020767444356
 30
0.0
 11
2105.651727196737
 21
788.1020767444356
 31
0.0
  0
LINE
  5
943
330
898
100
AcDbEntity
  8
0
  6
Continuous
 62
     7
370
    15
100
AcDbLine
 10
2105.650453147455
 20
809.1017169707997
 30
0.0
 11
2105.651600536867
 21
809.1017169707997
 31
0.0
  0
LINE
  5
944
330
898
100
AcDbEntity
  8
0
  6
Continuous
 62
     7
370
    15
100
AcDbLine
 10
2169.651596126123
 20
809.1017169707997
 30
0.0
 11
2169.651596126123
 21
788.1020767444356
 31
0.0
  0
LINE
  5
945
330
898
100
AcDbEntity
  8
0
  6
Continuous
 62
     7
370
    15
100
AcDbLine
 10
2169.651596126123
 20
788.1020767444356
 30
0.0
 11
2169.650329527422
 21
788.1020767444356
 31
0.0
  0
LINE
  5
946
330
898
100
AcDbEntity
  8
0
  6
Continuous
 62
     7
370
    15
100
AcDbLine
 10
2169.651596126123
 20
809.1017169707997
 30
0.0
 11
2169.650448736711
 21
809.1017169707997
 31
0.0
  0
LINE
  5
947
330
898
100
AcDbEntity
  8
0
  6
Continuous
 62
     7
370
    15
100
AcDbLine
 10
2134.151099500223
 20
798.6018968576177
 30
0.0
 11
2134.151024994417
 21
809.1017169707997
 31
0.0
  0
SPLINE
  5
948
330
898
100
AcDbEntity
  8
0
  6
Continuous
 62
     7
370
    15
100
AcDbSpline
210
0.0
220
0.0
230
1.0
 70
    24
 71
     3
 72
    10
 73
     6
 74
     0
 42
0.0000000001
 43
0.0000000001
 40
0.0
 40
0.0
 40
0.0
 40
0.0
 40
0.5
 40
0.5
 40
1.0
 40
1.0
 40
1.0
 40
1.0
 10
2133.851164193503
 20
798.6018961382836
 30
0.0
 10
2133.851194662537
 20
798.6018961382836
 30
0.0
 10
2133.883530844224
 20
798.6018961382836
 30
0.0
 10
2133.994569169388
 20
798.6018961382836
 30
0.0
 10
2134.072588571148
 20
798.6018961382836
 30
0.0
 10
2134.151097262218
 20
798.6018961382836
 30
0.0
  0
LINE
  5
949
330
898
100
AcDbEntity
  8
0
  6
Continuous
 62
     7
370
    15
100
AcDbLine
 10
2134.151024994417
 20
809.1017169707997
 30
0.0
 11
2133.851042267843
 21
809.1017169707997
 31
0.0
  0
LINE
  5
94A
330
898
100
AcDbEntity
  8
0
  6
Continuous
 62
     7
370
    15
100
AcDbLine
 10
2134.151166555448
 20
788.1020767444356
 30
0.0
 11
2134.151099500223
 21
798.6018968576177
 31
0.0
  0
LINE
  5
94B
330
898
100
AcDbEntity
  8
0
  6
Continuous
 62
     7
370
    15
100
AcDbLine
 10
2134.151166555448
 20
788.1020767444356
 30
0.0
 11
2133.851161477132
 21
788.1020767444356
 31
0.0
  0
SPLINE
  5
94C
330
898
100
AcDbEntity
  8
0
  6
Continuous
 62
     7
370
    15
100
AcDbSpline
210
0.0
220
0.0
230
1.0
 70
    24
 71
     3
 72
    10
 73
     6
 74
     0
 42
0.0000000001
 43
0.0000000001
 40
0.0
 40
0.0
 40
0.0
 40
0.0
 40
0.5
 40
0.5
 40
1.0
 40
1.0
 40
1.0
 40
1.0
 10
2141.150957901219
 20
798.6018961382834
 30
0.0
 10
2141.229525742615
 20
798.6018961382836
 30
0.0
 10
2141.307615643402
 20
798.6018961382836
 30
0.0
 10
2141.418717089849
 20
798.6018961382836
 30
0.0
 10
2141.451043475034
 20
798.6018961382834
 30
0.0
 10
2141.451012970641
 20
798.6018961382834
 30
0.0
  0
LINE
  5
94D
330
898
100
AcDbEntity
  8
0
  6
Continuous
 62
     7
370
    15
100
AcDbLine
 10
2141.150957223936
 20
798.6018968576177
 30
0.0
 11
2141.151031729742
 21
809.1017169707997
 31
0.0
  0
LINE
  5
94E
330
898
100
AcDbEntity
  8
0
  6
Continuous
 62
     7
370
    15
100
AcDbLine
 10
2141.151031729742
 20
809.1017169707997
 30
0.0
 11
2141.451014456316
 21
809.1017169707997
 31
0.0
  0
LINE
  5
94F
330
898
100
AcDbEntity
  8
0
  6
Continuous
 62
     7
370
    15
100
AcDbLine
 10
2141.150897619291
 20
788.1020767444356
 30
0.0
 11
2141.150897619291
 21
798.6018968576177
 31
0.0
  0
LINE
  5
950
330
898
100
AcDbEntity
  8
0
  6
Continuous
 62
     7
370
    15
100
AcDbLine
 10
2141.150897619291
 20
788.1020767444356
 30
0.0
 11
2141.450887796445
 21
788.1020767444356
 31
0.0
  0
LINE
  5
951
330
898
100
AcDbEntity
  8
0
  6
Continuous
 62
     7
370
    15
100
AcDbLine
 10
2141.150957223936
 20
798.6018968576177
 30
0.0
 11
2140.250979241892
 21
798.6018968576177
 31
0.0
  0
SPLINE
  5
952
330
898
100
AcDbEntity
  8
0
  6
Continuous
 62
     7
370
    15
100
AcDbSpline
210
0.0
220
0.0
230
1.0
 70
     8
 71
     3
 72
    29
 73
    25
 74
     0
 42
0.0000000001
 43
0.0000000001
 40
0.0
 40
0.0
 40
0.0
 40
0.0
 40
0.0210076287128573
 40
0.0418352650210459
 40
0.0625717276489325
 40
0.0833070069702235
 40
0.1041311086994391
 40
0.1251328966044729
 40
0.187480172287802
 40
0.2500923879398467
 40
0.3124396469038236
 40
0.3750518799478096
 40
0.4373991389122876
 40
0.5000113719558695
 40
0.5623586309204757
 40
0.6249708639638252
 40
0.6873181229320712
 40
0.7499303559720168
 40
0.812277623012121
 40
0.8748898482939873
 40
0.9062254153098626
 40
0.9373180587649766
 40
0.9684746013234351
 40
1.0
 40
1.0
 40
1.0
 40
1.0
 10
2135.05107654948
 20
798.6018961382844
 30
0.0
 10
2135.052175886219
 20
798.6590340679372
 30
0.0
 10
2135.054365140632
 20
798.7728203720673
 30
0.0
 10
2135.071555050877
 20
798.9422912471483
 30
0.0
 10
2135.09896779842
 20
799.1095763485422
 30
0.0
 10
2135.137566789365
 20
799.2746627808231
 30
0.0
 10
2135.187121173841
 20
799.4375531023349
 30
0.0
 10
2135.286940174116
 20
799.7027953692001
 30
0.0
 10
2135.474428162432
 20
800.0559686346225
 30
0.0
 10
2135.800606292134
 20
800.451323226254
 30
0.0
 10
2136.196480008198
 20
800.7782094579722
 30
0.0
 10
2136.649233893966
 20
801.018705246491
 30
0.0
 10
2137.140038379309
 20
801.1691987741905
 30
0.0
 10
2137.650369964656
 20
801.2181305758044
 30
0.0
 10
2138.161403614015
 20
801.1693451183594
 30
0.0
 10
2138.651613936273
 20
801.0192551034631
 30
0.0
 10
2139.105079924231
 20
800.7786263462161
 30
0.0
 10
2139.500530842784
 20
800.4523385241535
 30
0.0
 10
2139.82742192662
 20
800.0565945682055
 30
0.0
 10
2140.02800326449
 20
799.6784590352344
 30
0.0
 10
2140.143482270323
 20
799.3581526889024
 30
0.0
 10
2140.20525011447
 20
799.1108901292591
 30
0.0
 10
2140.243836717292
 20
798.8581910919256
 30
0.0
 10
2140.248586907618
 20
798.6876622855916
 30
0.0
 10
2140.250975979189
 20
798.6018961382836
 30
0.0
  0
LINE
  5
953
330
898
100
AcDbEntity
  8
0
  6
Continuous
 62
     7
370
    15
100
AcDbLine
 10
2135.051077482267
 20
798.6018968576177
 30
0.0
 11
2134.584537026449
 21
798.6018968576177
 31
0.0
  0
LINE
  5
954
330
898
100
AcDbEntity
  8
0
  6
Continuous
 62
     7
370
    15
100
AcDbLine
 10
2134.151099500223
 20
798.6018968576177
 30
0.0
 11
2134.584537026449
 21
798.6018968576177
 31
0.0
  0
LINE
  5
955
330
898
100
AcDbEntity
  8
0
  6
Continuous
 62
     7
370
    15
100
AcDbLine
 10
2134.151024994417
 20
809.1017169707997
 30
0.0
 11
2141.151031729742
 21
809.1017169707997
 31
0.0
  0
SPLINE
  5
956
330
898
100
AcDbEntity
  8
0
  6
Continuous
 62
     7
370
    15
100
AcDbSpline
210
0.0
220
0.0
230
1.0
 70
     8
 71
     3
 72
    29
 73
    25
 74
     0
 42
0.0000000001
 43
0.0000000001
 40
0.0
 40
0.0
 40
0.0
 40
0.0
 40
0.0210074816952705
 40
0.041835021955498
 40
0.0625714444528436
 40
0.0833067438542997
 40
0.1041309293877222
 40
0.1251328674786555
 40
0.187480143402782
 40
0.2500923588680755
 40
0.3124396210690941
 40
0.3750518508095884
 40
0.4373991130083159
 40
0.5000113427510432
 40
0.5623586049472234
 40
0.6249708346925487
 40
0.6873180968903278
 40
0.7499303266341606
 40
0.8122775950939331
 40
0.8748898188193175
 40
0.9062251802528001
 40
0.9373177683285923
 40
0.968474394350286
 40
1.0
 40
1.0
 40
1.0
 40
1.0
 10
2140.250975979189
 20
798.6018961382836
 30
0.0
 10
2140.249877089813
 20
798.5447585986464
 30
0.0
 10
2140.247688723694
 20
798.4309729360013
 30
0.0
 10
2140.230499723234
 20
798.2615027316418
 30
0.0
 10
2140.203087572363
 20
798.094217848195
 30
0.0
 10
2140.164488831779
 20
797.929131173478
 30
0.0
 10
2140.114934359511
 20
797.7662401529071
 30
0.0
 10
2140.015115169052
 20
797.5009972742754
 30
0.0
 10
2139.827627012785
 20
797.1478236350533
 30
0.0
 10
2139.501448862224
 20
796.7524690449822
 30
0.0
 10
2139.105575148468
 20
796.425582812928
 30
0.0
 10
2138.652821252901
 20
796.1850870234444
 30
0.0
 10
2138.162016775178
 20
796.0345935004884
 30
0.0
 10
2137.65168518108
 20
795.985661700793
 30
0.0
 10
2137.140651540461
 20
796.0344471599722
 30
0.0
 10
2136.650441210619
 20
796.1845371798045
 30
0.0
 10
2136.196975232461
 20
796.4251659358055
 30
0.0
 10
2135.801524308578
 20
796.751453760404
 30
0.0
 10
2135.474633247445
 20
797.1471977168607
 30
0.0
 10
2135.274052135061
 20
797.5253327410746
 30
0.0
 10
2135.158573344204
 20
797.8456383942956
 30
0.0
 10
2135.09680528462
 20
798.0929003933258
 30
0.0
 10
2135.058217743544
 20
798.3455998976181
 30
0.0
 10
2135.053466270699
 20
798.5161294500501
 30
0.0
 10
2135.05107654948
 20
798.6018961382844
 30
0.0
  0
LINE
  5
957
330
898
100
AcDbEntity
  8
0
  6
Continuous
 62
     7
370
    15
100
AcDbLine
 10
2134.151166555448
 20
788.1020767444356
 30
0.0
 11
2141.150897619291
 21
788.1020767444356
 31
0.0
  0
LINE
  5
958
330
898
100
AcDbEntity
  8
0
  6
Continuous
 62
     7
370
    15
100
AcDbLine
 10
2107.698394236131
 20
801.7220733517392
 30
0.0
 11
2107.698394236131
 21
795.4820742660745
 31
0.0
  0
LINE
  5
959
330
898
100
AcDbEntity
  8
0
  6
Continuous
 62
     7
370
    15
100
AcDbLine
 10
2167.603669938608
 20
801.7220733517392
 30
0.0
 11
2167.603669938608
 21
795.4820742660745
 31
0.0
  0
ENDBLK
  5
89A
330
898
100
AcDbEntity
  8
0
100
AcDbBlockEnd
  0
BLOCK
  5
95C
330
95B
100
AcDbEntity
  8
0
100
AcDbBlockBegin
  2
4
 70
     0
 10
0.0
 20
0.0
 30
0.0
  3
4
  1

  0
LINE
  5
95E
330
95B
100
AcDbEntity
  8
0
  6
Continuous
 62
     7
370
    15
100
AcDbLine
 10
2240.480718266917
 20
893.9740562499892
 30
0.0
 11
2240.440808413181
 21
891.3177727157995
 31
0.0
  0
LINE
  5
95F
330
95B
100
AcDbEntity
  8
0
  6
Continuous
 62
     7
370
    15
100
AcDbLine
 10
2251.439566717304
 20
891.1525200337006
 30
0.0
 11
2251.479503364189
 21
893.8105868417745
 31
0.0
  0
LINE
  5
960
330
95B
100
AcDbEntity
  8
0
  6
Continuous
 62
     7
370
    15
100
AcDbLine
 10
2258.754322601639
 20
878.5288781265055
 30
0.0
 11
2254.563219138893
 21
876.8171771551859
 31
0.0
  0
LINE
  5
961
330
95B
100
AcDbEntity
  8
0
  6
Continuous
 62
     7
370
    15
100
AcDbLine
 10
2257.293970787293
 20
881.2791526405446
 30
0.0
 11
2253.102867324547
 21
879.5674516692249
 31
0.0
  0
LINE
  5
962
330
95B
100
AcDbEntity
  8
0
  6
Continuous
 62
     7
370
    15
100
AcDbLine
 10
2255.833608978924
 20
884.0294324070169
 30
0.0
 11
2251.642505516178
 21
882.3177314356971
 31
0.0
  0
LINE
  5
963
330
95B
100
AcDbEntity
  8
0
  6
Continuous
 62
     7
370
    15
100
AcDbLine
 10
2253.909365416674
 20
878.04857120686
 30
0.0
 11
2257.718877537627
 21
879.6044253287279
 31
0.0
  0
LINE
  5
964
330
95B
100
AcDbEntity
  8
0
  6
Continuous
 62
     7
370
    15
100
AcDbLine
 10
2254.370964638
 20
886.7840026030203
 30
0.0
 11
2250.179861175254
 21
885.0723016317006
 31
0.0
  0
LINE
  5
965
330
95B
100
AcDbEntity
  8
0
  6
Continuous
 62
     7
370
    15
100
AcDbLine
 10
2252.44900360211
 20
880.7988505610145
 30
0.0
 11
2256.258515723063
 21
882.3547046828826
 31
0.0
  0
LINE
  5
966
330
95B
100
AcDbEntity
  8
0
  6
Continuous
 62
     7
370
    15
100
AcDbLine
 10
2250.988646784557
 20
883.5491272889525
 30
0.0
 11
2254.79815890551
 21
885.1049814108206
 31
0.0
  0
LINE
  5
967
330
95B
100
AcDbEntity
  8
0
  6
Continuous
 62
     7
370
    15
100
AcDbLine
 10
2249.526007442194
 20
886.3036949618187
 30
0.0
 11
2253.335519563147
 21
887.8595490836866
 31
0.0
  0
LINE
  5
968
330
95B
100
AcDbEntity
  8
0
  6
Continuous
 62
     7
370
    15
100
AcDbLine
 10
2238.760935426226
 20
894.8428789833757
 30
0.0
 11
2230.974051882665
 21
891.6626148253696
 31
0.0
  0
LINE
  5
969
330
95B
100
AcDbEntity
  8
0
  6
Continuous
 62
     7
370
    15
100
AcDbLine
 10
2246.547895823146
 20
898.0228948728916
 30
0.0
 11
2238.761012279585
 21
894.8426307148855
 31
0.0
  0
LINE
  5
96A
330
95B
100
AcDbEntity
  8
0
  6
Continuous
 62
     7
370
    15
100
AcDbLine
 10
2220.466596839622
 20
904.4926261746637
 30
0.0
 11
2220.426686985886
 21
901.8363426404739
 31
0.0
  0
LINE
  5
96B
330
95B
100
AcDbEntity
  8
0
  6
Continuous
 62
     7
370
    15
100
AcDbLine
 10
2231.425445290009
 20
901.6710899583753
 30
0.0
 11
2231.465381936894
 21
904.3291567664491
 31
0.0
  0
LINE
  5
96C
330
95B
100
AcDbEntity
  8
0
  6
Continuous
 62
     7
370
    15
100
AcDbLine
 10
2251.14610040811
 20
827.3807972866366
 30
0.0
 11
2252.486474530561
 21
827.9282234496333
 31
0.0
  0
LINE
  5
96D
330
95B
100
AcDbEntity
  8
0
  6
Continuous
 62
     7
370
    15
100
AcDbLine
 10
2252.783858111607
 20
838.270797801835
 30
0.0
 11
2257.525329451552
 21
840.207276147027
 31
0.0
  0
LINE
  5
96E
330
95B
100
AcDbEntity
  8
0
  6
Continuous
 62
     7
370
    15
100
AcDbLine
 10
2251.168514829012
 20
823.6058945802561
 30
0.0
 11
2252.651756396199
 21
824.2116696592594
 31
0.0
  0
LINE
  5
96F
330
95B
100
AcDbEntity
  8
0
  6
Continuous
 62
     7
370
    15
100
AcDbLine
 10
2258.360731100642
 20
831.982817999571
 30
0.0
 11
2252.654368534798
 21
829.6522655726313
 31
0.0
  0
LINE
  5
970
330
95B
100
AcDbEntity
  8
0
  6
Continuous
 62
     7
370
    15
100
AcDbLine
 10
2248.342451398254
 20
816.6612573711374
 30
0.0
 11
2256.129467553924
 21
819.8415756896473
 31
0.0
  0
LINE
  5
971
330
95B
100
AcDbEntity
  8
0
  6
Continuous
 62
     7
370
    15
100
AcDbLine
 10
2252.638452820374
 20
823.3262224299622
 30
0.0
 11
2260.054657893558
 21
826.3550966966352
 31
0.0
  0
LINE
  5
972
330
95B
100
AcDbEntity
  8
0
  6
Continuous
 62
     7
370
    15
100
AcDbLine
 10
2220.46467359131
 20
904.3644588644653
 30
0.0
 11
2212.778602877622
 21
901.2253679727239
 31
0.0
  0
LINE
  5
973
330
95B
100
AcDbEntity
  8
0
  6
Continuous
 62
     7
370
    15
100
AcDbLine
 10
2260.347388684493
 20
831.1387161117581
 30
0.0
 11
2261.830895475897
 21
831.7445995117688
 31
0.0
  0
LINE
  5
974
330
95B
100
AcDbEntity
  8
0
  6
Continuous
 62
     7
370
    15
100
AcDbLine
 10
2259.656511587242
 20
831.4191259035784
 30
0.0
 11
2259.581323284556
 21
831.3884180263135
 31
0.0
  0
LINE
  5
975
330
95B
100
AcDbEntity
  8
0
  6
Continuous
 62
     7
370
    15
100
AcDbLine
 10
2256.132605490827
 20
819.8428824885908
 30
0.0
 11
2263.916198596449
 21
823.0218027890984
 31
0.0
  0
LINE
  5
976
330
95B
100
AcDbEntity
  8
0
  6
Continuous
 62
     7
370
    15
100
AcDbLine
 10
2260.210828914119
 20
827.298892841939
 30
0.0
 11
2261.551203036572
 21
827.8463190049357
 31
0.0
  0
LINE
  5
977
330
95B
100
AcDbEntity
  8
0
  6
Continuous
 62
     7
370
    15
100
AcDbLine
 10
2252.733987287957
 20
834.9513826562796
 30
0.0
 11
2253.20181241596
 21
835.1424485016185
 31
0.0
  0
LINE
  5
978
330
95B
100
AcDbEntity
  8
0
  6
Continuous
 62
     7
370
    15
100
AcDbLine
 10
2228.352286913728
 20
907.5857320591763
 30
0.0
 11
2226.721365187373
 21
906.9196424892188
 31
0.0
  0
LINE
  5
979
330
95B
100
AcDbEntity
  8
0
  6
Continuous
 62
     7
370
    15
100
AcDbLine
 10
2214.96489044485
 20
833.474265916959
 30
0.0
 11
2218.821316861886
 21
835.0492804453615
 31
0.0
  0
LINE
  5
97A
330
95B
100
AcDbEntity
  8
0
  6
Continuous
 62
     7
370
    15
100
AcDbLine
 10
2218.602809970835
 20
833.5032505143075
 30
0.0
 11
2222.117823752158
 21
834.9388276975414
 31
0.0
  0
LINE
  5
97B
330
95B
100
AcDbEntity
  8
0
  6
Continuous
 62
     7
370
    15
100
AcDbLine
 10
2215.324513736662
 20
838.5091080827168
 30
0.0
 11
2215.257480140527
 21
834.0475473155835
 31
0.0
  0
LWPOLYLINE
  5
97C
330
95B
100
AcDbEntity
  8
0
  6
Continuous
 62
     7
370
    15
100
AcDbPolyline
 90
        9
 70
   128
 43
0.0
 10
2214.57348764097
 20
833.5145856234408
 10
2214.704590022096
 20
833.4628320182162
 10
2214.831161856231
 20
833.4470976538456
 10
2214.948346888984
 20
833.4679799132691
 10
2215.051635608139
 20
833.5246837965875
 10
2215.137056715998
 20
833.6150276781538
 10
2215.201334613855
 20
833.7355334180044
 10
2215.241997411927
 20
833.8815757208733
 10
2215.257480140527
 20
834.0475473155835
  0
LINE
  5
97D
330
95B
100
AcDbEntity
  8
0
  6
Continuous
 62
     7
370
    15
100
AcDbLine
 10
2210.020810171235
 20
835.9072790266393
 30
0.0
 11
2214.57348764097
 21
833.5145856234408
 31
0.0
  0
ARC
  5
97E
330
95B
100
AcDbEntity
  8
0
  6
Continuous
 62
     7
370
    15
100
AcDbCircle
 10
2210.402644400066
 20
836.6287524313143
 30
0.0
 40
0.8162850310769396
100
AcDbArc
 50
233.9072576173259
 51
242.1103144410047
  0
LINE
  5
97F
330
95B
100
AcDbEntity
  8
0
  6
Continuous
 62
     7
370
    15
100
AcDbLine
 10
2206.269390978945
 20
838.617502146964
 30
0.0
 11
2209.921775781806
 21
835.9691414672351
 31
0.0
  0
ARC
  5
980
330
95B
100
AcDbEntity
  8
0
  6
Continuous
 62
     7
370
    15
100
AcDbCircle
 10
2207.219498086763
 20
839.7891513129252
 30
0.0
 40
1.508464545298237
100
AcDbArc
 50
179.8320715153934
 51
230.9609084108227
  0
LINE
  5
981
330
95B
100
AcDbEntity
  8
0
  6
Continuous
 62
     7
370
    15
100
AcDbLine
 10
2205.710260486635
 20
839.7939821626064
 30
0.0
 11
2205.711040020469
 21
839.7935724728197
 31
0.0
  0
LINE
  5
982
330
95B
100
AcDbEntity
  8
0
  6
Continuous
 62
     7
370
    15
100
AcDbLine
 10
2206.556858308654
 20
896.1410655067361
 30
0.0
 11
2205.710260486635
 21
839.7939821626064
 31
0.0
  0
LINE
  5
983
330
95B
100
AcDbEntity
  8
0
  6
Continuous
 62
     7
370
    15
100
AcDbLine
 10
2206.556858308654
 20
896.1410655067361
 30
0.0
 11
2206.557712797664
 21
896.1406164237008
 31
0.0
  0
ARC
  5
984
330
95B
100
AcDbEntity
  8
0
  6
Continuous
 62
     7
370
    15
100
AcDbCircle
 10
2207.020562517091
 20
896.1697499897827
 30
0.0
 40
0.463767436265891
100
AcDbArc
 50
133.4236488533437
 51
183.6044109618935
  0
LINE
  5
985
330
95B
100
AcDbEntity
  8
0
  6
Continuous
 62
     7
370
    15
100
AcDbLine
 10
2212.691837367561
 20
901.1749367221922
 30
0.0
 11
2206.701774649812
 21
896.5065801110846
 31
0.0
  0
ARC
  5
986
330
95B
100
AcDbEntity
  8
0
  6
Continuous
 62
     7
370
    15
100
AcDbCircle
 10
2212.938474105174
 20
900.8225620730025
 30
0.0
 40
0.4301134428640795
100
AcDbArc
 50
57.43258051017033
 51
124.9892355332015
  0
LINE
  5
987
330
95B
100
AcDbEntity
  8
0
  6
Continuous
 62
     7
370
    15
100
AcDbLine
 10
2224.927059782587
 20
895.006034241909
 30
0.0
 11
2213.170000579237
 21
901.1850438870851
 31
0.0
  0
ARC
  5
988
330
95B
100
AcDbEntity
  8
0
  6
Continuous
 62
     7
370
    15
100
AcDbCircle
 10
2224.132569907699
 20
893.7906484293646
 30
0.0
 40
1.452025080580279
100
AcDbArc
 50
359.1122406409677
 51
56.82761350886432
  0
LINE
  5
989
330
95B
100
AcDbEntity
  8
0
  6
Continuous
 62
     7
370
    15
100
AcDbLine
 10
2225.4686821181
 20
886.0649288640118
 30
0.0
 11
2225.584420694981
 21
893.7681511828214
 31
0.0
  0
ARC
  5
98A
330
95B
100
AcDbEntity
  8
0
  6
Continuous
 62
     7
370
    15
100
AcDbCircle
 10
2225.904250006466
 20
886.058165567065
 30
0.0
 40
0.4356203938759734
100
AcDbArc
 50
179.1104090954027
 51
236.828328077201
  0
LINE
  5
98B
330
95B
100
AcDbEntity
  8
0
  6
Continuous
 62
     7
370
    15
100
AcDbLine
 10
2225.665900549698
 20
885.693536078379
 30
0.0
 11
2230.36053312937
 21
883.2262371145292
 31
0.0
  0
LWPOLYLINE
  5
98C
330
95B
100
AcDbEntity
  8
0
  6
Continuous
 62
     7
370
    15
100
AcDbPolyline
 90
        9
 70
   128
 43
0.0
 10
2230.36053312937
 20
883.2262371145292
 10
2230.399861350158
 20
883.2107126759241
 10
2230.437835908517
 20
883.2059914505913
 10
2230.472988942139
 20
883.2122589258702
 10
2230.503977071856
 20
883.2292702925633
 10
2230.529606931858
 20
883.2563735978062
 10
2230.54888584603
 20
883.2925304871164
 10
2230.561082733728
 20
883.336347362078
 10
2230.5657240544
 20
883.3861406788427
  0
LINE
  5
98D
330
95B
100
AcDbEntity
  8
0
  6
Continuous
 62
     7
370
    15
100
AcDbLine
 10
2230.5657240544
 20
883.3861406788427
 30
0.0
 11
2230.681462631282
 21
891.0893629976524
 31
0.0
  0
LWPOLYLINE
  5
98E
330
95B
100
AcDbEntity
  8
0
  6
Continuous
 62
     7
370
    15
100
AcDbPolyline
 90
        9
 70
   128
 43
0.0
 10
2230.681462631282
 20
891.0893629976524
 10
2230.696950210538
 20
891.2553222251412
 10
2230.737612933496
 20
891.4013595286585
 10
2230.801885780135
 20
891.5218642869463
 10
2230.887311785501
 20
891.6121989194435
 10
2230.990595407943
 20
891.6688987932412
 10
2231.107770406213
 20
891.6897836121481
 10
2231.234342198797
 20
891.6740464823501
 10
2231.365434593244
 20
891.6222986183806
  0
LINE
  5
98F
330
95B
100
AcDbEntity
  8
0
  6
Continuous
 62
     7
370
    15
100
AcDbLine
 10
2231.365434593244
 20
891.6222986183806
 30
0.0
 11
2243.122493796594
 21
885.4432889732045
 31
0.0
  0
ARC
  5
990
330
95B
100
AcDbEntity
  8
0
  6
Continuous
 62
     7
370
    15
100
AcDbCircle
 10
2242.507553053568
 20
884.4027819891033
 30
0.0
 40
1.20863844941172
100
AcDbArc
 50
26.10865713539017
 51
59.41686709489034
  0
LINE
  5
991
330
95B
100
AcDbEntity
  8
0
  6
Continuous
 62
     7
370
    15
100
AcDbLine
 10
2243.59286335625
 20
884.934673376785
 30
0.0
 11
2249.349885806389
 21
874.0925490487983
 31
0.0
  0
ARC
  5
992
330
95B
100
AcDbEntity
  8
0
  6
Continuous
 62
     7
370
    15
100
AcDbCircle
 10
2248.39855342823
 20
873.5765944308607
 30
0.0
 40
1.082239558279644
100
AcDbArc
 50
0.2892609729616922
 51
28.47316744461902
  0
LINE
  5
993
330
95B
100
AcDbEntity
  8
0
  6
Continuous
 62
     7
370
    15
100
AcDbLine
 10
2249.481629021046
 20
873.5816339634075
 30
0.0
 11
2249.480779529048
 21
873.5820804202264
 31
0.0
  0
LINE
  5
994
330
95B
100
AcDbEntity
  8
0
  6
Continuous
 62
     7
370
    15
100
AcDbLine
 10
2249.481629021046
 20
873.5816339634075
 30
0.0
 11
2248.63496687069
 21
817.2302691126853
 31
0.0
  0
LWPOLYLINE
  5
995
330
95B
100
AcDbEntity
  8
0
  6
Continuous
 62
     7
370
    15
100
AcDbPolyline
 90
        9
 70
   128
 43
0.0
 10
2248.63496687069
 20
817.2302691126853
 10
2248.621559615816
 20
817.0800823445027
 10
2248.587560050888
 20
816.9457713908602
 10
2248.534048640718
 20
816.8315358642159
 10
2248.462691037147
 20
816.740968614755
 10
2248.375735601061
 20
816.6768908033265
 10
2248.275891987319
 20
816.6413159744008
 10
2248.166299477662
 20
816.6353536629667
 10
2248.050375682691
 20
816.6591958218727
  0
LINE
  5
996
330
95B
100
AcDbEntity
  8
0
  6
Continuous
 62
     7
370
    15
100
AcDbLine
 10
2248.050375682691
 20
816.6591958218727
 30
0.0
 11
2244.376281766716
 21
817.8613203600772
 31
0.0
  0
ARC
  5
997
330
95B
100
AcDbEntity
  8
0
  6
Continuous
 62
     7
370
    15
100
AcDbCircle
 10
2244.579349053378
 20
818.4747355457657
 30
0.0
 40
0.6461536295232691
100
AcDbArc
 50
242.0960138412777
 51
251.6831953168637
  0
LINE
  5
998
330
95B
100
AcDbEntity
  8
0
  6
Continuous
 62
     7
370
    15
100
AcDbLine
 10
2244.276954777518
 20
817.903708212906
 30
0.0
 11
2239.724272310771
 21
820.2964042423213
 31
0.0
  0
ARC
  5
999
330
95B
100
AcDbEntity
  8
0
  6
Continuous
 62
     7
370
    15
100
AcDbCircle
 10
2240.518785464941
 20
821.5118319795886
 30
0.0
 40
1.452072910245373
100
AcDbArc
 50
179.1119627613932
 51
236.82774980098
  0
LINE
  5
99A
330
95B
100
AcDbEntity
  8
0
  6
Continuous
 62
     7
370
    15
100
AcDbLine
 10
2239.133920559
 20
825.9958977759058
 30
0.0
 11
2239.066886962865
 21
821.5343370087726
 31
0.0
  0
LINE
  5
99B
330
95B
100
AcDbEntity
  8
0
  6
Continuous
 62
     7
370
    15
100
AcDbLine
 10
2239.133920559
 20
825.9958977759058
 30
0.0
 11
2215.324513736662
 21
838.5091080827168
 31
0.0
  0
LINE
  5
99C
330
95B
100
AcDbEntity
  8
0
  6
Continuous
 62
     7
370
    15
100
AcDbLine
 10
2251.37981048375
 20
888.1148117306054
 30
0.0
 11
2243.59286335625
 21
884.934673376785
 31
0.0
  0
LINE
  5
99D
330
95B
100
AcDbEntity
  8
0
  6
Continuous
 62
     7
370
    15
100
AcDbLine
 10
2251.440955625415
 20
887.9996581167475
 30
0.0
 11
2251.37981048375
 21
888.1148117306054
 31
0.0
  0
LINE
  5
99E
330
95B
100
AcDbEntity
  8
0
  6
Continuous
 62
     7
370
    15
100
AcDbLine
 10
2249.12723072965
 20
887.0547028832035
 30
0.0
 11
2251.440955625415
 21
887.9996581167475
 31
0.0
  0
LINE
  5
99F
330
95B
100
AcDbEntity
  8
0
  6
Continuous
 62
     7
370
    15
100
AcDbLine
 10
2254.761830592572
 20
876.443130766143
 30
0.0
 11
2249.12723072965
 21
887.0547028832035
 31
0.0
  0
LINE
  5
9A0
330
95B
100
AcDbEntity
  8
0
  6
Continuous
 62
     7
370
    15
100
AcDbLine
 10
2257.075555488336
 20
877.388085999687
 30
0.0
 11
2254.761830592572
 21
876.443130766143
 31
0.0
  0
LINE
  5
9A1
330
95B
100
AcDbEntity
  8
0
  6
Continuous
 62
     7
370
    15
100
AcDbLine
 10
2257.136818204978
 20
877.2727127274595
 30
0.0
 11
2257.075555488336
 21
877.388085999687
 31
0.0
  0
LINE
  5
9A2
330
95B
100
AcDbEntity
  8
0
  6
Continuous
 62
     7
370
    15
100
AcDbLine
 10
2257.136818204978
 20
877.2727127274595
 30
0.0
 11
2250.833124610824
 21
874.698322999458
 31
0.0
  0
LINE
  5
9A3
330
95B
100
AcDbEntity
  8
0
  6
Continuous
 62
     7
370
    15
100
AcDbLine
 10
2249.349885806389
 20
874.0925490487983
 30
0.0
 11
2250.833124610824
 21
874.698322999458
 31
0.0
  0
SPLINE
  5
9A4
330
95B
100
AcDbEntity
  8
0
  6
Continuous
 62
     7
370
    15
100
AcDbSpline
210
0.0
220
0.0
230
1.0
 70
     8
 71
     3
 72
     8
 73
     4
 74
     0
 42
0.0000000001
 43
0.0000000001
 40
0.0
 40
0.0
 40
0.0
 40
0.0
 40
1.0
 40
1.0
 40
1.0
 40
1.0
 10
2257.13678276495
 20
877.2726813170965
 30
0.0
 10
2257.169633023077
 20
877.2108311650111
 30
0.0
 10
2257.197265214808
 20
877.1449257736326
 30
0.0
 10
2257.218429429951
 20
877.0779462970146
 30
0.0
  0
SPLINE
  5
9A5
330
95B
100
AcDbEntity
  8
0
  6
Continuous
 62
     7
370
    15
100
AcDbSpline
210
0.0
220
0.0
230
1.0
 70
     8
 71
     3
 72
     8
 73
     4
 74
     0
 42
0.0000000001
 43
0.0000000001
 40
0.0
 40
0.0
 40
0.0
 40
0.0
 40
1.0
 40
1.0
 40
1.0
 40
1.0
 10
2257.218429429952
 20
877.077946297015
 30
0.0
 10
2257.252149950972
 20
876.9712292355073
 30
0.0
 10
2257.269228092136
 20
876.8618741113828
 30
0.0
 10
2257.267742900882
 20
876.7621812097658
 30
0.0
  0
LINE
  5
9A6
330
95B
100
AcDbEntity
  8
0
  6
Continuous
 62
     7
370
    15
100
AcDbLine
 10
2250.964017998956
 20
874.1878321057322
 30
0.0
 11
2257.267661276074
 21
876.7622250061108
 31
0.0
  0
LINE
  5
9A7
330
95B
100
AcDbEntity
  8
0
  6
Continuous
 62
     7
370
    15
100
AcDbLine
 10
2249.480779194521
 20
873.5820581550726
 30
0.0
 11
2250.964017998956
 21
874.1878321057322
 31
0.0
  0
LINE
  5
9A8
330
95B
100
AcDbEntity
  8
0
  6
Continuous
 62
     7
370
    15
100
AcDbLine
 10
2265.055392502709
 20
879.941922310541
 30
0.0
 11
2265.054622962899
 21
879.9423267478944
 31
0.0
  0
LINE
  5
9A9
330
95B
100
AcDbEntity
  8
0
  6
Continuous
 62
     7
370
    15
100
AcDbLine
 10
2265.055392502709
 20
879.941922310541
 30
0.0
 11
2249.481629021046
 21
873.5816339634075
 31
0.0
  0
LINE
  5
9AA
330
95B
100
AcDbEntity
  8
0
  6
Continuous
 62
     7
370
    15
100
AcDbLine
 10
2263.571381730239
 20
879.3365739340448
 30
0.0
 11
2257.267741228262
 21
876.7621829866454
 31
0.0
  0
LINE
  5
9AB
330
95B
100
AcDbEntity
  8
0
  6
Continuous
 62
     7
370
    15
100
AcDbLine
 10
2265.054622962899
 20
879.9423267478944
 30
0.0
 11
2263.571381730239
 21
879.3365739340448
 31
0.0
  0
LINE
  5
9AC
330
95B
100
AcDbEntity
  8
0
  6
Continuous
 62
     7
370
    15
100
AcDbLine
 10
2251.149527761653
 20
827.6090857714009
 30
0.0
 11
2252.63276932884
 21
828.2148608504044
 31
0.0
  0
LINE
  5
9AD
330
95B
100
AcDbEntity
  8
0
  6
Continuous
 62
     7
370
    15
100
AcDbLine
 10
2251.149527761653
 20
827.6090857714009
 30
0.0
 11
2251.077688571136
 21
822.8276786496955
 31
0.0
  0
LINE
  5
9AE
330
95B
100
AcDbEntity
  8
0
  6
Continuous
 62
     7
370
    15
100
AcDbLine
 10
2252.560930138324
 20
823.4334537286988
 30
0.0
 11
2251.077688571136
 21
822.8276786496955
 31
0.0
  0
LINE
  5
9AF
330
95B
100
AcDbEntity
  8
0
  6
Continuous
 62
     7
370
    15
100
AcDbLine
 10
2252.560930138324
 20
823.4334537286988
 30
0.0
 11
2252.547626661617
 21
822.5480130964843
 31
0.0
  0
LINE
  5
9B0
330
95B
100
AcDbEntity
  8
0
  6
Continuous
 62
     7
370
    15
100
AcDbLine
 10
2256.478216400251
 20
824.1533168865915
 30
0.0
 11
2252.547626661617
 21
822.5480130964843
 31
0.0
  0
LINE
  5
9B1
330
95B
100
AcDbEntity
  8
0
  6
Continuous
 62
     7
370
    15
100
AcDbLine
 10
2260.408806138884
 20
825.7586206766989
 30
0.0
 11
2256.478216400251
 21
824.1533168865915
 31
0.0
  0
LINE
  5
9B2
330
95B
100
AcDbEntity
  8
0
  6
Continuous
 62
     7
370
    15
100
AcDbLine
 10
2260.422109615591
 20
826.6440613089134
 30
0.0
 11
2260.408806138884
 21
825.7586206766989
 31
0.0
  0
LINE
  5
9B3
330
95B
100
AcDbEntity
  8
0
  6
Continuous
 62
     7
370
    15
100
AcDbLine
 10
2261.905351182779
 20
827.2498363879169
 30
0.0
 11
2260.422109615591
 21
826.6440613089134
 31
0.0
  0
LINE
  5
9B4
330
95B
100
AcDbEntity
  8
0
  6
Continuous
 62
     7
370
    15
100
AcDbLine
 10
2261.977190373295
 20
832.0312435096225
 30
0.0
 11
2261.905351182779
 21
827.2498363879169
 31
0.0
  0
LINE
  5
9B5
330
95B
100
AcDbEntity
  8
0
  6
Continuous
 62
     7
370
    15
100
AcDbLine
 10
2261.235568208325
 20
831.7283554059487
 30
0.0
 11
2261.977190373295
 21
832.0312435096225
 31
0.0
  0
LINE
  5
9B6
330
95B
100
AcDbEntity
  8
0
  6
Continuous
 62
     7
370
    15
100
AcDbLine
 10
2260.493683581891
 20
831.4253601096117
 30
0.0
 11
2261.235568208325
 21
831.7283554059487
 31
0.0
  0
LINE
  5
9B7
330
95B
100
AcDbEntity
  8
0
  6
Continuous
 62
     7
370
    15
100
AcDbLine
 10
2260.667494386729
 20
842.9937006505447
 30
0.0
 11
2260.493683581891
 21
831.4253601096117
 31
0.0
  0
LINE
  5
9B8
330
95B
100
AcDbEntity
  8
0
  6
Continuous
 62
     7
370
    15
100
AcDbLine
 10
2252.806580133678
 20
839.7832013913376
 30
0.0
 11
2260.667494386729
 21
842.9937006505447
 31
0.0
  0
LINE
  5
9B9
330
95B
100
AcDbEntity
  8
0
  6
Continuous
 62
     7
370
    15
100
AcDbLine
 10
2252.806580133678
 20
839.7832013913376
 30
0.0
 11
2252.63276932884
 21
828.2148608504044
 31
0.0
  0
LINE
  5
9BA
330
95B
100
AcDbEntity
  8
0
  6
Continuous
 62
     7
370
    15
100
AcDbLine
 10
2256.422047354697
 20
820.4148689377875
 30
0.0
 11
2264.20879828615
 21
823.59507893529
 31
0.0
  0
LINE
  5
9BB
330
95B
100
AcDbEntity
  8
0
  6
Continuous
 62
     7
370
    15
100
AcDbLine
 10
2256.42198302636
 20
820.4105874311951
 30
0.0
 11
2256.422047354697
 21
820.4148689377875
 31
0.0
  0
LINE
  5
9BC
330
95B
100
AcDbEntity
  8
0
  6
Continuous
 62
     7
370
    15
100
AcDbLine
 10
2256.42198302636
 20
820.4105874311951
 30
0.0
 11
2248.63496687069
 21
817.2302691126853
 31
0.0
  0
LINE
  5
9BD
330
95B
100
AcDbEntity
  8
0
  6
Continuous
 62
     7
370
    15
100
AcDbLine
 10
2265.055392502709
 20
879.941922310541
 30
0.0
 11
2264.20879828615
 21
823.59507893529
 31
0.0
  0
LINE
  5
9BE
330
95B
100
AcDbEntity
  8
0
  6
Continuous
 62
     7
370
    15
100
AcDbLine
 10
2249.888037678424
 20
860.1862601394747
 30
0.0
 11
2249.61484447482
 21
842.0033168196569
 31
0.0
  0
LINE
  5
9BF
330
95B
100
AcDbEntity
  8
0
  6
Continuous
 62
     7
370
    15
100
AcDbLine
 10
2249.61484447482
 20
842.0033168196569
 30
0.0
 11
2263.965499696305
 21
847.8643103980859
 31
0.0
  0
LINE
  5
9C0
330
95B
100
AcDbEntity
  8
0
  6
Continuous
 62
     7
370
    15
100
AcDbLine
 10
2263.965499696305
 20
847.8643103980859
 30
0.0
 11
2264.238692899908
 21
866.0472537179039
 31
0.0
  0
LINE
  5
9C1
330
95B
100
AcDbEntity
  8
0
  6
Continuous
 62
     7
370
    15
100
AcDbLine
 10
2264.238692899908
 20
866.0472537179039
 30
0.0
 11
2249.888037678424
 21
860.1862601394747
 31
0.0
  0
LINE
  5
9C2
330
95B
100
AcDbEntity
  8
0
  6
Continuous
 62
     7
370
    15
100
AcDbLine
 10
2243.122493796594
 20
885.4432889732045
 30
0.0
 11
2250.909422313262
 21
888.6235294952612
 31
0.0
  0
SPLINE
  5
9C3
330
95B
100
AcDbEntity
  8
0
  6
Continuous
 62
     7
370
    15
100
AcDbSpline
210
0.0
220
0.0
230
1.0
 70
     8
 71
     3
 72
     8
 73
     4
 74
     0
 42
0.0000000001
 43
0.0000000001
 40
0.0
 40
0.0
 40
0.0
 40
0.0
 40
1.0
 40
1.0
 40
1.0
 40
1.0
 10
2251.379811954695
 20
888.1148104389236
 30
0.0
 10
2251.258123521154
 20
888.3440269948886
 30
0.0
 10
2251.085034099021
 20
888.5312206618129
 30
0.0
 10
2250.909423985255
 20
888.6235281167108
 30
0.0
  0
LWPOLYLINE
  5
9C4
330
95B
100
AcDbEntity
  8
0
  6
Continuous
 62
     7
370
    15
100
AcDbPolyline
 90
       29
 70
   128
 43
0.0
 10
2251.439566717304
 20
891.1525200337006
 10
2251.415927098022
 20
890.9332769339334
 10
2251.32200401911
 20
890.6459111616381
 10
2251.157919190386
 20
890.3662281579272
 10
2250.925814950051
 20
890.0978704486268
 10
2250.628713660595
 20
889.8443405973671
 10
2250.270490321854
 20
889.6089433497895
 10
2249.855815201991
 20
889.3947435350535
 10
2249.390095291207
 20
889.2045374877111
 10
2248.879400356212
 20
889.0408041791518
 10
2248.330388345913
 20
888.9056747523174
 10
2247.750216334561
 20
888.8009148179742
 10
2247.146447116665
 20
888.7278909739265
 10
2246.526954624638
 20
888.6875508445998
 10
2245.899810415375
 20
888.6804233912979
 10
2245.273191850647
 20
888.7066000801308
 10
2244.655269112175
 20
888.7657400751756
 10
2244.054097213716
 20
888.8570728054228
 10
2243.477514067143
 20
888.9794076713133
 10
2242.933039077023
 20
889.1311486341802
 10
2242.427762269657
 20
889.310318941027
 10
2241.968275512195
 20
889.5145843711919
 10
2241.560572164193
 20
889.7412775915968
 10
2241.209959894153
 20
889.987446556991
 10
2240.921018469172
 20
890.2498792742427
 10
2240.697505340211
 20
890.5251585833591
 10
2240.542337768016
 20
890.80969219397
 10
2240.457543789704
 20
891.0997719994783
 10
2240.440808413181
 20
891.3177727157995
  0
LINE
  5
9C5
330
95B
100
AcDbEntity
  8
0
  6
Continuous
 62
     7
370
    15
100
AcDbLine
 10
2239.152368106923
 20
894.8025365142209
 30
0.0
 11
2231.365434593244
 21
891.6222986183806
 31
0.0
  0
LINE
  5
9C6
330
95B
100
AcDbEntity
  8
0
  6
Continuous
 62
     7
370
    15
100
AcDbLine
 10
2246.93929662359
 20
897.9827770362778
 30
0.0
 11
2239.152368106923
 21
894.8025365142209
 31
0.0
  0
LINE
  5
9C7
330
95B
100
AcDbEntity
  8
0
  6
Continuous
 62
     7
370
    15
100
AcDbLine
 10
2258.69635582694
 20
891.8037673911015
 30
0.0
 11
2246.93929662359
 21
897.9827770362778
 31
0.0
  0
LINE
  5
9C8
330
95B
100
AcDbEntity
  8
0
  6
Continuous
 62
     7
370
    15
100
AcDbLine
 10
2250.909422313262
 20
888.6235294952612
 30
0.0
 11
2258.69635582694
 21
891.8037673911015
 31
0.0
  0
LINE
  5
9C9
330
95B
100
AcDbEntity
  8
0
  6
Continuous
 62
     7
370
    15
100
AcDbLine
 10
2257.136787479513
 20
877.2726790066398
 30
0.0
 11
2263.440478310914
 21
879.8470676062978
 31
0.0
  0
LINE
  5
9CA
330
95B
100
AcDbEntity
  8
0
  6
Continuous
 62
     7
370
    15
100
AcDbLine
 10
2259.389512132491
 20
878.3331155297101
 30
0.0
 11
2257.075524775262
 21
877.3880531035024
 31
0.0
  0
LINE
  5
9CB
330
95B
100
AcDbEntity
  8
0
  6
Continuous
 62
     7
370
    15
100
AcDbLine
 10
2253.754907263653
 20
888.9446896802807
 30
0.0
 11
2259.389512132491
 21
878.3331155297101
 31
0.0
  0
LINE
  5
9CC
330
95B
100
AcDbEntity
  8
0
  6
Continuous
 62
     7
370
    15
100
AcDbLine
 10
2251.440919908359
 20
887.9996273829222
 30
0.0
 11
2253.754907263653
 21
888.9446896802807
 31
0.0
  0
LINE
  5
9CD
330
95B
100
AcDbEntity
  8
0
  6
Continuous
 62
     7
370
    15
100
AcDbLine
 10
2259.166726891206
 20
891.2949167243841
 30
0.0
 11
2251.379774766695
 21
888.1147809967801
 31
0.0
  0
LINE
  5
9CE
330
95B
100
AcDbEntity
  8
0
  6
Continuous
 62
     7
370
    15
100
AcDbLine
 10
2259.166726891206
 20
891.2949167243841
 30
0.0
 11
2264.923719878102
 21
880.4528426853011
 31
0.0
  0
LINE
  5
9CF
330
95B
100
AcDbEntity
  8
0
  6
Continuous
 62
     7
370
    15
100
AcDbLine
 10
2264.923719878102
 20
880.4528426853011
 30
0.0
 11
2263.440478310914
 21
879.8470676062978
 31
0.0
  0
LINE
  5
9D0
330
95B
100
AcDbEntity
  8
0
  6
Continuous
 62
     7
370
    15
100
AcDbLine
 10
2253.555184918219
 20
888.5366603460251
 30
0.0
 11
2253.629857957914
 21
888.3960265682221
 31
0.0
  0
ARC
  5
9D1
330
95B
100
AcDbEntity
  8
0
  6
Continuous
 62
     7
370
    15
100
AcDbCircle
 10
2253.828891795806
 20
888.6851107505371
 30
0.0
 40
0.3113727307234455
100
AcDbArc
 50
180.2892004275413
 51
208.4740769054821
  0
ARC
  5
9D2
330
95B
100
AcDbEntity
  8
0
  6
Continuous
 62
     7
370
    15
100
AcDbCircle
 10
2253.650033354346
 20
888.6920895915821
 30
0.0
 40
0.1327859047439266
100
AcDbArc
 50
132.919113459828
 51
183.6920039066189
  0
LINE
  5
9D3
330
95B
100
AcDbEntity
  8
0
  6
Continuous
 62
     7
370
    15
100
AcDbLine
 10
2253.754907263653
 20
888.9446896802807
 30
0.0
 11
2253.559610773884
 21
888.7893308042503
 31
0.0
  0
ARC
  5
9D4
330
95B
100
AcDbEntity
  8
0
  6
Continuous
 62
     7
370
    15
100
AcDbCircle
 10
2259.248070186964
 20
878.4041715396185
 30
0.0
 40
0.2761765468321367
100
AcDbArc
 50
207.2585246156093
 51
227.7989037710202
  0
LINE
  5
9D5
330
95B
100
AcDbEntity
  8
0
  6
Continuous
 62
     7
370
    15
100
AcDbLine
 10
2258.927890284584
 20
878.4183150613458
 30
0.0
 11
2259.002563319632
 21
878.2776809743047
 31
0.0
  0
LWPOLYLINE
  5
9D6
330
95B
100
AcDbEntity
  8
0
  6
Continuous
 62
     7
370
    15
100
AcDbPolyline
 90
        9
 70
   128
 43
0.0
 10
2258.927890284584
 20
878.4183150613458
 10
2258.90904738649
 20
878.4493923851858
 10
2258.887530922348
 20
878.4768355776902
 10
2258.86408224181
 20
878.4997047977888
 10
2258.839485545078
 20
878.5172305100729
 10
2258.814577988438
 20
878.5288156540811
 10
2258.790219838473
 20
878.5340604725867
 10
2258.767224414789
 20
878.5327926815472
 10
2258.754322601639
 20
878.5288781265055
  0
LINE
  5
9D7
330
95B
100
AcDbEntity
  8
0
  6
Continuous
 62
     7
370
    15
100
AcDbLine
 10
2257.765468181993
 20
878.1250157493783
 30
0.0
 11
2257.111620871904
 21
879.3564063920531
 31
0.0
  0
LWPOLYLINE
  5
9D8
330
95B
100
AcDbEntity
  8
0
  6
Continuous
 62
     7
370
    15
100
AcDbPolyline
 90
        3
 70
   128
 43
0.0
 10
2257.718877537627
 20
879.6044253287279
 10
2257.723410606921
 20
879.6064530061229
 10
2257.743910185024
 20
879.6212786260863
  0
LINE
  5
9D9
330
95B
100
AcDbEntity
  8
0
  6
Continuous
 62
     7
370
    15
100
AcDbLine
 10
2258.016986578752
 20
879.8954159560921
 30
0.0
 11
2257.743910185024
 21
879.6212786260863
 31
0.0
  0
ARC
  5
9DA
330
95B
100
AcDbEntity
  8
0
  6
Continuous
 62
     7
370
    15
100
AcDbCircle
 10
2257.826761477508
 20
880.0152687996829
 30
0.0
 40
0.2248339237309784
100
AcDbArc
 50
327.7866940890801
 51
33.97097019153515
  0
LINE
  5
9DB
330
95B
100
AcDbEntity
  8
0
  6
Continuous
 62
     7
370
    15
100
AcDbLine
 10
2257.467528470019
 20
881.1685944155003
 30
0.0
 11
2258.013220924759
 21
880.1408998778086
 31
0.0
  0
LWPOLYLINE
  5
9DC
330
95B
100
AcDbEntity
  8
0
  6
Continuous
 62
     7
370
    15
100
AcDbPolyline
 90
        9
 70
   128
 43
0.0
 10
2257.467528470019
 20
881.1685944155003
 10
2257.448685578121
 20
881.199672151658
 10
2257.427169107783
 20
881.2271149318448
 10
2257.40372043344
 20
881.249984564261
 10
2257.379123736709
 20
881.2675102765451
 10
2257.354216180068
 20
881.2790954205533
 10
2257.32985802391
 20
881.2843398267412
 10
2257.306862606419
 20
881.2830724480194
 10
2257.293970787293
 20
881.2791526405446
  0
LINE
  5
9DD
330
95B
100
AcDbEntity
  8
0
  6
Continuous
 62
     7
370
    15
100
AcDbLine
 10
2256.305106361234
 20
880.875294691215
 30
0.0
 11
2255.651259063535
 21
882.1066861585252
 31
0.0
  0
LWPOLYLINE
  5
9DE
330
95B
100
AcDbEntity
  8
0
  6
Continuous
 62
     7
370
    15
100
AcDbPolyline
 90
        3
 70
   128
 43
0.0
 10
2256.258515723063
 20
882.3547046828826
 10
2256.263048798551
 20
882.3567327725951
 10
2256.28354837046
 20
882.3715579802406
  0
LINE
  5
9DF
330
95B
100
AcDbEntity
  8
0
  6
Continuous
 62
     7
370
    15
100
AcDbLine
 10
2256.556624770383
 20
882.6456957225643
 30
0.0
 11
2256.28354837046
 21
882.3715579802406
 31
0.0
  0
ARC
  5
9E0
330
95B
100
AcDbEntity
  8
0
  6
Continuous
 62
     7
370
    15
100
AcDbCircle
 10
2256.366399669139
 20
882.7655485661551
 30
0.0
 40
0.2248339237309524
100
AcDbArc
 50
327.7866940890746
 51
33.97097019153515
  0
LINE
  5
9E1
330
95B
100
AcDbEntity
  8
0
  6
Continuous
 62
     7
370
    15
100
AcDbLine
 10
2256.00716666165
 20
883.9188741819727
 30
0.0
 11
2256.552859116391
 21
882.8911796442808
 31
0.0
  0
LWPOLYLINE
  5
9E2
330
95B
100
AcDbEntity
  8
0
  6
Continuous
 62
     7
370
    15
100
AcDbPolyline
 90
        9
 70
   128
 43
0.0
 10
2256.00716666165
 20
883.9188741819727
 10
2255.988323769751
 20
883.9499519181302
 10
2255.966807299414
 20
883.977394698317
 10
2255.943358618876
 20
884.0002639184156
 10
2255.918761922145
 20
884.0177896306997
 10
2255.893854371699
 20
884.0293751870255
 10
2255.869496209345
 20
884.0346191808958
 10
2255.846500791855
 20
884.033351802174
 10
2255.833608978924
 20
884.0294324070169
  0
LINE
  5
9E3
330
95B
100
AcDbEntity
  8
0
  6
Continuous
 62
     7
370
    15
100
AcDbLine
 10
2254.844749549876
 20
883.6255718314708
 30
0.0
 11
2254.190892251959
 21
884.8569681388964
 31
0.0
  0
LWPOLYLINE
  5
9E4
330
95B
100
AcDbEntity
  8
0
  6
Continuous
 62
     7
370
    15
100
AcDbPolyline
 90
        3
 70
   128
 43
0.0
 10
2254.79815890551
 20
885.1049814108206
 10
2254.802681993171
 20
885.1070151652841
 10
2254.823186562091
 20
885.121837746713
  0
LINE
  5
9E5
330
95B
100
AcDbEntity
  8
0
  6
Continuous
 62
     7
370
    15
100
AcDbLine
 10
2255.096262958916
 20
885.3959752828778
 30
0.0
 11
2254.823186562091
 21
885.121837746713
 31
0.0
  0
ARC
  5
9E6
330
95B
100
AcDbEntity
  8
0
  6
Continuous
 62
     7
370
    15
100
AcDbCircle
 10
2254.906066607179
 20
885.5158284596202
 30
0.0
 40
0.2248097777892409
100
AcDbArc
 50
327.7827163220097
 51
33.97495088007055
  0
LINE
  5
9E7
330
95B
100
AcDbEntity
  8
0
  6
Continuous
 62
     7
370
    15
100
AcDbLine
 10
2254.54452731464
 20
886.6734415456006
 30
0.0
 11
2255.092497301826
 21
885.6414589984353
 31
0.0
  0
LWPOLYLINE
  5
9E8
330
95B
100
AcDbEntity
  8
0
  6
Continuous
 62
     7
370
    15
100
AcDbPolyline
 90
        9
 70
   128
 43
0.0
 10
2254.54452731464
 20
886.6734415456006
 10
2254.525684425839
 20
886.7045194879169
 10
2254.504172952514
 20
886.7319596418871
 10
2254.480719278062
 20
886.7548316943612
 10
2254.45612258133
 20
886.7723574066454
 10
2254.431220024799
 20
886.7839401305957
 10
2254.406861865542
 20
886.7891843306248
 10
2254.383866448052
 20
886.787916951903
 10
2254.370964638
 20
886.7840026030203
  0
LINE
  5
9E9
330
95B
100
AcDbEntity
  8
0
  6
Continuous
 62
     7
370
    15
100
AcDbLine
 10
2253.382110209062
 20
886.3801396074164
 30
0.0
 11
2252.728257905059
 21
887.6115330824665
 31
0.0
  0
LWPOLYLINE
  5
9EA
330
95B
100
AcDbEntity
  8
0
  6
Continuous
 62
     7
370
    15
100
AcDbPolyline
 90
        3
 70
   128
 43
0.0
 10
2253.335519563147
 20
887.8595490836866
 10
2253.340047643173
 20
887.8615799026954
 10
2253.360547218179
 20
887.8764053164998
  0
LINE
  5
9EB
330
95B
100
AcDbEntity
  8
0
  6
Continuous
 62
     7
370
    15
100
AcDbLine
 10
2253.633623615005
 20
888.1505428526644
 30
0.0
 11
2253.360547218179
 21
887.8764053164998
 31
0.0
  0
ARC
  5
9EC
330
95B
100
AcDbEntity
  8
0
  6
Continuous
 62
     7
370
    15
100
AcDbCircle
 10
2253.443426718875
 20
888.2703960210561
 30
0.0
 40
0.2248102339104187
100
AcDbArc
 50
327.782792092076
 51
33.97487510996954
  0
SPLINE
  5
9ED
330
95B
100
AcDbEntity
  8
0
  6
Continuous
 62
     7
370
    15
100
AcDbSpline
210
0.0
220
0.0
230
1.0
 70
     8
 71
     3
 72
    23
 73
    19
 74
     0
 42
0.0000000001
 43
0.0000000001
 40
0.0
 40
0.0
 40
0.0
 40
0.0
 40
0.0312790992544
 40
0.0625215055378493
 40
0.0938020946956283
 40
0.125195469366079
 40
0.1877049111470232
 40
0.2501007698209572
 40
0.3123139621902504
 40
0.3751308749721462
 40
0.5000160418638949
 40
0.6248381832128826
 40
0.6875345841634431
 40
0.7499276189945358
 40
0.8121722166468199
 40
0.8747648194489006
 40
0.9374087487736854
 40
0.9999999999999998
 40
0.9999999999999998
 40
0.9999999999999998
 40
0.9999999999999998
 10
2243.004431666842
 20
892.6761276146375
 30
0.0
 10
2242.961123446026
 20
892.6995770622482
 30
0.0
 10
2242.874557808518
 20
892.7464484493279
 30
0.0
 10
2242.754058349427
 20
892.8202964012424
 30
0.0
 10
2242.640674531992
 20
892.896605441512
 30
0.0
 10
2242.500376124529
 20
893.0015487364746
 30
0.0
 10
2242.345511507326
 20
893.1380663762288
 30
0.0
 10
2242.195148342799
 20
893.3087547375409
 30
0.0
 10
2242.081228618389
 20
893.4854030051328
 30
0.0
 10
2241.979862920981
 20
893.7260776426915
 30
0.0
 10
2241.946691306146
 20
894.0330118427706
 30
0.0
 10
2242.045755670075
 20
894.3351874394673
 30
0.0
 10
2242.198308279967
 20
894.5669348157293
 30
0.0
 10
2242.349192602643
 20
894.734218364219
 30
0.0
 10
2242.534977297106
 20
894.8933175700055
 30
0.0
 10
2242.754944916854
 20
895.0426308839249
 30
0.0
 10
2243.00409604156
 20
895.1822542166185
 30
0.0
 10
2243.194112741417
 20
895.2645724126504
 30
0.0
 10
2243.289081127663
 20
895.3057141977753
 30
0.0
  0
SPLINE
  5
9EE
330
95B
100
AcDbEntity
  8
0
  6
Continuous
 62
     7
370
    15
100
AcDbSpline
210
0.0
220
0.0
230
1.0
 70
     8
 71
     3
 72
    23
 73
    19
 74
     0
 42
0.0000000001
 43
0.0000000001
 40
0.0
 40
0.0
 40
0.0
 40
0.0
 40
0.0312151157096688
 40
0.0624293814631143
 40
0.0937181296960037
 40
0.125156157419309
 40
0.1876974391820958
 40
0.2501026372481431
 40
0.3123157607766483
 40
0.3751328653792587
 40
0.5000176782827177
 40
0.6248641409644592
 40
0.6875637148550862
 40
0.7499277214791214
 40
0.8121739978966843
 40
0.8749642805960363
 40
0.9373266558641441
 40
1.0
 40
1.0
 40
1.0
 40
1.0
 10
2248.671198341912
 20
892.4771025863922
 30
0.0
 10
2248.621942487143
 20
892.457594244748
 30
0.0
 10
2248.523432118791
 20
892.4185780926524
 30
0.0
 10
2248.367687555926
 20
892.3644751255695
 30
0.0
 10
2248.206274330252
 20
892.3136884587439
 30
0.0
 10
2247.983807733495
 20
892.2510866649673
 30
0.0
 10
2247.693765420805
 20
892.1825035755741
 30
0.0
 10
2247.330141110169
 20
892.1169039384858
 30
0.0
 10
2246.952822615217
 20
892.0684161663276
 30
0.0
 10
2246.437407096173
 20
892.0273917623955
 30
0.0
 10
2245.777601970081
 20
892.0197417877766
 30
0.0
 10
2245.124692562606
 20
892.0735059631113
 30
0.0
 10
2244.622057288351
 20
892.1503060833479
 30
0.0
 10
2244.258222397229
 20
892.2246692859436
 30
0.0
 10
2243.910845129486
 20
892.3152182574613
 30
0.0
 10
2243.584014024592
 20
892.4212020162443
 30
0.0
 10
2243.277232628117
 20
892.5405960525635
 30
0.0
 10
2243.095515966152
 20
892.6308755843361
 30
0.0
 10
2243.004431666842
 20
892.6761276146375
 30
0.0
  0
LINE
  5
9EF
330
95B
100
AcDbEntity
  8
0
  6
Continuous
 62
     7
370
    15
100
AcDbLine
 10
2248.671196404338
 20
892.476896177814
 30
0.0
 11
2249.668879783293
 21
891.9525562799904
 31
0.0
  0
LWPOLYLINE
  5
9F0
330
95B
100
AcDbEntity
  8
0
  6
Continuous
 62
     7
370
    15
100
AcDbPolyline
 90
       28
 70
   128
 43
0.0
 10
2242.291319713856
 20
895.8300956750271
 10
2241.842726825358
 20
895.6235912243817
 10
2241.450088365155
 20
895.3936607111049
 10
2241.118710588533
 20
895.1434140249359
 10
2240.853071617338
 20
894.8762388872291
 10
2240.656765248236
 20
894.5957452320914
 10
2240.53245187195
 20
894.3057264929217
 10
2240.481812804039
 20
894.0101036140175
 10
2240.505518957919
 20
893.7128795868082
 10
2240.603267770297
 20
893.4180658565196
 10
2240.773722420616
 20
893.1296574986097
 10
2241.01458978956
 20
892.8515483815088
 10
2241.322606765586
 20
892.5875022387227
 10
2241.693604797868
 20
892.3410903589365
 10
2242.122573271975
 20
892.1156427964858
 10
2242.603705660247
 20
891.9142112150383
 10
2243.130499462033
 20
891.7395163632628
 10
2243.69582498458
 20
891.5939248281654
 10
2244.292046856795
 20
891.4794006546044
 10
2244.911094395612
 20
891.3974967473398
 10
2245.544600224759
 20
891.3493181435155
 10
2246.183992214655
 20
891.3355175585545
 10
2246.820629218133
 20
891.3562808164753
 10
2247.445904061342
 20
891.4113269091622
 10
2248.051349825899
 20
891.4999140668845
 10
2248.628790455361
 20
891.6208405961405
 10
2249.170404827015
 20
891.7724757144689
 10
2249.668882883864
 20
891.9527626449797
  0
LINE
  5
9F1
330
95B
100
AcDbEntity
  8
0
  6
Continuous
 62
     7
370
    15
100
AcDbLine
 10
2242.291316613285
 20
895.8298893100376
 30
0.0
 11
2243.289079944427
 21
895.3055073927489
 31
0.0
  0
SPLINE
  5
9F2
330
95B
100
AcDbEntity
  8
0
  6
Continuous
 62
     7
370
    15
100
AcDbSpline
210
0.0
220
0.0
230
1.0
 70
     8
 71
     3
 72
    33
 73
    29
 74
     0
 42
0.0000000001
 43
0.0000000001
 40
0.0
 40
0.0
 40
0.0
 40
0.0
 40
0.0125376080374536
 40
0.025043722227373
 40
0.0375376105912812
 40
0.0500385976825593
 40
0.0625659752034471
 40
0.0938225563701506
 40
0.1251111195597397
 40
0.1563677007257435
 40
0.1876562639160366
 40
0.2501257057355768
 40
0.3125951475551171
 40
0.3750645893746572
 40
0.4375340311941972
 40
0.500003473013737
 40
0.5624729148332773
 40
0.6249423566528175
 40
0.6874117984723574
 40
0.7498812402918973
 40
0.8123506821114375
 40
0.8436072632795655
 40
0.8748958264677341
 40
0.9061524076349403
 40
0.9374409708240246
 40
0.9582875996971763
 40
0.9791107469703563
 40
1.0
 40
1.0
 40
1.0
 40
1.0
 10
2249.668878664863
 20
891.9525564237675
 30
0.0
 10
2249.721823215144
 20
891.9746956211204
 30
0.0
 10
2249.82757932163
 20
892.0189184032642
 30
0.0
 10
2249.97866635083
 20
892.088878035565
 30
0.0
 10
2250.123839688571
 20
892.1613381269732
 30
0.0
 10
2250.262587984537
 20
892.2365705299341
 30
0.0
 10
2250.460857285536
 20
892.353206630252
 30
0.0
 10
2250.701734913751
 20
892.5173518785731
 30
0.0
 10
2250.956872294437
 20
892.735709118742
 30
0.0
 10
2251.164498871747
 20
892.9652324999404
 30
0.0
 10
2251.37419067634
 20
893.2828545723149
 30
0.0
 10
2251.508162250293
 20
893.6971453331985
 30
0.0
 10
2251.456021486641
 20
894.20125845973
 30
0.0
 10
2251.193554160514
 20
894.6935435877481
 30
0.0
 10
2250.73070683339
 20
895.1549727573514
 30
0.0
 10
2250.085305167967
 20
895.5678431431707
 30
0.0
 10
2249.282136701042
 20
895.9162795309422
 30
0.0
 10
2248.352087595929
 20
896.1868974143513
 30
0.0
 10
2247.330830607207
 20
896.3692831021328
 30
0.0
 10
2246.257865262486
 20
896.4564778970053
 30
0.0
 10
2245.35408501576
 20
896.446864820778
 30
0.0
 10
2244.647626649721
 20
896.3903361328009
 30
0.0
 10
2244.130246788413
 20
896.3237295590143
 30
0.0
 10
2243.630492481118
 20
896.2338134638942
 30
0.0
 10
2243.206419867036
 20
896.1337544845367
 30
0.0
 10
2242.853399596063
 20
896.0322667686284
 30
0.0
 10
2242.563021939444
 20
895.9365987616219
 30
0.0
 10
2242.38197992145
 20
895.865496797856
 30
0.0
 10
2242.291315454879
 20
895.8298894748244
 30
0.0
  0
ARC
  5
9F3
330
95B
100
AcDbEntity
  8
0
  6
Continuous
 62
     7
370
    15
100
AcDbCircle
 10
2263.972439527801
 20
879.9368801725265
 30
0.0
 40
1.082197587992652
100
AcDbArc
 50
0.289543072232978
 51
28.47484809706098
  0
LINE
  5
9F4
330
95B
100
AcDbEntity
  8
0
  6
Continuous
 62
     7
370
    15
100
AcDbLine
 10
2243.425162889567
 20
892.5569335952109
 30
0.0
 11
2243.289046458327
 21
895.3056251448213
 31
0.0
  0
LINE
  5
9F5
330
95B
100
AcDbEntity
  8
0
  6
Continuous
 62
     7
370
    15
100
AcDbLine
 10
2243.425162889567
 20
892.5569335952109
 30
0.0
 11
2243.357321174315
 21
892.5230329695935
 31
0.0
  0
ARC
  5
9F6
330
95B
100
AcDbEntity
  8
0
  6
Continuous
 62
     7
370
    15
100
AcDbCircle
 10
2258.081386785942
 20
890.7630511841112
 30
0.0
 40
1.208653836722969
100
AcDbArc
 50
26.10693514659645
 51
59.41591059869345
  0
LINE
  5
9F7
330
95B
100
AcDbEntity
  8
0
  6
Continuous
 62
     7
370
    15
100
AcDbLine
 10
2250.909419214536
 20
888.6233232530814
 30
0.0
 11
2258.696352728215
 21
891.8035611489218
 31
0.0
  0
SPLINE
  5
9F8
330
95B
100
AcDbEntity
  8
0
  6
Continuous
 62
     7
370
    15
100
AcDbSpline
210
0.0
220
0.0
230
1.0
 70
     8
 71
     3
 72
    31
 73
    27
 74
     0
 42
0.0000000001
 43
0.0000000001
 40
0.0
 40
0.0
 40
0.0
 40
0.0
 40
0.0156149716808869
 40
0.031229575729435
 40
0.0468814988593421
 40
0.0626081594969237
 40
0.0938932814925489
 40
0.125110580571353
 40
0.1562318477308223
 40
0.1876552883801186
 40
0.2501272534885115
 40
0.3125959365787782
 40
0.3750679178529694
 40
0.437536600943407
 40
0.5000085822173449
 40
0.5624772653054952
 40
0.6249492465818657
 40
0.6874177461954058
 40
0.7498899182216632
 40
0.8123303357404719
 40
0.8436932118566714
 40
0.8749047639832578
 40
0.9060421046658834
 40
0.937353418533589
 40
0.9686899357276423
 40
0.9999999999999998
 40
0.9999999999999998
 40
0.9999999999999998
 40
0.9999999999999998
 10
2243.289078028934
 20
895.3055079554289
 30
0.0
 10
2243.338333969586
 20
895.3250163267529
 30
0.0
 10
2243.436844691229
 20
895.3640326101046
 30
0.0
 10
2243.592590396809
 20
895.4181356869153
 30
0.0
 10
2243.754005540471
 20
895.4689225307916
 30
0.0
 10
2243.976472884647
 20
895.5315238648191
 30
0.0
 10
2244.266515422337
 20
895.6001060264032
 30
0.0
 10
2244.63013759241
 20
895.6657054546694
 30
0.0
 10
2245.007458532311
 20
895.7141918976551
 30
0.0
 10
2245.52286012894
 20
895.7552231375457
 30
0.0
 10
2246.182838125723
 20
895.7628219554775
 30
0.0
 10
2246.965329028546
 20
895.6985566605498
 30
0.0
 10
2247.710794172331
 20
895.5661293926324
 30
0.0
 10
2248.388521509746
 20
895.3681605769167
 30
0.0
 10
2248.975368900762
 20
895.1144629994251
 30
0.0
 10
2249.445040659613
 20
894.8129009924263
 30
0.0
 10
2249.783963654646
 20
894.4765674885573
 30
0.0
 10
2249.974047362132
 20
894.1173074363462
 30
0.0
 10
2250.013527469693
 20
893.7496457921357
 30
0.0
 10
2249.914532635724
 20
893.4474163847081
 30
0.0
 10
2249.761970507648
 20
893.215676161394
 30
0.0
 10
2249.611086727216
 20
893.0483904032682
 30
0.0
 10
2249.425299844054
 20
892.8892901196773
 30
0.0
 10
2249.205330774803
 20
892.7399764568122
 30
0.0
 10
2248.956179331419
 20
892.6003541728693
 30
0.0
 10
2248.766163194084
 20
892.5180373673867
 30
0.0
 10
2248.671195243183
 20
892.4768963440456
 30
0.0
  0
LINE
  5
9F9
330
95B
100
AcDbEntity
  8
0
  6
Continuous
 62
     7
370
    15
100
AcDbLine
 10
2258.69635582694
 20
891.8037673911015
 30
0.0
 11
2258.696352728215
 21
891.8035611489218
 31
0.0
  0
SPLINE
  5
9FA
330
95B
100
AcDbEntity
  8
0
  6
Continuous
 62
     7
370
    15
100
AcDbSpline
210
0.0
220
0.0
230
1.0
 70
     8
 71
     3
 72
    15
 73
    11
 74
     0
 42
0.0000000001
 43
0.0000000001
 40
0.0
 40
0.0
 40
0.0
 40
0.0
 40
0.0915152692491449
 40
0.2212982921765743
 40
0.351082519002844
 40
0.4808659231263415
 40
0.6106497444836459
 40
0.7404327712122929
 40
0.8702168053513064
 40
1.0
 40
1.0
 40
1.0
 40
1.0
 10
2248.560875537731
 20
892.4405119117931
 30
0.0
 10
2248.436771084009
 20
892.4981206705343
 30
0.0
 10
2248.136667026123
 20
892.6374276957821
 30
0.0
 10
2247.555261168212
 20
892.7992373212141
 30
0.0
 10
2246.861817148444
 20
892.9249657009048
 30
0.0
 10
2246.129492352111
 20
892.9839796045451
 30
0.0
 10
2245.39036219798
 20
892.9765012678103
 30
0.0
 10
2244.67396879506
 20
892.9009980209142
 30
0.0
 10
2243.999361886858
 20
892.7651644223773
 30
0.0
 10
2243.616605528385
 20
892.626326169176
 30
0.0
 10
2243.425227968103
 20
892.5569072670903
 30
0.0
  0
LINE
  5
9FB
330
95B
100
AcDbEntity
  8
0
  6
Continuous
 62
     7
370
    15
100
AcDbLine
 10
2246.92437789223
 20
892.4752552674018
 30
0.0
 11
2247.523564574759
 21
892.1603482633143
 31
0.0
  0
LINE
  5
9FC
330
95B
100
AcDbEntity
  8
0
  6
Continuous
 62
     7
370
    15
100
AcDbLine
 10
2244.225538416691
 20
892.2376572941736
 30
0.0
 11
2246.92437789223
 21
892.4752552674018
 31
0.0
  0
LINE
  5
9FD
330
95B
100
AcDbEntity
  8
0
  6
Continuous
 62
     7
370
    15
100
AcDbLine
 10
2246.918396166641
 20
892.0771290479347
 30
0.0
 11
2246.92437789223
 21
892.4752552674018
 31
0.0
  0
LINE
  5
9FE
330
95B
100
AcDbEntity
  8
0
  6
Continuous
 62
     7
370
    15
100
AcDbLine
 10
2258.147393388219
 20
852.8633590870914
 30
0.0
 11
2263.965499696305
 21
847.8643103980859
 31
0.0
  0
ELLIPSE
  5
9FF
330
95B
100
AcDbEntity
  8
0
  6
Continuous
 62
     7
370
    15
100
AcDbEllipse
 10
2256.990422689466
 20
851.6676886558611
 30
0.0
 11
1.732022549149917
 21
-1.22803108825974
 31
0.0
210
0.0
220
0.0
230
1.0
 40
0.7800938692629122
 41
1.45170718374738
 42
2.06257242194537
  0
LINE
  5
A00
330
95B
100
AcDbEntity
  8
0
  6
Continuous
 62
     7
370
    15
100
AcDbLine
 10
2255.337072567025
 20
853.8158942742052
 30
0.0
 11
2257.017031396831
 21
853.4385793930617
 31
0.0
  0
LINE
  5
A01
330
95B
100
AcDbEntity
  8
0
  6
Continuous
 62
     7
370
    15
100
AcDbLine
 10
2255.467019549145
 20
862.4647866306471
 30
0.0
 11
2255.337072567025
 21
853.8158942742052
 31
0.0
  0
LINE
  5
A02
330
95B
100
AcDbEntity
  8
0
  6
Continuous
 62
     7
370
    15
100
AcDbLine
 10
2255.161482570967
 20
853.9081768986674
 30
0.0
 11
2255.288950310241
 21
862.3920580778856
 31
0.0
  0
LINE
  5
A03
330
95B
100
AcDbEntity
  8
0
  6
Continuous
 62
     7
370
    15
100
AcDbLine
 10
2249.760575420205
 20
851.7023764219818
 30
0.0
 11
2255.161482570967
 21
853.9081768986674
 31
0.0
  0
LINE
  5
A04
330
95B
100
AcDbEntity
  8
0
  6
Continuous
 62
     7
370
    15
100
AcDbLine
 10
2232.713893356031
 20
898.1863246620809
 30
0.0
 11
2224.927059782587
 21
895.006034241909
 31
0.0
  0
SPLINE
  5
A05
330
95B
100
AcDbEntity
  8
0
  6
Continuous
 62
     7
370
    15
100
AcDbSpline
210
0.0
220
0.0
230
1.0
 70
     8
 71
     3
 72
    10
 73
     6
 74
     0
 42
0.0000000001
 43
0.0000000001
 40
0.0
 40
0.0
 40
0.0
 40
0.0
 40
0.5
 40
0.5
 40
1.0
 40
1.0
 40
1.0
 40
1.0
 10
2232.713893395333
 20
898.1863241416254
 30
0.0
 10
2232.889495548477
 20
898.094049384108
 30
0.0
 10
2233.06258622822
 20
897.9068929789752
 30
0.0
 10
2233.305991882879
 20
897.448513233397
 30
0.0
 10
2233.374807338919
 20
897.1801137759136
 30
0.0
 10
2233.371303699693
 20
896.9482938728777
 30
0.0
  0
LINE
  5
A06
330
95B
100
AcDbEntity
  8
0
  6
Continuous
 62
     7
370
    15
100
AcDbLine
 10
2225.584420694981
 20
893.7681511828214
 30
0.0
 11
2233.371302431166
 21
896.9482950471499
 31
0.0
  0
ARC
  5
A07
330
95B
100
AcDbEntity
  8
0
  6
Continuous
 62
     7
370
    15
100
AcDbCircle
 10
2246.702156610053
 20
897.600522454992
 30
0.0
 40
0.4496608163710686
100
AcDbArc
 50
58.17217852018014
 51
110.0634358320844
  0
ARC
  5
A08
330
95B
100
AcDbEntity
  8
0
  6
Continuous
 62
     7
370
    15
100
AcDbCircle
 10
2229.10994927176
 20
902.118738369187
 30
0.0
 40
2.358370392925928
100
AcDbArc
 50
282.3621155847096
 51
349.0581521750657
  0
LWPOLYLINE
  5
A09
330
95B
100
AcDbEntity
  8
0
  6
Continuous
 62
     7
370
    15
100
AcDbPolyline
 90
       22
 70
   128
 43
0.0
 10
2220.426686985886
 20
901.8363426404739
 10
2220.427794557241
 20
901.7642828610799
 10
2220.476932911966
 20
901.4728439522087
 10
2220.59710964241
 20
901.1850665615972
 10
2220.786758284324
 20
900.9047026292925
 10
2221.043404218764
 20
900.6354085497912
 10
2221.363703711487
 20
900.3806911103193
 10
2221.74348006931
 20
900.1438755869482
 10
2222.177788193059
 20
899.9280434346976
 10
2222.660952319397
 20
899.7360150323626
 10
2223.186688711868
 20
899.5702877816599
 10
2223.748136171451
 20
899.4330252328333
 10
2224.337973081808
 20
899.3260162132877
 10
2224.948513289202
 20
899.2506579814612
 10
2225.57180092543
 20
899.2079296148869
 10
2226.199705110475
 20
899.1983886844325
 10
2226.824042931449
 20
899.2221608087053
 10
2227.436674145246
 20
899.2789363282918
 10
2228.029612457696
 20
899.3679737500604
 10
2228.5951273372
 20
899.4881133268009
 10
2229.125843065603
 20
899.6377895085219
 10
2229.614851602834
 20
899.8150490354644
  0
LINE
  5
A0A
330
95B
100
AcDbEntity
  8
0
  6
Continuous
 62
     7
370
    15
100
AcDbLine
 10
2227.129765730949
 20
906.8864722350799
 30
0.0
 11
2228.743672723136
 21
907.5456221012125
 31
0.0
  0
LINE
  5
A0B
330
95B
100
AcDbEntity
  8
0
  6
Continuous
 62
     7
370
    15
100
AcDbLine
 10
2240.500731926486
 20
901.3666124560362
 30
0.0
 11
2232.713893356031
 21
898.1863246620809
 31
0.0
  0
LINE
  5
A0C
330
95B
100
AcDbEntity
  8
0
  6
Continuous
 62
     7
370
    15
100
AcDbLine
 10
2228.743672723136
 20
907.5456221012125
 30
0.0
 11
2240.500731926486
 21
901.3666124560362
 31
0.0
  0
LINE
  5
A0D
330
95B
100
AcDbEntity
  8
0
  6
Continuous
 62
     7
370
    15
100
AcDbLine
 10
2255.161482570967
 20
853.9081768986674
 30
0.0
 11
2255.337072567025
 21
853.8158942742052
 31
0.0
  0
LINE
  5
A0E
330
95B
100
AcDbEntity
  8
0
  6
Continuous
 62
     7
370
    15
100
AcDbLine
 10
2259.311484623594
 20
842.4398832267259
 30
0.0
 11
2257.770068209322
 21
840.4014693431815
 31
0.0
  0
LWPOLYLINE
  5
A0F
330
95B
100
AcDbEntity
  8
0
  6
Continuous
 62
     7
370
    15
100
AcDbPolyline
 90
       28
 70
   128
 43
0.0
 10
2229.654761456569
 20
902.4713325696543
 10
2229.156283399721
 20
902.2910456391436
 10
2228.614669028066
 20
902.1394105208152
 10
2228.037228398604
 20
902.0184839915591
 10
2227.431782634047
 20
901.9298968338368
 10
2226.806507790838
 20
901.8748507411499
 10
2226.169875784373
 20
901.8540848570125
 10
2225.530478797465
 20
901.86788806819
 10
2224.896972968317
 20
901.9160666720143
 10
2224.2779254295
 20
901.9979705792788
 10
2223.681708554298
 20
902.1124921266233
 10
2223.116378034739
 20
902.2580862879374
 10
2222.589584232953
 20
902.4327811397128
 10
2222.108451844681
 20
902.6342127211604
 10
2221.679483370574
 20
902.8596602836111
 10
2221.308485338291
 20
903.1060721633972
 10
2221.000468362265
 20
903.3701183061833
 10
2220.759600993321
 20
903.6482274232843
 10
2220.589146343002
 20
903.9366357811942
 10
2220.491397530625
 20
904.2314495114826
 10
2220.467691376744
 20
904.528673538692
 10
2220.518330444656
 20
904.8242964175964
 10
2220.642643820942
 20
905.1143151567661
 10
2220.838950190044
 20
905.3948088119037
 10
2221.104589161238
 20
905.6619839496105
 10
2221.43596693786
 20
905.9122306357796
 10
2221.828605398064
 20
906.1421611490564
 10
2222.277198286562
 20
906.3486655997017
  0
LINE
  5
A10
330
95B
100
AcDbEntity
  8
0
  6
Continuous
 62
     7
370
    15
100
AcDbLine
 10
2223.274881665517
 20
905.8243257018782
 30
0.0
 11
2222.277198286562
 21
906.3486655997017
 31
0.0
  0
SPLINE
  5
A11
330
95B
100
AcDbEntity
  8
0
  6
Continuous
 62
     7
370
    15
100
AcDbSpline
210
0.0
220
0.0
230
1.0
 70
     8
 71
     3
 72
    14
 73
    10
 74
     0
 42
0.0000000001
 43
0.0000000001
 40
0.0
 40
0.0
 40
0.0
 40
0.0
 40
0.25
 40
0.25
 40
0.5
 40
0.5
 40
0.75
 40
0.75
 40
1.0
 40
1.0
 40
1.0
 40
1.0
 10
2222.990310404338
 20
903.1946974527244
 30
0.0
 10
2222.638051777118
 20
903.3798299513035
 30
0.0
 10
2222.363380424271
 20
903.5965206608581
 30
0.0
 10
2222.010612505094
 20
904.0603575503345
 30
0.0
 10
2221.932654737994
 20
904.3073212305698
 30
0.0
 10
2221.985341895436
 20
904.7941151722682
 30
0.0
 10
2222.115966089957
 20
905.0337539014035
 30
0.0
 10
2222.566087206729
 20
905.4693950479798
 30
0.0
 10
2222.885407025656
 20
905.6652260595127
 30
0.0
 10
2223.274921145184
 20
905.8243090842303
 30
0.0
  0
SPLINE
  5
A12
330
95B
100
AcDbEntity
  8
0
  6
Continuous
 62
     7
370
    15
100
AcDbSpline
210
0.0
220
0.0
230
1.0
 70
     8
 71
     3
 72
    14
 73
    10
 74
     0
 42
0.0000000001
 43
0.0000000001
 40
0.0
 40
0.0
 40
0.0
 40
0.0
 40
0.25
 40
0.25
 40
0.5
 40
0.5
 40
0.75
 40
0.75
 40
1.0
 40
1.0
 40
1.0
 40
1.0
 10
2228.65703604954
 20
902.9956895422806
 30
0.0
 10
2228.267522027012
 20
902.8366073099091
 30
0.0
 10
2227.80812023438
 20
902.7143982408555
 30
0.0
 10
2226.818785087178
 20
902.5621466234746
 30
0.0
 10
2226.289240993709
 20
902.5321639799965
 30
0.0
 10
2225.240216046525
 20
902.5690042601205
 30
0.0
 10
2224.721147939343
 20
902.6358126889872
 30
0.0
 10
2223.772137733728
 20
902.8561363899628
 30
0.0
 10
2223.34256903034
 20
903.0095649744401
 30
0.0
 10
2222.990310404338
 20
903.194697452724
 30
0.0
  0
LINE
  5
A13
330
95B
100
AcDbEntity
  8
0
  6
Continuous
 62
     7
370
    15
100
AcDbLine
 10
2229.654761456569
 20
902.4713325696543
 30
0.0
 11
2228.656998125427
 21
902.9957144869431
 31
0.0
  0
SPLINE
  5
A14
330
95B
100
AcDbEntity
  8
0
  6
Continuous
 62
     7
370
    15
100
AcDbSpline
210
0.0
220
0.0
230
1.0
 70
     8
 71
     3
 72
    22
 73
    18
 74
     0
 42
0.0000000001
 43
0.0000000001
 40
0.0
 40
0.0
 40
0.0
 40
0.0
 40
0.125
 40
0.125
 40
0.25
 40
0.25
 40
0.375
 40
0.375
 40
0.5
 40
0.5
 40
0.625
 40
0.625
 40
0.75
 40
0.75
 40
0.875
 40
0.875
 40
1.0
 40
1.0
 40
1.0
 40
1.0
 10
2222.277194192382
 20
906.348459312923
 30
0.0
 10
2222.811122739455
 20
906.5665226513168
 30
0.0
 10
2223.440850319978
 20
906.7340418906063
 30
0.0
 10
2224.796986970312
 20
906.9427425974001
 30
0.0
 10
2225.522862458261
 20
906.9838419500884
 30
0.0
 10
2226.960819153179
 20
906.933343896156
 30
0.0
 10
2227.672334585591
 20
906.8417663583629
 30
0.0
 10
2228.973195453401
 20
906.5397574146492
 30
0.0
 10
2229.562029055597
 20
906.3294448363514
 30
0.0
 10
2230.527749821508
 20
905.8219031268189
 30
0.0
 10
2230.904257015341
 20
905.5248736915739
 30
0.0
 10
2231.387815447025
 20
904.8890678406221
 30
0.0
 10
2231.494676425281
 20
904.5505415873673
 30
0.0
 10
2231.42245513498
 20
903.883267272209
 30
0.0
 10
2231.243401282418
 20
903.5547817542546
 30
0.0
 10
2230.626395306894
 20
902.9576254405158
 30
0.0
 10
2230.188685949437
 20
902.6891896002416
 30
0.0
 10
2229.654757402364
 20
902.4711262618478
 30
0.0
  0
LINE
  5
A15
330
95B
100
AcDbEntity
  8
0
  6
Continuous
 62
     7
370
    15
100
AcDbLine
 10
2233.371222478979
 20
896.9483370666152
 30
0.0
 11
2241.158104215164
 21
900.1284809309437
 31
0.0
  0
LINE
  5
A16
330
95B
100
AcDbEntity
  8
0
  6
Continuous
 62
     7
370
    15
100
AcDbLine
 10
2240.50072882776
 20
901.3664062138564
 30
0.0
 11
2232.713890257305
 21
898.186118419901
 31
0.0
  0
ARC
  5
A17
330
95B
100
AcDbEntity
  8
0
  6
Continuous
 62
     7
370
    15
100
AcDbCircle
 10
2239.706253518692
 20
900.1510103916137
 30
0.0
 40
1.452025489254341
100
AcDbArc
 50
359.1109695940099
 51
56.82831070993906
  0
LINE
  5
A18
330
95B
100
AcDbEntity
  8
0
  6
Continuous
 62
     7
370
    15
100
AcDbLine
 10
2241.092995610745
 20
895.7950420014558
 30
0.0
 11
2241.158104215164
 21
900.1284809309437
 31
0.0
  0
LINE
  5
A19
330
95B
100
AcDbEntity
  8
0
  6
Continuous
 62
     7
370
    15
100
AcDbLine
 10
2240.500731926486
 20
901.3666124560362
 30
0.0
 11
2240.50072882776
 21
901.3664062138564
 31
0.0
  0
LINE
  5
A1A
330
95B
100
AcDbEntity
  8
0
  6
Continuous
 62
     7
370
    15
100
AcDbLine
 10
2223.27483006303
 20
905.8242433183403
 30
0.0
 11
2223.41094640561
 21
903.0755458678362
 31
0.0
  0
LINE
  5
A1B
330
95B
100
AcDbEntity
  8
0
  6
Continuous
 62
     7
370
    15
100
AcDbLine
 10
2223.343197019327
 20
903.041604099304
 30
0.0
 11
2223.411041497331
 21
903.0755058532653
 31
0.0
  0
ARC
  5
A1C
330
95B
100
AcDbEntity
  8
0
  6
Continuous
 62
     7
370
    15
100
AcDbCircle
 10
2252.344968493974
 20
828.1810975708923
 30
0.0
 40
0.2897745323406143
100
AcDbArc
 50
299.2309758180984
 51
6.691055437997633
  0
ARC
  5
A1D
330
95B
100
AcDbEntity
  8
0
  6
Continuous
 62
     7
370
    15
100
AcDbCircle
 10
2257.246119134018
 20
840.7961155142944
 30
0.0
 40
0.6559483469652131
100
AcDbArc
 50
313.3070040462853
 51
323.012401558895
  0
LINE
  5
A1E
330
95B
100
AcDbEntity
  8
0
  6
Continuous
 62
     7
370
    15
100
AcDbLine
 10
2257.696038902423
 20
840.3187891732192
 30
0.0
 11
2252.78448977076
 21
838.3128488536637
 31
0.0
  0
LINE
  5
A1F
330
95B
100
AcDbEntity
  8
0
  6
Continuous
 62
     7
370
    15
100
AcDbLine
 10
2252.784481511997
 20
838.3120894168046
 30
0.0
 11
2257.696848418328
 21
840.3183637261331
 31
0.0
  0
ARC
  5
A20
330
95B
100
AcDbEntity
  8
0
  6
Continuous
 62
     7
370
    15
100
AcDbCircle
 10
2257.314852512651
 20
840.7202082916169
 30
0.0
 40
0.5544365849785593
100
AcDbArc
 50
292.3103389821874
 51
313.5494478830234
  0
LINE
  5
A21
330
95B
100
AcDbEntity
  8
0
  6
Continuous
 62
     7
370
    15
100
AcDbLine
 10
2257.696848418328
 20
840.3183637261331
 30
0.0
 11
2257.696038902423
 21
840.3187891732192
 31
0.0
  0
LINE
  5
A22
330
95B
100
AcDbEntity
  8
0
  6
Continuous
 62
     7
370
    15
100
AcDbLine
 10
2252.784757711795
 20
823.6128611753827
 30
0.0
 11
2260.20096278498
 21
826.6417354420557
 31
0.0
  0
LINE
  5
A23
330
95B
100
AcDbEntity
  8
0
  6
Continuous
 62
     7
370
    15
100
AcDbLine
 10
2252.784757711795
 20
823.6128611753827
 30
0.0
 11
2252.798061287621
 21
824.4983084046799
 31
0.0
  0
LINE
  5
A24
330
95B
100
AcDbEntity
  8
0
  6
Continuous
 62
     7
370
    15
100
AcDbLine
 10
2251.314819720434
 20
823.8925333256764
 30
0.0
 11
2252.798061287621
 21
824.4983084046799
 31
0.0
  0
LINE
  5
A25
330
95B
100
AcDbEntity
  8
0
  6
Continuous
 62
     7
370
    15
100
AcDbLine
 10
2251.314819720434
 20
823.8925333256764
 30
0.0
 11
2251.354730348792
 21
826.5488684164854
 31
0.0
  0
LINE
  5
A26
330
95B
100
AcDbEntity
  8
0
  6
Continuous
 62
     7
370
    15
100
AcDbLine
 10
2252.83797191598
 20
827.1546434954888
 30
0.0
 11
2251.354730348792
 21
826.5488684164854
 31
0.0
  0
LINE
  5
A27
330
95B
100
AcDbEntity
  8
0
  6
Continuous
 62
     7
370
    15
100
AcDbLine
 10
2252.853936147499
 20
828.2171762123958
 30
0.0
 11
2252.83797191598
 21
827.1546434954888
 31
0.0
  0
LINE
  5
A28
330
95B
100
AcDbEntity
  8
0
  6
Continuous
 62
     7
370
    15
100
AcDbLine
 10
2252.853936147499
 20
828.2171762123958
 30
0.0
 11
2260.270141220683
 21
831.2460504790688
 31
0.0
  0
LINE
  5
A29
330
95B
100
AcDbEntity
  8
0
  6
Continuous
 62
     7
370
    15
100
AcDbLine
 10
2260.254176989164
 20
830.1835177621619
 30
0.0
 11
2260.270141220683
 21
831.2460504790688
 31
0.0
  0
LINE
  5
A2A
330
95B
100
AcDbEntity
  8
0
  6
Continuous
 62
     7
370
    15
100
AcDbLine
 10
2261.737418556351
 20
830.7892928411652
 30
0.0
 11
2260.254176989164
 21
830.1835177621619
 31
0.0
  0
LINE
  5
A2B
330
95B
100
AcDbEntity
  8
0
  6
Continuous
 62
     7
370
    15
100
AcDbLine
 10
2261.697507927993
 20
828.1329577503562
 30
0.0
 11
2261.737418556351
 21
830.7892928411652
 31
0.0
  0
LINE
  5
A2C
330
95B
100
AcDbEntity
  8
0
  6
Continuous
 62
     7
370
    15
100
AcDbLine
 10
2260.214266360806
 20
827.5271826713529
 30
0.0
 11
2261.697507927993
 21
828.1329577503562
 31
0.0
  0
LINE
  5
A2D
330
95B
100
AcDbEntity
  8
0
  6
Continuous
 62
     7
370
    15
100
AcDbLine
 10
2260.214266360806
 20
827.5271826713529
 30
0.0
 11
2260.20096278498
 21
826.6417354420557
 31
0.0
  0
ARC
  5
A2E
330
95B
100
AcDbEntity
  8
0
  6
Continuous
 62
     7
370
    15
100
AcDbCircle
 10
2250.583162674971
 20
826.5471418650168
 30
0.0
 40
0.7715696055871947
100
AcDbArc
 50
0.1282116274456931
 51
43.63645790676374
  0
LWPOLYLINE
  5
A2F
330
95B
100
AcDbEntity
  8
0
  6
Continuous
 62
     7
370
    15
100
AcDbPolyline
 90
        8
 70
   128
 43
0.0
 10
2251.089179388622
 20
823.5924217010468
 10
2251.101658030219
 20
823.5923065093745
 10
2251.16024809765
 20
823.6027522507358
 10
2251.211894955733
 20
823.6311028792867
 10
2251.254607958609
 20
823.6762702084202
 10
2251.28673941202
 20
823.7365270176704
 10
2251.307075907186
 20
823.809552139971
 10
2251.314819720434
 20
823.8925333256764
  0
LINE
  5
A30
330
95B
100
AcDbEntity
  8
0
  6
Continuous
 62
     7
370
    15
100
AcDbLine
 10
2251.14362370216
 20
827.2158631242568
 30
0.0
 11
2251.953057621287
 21
827.5464464271758
 31
0.0
  0
LINE
  5
A31
330
95B
100
AcDbEntity
  8
0
  6
Continuous
 62
     7
370
    15
100
AcDbLine
 10
2251.953057621287
 20
827.5464464271758
 30
0.0
 11
2252.509274245015
 21
827.773612504931
 31
0.0
  0
ARC
  5
A32
330
95B
100
AcDbEntity
  8
0
  6
Continuous
 62
     7
370
    15
100
AcDbCircle
 10
2252.111991020624
 20
827.1658785770517
 30
0.0
 40
0.7260678256731738
100
AcDbArc
 50
359.1133769808386
 51
56.82685580173459
  0
LINE
  5
A33
330
95B
100
AcDbEntity
  8
0
  6
Continuous
 62
     7
370
    15
100
AcDbLine
 10
2251.089079120569
 20
823.5855347618043
 30
0.0
 11
2251.106003740897
 21
823.5924469960917
 31
0.0
  0
LINE
  5
A34
330
95B
100
AcDbEntity
  8
0
  6
Continuous
 62
     7
370
    15
100
AcDbLine
 10
2251.955535699483
 20
827.7113800886791
 30
0.0
 11
2251.953057621287
 21
827.5464464271758
 31
0.0
  0
SPLINE
  5
A35
330
95B
100
AcDbEntity
  8
0
  6
Continuous
 62
     7
370
    15
100
AcDbSpline
210
0.0
220
0.0
230
1.0
 70
     8
 71
     3
 72
    22
 73
    18
 74
     0
 42
0.0000000001
 43
0.0000000001
 40
0.0
 40
0.0
 40
0.0
 40
0.0
 40
0.125
 40
0.125
 40
0.25
 40
0.25
 40
0.375
 40
0.375
 40
0.5
 40
0.5
 40
0.625
 40
0.625
 40
0.75
 40
0.75
 40
0.875
 40
0.875
 40
1.0
 40
1.0
 40
1.0
 40
1.0
 10
2223.274836702763
 20
905.8241361394378
 30
0.0
 10
2223.664350731551
 20
905.9832191429984
 30
0.0
 10
2224.123752530983
 20
906.1054289839503
 30
0.0
 10
2225.113087694131
 20
906.257682146
 30
0.0
 10
2225.642631796753
 20
906.2876655622423
 30
0.0
 10
2226.691656765124
 20
906.2508268277692
 30
0.0
 10
2227.210724884342
 20
906.1840191717823
 30
0.0
 10
2228.159735116581
 20
905.9636970159353
 30
0.0
 10
2228.589303834551
 20
905.8102692037007
 30
0.0
 10
2229.293821117173
 20
905.4400057904178
 30
0.0
 10
2229.568492484272
 20
905.2233158724913
 30
0.0
 10
2229.921260431533
 20
904.7594805656155
 30
0.0
 10
2229.999218212461
 20
904.5125176763521
 30
0.0
 10
2229.946531081512
 20
904.0257253160804
 30
0.0
 10
2229.815906899652
 20
903.7860873774008
 30
0.0
 10
2229.365785806478
 20
903.3504478115181
 30
0.0
 10
2229.046465998486
 20
903.1546175902255
 30
0.0
 10
2228.656951888921
 20
902.9955353558424
 30
0.0
  0
SPLINE
  5
A36
330
95B
100
AcDbEntity
  8
0
  6
Continuous
 62
     7
370
    15
100
AcDbSpline
210
0.0
220
0.0
230
1.0
 70
     8
 71
     3
 72
    15
 73
    11
 74
     0
 42
0.0000000001
 43
0.0000000001
 40
0.0
 40
0.0
 40
0.0
 40
0.0
 40
0.1297773029834197
 40
0.259555063597246
 40
0.3893328187053327
 40
0.5191102399891933
 40
0.6488871528946754
 40
0.7786654880088145
 40
0.9084426192787658
 40
0.9999999999999998
 40
0.9999999999999998
 40
0.9999999999999998
 40
0.9999999999999998
 10
2223.41094640561
 20
903.0755458678362
 30
0.0
 10
2223.60232435881
 20
903.1449650021407
 30
0.0
 10
2223.98508094006
 20
903.283803515541
 30
0.0
 10
2224.659682392547
 20
903.4196453420172
 30
0.0
 10
2225.37607953404
 20
903.49514484645
 30
0.0
 10
2226.115207460103
 20
903.5026234911654
 30
0.0
 10
2226.847531900983
 20
903.4436174284486
 30
0.0
 10
2227.540976071678
 20
903.3178905145204
 30
0.0
 10
2228.122452670978
 20
903.1560583095265
 30
0.0
 10
2228.422617184074
 20
903.0167219057279
 30
0.0
 10
2228.546783435226
 20
902.9590839167125
 30
0.0
  0
LINE
  5
A37
330
95B
100
AcDbEntity
  8
0
  6
Continuous
 62
     7
370
    15
100
AcDbLine
 10
2227.509453141488
 20
902.6789129355556
 30
0.0
 11
2226.768965957564
 21
903.0680814659222
 31
0.0
  0
LINE
  5
A38
330
95B
100
AcDbEntity
  8
0
  6
Continuous
 62
     7
370
    15
100
AcDbLine
 10
2226.768965957564
 20
903.0680814659222
 30
0.0
 11
2223.98266969901
 21
902.8227813759096
 31
0.0
  0
LINE
  5
A39
330
95B
100
AcDbEntity
  8
0
  6
Continuous
 62
     7
370
    15
100
AcDbLine
 10
2252.509274245015
 20
827.773612504931
 30
0.0
 11
2252.333769198156
 21
827.8658504837114
 31
0.0
  0
LINE
  5
A3A
330
95B
100
AcDbEntity
  8
0
  6
Continuous
 62
     7
370
    15
100
AcDbLine
 10
2252.638528432044
 20
828.5981177061266
 30
0.0
 11
2252.656717554832
 21
828.5885582777694
 31
0.0
  0
ARC
  5
A3B
330
95B
100
AcDbEntity
  8
0
  6
Continuous
 62
     7
370
    15
100
AcDbCircle
 10
2252.418346742957
 20
828.2239174548424
 30
0.0
 40
0.4356415656236181
100
AcDbArc
 50
359.1133532986295
 51
56.82679277997102
  0
ARC
  5
A3C
330
95B
100
AcDbEntity
  8
0
  6
Continuous
 62
     7
370
    15
100
AcDbCircle
 10
2259.888810111217
 20
831.2510128043275
 30
0.0
 40
0.3813633958830267
100
AcDbArc
 50
359.2544425584714
 51
5.234738400693296
  0
LINE
  5
A3D
330
95B
100
AcDbEntity
  8
0
  6
Continuous
 62
     7
370
    15
100
AcDbLine
 10
2252.656717554832
 20
828.5885582777694
 30
0.0
 11
2259.553787665089
 21
831.4054110975398
 31
0.0
  0
ARC
  5
A3E
330
95B
100
AcDbEntity
  8
0
  6
Continuous
 62
     7
370
    15
100
AcDbCircle
 10
2259.318180630061
 20
831.0428691317342
 30
0.0
 40
0.4323740879426421
100
AcDbArc
 50
4.100371250346734
 51
56.98115917698131
  0
LINE
  5
A3F
330
95B
100
AcDbEntity
  8
0
  6
Continuous
 62
     7
370
    15
100
AcDbLine
 10
2259.749447978543
 20
831.073785568433
 30
0.0
 11
2260.268582941471
 21
831.2858070153357
 31
0.0
  0
LWPOLYLINE
  5
A40
330
95B
100
AcDbEntity
  8
0
  6
Continuous
 62
     7
370
    15
100
AcDbPolyline
 90
        8
 70
   128
 43
0.0
 10
2260.268325065121
 20
831.1252333585049
 10
2260.311684444163
 20
831.1282775617138
 10
2260.362441743188
 20
831.1456923688334
 10
2260.406649776847
 20
831.1777331039326
 10
2260.442893010175
 20
831.2233750312564
 10
2260.470001100193
 20
831.2811520413383
 10
2260.487120142623
 20
831.3492056460436
 10
2260.493683581891
 20
831.4253601096117
  0
LINE
  5
A41
330
95B
100
AcDbEntity
  8
0
  6
Continuous
 62
     7
370
    15
100
AcDbLine
 10
2252.84740034248
 20
834.9977014536344
 30
0.0
 11
2260.066903033666
 21
831.2034382802808
 31
0.0
  0
LINE
  5
A42
330
95B
100
AcDbEntity
  8
0
  6
Continuous
 62
     7
370
    15
100
AcDbLine
 10
2254.494793256199
 20
838.9695626390068
 30
0.0
 11
2254.445246758405
 21
835.6718921654913
 31
0.0
  0
LINE
  5
A43
330
95B
100
AcDbEntity
  8
0
  6
Continuous
 62
     7
370
    15
100
AcDbLine
 10
2259.553787665089
 20
831.4054110975398
 30
0.0
 11
2258.478150902757
 21
831.9707199740367
 31
0.0
  0
ARC
  5
A44
330
95B
100
AcDbEntity
  8
0
  6
Continuous
 62
     7
370
    15
100
AcDbCircle
 10
2252.510200829973
 20
824.4645793538493
 30
0.0
 40
0.289829763736007
100
AcDbArc
 50
299.2360862165288
 51
6.682961602507639
  0
ARC
  5
A45
330
95B
100
AcDbEntity
  8
0
  6
Continuous
 62
     7
370
    15
100
AcDbCircle
 10
2251.828922226854
 20
823.4430409972553
 30
0.0
 40
0.7320706920594545
100
AcDbArc
 50
359.2496274822492
 51
55.37848301565579
  0
ARC
  5
A46
330
95B
100
AcDbEntity
  8
0
  6
Continuous
 62
     7
370
    15
100
AcDbCircle
 10
2258.406669886166
 20
831.8528163753239
 30
0.0
 40
0.13787963708341
100
AcDbArc
 50
58.77296509794703
 51
109.4619238012429
  0
ARC
  5
A47
330
95B
100
AcDbEntity
  8
0
  6
Continuous
 62
     7
370
    15
100
AcDbCircle
 10
2255.847892785993
 20
820.3460201274779
 30
0.0
 40
0.5777097374926533
100
AcDbArc
 50
299.1697250733419
 51
6.41702767546899
  0
LWPOLYLINE
  5
A48
330
95B
100
AcDbEntity
  8
0
  6
Continuous
 62
     7
370
    15
100
AcDbPolyline
 90
        8
 70
   128
 43
0.0
 10
2252.559117479103
 20
823.3127561478356
 10
2252.5715961207
 20
823.3126409561632
 10
2252.630186089012
 20
823.323080100442
 10
2252.681832947095
 20
823.3514307289929
 10
2252.724545949971
 20
823.3965980581265
 10
2252.756677502501
 20
823.4568614644592
 10
2252.777013898549
 20
823.5298799896771
 10
2252.784757711795
 20
823.6128611753827
  0
LINE
  5
A49
330
95B
100
AcDbEntity
  8
0
  6
Continuous
 62
     7
370
    15
100
AcDbLine
 10
2253.113494350053
 20
838.2967422482757
 30
0.0
 11
2254.225924834755
 21
838.7510732754421
 31
0.0
  0
ARC
  5
A4A
330
95B
100
AcDbEntity
  8
0
  6
Continuous
 62
     7
370
    15
100
AcDbCircle
 10
2253.39922242504
 20
837.7067879308979
 30
0.0
 40
0.655504866060303
100
AcDbArc
 50
115.8419452111183
 51
161.2371759925379
  0
LINE
  5
A4B
330
95B
100
AcDbEntity
  8
0
  6
Continuous
 62
     7
370
    15
100
AcDbLine
 10
2254.225924834755
 20
838.7510732754421
 30
0.0
 11
2254.227567834002
 21
838.8604265162356
 31
0.0
  0
ARC
  5
A4C
330
95B
100
AcDbEntity
  8
0
  6
Continuous
 62
     7
370
    15
100
AcDbCircle
 10
2259.913102327332
 20
826.6080063912252
 30
0.0
 40
0.2898297637360004
100
AcDbArc
 50
299.2360862164996
 51
6.682961602501168
  0
SPLINE
  5
A4D
330
95B
100
AcDbEntity
  8
0
  6
Continuous
 62
     7
370
    15
100
AcDbSpline
210
0.0
220
0.0
230
1.0
 70
     8
 71
     3
 72
    10
 73
     6
 74
     0
 42
0.0000000001
 43
0.0000000001
 40
0.0
 40
0.0
 40
0.0
 40
0.0
 40
0.5
 40
0.5
 40
1.0
 40
1.0
 40
1.0
 40
1.0
 10
2256.478220669174
 20
824.1533112770712
 30
0.0
 10
2256.479945676161
 20
824.2681246863856
 30
0.0
 10
2256.446225395682
 20
824.4008801068067
 30
0.0
 10
2256.326606685219
 20
824.6286048855854
 30
0.0
 10
2256.241417890875
 20
824.7222232711845
 30
0.0
 10
2256.154486604365
 20
824.7696217857368
 30
0.0
  0
LINE
  5
A4E
330
95B
100
AcDbEntity
  8
0
  6
Continuous
 62
     7
370
    15
100
AcDbLine
 10
2257.728762582695
 20
832.4322670212374
 30
0.0
 11
2257.941839696824
 21
831.8117338827017
 31
0.0
  0
LINE
  5
A4F
330
95B
100
AcDbEntity
  8
0
  6
Continuous
 62
     7
370
    15
100
AcDbLine
 10
2226.761645475127
 20
902.5808514929327
 30
0.0
 11
2226.768965957564
 21
903.0680814659222
 31
0.0
  0
ARC
  5
A50
330
95B
100
AcDbEntity
  8
0
  6
Continuous
 62
     7
370
    15
100
AcDbCircle
 10
2259.678900284112
 20
825.7687787719879
 30
0.0
 40
0.7299765364250157
100
AcDbArc
 50
359.2026664630385
 51
55.89070848518127
  0
LINE
  5
A51
330
95B
100
AcDbEntity
  8
0
  6
Continuous
 62
     7
370
    15
100
AcDbLine
 10
2259.844681055841
 20
831.1126799445174
 30
0.0
 11
2259.728470550467
 21
831.1737552373401
 31
0.0
  0
LINE
  5
A52
330
95B
100
AcDbEntity
  8
0
  6
Continuous
 62
     7
370
    15
100
AcDbLine
 10
2254.445246758405
 20
835.6718921654913
 30
0.0
 11
2252.734312963923
 21
834.9731246299461
 31
0.0
  0
ARC
  5
A53
330
95B
100
AcDbEntity
  8
0
  6
Continuous
 62
     7
370
    15
100
AcDbCircle
 10
2261.689284546891
 20
831.9975280437716
 30
0.0
 40
0.289873243875889
100
AcDbArc
 50
299.2438166235061
 51
6.679251070663751
  0
ARC
  5
A54
330
95B
100
AcDbEntity
  8
0
  6
Continuous
 62
     7
370
    15
100
AcDbCircle
 10
2254.10679993931
 20
833.0478532607228
 30
0.0
 40
1.432905394366702
100
AcDbArc
 50
191.9498280698419
 51
236.8887937755209
  0
ARC
  5
A55
330
95B
100
AcDbEntity
  8
0
  6
Continuous
 62
     7
370
    15
100
AcDbCircle
 10
2261.011437660997
 20
830.8005279227279
 30
0.0
 40
0.7260678256732866
100
AcDbArc
 50
359.1133769808451
 51
56.82685580173101
  0
LINE
  5
A56
330
95B
100
AcDbEntity
  8
0
  6
Continuous
 62
     7
370
    15
100
AcDbLine
 10
2261.408720885387
 20
831.4082618506073
 30
0.0
 11
2261.233205844505
 21
831.5005050818209
 31
0.0
  0
ARC
  5
A57
330
95B
100
AcDbEntity
  8
0
  6
Continuous
 62
     7
370
    15
100
AcDbCircle
 10
2261.175467063966
 20
827.260005820751
 30
0.0
 40
0.7299549604320493
100
AcDbArc
 50
359.2017528986695
 51
55.89162204955529
  0
ARC
  5
A58
330
95B
100
AcDbEntity
  8
0
  6
Continuous
 62
     7
370
    15
100
AcDbCircle
 10
2263.632836274967
 20
823.5277400906374
 30
0.0
 40
0.5798851251104413
100
AcDbArc
 50
299.2520533392018
 51
6.668486184946192
  0
ARC
  5
A59
330
95B
100
AcDbEntity
  8
0
  6
Continuous
 62
     7
370
    15
100
AcDbCircle
 10
2261.409647470345
 20
828.0992286995255
 30
0.0
 40
0.2898297637359024
100
AcDbArc
 50
299.2360862165288
 51
6.682961602527046
  0
ARC
  5
A5A
330
95B
100
AcDbEntity
  8
0
  6
Continuous
 62
     7
370
    15
100
AcDbCircle
 10
2259.650477186853
 20
826.642319243883
 30
0.0
 40
0.7716343952100947
100
AcDbArc
 50
0.1293527858500861
 51
43.63238482442115
  0
ARC
  5
A5B
330
95B
100
AcDbEntity
  8
0
  6
Continuous
 62
     7
370
    15
100
AcDbCircle
 10
2228.504654799716
 20
907.1449971981243
 30
0.0
 40
0.4663294869801332
100
AcDbArc
 50
59.16650308083848
 51
109.0709463600593
  0
LINE
  5
A5C
330
95B
100
AcDbEntity
  8
0
  6
Continuous
 62
     7
370
    15
100
AcDbLine
 10
2206.55772305011
 20
896.1414186783541
 30
0.0
 11
2206.556858308654
 21
896.1410655067361
 31
0.0
  0
LINE
  5
A5D
330
95B
100
AcDbEntity
  8
0
  6
Continuous
 62
     7
370
    15
100
AcDbLine
 10
2215.257480140527
 20
834.0475473155835
 30
0.0
 11
2219.113906557563
 21
835.6225618439861
 31
0.0
  0
LINE
  5
A5E
330
95B
100
AcDbEntity
  8
0
  6
Continuous
 62
     7
370
    15
100
AcDbLine
 10
2219.127248294267
 20
836.5105489500754
 30
0.0
 11
2219.113906557563
 21
835.6225618439861
 31
0.0
  0
ARC
  5
A5F
330
95B
100
AcDbEntity
  8
0
  6
Continuous
 62
     7
370
    15
100
AcDbCircle
 10
2209.25889833189
 20
843.3460064000746
 30
0.0
 40
13.58428470016928
100
AcDbArc
 50
313.798438083644
 51
326.1066615153387
  0
ARC
  5
A60
330
95B
100
AcDbEntity
  8
0
  6
Continuous
 62
     7
370
    15
100
AcDbCircle
 10
2218.522248075399
 20
833.7004779062175
 30
0.0
 40
0.2112080483253039
100
AcDbArc
 50
236.9652828810894
 51
311.0316222087219
  0
LINE
  5
A61
330
95B
100
AcDbEntity
  8
0
  6
Continuous
 62
     7
370
    15
100
AcDbLine
 10
2216.954497289326
 20
834.2868443215055
 30
0.0
 11
2218.407108618455
 21
833.5234136660895
 31
0.0
  0
ARC
  5
A62
330
95B
100
AcDbEntity
  8
0
  6
Continuous
 62
     7
370
    15
100
AcDbCircle
 10
2218.538151884962
 20
835.5551076030767
 30
0.0
 40
0.5796926061620641
100
AcDbArc
 50
299.2403551622355
 51
6.682194317669487
  0
LINE
  5
A63
330
95B
100
AcDbEntity
  8
0
  6
Continuous
 62
     8
370
    15
100
AcDbLine
 10
2254.717070426012
 20
876.5274301361191
 30
0.0
 11
2259.002563319632
 21
878.2776809743047
 31
0.0
  0
LINE
  5
A64
330
95B
100
AcDbEntity
  8
0
  6
Continuous
 62
     8
370
    15
100
AcDbLine
 10
2258.013220924759
 20
880.1408998778086
 30
0.0
 11
2253.727728031138
 21
878.3906490396232
 31
0.0
  0
LINE
  5
A65
330
95B
100
AcDbEntity
  8
0
  6
Continuous
 62
     8
370
    15
100
AcDbLine
 10
2253.182035576399
 20
879.4183435773149
 30
0.0
 11
2257.467528470019
 21
881.1685944155003
 31
0.0
  0
LINE
  5
A66
330
95B
100
AcDbEntity
  8
0
  6
Continuous
 62
     8
370
    15
100
AcDbLine
 10
2254.642397390963
 20
876.6680642231603
 30
0.0
 11
2258.927890284584
 21
878.4183150613458
 31
0.0
  0
LINE
  5
A67
330
95B
100
AcDbEntity
  8
0
  6
Continuous
 62
     8
370
    15
100
AcDbLine
 10
2253.835519595881
 20
878.1876506480427
 30
0.0
 11
2258.016986578752
 21
879.8954159560921
 31
0.0
  0
LINE
  5
A68
330
95B
100
AcDbEntity
  8
0
  6
Continuous
 62
     8
370
    15
100
AcDbLine
 10
2256.552859116391
 20
882.8911796442808
 30
0.0
 11
2252.26736622277
 21
881.1409288060954
 31
0.0
  0
LINE
  5
A69
330
95B
100
AcDbEntity
  8
0
  6
Continuous
 62
     8
370
    15
100
AcDbLine
 10
2251.72167376803
 20
882.1686233437871
 30
0.0
 11
2256.00716666165
 21
883.9188741819727
 31
0.0
  0
LINE
  5
A6A
330
95B
100
AcDbEntity
  8
0
  6
Continuous
 62
     8
370
    15
100
AcDbLine
 10
2257.743910185024
 20
879.6212786260863
 30
0.0
 11
2253.906474927006
 21
878.0540203331538
 31
0.0
  0
LINE
  5
A6B
330
95B
100
AcDbEntity
  8
0
  6
Continuous
 62
     8
370
    15
100
AcDbLine
 10
2252.375157787511
 20
880.9379304145149
 30
0.0
 11
2256.556624770383
 21
882.6456957225643
 31
0.0
  0
LINE
  5
A6C
330
95B
100
AcDbEntity
  8
0
  6
Continuous
 62
     8
370
    15
100
AcDbLine
 10
2255.092497301826
 20
885.6414589984353
 30
0.0
 11
2250.807004408205
 21
883.8912081602499
 31
0.0
  0
LINE
  5
A6D
330
95B
100
AcDbEntity
  8
0
  6
Continuous
 62
     8
370
    15
100
AcDbLine
 10
2250.25903442102
 20
884.923190707415
 30
0.0
 11
2254.54452731464
 21
886.6734415456006
 31
0.0
  0
LINE
  5
A6E
330
95B
100
AcDbEntity
  8
0
  6
Continuous
 62
     8
370
    15
100
AcDbLine
 10
2256.28354837046
 20
882.3715579802406
 30
0.0
 11
2252.446113112441
 21
880.8042996873084
 31
0.0
  0
LINE
  5
A6F
330
95B
100
AcDbEntity
  8
0
  6
Continuous
 62
     8
370
    15
100
AcDbLine
 10
2250.914795976044
 20
883.6882099748283
 30
0.0
 11
2255.096262958916
 21
885.3959752828778
 31
0.0
  0
LINE
  5
A70
330
95B
100
AcDbEntity
  8
0
  6
Continuous
 62
     8
370
    15
100
AcDbLine
 10
2253.559610773884
 20
888.7893308042503
 30
0.0
 11
2249.160226181204
 21
886.9925651201208
 31
0.0
  0
LINE
  5
A71
330
95B
100
AcDbEntity
  8
0
  6
Continuous
 62
     8
370
    15
100
AcDbLine
 10
2254.823186562091
 20
885.121837746713
 30
0.0
 11
2250.985751304072
 21
883.5545794537805
 31
0.0
  0
LINE
  5
A72
330
95B
100
AcDbEntity
  8
0
  6
Continuous
 62
     8
370
    15
100
AcDbLine
 10
2253.555184918219
 20
888.5366603460251
 30
0.0
 11
2249.269692024598
 21
886.7864095078395
 31
0.0
  0
LINE
  5
A73
330
95B
100
AcDbEntity
  8
0
  6
Continuous
 62
     8
370
    15
100
AcDbLine
 10
2253.629857957914
 20
888.3960265682221
 30
0.0
 11
2249.344365064293
 21
886.6457757300366
 31
0.0
  0
LINE
  5
A74
330
95B
100
AcDbEntity
  8
0
  6
Continuous
 62
     8
370
    15
100
AcDbLine
 10
2249.452156632132
 20
886.442777544615
 30
0.0
 11
2253.633623615005
 21
888.1505428526644
 31
0.0
  0
LINE
  5
A75
330
95B
100
AcDbEntity
  8
0
  6
Continuous
 62
     8
370
    15
100
AcDbLine
 10
2253.360547218179
 20
887.8764053164998
 30
0.0
 11
2249.52311196016
 21
886.3091470235675
 31
0.0
  0
SPLINE
  5
A76
330
95B
100
AcDbEntity
  8
0
  6
Continuous
 62
     8
370
    15
100
AcDbSpline
210
0.0
220
0.0
230
1.0
 70
     8
 71
     3
 72
     9
 73
     5
 74
     0
 42
0.0000000001
 43
0.0000000001
 40
0.0
 40
0.0
 40
0.0
 40
0.0
 40
0.3653622611858132
 40
1.0
 40
1.0
 40
1.0
 40
1.0
 10
2238.767815635702
 20
894.8251387741962
 30
0.0
 10
2238.808815063229
 20
894.8451095989723
 30
0.0
 10
2238.921030888127
 20
894.8997699372116
 30
0.0
 10
2239.062551002678
 20
894.8401606033099
 30
0.0
 10
2239.152365008173
 20
894.8023302704303
 30
0.0
  0
LINE
  5
A77
330
95B
100
AcDbEntity
  8
0
  6
Continuous
 62
     8
370
    15
100
AcDbLine
 10
2258.147393388219
 20
852.8633590870914
 30
0.0
 11
2249.72634492874
 21
849.4240937585814
 31
0.0
  0
LINE
  5
A78
330
95B
100
AcDbEntity
  8
0
  6
Continuous
 62
     8
370
    15
100
AcDbLine
 10
2230.36053312937
 20
883.2262371145292
 30
0.0
 11
2230.551928317506
 21
883.3044053898655
 31
0.0
  0
LINE
  5
A79
330
95B
100
AcDbEntity
  8
0
  6
Continuous
 62
     8
370
    15
100
AcDbLine
 10
2225.665900549698
 20
885.693536078379
 30
0.0
 11
2230.630859616206
 21
887.7213177098891
 31
0.0
  0
LINE
  5
A7A
330
95B
100
AcDbEntity
  8
0
  6
Continuous
 62
     8
370
    15
100
AcDbLine
 10
2233.306197427562
 20
892.6150957773026
 30
0.0
 11
2233.371302431166
 21
896.9482950471499
 31
0.0
  0
LINE
  5
A7B
330
95B
100
AcDbEntity
  8
0
  6
Continuous
 62
     8
370
    15
100
AcDbLine
 10
2230.637688180449
 20
888.1759392515157
 30
0.0
 11
2225.4686821181
 21
886.0649288640118
 31
0.0
  0
LINE
  5
A7C
330
95B
100
AcDbEntity
  8
0
  6
Continuous
 62
     8
370
    15
100
AcDbLine
 10
2213.170000579237
 20
901.1850438870851
 30
0.0
 11
2220.461648960579
 21
904.1630895900905
 31
0.0
  0
LINE
  5
A7D
330
95B
100
AcDbEntity
  8
0
  6
Continuous
 62
     8
370
    15
100
AcDbLine
 10
2249.742019540513
 20
850.4673702660358
 30
0.0
 11
2257.017031396831
 21
853.4385793930617
 31
0.0
  0
LINE
  5
A7E
330
95B
100
AcDbEntity
  8
0
  6
Continuous
 62
     8
370
    15
100
AcDbLine
 10
2252.785289566324
 20
838.3656211421346
 30
0.0
 11
2257.770068209322
 21
840.4014693431815
 31
0.0
  0
LINE
  5
A7F
330
95B
100
AcDbEntity
  8
0
  6
Continuous
 62
     8
370
    15
100
AcDbLine
 10
2252.653459657727
 20
829.5918405809661
 30
0.0
 11
2258.478150902757
 21
831.9707199740367
 31
0.0
  0
LINE
  5
A80
330
95B
100
AcDbEntity
  8
0
  6
Continuous
 62
     8
370
    15
100
AcDbLine
 10
2252.675289388215
 20
831.044363162236
 30
0.0
 11
2257.004969741441
 21
832.8126607315983
 31
0.0
  0
LINE
  5
A81
330
95B
100
AcDbEntity
  8
0
  6
Continuous
 62
     8
370
    15
100
AcDbLine
 10
2252.683428502462
 20
831.5859954254001
 30
0.0
 11
2253.324052733158
 21
831.8476346637726
 31
0.0
  0
LINE
  5
A82
330
95B
100
AcDbEntity
  8
0
  6
Continuous
 62
     8
370
    15
100
AcDbLine
 10
2252.55901711193
 20
823.3058626115107
 30
0.0
 11
2252.575941732259
 21
823.3127748457977
 31
0.0
  0
LINE
  5
A83
330
95B
100
AcDbEntity
  8
0
  6
Continuous
 62
     8
370
    15
100
AcDbLine
 10
2257.53094426379
 20
832.5362285478281
 30
0.0
 11
2252.667862094979
 21
830.5500827640381
 31
0.0
  0
LINE
  5
A84
330
95B
100
AcDbEntity
  8
0
  6
Continuous
 62
     8
370
    15
100
AcDbLine
 10
2260.265557544574
 20
830.941379126704
 30
0.0
 11
2261.408720885387
 21
831.4082618506073
 31
0.0
  0
LINE
  5
A85
330
95B
100
AcDbEntity
  8
0
  6
Continuous
 62
     8
370
    15
100
AcDbLine
 10
2259.76367278377
 20
831.3628064717173
 30
0.0
 11
2259.653267678059
 21
831.3177155956836
 31
0.0
  0
LINE
  5
A86
330
95B
100
AcDbEntity
  8
0
  6
Continuous
 62
     8
370
    15
100
AcDbLine
 10
2218.660900976515
 20
833.5411536686093
 30
0.0
 11
2222.102649330723
 21
834.9468083018823
 31
0.0
  0
ENDBLK
  5
95D
330
95B
100
AcDbEntity
  8
0
100
AcDbBlockEnd
  0
ENDSEC
  0
SECTION
  2
ENTITIES
  0
INSERT
  5
7CC
330
1F
100
AcDbEntity
  8
0
100
AcDbBlockReference
  2
1
 10
0.0
 20
0.0
 30
0.0
  0
INSERT
  5
897
330
1F
100
AcDbEntity
  8
0
100
AcDbBlockReference
  2
2
 10
0.0
 20
0.0
 30
0.0
  0
INSERT
  5
95A
330
1F
100
AcDbEntity
  8
0
100
AcDbBlockReference
  2
3
 10
0.0
 20
0.0
 30
0.0
  0
INSERT
  5
A87
330
1F
100
AcDbEntity
  8
0
100
AcDbBlockReference
  2
4
 10
0.0
 20
0.0
 30
0.0
  0
ENDSEC
  0
SECTION
  2
OBJECTS
  0
DICTIONARY
  5
C
330
0
100
AcDbDictionary
281
     1
  3
ACAD_COLOR
350
6B
  3
ACAD_GROUP
350
D
  3
ACAD_LAYOUT
350
1A
  3
ACAD_MATERIAL
350
6A
  3
ACAD_MLEADERSTYLE
350
12D
  3
ACAD_MLINESTYLE
350
17
  3
ACAD_PLOTSETTINGS
350
19
  3
ACAD_PLOTSTYLENAME
350
E
  3
ACAD_SCALELIST
350
10C
  3
ACAD_TABLESTYLE
350
7E
  3
ACAD_VISUALSTYLE
350
EF
  3
ACDB_RECOMPOSE_DATA
350
15D
  3
AcDbVariableDictionary
350
5E
  3
DWGPROPS
350
A95
  0
DICTIONARY
  5
13C
330
10
100
AcDbDictionary
280
     1
281
     1
  3
ADSK_XREC_LAYER_RECONCILED
360
A88
  0
DICTIONARY
  5
6B
102
{ACAD_REACTORS
330
C
102
}
330
C
100
AcDbDictionary
281
     1
  0
DICTIONARY
  5
D
102
{ACAD_REACTORS
330
C
102
}
330
C
100
AcDbDictionary
281
     1
  0
DICTIONARY
  5
1A
102
{ACAD_REACTORS
330
C
102
}
330
C
100
AcDbDictionary
281
     1
  3
Layout1
350
D3
  3
Layout2
350
D7
  3
Model
350
22
  0
DICTIONARY
  5
6A
102
{ACAD_REACTORS
330
C
102
}
330
C
100
AcDbDictionary
281
     1
  3
ByBlock
350
ED
  3
ByLayer
350
EC
  3
Global
350
EE
  0
DICTIONARY
  5
12D
102
{ACAD_REACTORS
330
C
102
}
330
C
100
AcDbDictionary
281
     1
  3
Annotative
350
13B
  3
Standard
350
12E
  0
DICTIONARY
  5
17
102
{ACAD_REACTORS
330
C
102
}
330
C
100
AcDbDictionary
281
     1
  3
Standard
350
18
  0
DICTIONARY
  5
19
102
{ACAD_REACTORS
330
C
102
}
330
C
100
AcDbDictionary
281
     1
  0
ACDBDICTIONARYWDFLT
  5
E
102
{ACAD_REACTORS
330
C
102
}
330
C
100
AcDbDictionary
281
     1
  3
Normal
350
F
100
AcDbDictionaryWithDefault
340
F
  0
DICTIONARY
  5
10C
102
{ACAD_REACTORS
330
C
102
}
330
C
100
AcDbDictionary
281
     1
  3
A0
350
10D
  3
A1
350
188
  3
A2
350
189
  3
A3
350
18A
  3
A4
350
18B
  3
A5
350
18C
  3
A6
350
18D
  3
A7
350
18E
  3
A8
350
18F
  3
A9
350
190
  3
B0
350
191
  3
B1
350
192
  3
B2
350
193
  3
B3
350
194
  3
B4
350
195
  3
B5
350
196
  3
B6
350
197
  3
B7
350
198
  3
B8
350
199
  3
B9
350
19A
  3
C0
350
19B
  3
C1
350
19C
  3
C2
350
19D
  3
C3
350
19E
  3
C4
350
19F
  3
C5
350
1A0
  3
C6
350
1A1
  3
C7
350
1A2
  3
C8
350
1A3
  3
C9
350
1A4
  3
D0
350
1A5
  3
D1
350
1A6
  3
D2
350
1A7
  0
DICTIONARY
  5
7E
102
{ACAD_REACTORS
330
C
102
}
330
C
100
AcDbDictionary
281
     1
  3
Standard
350
7F
  0
DICTIONARY
  5
EF
102
{ACAD_REACTORS
330
C
102
}
330
C
100
AcDbDictionary
281
     1
  3
2dWireframe
350
F5
  3
3D Hidden
350
F7
  3
3dWireframe
350
F6
  3
Basic
350
F4
  3
Brighten
350
FB
  3
ColorChange
350
FF
  3
Conceptual
350
F8
  3
Dim
350
FA
  3
Facepattern
350
FE
  3
Flat
350
F0
  3
FlatWithEdges
350
F1
  3
Gouraud
350
F2
  3
GouraudWithEdges
350
F3
  3
Linepattern
350
FD
  3
Realistic
350
F9
  3
Thicken
350
FC
  0
XRECORD
  5
15D
102
{ACAD_REACTORS
330
C
102
}
330
C
100
AcDbXrecord
280
     1
 90
        1
330
7F
  0
DICTIONARY
  5
5E
102
{ACAD_REACTORS
330
C
102
}
330
C
100
AcDbDictionary
281
     1
  3
CANNOSCALE
350
146
  3
CMLEADERSTYLE
350
145
  3
CTABLESTYLE
350
84
  3
DIMASSOC
350
5F
  3
HIDETEXT
350
63
  3
INDEXCTL
350
A91
  3
LIGHTINGUNITS
350
A8F
  3
MSLTSCALE
350
A8E
  3
PSOLHEIGHT
350
A93
  3
PSOLWIDTH
350
A92
  3
SORTENTS
350
A90
  0
XRECORD
  5
A95
102
{ACAD_REACTORS
330
C
102
}
330
C
100
AcDbXrecord
280
     1
  1
DWGPROPS COOKIE
  2

  3

  4

  6

  7

  8
orhan kara
  9

300
=
301
=
302
=
303
=
304
=
305
=
306
=
307
=
308
=
309
=
 40
0.0005246527777778
 41
2458927.45219787
 42
2458956.396033137
  1

 90
        0
  0
XRECORD
  5
A88
102
{ACAD_REACTORS
330
13C
102
}
330
13C
100
AcDbXrecord
280
     1
290
     1
  0
LAYOUT
  5
D3
102
{ACAD_XDICTIONARY
360
A99
102
}
102
{ACAD_REACTORS
330
1A
102
}
330
1A
100
AcDbPlotSettings
  1

  2
C:\Documents and Settings\basas\Application Data\Autodesk\AutoCAD 2005\R16.1\enu\plotters\Default Windows System Printer.pc3
  4

  6

 40
0.0
 41
0.0
 42
0.0
 43
0.0
 44
0.0
 45
0.0
 46
0.0
 47
0.0
 48
0.0
 49
0.0
140
0.0
141
0.0
142
1.0
143
1.0
 70
   688
 72
     0
 73
     0
 74
     5
  7

 75
    16
147
1.0
148
0.0
149
0.0
100
AcDbLayout
  1
Layout1
 70
     1
 71
     1
 10
0.0
 20
0.0
 11
12.0
 21
9.0
 12
0.0
 22
0.0
 32
0.0
 14
0.0
 24
0.0
 34
0.0
 15
0.0
 25
0.0
 35
0.0
146
0.0
 13
0.0
 23
0.0
 33
0.0
 16
1.0
 26
0.0
 36
0.0
 17
0.0
 27
1.0
 37
0.0
 76
     0
330
D2
  0
LAYOUT
  5
D7
102
{ACAD_XDICTIONARY
360
A9B
102
}
102
{ACAD_REACTORS
330
1A
102
}
330
1A
100
AcDbPlotSettings
  1

  2
C:\Documents and Settings\basas\Application Data\Autodesk\AutoCAD 2005\R16.1\enu\plotters\Default Windows System Printer.pc3
  4

  6

 40
0.0
 41
0.0
 42
0.0
 43
0.0
 44
0.0
 45
0.0
 46
0.0
 47
0.0
 48
0.0
 49
0.0
140
0.0
141
0.0
142
1.0
143
1.0
 70
   688
 72
     0
 73
     0
 74
     5
  7

 75
    16
147
1.0
148
0.0
149
0.0
100
AcDbLayout
  1
Layout2
 70
     1
 71
     2
 10
0.0
 20
0.0
 11
12.0
 21
9.0
 12
0.0
 22
0.0
 32
0.0
 14
0.0
 24
0.0
 34
0.0
 15
0.0
 25
0.0
 35
0.0
146
0.0
 13
0.0
 23
0.0
 33
0.0
 16
1.0
 26
0.0
 36
0.0
 17
0.0
 27
1.0
 37
0.0
 76
     0
330
D6
  0
LAYOUT
  5
22
102
{ACAD_XDICTIONARY
360
A96
102
}
102
{ACAD_REACTORS
330
1A
102
}
330
1A
100
AcDbPlotSettings
  1

  2
none_device
  4
ISO_A4_(210.00_x_297.00_MM)
  6

 40
7.5
 41
20.0
 42
7.5
 43
20.0
 44
210.0
 45
297.0
 46
11.54999923706054
 47
-13.65000009536743
 48
0.0
 49
0.0
140
0.0
141
0.0
142
1.0
143
8.704084754739808
 70
 11952
 72
     1
 73
     0
 74
     0
  7

 75
     0
147
0.1148885871608098
148
0.0
149
0.0
100
AcDbLayout
  1
Model
 70
     1
 71
     0
 10
0.0
 20
0.0
 11
12.0
 21
9.0
 12
0.0
 22
0.0
 32
0.0
 14
0.0
 24
0.0
 34
0.0
 15
0.0
 25
0.0
 35
0.0
146
0.0
 13
0.0
 23
0.0
 33
0.0
 16
1.0
 26
0.0
 36
0.0
 17
0.0
 27
1.0
 37
0.0
 76
     0
330
1F
331
EA
1001
ACAD_PSEXT
1000
None
1000
None
1000
Not applicable
1000
The layout will not be plotted unless a new plotter configuration name is selected.
1070
     0
  0
MATERIAL
  5
ED
102
{ACAD_XDICTIONARY
360
A9F
102
}
102
{ACAD_REACTORS
330
6A
102
}
330
6A
100
AcDbMaterial
  1
ByBlock
  0
MATERIAL
  5
EC
102
{ACAD_XDICTIONARY
360
A9D
102
}
102
{ACAD_REACTORS
330
6A
102
}
330
6A
100
AcDbMaterial
  1
ByLayer
  0
MATERIAL
  5
EE
102
{ACAD_XDICTIONARY
360
173
102
}
102
{ACAD_REACTORS
330
6A
102
}
330
6A
100
AcDbMaterial
  1
Global
 43
0.0007999999797903
 43
0.0
 43
0.0
 43
0.0
 43
0.0
 43
0.0007999999797903
 43
0.0
 43
0.0
 43
0.0
 43
0.0
 43
1.0
 43
0.0
 43
0.0
 43
0.0
 43
0.0
 43
1.0
 49
0.0007999999797903
 49
0.0
 49
0.0
 49
0.0
 49
0.0
 49
0.0007999999797903
 49
0.0
 49
0.0
 49
0.0
 49
0.0
 49
1.0
 49
0.0
 49
0.0
 49
0.0
 49
0.0
 49
1.0
142
0.0007999999797903
142
0.0
142
0.0
142
0.0
142
0.0
142
0.0007999999797903
142
0.0
142
0.0
142
0.0
142
0.0
142
1.0
142
0.0
142
0.0
142
0.0
142
0.0
142
1.0
144
0.0007999999797903
144
0.0
144
0.0
144
0.0
144
0.0
144
0.0007999999797903
144
0.0
144
0.0
144
0.0
144
0.0
144
1.0
144
0.0
144
0.0
144
0.0
144
0.0
144
1.0
1001
ACAD
1070
    -1
1070
     3
1070
     0
1000

1071
        0
1070
     0
  0
MLEADERSTYLE
  5
13B
102
{ACAD_REACTORS
330
12D
102
}
330
12D
100
AcDbMLeaderStyle
170
     2
171
     1
172
     0
 90
        2
 40
0.0
 41
0.0
173
     1
 91
-1056964608
340
14
 92
       -2
290
     1
 42
2.0
291
     1
 43
8.0
  3
Standard
 44
4.0
300

342
11
174
     1
178
     1
175
     1
176
     0
 93
-1056964608
 45
4.0
292
     0
297
     0
 46
4.0
 94
-1056964608
 47
1.0
 49
1.0
140
1.0
293
     1
141
0.0
294
     1
177
     0
142
1.0
295
     0
296
     1
143
3.75
1001
ACAD_MLEADERVER
1070
     2
  0
MLEADERSTYLE
  5
12E
102
{ACAD_REACTORS
330
12D
102
}
330
12D
100
AcDbMLeaderStyle
170
     2
171
     1
172
     0
 90
        2
 40
0.0
 41
0.0
173
     1
 91
-1056964608
340
14
 92
       -2
290
     1
 42
2.0
291
     1
 43
8.0
  3
Standard
 44
4.0
300

342
11
174
     1
178
     1
175
     1
176
     0
 93
-1056964608
 45
4.0
292
     0
297
     0
 46
4.0
 94
-1056964608
 47
1.0
 49
1.0
140
1.0
293
     1
141
0.0
294
     1
177
     0
142
1.0
295
     0
296
     0
143
3.75
1001
ACAD_MLEADERVER
1070
     2
  0
MLINESTYLE
  5
18
102
{ACAD_REACTORS
330
17
102
}
330
17
100
AcDbMlineStyle
  2
STANDARD
 70
     0
  3

 62
   256
 51
90.0
 52
90.0
 71
     2
 49
0.5
 62
   256
  6
BYLAYER
 49
-0.5
 62
   256
  6
BYLAYER
  0
ACDBPLACEHOLDER
  5
F
102
{ACAD_REACTORS
330
E
102
}
330
E
  0
SCALE
  5
10D
102
{ACAD_REACTORS
330
10C
102
}
330
10C
100
AcDbScale
 70
     0
300
1:1
140
1.0
141
1.0
290
     1
  0
SCALE
  5
188
102
{ACAD_REACTORS
330
10C
102
}
330
10C
100
AcDbScale
 70
     0
300
1:2
140
1.0
141
2.0
290
     0
  0
SCALE
  5
189
102
{ACAD_REACTORS
330
10C
102
}
330
10C
100
AcDbScale
 70
     0
300
1:4
140
1.0
141
4.0
290
     0
  0
SCALE
  5
18A
102
{ACAD_REACTORS
330
10C
102
}
330
10C
100
AcDbScale
 70
     0
300
1:5
140
1.0
141
5.0
290
     0
  0
SCALE
  5
18B
102
{ACAD_REACTORS
330
10C
102
}
330
10C
100
AcDbScale
 70
     0
300
1:8
140
1.0
141
8.0
290
     0
  0
SCALE
  5
18C
102
{ACAD_REACTORS
330
10C
102
}
330
10C
100
AcDbScale
 70
     0
300
1:10
140
1.0
141
10.0
290
     0
  0
SCALE
  5
18D
102
{ACAD_REACTORS
330
10C
102
}
330
10C
100
AcDbScale
 70
     0
300
1:16
140
1.0
141
16.0
290
     0
  0
SCALE
  5
18E
102
{ACAD_REACTORS
330
10C
102
}
330
10C
100
AcDbScale
 70
     0
300
1:20
140
1.0
141
20.0
290
     0
  0
SCALE
  5
18F
102
{ACAD_REACTORS
330
10C
102
}
330
10C
100
AcDbScale
 70
     0
300
1:30
140
1.0
141
30.0
290
     0
  0
SCALE
  5
190
102
{ACAD_REACTORS
330
10C
102
}
330
10C
100
AcDbScale
 70
     0
300
1:40
140
1.0
141
40.0
290
     0
  0
SCALE
  5
191
102
{ACAD_REACTORS
330
10C
102
}
330
10C
100
AcDbScale
 70
     0
300
1:50
140
1.0
141
50.0
290
     0
  0
SCALE
  5
192
102
{ACAD_REACTORS
330
10C
102
}
330
10C
100
AcDbScale
 70
     0
300
1:100
140
1.0
141
100.0
290
     0
  0
SCALE
  5
193
102
{ACAD_REACTORS
330
10C
102
}
330
10C
100
AcDbScale
 70
     0
300
2:1
140
2.0
141
1.0
290
     0
  0
SCALE
  5
194
102
{ACAD_REACTORS
330
10C
102
}
330
10C
100
AcDbScale
 70
     0
300
4:1
140
4.0
141
1.0
290
     0
  0
SCALE
  5
195
102
{ACAD_REACTORS
330
10C
102
}
330
10C
100
AcDbScale
 70
     0
300
8:1
140
8.0
141
1.0
290
     0
  0
SCALE
  5
196
102
{ACAD_REACTORS
330
10C
102
}
330
10C
100
AcDbScale
 70
     0
300
10:1
140
10.0
141
1.0
290
     0
  0
SCALE
  5
197
102
{ACAD_REACTORS
330
10C
102
}
330
10C
100
AcDbScale
 70
     0
300
100:1
140
100.0
141
1.0
290
     0
  0
SCALE
  5
198
102
{ACAD_REACTORS
330
10C
102
}
330
10C
100
AcDbScale
 70
     0
300
1/128" = 1'-0"
140
0.0078125
141
12.0
290
     0
  0
SCALE
  5
199
102
{ACAD_REACTORS
330
10C
102
}
330
10C
100
AcDbScale
 70
     0
300
1/64" = 1'-0"
140
0.015625
141
12.0
290
     0
  0
SCALE
  5
19A
102
{ACAD_REACTORS
330
10C
102
}
330
10C
100
AcDbScale
 70
     0
300
1/32" = 1'-0"
140
0.03125
141
12.0
290
     0
  0
SCALE
  5
19B
102
{ACAD_REACTORS
330
10C
102
}
330
10C
100
AcDbScale
 70
     0
300
1/16" = 1'-0"
140
0.0625
141
12.0
290
     0
  0
SCALE
  5
19C
102
{ACAD_REACTORS
330
10C
102
}
330
10C
100
AcDbScale
 70
     0
300
3/32" = 1'-0"
140
0.09375
141
12.0
290
     0
  0
SCALE
  5
19D
102
{ACAD_REACTORS
330
10C
102
}
330
10C
100
AcDbScale
 70
     0
300
1/8" = 1'-0"
140
0.125
141
12.0
290
     0
  0
SCALE
  5
19E
102
{ACAD_REACTORS
330
10C
102
}
330
10C
100
AcDbScale
 70
     0
300
3/16" = 1'-0"
140
0.1875
141
12.0
290
     0
  0
SCALE
  5
19F
102
{ACAD_REACTORS
330
10C
102
}
330
10C
100
AcDbScale
 70
     0
300
1/4" = 1'-0"
140
0.25
141
12.0
290
     0
  0
SCALE
  5
1A0
102
{ACAD_REACTORS
330
10C
102
}
330
10C
100
AcDbScale
 70
     0
300
3/8" = 1'-0"
140
0.375
141
12.0
290
     0
  0
SCALE
  5
1A1
102
{ACAD_REACTORS
330
10C
102
}
330
10C
100
AcDbScale
 70
     0
300
1/2" = 1'-0"
140
0.5
141
12.0
290
     0
  0
SCALE
  5
1A2
102
{ACAD_REACTORS
330
10C
102
}
330
10C
100
AcDbScale
 70
     0
300
3/4" = 1'-0"
140
0.75
141
12.0
290
     0
  0
SCALE
  5
1A3
102
{ACAD_REACTORS
330
10C
102
}
330
10C
100
AcDbScale
 70
     0
300
1" = 1'-0"
140
1.0
141
12.0
290
     0
  0
SCALE
  5
1A4
102
{ACAD_REACTORS
330
10C
102
}
330
10C
100
AcDbScale
 70
     0
300
1-1/2" = 1'-0"
140
1.5
141
12.0
290
     0
  0
SCALE
  5
1A5
102
{ACAD_REACTORS
330
10C
102
}
330
10C
100
AcDbScale
 70
     0
300
3" = 1'-0"
140
3.0
141
12.0
290
     0
  0
SCALE
  5
1A6
102
{ACAD_REACTORS
330
10C
102
}
330
10C
100
AcDbScale
 70
     0
300
6" = 1'-0"
140
6.0
141
12.0
290
     0
  0
SCALE
  5
1A7
102
{ACAD_REACTORS
330
10C
102
}
330
10C
100
AcDbScale
 70
     0
300
1'-0" = 1'-0"
140
12.0
141
12.0
290
     0
  0
TABLESTYLE
  5
7F
102
{ACAD_XDICTIONARY
360
162
102
}
102
{ACAD_REACTORS
330
7E
102
}
330
7E
100
AcDbTableStyle
  3
Standard
 70
     0
 71
     0
 40
1.5
 41
1.5
280
     0
281
     0
  7
Standard
140
4.5
170
     2
 62
     0
 63
     7
283
     0
274
    -2
284
     1
 64
     0
275
    -2
285
     1
 65
     0
276
    -2
286
     1
 66
     0
277
    -2
287
     1
 67
     0
278
    -2
288
     1
 68
     0
279
    -2
289
     1
 69
     0
  7
Standard
140
6.0
170
     5
 62
     0
 63
     7
283
     0
274
    -2
284
     1
 64
     0
275
    -2
285
     1
 65
     0
276
    -2
286
     1
 66
     0
277
    -2
287
     1
 67
     0
278
    -2
288
     1
 68
     0
279
    -2
289
     1
 69
     0
  7
Standard
140
4.5
170
     5
 62
     0
 63
     7
283
     0
274
    -2
284
     1
 64
     0
275
    -2
285
     1
 65
     0
276
    -2
286
     1
 66
     0
277
    -2
287
     1
 67
     0
278
    -2
288
     1
 68
     0
279
    -2
289
     1
 69
     0
  0
VISUALSTYLE
  5
F5
102
{ACAD_REACTORS
330
EF
102
}
330
EF
100
AcDbVisualStyle
  2
2dWireframe
 70
     4
 71
     0
 72
     2
 73
     1
 90
        0
 40
-0.6
 41
-30.0
 62
     5
 63
     7
 74
     1
 91
        4
 64
     7
 65
   257
 75
     1
175
     1
 42
1.0
 92
        0
 66
   257
 43
1.0
 76
     1
 77
     6
 78
     2
 67
     7
 79
     5
170
     0
171
     0
290
     0
174
     0
 93
        1
 44
0.0
173
     0
291
     0
 45
0.0
1001
ACAD
1000
AcDbSavedByObjectVersion
1070
     0
  0
VISUALSTYLE
  5
F7
102
{ACAD_REACTORS
330
EF
102
}
330
EF
100
AcDbVisualStyle
  2
3D Hidden
 70
     6
 71
     1
 72
     2
 73
     2
 90
        0
 40
-0.6
 41
-30.0
 62
     5
 63
     7
 74
     2
 91
        2
 64
     7
 65
   257
 75
     2
175
     1
 42
40.0
 92
        0
 66
   257
 43
1.0
 76
     1
 77
     6
 78
     2
 67
     7
 79
     3
170
     0
171
     0
290
     0
174
     0
 93
        1
 44
0.0
173
     0
291
     0
 45
0.0
1001
ACAD
1000
AcDbSavedByObjectVersion
1070
     0
  0
VISUALSTYLE
  5
F6
102
{ACAD_REACTORS
330
EF
102
}
330
EF
100
AcDbVisualStyle
  2
3dWireframe
 70
     5
 71
     0
 72
     2
 73
     1
 90
        0
 40
-0.6
 41
-30.0
 62
     5
 63
     7
 74
     1
 91
        4
 64
     7
 65
   257
 75
     1
175
     1
 42
1.0
 92
        0
 66
   257
 43
1.0
 76
     1
 77
     6
 78
     2
 67
     7
 79
     5
170
     0
171
     0
290
     0
174
     0
 93
        1
 44
0.0
173
     0
291
     0
 45
0.0
1001
ACAD
1000
AcDbSavedByObjectVersion
1070
     0
  0
VISUALSTYLE
  5
F4
102
{ACAD_REACTORS
330
EF
102
}
330
EF
100
AcDbVisualStyle
  2
Basic
 70
     7
 71
     1
 72
     0
 73
     1
 90
        0
 40
-0.6
 41
-30.0
 62
     5
 63
     7
 74
     0
 91
        4
 64
     7
 65
   257
 75
     1
175
     1
 42
1.0
 92
        8
 66
     7
 43
1.0
 76
     1
 77
     6
 78
     2
 67
     7
 79
     5
170
     0
171
     0
290
     0
174
     0
 93
        1
 44
0.0
173
     0
291
     1
 45
0.0
1001
ACAD
1000
AcDbSavedByObjectVersion
1070
     0
  0
VISUALSTYLE
  5
FB
102
{ACAD_REACTORS
330
EF
102
}
330
EF
100
AcDbVisualStyle
  2
Brighten
 70
    12
 71
     2
 72
     2
 73
     1
 90
        0
 40
-0.6
 41
-30.0
 62
     5
 63
     7
 74
     1
 91
        4
 64
     7
 65
   257
 75
     1
175
     1
 42
1.0
 92
        8
 66
     7
 43
1.0
 76
     1
 77
     6
 78
     2
 67
     7
 79
     5
170
     0
171
     0
290
     0
174
     0
 93
        1
 44
50.0
173
     0
291
     1
 45
0.0
1001
ACAD
1000
AcDbSavedByObjectVersion
1070
     0
  0
VISUALSTYLE
  5
FF
102
{ACAD_REACTORS
330
EF
102
}
330
EF
100
AcDbVisualStyle
  2
ColorChange
 70
    16
 71
     2
 72
     2
 73
     3
 90
        0
 40
-0.6
 41
-30.0
 62
     5
 63
     8
 74
     1
 91
        4
 64
     7
 65
   257
 75
     1
175
     1
 42
1.0
 92
        8
 66
     8
 43
1.0
 76
     1
 77
     6
 78
     2
 67
     7
 79
     5
170
     0
171
     0
290
     0
174
     0
 93
        1
 44
0.0
173
     0
291
     1
 45
0.0
1001
ACAD
1000
AcDbSavedByObjectVersion
1070
     0
  0
VISUALSTYLE
  5
F8
102
{ACAD_REACTORS
330
EF
102
}
330
EF
100
AcDbVisualStyle
  2
Conceptual
 70
     9
 71
     3
 72
     2
 73
     1
 90
        0
 40
-0.6
 41
-30.0
 62
     5
 63
     7
 74
     2
 91
        2
 64
     7
 65
   257
 75
     1
175
     1
 42
40.0
 92
        8
 66
     7
 43
1.0
 76
     1
 77
     6
 78
     2
 67
     7
 79
     3
170
     0
171
     0
290
     0
174
     0
 93
        1
 44
0.0
173
     0
291
     0
 45
0.0
1001
ACAD
1000
AcDbSavedByObjectVersion
1070
     0
  0
VISUALSTYLE
  5
FA
102
{ACAD_REACTORS
330
EF
102
}
330
EF
100
AcDbVisualStyle
  2
Dim
 70
    11
 71
     2
 72
     2
 73
     1
 90
        0
 40
-0.6
 41
-30.0
 62
     5
 63
     7
 74
     1
 91
        4
 64
     7
 65
   257
 75
     1
175
     1
 42
1.0
 92
        8
 66
     7
 43
1.0
 76
     1
 77
     6
 78
     2
 67
     7
 79
     5
170
     0
171
     0
290
     0
174
     0
 93
        1
 44
-50.0
173
     0
291
     1
 45
0.0
1001
ACAD
1000
AcDbSavedByObjectVersion
1070
     0
  0
VISUALSTYLE
  5
FE
102
{ACAD_REACTORS
330
EF
102
}
330
EF
100
AcDbVisualStyle
  2
Facepattern
 70
    15
 71
     2
 72
     2
 73
     1
 90
        0
 40
-0.6
 41
-30.0
 62
     5
 63
     7
 74
     1
 91
        4
 64
     7
 65
   257
 75
     1
175
     1
 42
1.0
 92
        8
 66
     7
 43
1.0
 76
     1
 77
     6
 78
     2
 67
     7
 79
     5
170
     0
171
     0
290
     0
174
     0
 93
        1
 44
0.0
173
     0
291
     1
 45
0.0
1001
ACAD
1000
AcDbSavedByObjectVersion
1070
     0
  0
VISUALSTYLE
  5
F0
102
{ACAD_REACTORS
330
EF
102
}
330
EF
100
AcDbVisualStyle
  2
Flat
 70
     0
 71
     2
 72
     1
 73
     1
 90
        2
 40
-0.6
 41
30.0
 62
     5
 63
     7
 74
     0
 91
        4
 64
     7
 65
   257
 75
     1
175
     1
 42
1.0
 92
        8
 66
     7
 43
1.0
 76
     1
 77
     6
 78
     2
 67
     7
 79
     5
170
     0
171
     0
290
     0
174
     0
 93
        1
 44
0.0
173
     0
291
     1
 45
0.0
1001
ACAD
1000
AcDbSavedByObjectVersion
1070
     0
  0
VISUALSTYLE
  5
F1
102
{ACAD_REACTORS
330
EF
102
}
330
EF
100
AcDbVisualStyle
  2
FlatWithEdges
 70
     1
 71
     2
 72
     1
 73
     1
 90
        2
 40
-0.6
 41
30.0
 62
     5
 63
     7
 74
     1
 91
        4
 64
     7
 65
   257
 75
     1
175
     1
 42
1.0
 92
        0
 66
   257
 43
1.0
 76
     1
 77
     6
 78
     2
 67
     7
 79
     5
170
     0
171
     0
290
     0
174
     0
 93
        1
 44
0.0
173
     0
291
     1
 45
0.0
1001
ACAD
1000
AcDbSavedByObjectVersion
1070
     0
  0
VISUALSTYLE
  5
F2
102
{ACAD_REACTORS
330
EF
102
}
330
EF
100
AcDbVisualStyle
  2
Gouraud
 70
     2
 71
     2
 72
     2
 73
     1
 90
        2
 40
-0.6
 41
30.0
 62
     5
 63
     7
 74
     0
 91
        4
 64
     7
 65
   257
 75
     1
175
     1
 42
1.0
 92
        0
 66
     7
 43
1.0
 76
     1
 77
     6
 78
     2
 67
     7
 79
     5
170
     0
171
     0
290
     0
174
     0
 93
        1
 44
0.0
173
     0
291
     1
 45
0.0
1001
ACAD
1000
AcDbSavedByObjectVersion
1070
     0
  0
VISUALSTYLE
  5
F3
102
{ACAD_REACTORS
330
EF
102
}
330
EF
100
AcDbVisualStyle
  2
GouraudWithEdges
 70
     3
 71
     2
 72
     2
 73
     1
 90
        2
 40
-0.6
 41
30.0
 62
     5
 63
     7
 74
     1
 91
        4
 64
     7
 65
   257
 75
     1
175
     1
 42
1.0
 92
        0
 66
   257
 43
1.0
 76
     1
 77
     6
 78
     2
 67
     7
 79
     5
170
     0
171
     0
290
     0
174
     0
 93
        1
 44
0.0
173
     0
291
     1
 45
0.0
1001
ACAD
1000
AcDbSavedByObjectVersion
1070
     0
  0
VISUALSTYLE
  5
FD
102
{ACAD_REACTORS
330
EF
102
}
330
EF
100
AcDbVisualStyle
  2
Linepattern
 70
    14
 71
     2
 72
     2
 73
     1
 90
        0
 40
-0.6
 41
-30.0
 62
     5
 63
     7
 74
     1
 91
        4
 64
     7
 65
   257
 75
     7
175
     7
 42
1.0
 92
        8
 66
     7
 43
1.0
 76
     1
 77
     6
 78
     2
 67
     7
 79
     5
170
     0
171
     0
290
     0
174
     0
 93
        1
 44
0.0
173
     0
291
     1
 45
0.0
1001
ACAD
1000
AcDbSavedByObjectVersion
1070
     0
  0
VISUALSTYLE
  5
F9
102
{ACAD_REACTORS
330
EF
102
}
330
EF
100
AcDbVisualStyle
  2
Realistic
 70
     8
 71
     2
 72
     2
 73
     1
 90
        0
 40
-0.6
 41
-30.0
 62
     5
 63
     7
 74
     1
 91
        0
 64
     7
 65
   257
 75
     1
175
     1
 42
1.0
 92
        8
 66
     8
 43
1.0
 76
     1
 77
     6
 78
     2
 67
     7
 79
     5
170
     0
171
     0
290
     0
174
     0
 93
       13
 44
0.0
173
     0
291
     0
 45
0.0
1001
ACAD
1000
AcDbSavedByObjectVersion
1070
     0
  0
VISUALSTYLE
  5
FC
102
{ACAD_REACTORS
330
EF
102
}
330
EF
100
AcDbVisualStyle
  2
Thicken
 70
    13
 71
     2
 72
     2
 73
     1
 90
        0
 40
-0.6
 41
-30.0
 62
     5
 63
     7
 74
     1
 91
        4
 64
     7
 65
   257
 75
     1
175
     1
 42
1.0
 92
       12
 66
     7
 43
1.0
 76
     1
 77
     6
 78
     2
 67
     7
 79
     5
170
     0
171
     0
290
     0
174
     0
 93
        1
 44
0.0
173
     0
291
     1
 45
0.0
1001
ACAD
1000
AcDbSavedByObjectVersion
1070
     0
  0
DICTIONARYVAR
  5
146
102
{ACAD_REACTORS
330
5E
102
}
330
5E
100
DictionaryVariables
280
     0
  1
1:1
  0
DICTIONARYVAR
  5
145
102
{ACAD_REACTORS
330
5E
102
}
330
5E
100
DictionaryVariables
280
     0
  1
STANDARD
  0
DICTIONARYVAR
  5
84
102
{ACAD_REACTORS
330
5E
102
}
330
5E
100
DictionaryVariables
280
     0
  1
STANDARD
  0
DICTIONARYVAR
  5
5F
102
{ACAD_REACTORS
330
5E
102
}
330
5E
100
DictionaryVariables
280
     0
  1
2
  0
DICTIONARYVAR
  5
63
102
{ACAD_REACTORS
330
5E
102
}
330
5E
100
DictionaryVariables
280
     0
  1
1
  0
DICTIONARYVAR
  5
A91
102
{ACAD_REACTORS
330
5E
102
}
330
5E
100
DictionaryVariables
280
     0
  1
0
  0
DICTIONARYVAR
  5
A8F
102
{ACAD_REACTORS
330
5E
102
}
330
5E
100
DictionaryVariables
280
     0
  1
2
  0
DICTIONARYVAR
  5
A8E
102
{ACAD_REACTORS
330
5E
102
}
330
5E
100
DictionaryVariables
280
     0
  1
1
  0
DICTIONARYVAR
  5
A93
102
{ACAD_REACTORS
330
5E
102
}
330
5E
100
DictionaryVariables
280
     0
  1
80.000000
  0
DICTIONARYVAR
  5
A92
102
{ACAD_REACTORS
330
5E
102
}
330
5E
100
DictionaryVariables
280
     0
  1
5.000000
  0
DICTIONARYVAR
  5
A90
102
{ACAD_REACTORS
330
5E
102
}
330
5E
100
DictionaryVariables
280
     0
  1
127
  0
DICTIONARY
  5
A99
330
D3
100
AcDbDictionary
280
     1
281
     1
  3
ACAD_XREC_ROUNDTRIP
360
A9A
  0
DICTIONARY
  5
A9B
330
D7
100
AcDbDictionary
280
     1
281
     1
  3
ACAD_XREC_ROUNDTRIP
360
A9C
  0
DICTIONARY
  5
A96
330
22
100
AcDbDictionary
280
     1
281
     1
  3
ACAD_XREC_ROUNDTRIP
360
A97
  0
DICTIONARY
  5
A9F
330
ED
100
AcDbDictionary
280
     1
281
     1
  3
ACAD_XREC_ROUNDTRIP
360
AA0
  0
DICTIONARY
  5
A9D
330
EC
100
AcDbDictionary
280
     1
281
     1
  3
ACAD_XREC_ROUNDTRIP
360
A9E
  0
DICTIONARY
  5
173
330
EE
100
AcDbDictionary
280
     1
281
     1
  3
ACAD_XREC_ROUNDTRIP
360
AA1
  3
BUMPTILE
360
175
  3
DIFFUSETILE
360
174
  3
OPACITYTILE
360
176
  3
REFLECTIONTILE
360
177
  0
DICTIONARY
  5
162
330
7F
100
AcDbDictionary
280
     1
281
     1
  3
ACAD_ROUNDTRIP_2008_TABLESTYLE_CELLSTYLEMAP
360
A94
  3
ACAD_XREC_ROUNDTRIP
360
A98
  0
XRECORD
  5
A9A
102
{ACAD_REACTORS
330
A99
102
}
330
A99
100
AcDbXrecord
280
     1
102
SHADEPLOT
 70
     0
102
SHADEPLOTRESLEVEL
 70
     2
102
SHADEPLOTCUSTOMDPI
 70
   300
  0
XRECORD
  5
A9C
102
{ACAD_REACTORS
330
A9B
102
}
330
A9B
100
AcDbXrecord
280
     1
102
SHADEPLOT
 70
     0
102
SHADEPLOTRESLEVEL
 70
     2
102
SHADEPLOTCUSTOMDPI
 70
   300
  0
XRECORD
  5
A97
102
{ACAD_REACTORS
330
A96
102
}
330
A96
100
AcDbXrecord
280
     1
102
SHADEPLOT
 70
     0
102
SHADEPLOTRESLEVEL
 70
     2
102
SHADEPLOTCUSTOMDPI
 70
   300
  0
XRECORD
  5
AA0
102
{ACAD_REACTORS
330
A9F
102
}
330
A9F
100
AcDbXrecord
280
     1
102
MATERIAL
148
0.0
149
0.0
149
0.0
 93
        0
 94
       63
282
     0
 72
     1
 77
     1
171
     1
175
     1
179
     1
273
     0
  0
XRECORD
  5
A9E
102
{ACAD_REACTORS
330
A9D
102
}
330
A9D
100
AcDbXrecord
280
     1
102
MATERIAL
148
0.0
149
0.0
149
0.0
 93
        0
 94
       63
282
     0
 72
     1
 77
     1
171
     1
175
     1
179
     1
273
     0
  0
XRECORD
  5
AA1
102
{ACAD_REACTORS
330
173
102
}
330
173
100
AcDbXrecord
280
     1
102
MATERIAL
148
0.0
149
0.0
149
0.0
 93
        0
 94
       63
282
     0
 72
     1
 77
     1
171
     1
175
     1
179
     1
273
     0
  0
XRECORD
  5
175
102
{ACAD_REACTORS
330
173
102
}
330
173
100
AcDbXrecord
280
     1
270
     1
271
     1
  0
XRECORD
  5
174
102
{ACAD_REACTORS
330
173
102
}
330
173
100
AcDbXrecord
280
     1
270
     1
271
     1
  0
XRECORD
  5
176
102
{ACAD_REACTORS
330
173
102
}
330
173
100
AcDbXrecord
280
     1
270
     1
271
     1
  0
XRECORD
  5
177
102
{ACAD_REACTORS
330
173
102
}
330
173
100
AcDbXrecord
280
     1
270
     1
271
     1
  0
CELLSTYLEMAP
  5
A94
102
{ACAD_REACTORS
330
162
102
}
330
162
100
AcDbCellStyleMap
 90
        3
300
CELLSTYLE
  1
TABLEFORMAT_BEGIN
 90
        5
170
     1
 91
        0
 92
    32768
 62
   257
 93
        1
300
CONTENTFORMAT
  1
CONTENTFORMAT_BEGIN
 90
        0
 91
        0
 92
      512
 93
        0
300

 40
0.0
140
1.0
 94
        5
 62
     0
340
11
144
6.0
309
CONTENTFORMAT_END
171
     1
301
MARGIN
  1
CELLMARGIN_BEGIN
 40
1.5
 40
1.5
 40
1.5
 40
1.5
 40
4.5
 40
4.5
309
CELLMARGIN_END
 94
        6
 95
        1
302
GRIDFORMAT
  1
GRIDFORMAT_BEGIN
 90
        0
 91
        1
 62
     0
 92
       -2
340
14
 93
        0
 40
1.125
309
GRIDFORMAT_END
 95
        2
302
GRIDFORMAT
  1
GRIDFORMAT_BEGIN
 90
        0
 91
        1
 62
     0
 92
       -2
340
14
 93
        0
 40
1.125
309
GRIDFORMAT_END
 95
        4
302
GRIDFORMAT
  1
GRIDFORMAT_BEGIN
 90
        0
 91
        1
 62
     0
 92
       -2
340
14
 93
        0
 40
1.125
309
GRIDFORMAT_END
 95
        8
302
GRIDFORMAT
  1
GRIDFORMAT_BEGIN
 90
        0
 91
        1
 62
     0
 92
       -2
340
14
 93
        0
 40
1.125
309
GRIDFORMAT_END
 95
       16
302
GRIDFORMAT
  1
GRIDFORMAT_BEGIN
 90
        0
 91
        1
 62
     0
 92
       -2
340
14
 93
        0
 40
1.125
309
GRIDFORMAT_END
 95
       32
302
GRIDFORMAT
  1
GRIDFORMAT_BEGIN
 90
        0
 91
        1
 62
     0
 92
       -2
340
14
 93
        0
 40
1.125
309
GRIDFORMAT_END
309
TABLEFORMAT_END
  1
CELLSTYLE_BEGIN
 90
        1
 91
        1
300
_TITLE
309
CELLSTYLE_END
300
CELLSTYLE
  1
TABLEFORMAT_BEGIN
 90
        5
170
     1
 91
        0
 92
        0
 62
   257
 93
        1
300
CONTENTFORMAT
  1
CONTENTFORMAT_BEGIN
 90
        0
 91
        0
 92
      512
 93
        0
300

 40
0.0
140
1.0
 94
        5
 62
     0
340
11
144
4.5
309
CONTENTFORMAT_END
171
     1
301
MARGIN
  1
CELLMARGIN_BEGIN
 40
1.5
 40
1.5
 40
1.5
 40
1.5
 40
4.5
 40
4.5
309
CELLMARGIN_END
 94
        6
 95
        1
302
GRIDFORMAT
  1
GRIDFORMAT_BEGIN
 90
        0
 91
        1
 62
     0
 92
       -2
340
14
 93
        0
 40
1.125
309
GRIDFORMAT_END
 95
        2
302
GRIDFORMAT
  1
GRIDFORMAT_BEGIN
 90
        0
 91
        1
 62
     0
 92
       -2
340
14
 93
        0
 40
1.125
309
GRIDFORMAT_END
 95
        4
302
GRIDFORMAT
  1
GRIDFORMAT_BEGIN
 90
        0
 91
        1
 62
     0
 92
       -2
340
14
 93
        0
 40
1.125
309
GRIDFORMAT_END
 95
        8
302
GRIDFORMAT
  1
GRIDFORMAT_BEGIN
 90
        0
 91
        1
 62
     0
 92
       -2
340
14
 93
        0
 40
1.125
309
GRIDFORMAT_END
 95
       16
302
GRIDFORMAT
  1
GRIDFORMAT_BEGIN
 90
        0
 91
        1
 62
     0
 92
       -2
340
14
 93
        0
 40
1.125
309
GRIDFORMAT_END
 95
       32
302
GRIDFORMAT
  1
GRIDFORMAT_BEGIN
 90
        0
 91
        1
 62
     0
 92
       -2
340
14
 93
        0
 40
1.125
309
GRIDFORMAT_END
309
TABLEFORMAT_END
  1
CELLSTYLE_BEGIN
 90
        2
 91
        1
300
_HEADER
309
CELLSTYLE_END
300
CELLSTYLE
  1
TABLEFORMAT_BEGIN
 90
        5
170
     1
 91
        0
 92
        0
 62
   257
 93
        1
300
CONTENTFORMAT
  1
CONTENTFORMAT_BEGIN
 90
        0
 91
        0
 92
      512
 93
        0
300

 40
0.0
140
1.0
 94
        2
 62
     0
340
11
144
4.5
309
CONTENTFORMAT_END
171
     1
301
MARGIN
  1
CELLMARGIN_BEGIN
 40
1.5
 40
1.5
 40
1.5
 40
1.5
 40
4.5
 40
4.5
309
CELLMARGIN_END
 94
        6
 95
        1
302
GRIDFORMAT
  1
GRIDFORMAT_BEGIN
 90
        0
 91
        1
 62
     0
 92
       -2
340
14
 93
        0
 40
1.125
309
GRIDFORMAT_END
 95
        2
302
GRIDFORMAT
  1
GRIDFORMAT_BEGIN
 90
        0
 91
        1
 62
     0
 92
       -2
340
14
 93
        0
 40
1.125
309
GRIDFORMAT_END
 95
        4
302
GRIDFORMAT
  1
GRIDFORMAT_BEGIN
 90
        0
 91
        1
 62
     0
 92
       -2
340
14
 93
        0
 40
1.125
309
GRIDFORMAT_END
 95
        8
302
GRIDFORMAT
  1
GRIDFORMAT_BEGIN
 90
        0
 91
        1
 62
     0
 92
       -2
340
14
 93
        0
 40
1.125
309
GRIDFORMAT_END
 95
       16
302
GRIDFORMAT
  1
GRIDFORMAT_BEGIN
 90
        0
 91
        1
 62
     0
 92
       -2
340
14
 93
        0
 40
1.125
309
GRIDFORMAT_END
 95
       32
302
GRIDFORMAT
  1
GRIDFORMAT_BEGIN
 90
        0
 91
        1
 62
     0
 92
       -2
340
14
 93
        0
 40
1.125
309
GRIDFORMAT_END
309
TABLEFORMAT_END
  1
CELLSTYLE_BEGIN
 90
        3
 91
        2
300
_DATA
309
CELLSTYLE_END
  0
XRECORD
  5
A98
102
{ACAD_REACTORS
330
162
102
}
330
162
100
AcDbXrecord
280
     1
102
ACAD_ROUNDTRIP_PRE2007_TABLESTYLE
 90
      512
 91
        0
  1

 92
      512
 93
        0
  2

 94
      512
 95
        0
  3

  0
ENDSEC
  0
EOF
