  0
SECTION
  2
HEADER
  9
$ACADVER
  1
AC1015
  9
$ACADMAINTVER
 70
    20
  9
$DWGCODEPAGE
  3
ANSI_1254
  9
$INSBASE
 10
0.0
 20
0.0
 30
0.0
  9
$EXTMIN
 10
2340.134592715674
 20
577.7684082919381
 30
0.0
  9
$EXTMAX
 10
2594.770115513405
 20
709.7716392598863
 30
0.0
  9
$LIMMIN
 10
0.0
 20
0.0
  9
$LIMMAX
 10
420.0
 20
297.0
  9
$ORTHOMODE
 70
     1
  9
$REGENMODE
 70
     1
  9
$FILLMODE
 70
     1
  9
$QTEXTMODE
 70
     0
  9
$MIRRTEXT
 70
     0
  9
$LTSCALE
 40
1.0
  9
$ATTMODE
 70
     1
  9
$TEXTSIZE
 40
2.5
  9
$TRACEWID
 40
1.0
  9
$TEXTSTYLE
  7
Standard
  9
$CLAYER
  8
0
  9
$CELTYPE
  6
ByLayer
  9
$CECOLOR
 62
   256
  9
$CELTSCALE
 40
1.0
  9
$DISPSILH
 70
     0
  9
$DIMSCALE
 40
1.0
  9
$DIMASZ
 40
2.5
  9
$DIMEXO
 40
0.625
  9
$DIMDLI
 40
3.75
  9
$DIMRND
 40
0.0
  9
$DIMDLE
 40
0.0
  9
$DIMEXE
 40
1.25
  9
$DIMTP
 40
0.0
  9
$DIMTM
 40
0.0
  9
$DIMTXT
 40
2.5
  9
$DIMCEN
 40
2.5
  9
$DIMTSZ
 40
0.0
  9
$DIMTOL
 70
     0
  9
$DIMLIM
 70
     0
  9
$DIMTIH
 70
     0
  9
$DIMTOH
 70
     0
  9
$DIMSE1
 70
     0
  9
$DIMSE2
 70
     0
  9
$DIMTAD
 70
     1
  9
$DIMZIN
 70
     8
  9
$DIMBLK
  1

  9
$DIMASO
 70
     1
  9
$DIMSHO
 70
     1
  9
$DIMPOST
  1

  9
$DIMAPOST
  1

  9
$DIMALT
 70
     0
  9
$DIMALTD
 70
     3
  9
$DIMALTF
 40
0.03937007874016
  9
$DIMLFAC
 40
1.0
  9
$DIMTOFL
 70
     1
  9
$DIMTVP
 40
0.0
  9
$DIMTIX
 70
     0
  9
$DIMSOXD
 70
     0
  9
$DIMSAH
 70
     0
  9
$DIMBLK1
  1

  9
$DIMBLK2
  1

  9
$DIMSTYLE
  2
ISO-25
  9
$DIMCLRD
 70
     0
  9
$DIMCLRE
 70
     0
  9
$DIMCLRT
 70
     0
  9
$DIMTFAC
 40
1.0
  9
$DIMGAP
 40
0.625
  9
$DIMJUST
 70
     0
  9
$DIMSD1
 70
     0
  9
$DIMSD2
 70
     0
  9
$DIMTOLJ
 70
     0
  9
$DIMTZIN
 70
     8
  9
$DIMALTZ
 70
     0
  9
$DIMALTTZ
 70
     0
  9
$DIMUPT
 70
     0
  9
$DIMDEC
 70
     2
  9
$DIMTDEC
 70
     2
  9
$DIMALTU
 70
     2
  9
$DIMALTTD
 70
     3
  9
$DIMTXSTY
  7
Standard
  9
$DIMAUNIT
 70
     0
  9
$DIMADEC
 70
     0
  9
$DIMALTRND
 40
0.0
  9
$DIMAZIN
 70
     0
  9
$DIMDSEP
 70
    44
  9
$DIMATFIT
 70
     3
  9
$DIMFRAC
 70
     0
  9
$DIMLDRBLK
  1

  9
$DIMLUNIT
 70
     2
  9
$DIMLWD
 70
    -2
  9
$DIMLWE
 70
    -2
  9
$DIMTMOVE
 70
     0
  9
$LUNITS
 70
     2
  9
$LUPREC
 70
     4
  9
$SKETCHINC
 40
1.0
  9
$FILLETRAD
 40
0.0
  9
$AUNITS
 70
     0
  9
$AUPREC
 70
     0
  9
$MENU
  1
.
  9
$ELEVATION
 40
0.0
  9
$PELEVATION
 40
0.0
  9
$THICKNESS
 40
0.0
  9
$LIMCHECK
 70
     0
  9
$CHAMFERA
 40
0.0
  9
$CHAMFERB
 40
0.0
  9
$CHAMFERC
 40
0.0
  9
$CHAMFERD
 40
0.0
  9
$SKPOLY
 70
     0
  9
$TDCREATE
 40
2458927.445579097
  9
$TDUCREATE
 40
2458927.320579098
  9
$TDUPDATE
 40
2458956.395622268
  9
$TDUUPDATE
 40
2458956.270622269
  9
$TDINDWG
 40
0.0029439236
  9
$TDUSRTIMER
 40
0.0029439236
  9
$USRTIMER
 70
     1
  9
$ANGBASE
 50
0.0
  9
$ANGDIR
 70
     0
  9
$PDMODE
 70
     0
  9
$PDSIZE
 40
0.0
  9
$PLINEWID
 40
0.0
  9
$SPLFRAME
 70
     0
  9
$SPLINETYPE
 70
     6
  9
$SPLINESEGS
 70
     8
  9
$HANDSEED
  5
1197
  9
$SURFTAB1
 70
     6
  9
$SURFTAB2
 70
     6
  9
$SURFTYPE
 70
     6
  9
$SURFU
 70
     6
  9
$SURFV
 70
     6
  9
$UCSBASE
  2

  9
$UCSNAME
  2

  9
$UCSORG
 10
0.0
 20
0.0
 30
0.0
  9
$UCSXDIR
 10
1.0
 20
0.0
 30
0.0
  9
$UCSYDIR
 10
0.0
 20
1.0
 30
0.0
  9
$UCSORTHOREF
  2

  9
$UCSORTHOVIEW
 70
     0
  9
$UCSORGTOP
 10
0.0
 20
0.0
 30
0.0
  9
$UCSORGBOTTOM
 10
0.0
 20
0.0
 30
0.0
  9
$UCSORGLEFT
 10
0.0
 20
0.0
 30
0.0
  9
$UCSORGRIGHT
 10
0.0
 20
0.0
 30
0.0
  9
$UCSORGFRONT
 10
0.0
 20
0.0
 30
0.0
  9
$UCSORGBACK
 10
0.0
 20
0.0
 30
0.0
  9
$PUCSBASE
  2

  9
$PUCSNAME
  2

  9
$PUCSORG
 10
0.0
 20
0.0
 30
0.0
  9
$PUCSXDIR
 10
1.0
 20
0.0
 30
0.0
  9
$PUCSYDIR
 10
0.0
 20
1.0
 30
0.0
  9
$PUCSORTHOREF
  2

  9
$PUCSORTHOVIEW
 70
     0
  9
$PUCSORGTOP
 10
0.0
 20
0.0
 30
0.0
  9
$PUCSORGBOTTOM
 10
0.0
 20
0.0
 30
0.0
  9
$PUCSORGLEFT
 10
0.0
 20
0.0
 30
0.0
  9
$PUCSORGRIGHT
 10
0.0
 20
0.0
 30
0.0
  9
$PUCSORGFRONT
 10
0.0
 20
0.0
 30
0.0
  9
$PUCSORGBACK
 10
0.0
 20
0.0
 30
0.0
  9
$USERI1
 70
     0
  9
$USERI2
 70
     0
  9
$USERI3
 70
     0
  9
$USERI4
 70
     0
  9
$USERI5
 70
     0
  9
$USERR1
 40
0.0
  9
$USERR2
 40
0.0
  9
$USERR3
 40
0.0
  9
$USERR4
 40
0.0
  9
$USERR5
 40
0.0
  9
$WORLDVIEW
 70
     1
  9
$SHADEDGE
 70
     3
  9
$SHADEDIF
 70
    70
  9
$TILEMODE
 70
     1
  9
$MAXACTVP
 70
    64
  9
$PINSBASE
 10
0.0
 20
0.0
 30
0.0
  9
$PLIMCHECK
 70
     0
  9
$PEXTMIN
 10
0.0
 20
0.0
 30
0.0
  9
$PEXTMAX
 10
0.0
 20
0.0
 30
0.0
  9
$PLIMMIN
 10
0.0
 20
0.0
  9
$PLIMMAX
 10
12.0
 20
9.0
  9
$UNITMODE
 70
     0
  9
$VISRETAIN
 70
     1
  9
$PLINEGEN
 70
     0
  9
$PSLTSCALE
 70
     1
  9
$TREEDEPTH
 70
  3020
  9
$CMLSTYLE
  2
Standard
  9
$CMLJUST
 70
     0
  9
$CMLSCALE
 40
20.0
  9
$PROXYGRAPHICS
 70
     1
  9
$MEASUREMENT
 70
     1
  9
$CELWEIGHT
370
    -1
  9
$ENDCAPS
280
     0
  9
$JOINSTYLE
280
     0
  9
$LWDISPLAY
290
     0
  9
$INSUNITS
 70
     4
  9
$HYPERLINKBASE
  1

  9
$STYLESHEET
  1

  9
$XEDIT
290
     1
  9
$CEPSNTYPE
380
     0
  9
$PSTYLEMODE
290
     1
  9
$FINGERPRINTGUID
  2
{A1D2D30C-D0F7-480F-8581-78DFEF63D970}
  9
$VERSIONGUID
  2
{2C8137D2-C2DD-45EF-B5C2-27EF7A7AFA98}
  9
$EXTNAMES
290
     1
  9
$PSVPSCALE
 40
0.0
  9
$OLESTARTUP
290
     0
  0
ENDSEC
  0
SECTION
  2
CLASSES
  0
CLASS
  1
ACDBDICTIONARYWDFLT
  2
AcDbDictionaryWithDefault
  3
ObjectDBX Classes
 90
        0
280
     0
281
     0
  0
CLASS
  1
ACDBPLACEHOLDER
  2
AcDbPlaceHolder
  3
ObjectDBX Classes
 90
        0
280
     0
281
     0
  0
CLASS
  1
LAYOUT
  2
AcDbLayout
  3
ObjectDBX Classes
 90
        0
280
     0
281
     0
  0
CLASS
  1
DICTIONARYVAR
  2
AcDbDictionaryVar
  3
ObjectDBX Classes
 90
        0
280
     0
281
     0
  0
CLASS
  1
TABLESTYLE
  2
AcDbTableStyle
  3
ObjectDBX Classes
 90
     4095
280
     0
281
     0
  0
CLASS
  1
MATERIAL
  2
AcDbMaterial
  3
ObjectDBX Classes
 90
     1153
280
     0
281
     0
  0
CLASS
  1
VISUALSTYLE
  2
AcDbVisualStyle
  3
ObjectDBX Classes
 90
     4095
280
     0
281
     0
  0
CLASS
  1
SCALE
  2
AcDbScale
  3
ObjectDBX Classes
 90
     1153
280
     0
281
     0
  0
CLASS
  1
MLEADERSTYLE
  2
AcDbMLeaderStyle
  3
ACDB_MLEADERSTYLE_CLASS
 90
     4095
280
     0
281
     0
  0
CLASS
  1
CELLSTYLEMAP
  2
AcDbCellStyleMap
  3
ObjectDBX Classes
 90
     1152
280
     0
281
     0
  0
CLASS
  1
DIMASSOC
  2
AcDbDimAssoc
  3
"AcDbDimAssoc|Product Desc:     AcDim ARX App For Dimension|Company:          Autodesk, Inc.|WEB Address:      www.autodesk.com"
 90
    32768
280
     0
281
     0
  0
ENDSEC
  0
SECTION
  2
TABLES
  0
TABLE
  2
VPORT
  5
8
330
0
100
AcDbSymbolTable
 70
     1
  0
VPORT
  5
EA
330
8
100
AcDbSymbolTableRecord
100
AcDbViewportTableRecord
  2
*Active
 70
     0
 10
0.0
 20
0.0
 11
1.0
 21
1.0
 12
2467.461903484626
 22
651.2939172288891
 13
0.0
 23
0.0
 14
10.0
 24
10.0
 15
10.0
 25
10.0
 16
0.0
 26
0.0
 36
1.0
 17
0.0
 27
0.0
 37
0.0
 40
148.2445886965566
 41
1.903110047846889
 42
50.0
 43
0.0
 44
0.0
 50
0.0
 51
0.0
 71
     0
 72
  1000
 73
     1
 74
     3
 75
     0
 76
     0
 77
     0
 78
     0
281
     0
 65
     1
110
0.0
120
0.0
130
0.0
111
1.0
121
0.0
131
0.0
112
0.0
122
1.0
132
0.0
 79
     0
146
0.0
  0
ENDTAB
  0
TABLE
  2
LTYPE
  5
5
330
0
100
AcDbSymbolTable
 70
     1
  0
LTYPE
  5
14
330
5
100
AcDbSymbolTableRecord
100
AcDbLinetypeTableRecord
  2
ByBlock
 70
     0
  3

 72
    65
 73
     0
 40
0.0
  0
LTYPE
  5
15
330
5
100
AcDbSymbolTableRecord
100
AcDbLinetypeTableRecord
  2
ByLayer
 70
     0
  3

 72
    65
 73
     0
 40
0.0
  0
LTYPE
  5
16
330
5
100
AcDbSymbolTableRecord
100
AcDbLinetypeTableRecord
  2
Continuous
 70
     0
  3
Solid line
 72
    65
 73
     0
 40
0.0
  0
ENDTAB
  0
TABLE
  2
LAYER
  5
2
330
0
100
AcDbSymbolTable
 70
     2
  0
LAYER
  5
10
102
{ACAD_XDICTIONARY
360
13C
102
}
330
2
100
AcDbSymbolTableRecord
100
AcDbLayerTableRecord
  2
0
 70
     0
 62
     7
  6
Continuous
370
    -3
390
F
  0
LAYER
  5
DF1
330
2
100
AcDbSymbolTableRecord
100
AcDbLayerTableRecord
  2
Defpoints
 70
     0
 62
     7
  6
Continuous
290
     0
370
    -3
390
F
  0
ENDTAB
  0
TABLE
  2
STYLE
  5
3
330
0
100
AcDbSymbolTable
 70
     2
  0
STYLE
  5
11
330
3
100
AcDbSymbolTableRecord
100
AcDbTextStyleTableRecord
  2
Standard
 70
     0
 40
0.0
 41
1.0
 50
0.0
 71
     0
 42
2.5
  3
txt
  4

  0
STYLE
  5
132
330
3
100
AcDbSymbolTableRecord
100
AcDbTextStyleTableRecord
  2
Annotative
 70
     0
 40
0.0
 41
1.0
 50
0.0
 71
     0
 42
2.5
  3
txt.shx
  4

1001
AcadAnnotative
1000
AnnotativeData
1002
{
1070
     1
1070
     1
1002
}
  0
ENDTAB
  0
TABLE
  2
VIEW
  5
6
330
0
100
AcDbSymbolTable
 70
     0
  0
ENDTAB
  0
TABLE
  2
UCS
  5
7
330
0
100
AcDbSymbolTable
 70
     0
  0
ENDTAB
  0
TABLE
  2
APPID
  5
9
330
0
100
AcDbSymbolTable
 70
     7
  0
APPID
  5
12
330
9
100
AcDbSymbolTableRecord
100
AcDbRegAppTableRecord
  2
ACAD
 70
     0
  0
APPID
  5
9E
330
9
100
AcDbSymbolTableRecord
100
AcDbRegAppTableRecord
  2
ACAD_PSEXT
 70
     0
  0
APPID
  5
133
330
9
100
AcDbSymbolTableRecord
100
AcDbRegAppTableRecord
  2
AcadAnnoPO
 70
     0
  0
APPID
  5
134
330
9
100
AcDbSymbolTableRecord
100
AcDbRegAppTableRecord
  2
AcadAnnotative
 70
     0
  0
APPID
  5
135
330
9
100
AcDbSymbolTableRecord
100
AcDbRegAppTableRecord
  2
ACAD_DSTYLE_DIMJAG
 70
     0
  0
APPID
  5
136
330
9
100
AcDbSymbolTableRecord
100
AcDbRegAppTableRecord
  2
ACAD_DSTYLE_DIMTALN
 70
     0
  0
APPID
  5
165
330
9
100
AcDbSymbolTableRecord
100
AcDbRegAppTableRecord
  2
ACAD_MLEADERVER
 70
     0
  0
ENDTAB
  0
TABLE
  2
DIMSTYLE
  5
A
330
0
100
AcDbSymbolTable
 70
     2
100
AcDbDimStyleTable
 71
     2
340
27
340
137
  0
DIMSTYLE
105
27
330
A
100
AcDbSymbolTableRecord
100
AcDbDimStyleTableRecord
  2
ISO-25
 70
     0
 41
2.5
 42
0.625
 43
3.75
 44
1.25
 73
     0
 74
     0
 77
     1
 78
     8
140
2.5
141
2.5
143
0.03937007874016
147
0.625
171
     3
172
     1
271
     2
272
     2
274
     3
278
    44
283
     0
284
     8
340
11
  0
DIMSTYLE
105
137
330
A
100
AcDbSymbolTableRecord
100
AcDbDimStyleTableRecord
  2
Annotative
 70
     0
 40
0.0
 41
2.5
 42
0.625
 43
3.75
 44
1.25
 73
     0
 74
     0
 77
     1
 78
     8
140
2.5
141
2.5
143
0.03937007874016
147
0.625
171
     3
172
     1
271
     2
272
     2
274
     3
278
    44
283
     0
284
     8
340
11
1001
AcadAnnotative
1000
AnnotativeData
1002
{
1070
     1
1070
     1
1002
}
1001
ACAD_DSTYLE_DIMJAG
1070
   388
1040
1.5
1001
ACAD_DSTYLE_DIMTALN
1070
   392
1070
     0
  0
ENDTAB
  0
TABLE
  2
BLOCK_RECORD
  5
1
330
0
100
AcDbSymbolTable
 70
     8
  0
BLOCK_RECORD
  5
1F
330
1
100
AcDbSymbolTableRecord
100
AcDbBlockTableRecord
  2
*Model_Space
340
22
  0
BLOCK_RECORD
  5
D2
330
1
100
AcDbSymbolTableRecord
100
AcDbBlockTableRecord
  2
*Paper_Space
340
D3
  0
BLOCK_RECORD
  5
D6
330
1
100
AcDbSymbolTableRecord
100
AcDbBlockTableRecord
  2
*Paper_Space0
340
D7
  0
BLOCK_RECORD
  5
E7B
330
1
100
AcDbSymbolTableRecord
100
AcDbBlockTableRecord
  2
1
340
0
310
2800000020000000200000000100080000000000000400000000000000000000000000000000000000000000000080000080000000808000800000008000800080800000C0C0C000C0DCC000F0CAA6000020400000206000002080000020A0000020C0000020E00000400000004020000040400000406000004080000040A0
310
000040C0000040E00000600000006020000060400000606000006080000060A0000060C0000060E00000800000008020000080400000806000008080000080A0000080C0000080E00000A0000000A0200000A0400000A0600000A0800000A0A00000A0C00000A0E00000C0000000C0200000C0400000C0600000C0800000C0
310
A00000C0C00000C0E00000E0000000E0200000E0400000E0600000E0800000E0A00000E0C00000E0E00040000000400020004000400040006000400080004000A0004000C0004000E00040200000402020004020400040206000402080004020A0004020C0004020E000404000004040200040404000404060004040800040
310
40A0004040C0004040E00040600000406020004060400040606000406080004060A0004060C0004060E00040800000408020004080400040806000408080004080A0004080C0004080E00040A0000040A0200040A0400040A0600040A0800040A0A00040A0C00040A0E00040C0000040C0200040C0400040C0600040C08000
310
40C0A00040C0C00040C0E00040E0000040E0200040E0400040E0600040E0800040E0A00040E0C00040E0E00080000000800020008000400080006000800080008000A0008000C0008000E00080200000802020008020400080206000802080008020A0008020C0008020E00080400000804020008040400080406000804080
310
008040A0008040C0008040E00080600000806020008060400080606000806080008060A0008060C0008060E00080800000808020008080400080806000808080008080A0008080C0008080E00080A0000080A0200080A0400080A0600080A0800080A0A00080A0C00080A0E00080C0000080C0200080C0400080C0600080C0
310
800080C0A00080C0C00080C0E00080E0000080E0200080E0400080E0600080E0800080E0A00080E0C00080E0E000C0000000C0002000C0004000C0006000C0008000C000A000C000C000C000E000C0200000C0202000C0204000C0206000C0208000C020A000C020C000C020E000C0400000C0402000C0404000C0406000C0
310
408000C040A000C040C000C040E000C0600000C0602000C0604000C0606000C0608000C060A000C060C000C060E000C0800000C0802000C0804000C0806000C0808000C080A000C080C000C080E000C0A00000C0A02000C0A04000C0A06000C0A08000C0A0A000C0A0C000C0A0E000C0C00000C0C02000C0C04000C0C06000
310
C0C08000C0C0A000F0FBFF00A4A0A000808080000000FF0000FF000000FFFF00FF000000FF00FF00FFFF0000FFFFFF0000000000000000000000000000000000000000000000000000000000000000000000000000000000FFFF000000000000000000000000FFFF00000000000000000000000000FFFFFFFFFFFF00000000
310
00000000000000FFFFFFFFFF000000000000000000FF00000000FFFF00000000000000000000FFFF00000000FF0000000000000000FF00000000FFFFFFFFFFFFFFFFFFFFFFFFFFFF00000000FF0000000000000000FF00000000000000000000000000000000000000000000FF0000000000000000FF000000000000000000
310
00000000000000000000000000FF0000000000000000FF00000000000000000000000000000000000000000000FF0000000000000000FF00000000000000000000000000000000000000000000FF0000000000000000FF00000000000000000000000000000000000000000000FF0000000000000000FF0000000000000000
310
0000000000000000000000000000FF0000000000000000FF00000000000000000000000000000000000000000000FF0000000000000000FF00000000000000000000000000000000000000000000FF0000000000000000FF00000000000000000000000000000000000000000000FF0000000000000000FF00000000000000
310
000000000000000000000000000000FF0000000000000000FF00000000000000000000000000000000000000000000FF0000000000000000FF00000000000000000000000000000000000000000000FF0000000000000000FF00000000000000000000000000000000000000000000FF0000000000000000FF000000000000
310
00000000000000000000000000000000FF0000000000000000FF00000000000000000000000000000000000000000000FF0000000000000000FF00000000000000000000000000000000000000000000FF0000000000000000FF00000000000000000000000000000000000000000000FF0000000000000000FF0000000000
310
0000000000000000000000000000000000FF0000000000000000FF00000000000000000000000000000000000000000000FF0000000000000000FF00000000000000000000000000000000000000000000FF0000000000000000FF000000000000000000FFFFFFFF000000000000000000FF000000000000000000FF000000
310
0000000000FF0000FF0000000000000000FF0000000000000000000000FF00000000000000FF0000FF00000000000000FF00000000000000000000000000FF000000000000FF0000FF000000000000FF000000000000000000000000000000FFFFFFFFFFFFFF0000FFFFFFFFFFFFFF00000000000000000000000000000000
310
FFFFFFFFFF000000000000FFFFFFFFFF00000000000000000000000000000000000000000000000000000000000000000000000000000000
102
{BLKREFS
331
EBC
102
}
1001
ACAD
1000
DesignCenter Data
1002
{
1070
     1
1070
     4
1002
}
  0
BLOCK_RECORD
  5
EBD
330
1
100
AcDbSymbolTableRecord
100
AcDbBlockTableRecord
  2
2
340
0
310
2800000020000000200000000100080000000000000400000000000000000000000000000000000000000000000080000080000000808000800000008000800080800000C0C0C000C0DCC000F0CAA6000020400000206000002080000020A0000020C0000020E00000400000004020000040400000406000004080000040A0
310
000040C0000040E00000600000006020000060400000606000006080000060A0000060C0000060E00000800000008020000080400000806000008080000080A0000080C0000080E00000A0000000A0200000A0400000A0600000A0800000A0A00000A0C00000A0E00000C0000000C0200000C0400000C0600000C0800000C0
310
A00000C0C00000C0E00000E0000000E0200000E0400000E0600000E0800000E0A00000E0C00000E0E00040000000400020004000400040006000400080004000A0004000C0004000E00040200000402020004020400040206000402080004020A0004020C0004020E000404000004040200040404000404060004040800040
310
40A0004040C0004040E00040600000406020004060400040606000406080004060A0004060C0004060E00040800000408020004080400040806000408080004080A0004080C0004080E00040A0000040A0200040A0400040A0600040A0800040A0A00040A0C00040A0E00040C0000040C0200040C0400040C0600040C08000
310
40C0A00040C0C00040C0E00040E0000040E0200040E0400040E0600040E0800040E0A00040E0C00040E0E00080000000800020008000400080006000800080008000A0008000C0008000E00080200000802020008020400080206000802080008020A0008020C0008020E00080400000804020008040400080406000804080
310
008040A0008040C0008040E00080600000806020008060400080606000806080008060A0008060C0008060E00080800000808020008080400080806000808080008080A0008080C0008080E00080A0000080A0200080A0400080A0600080A0800080A0A00080A0C00080A0E00080C0000080C0200080C0400080C0600080C0
310
800080C0A00080C0C00080C0E00080E0000080E0200080E0400080E0600080E0800080E0A00080E0C00080E0E000C0000000C0002000C0004000C0006000C0008000C000A000C000C000C000E000C0200000C0202000C0204000C0206000C0208000C020A000C020C000C020E000C0400000C0402000C0404000C0406000C0
310
408000C040A000C040C000C040E000C0600000C0602000C0604000C0606000C0608000C060A000C060C000C060E000C0800000C0802000C0804000C0806000C0808000C080A000C080C000C080E000C0A00000C0A02000C0A04000C0A06000C0A08000C0A0A000C0A0C000C0A0E000C0C00000C0C02000C0C04000C0C06000
310
C0C08000C0C0A000F0FBFF00A4A0A000808080000000FF0000FF000000FFFF00FF000000FF00FF00FFFF0000FFFFFF0000000000000000000000000000000000000000000000000000000000000000000000000000000000000000000000FFFFFFFF0000000000000000000000000000000000000000000000000000FFFFFF
310
FFFFFFFFFF000000000000000000000000000000000000000000000000FFFFFFFFFFFFFFFF000000000000000000000000000000000000000000000000FF00FFFFFFFF00FF000000000000000000000000000000000000000000000000FFFFFFFFFFFFFFFF000000000000000000000000000000000000000000000000FFFF
310
FFFFFFFFFFFF000000000000000000000000000000000000000000000000FF00FFFFFFFF00FF000000000000000000000000000000000000000000000000FF00FFFFFFFF00FF000000000000000000000000000000000000000000000000FF00FFFFFFFF00FF000000000000000000000000000000000000000000000000FF
310
00FF0000FF00FF000000000000000000000000000000000000000000000000FF00FFFFFFFF00FF000000000000000000000000000000000000000000000000FF000000000000FF000000000000000000000000000000000000000000000000FFFFFFFFFFFFFFFF000000000000000000000000000000000000000000000000
310
FFFFFFFFFFFFFFFF000000000000000000000000000000000000000000000000FFFF00000000FFFF000000000000000000000000000000000000000000000000FFFF00000000FFFF000000000000000000000000000000000000000000000000FFFF00000000FFFF0000000000000000000000000000000000000000000000
310
00FFFFFFFFFFFFFFFF000000000000000000000000000000000000000000000000FFFF00000000FFFF000000000000000000000000000000000000000000000000FFFFFFFFFFFFFFFF000000000000000000000000000000000000000000000000FF000000000000FF00000000000000000000000000000000000000000000
310
0000FF000000000000FF000000000000000000000000000000000000000000000000FF000000000000FF000000000000000000000000000000000000000000000000FF000000000000FF000000000000000000000000000000000000000000000000FFFFFFFFFFFFFFFF000000000000000000000000000000000000000000
310
000000FF00FFFFFFFF00FF000000000000000000000000000000000000000000000000FF00FFFFFFFF00FF000000000000000000000000000000000000000000000000FFFFFFFFFFFFFFFF000000000000000000000000000000000000000000000000FFFFFFFFFFFFFFFF0000000000000000000000000000000000000000
310
000000000000FFFFFFFF00000000000000000000000000000000000000000000000000000000000000000000000000000000000000000000
102
{BLKREFS
331
F86
102
}
1001
ACAD
1000
DesignCenter Data
1002
{
1070
     1
1070
     4
1002
}
  0
BLOCK_RECORD
  5
F87
330
1
100
AcDbSymbolTableRecord
100
AcDbBlockTableRecord
  2
3
340
0
310
2800000020000000200000000100080000000000000400000000000000000000000000000000000000000000000080000080000000808000800000008000800080800000C0C0C000C0DCC000F0CAA6000020400000206000002080000020A0000020C0000020E00000400000004020000040400000406000004080000040A0
310
000040C0000040E00000600000006020000060400000606000006080000060A0000060C0000060E00000800000008020000080400000806000008080000080A0000080C0000080E00000A0000000A0200000A0400000A0600000A0800000A0A00000A0C00000A0E00000C0000000C0200000C0400000C0600000C0800000C0
310
A00000C0C00000C0E00000E0000000E0200000E0400000E0600000E0800000E0A00000E0C00000E0E00040000000400020004000400040006000400080004000A0004000C0004000E00040200000402020004020400040206000402080004020A0004020C0004020E000404000004040200040404000404060004040800040
310
40A0004040C0004040E00040600000406020004060400040606000406080004060A0004060C0004060E00040800000408020004080400040806000408080004080A0004080C0004080E00040A0000040A0200040A0400040A0600040A0800040A0A00040A0C00040A0E00040C0000040C0200040C0400040C0600040C08000
310
40C0A00040C0C00040C0E00040E0000040E0200040E0400040E0600040E0800040E0A00040E0C00040E0E00080000000800020008000400080006000800080008000A0008000C0008000E00080200000802020008020400080206000802080008020A0008020C0008020E00080400000804020008040400080406000804080
310
008040A0008040C0008040E00080600000806020008060400080606000806080008060A0008060C0008060E00080800000808020008080400080806000808080008080A0008080C0008080E00080A0000080A0200080A0400080A0600080A0800080A0A00080A0C00080A0E00080C0000080C0200080C0400080C0600080C0
310
800080C0A00080C0C00080C0E00080E0000080E0200080E0400080E0600080E0800080E0A00080E0C00080E0E000C0000000C0002000C0004000C0006000C0008000C000A000C000C000C000E000C0200000C0202000C0204000C0206000C0208000C020A000C020C000C020E000C0400000C0402000C0404000C0406000C0
310
408000C040A000C040C000C040E000C0600000C0602000C0604000C0606000C0608000C060A000C060C000C060E000C0800000C0802000C0804000C0806000C0808000C080A000C080C000C080E000C0A00000C0A02000C0A04000C0A06000C0A08000C0A0A000C0A0C000C0A0E000C0C00000C0C02000C0C04000C0C06000
310
C0C08000C0C0A000F0FBFF00A4A0A000808080000000FF0000FF000000FFFF00FF000000FF00FF00FFFF0000FFFFFF0000000000000000000000000000000000000000000000000000000000000000000000000000000000000000000000000000000000000000000000000000000000000000000000000000000000000000
310
00000000000000000000000000000000000000000000000000000000000000000000000000000000000000000000000000000000000000000000000000000000000000000000000000000000000000000000000000000000000000000000000000000000000000000000000000000000000000000000000000000000000000
310
00000000000000000000000000000000000000000000000000000000000000000000000000000000000000000000000000000000000000000000000000000000000000000000000000000000000000000000000000000000000000000000000000000000000000000000000000000000000000000000000000000000000000
310
00000000000000000000000000000000000000000000000000000000000000000000000000000000000000000000000000000000FFFFFFFFFFFFFFFFFFFFFFFFFFFFFFFFFFFFFFFFFFFFFFFFFFFFFFFFFFFF0000FF000000FFFF0000FF000000FFFF0000FFFF000000FF0000FFFF000000FF0000FFFFFFFFFFFF00FFFFFF00
310
00FFFFFFFFFFFF0000FFFFFF00FFFFFFFFFFFF0000FFFFFFFFFFFFFFFF00FFFF00FFFFFFFFFFFF00FFFF00FFFFFFFFFFFFFFFF0000FFFFFFFFFFFFFFFF00FFFF00FFFFFFFFFFFF00FFFF00FFFFFFFFFFFFFFFF0000FFFFFFFFFFFFFFFFFFFFFF00FFFFFFFFFFFF00FFFFFFFFFFFFFFFFFFFFFF0000FF000000FFFF00FFFFFF
310
0000FFFF0000FFFF0000FFFFFF00FFFF000000FF0000FFFFFFFFFFFFFFFFFFFFFFFFFFFFFFFFFFFFFFFFFFFFFFFFFFFFFFFFFFFF000000000000000000000000000000000000000000000000000000000000000000000000000000000000000000000000000000000000000000000000000000000000000000000000000000
310
00000000000000000000000000000000000000000000000000000000000000000000000000000000000000000000000000000000000000000000000000000000000000000000000000000000000000000000000000000000000000000000000000000000000000000000000000000000000000000000000000000000000000
310
00000000000000000000000000000000000000000000000000000000000000000000000000000000000000000000000000000000000000000000000000000000000000000000000000000000000000000000000000000000000000000000000000000000000000000000000000000000000000000000000000000000000000
310
0000000000000000000000000000000000000000000000000000000000000000000000000000000000000000000000000000000000000000
102
{BLKREFS
331
1049
102
}
1001
ACAD
1000
DesignCenter Data
1002
{
1070
     1
1070
     4
1002
}
  0
BLOCK_RECORD
  5
104A
330
1
100
AcDbSymbolTableRecord
100
AcDbBlockTableRecord
  2
4
340
0
310
2800000020000000200000000100080000000000000400000000000000000000000000000000000000000000000080000080000000808000800000008000800080800000C0C0C000C0DCC000F0CAA6000020400000206000002080000020A0000020C0000020E00000400000004020000040400000406000004080000040A0
310
000040C0000040E00000600000006020000060400000606000006080000060A0000060C0000060E00000800000008020000080400000806000008080000080A0000080C0000080E00000A0000000A0200000A0400000A0600000A0800000A0A00000A0C00000A0E00000C0000000C0200000C0400000C0600000C0800000C0
310
A00000C0C00000C0E00000E0000000E0200000E0400000E0600000E0800000E0A00000E0C00000E0E00040000000400020004000400040006000400080004000A0004000C0004000E00040200000402020004020400040206000402080004020A0004020C0004020E000404000004040200040404000404060004040800040
310
40A0004040C0004040E00040600000406020004060400040606000406080004060A0004060C0004060E00040800000408020004080400040806000408080004080A0004080C0004080E00040A0000040A0200040A0400040A0600040A0800040A0A00040A0C00040A0E00040C0000040C0200040C0400040C0600040C08000
310
40C0A00040C0C00040C0E00040E0000040E0200040E0400040E0600040E0800040E0A00040E0C00040E0E00080000000800020008000400080006000800080008000A0008000C0008000E00080200000802020008020400080206000802080008020A0008020C0008020E00080400000804020008040400080406000804080
310
008040A0008040C0008040E00080600000806020008060400080606000806080008060A0008060C0008060E00080800000808020008080400080806000808080008080A0008080C0008080E00080A0000080A0200080A0400080A0600080A0800080A0A00080A0C00080A0E00080C0000080C0200080C0400080C0600080C0
310
800080C0A00080C0C00080C0E00080E0000080E0200080E0400080E0600080E0800080E0A00080E0C00080E0E000C0000000C0002000C0004000C0006000C0008000C000A000C000C000C000E000C0200000C0202000C0204000C0206000C0208000C020A000C020C000C020E000C0400000C0402000C0404000C0406000C0
310
408000C040A000C040C000C040E000C0600000C0602000C0604000C0606000C0608000C060A000C060C000C060E000C0800000C0802000C0804000C0806000C0808000C080A000C080C000C080E000C0A00000C0A02000C0A04000C0A06000C0A08000C0A0A000C0A0C000C0A0E000C0C00000C0C02000C0C04000C0C06000
310
C0C08000C0C0A000F0FBFF00A4A0A000808080000000FF0000FF000000FFFF00FF000000FF00FF00FFFF0000FFFFFF0000000000000000000000000000000000000000000000000000000000000000000000000000000000000000000000000000000000FF0000000000000000000000000000000000000000000000000000
310
00000000FFFFFFFF0000000000000000000000000000000000000000000000000000FFFF00FFFF00FFFF000000000000000000000000000000000000000000000000FF0000FFFFFFFFFF00000000000000000000000000000000000000000000FFFF000000FFFF00FFFF0000000000000000000000000000000000000000FF
310
FF0000000000FFFFFFFFFF000000000000000000000000000000FFFFFFFFFF00000000000000FFFFFFFFFF0000000000000000000000000000FF0000FFFF0000000000000000FFFF00FFFF0000000000000000000000000000FF000000000000000000000000FFFFFFFFFF0000000000000000000000000000FF0000000000
310
00000000000000FFFFFFFFFF0000000000000000000000000000FF000000000000000000000000FF0000FFFF0000000000000000000000000000FF000000000000000000000000FFA400FFFF0000000000000000000000000000FF000000000000000000000000FFFFFFFFFF0000000000000000000000000000FF00000000
310
0000000000000000FF00FFFFFF0000000000000000000000000000FF000000000000000000000000FF00FFFFFF0000000000000000000000000000FF000000000000000000000000FFFFFFFFFF0000000000000000000000000000FF000000000000000000000000FF0000FFFF0000000000000000000000000000FF000000
310
000000000000000000FF000000FF0000000000000000000000000000FF000000000000000000000000FF000000FF0000000000000000000000000000FF000000000000000000000000FFFFFF00FF0000000000000000000000000000FF0000000000000000000000FF00FFFFFFFF0000000000000000000000000000FF0000
310
00000000FF00000000FFFFFFFF00FF0000000000000000000000000000FF0000000000FFFF000000FFFFFFFFFFFF000000000000000000000000000000FF0000000000FFFF00FFFFFFFFFFFFFFFF000000000000000000000000000000FF0000000000FFFFFF00FFFFFFFFFFFF00000000000000000000000000000000FF00
310
00000000FFFFFFFFFFFFFFFFFF000000000000000000000000000000000000FF0000FFFFFFFFFFFFFFFFFF000000000000000000000000000000000000000000FFFFFFFFFFFF00FFFF000000000000000000000000000000000000000000000000FFFFFFFFFFFF000000000000000000000000000000000000000000000000
310
0000000000FF0000000000000000000000000000000000000000000000000000000000000000000000000000000000000000000000000000
102
{BLKREFS
331
117C
102
}
1001
ACAD
1000
DesignCenter Data
1002
{
1070
     1
1070
     4
1002
}
  0
ENDTAB
  0
ENDSEC
  0
SECTION
  2
BLOCKS
  0
BLOCK
  5
20
330
1F
100
AcDbEntity
  8
0
100
AcDbBlockBegin
  2
*Model_Space
 70
     0
 10
0.0
 20
0.0
 30
0.0
  3
*Model_Space
  1

  0
ENDBLK
  5
21
330
1F
100
AcDbEntity
  8
0
100
AcDbBlockEnd
  0
BLOCK
  5
D4
330
D2
100
AcDbEntity
 67
     1
  8
0
100
AcDbBlockBegin
  2
*Paper_Space
 70
     0
 10
0.0
 20
0.0
 30
0.0
  3
*Paper_Space
  1

  0
ENDBLK
  5
D5
330
D2
100
AcDbEntity
 67
     1
  8
0
100
AcDbBlockEnd
  0
BLOCK
  5
D8
330
D6
100
AcDbEntity
 67
     1
  8
0
100
AcDbBlockBegin
  2
*Paper_Space0
 70
     0
 10
0.0
 20
0.0
 30
0.0
  3
*Paper_Space0
  1

  0
ENDBLK
  5
D9
330
D6
100
AcDbEntity
 67
     1
  8
0
100
AcDbBlockEnd
  0
BLOCK
  5
E7C
330
E7B
100
AcDbEntity
  8
0
100
AcDbBlockBegin
  2
1
 70
     0
 10
0.0
 20
0.0
 30
0.0
  3
1
  1

  0
LINE
  5
E7E
330
E7B
100
AcDbEntity
  8
0
  6
Continuous
 62
     7
370
    15
100
AcDbLine
 10
2465.543647832757
 20
709.7696252748187
 30
0.0
 11
2465.543647832757
 21
706.7696848724859
 31
0.0
  0
LINE
  5
E7F
330
E7B
100
AcDbEntity
  8
0
  6
Continuous
 62
     7
370
    15
100
AcDbLine
 10
2476.543647773152
 20
706.7696848724859
 30
0.0
 11
2476.543647773152
 21
709.7716392598863
 31
0.0
  0
LINE
  5
E80
330
E7B
100
AcDbEntity
  8
0
  6
Continuous
 62
     7
370
    15
100
AcDbLine
 10
2435.702448315506
 20
709.7696252748187
 30
0.0
 11
2435.702448315506
 21
706.7696848724859
 31
0.0
  0
LINE
  5
E81
330
E7B
100
AcDbEntity
  8
0
  6
Continuous
 62
     7
370
    15
100
AcDbLine
 10
2446.702448255902
 20
706.7696848724859
 30
0.0
 11
2446.702448255902
 21
709.7716392598863
 31
0.0
  0
LINE
  5
E82
330
E7B
100
AcDbEntity
  8
0
  6
Continuous
 62
     7
370
    15
100
AcDbLine
 10
2454.873619205838
 20
637.8084016613479
 30
0.0
 11
2454.873619205838
 21
637.6083982758041
 31
0.0
  0
LINE
  5
E83
330
E7B
100
AcDbEntity
  8
0
  6
Continuous
 62
     7
370
    15
100
AcDbLine
 10
2457.373624272233
 20
637.6083982758041
 30
0.0
 11
2457.373624272233
 21
637.8084016613479
 31
0.0
  0
LINE
  5
E84
330
E7B
100
AcDbEntity
  8
0
  6
Continuous
 62
     7
370
    15
100
AcDbLine
 10
2438.373645372277
 20
637.8084016613479
 30
0.0
 11
2438.373645372277
 21
632.7696261577125
 31
0.0
  0
ARC
  5
E85
330
E7B
100
AcDbEntity
  8
0
  6
Continuous
 62
     7
370
    15
100
AcDbCircle
 10
2437.373646205375
 20
632.7696254353468
 30
0.0
 40
1.0
100
AcDbArc
 50
269.9999998498965
 51
359.9999998499031
  0
LINE
  5
E86
330
E7B
100
AcDbEntity
  8
0
  6
Continuous
 62
     7
370
    15
100
AcDbLine
 10
2430.585568375474
 20
631.7696241311546
 30
0.0
 11
2437.373643345719
 21
631.7696241311546
 31
0.0
  0
ARC
  5
E87
330
E7B
100
AcDbEntity
  8
0
  6
Continuous
 62
     7
370
    15
100
AcDbCircle
 10
2430.58556902116
 20
632.7696254531296
 30
0.0
 40
1.0
100
AcDbArc
 50
261.4961381276213
 51
269.9999998498965
  0
LINE
  5
E88
330
E7B
100
AcDbEntity
  8
0
  6
Continuous
 62
     7
370
    15
100
AcDbLine
 10
2424.975758023148
 20
632.5972867779251
 30
0.0
 11
2430.437689251786
 21
631.7806211881157
 31
0.0
  0
ARC
  5
E89
330
E7B
100
AcDbEntity
  8
0
  6
Continuous
 62
     7
370
    15
100
AcDbCircle
 10
2425.123634465379
 20
633.586293415816
 30
0.0
 40
1.000000000000511
100
AcDbArc
 50
179.999999849903
 51
261.4961381275689
  0
LINE
  5
E8A
330
E7B
100
AcDbEntity
  8
0
  6
Continuous
 62
     7
370
    15
100
AcDbLine
 10
2424.122472829705
 20
633.5862917475219
 30
0.0
 11
2424.123635120278
 21
633.5862917475219
 31
0.0
  0
LINE
  5
E8B
330
E7B
100
AcDbEntity
  8
0
  6
Continuous
 62
     7
370
    15
100
AcDbLine
 10
2424.122472829705
 20
697.2232643164511
 30
0.0
 11
2424.122472829705
 21
633.5862917475219
 31
0.0
  0
LINE
  5
E8C
330
E7B
100
AcDbEntity
  8
0
  6
Continuous
 62
     7
370
    15
100
AcDbLine
 10
2424.122472829705
 20
697.2232643164511
 30
0.0
 11
2424.123746878987
 21
697.2232643164511
 31
0.0
  0
ARC
  5
E8D
330
E7B
100
AcDbEntity
  8
0
  6
Continuous
 62
     7
370
    15
100
AcDbCircle
 10
2424.823730877631
 20
697.2232638956556
 30
0.0
 40
0.6999860757566432
100
AcDbArc
 50
135.0041100642849
 51
179.9999977682891
  0
LINE
  5
E8E
330
E7B
100
AcDbEntity
  8
0
  6
Continuous
 62
     7
370
    15
100
AcDbLine
 10
2433.086206741219
 20
706.4767538103092
 30
0.0
 11
2424.328727252369
 21
697.7181933469887
 31
0.0
  0
ARC
  5
E8F
330
E7B
100
AcDbEntity
  8
0
  6
Continuous
 62
     7
370
    15
100
AcDbCircle
 10
2433.793345355915
 20
705.7697047644219
 30
0.0
 40
0.9999801082027488
100
AcDbArc
 50
89.99999999994789
 51
135.0035393365234
  0
LINE
  5
E90
330
E7B
100
AcDbEntity
  8
0
  6
Continuous
 62
     7
370
    15
100
AcDbLine
 10
2451.323201484566
 20
706.7696848724859
 30
0.0
 11
2433.793348796254
 21
706.7696848724859
 31
0.0
  0
ARC
  5
E91
330
E7B
100
AcDbEntity
  8
0
  6
Continuous
 62
     7
370
    15
100
AcDbCircle
 10
2451.323203744965
 20
705.7697047644052
 30
0.0
 40
0.999980108203033
100
AcDbArc
 50
359.9999999999479
 51
89.99999999994789
  0
LINE
  5
E92
330
E7B
100
AcDbEntity
  8
0
  6
Continuous
 62
     7
370
    15
100
AcDbLine
 10
2452.323181159382
 20
697.0698782823797
 30
0.0
 11
2452.323181159382
 21
705.769704712909
 31
0.0
  0
ARC
  5
E93
330
E7B
100
AcDbEntity
  8
0
  6
Continuous
 62
     7
370
    15
100
AcDbCircle
 10
2452.62317788562
 20
697.069877823038
 30
0.0
 40
0.2999940324608872
100
AcDbArc
 50
179.9999999999088
 51
269.9999999999479
  0
LINE
  5
E94
330
E7B
100
AcDbEntity
  8
0
  6
Continuous
 62
     7
370
    15
100
AcDbLine
 10
2459.922907478695
 20
697.0698782823797
 30
0.0
 11
2459.922907478695
 21
705.769704712909
 31
0.0
  0
ARC
  5
E95
330
E7B
100
AcDbEntity
  8
0
  6
Continuous
 62
     7
370
    15
100
AcDbCircle
 10
2460.922890783033
 20
705.7697047643963
 30
0.0
 40
0.9999801082030046
100
AcDbArc
 50
89.99999999994789
 51
179.9999999999479
  0
LINE
  5
E96
330
E7B
100
AcDbEntity
  8
0
  6
Continuous
 62
     7
370
    15
100
AcDbLine
 10
2460.922887153512
 20
706.7696848724859
 30
0.0
 11
2478.452747292405
 21
706.7696848724859
 31
0.0
  0
ARC
  5
E97
330
E7B
100
AcDbEntity
  8
0
  6
Continuous
 62
     7
370
    15
100
AcDbCircle
 10
2478.452749172083
 20
705.7697047643805
 30
0.0
 40
0.9999801082027772
100
AcDbArc
 50
44.99646066336608
 51
89.99999999994789
  0
LINE
  5
E98
330
E7B
100
AcDbEntity
  8
0
  6
Continuous
 62
     7
370
    15
100
AcDbLine
 10
2479.159881896859
 20
706.4767538103092
 30
0.0
 11
2487.917368836289
 21
697.7181933469887
 31
0.0
  0
ARC
  5
E99
330
E7B
100
AcDbEntity
  8
0
  6
Continuous
 62
     7
370
    15
100
AcDbCircle
 10
2487.422363650351
 20
697.2232638955977
 30
0.0
 40
0.6999860757566433
100
AcDbArc
 50
0.000002231600112
 51
44.9958899356091
  0
LINE
  5
E9A
330
E7B
100
AcDbEntity
  8
0
  6
Continuous
 62
     7
370
    15
100
AcDbLine
 10
2488.123615808373
 20
697.2232643164511
 30
0.0
 11
2488.122349209672
 21
697.2232643164511
 31
0.0
  0
LINE
  5
E9B
330
E7B
100
AcDbEntity
  8
0
  6
Continuous
 62
     7
370
    15
100
AcDbLine
 10
2488.123615808373
 20
697.2232643164511
 30
0.0
 11
2488.123615808373
 21
633.5814563207145
 31
0.0
  0
ARC
  5
E9C
330
E7B
100
AcDbEntity
  8
0
  6
Continuous
 62
     7
370
    15
100
AcDbCircle
 10
2487.123634465391
 20
633.586289742025
 30
0.0
 40
0.9999999999998408
100
AcDbArc
 50
278.5038615715742
 51
359.7232629788778
  0
LINE
  5
E9D
330
E7B
100
AcDbEntity
  8
0
  6
Continuous
 62
     7
370
    15
100
AcDbLine
 10
2487.271507806664
 20
632.5972867779251
 30
0.0
 11
2481.809606380349
 21
631.7806211881157
 31
0.0
  0
ARC
  5
E9E
330
E7B
100
AcDbEntity
  8
0
  6
Continuous
 62
     7
370
    15
100
AcDbCircle
 10
2481.661723389238
 20
632.7696253193253
 30
0.0
 40
0.9999999999999147
100
AcDbArc
 50
269.9999998498705
 51
278.5038615716
  0
LINE
  5
E9F
330
E7B
100
AcDbEntity
  8
0
  6
Continuous
 62
     7
370
    15
100
AcDbLine
 10
2481.661727256661
 20
631.7696241311546
 30
0.0
 11
2474.873644835835
 21
631.7696241311546
 31
0.0
  0
ARC
  5
EA0
330
E7B
100
AcDbEntity
  8
0
  6
Continuous
 62
     7
370
    15
100
AcDbCircle
 10
2474.873646205376
 20
632.769625337108
 30
0.0
 40
1.0
100
AcDbArc
 50
179.9999998498965
 51
269.9999998498965
  0
LINE
  5
EA1
330
E7B
100
AcDbEntity
  8
0
  6
Continuous
 62
     7
370
    15
100
AcDbLine
 10
2473.873642809277
 20
637.8084016613479
 30
0.0
 11
2473.873642809277
 21
632.7696261577125
 31
0.0
  0
LINE
  5
EA2
330
E7B
100
AcDbEntity
  8
0
  6
Continuous
 62
     7
370
    15
100
AcDbLine
 10
2473.873642809277
 20
637.8084016613479
 30
0.0
 11
2438.373645372277
 21
637.8084016613479
 31
0.0
  0
ARC
  5
EA3
330
E7B
100
AcDbEntity
  8
0
  6
Continuous
 62
     7
370
    15
100
AcDbCircle
 10
2459.622916642361
 20
697.0698778230315
 30
0.0
 40
0.2999940324608872
100
AcDbArc
 50
269.9999999999479
 51
359.999999999987
  0
LINE
  5
EA4
330
E7B
100
AcDbEntity
  8
0
  6
Continuous
 62
     7
370
    15
100
AcDbLine
 10
2452.623178787117
 20
696.7698834486123
 30
0.0
 11
2459.622917301541
 21
696.7698834486123
 31
0.0
  0
LINE
  5
EA5
330
E7B
100
AcDbEntity
  8
0
  6
Continuous
 62
     7
370
    15
100
AcDbLine
 10
2465.543647832757
 20
709.7696252748187
 30
0.0
 11
2476.543647773152
 21
709.7696252748187
 31
0.0
  0
LINE
  5
EA6
330
E7B
100
AcDbEntity
  8
0
  6
Continuous
 62
     7
370
    15
100
AcDbLine
 10
2446.702448255902
 20
709.7696252748187
 30
0.0
 11
2435.702448315506
 21
709.7696252748187
 31
0.0
  0
LINE
  5
EA7
330
E7B
100
AcDbEntity
  8
0
  6
Continuous
 62
     7
370
    15
100
AcDbLine
 10
2438.873621494656
 20
635.7276583565623
 30
0.0
 11
2438.873621494656
 21
637.8084016613479
 31
0.0
  0
LINE
  5
EA8
330
E7B
100
AcDbEntity
  8
0
  6
Continuous
 62
     7
370
    15
100
AcDbLine
 10
2440.723625547772
 20
635.2252332143303
 30
0.0
 11
2438.873621494656
 21
635.7276583565623
 31
0.0
  0
LINE
  5
EA9
330
E7B
100
AcDbEntity
  8
0
  6
Continuous
 62
     7
370
    15
100
AcDbLine
 10
2440.723625547772
 20
634.4752354197021
 30
0.0
 11
2440.723625547772
 21
635.2252332143303
 31
0.0
  0
ARC
  5
EAA
330
E7B
100
AcDbEntity
  8
0
  6
Continuous
 62
     7
370
    15
100
AcDbCircle
 10
2414.919832678575
 20
649.7776682139959
 30
0.0
 40
30.00000000000013
100
AcDbArc
 50
318.5985244374397
 51
329.3307706686452
  0
ARC
  5
EAB
330
E7B
100
AcDbEntity
  8
0
  6
Continuous
 62
     7
370
    15
100
AcDbCircle
 10
2437.047606809496
 20
630.2683983145104
 30
0.0
 40
0.500000000000199
100
AcDbArc
 50
270.0000001501035
 51
318.5985244374668
  0
LINE
  5
EAC
330
E7B
100
AcDbEntity
  8
0
  6
Continuous
 62
     7
370
    15
100
AcDbLine
 10
2434.763935930615
 20
629.7683981828209
 30
0.0
 11
2437.047605938797
 21
629.7683981828209
 31
0.0
  0
ARC
  5
EAD
330
E7B
100
AcDbEntity
  8
0
  6
Continuous
 62
     7
370
    15
100
AcDbCircle
 10
2434.763939047153
 20
630.268398308528
 30
0.0
 40
0.5
100
AcDbArc
 50
194.9999854776251
 51
270.0000001501035
  0
LINE
  5
EAE
330
E7B
100
AcDbEntity
  8
0
  6
Continuous
 62
     7
370
    15
100
AcDbLine
 10
2433.844049997216
 20
631.7696241311546
 30
0.0
 11
2434.280974395161
 21
630.1389900617119
 31
0.0
  0
LINE
  5
EAF
330
E7B
100
AcDbEntity
  8
0
  6
Continuous
 62
     7
370
    15
100
AcDbLine
 10
2477.966269082909
 20
630.1389900617119
 30
0.0
 11
2478.403193480855
 21
631.7696241311546
 31
0.0
  0
ARC
  5
EB0
330
E7B
100
AcDbEntity
  8
0
  6
Continuous
 62
     7
370
    15
100
AcDbCircle
 10
2477.483306395588
 20
630.2683984204422
 30
0.0
 40
0.500000000000081
100
AcDbArc
 50
270.0000001501035
 51
345.0000148225836
  0
LINE
  5
EB1
330
E7B
100
AcDbEntity
  8
0
  6
Continuous
 62
     7
370
    15
100
AcDbLine
 10
2475.199637539273
 20
629.7683981828209
 30
0.0
 11
2477.483307547455
 21
629.7683981828209
 31
0.0
  0
ARC
  5
EB2
330
E7B
100
AcDbEntity
  8
0
  6
Continuous
 62
     7
370
    15
100
AcDbCircle
 10
2475.199638633246
 20
630.2683984144593
 30
0.0
 40
0.5000000000001137
100
AcDbArc
 50
221.4014758623022
 51
270.0000001501035
  0
ARC
  5
EB3
330
E7B
100
AcDbEntity
  8
0
  6
Continuous
 62
     7
370
    15
100
AcDbCircle
 10
2497.327412661948
 20
649.7776684298834
 30
0.0
 40
30.00000000000009
100
AcDbArc
 50
210.6692296315569
 51
221.4014758627459
  0
LINE
  5
EB4
330
E7B
100
AcDbEntity
  8
0
  6
Continuous
 62
     7
370
    15
100
AcDbLine
 10
2473.373621983415
 20
637.8084016613479
 30
0.0
 11
2473.373621983415
 21
635.7276587635992
 31
0.0
  0
LINE
  5
EB5
330
E7B
100
AcDbEntity
  8
0
  6
Continuous
 62
     7
370
    15
100
AcDbLine
 10
2471.523625380879
 20
635.2252406649109
 30
0.0
 11
2471.523625380879
 21
634.4752354197021
 31
0.0
  0
LINE
  5
EB6
330
E7B
100
AcDbEntity
  8
0
  6
Continuous
 62
     7
370
    15
100
AcDbLine
 10
2473.373621983415
 20
635.727658763599
 30
0.0
 11
2471.523625380879
 21
635.2252406649109
 31
0.0
  0
LINE
  5
EB7
330
E7B
100
AcDbEntity
  8
0
  6
Continuous
 62
     7
370
    15
100
AcDbLine
 10
2454.873619205838
 20
637.6083982758041
 30
0.0
 11
2457.373624272233
 21
637.6083982758041
 31
0.0
  0
LINE
  5
EB8
330
E7B
100
AcDbEntity
  8
0
  6
Continuous
 62
     7
370
    15
100
AcDbLine
 10
2424.122472829705
 20
633.5815233759399
 30
0.0
 11
2424.123635120278
 21
633.5815233759399
 31
0.0
  0
LINE
  5
EB9
330
E7B
100
AcDbEntity
  8
0
  6
Continuous
 62
     7
370
    15
100
AcDbLine
 10
2424.122472829705
 20
633.5815233759399
 30
0.0
 11
2424.122472829705
 21
633.5862917475219
 31
0.0
  0
LINE
  5
EBA
330
E7B
100
AcDbEntity
  8
0
  6
Continuous
 62
     7
370
    15
100
AcDbLine
 10
2424.122472829705
 20
633.5815159253593
 30
0.0
 11
2424.123620219117
 21
633.5815159253593
 31
0.0
  0
LINE
  5
EBB
330
E7B
100
AcDbEntity
  8
0
  6
Continuous
 62
     7
370
    15
100
AcDbLine
 10
2424.122472829705
 20
633.5815159253593
 30
0.0
 11
2424.122472829705
 21
633.5815233759399
 31
0.0
  0
ENDBLK
  5
E7D
330
E7B
100
AcDbEntity
  8
0
100
AcDbBlockEnd
  0
BLOCK
  5
EBE
330
EBD
100
AcDbEntity
  8
0
100
AcDbBlockBegin
  2
2
 70
     0
 10
0.0
 20
0.0
 30
0.0
  3
2
  1

  0
LINE
  5
EC0
330
EBD
100
AcDbEntity
  8
0
  6
Continuous
 62
     7
370
    15
100
AcDbLine
 10
2346.014590922766
 20
698.2146311200972
 30
0.0
 11
2352.254590008431
 21
698.2146311200972
 31
0.0
  0
LINE
  5
EC1
330
EBD
100
AcDbEntity
  8
0
  6
Continuous
 62
     7
370
    15
100
AcDbLine
 10
2352.254590008431
 20
699.9156252130683
 30
0.0
 11
2346.014590922766
 21
699.9156252130683
 31
0.0
  0
LINE
  5
EC2
330
EBD
100
AcDbEntity
  8
0
  6
Continuous
 62
     7
370
    15
100
AcDbLine
 10
2346.014590922766
 20
700.4363849408742
 30
0.0
 11
2352.254590008431
 21
700.4363849408742
 31
0.0
  0
LINE
  5
EC3
330
EBD
100
AcDbEntity
  8
0
  6
Continuous
 62
     7
370
    15
100
AcDbLine
 10
2352.254590008431
 20
702.1373790338452
 30
0.0
 11
2346.014590922766
 21
702.1373790338452
 31
0.0
  0
LINE
  5
EC4
330
EBD
100
AcDbEntity
  8
0
  6
Continuous
 62
     7
370
    15
100
AcDbLine
 10
2346.014590922766
 20
702.6581382959898
 30
0.0
 11
2352.254590008431
 21
702.6581382959898
 31
0.0
  0
LINE
  5
EC5
330
EBD
100
AcDbEntity
  8
0
  6
Continuous
 62
     7
370
    15
100
AcDbLine
 10
2352.254590008431
 20
704.3625959776159
 30
0.0
 11
2346.014590922766
 21
704.3625959776159
 31
0.0
  0
LINE
  5
EC6
330
EBD
100
AcDbEntity
  8
0
  6
Continuous
 62
     7
370
    15
100
AcDbLine
 10
2346.014590922766
 20
704.8833555890064
 30
0.0
 11
2352.254590008431
 21
704.8833555890064
 31
0.0
  0
LINE
  5
EC7
330
EBD
100
AcDbEntity
  8
0
  6
Continuous
 62
     7
370
    15
100
AcDbLine
 10
2343.634413544112
 20
709.7696252748187
 30
0.0
 11
2343.634413544112
 21
706.7696848724859
 31
0.0
  0
LINE
  5
EC8
330
EBD
100
AcDbEntity
  8
0
  6
Continuous
 62
     7
370
    15
100
AcDbLine
 10
2354.634413484507
 20
706.7696848724859
 30
0.0
 11
2354.634413484507
 21
709.7716392598863
 31
0.0
  0
SPLINE
  5
EC9
330
EBD
100
AcDbEntity
  8
0
  6
Continuous
 62
     7
370
    15
100
AcDbSpline
210
0.0
220
0.0
230
1.0
 70
    24
 71
     3
 72
     8
 73
     4
 74
     0
 42
0.0000000001
 43
0.0000000001
 40
0.0
 40
0.0
 40
0.0
 40
0.0
 40
1.0
 40
1.0
 40
1.0
 40
1.0
 10
2349.134412794978
 20
697.5479299955177
 30
0.0
 10
2349.134412794978
 20
697.4482087038901
 30
0.0
 10
2349.134412794978
 20
697.3357306730958
 30
0.0
 10
2349.134412794978
 20
697.2231474533946
 30
0.0
  0
SPLINE
  5
ECA
330
EBD
100
AcDbEntity
  8
0
  6
Continuous
 62
     7
370
    15
100
AcDbSpline
210
0.0
220
0.0
230
1.0
 70
    24
 71
     3
 72
     8
 73
     4
 74
     0
 42
0.0000000001
 43
0.0000000001
 40
0.0
 40
0.0
 40
0.0
 40
0.0
 40
1.0
 40
1.0
 40
1.0
 40
1.0
 10
2349.134412794977
 20
697.7180540194193
 30
0.0
 10
2349.134412794977
 20
697.6680948125929
 30
0.0
 10
2349.134412794977
 20
697.6105186746524
 30
0.0
 10
2349.134412794977
 20
697.5479299955177
 30
0.0
  0
LINE
  5
ECB
330
EBD
100
AcDbEntity
  8
0
  6
Continuous
 62
     7
370
    15
100
AcDbLine
 10
2349.13441351431
 20
697.7180536486025
 30
0.0
 11
2357.634233299666
 21
697.7179698295708
 31
0.0
  0
LINE
  5
ECC
330
EBD
100
AcDbEntity
  8
0
  6
Continuous
 62
     7
370
    15
100
AcDbLine
 10
2358.134234312945
 20
697.7179698295708
 30
0.0
 11
2357.634233299666
 21
697.7179698295708
 31
0.0
  0
LINE
  5
ECD
330
EBD
100
AcDbEntity
  8
0
  6
Continuous
 62
     7
370
    15
100
AcDbLine
 10
2358.134234312945
 20
697.7179698295708
 30
0.0
 11
2358.134234312945
 21
697.2230305544849
 31
0.0
  0
LINE
  5
ECE
330
EBD
100
AcDbEntity
  8
0
  6
Continuous
 62
     7
370
    15
100
AcDbLine
 10
2340.134592715674
 20
697.7181933469887
 30
0.0
 11
2340.134592715674
 21
697.2232643164511
 31
0.0
  0
LINE
  5
ECF
330
EBD
100
AcDbEntity
  8
0
  6
Continuous
 62
     7
370
    15
100
AcDbLine
 10
2340.134592715674
 20
697.7181933469887
 30
0.0
 11
2340.634590003663
 21
697.7181933469887
 31
0.0
  0
LINE
  5
ED0
330
EBD
100
AcDbEntity
  8
0
  6
Continuous
 62
     7
370
    15
100
AcDbLine
 10
2349.13441351431
 20
697.718109527957
 30
0.0
 11
2340.634590003663
 21
697.7181933469887
 31
0.0
  0
LINE
  5
ED1
330
EBD
100
AcDbEntity
  8
0
  6
Continuous
 62
     7
370
    15
100
AcDbLine
 10
2356.434592966014
 20
643.7083972267624
 30
0.0
 11
2355.434590939456
 21
643.7083972267624
 31
0.0
  0
LINE
  5
ED2
330
EBD
100
AcDbEntity
  8
0
  6
Continuous
 62
     7
370
    15
100
AcDbLine
 10
2355.434590939456
 20
643.7083972267624
 30
0.0
 11
2355.434590939456
 21
643.7130091361519
 31
0.0
  0
LINE
  5
ED3
330
EBD
100
AcDbEntity
  8
0
  6
Continuous
 62
     7
370
    15
100
AcDbLine
 10
2354.43423501032
 20
643.7130091361519
 30
0.0
 11
2355.434590939456
 21
643.7130091361519
 31
0.0
  0
LINE
  5
ED4
330
EBD
100
AcDbEntity
  8
0
  6
Continuous
 62
     7
370
    15
100
AcDbLine
 10
2354.43423501032
 20
643.7130091361519
 30
0.0
 11
2354.43423501032
 21
644.2083982400413
 31
0.0
  0
LINE
  5
ED5
330
EBD
100
AcDbEntity
  8
0
  6
Continuous
 62
     7
370
    15
100
AcDbLine
 10
2354.43423501032
 20
644.2083982400413
 30
0.0
 11
2355.434590939456
 21
644.2083982400413
 31
0.0
  0
LINE
  5
ED6
330
EBD
100
AcDbEntity
  8
0
  6
Continuous
 62
     7
370
    15
100
AcDbLine
 10
2355.434590939456
 20
644.2083982400413
 30
0.0
 11
2356.434592966014
 21
644.2083982400413
 31
0.0
  0
LINE
  5
ED7
330
EBD
100
AcDbEntity
  8
0
  6
Continuous
 62
     7
370
    15
100
AcDbLine
 10
2341.834591690474
 20
644.2083982400413
 30
0.0
 11
2343.8345920183
 21
644.2083982400413
 31
0.0
  0
LINE
  5
ED8
330
EBD
100
AcDbEntity
  8
0
  6
Continuous
 62
     7
370
    15
100
AcDbLine
 10
2341.834591690474
 20
644.2083982400413
 30
0.0
 11
2341.834591690474
 21
638.8083962373253
 31
0.0
  0
LINE
  5
ED9
330
EBD
100
AcDbEntity
  8
0
  6
Continuous
 62
     7
370
    15
100
AcDbLine
 10
2343.8345920183
 20
638.8083962373253
 30
0.0
 11
2341.834591690474
 21
638.8083962373253
 31
0.0
  0
LINE
  5
EDA
330
EBD
100
AcDbEntity
  8
0
  6
Continuous
 62
     7
370
    15
100
AcDbLine
 10
2343.8345920183
 20
638.8083962373253
 30
0.0
 11
2343.8345920183
 21
637.8084016613479
 31
0.0
  0
LINE
  5
EDB
330
EBD
100
AcDbEntity
  8
0
  6
Continuous
 62
     7
370
    15
100
AcDbLine
 10
2349.134592328244
 20
637.8084016613479
 30
0.0
 11
2343.8345920183
 21
637.8084016613479
 31
0.0
  0
LINE
  5
EDC
330
EBD
100
AcDbEntity
  8
0
  6
Continuous
 62
     7
370
    15
100
AcDbLine
 10
2354.434592638188
 20
637.8084016613479
 30
0.0
 11
2349.134592328244
 21
637.8084016613479
 31
0.0
  0
LINE
  5
EDD
330
EBD
100
AcDbEntity
  8
0
  6
Continuous
 62
     7
370
    15
100
AcDbLine
 10
2354.434592638188
 20
638.8083962373253
 30
0.0
 11
2354.434592638188
 21
637.8084016613479
 31
0.0
  0
LINE
  5
EDE
330
EBD
100
AcDbEntity
  8
0
  6
Continuous
 62
     7
370
    15
100
AcDbLine
 10
2356.434592966014
 20
638.8083962373253
 30
0.0
 11
2354.434592638188
 21
638.8083962373253
 31
0.0
  0
LINE
  5
EDF
330
EBD
100
AcDbEntity
  8
0
  6
Continuous
 62
     7
370
    15
100
AcDbLine
 10
2356.434592966014
 20
644.2083982400413
 30
0.0
 11
2356.434592966014
 21
638.8083962373253
 31
0.0
  0
LINE
  5
EE0
330
EBD
100
AcDbEntity
  8
0
  6
Continuous
 62
     7
370
    15
100
AcDbLine
 10
2354.43423501032
 20
657.2733936480995
 30
0.0
 11
2354.43423501032
 21
644.2083982400413
 31
0.0
  0
LINE
  5
EE1
330
EBD
100
AcDbEntity
  8
0
  6
Continuous
 62
     7
370
    15
100
AcDbLine
 10
2343.8345920183
 20
657.2733936480995
 30
0.0
 11
2354.43423501032
 21
657.2733936480995
 31
0.0
  0
LINE
  5
EE2
330
EBD
100
AcDbEntity
  8
0
  6
Continuous
 62
     7
370
    15
100
AcDbLine
 10
2343.8345920183
 20
657.2733936480995
 30
0.0
 11
2343.8345920183
 21
644.2083982400413
 31
0.0
  0
LINE
  5
EE3
330
EBD
100
AcDbEntity
  8
0
  6
Continuous
 62
     7
370
    15
100
AcDbLine
 10
2349.134592328244
 20
633.5862917475219
 30
0.0
 11
2358.134234312945
 21
633.5862917475219
 31
0.0
  0
LINE
  5
EE4
330
EBD
100
AcDbEntity
  8
0
  6
Continuous
 62
     7
370
    15
100
AcDbLine
 10
2349.134592328244
 20
633.5814563207145
 30
0.0
 11
2349.134592328244
 21
633.5862917475219
 31
0.0
  0
LINE
  5
EE5
330
EBD
100
AcDbEntity
  8
0
  6
Continuous
 62
     7
370
    15
100
AcDbLine
 10
2349.134592328244
 20
633.5814563207145
 30
0.0
 11
2340.134592715674
 21
633.5814563207145
 31
0.0
  0
LINE
  5
EE6
330
EBD
100
AcDbEntity
  8
0
  6
Continuous
 62
     7
370
    15
100
AcDbLine
 10
2340.134592715674
 20
697.2232643164511
 30
0.0
 11
2340.134592715674
 21
633.5814563207145
 31
0.0
  0
LINE
  5
EE7
330
EBD
100
AcDbEntity
  8
0
  6
Continuous
 62
     7
370
    15
100
AcDbLine
 10
2358.134234312945
 20
697.2230305544849
 30
0.0
 11
2358.134234312945
 21
633.5862917475219
 31
0.0
  0
LINE
  5
EE8
330
EBD
100
AcDbEntity
  8
0
  6
Continuous
 62
     7
370
    15
100
AcDbLine
 10
2357.334231946641
 20
681.8128624580618
 30
0.0
 11
2340.93423372882
 21
681.8128624580618
 31
0.0
  0
LINE
  5
EE9
330
EBD
100
AcDbEntity
  8
0
  6
Continuous
 62
     7
370
    15
100
AcDbLine
 10
2340.93423372882
 20
681.8128624580618
 30
0.0
 11
2340.93423372882
 21
661.2774995736595
 31
0.0
  0
LINE
  5
EEA
330
EBD
100
AcDbEntity
  8
0
  6
Continuous
 62
     7
370
    15
100
AcDbLine
 10
2340.93423372882
 20
661.2774995736595
 30
0.0
 11
2357.334231946641
 21
661.2774995736595
 31
0.0
  0
LINE
  5
EEB
330
EBD
100
AcDbEntity
  8
0
  6
Continuous
 62
     7
370
    15
100
AcDbLine
 10
2357.334231946641
 20
661.2774995736595
 30
0.0
 11
2357.334231946641
 21
681.8128624580618
 31
0.0
  0
LINE
  5
EEC
330
EBD
100
AcDbEntity
  8
0
  6
Continuous
 62
     7
370
    15
100
AcDbLine
 10
2358.134234312945
 20
697.2230305544849
 30
0.0
 11
2340.134592715674
 21
697.2232643164511
 31
0.0
  0
SPLINE
  5
EED
330
EBD
100
AcDbEntity
  8
0
  6
Continuous
 62
     7
370
    15
100
AcDbSpline
210
0.0
220
0.0
230
1.0
 70
    24
 71
     3
 72
     8
 73
     4
 74
     0
 42
0.0000000001
 43
0.0000000001
 40
0.0
 40
0.0
 40
0.0
 40
0.0
 40
1.0
 40
1.0
 40
1.0
 40
1.0
 10
2349.134591821148
 20
638.308343448645
 30
0.0
 10
2349.134591821148
 20
638.3083798917119
 30
0.0
 10
2349.134591821148
 20
638.3083981142412
 30
0.0
 10
2349.134591821148
 20
638.3083981142412
 30
0.0
  0
LINE
  5
EEE
330
EBD
100
AcDbEntity
  8
0
  6
Continuous
 62
     7
370
    15
100
AcDbLine
 10
2349.134592328244
 20
638.3083952240463
 30
0.0
 11
2354.434592638188
 21
638.3083952240463
 31
0.0
  0
SPLINE
  5
EEF
330
EBD
100
AcDbEntity
  8
0
  6
Continuous
 62
     7
370
    15
100
AcDbSpline
210
0.0
220
0.0
230
1.0
 70
    24
 71
     3
 72
    10
 73
     6
 74
     0
 42
0.0000000001
 43
0.0000000001
 40
0.0
 40
0.0
 40
0.0
 40
0.0
 40
0.5
 40
0.5
 40
1.0
 40
1.0
 40
1.0
 40
1.0
 10
2349.134591821148
 20
637.8083982832781
 30
0.0
 10
2349.134591821148
 20
637.9380656680073
 30
0.0
 10
2349.134591821148
 20
638.0669637856723
 30
0.0
 10
2349.134591821148
 20
638.2516919390687
 30
0.0
 10
2349.134591821148
 20
638.3064260786737
 30
0.0
 10
2349.134591821148
 20
638.308343448645
 30
0.0
  0
LINE
  5
EF0
330
EBD
100
AcDbEntity
  8
0
  6
Continuous
 62
     7
370
    15
100
AcDbLine
 10
2343.8345920183
 20
638.3083952240463
 30
0.0
 11
2349.134592328244
 21
638.3083952240463
 31
0.0
  0
LINE
  5
EF1
330
EBD
100
AcDbEntity
  8
0
  6
Continuous
 62
     7
370
    15
100
AcDbLine
 10
2340.134592715674
 20
632.5972867779251
 30
0.0
 11
2349.134592328244
 21
632.5972867779251
 31
0.0
  0
LINE
  5
EF2
330
EBD
100
AcDbEntity
  8
0
  6
Continuous
 62
     7
370
    15
100
AcDbLine
 10
2340.134592715674
 20
633.5814563207145
 30
0.0
 11
2340.134592715674
 21
632.5972867779251
 31
0.0
  0
LINE
  5
EF3
330
EBD
100
AcDbEntity
  8
0
  6
Continuous
 62
     7
370
    15
100
AcDbLine
 10
2349.134592328244
 20
632.5972793273445
 30
0.0
 11
2349.134592328244
 21
633.5814563207145
 31
0.0
  0
LINE
  5
EF4
330
EBD
100
AcDbEntity
  8
0
  6
Continuous
 62
     7
370
    15
100
AcDbLine
 10
2358.134234312945
 20
633.5862917475219
 30
0.0
 11
2358.134234312945
 21
632.5972867779251
 31
0.0
  0
LINE
  5
EF5
330
EBD
100
AcDbEntity
  8
0
  6
Continuous
 62
     7
370
    15
100
AcDbLine
 10
2358.134234312945
 20
632.5972867779251
 30
0.0
 11
2349.134592328244
 21
632.5972867779251
 31
0.0
  0
LINE
  5
EF6
330
EBD
100
AcDbEntity
  8
0
  6
Continuous
 62
     7
370
    15
100
AcDbLine
 10
2344.134593371325
 20
638.9083979300972
 30
0.0
 11
2354.134591285163
 21
638.9083979300972
 31
0.0
  0
LINE
  5
EF7
330
EBD
100
AcDbEntity
  8
0
  6
Continuous
 62
     7
370
    15
100
AcDbLine
 10
2344.134593371325
 20
638.9083979300972
 30
0.0
 11
2344.134593371325
 21
639.9083999566551
 31
0.0
  0
LINE
  5
EF8
330
EBD
100
AcDbEntity
  8
0
  6
Continuous
 62
     7
370
    15
100
AcDbLine
 10
2342.1345930435
 20
639.9083999566551
 30
0.0
 11
2344.134593371325
 21
639.9083999566551
 31
0.0
  0
LINE
  5
EF9
330
EBD
100
AcDbEntity
  8
0
  6
Continuous
 62
     7
370
    15
100
AcDbLine
 10
2342.1345930435
 20
639.9083999566551
 30
0.0
 11
2342.1345930435
 21
642.9083985857483
 31
0.0
  0
LINE
  5
EFA
330
EBD
100
AcDbEntity
  8
0
  6
Continuous
 62
     7
370
    15
100
AcDbLine
 10
2344.134593371325
 20
642.9083985857483
 30
0.0
 11
2342.1345930435
 21
642.9083985857483
 31
0.0
  0
LINE
  5
EFB
330
EBD
100
AcDbEntity
  8
0
  6
Continuous
 62
     7
370
    15
100
AcDbLine
 10
2344.134593371325
 20
644.1083965472694
 30
0.0
 11
2344.134593371325
 21
642.9083985857483
 31
0.0
  0
LINE
  5
EFC
330
EBD
100
AcDbEntity
  8
0
  6
Continuous
 62
     7
370
    15
100
AcDbLine
 10
2344.134593371325
 20
644.1083965472694
 30
0.0
 11
2354.134591285163
 21
644.1083965472694
 31
0.0
  0
LINE
  5
EFD
330
EBD
100
AcDbEntity
  8
0
  6
Continuous
 62
     7
370
    15
100
AcDbLine
 10
2354.134591285163
 20
642.9083985857483
 30
0.0
 11
2354.134591285163
 21
644.1083965472694
 31
0.0
  0
LINE
  5
EFE
330
EBD
100
AcDbEntity
  8
0
  6
Continuous
 62
     7
370
    15
100
AcDbLine
 10
2356.134591612988
 20
642.9083985857483
 30
0.0
 11
2354.134591285163
 21
642.9083985857483
 31
0.0
  0
LINE
  5
EFF
330
EBD
100
AcDbEntity
  8
0
  6
Continuous
 62
     7
370
    15
100
AcDbLine
 10
2356.134591612988
 20
639.9083999566551
 30
0.0
 11
2356.134591612988
 21
642.9083985857483
 31
0.0
  0
LINE
  5
F00
330
EBD
100
AcDbEntity
  8
0
  6
Continuous
 62
     7
370
    15
100
AcDbLine
 10
2354.134591285163
 20
639.9083999566551
 30
0.0
 11
2356.134591612988
 21
639.9083999566551
 31
0.0
  0
LINE
  5
F01
330
EBD
100
AcDbEntity
  8
0
  6
Continuous
 62
     7
370
    15
100
AcDbLine
 10
2354.134591285163
 20
639.9083999566551
 30
0.0
 11
2354.134591285163
 21
638.9083979300972
 31
0.0
  0
LINE
  5
F02
330
EBD
100
AcDbEntity
  8
0
  6
Continuous
 62
     7
370
    15
100
AcDbLine
 10
2354.134591285163
 20
638.9083979300972
 30
0.0
 11
2354.134591285163
 21
638.4083969168182
 31
0.0
  0
LINE
  5
F03
330
EBD
100
AcDbEntity
  8
0
  6
Continuous
 62
     7
370
    15
100
AcDbLine
 10
2344.134593371325
 20
638.4083969168182
 30
0.0
 11
2354.134591285163
 21
638.4083969168182
 31
0.0
  0
LINE
  5
F04
330
EBD
100
AcDbEntity
  8
0
  6
Continuous
 62
     7
370
    15
100
AcDbLine
 10
2344.134593371325
 20
638.4083969168182
 30
0.0
 11
2344.134593371325
 21
638.9083979300972
 31
0.0
  0
LINE
  5
F05
330
EBD
100
AcDbEntity
  8
0
  6
Continuous
 62
     7
370
    15
100
AcDbLine
 10
2344.134593371325
 20
639.4083989433761
 30
0.0
 11
2343.384591851407
 21
639.4083989433761
 31
0.0
  0
LINE
  5
F06
330
EBD
100
AcDbEntity
  8
0
  6
Continuous
 62
     7
370
    15
100
AcDbLine
 10
2342.1345930435
 20
639.4083989433761
 30
0.0
 11
2343.384591851407
 21
639.4083989433761
 31
0.0
  0
LINE
  5
F07
330
EBD
100
AcDbEntity
  8
0
  6
Continuous
 62
     7
370
    15
100
AcDbLine
 10
2342.1345930435
 20
639.4083989433761
 30
0.0
 11
2342.1345930435
 21
639.9083999566551
 31
0.0
  0
LINE
  5
F08
330
EBD
100
AcDbEntity
  8
0
  6
Continuous
 62
     7
370
    15
100
AcDbLine
 10
2356.134591612988
 20
639.9083999566551
 30
0.0
 11
2356.134591612988
 21
639.4083989433761
 31
0.0
  0
LINE
  5
F09
330
EBD
100
AcDbEntity
  8
0
  6
Continuous
 62
     7
370
    15
100
AcDbLine
 10
2356.134591612988
 20
639.4083989433761
 30
0.0
 11
2354.134591285163
 21
639.4083989433761
 31
0.0
  0
LINE
  5
F0A
330
EBD
100
AcDbEntity
  8
0
  6
Continuous
 62
     7
370
    15
100
AcDbLine
 10
2342.1345930435
 20
643.4083995990272
 30
0.0
 11
2343.384591851407
 21
643.4083995990272
 31
0.0
  0
LINE
  5
F0B
330
EBD
100
AcDbEntity
  8
0
  6
Continuous
 62
     7
370
    15
100
AcDbLine
 10
2343.384591851407
 20
643.4083995990272
 30
0.0
 11
2344.134593371325
 21
643.4083995990272
 31
0.0
  0
LINE
  5
F0C
330
EBD
100
AcDbEntity
  8
0
  6
Continuous
 62
     7
370
    15
100
AcDbLine
 10
2342.1345930435
 20
642.9083985857483
 30
0.0
 11
2342.1345930435
 21
643.4083995990272
 31
0.0
  0
LINE
  5
F0D
330
EBD
100
AcDbEntity
  8
0
  6
Continuous
 62
     7
370
    15
100
AcDbLine
 10
2354.134591285163
 20
643.4083995990272
 30
0.0
 11
2356.134591612988
 21
643.4083995990272
 31
0.0
  0
LINE
  5
F0E
330
EBD
100
AcDbEntity
  8
0
  6
Continuous
 62
     7
370
    15
100
AcDbLine
 10
2356.134591612988
 20
643.4083995990272
 30
0.0
 11
2356.134591612988
 21
642.9083985857483
 31
0.0
  0
LINE
  5
F0F
330
EBD
100
AcDbEntity
  8
0
  6
Continuous
 62
     7
370
    15
100
AcDbLine
 10
2344.134593371325
 20
644.4083979002948
 30
0.0
 11
2353.43459061163
 21
644.4083979002948
 31
0.0
  0
LINE
  5
F10
330
EBD
100
AcDbEntity
  8
0
  6
Continuous
 62
     7
370
    15
100
AcDbLine
 10
2353.43459061163
 20
644.152027147245
 30
0.0
 11
2353.43459061163
 21
644.4083979002948
 31
0.0
  0
LINE
  5
F11
330
EBD
100
AcDbEntity
  8
0
  6
Continuous
 62
     7
370
    15
100
AcDbLine
 10
2353.43459061163
 20
644.152027147245
 30
0.0
 11
2354.134591285163
 21
644.152027147245
 31
0.0
  0
LINE
  5
F12
330
EBD
100
AcDbEntity
  8
0
  6
Continuous
 62
     7
370
    15
100
AcDbLine
 10
2354.134591285163
 20
644.1083965472694
 30
0.0
 11
2354.134591285163
 21
644.152027147245
 31
0.0
  0
LINE
  5
F13
330
EBD
100
AcDbEntity
  8
0
  6
Continuous
 62
     7
370
    15
100
AcDbLine
 10
2344.134593371325
 20
644.4083979002948
 30
0.0
 11
2344.134593371325
 21
644.1083965472694
 31
0.0
  0
LINE
  5
F14
330
EBD
100
AcDbEntity
  8
0
  6
Continuous
 62
     7
370
    15
100
AcDbLine
 10
2357.334231946641
 20
679.4104842118736
 30
0.0
 11
2356.257418159419
 21
677.6568783096786
 31
0.0
  0
LINE
  5
F15
330
EBD
100
AcDbEntity
  8
0
  6
Continuous
 62
     7
370
    15
100
AcDbLine
 10
2342.011047516042
 20
677.6568783096786
 30
0.0
 11
2356.257418159419
 21
677.6568783096786
 31
0.0
  0
LINE
  5
F16
330
EBD
100
AcDbEntity
  8
0
  6
Continuous
 62
     7
370
    15
100
AcDbLine
 10
2340.93423372882
 20
679.4104842118736
 30
0.0
 11
2342.011047516042
 21
677.6568783096786
 31
0.0
  0
LINE
  5
F17
330
EBD
100
AcDbEntity
  8
0
  6
Continuous
 62
     7
370
    15
100
AcDbLine
 10
2342.011047516042
 20
665.4334855846878
 30
0.0
 11
2340.93423372882
 21
663.6798796824928
 31
0.0
  0
LINE
  5
F18
330
EBD
100
AcDbEntity
  8
0
  6
Continuous
 62
     7
370
    15
100
AcDbLine
 10
2356.257418159419
 20
665.4334855846878
 30
0.0
 11
2342.011047516042
 21
665.4334855846878
 31
0.0
  0
LINE
  5
F19
330
EBD
100
AcDbEntity
  8
0
  6
Continuous
 62
     7
370
    15
100
AcDbLine
 10
2356.257418159419
 20
665.4334855846878
 30
0.0
 11
2357.334231946641
 21
663.6798796824928
 31
0.0
  0
LINE
  5
F1A
330
EBD
100
AcDbEntity
  8
0
  6
Continuous
 62
     7
370
    15
100
AcDbLine
 10
2343.8345920183
 20
643.7083972267624
 30
0.0
 11
2343.384591851407
 21
643.7083972267624
 31
0.0
  0
LINE
  5
F1B
330
EBD
100
AcDbEntity
  8
0
  6
Continuous
 62
     7
370
    15
100
AcDbLine
 10
2343.384591851407
 20
643.7083972267624
 30
0.0
 11
2341.834591690474
 21
643.7083972267624
 31
0.0
  0
LINE
  5
F1C
330
EBD
100
AcDbEntity
  8
0
  6
Continuous
 62
     7
370
    15
100
AcDbLine
 10
2343.8345920183
 20
644.2083982400413
 30
0.0
 11
2343.8345920183
 21
643.7083972267624
 31
0.0
  0
LINE
  5
F1D
330
EBD
100
AcDbEntity
  8
0
  6
Continuous
 62
     7
370
    15
100
AcDbLine
 10
2341.834591690474
 20
639.3083972506042
 30
0.0
 11
2343.384591851407
 21
639.3083972506042
 31
0.0
  0
LINE
  5
F1E
330
EBD
100
AcDbEntity
  8
0
  6
Continuous
 62
     7
370
    15
100
AcDbLine
 10
2343.384591851407
 20
639.3083972506042
 30
0.0
 11
2343.8345920183
 21
639.3083972506042
 31
0.0
  0
LINE
  5
F1F
330
EBD
100
AcDbEntity
  8
0
  6
Continuous
 62
     7
370
    15
100
AcDbLine
 10
2343.8345920183
 20
639.3083972506042
 30
0.0
 11
2343.8345920183
 21
638.8083962373253
 31
0.0
  0
LINE
  5
F20
330
EBD
100
AcDbEntity
  8
0
  6
Continuous
 62
     7
370
    15
100
AcDbLine
 10
2354.434592638188
 20
639.3083972506042
 30
0.0
 11
2356.434592966014
 21
639.3083972506042
 31
0.0
  0
LINE
  5
F21
330
EBD
100
AcDbEntity
  8
0
  6
Continuous
 62
     7
370
    15
100
AcDbLine
 10
2354.434592638188
 20
638.8083962373253
 30
0.0
 11
2354.434592638188
 21
639.3083972506042
 31
0.0
  0
LINE
  5
F22
330
EBD
100
AcDbEntity
  8
0
  6
Continuous
 62
     7
370
    15
100
AcDbLine
 10
2349.13441351431
 20
697.718109527957
 30
0.0
 11
2349.13441351431
 21
697.8113107032891
 31
0.0
  0
LINE
  5
F23
330
EBD
100
AcDbEntity
  8
0
  6
Continuous
 62
     7
370
    15
100
AcDbLine
 10
2352.254590008431
 20
697.8112557552572
 30
0.0
 11
2349.13441351431
 21
697.8112557552572
 31
0.0
  0
LINE
  5
F24
330
EBD
100
AcDbEntity
  8
0
  6
Continuous
 62
     7
370
    15
100
AcDbLine
 10
2352.254590008431
 20
706.3835851730596
 30
0.0
 11
2352.254590008431
 21
697.8112557552572
 31
0.0
  0
LINE
  5
F25
330
EBD
100
AcDbEntity
  8
0
  6
Continuous
 62
     7
370
    15
100
AcDbLine
 10
2349.13441351431
 20
706.3835853185787
 30
0.0
 11
2352.254590008431
 21
706.3835851730596
 31
0.0
  0
LINE
  5
F26
330
EBD
100
AcDbEntity
  8
0
  6
Continuous
 62
     7
370
    15
100
AcDbLine
 10
2349.13441351431
 20
706.3836407904796
 30
0.0
 11
2349.13441351431
 21
706.4766650727301
 31
0.0
  0
LINE
  5
F27
330
EBD
100
AcDbEntity
  8
0
  6
Continuous
 62
     7
370
    15
100
AcDbLine
 10
2358.134234312945
 20
706.4765208632502
 30
0.0
 11
2349.13441351431
 21
706.4766096008293
 31
0.0
  0
LINE
  5
F28
330
EBD
100
AcDbEntity
  8
0
  6
Continuous
 62
     7
370
    15
100
AcDbLine
 10
2358.134234312945
 20
706.4765208632502
 30
0.0
 11
2358.134234312945
 21
697.7179698295708
 31
0.0
  0
LINE
  5
F29
330
EBD
100
AcDbEntity
  8
0
  6
Continuous
 62
     7
370
    15
100
AcDbLine
 10
2349.13441351431
 20
706.4766650727301
 30
0.0
 11
2340.134592715674
 21
706.4767538103092
 31
0.0
  0
LINE
  5
F2A
330
EBD
100
AcDbEntity
  8
0
  6
Continuous
 62
     7
370
    15
100
AcDbLine
 10
2346.014590922766
 20
706.3836407904796
 30
0.0
 11
2349.13441351431
 21
706.3836407904796
 31
0.0
  0
LINE
  5
F2B
330
EBD
100
AcDbEntity
  8
0
  6
Continuous
 62
     7
370
    15
100
AcDbLine
 10
2346.014590922766
 20
697.8113107032891
 30
0.0
 11
2346.014590922766
 21
706.3836407904796
 31
0.0
  0
LINE
  5
F2C
330
EBD
100
AcDbEntity
  8
0
  6
Continuous
 62
     7
370
    15
100
AcDbLine
 10
2349.13441351431
 20
697.8113107032891
 30
0.0
 11
2346.014590922766
 21
697.8113107032891
 31
0.0
  0
LINE
  5
F2D
330
EBD
100
AcDbEntity
  8
0
  6
Continuous
 62
     7
370
    15
100
AcDbLine
 10
2340.134592715674
 20
706.4767538103092
 30
0.0
 11
2340.134592715674
 21
697.7181933469887
 31
0.0
  0
LINE
  5
F2E
330
EBD
100
AcDbEntity
  8
0
  6
Continuous
 62
     7
370
    15
100
AcDbLine
 10
2354.43423501032
 20
643.7083972267624
 30
0.0
 11
2355.434590939456
 21
643.7083972267624
 31
0.0
  0
LINE
  5
F2F
330
EBD
100
AcDbEntity
  8
0
  6
Continuous
 62
     7
370
    15
100
AcDbLine
 10
2354.43423501032
 20
643.7083972267624
 30
0.0
 11
2354.43423501032
 21
643.7130091361519
 31
0.0
  0
LINE
  5
F30
330
EBD
100
AcDbEntity
  8
0
  6
Continuous
 62
     7
370
    15
100
AcDbLine
 10
2356.434592966014
 20
643.7083972267624
 30
0.0
 11
2355.334592971974
 21
643.7083972267624
 31
0.0
  0
LINE
  5
F31
330
EBD
100
AcDbEntity
  8
0
  6
Continuous
 62
     7
370
    15
100
AcDbLine
 10
2343.384591851407
 20
643.7083972267624
 30
0.0
 11
2344.134593371325
 21
643.7083972267624
 31
0.0
  0
LINE
  5
F32
330
EBD
100
AcDbEntity
  8
0
  6
Continuous
 62
     7
370
    15
100
AcDbLine
 10
2354.134591285163
 20
643.7083972267624
 30
0.0
 11
2355.334592971974
 21
643.7083972267624
 31
0.0
  0
LINE
  5
F33
330
EBD
100
AcDbEntity
  8
0
  6
Continuous
 62
     7
370
    15
100
AcDbLine
 10
2344.134593371325
 20
643.7083972267624
 30
0.0
 11
2343.8345920183
 21
643.7083972267624
 31
0.0
  0
LINE
  5
F34
330
EBD
100
AcDbEntity
  8
0
  6
Continuous
 62
     7
370
    15
100
AcDbLine
 10
2354.134591285163
 20
643.7083972267624
 30
0.0
 11
2354.434592638188
 21
643.7083972267624
 31
0.0
  0
LINE
  5
F35
330
EBD
100
AcDbEntity
  8
0
  6
Continuous
 62
     7
370
    15
100
AcDbLine
 10
2343.384591851407
 20
643.7083972267624
 30
0.0
 11
2343.384591851407
 21
643.4083995990272
 31
0.0
  0
LINE
  5
F36
330
EBD
100
AcDbEntity
  8
0
  6
Continuous
 62
     7
370
    15
100
AcDbLine
 10
2343.384591851407
 20
639.4083989433761
 30
0.0
 11
2343.384591851407
 21
639.3083972506042
 31
0.0
  0
LINE
  5
F37
330
EBD
100
AcDbEntity
  8
0
  6
Continuous
 62
     7
370
    15
100
AcDbLine
 10
2349.134592328244
 20
632.5972867779251
 30
0.0
 11
2349.134592328244
 21
631.7806211881157
 31
0.0
  0
LINE
  5
F38
330
EBD
100
AcDbEntity
  8
0
  6
Continuous
 62
     7
370
    15
100
AcDbLine
 10
2358.134234312945
 20
631.7806211881157
 30
0.0
 11
2349.134592328244
 21
631.7806211881157
 31
0.0
  0
LINE
  5
F39
330
EBD
100
AcDbEntity
  8
0
  6
Continuous
 62
     7
370
    15
100
AcDbLine
 10
2358.134234312945
 20
632.5972867779251
 30
0.0
 11
2358.134234312945
 21
631.7806211881157
 31
0.0
  0
LINE
  5
F3A
330
EBD
100
AcDbEntity
  8
0
  6
Continuous
 62
     7
370
    15
100
AcDbLine
 10
2340.134592715674
 20
631.7806211881157
 30
0.0
 11
2349.134592328244
 21
631.7806211881157
 31
0.0
  0
LINE
  5
F3B
330
EBD
100
AcDbEntity
  8
0
  6
Continuous
 62
     7
370
    15
100
AcDbLine
 10
2340.134592715674
 20
632.5972867779251
 30
0.0
 11
2340.134592715674
 21
631.7806211881157
 31
0.0
  0
LINE
  5
F3C
330
EBD
100
AcDbEntity
  8
0
  6
Continuous
 62
     7
370
    15
100
AcDbLine
 10
2343.8345920183
 20
652.6624304823394
 30
0.0
 11
2354.43423501032
 21
652.6624304823394
 31
0.0
  0
LINE
  5
F3D
330
EBD
100
AcDbEntity
  8
0
  6
Continuous
 62
     7
370
    15
100
AcDbLine
 10
2356.434592966014
 20
643.4083995990272
 30
0.0
 11
2356.134591612988
 21
643.4083995990272
 31
0.0
  0
LINE
  5
F3E
330
EBD
100
AcDbEntity
  8
0
  6
Continuous
 62
     7
370
    15
100
AcDbLine
 10
2355.334592971974
 20
643.7083972267624
 30
0.0
 11
2355.334592971974
 21
643.4083995990272
 31
0.0
  0
LINE
  5
F3F
330
EBD
100
AcDbEntity
  8
0
  6
Continuous
 62
     7
370
    15
100
AcDbLine
 10
2355.334592971974
 20
639.4083989433761
 30
0.0
 11
2355.334592971974
 21
639.3083972506042
 31
0.0
  0
LINE
  5
F40
330
EBD
100
AcDbEntity
  8
0
  6
Continuous
 62
     7
370
    15
100
AcDbLine
 10
2346.014590922766
 20
698.7535735241886
 30
0.0
 11
2352.254590008431
 21
698.7535735241886
 31
0.0
  0
LINE
  5
F41
330
EBD
100
AcDbEntity
  8
0
  6
Continuous
 62
     7
370
    15
100
AcDbLine
 10
2352.254590008431
 20
699.0264272898253
 30
0.0
 11
2346.014590922766
 21
699.0264272898253
 31
0.0
  0
LINE
  5
F42
330
EBD
100
AcDbEntity
  8
0
  6
Continuous
 62
     7
370
    15
100
AcDbLine
 10
2352.254590008431
 20
698.285580205154
 30
0.0
 11
2346.014590922766
 21
698.285580205154
 31
0.0
  0
LINE
  5
F43
330
EBD
100
AcDbEntity
  8
0
  6
Continuous
 62
     7
370
    15
100
AcDbLine
 10
2346.014590922766
 20
699.8566277906116
 30
0.0
 11
2352.254590008431
 21
699.8566277906116
 31
0.0
  0
LINE
  5
F44
330
EBD
100
AcDbEntity
  8
0
  6
Continuous
 62
     7
370
    15
100
AcDbLine
 10
2346.014590922766
 20
697.9786917216893
 30
0.0
 11
2352.254590008431
 21
697.9786917216893
 31
0.0
  0
ELLIPSE
  5
F45
330
EBD
100
AcDbEntity
  8
0
  6
Continuous
 62
     7
370
    15
100
AcDbEllipse
 10
2342.504286898623
 20
679.2951819395828
 30
0.0
 11
0.0000000000007674
 21
2.0
 31
0.0
210
0.0
220
0.0
230
1.0
 40
0.4299675378444193
 41
2.530727415392942
 42
3.141592653591032
  0
LINE
  5
F46
330
EBD
100
AcDbEntity
  8
0
  6
Continuous
 62
     7
370
    15
100
AcDbLine
 10
2343.234235409671
 20
677.2951824240204
 30
0.0
 11
2343.234235409671
 21
665.795181470346
 31
0.0
  0
ELLIPSE
  5
F47
330
EBD
100
AcDbEntity
  8
0
  6
Continuous
 62
     7
370
    15
100
AcDbEllipse
 10
2342.504286898624
 20
663.7951819395827
 30
0.0
 11
0.0000000000007674
 21
1.999999999999971
 31
0.0
210
0.0
220
0.0
230
1.0
 40
0.4299675378444183
 41
0.0
 42
0.6108652381991816
  0
ELLIPSE
  5
F48
330
EBD
100
AcDbEntity
  8
0
  6
Continuous
 62
     7
370
    15
100
AcDbEllipse
 10
2355.764180638994
 20
663.7951819394502
 30
0.0
 11
-0.0000000000012221
 21
2.0
 31
0.0
210
0.0
220
0.0
230
1.0
 40
0.4299675378445187
 41
5.672320068980419
 42
6.283185307179586
  0
LINE
  5
F49
330
EBD
100
AcDbEntity
  8
0
  6
Continuous
 62
     7
370
    15
100
AcDbLine
 10
2355.03423399108
 20
677.2951824240204
 30
0.0
 11
2355.03423399108
 21
665.795181470346
 31
0.0
  0
ELLIPSE
  5
F4A
330
EBD
100
AcDbEntity
  8
0
  6
Continuous
 62
     7
370
    15
100
AcDbEllipse
 10
2355.764180638992
 20
679.2951819394502
 30
0.0
 11
-0.0000000000012221
 21
2.0
 31
0.0
210
0.0
220
0.0
230
1.0
 40
0.4299675378445258
 41
3.141592653588636
 42
3.752457891786662
  0
LINE
  5
F4B
330
EBD
100
AcDbEntity
  8
0
  6
Continuous
 62
     7
370
    15
100
AcDbLine
 10
2354.43423501032
 20
652.0227348081585
 30
0.0
 11
2354.134591285163
 21
652.0227348081585
 31
0.0
  0
LINE
  5
F4C
330
EBD
100
AcDbEntity
  8
0
  6
Continuous
 62
     7
370
    15
100
AcDbLine
 10
2349.134592328244
 20
652.0227348081585
 30
0.0
 11
2354.134591285163
 21
652.0227348081585
 31
0.0
  0
LINE
  5
F4D
330
EBD
100
AcDbEntity
  8
0
  6
Continuous
 62
     7
370
    15
100
AcDbLine
 10
2344.134593371325
 20
652.0227348081585
 30
0.0
 11
2349.134592328244
 21
652.0227348081585
 31
0.0
  0
LINE
  5
F4E
330
EBD
100
AcDbEntity
  8
0
  6
Continuous
 62
     7
370
    15
100
AcDbLine
 10
2343.8345920183
 20
652.0227348081585
 30
0.0
 11
2344.134593371325
 21
652.0227348081585
 31
0.0
  0
LINE
  5
F4F
330
EBD
100
AcDbEntity
  8
0
  6
Continuous
 62
     7
370
    15
100
AcDbLine
 10
2343.8345920183
 20
652.5261891655441
 30
0.0
 11
2354.43423501032
 21
652.5261891655441
 31
0.0
  0
LINE
  5
F50
330
EBD
100
AcDbEntity
  8
0
  6
Continuous
 62
     7
370
    15
100
AcDbLine
 10
2346.014590922766
 20
700.9753273449655
 30
0.0
 11
2352.254590008431
 21
700.9753273449655
 31
0.0
  0
LINE
  5
F51
330
EBD
100
AcDbEntity
  8
0
  6
Continuous
 62
     7
370
    15
100
AcDbLine
 10
2352.254590008431
 20
701.2481811106022
 30
0.0
 11
2346.014590922766
 21
701.2481811106022
 31
0.0
  0
LINE
  5
F52
330
EBD
100
AcDbEntity
  8
0
  6
Continuous
 62
     7
370
    15
100
AcDbLine
 10
2352.254590008431
 20
700.5073335602697
 30
0.0
 11
2346.014590922766
 21
700.5073335602697
 31
0.0
  0
LINE
  5
F53
330
EBD
100
AcDbEntity
  8
0
  6
Continuous
 62
     7
370
    15
100
AcDbLine
 10
2346.014590922766
 20
702.0783816113885
 30
0.0
 11
2352.254590008431
 21
702.0783816113885
 31
0.0
  0
LINE
  5
F54
330
EBD
100
AcDbEntity
  8
0
  6
Continuous
 62
     7
370
    15
100
AcDbLine
 10
2346.014590922766
 20
700.2004455424662
 30
0.0
 11
2352.254590008431
 21
700.2004455424662
 31
0.0
  0
LINE
  5
F55
330
EBD
100
AcDbEntity
  8
0
  6
Continuous
 62
     7
370
    15
100
AcDbLine
 10
2355.764182273322
 20
677.2951824240204
 30
0.0
 11
2342.504287127429
 21
677.2951824240204
 31
0.0
  0
LINE
  5
F56
330
EBD
100
AcDbEntity
  8
0
  6
Continuous
 62
     7
370
    15
100
AcDbLine
 10
2342.504287127429
 20
665.795181470346
 30
0.0
 11
2355.764182273322
 21
665.795181470346
 31
0.0
  0
LWPOLYLINE
  5
F57
330
EBD
100
AcDbEntity
  8
0
  6
Continuous
 62
     7
370
    15
100
AcDbPolyline
 90
        2
 70
   128
 43
0.0
 10
2349.134592328244
 20
631.7696241311546
 10
2349.134592328244
 20
631.7696241311546
  0
LINE
  5
F58
330
EBD
100
AcDbEntity
  8
0
  6
Continuous
 62
     7
370
    15
100
AcDbLine
 10
2349.134592328244
 20
631.7806211881157
 30
0.0
 11
2349.134592328244
 21
631.7696241311546
 31
0.0
  0
LINE
  5
F59
330
EBD
100
AcDbEntity
  8
0
  6
Continuous
 62
     7
370
    15
100
AcDbLine
 10
2358.134234312945
 20
631.7696241311546
 30
0.0
 11
2349.134592328244
 21
631.7696241311546
 31
0.0
  0
LINE
  5
F5A
330
EBD
100
AcDbEntity
  8
0
  6
Continuous
 62
     7
370
    15
100
AcDbLine
 10
2358.134234312945
 20
631.7806211881157
 30
0.0
 11
2358.134234312945
 21
631.7696241311546
 31
0.0
  0
LINE
  5
F5B
330
EBD
100
AcDbEntity
  8
0
  6
Continuous
 62
     7
370
    15
100
AcDbLine
 10
2340.134592715674
 20
631.7696241311546
 30
0.0
 11
2349.134592328244
 21
631.7696241311546
 31
0.0
  0
LINE
  5
F5C
330
EBD
100
AcDbEntity
  8
0
  6
Continuous
 62
     7
370
    15
100
AcDbLine
 10
2340.134592715674
 20
631.7806211881157
 30
0.0
 11
2340.134592715674
 21
631.7696241311546
 31
0.0
  0
LINE
  5
F5D
330
EBD
100
AcDbEntity
  8
0
  6
Continuous
 62
     7
370
    15
100
AcDbLine
 10
2354.134591285163
 20
638.4083969168182
 30
0.0
 11
2354.134591285163
 21
638.3083952240463
 31
0.0
  0
LINE
  5
F5E
330
EBD
100
AcDbEntity
  8
0
  6
Continuous
 62
     7
370
    15
100
AcDbLine
 10
2344.134593371325
 20
638.3083952240463
 30
0.0
 11
2344.134593371325
 21
638.4083969168182
 31
0.0
  0
LINE
  5
F5F
330
EBD
100
AcDbEntity
  8
0
  6
Continuous
 62
     7
370
    15
100
AcDbLine
 10
2346.014590922766
 20
703.1970809329118
 30
0.0
 11
2352.254590008431
 21
703.1970809329118
 31
0.0
  0
LINE
  5
F60
330
EBD
100
AcDbEntity
  8
0
  6
Continuous
 62
     7
370
    15
100
AcDbLine
 10
2352.254590008431
 20
703.4699344657179
 30
0.0
 11
2346.014590922766
 21
703.4699344657179
 31
0.0
  0
LINE
  5
F61
330
EBD
100
AcDbEntity
  8
0
  6
Continuous
 62
     7
370
    15
100
AcDbLine
 10
2352.254590008431
 20
702.7290873810466
 30
0.0
 11
2346.014590922766
 21
702.7290873810466
 31
0.0
  0
LINE
  5
F62
330
EBD
100
AcDbEntity
  8
0
  6
Continuous
 62
     7
370
    15
100
AcDbLine
 10
2346.014590922766
 20
704.3035985551592
 30
0.0
 11
2352.254590008431
 21
704.3035985551592
 31
0.0
  0
LINE
  5
F63
330
EBD
100
AcDbEntity
  8
0
  6
Continuous
 62
     7
370
    15
100
AcDbLine
 10
2351.13459265607
 20
650.1227324478145
 30
0.0
 11
2352.634591970616
 21
650.1227324478145
 31
0.0
  0
ARC
  5
F64
330
EBD
100
AcDbEntity
  8
0
  6
Continuous
 62
     7
370
    15
100
AcDbCircle
 10
2351.134591821148
 20
649.6227329904122
 30
0.0
 40
0.5
100
AcDbArc
 50
90.0
 51
179.9999999994854
  0
ARC
  5
F65
330
EBD
100
AcDbEntity
  8
0
  6
Continuous
 62
     7
370
    15
100
AcDbCircle
 10
2347.134591821148
 20
649.6227329904122
 30
0.0
 40
0.4999999999999858
100
AcDbArc
 50
359.999999999987
 51
90.0
  0
LINE
  5
F66
330
EBD
100
AcDbEntity
  8
0
  6
Continuous
 62
     7
370
    15
100
AcDbLine
 10
2345.634592685872
 20
650.1227324478145
 30
0.0
 11
2347.134592000418
 21
650.1227324478145
 31
0.0
  0
LINE
  5
F67
330
EBD
100
AcDbEntity
  8
0
  6
Continuous
 62
     7
370
    15
100
AcDbLine
 10
2345.634592685872
 20
652.0227348081585
 30
0.0
 11
2345.634592685872
 21
650.1227324478145
 31
0.0
  0
LINE
  5
F68
330
EBD
100
AcDbEntity
  8
0
  6
Continuous
 62
     7
370
    15
100
AcDbLine
 10
2352.634591970616
 20
650.1227324478145
 30
0.0
 11
2352.634591970616
 21
652.0227348081585
 31
0.0
  0
LINE
  5
F69
330
EBD
100
AcDbEntity
  8
0
  6
Continuous
 62
     7
370
    15
100
AcDbLine
 10
2350.634591642791
 20
644.4083979002948
 30
0.0
 11
2350.634591642791
 21
649.6227314345356
 31
0.0
  0
LINE
  5
F6A
330
EBD
100
AcDbEntity
  8
0
  6
Continuous
 62
     7
370
    15
100
AcDbLine
 10
2347.634593013697
 20
649.6227314345356
 30
0.0
 11
2347.634593013697
 21
644.4083979002948
 31
0.0
  0
LINE
  5
F6B
330
EBD
100
AcDbEntity
  8
0
  6
Continuous
 62
     7
370
    15
100
AcDbLine
 10
2346.014590922766
 20
702.4221988975819
 30
0.0
 11
2352.254590008431
 21
702.4221988975819
 31
0.0
  0
LINE
  5
F6C
330
EBD
100
AcDbEntity
  8
0
  6
Continuous
 62
     7
370
    15
100
AcDbLine
 10
2344.134593371325
 20
630.1389900617119
 30
0.0
 11
2354.134591285163
 21
630.1389900617119
 31
0.0
  0
LINE
  5
F6D
330
EBD
100
AcDbEntity
  8
0
  6
Continuous
 62
     7
370
    15
100
AcDbLine
 10
2354.134591285163
 20
631.7696241311546
 30
0.0
 11
2354.134591285163
 21
630.1389900617119
 31
0.0
  0
LINE
  5
F6E
330
EBD
100
AcDbEntity
  8
0
  6
Continuous
 62
     7
370
    15
100
AcDbLine
 10
2344.134593371325
 20
630.1389900617119
 30
0.0
 11
2344.134593371325
 21
631.7696241311546
 31
0.0
  0
LINE
  5
F6F
330
EBD
100
AcDbEntity
  8
0
  6
Continuous
 62
     7
370
    15
100
AcDbLine
 10
2352.254590008431
 20
706.0944910043668
 30
0.0
 11
2346.014590922766
 21
706.0944910043668
 31
0.0
  0
SPLINE
  5
F70
330
EBD
100
AcDbEntity
  8
0
  6
Continuous
 62
     7
370
    15
100
AcDbSpline
210
0.0
220
0.0
230
1.0
 70
    24
 71
     3
 72
     8
 73
     4
 74
     0
 42
0.0000000001
 43
0.0000000001
 40
0.0
 40
0.0
 40
0.0
 40
0.0
 40
1.0
 40
1.0
 40
1.0
 40
1.0
 10
2349.134412794976
 20
706.4766650499079
 30
0.0
 10
2349.134412794976
 20
706.6618459173648
 30
0.0
 10
2349.134412794976
 20
706.7696688948919
 30
0.0
 10
2349.134412794976
 20
706.769684870722
 30
0.0
  0
LINE
  5
F71
330
EBD
100
AcDbEntity
  8
0
  6
Continuous
 62
     7
370
    15
100
AcDbLine
 10
2349.13441351431
 20
706.7694519477095
 30
0.0
 11
2358.134234312945
 21
706.7694519477095
 31
0.0
  0
LINE
  5
F72
330
EBD
100
AcDbEntity
  8
0
  6
Continuous
 62
     7
370
    15
100
AcDbLine
 10
2358.134234312945
 20
706.4765208632502
 30
0.0
 11
2358.134234312945
 21
706.7694519477095
 31
0.0
  0
LINE
  5
F73
330
EBD
100
AcDbEntity
  8
0
  6
Continuous
 62
     7
370
    15
100
AcDbLine
 10
2340.134592715674
 20
706.7696848724859
 30
0.0
 11
2349.13441351431
 21
706.7696848724859
 31
0.0
  0
LINE
  5
F74
330
EBD
100
AcDbEntity
  8
0
  6
Continuous
 62
     7
370
    15
100
AcDbLine
 10
2340.134592715674
 20
706.7696848724859
 30
0.0
 11
2340.134592715674
 21
706.4767538103092
 31
0.0
  0
LINE
  5
F75
330
EBD
100
AcDbEntity
  8
0
  6
Continuous
 62
     7
370
    15
100
AcDbLine
 10
2346.014590922766
 20
705.4222981095131
 30
0.0
 11
2352.254590008431
 21
705.4222981095131
 31
0.0
  0
LINE
  5
F76
330
EBD
100
AcDbEntity
  8
0
  6
Continuous
 62
     7
370
    15
100
AcDbLine
 10
2352.254590008431
 20
705.6951516423191
 30
0.0
 11
2346.014590922766
 21
705.6951516423191
 31
0.0
  0
LINE
  5
F77
330
EBD
100
AcDbEntity
  8
0
  6
Continuous
 62
     7
370
    15
100
AcDbLine
 10
2352.254590008431
 20
704.9543045576479
 30
0.0
 11
2346.014590922766
 21
704.9543045576479
 31
0.0
  0
LINE
  5
F78
330
EBD
100
AcDbEntity
  8
0
  6
Continuous
 62
     7
370
    15
100
AcDbLine
 10
2354.43423501032
 20
645.4048199228759
 30
0.0
 11
2350.634591642791
 21
645.4048199228759
 31
0.0
  0
LINE
  5
F79
330
EBD
100
AcDbEntity
  8
0
  6
Continuous
 62
     7
370
    15
100
AcDbLine
 10
2347.634593013697
 20
645.4048199228759
 30
0.0
 11
2343.8345920183
 21
645.4048199228759
 31
0.0
  0
LINE
  5
F7A
330
EBD
100
AcDbEntity
  8
0
  6
Continuous
 62
     7
370
    15
100
AcDbLine
 10
2352.254590008431
 20
705.8087605399828
 30
0.0
 11
2346.014590922766
 21
705.8087605399828
 31
0.0
  0
LINE
  5
F7B
330
EBD
100
AcDbEntity
  8
0
  6
Continuous
 62
     7
370
    15
100
AcDbLine
 10
2349.13441351431
 20
706.7696848724859
 30
0.0
 11
2358.134234312945
 21
706.7696848724859
 31
0.0
  0
LINE
  5
F7C
330
EBD
100
AcDbEntity
  8
0
  6
Continuous
 62
     7
370
    15
100
AcDbLine
 10
2358.134234312945
 20
706.7696848724859
 30
0.0
 11
2358.134234312945
 21
706.7694519477095
 31
0.0
  0
LINE
  5
F7D
330
EBD
100
AcDbEntity
  8
0
  6
Continuous
 62
     7
370
    15
100
AcDbLine
 10
2346.014590922766
 20
704.6474163070138
 30
0.0
 11
2352.254590008431
 21
704.6474163070138
 31
0.0
  0
LINE
  5
F7E
330
EBD
100
AcDbEntity
  8
0
  6
Continuous
 62
     7
370
    15
100
AcDbLine
 10
2344.134593371325
 20
629.7683981828209
 30
0.0
 11
2354.134591285163
 21
629.7683981828209
 31
0.0
  0
LINE
  5
F7F
330
EBD
100
AcDbEntity
  8
0
  6
Continuous
 62
     7
370
    15
100
AcDbLine
 10
2354.134591285163
 20
630.1389900617119
 30
0.0
 11
2354.134591285163
 21
629.7683981828209
 31
0.0
  0
LINE
  5
F80
330
EBD
100
AcDbEntity
  8
0
  6
Continuous
 62
     7
370
    15
100
AcDbLine
 10
2344.134593371325
 20
629.7683981828209
 30
0.0
 11
2344.134593371325
 21
630.1389900617119
 31
0.0
  0
LINE
  5
F81
330
EBD
100
AcDbEntity
  8
0
  6
Continuous
 62
     7
370
    15
100
AcDbLine
 10
2343.634413544112
 20
709.7696252748187
 30
0.0
 11
2349.13441351431
 21
709.7696252748187
 31
0.0
  0
SPLINE
  5
F82
330
EBD
100
AcDbEntity
  8
0
  6
Continuous
 62
     7
370
    15
100
AcDbSpline
210
0.0
220
0.0
230
1.0
 70
    24
 71
     3
 72
    25
 73
    21
 74
     0
 42
0.0000000001
 43
0.0000000001
 40
0.0
 40
0.0
 40
0.0
 40
0.0
 40
0.0250629574095796
 40
0.0500629579172484
 40
0.0750385187267145
 40
0.1000282700501291
 40
0.1250707764294805
 40
0.1875533775931127
 40
0.2500999115320444
 40
0.312582512694278
 40
0.375129046634617
 40
0.5000068506819467
 40
0.6248846547292767
 40
0.6873672558939618
 40
0.7499137898318585
 40
0.8123963909962927
 40
0.8749429249344242
 40
0.9166301072545277
 40
0.9582560419369707
 40
1.0
 40
1.0
 40
1.0
 40
1.0
 10
2349.134412794977
 20
709.7693922721058
 30
0.0
 10
2349.206548034561
 20
709.7693922721058
 30
0.0
 10
2349.350637313599
 20
709.7693922721058
 30
0.0
 10
2349.566278933652
 20
709.7693922721058
 30
0.0
 10
2349.781043453512
 20
709.7693922721058
 30
0.0
 10
2349.994935358764
 20
709.7693922721058
 30
0.0
 10
2350.313765151749
 20
709.7693922721058
 30
0.0
 10
2350.733514656238
 20
709.7693922721058
 30
0.0
 10
2351.242351621743
 20
709.7693922721058
 30
0.0
 10
2351.731258581363
 20
709.7693922721058
 30
0.0
 10
2352.348930069519
 20
709.7693922721058
 30
0.0
 10
2353.048660593815
 20
709.7693922721058
 30
0.0
 10
2353.622427752473
 20
709.7693922721058
 30
0.0
 10
2353.992813336602
 20
709.7693922721058
 30
0.0
 10
2354.223807711321
 20
709.7693922721058
 30
0.0
 10
2354.406104943556
 20
709.7693922721058
 30
0.0
 10
2354.522869429172
 20
709.7693922721058
 30
0.0
 10
2354.591032736974
 20
709.7693922721058
 30
0.0
 10
2354.627639519301
 20
709.7693922721058
 30
0.0
 10
2354.632152906611
 20
709.7693922721058
 30
0.0
 10
2354.634412794976
 20
709.7693922721058
 30
0.0
  0
SPLINE
  5
F83
330
EBD
100
AcDbEntity
  8
0
  6
Continuous
 62
     7
370
    15
100
AcDbSpline
210
0.0
220
0.0
230
1.0
 70
     8
 71
     3
 72
    11
 73
     7
 74
     0
 42
0.0000000001
 43
0.0000000001
 40
0.0
 40
0.0
 40
0.0
 40
0.0
 40
0.2543243414297091
 40
0.5086470637475136
 40
0.7629721452246562
 40
1.0
 40
1.0
 40
1.0
 40
1.0
 10
2352.884357783967
 20
706.7696806087747
 30
0.0
 10
2352.870523503548
 20
706.7696809703518
 30
0.0
 10
2352.842855030784
 20
706.7696816935038
 30
0.0
 10
2352.618042689874
 20
706.7696827772802
 30
0.0
 10
2352.286134597215
 20
706.76968383759
 30
0.0
 10
2351.970163876459
 20
706.7696845357127
 30
0.0
 10
2351.817740116292
 20
706.7696848724859
 30
0.0
  0
LINE
  5
F84
330
EBD
100
AcDbEntity
  8
0
  6
Continuous
 62
     7
370
    15
100
AcDbLine
 10
2343.8345920183
 20
639.3083972506042
 30
0.0
 11
2344.134593371325
 21
639.3083972506042
 31
0.0
  0
LINE
  5
F85
330
EBD
100
AcDbEntity
  8
0
  6
Continuous
 62
     7
370
    15
100
AcDbLine
 10
2354.134591285163
 20
639.3083972506042
 30
0.0
 11
2354.434592638188
 21
639.3083972506042
 31
0.0
  0
ENDBLK
  5
EBF
330
EBD
100
AcDbEntity
  8
0
100
AcDbBlockEnd
  0
BLOCK
  5
F88
330
F87
100
AcDbEntity
  8
0
100
AcDbBlockBegin
  2
3
 70
     0
 10
0.0
 20
0.0
 30
0.0
  3
3
  1

  0
LINE
  5
F8A
330
F87
100
AcDbEntity
  8
0
  6
Continuous
 62
     7
370
    15
100
AcDbLine
 10
2432.592017180806
 20
583.6484064990304
 30
0.0
 11
2432.592017180806
 21
589.8884055846951
 31
0.0
  0
LINE
  5
F8B
330
F87
100
AcDbEntity
  8
0
  6
Continuous
 62
     7
370
    15
100
AcDbLine
 10
2479.654078907853
 20
589.8884055846951
 30
0.0
 11
2479.654078907853
 21
583.6484064990304
 31
0.0
  0
LINE
  5
F8C
330
F87
100
AcDbEntity
  8
0
  6
Continuous
 62
     7
370
    15
100
AcDbLine
 10
2430.882034428006
 20
589.8884055846951
 30
0.0
 11
2430.882034428006
 21
583.6484064990304
 31
0.0
  0
LINE
  5
F8D
330
F87
100
AcDbEntity
  8
0
  6
Continuous
 62
     7
370
    15
100
AcDbLine
 10
2481.364061660653
 20
583.6484064990304
 30
0.0
 11
2481.364061660653
 21
589.8884055846951
 31
0.0
  0
LINE
  5
F8E
330
F87
100
AcDbEntity
  8
0
  6
Continuous
 62
     7
370
    15
100
AcDbLine
 10
2430.367072648888
 20
583.6484064990304
 30
0.0
 11
2430.367072648888
 21
589.8884055846951
 31
0.0
  0
LINE
  5
F8F
330
F87
100
AcDbEntity
  8
0
  6
Continuous
 62
     7
370
    15
100
AcDbLine
 10
2481.87901598919
 20
589.8884055846951
 30
0.0
 11
2481.87901598919
 21
583.6484064990304
 31
0.0
  0
LINE
  5
F90
330
F87
100
AcDbEntity
  8
0
  6
Continuous
 62
     7
370
    15
100
AcDbLine
 10
2428.660554416066
 20
589.8884055846951
 30
0.0
 11
2428.660554416066
 21
583.6484064990304
 31
0.0
  0
LINE
  5
F91
330
F87
100
AcDbEntity
  8
0
  6
Continuous
 62
     7
370
    15
100
AcDbLine
 10
2483.585541672593
 20
583.6484064990304
 30
0.0
 11
2483.585541672593
 21
589.8884055846951
 31
0.0
  0
LINE
  5
F92
330
F87
100
AcDbEntity
  8
0
  6
Continuous
 62
     7
370
    15
100
AcDbLine
 10
2428.145592636948
 20
583.6484064990304
 30
0.0
 11
2428.145592636948
 21
589.8884055846951
 31
0.0
  0
LINE
  5
F93
330
F87
100
AcDbEntity
  8
0
  6
Continuous
 62
     7
370
    15
100
AcDbLine
 10
2484.10049600113
 20
589.8884055846951
 30
0.0
 11
2484.10049600113
 21
583.6484064990304
 31
0.0
  0
LINE
  5
F94
330
F87
100
AcDbEntity
  8
0
  6
Continuous
 62
     7
370
    15
100
AcDbLine
 10
2426.439074404126
 20
589.8884055846951
 30
0.0
 11
2426.439074404126
 21
583.6484064990304
 31
0.0
  0
LINE
  5
F95
330
F87
100
AcDbEntity
  8
0
  6
Continuous
 62
     7
370
    15
100
AcDbLine
 10
2485.807021684533
 20
583.6484064990304
 30
0.0
 11
2485.807021684533
 21
589.8884055846951
 31
0.0
  0
LINE
  5
F96
330
F87
100
AcDbEntity
  8
0
  6
Continuous
 62
     7
370
    15
100
AcDbLine
 10
2425.924112625008
 20
583.6484064990304
 30
0.0
 11
2425.924112625008
 21
589.8884055846951
 31
0.0
  0
LINE
  5
F97
330
F87
100
AcDbEntity
  8
0
  6
Continuous
 62
     7
370
    15
100
AcDbLine
 10
2486.32197601307
 20
589.8884055846951
 30
0.0
 11
2486.32197601307
 21
583.6484064990304
 31
0.0
  0
SPLINE
  5
F98
330
F87
100
AcDbEntity
  8
0
  6
Continuous
 62
     7
370
    15
100
AcDbSpline
210
0.0
220
0.0
230
1.0
 70
     8
 71
     3
 72
    22
 73
    18
 74
     0
 42
0.0000000001
 43
0.0000000001
 40
0.0
 40
0.0
 40
0.0
 40
0.0
 40
0.125
 40
0.125
 40
0.25
 40
0.25
 40
0.375
 40
0.375
 40
0.5
 40
0.5
 40
0.625
 40
0.625
 40
0.75
 40
0.75
 40
0.875
 40
0.875
 40
1.0
 40
1.0
 40
1.0
 40
1.0
 10
2435.702447628234
 20
586.7682283712404
 30
0.0
 10
2435.702447628234
 20
587.4881766876881
 30
0.0
 10
2435.845597906558
 20
588.2078417352164
 30
0.0
 10
2436.396622492285
 20
589.5381327632803
 30
0.0
 10
2436.804279995044
 20
590.1482353311023
 30
0.0
 10
2437.822440668372
 20
591.1663960044302
 30
0.0
 10
2438.432543236194
 20
591.5740535071885
 30
0.0
 10
2439.762834264258
 20
592.1250780929157
 30
0.0
 10
2440.482499311786
 20
592.2682283712399
 30
0.0
 10
2441.922395944681
 20
592.2682283712398
 30
0.0
 10
2442.64206099221
 20
592.1250780929154
 30
0.0
 10
2443.972352020273
 20
591.5740535071882
 30
0.0
 10
2444.582454588096
 20
591.1663960044298
 30
0.0
 10
2445.600615261423
 20
590.1482353311017
 30
0.0
 10
2446.008272764182
 20
589.5381327632796
 30
0.0
 10
2446.559297349909
 20
588.2078417352158
 30
0.0
 10
2446.702447628233
 20
587.4881766876874
 30
0.0
 10
2446.702447628233
 20
586.7682283712398
 30
0.0
  0
LINE
  5
F99
330
F87
100
AcDbEntity
  8
0
  6
Continuous
 62
     7
370
    15
100
AcDbLine
 10
2446.702448255902
 20
586.7682290905736
 30
0.0
 11
2445.214775926953
 21
586.7682290905736
 31
0.0
  0
SPLINE
  5
F9A
330
F87
100
AcDbEntity
  8
0
  6
Continuous
 62
     7
370
    15
100
AcDbSpline
210
0.0
220
0.0
230
1.0
 70
     8
 71
     3
 72
    22
 73
    18
 74
     0
 42
0.0000000001
 43
0.0000000001
 40
0.0
 40
0.0
 40
0.0
 40
0.0
 40
0.125
 40
0.125
 40
0.25
 40
0.25
 40
0.375
 40
0.375
 40
0.5
 40
0.5
 40
0.625
 40
0.625
 40
0.75
 40
0.75
 40
0.875
 40
0.875
 40
1.0
 40
1.0
 40
1.0
 40
1.0
 10
2437.18993991823
 20
586.7682283712404
 30
0.0
 10
2437.189939878356
 20
587.2934484323979
 30
0.0
 10
2437.294371498746
 20
587.8184618579411
 30
0.0
 10
2437.696357468554
 20
588.7889420465292
 30
0.0
 10
2437.993753653771
 20
589.2340269670131
 30
0.0
 10
2438.736526975389
 20
589.9768004014137
 30
0.0
 10
2439.181611862293
 20
590.2741966656133
 30
0.0
 10
2440.152092047711
 20
590.6761828067478
 30
0.0
 10
2440.67710550376
 20
590.7806145191864
 30
0.0
 10
2441.727545751345
 20
590.7806145989359
 30
0.0
 10
2442.252559239499
 20
590.6761829660904
 30
0.0
 10
2443.223039543822
 20
590.2741969483442
 30
0.0
 10
2443.668124517384
 20
589.9768007276604
 30
0.0
 10
2444.410898040364
 20
589.2340273174633
 30
0.0
 10
2444.70829434003
 20
588.7889423774805
 30
0.0
 10
2445.110280529103
 20
587.8184620763282
 30
0.0
 10
2445.214712253995
 20
587.2934485576679
 30
0.0
 10
2445.21471229387
 20
586.7682283712402
 30
0.0
  0
LINE
  5
F9B
330
F87
100
AcDbEntity
  8
0
  6
Continuous
 62
     7
370
    15
100
AcDbLine
 10
2437.190001435166
 20
586.7682290905736
 30
0.0
 11
2435.702448315506
 21
586.7682290905736
 31
0.0
  0
LINE
  5
F9C
330
F87
100
AcDbEntity
  8
0
  6
Continuous
 62
     7
370
    15
100
AcDbLine
 10
2444.952269620781
 20
586.7682290905736
 30
0.0
 11
2445.214723772889
 21
586.7682290905736
 31
0.0
  0
SPLINE
  5
F9D
330
F87
100
AcDbEntity
  8
0
  6
Continuous
 62
     7
370
    15
100
AcDbSpline
210
0.0
220
0.0
230
1.0
 70
     8
 71
     3
 72
    22
 73
    18
 74
     0
 42
0.0000000001
 43
0.0000000001
 40
0.0
 40
0.0
 40
0.0
 40
0.0
 40
0.125
 40
0.125
 40
0.25
 40
0.25
 40
0.375
 40
0.375
 40
0.5
 40
0.5
 40
0.625
 40
0.625
 40
0.75
 40
0.75
 40
0.875
 40
0.875
 40
1.0
 40
1.0
 40
1.0
 40
1.0
 10
2444.952271797565
 20
586.7682283712403
 30
0.0
 10
2444.952271734316
 20
587.2590951770356
 30
0.0
 10
2444.854670609748
 20
587.7497688222423
 30
0.0
 10
2444.478977323737
 20
588.6567723180662
 30
0.0
 10
2444.201032981744
 20
589.0727453016147
 30
0.0
 10
2443.506842468474
 20
589.7669356359897
 30
0.0
 10
2443.090869431661
 20
590.0448798527032
 30
0.0
 10
2442.183865930809
 20
590.4205728669559
 30
0.0
 10
2441.693192333991
 20
590.51817384552
 30
0.0
 10
2440.711458921104
 20
590.5181737190221
 30
0.0
 10
2440.220785375209
 20
590.4205726142081
 30
0.0
 10
2439.313782062962
 20
590.0448794042379
 30
0.0
 10
2438.897809163607
 20
589.7669351184999
 30
0.0
 10
2438.203618969736
 20
589.0727447457338
 30
0.0
 10
2437.925674809279
 20
588.6567717931142
 30
0.0
 10
2437.549981871066
 20
587.7497684758387
 30
0.0
 10
2437.452380912256
 20
587.2590949783333
 30
0.0
 10
2437.452380975505
 20
586.7682283712407
 30
0.0
  0
LINE
  5
F9E
330
F87
100
AcDbEntity
  8
0
  6
Continuous
 62
     7
370
    15
100
AcDbLine
 10
2437.18992692936
 20
586.7682290905736
 30
0.0
 11
2437.452381081467
 21
586.7682290905736
 31
0.0
  0
SPLINE
  5
F9F
330
F87
100
AcDbEntity
  8
0
  6
Continuous
 62
     7
370
    15
100
AcDbSpline
210
0.0
220
0.0
230
1.0
 70
     8
 71
     3
 72
    14
 73
    10
 74
     0
 42
0.0000000001
 43
0.0000000001
 40
0.0
 40
0.0
 40
0.0
 40
0.0
 40
0.25
 40
0.25
 40
0.5
 40
0.5
 40
0.75
 40
0.75
 40
1.0
 40
1.0
 40
1.0
 40
1.0
 10
2445.214833367845
 20
586.7682283712398
 30
0.0
 10
2445.214833404165
 20
586.2430083061176
 30
0.0
 10
2445.110401779436
 20
585.7179948780424
 30
0.0
 10
2444.708415801093
 20
584.7475146874297
 30
0.0
 10
2444.411019611691
 20
584.3024297674494
 30
0.0
 10
2443.668246283387
 20
583.5596563364192
 30
0.0
 10
2443.223161393992
 20
583.262260075077
 30
0.0
 10
2442.252681206268
 20
582.8602739406835
 30
0.0
 10
2441.727667750406
 20
582.7558422321155
 30
0.0
 10
2441.202447628234
 20
582.7558421957962
 30
0.0
  0
SPLINE
  5
FA0
330
F87
100
AcDbEntity
  8
0
  6
Continuous
 62
     7
370
    15
100
AcDbSpline
210
0.0
220
0.0
230
1.0
 70
     8
 71
     3
 72
    14
 73
    10
 74
     0
 42
0.0000000001
 43
0.0000000001
 40
0.0
 40
0.0
 40
0.0
 40
0.0
 40
0.25
 40
0.25
 40
0.5
 40
0.5
 40
0.75
 40
0.75
 40
1.0
 40
1.0
 40
1.0
 40
1.0
 10
2441.202447628234
 20
582.7558421957962
 30
0.0
 10
2440.677227506061
 20
582.7558421574098
 30
0.0
 10
2440.152214020125
 20
582.8602737914184
 30
0.0
 10
2439.181733721016
 20
583.2622598102272
 30
0.0
 10
2438.736648750444
 20
583.5596560308057
 30
0.0
 10
2437.993875233512
 20
584.3024294391634
 30
0.0
 10
2437.6964789369
 20
584.7475143774094
 30
0.0
 10
2437.294492753158
 20
585.7179946734674
 30
0.0
 10
2437.190061030538
 20
586.2430081887705
 30
0.0
 10
2437.190060992152
 20
586.7682283712404
 30
0.0
  0
SPLINE
  5
FA1
330
F87
100
AcDbEntity
  8
0
  6
Continuous
 62
     7
370
    15
100
AcDbSpline
210
0.0
220
0.0
230
1.0
 70
     8
 71
     3
 72
    14
 73
    10
 74
     0
 42
0.0000000001
 43
0.0000000001
 40
0.0
 40
0.0
 40
0.0
 40
0.0
 40
0.25
 40
0.25
 40
0.5
 40
0.5
 40
0.75
 40
0.75
 40
1.0
 40
1.0
 40
1.0
 40
1.0
 10
2437.452522377883
 20
586.7682283712407
 30
0.0
 10
2437.452522377883
 20
586.2773643038242
 30
0.0
 10
2437.550122894843
 20
585.7866933704574
 30
0.0
 10
2437.92581398713
 20
584.8796948401947
 30
0.0
 10
2438.203756744055
 20
584.4637241084898
 30
0.0
 10
2438.897943365477
 20
583.7695374870677
 30
0.0
 10
2439.313914097182
 20
583.4915947301428
 30
0.0
 10
2440.220912627444
 20
583.1159036378555
 30
0.0
 10
2440.711583560811
 20
583.0183031208952
 30
0.0
 10
2441.202447628228
 20
583.0183031208952
 30
0.0
  0
SPLINE
  5
FA2
330
F87
100
AcDbEntity
  8
0
  6
Continuous
 62
     7
370
    15
100
AcDbSpline
210
0.0
220
0.0
230
1.0
 70
     8
 71
     3
 72
    14
 73
    10
 74
     0
 42
0.0000000001
 43
0.0000000001
 40
0.0
 40
0.0
 40
0.0
 40
0.0
 40
0.25
 40
0.25
 40
0.5
 40
0.5
 40
0.75
 40
0.75
 40
1.0
 40
1.0
 40
1.0
 40
1.0
 10
2441.202447628228
 20
583.0183033514307
 30
0.0
 10
2441.693311665467
 20
583.0183033514307
 30
0.0
 10
2442.183982568669
 20
583.1159038623908
 30
0.0
 10
2443.090981043172
 20
583.4915949315816
 30
0.0
 10
2443.506951749303
 20
583.7695376714191
 30
0.0
 10
2444.201138328049
 20
584.4637242501643
 30
0.0
 10
2444.479081067886
 20
584.8796949562962
 30
0.0
 10
2444.854772137077
 20
585.7866934307988
 30
0.0
 10
2444.952372648037
 20
586.2773643340005
 30
0.0
 10
2444.952372648037
 20
586.7682283712398
 30
0.0
  0
ARC
  5
FA3
330
F87
100
AcDbEntity
  8
0
  6
Continuous
 62
     7
370
    15
100
AcDbCircle
 10
2441.202447628234
 20
586.7682283712398
 30
0.0
 40
5.5
100
AcDbArc
 50
179.9999999998957
 51
359.9999999998958
  0
SPLINE
  5
FA4
330
F87
100
AcDbEntity
  8
0
  6
Continuous
 62
     7
370
    15
100
AcDbSpline
210
0.0
220
0.0
230
1.0
 70
     8
 71
     3
 72
    31
 73
    27
 74
     0
 42
0.0000000001
 43
0.0000000001
 40
0.0
 40
0.0
 40
0.0
 40
0.0
 40
0.0156149716808869
 40
0.031229575729435
 40
0.0468814988593421
 40
0.0626081594969237
 40
0.0938932814925489
 40
0.125110580571353
 40
0.1562318477308223
 40
0.1876552883801186
 40
0.2501272534885115
 40
0.3125959365787782
 40
0.3750679178529694
 40
0.437536600943407
 40
0.5000085822173449
 40
0.5624772653054952
 40
0.6249492465818657
 40
0.6874177461954058
 40
0.7498899182216632
 40
0.8123303357404719
 40
0.8436932118566714
 40
0.8749047639832578
 40
0.9060421046658834
 40
0.937353418533589
 40
0.9686899357276423
 40
0.9999999999999998
 40
0.9999999999999998
 40
0.9999999999999998
 40
0.9999999999999998
 10
2467.031318099897
 20
586.76822837124
 30
0.0
 10
2467.032289349818
 20
586.8337666415398
 30
0.0
 10
2467.034231826794
 20
586.9648416391341
 30
0.0
 10
2467.049406559677
 20
587.1611255459771
 30
0.0
 10
2467.073571848273
 20
587.356923468744
 30
0.0
 10
2467.118682174011
 20
587.6161023448349
 30
0.0
 10
2467.19830347886
 20
587.9351893535571
 30
0.0
 10
2467.330660234904
 20
588.3057994966957
 30
0.0
 10
2467.499268038914
 20
588.6620972591437
 30
0.0
 10
2467.769805754697
 20
589.1124020200667
 30
0.0
 10
2468.187979095527
 20
589.6241384868267
 30
0.0
 10
2468.800755758028
 20
590.1250808613594
 30
0.0
 10
2469.498206713319
 20
590.4995222373993
 30
0.0
 10
2470.256124478517
 20
590.7279426766122
 30
0.0
 10
2471.043755118917
 20
590.8069497998561
 30
0.0
 10
2471.831399141648
 20
590.7279454038338
 30
0.0
 10
2472.589305099393
 20
590.4995333401018
 30
0.0
 10
2473.286768519371
 20
590.1250880889997
 30
0.0
 10
2473.899451170408
 20
589.6242410299618
 30
0.0
 10
2474.317391250469
 20
589.1127908131478
 30
0.0
 10
2474.587875360378
 20
588.6624629378643
 30
0.0
 10
2474.756557474042
 20
588.3064631795734
 30
0.0
 10
2474.889415400197
 20
587.9357978837454
 30
0.0
 10
2474.984363076167
 20
587.5533256721039
 30
0.0
 10
2475.044812414312
 20
587.1627027059523
 30
0.0
 10
2475.052334341103
 20
586.8996827955283
 30
0.0
 10
2475.056093716408
 20
586.7682283712402
 30
0.0
  0
LINE
  5
FA5
330
F87
100
AcDbEntity
  8
0
  6
Continuous
 62
     7
370
    15
100
AcDbLine
 10
2465.543647832757
 20
586.7682290905736
 30
0.0
 11
2467.031320161706
 21
586.7682290905736
 31
0.0
  0
SPLINE
  5
FA6
330
F87
100
AcDbEntity
  8
0
  6
Continuous
 62
     7
370
    15
100
AcDbSpline
210
0.0
220
0.0
230
1.0
 70
     8
 71
     3
 72
    33
 73
    29
 74
     0
 42
0.0000000001
 43
0.0000000001
 40
0.0
 40
0.0
 40
0.0
 40
0.0
 40
0.0125376080374536
 40
0.025043722227373
 40
0.0375376105912812
 40
0.0500385976825593
 40
0.0625659752034471
 40
0.0938225563701506
 40
0.1251111195597397
 40
0.1563677007257435
 40
0.1876562639160366
 40
0.2501257057355768
 40
0.3125951475551171
 40
0.3750645893746572
 40
0.4375340311941972
 40
0.500003473013737
 40
0.5624729148332773
 40
0.6249423566528175
 40
0.6874117984723574
 40
0.7498812402918973
 40
0.8123506821114375
 40
0.8436072632795655
 40
0.8748958264677341
 40
0.9061524076349403
 40
0.9374409708240246
 40
0.9582875996971763
 40
0.9791107469703563
 40
1.0
 40
1.0
 40
1.0
 40
1.0
 10
2476.543646899771
 20
586.7682283712402
 30
0.0
 10
2476.542823216912
 20
586.8403636108186
 30
0.0
 10
2476.541177920243
 20
586.9844528898429
 30
0.0
 10
2476.528001513872
 20
587.2000945099947
 30
0.0
 10
2476.506977615222
 20
587.414859029483
 30
0.0
 10
2476.477338834823
 20
587.6287509361254
 30
0.0
 10
2476.420410009262
 20
587.9475807213136
 30
0.0
 10
2476.315417257094
 20
588.3673303013852
 30
0.0
 10
2476.133176827409
 20
588.8761669478721
 30
0.0
 10
2475.902133626606
 20
589.3650750885472
 30
0.0
 10
2475.531794603759
 20
589.9827407029683
 30
0.0
 10
2474.957762509044
 20
590.6825159224246
 30
0.0
 10
2474.118991520445
 20
591.370755252896
 30
0.0
 10
2473.161970497451
 20
591.8823304994146
 30
0.0
 10
2472.123561156429
 20
592.1973175497568
 30
0.0
 10
2471.043646901996
 20
592.3036837823026
 30
0.0
 10
2469.963732634217
 20
592.1973175484701
 30
0.0
 10
2468.925323333233
 20
591.8823305045605
 30
0.0
 10
2467.968302163433
 20
591.3707552335976
 30
0.0
 10
2467.129531722019
 20
590.6825159944705
 30
0.0
 10
2466.555615438139
 20
589.9828837449909
 30
0.0
 10
2466.185249527244
 20
589.3652383924258
 30
0.0
 10
2465.954250913273
 20
588.8765088005381
 30
0.0
 10
2465.771955864446
 20
588.3675002139449
 30
0.0
 10
2465.65519740052
 20
587.901272421258
 30
0.0
 10
2465.587045772052
 20
587.4868937004513
 30
0.0
 10
2465.550446304454
 20
587.1284478501118
 30
0.0
 10
2465.545915761332
 20
586.8884283250715
 30
0.0
 10
2465.543646899771
 20
586.7682283712396
 30
0.0
  0
LINE
  5
FA7
330
F87
100
AcDbEntity
  8
0
  6
Continuous
 62
     7
370
    15
100
AcDbLine
 10
2475.056094653492
 20
586.7682290905736
 30
0.0
 11
2476.543647773152
 21
586.7682290905736
 31
0.0
  0
LINE
  5
FA8
330
F87
100
AcDbEntity
  8
0
  6
Continuous
 62
     7
370
    15
100
AcDbLine
 10
2475.056020147686
 20
586.7682290905736
 30
0.0
 11
2474.79357344616
 21
586.7682290905736
 31
0.0
  0
SPLINE
  5
FA9
330
F87
100
AcDbEntity
  8
0
  6
Continuous
 62
     7
370
    15
100
AcDbSpline
210
0.0
220
0.0
230
1.0
 70
     8
 71
     3
 72
    30
 73
    26
 74
     0
 42
0.0000000001
 43
0.0000000001
 40
0.0
 40
0.0
 40
0.0
 40
0.0
 40
0.0156373134660655
 40
0.0312692946277332
 40
0.0469335568772618
 40
0.0626674820959051
 40
0.0939618846335285
 40
0.1251176185482356
 40
0.1562170455781259
 40
0.1876660277000283
 40
0.2501433762766836
 40
0.312615516749716
 40
0.3750929372559557
 40
0.437565077709018
 40
0.5000424982352052
 40
0.5625146789492264
 40
0.6249920576233988
 40
0.6874618413828145
 40
0.749941708487596
 40
0.8123875230359166
 40
0.8748924978961836
 40
0.9060140341696365
 40
0.9373002260940568
 40
0.9686218425813901
 40
0.9999999999999998
 40
0.9999999999999998
 40
0.9999999999999998
 40
0.9999999999999998
 10
2474.79364299306
 20
586.7682283712404
 30
0.0
 10
2474.792714447791
 20
586.8295614797529
 30
0.0
 10
2474.790857673884
 20
586.9522067822641
 30
0.0
 10
2474.77662477127
 20
587.1358353863289
 30
0.0
 10
2474.754000078329
 20
587.3189505635018
 30
0.0
 10
2474.711785788288
 20
587.5612588159718
 30
0.0
 10
2474.637468036589
 20
587.8592836989428
 30
0.0
 10
2474.51397166981
 20
588.205381130449
 30
0.0
 10
2474.356434527741
 20
588.5381140849903
 30
0.0
 10
2474.103426009512
 20
588.9588369027189
 30
0.0
 10
2473.7128952114
 20
589.4374607416539
 30
0.0
 10
2473.139885620529
 20
589.9052304497595
 30
0.0
 10
2472.488310838077
 20
590.2556188992248
 30
0.0
 10
2471.779832960181
 20
590.4686134497974
 30
0.0
 10
2471.043789600751
 20
590.5429526586516
 30
0.0
 10
2470.307724934876
 20
590.4686208795309
 30
0.0
 10
2469.59927693502
 20
590.2556236753983
 30
0.0
 10
2468.947666177455
 20
589.9052987354091
 30
0.0
 10
2468.374784980167
 20
589.4374000119264
 30
0.0
 10
2467.906618194981
 20
588.8645998541777
 30
0.0
 10
2467.615244538381
 20
588.3215730960558
 30
0.0
 10
2467.449744938147
 20
587.859692266518
 30
0.0
 10
2467.360990508782
 20
587.5024779840747
 30
0.0
 10
2467.304525595414
 20
587.1373341264211
 30
0.0
 10
2467.297358889522
 20
586.8913375672771
 30
0.0
 10
2467.293772305207
 20
586.7682283712402
 30
0.0
  0
LINE
  5
FAA
330
F87
100
AcDbEntity
  8
0
  6
Continuous
 62
     7
370
    15
100
AcDbLine
 10
2467.293722159749
 20
586.7682290905736
 30
0.0
 11
2467.031268007641
 21
586.7682290905736
 31
0.0
  0
SPLINE
  5
FAB
330
F87
100
AcDbEntity
  8
0
  6
Continuous
 62
     7
370
    15
100
AcDbSpline
210
0.0
220
0.0
230
1.0
 70
     8
 71
     3
 72
    23
 73
    19
 74
     0
 42
0.0000000001
 43
0.0000000001
 40
0.0
 40
0.0
 40
0.0
 40
0.0
 40
0.0312790992544
 40
0.0625215055378493
 40
0.0938020946956283
 40
0.125195469366079
 40
0.1877049111470232
 40
0.2501007698209572
 40
0.3123139621902504
 40
0.3751308749721462
 40
0.5000160418638949
 40
0.6248381832128826
 40
0.6875345841634431
 40
0.7499276189945358
 40
0.8121722166468199
 40
0.8747648194489006
 40
0.9374087487736854
 40
0.9999999999999998
 40
0.9999999999999998
 40
0.9999999999999998
 40
0.9999999999999998
 10
2471.043646899771
 20
582.7558421958034
 30
0.0
 10
2470.977974910386
 20
582.7568361888796
 30
0.0
 10
2470.846707970291
 20
582.7588230089958
 30
0.0
 10
2470.650250375104
 20
582.7740089491105
 30
0.0
 10
2470.454503236926
 20
582.7981471033618
 30
0.0
 10
2470.195495601395
 20
582.8432035513822
 30
0.0
 10
2469.876584972773
 20
582.9227924553
 30
0.0
 10
2469.506058522976
 20
583.0551300811391
 30
0.0
 10
2469.149778615284
 20
583.2237240612935
 30
0.0
 10
2468.699471049807
 20
583.4942801518247
 30
0.0
 10
2468.187847913824
 20
583.9122400012077
 30
0.0
 10
2467.770039071572
 20
584.4236652866688
 30
0.0
 10
2467.499537336731
 20
584.873996266825
 30
0.0
 10
2467.330859104113
 20
585.2299932464385
 30
0.0
 10
2467.198001471557
 20
585.6006553255107
 30
0.0
 10
2467.103053407577
 20
585.9831259335431
 30
0.0
 10
2467.04260218741
 20
586.3737501720039
 30
0.0
 10
2467.035078407484
 20
586.6367725168214
 30
0.0
 10
2467.031318099897
 20
586.76822837124
 30
0.0
  0
SPLINE
  5
FAC
330
F87
100
AcDbEntity
  8
0
  6
Continuous
 62
     7
370
    15
100
AcDbSpline
210
0.0
220
0.0
230
1.0
 70
     8
 71
     3
 72
    23
 73
    19
 74
     0
 42
0.0000000001
 43
0.0000000001
 40
0.0
 40
0.0
 40
0.0
 40
0.0
 40
0.0312151157096688
 40
0.0624293814631143
 40
0.0937181296960037
 40
0.125156157419309
 40
0.1876974391820958
 40
0.2501026372481431
 40
0.3123157607766483
 40
0.3751328653792587
 40
0.5000176782827177
 40
0.6248641409644592
 40
0.6875637148550862
 40
0.7499277214791214
 40
0.8121739978966843
 40
0.8749642805960363
 40
0.9373266558641441
 40
1.0
 40
1.0
 40
1.0
 40
1.0
 10
2475.056093716408
 20
586.7682283712402
 30
0.0
 10
2475.055122475101
 20
586.7026902089548
 30
0.0
 10
2475.053180018932
 20
586.5716156689225
 30
0.0
 10
2475.038005855925
 20
586.3753327875441
 30
0.0
 10
2475.013841535206
 20
586.1795365756856
 30
0.0
 10
2474.968732430735
 20
585.9203576029551
 30
0.0
 10
2474.889112753757
 20
585.6012694254511
 30
0.0
 10
2474.756754935437
 20
585.2306573566536
 30
0.0
 10
2474.588150847444
 20
584.8743595303769
 30
0.0
 10
2474.317593141228
 20
584.4240540749196
 30
0.0
 10
2473.899614179178
 20
583.9123749194822
 30
0.0
 10
2473.388088549801
 20
583.4945932357077
 30
0.0
 10
2472.937766331828
 20
583.2240913836232
 30
0.0
 10
2472.581832003931
 20
583.0553876648456
 30
0.0
 10
2472.210788756425
 20
582.9225391874826
 30
0.0
 10
2471.828501188944
 20
582.8275639650931
 30
0.0
 10
2471.437877578261
 20
582.7671624678513
 30
0.0
 10
2471.175274827139
 20
582.7596218710754
 30
0.0
 10
2471.043646899771
 20
582.7558421958034
 30
0.0
  0
ARC
  5
FAD
330
F87
100
AcDbEntity
  8
0
  6
Continuous
 62
     7
370
    15
100
AcDbCircle
 10
2471.043646899771
 20
586.7682283712396
 30
0.0
 40
5.5
100
AcDbArc
 50
180.0
 51
0.0000000000065138
  0
SPLINE
  5
FAE
330
F87
100
AcDbEntity
  8
0
  6
Continuous
 62
     7
370
    15
100
AcDbSpline
210
0.0
220
0.0
230
1.0
 70
     8
 71
     3
 72
    26
 73
    22
 74
     0
 42
0.0000000001
 43
0.0000000001
 40
0.0
 40
0.0
 40
0.0
 40
0.0
 40
0.0345759519712319
 40
0.0688911241839731
 40
0.1030440783345593
 40
0.1371347831436756
 40
0.1712637543485242
 40
0.2055311709504376
 40
0.2400360061128524
 40
0.3042241872351304
 40
0.3686627808829987
 40
0.4342117989621002
 40
0.5000267336619788
 40
0.5655730170372695
 40
0.6313907008993787
 40
0.695563421117286
 40
0.7600174888775637
 40
0.8201282782246568
 40
0.8798028391769257
 40
0.9395810473516277
 40
1.0
 40
1.0
 40
1.0
 40
1.0
 10
2471.043646899771
 20
583.0183032281594
 30
0.0
 10
2471.111521884507
 20
583.0193795951664
 30
0.0
 10
2471.246759925277
 20
583.0215242109736
 30
0.0
 10
2471.448467587251
 20
583.0383252298927
 30
0.0
 10
2471.648065132516
 20
583.0651028954357
 30
0.0
 10
2471.84554684522
 20
583.102812617605
 30
0.0
 10
2472.040908426319
 20
583.1511923022416
 30
0.0
 10
2472.234142114189
 20
583.2103351126892
 30
0.0
 10
2472.479389185909
 20
583.2998841648113
 30
0.0
 10
2472.771384947386
 20
583.4327332053992
 30
0.0
 10
2473.101016321697
 20
583.6253318966521
 30
0.0
 10
2473.412096444551
 20
583.8521976550622
 30
0.0
 10
2473.699564623259
 20
584.1115854777125
 30
0.0
 10
2473.959371410323
 20
584.3993801816127
 30
0.0
 10
2474.185990997173
 20
584.7099931861333
 30
0.0
 10
2474.378975214151
 20
585.0400303600765
 30
0.0
 10
2474.532587278376
 20
585.3778270215754
 30
0.0
 10
2474.650531740067
 20
585.7202799899821
 30
0.0
 10
2474.732683422306
 20
586.0634703099602
 30
0.0
 10
2474.784053421858
 20
586.4135757392051
 30
0.0
 10
2474.790435129502
 20
586.6495914447242
 30
0.0
 10
2474.79364299306
 20
586.7682283712404
 30
0.0
  0
SPLINE
  5
FAF
330
F87
100
AcDbEntity
  8
0
  6
Continuous
 62
     7
370
    15
100
AcDbSpline
210
0.0
220
0.0
230
1.0
 70
     8
 71
     3
 72
    22
 73
    18
 74
     0
 42
0.0000000001
 43
0.0000000001
 40
0.0
 40
0.0
 40
0.0
 40
0.0
 40
0.0312632827201569
 40
0.0625153373196823
 40
0.0938313360071965
 40
0.1252859925425102
 40
0.187848950986861
 40
0.2501348033322355
 40
0.3123086367592303
 40
0.3751758249090852
 40
0.500085741825891
 40
0.6249254673332909
 40
0.7498867336477512
 40
0.8121084257853336
 40
0.8746563899212102
 40
0.9372730089032625
 40
1.0
 40
1.0
 40
1.0
 40
1.0
 10
2467.293772305207
 20
586.7682283712402
 30
0.0
 10
2467.294703274522
 20
586.706893166787
 30
0.0
 10
2467.296564878798
 20
586.5842447862481
 30
0.0
 10
2467.310802882761
 20
586.4006135874162
 30
0.0
 10
2467.333431145834
 20
586.2174993256977
 30
0.0
 10
2467.375648251812
 20
585.9751949997551
 30
0.0
 10
2467.449967598246
 20
585.677175657355
 30
0.0
 10
2467.573464055423
 20
585.3310825283152
 30
0.0
 10
2467.730993055432
 20
584.9983616902966
 30
0.0
 10
2467.983986094394
 20
584.5776291663723
 30
0.0
 10
2468.374510711949
 20
584.0991510259072
 30
0.0
 10
2468.947274222619
 20
583.6311219184369
 30
0.0
 10
2469.490315082702
 20
583.3397172995005
 30
0.0
 10
2469.952204061695
 20
583.1742192349777
 30
0.0
 10
2470.309424568722
 20
583.0854701577504
 30
0.0
 10
2470.674560447807
 20
583.0290225830188
 30
0.0
 10
2470.920545881103
 20
583.0218784433851
 30
0.0
 10
2471.043646899771
 20
583.0183032281594
 30
0.0
  0
LINE
  5
FB0
330
F87
100
AcDbEntity
  8
0
  6
Continuous
 62
     7
370
    15
100
AcDbLine
 10
2452.323061950093
 20
586.7682290905736
 30
0.0
 11
2452.323061950093
 21
595.7680498892091
 31
0.0
  0
SPLINE
  5
FB1
330
F87
100
AcDbEntity
  8
0
  6
Continuous
 62
     7
370
    15
100
AcDbSpline
210
0.0
220
0.0
230
1.0
 70
    24
 71
     3
 72
    10
 73
     6
 74
     0
 42
0.0000000001
 43
0.0000000001
 40
0.0
 40
0.0
 40
0.0
 40
0.0
 40
0.5
 40
0.5
 40
1.0
 40
1.0
 40
1.0
 40
1.0
 10
2451.323142733968
 20
586.7682283712396
 30
0.0
 10
2451.584966495
 20
586.7682283712396
 30
0.0
 10
2451.845183847917
 20
586.7682283712396
 30
0.0
 10
2452.215448293181
 20
586.7682283712396
 30
0.0
 10
2452.323214343512
 20
586.7682283712396
 30
0.0
 10
2452.323183846385
 20
586.7682283712396
 30
0.0
  0
LINE
  5
FB2
330
F87
100
AcDbEntity
  8
0
  6
Continuous
 62
     7
370
    15
100
AcDbLine
 10
2451.323082275277
 20
595.7680498892091
 30
0.0
 11
2452.323061950093
 21
595.7680498892091
 31
0.0
  0
LINE
  5
FB3
330
F87
100
AcDbEntity
  8
0
  6
Continuous
 62
     7
370
    15
100
AcDbLine
 10
2433.793281741028
 20
586.7682290905736
 30
0.0
 11
2433.793222136384
 21
595.7680498892091
 31
0.0
  0
LINE
  5
FB4
330
F87
100
AcDbEntity
  8
0
  6
Continuous
 62
     7
370
    15
100
AcDbLine
 10
2433.793222136384
 20
595.7680498892091
 30
0.0
 11
2451.323082275277
 21
595.7680498892091
 31
0.0
  0
LINE
  5
FB5
330
F87
100
AcDbEntity
  8
0
  6
Continuous
 62
     7
370
    15
100
AcDbLine
 10
2451.323141879921
 20
586.7682290905736
 30
0.0
 11
2451.323201484566
 21
577.7684082919381
 31
0.0
  0
LINE
  5
FB6
330
F87
100
AcDbEntity
  8
0
  6
Continuous
 62
     7
370
    15
100
AcDbLine
 10
2451.323201484566
 20
577.7684082919381
 30
0.0
 11
2433.793348796254
 21
577.7684082919381
 31
0.0
  0
LINE
  5
FB7
330
F87
100
AcDbEntity
  8
0
  6
Continuous
 62
     7
370
    15
100
AcDbLine
 10
2433.793348796254
 20
577.7684082919381
 30
0.0
 11
2433.793281741028
 21
586.7682290905736
 31
0.0
  0
LINE
  5
FB8
330
F87
100
AcDbEntity
  8
0
  6
Continuous
 62
     7
370
    15
100
AcDbLine
 10
2451.323082275277
 20
595.7680498892091
 30
0.0
 11
2451.323141879921
 21
586.7682290905736
 31
0.0
  0
LINE
  5
FB9
330
F87
100
AcDbEntity
  8
0
  6
Continuous
 62
     7
370
    15
100
AcDbLine
 10
2452.323181159382
 20
577.7684082919381
 30
0.0
 11
2452.323181159382
 21
586.7682290905736
 31
0.0
  0
LINE
  5
FBA
330
F87
100
AcDbEntity
  8
0
  6
Continuous
 62
     7
370
    15
100
AcDbLine
 10
2452.323181159382
 20
577.7684082919381
 30
0.0
 11
2451.323201484566
 21
577.7684082919381
 31
0.0
  0
SPLINE
  5
FBB
330
F87
100
AcDbEntity
  8
0
  6
Continuous
 62
     7
370
    15
100
AcDbSpline
210
0.0
220
0.0
230
1.0
 70
    24
 71
     3
 72
    10
 73
     6
 74
     0
 42
0.0000000001
 43
0.0000000001
 40
0.0
 40
0.0
 40
0.0
 40
0.0
 40
0.5
 40
0.5
 40
1.0
 40
1.0
 40
1.0
 40
1.0
 10
2459.92303268229
 20
586.7682283712395
 30
0.0
 10
2459.923063164779
 20
586.7682283712395
 30
0.0
 10
2460.030839014385
 20
586.7682283712395
 30
0.0
 10
2460.401040337188
 20
586.7682283712395
 30
0.0
 10
2460.661187187272
 20
586.7682283712395
 30
0.0
 10
2460.922951794029
 20
586.7682283712395
 30
0.0
  0
LINE
  5
FBC
330
F87
100
AcDbEntity
  8
0
  6
Continuous
 62
     7
370
    15
100
AcDbLine
 10
2459.923034138566
 20
586.7682290905736
 30
0.0
 11
2459.923034138566
 21
595.7680498892091
 31
0.0
  0
LINE
  5
FBD
330
F87
100
AcDbEntity
  8
0
  6
Continuous
 62
     7
370
    15
100
AcDbLine
 10
2460.923013813382
 20
595.7680498892091
 30
0.0
 11
2459.923034138566
 21
595.7680498892091
 31
0.0
  0
LINE
  5
FBE
330
F87
100
AcDbEntity
  8
0
  6
Continuous
 62
     7
370
    15
100
AcDbLine
 10
2460.922887153512
 20
577.7684082919381
 30
0.0
 11
2478.452747292405
 21
577.7684082919381
 31
0.0
  0
LINE
  5
FBF
330
F87
100
AcDbEntity
  8
0
  6
Continuous
 62
     7
370
    15
100
AcDbLine
 10
2460.922954208737
 20
586.7682290905736
 30
0.0
 11
2460.922887153512
 21
577.7684082919381
 31
0.0
  0
LINE
  5
FC0
330
F87
100
AcDbEntity
  8
0
  6
Continuous
 62
     7
370
    15
100
AcDbLine
 10
2460.923013813382
 20
595.7680498892091
 30
0.0
 11
2460.922954208737
 21
586.7682290905736
 31
0.0
  0
LINE
  5
FC1
330
F87
100
AcDbEntity
  8
0
  6
Continuous
 62
     7
370
    15
100
AcDbLine
 10
2478.452873952275
 20
595.7680498892091
 30
0.0
 11
2460.923013813382
 21
595.7680498892091
 31
0.0
  0
LINE
  5
FC2
330
F87
100
AcDbEntity
  8
0
  6
Continuous
 62
     7
370
    15
100
AcDbLine
 10
2478.452806897049
 20
586.7682290905736
 30
0.0
 11
2478.452873952275
 21
595.7680498892091
 31
0.0
  0
LINE
  5
FC3
330
F87
100
AcDbEntity
  8
0
  6
Continuous
 62
     7
370
    15
100
AcDbLine
 10
2478.452747292405
 20
577.7684082919381
 30
0.0
 11
2478.452806897049
 21
586.7682290905736
 31
0.0
  0
LINE
  5
FC4
330
F87
100
AcDbEntity
  8
0
  6
Continuous
 62
     7
370
    15
100
AcDbLine
 10
2459.922907478695
 20
577.7684082919381
 30
0.0
 11
2459.922907478695
 21
586.7682290905736
 31
0.0
  0
LINE
  5
FC5
330
F87
100
AcDbEntity
  8
0
  6
Continuous
 62
     7
370
    15
100
AcDbLine
 10
2459.922907478695
 20
577.7684082919381
 30
0.0
 11
2460.922887153512
 21
577.7684082919381
 31
0.0
  0
LINE
  5
FC6
330
F87
100
AcDbEntity
  8
0
  6
Continuous
 62
     7
370
    15
100
AcDbLine
 10
2438.210365898495
 20
586.8053739601395
 30
0.0
 11
2439.653737075215
 21
584.305372619035
 31
0.0
  0
LINE
  5
FC7
330
F87
100
AcDbEntity
  8
0
  6
Continuous
 62
     7
370
    15
100
AcDbLine
 10
2439.653737075215
 20
584.305372619035
 30
0.0
 11
2442.540494329815
 21
584.305372619035
 31
0.0
  0
LINE
  5
FC8
330
F87
100
AcDbEntity
  8
0
  6
Continuous
 62
     7
370
    15
100
AcDbLine
 10
2442.540494329815
 20
584.305372619035
 30
0.0
 11
2443.983865506535
 21
586.8053739601395
 31
0.0
  0
LINE
  5
FC9
330
F87
100
AcDbEntity
  8
0
  6
Continuous
 62
     7
370
    15
100
AcDbLine
 10
2443.983865506535
 20
586.8053739601395
 30
0.0
 11
2442.540494329815
 21
589.3053715759537
 31
0.0
  0
LINE
  5
FCA
330
F87
100
AcDbEntity
  8
0
  6
Continuous
 62
     7
370
    15
100
AcDbLine
 10
2442.540494329815
 20
589.3053715759537
 30
0.0
 11
2439.653737075215
 21
589.3053715759537
 31
0.0
  0
LINE
  5
FCB
330
F87
100
AcDbEntity
  8
0
  6
Continuous
 62
     7
370
    15
100
AcDbLine
 10
2439.653737075215
 20
589.3053715759537
 30
0.0
 11
2438.210365898495
 21
586.8053739601395
 31
0.0
  0
LINE
  5
FCC
330
F87
100
AcDbEntity
  8
0
  6
Continuous
 62
     7
370
    15
100
AcDbLine
 10
2469.705601758843
 20
589.3053715759537
 30
0.0
 11
2472.592351562863
 21
589.3053715759537
 31
0.0
  0
LINE
  5
FCD
330
F87
100
AcDbEntity
  8
0
  6
Continuous
 62
     7
370
    15
100
AcDbLine
 10
2468.262230582123
 20
586.8053739601395
 30
0.0
 11
2469.705601758843
 21
589.3053715759537
 31
0.0
  0
LINE
  5
FCE
330
F87
100
AcDbEntity
  8
0
  6
Continuous
 62
     7
370
    15
100
AcDbLine
 10
2469.705601758843
 20
584.305372619035
 30
0.0
 11
2468.262230582123
 21
586.8053739601395
 31
0.0
  0
LINE
  5
FCF
330
F87
100
AcDbEntity
  8
0
  6
Continuous
 62
     7
370
    15
100
AcDbLine
 10
2472.592351562863
 20
584.305372619035
 30
0.0
 11
2469.705601758843
 21
584.305372619035
 31
0.0
  0
LINE
  5
FD0
330
F87
100
AcDbEntity
  8
0
  6
Continuous
 62
     7
370
    15
100
AcDbLine
 10
2474.035730190163
 20
586.8053739601395
 30
0.0
 11
2472.592351562863
 21
584.305372619035
 31
0.0
  0
LINE
  5
FD1
330
F87
100
AcDbEntity
  8
0
  6
Continuous
 62
     7
370
    15
100
AcDbLine
 10
2472.592351562863
 20
589.3053715759537
 30
0.0
 11
2474.035730190163
 21
586.8053739601395
 31
0.0
  0
SPLINE
  5
FD2
330
F87
100
AcDbEntity
  8
0
  6
Continuous
 62
     7
370
    15
100
AcDbSpline
210
0.0
220
0.0
230
1.0
 70
    24
 71
     3
 72
     8
 73
     4
 74
     0
 42
0.0000000001
 43
0.0000000001
 40
0.0
 40
0.0
 40
0.0
 40
0.0
 40
1.0
 40
1.0
 40
1.0
 40
1.0
 10
2433.793284342552
 20
586.7682283712403
 30
0.0
 10
2433.531491071554
 20
586.7682283712403
 30
0.0
 10
2433.271303284929
 20
586.7682283712403
 30
0.0
 10
2433.0861756932
 20
586.7682283712403
 30
0.0
  0
LINE
  5
FD3
330
F87
100
AcDbEntity
  8
0
  6
Continuous
 62
     7
370
    15
100
AcDbLine
 10
2433.08608753193
 20
595.7680498892091
 30
0.0
 11
2433.086176938897
 21
586.7682290905736
 31
0.0
  0
LINE
  5
FD4
330
F87
100
AcDbEntity
  8
0
  6
Continuous
 62
     7
370
    15
100
AcDbLine
 10
2433.08608753193
 20
595.7680498892091
 30
0.0
 11
2433.793222136384
 21
595.7680498892091
 31
0.0
  0
LINE
  5
FD5
330
F87
100
AcDbEntity
  8
0
  6
Continuous
 62
     7
370
    15
100
AcDbLine
 10
2433.086117334252
 20
586.7682290905736
 30
0.0
 11
2433.086206741219
 21
577.7684082919381
 31
0.0
  0
LINE
  5
FD6
330
F87
100
AcDbEntity
  8
0
  6
Continuous
 62
     7
370
    15
100
AcDbLine
 10
2433.793348796254
 20
577.7684082919381
 30
0.0
 11
2433.086206741219
 21
577.7684082919381
 31
0.0
  0
LINE
  5
FD7
330
F87
100
AcDbEntity
  8
0
  6
Continuous
 62
     7
370
    15
100
AcDbLine
 10
2479.160008556729
 20
595.7680498892091
 30
0.0
 11
2478.452873952275
 21
595.7680498892091
 31
0.0
  0
LINE
  5
FD8
330
F87
100
AcDbEntity
  8
0
  6
Continuous
 62
     7
370
    15
100
AcDbLine
 10
2479.160008556729
 20
595.7680498892091
 30
0.0
 11
2479.159919149762
 21
586.7682290905736
 31
0.0
  0
SPLINE
  5
FD9
330
F87
100
AcDbEntity
  8
0
  6
Continuous
 62
     7
370
    15
100
AcDbSpline
210
0.0
220
0.0
230
1.0
 70
    24
 71
     3
 72
     8
 73
     4
 74
     0
 42
0.0000000001
 43
0.0000000001
 40
0.0
 40
0.0
 40
0.0
 40
0.0
 40
1.0
 40
1.0
 40
1.0
 40
1.0
 10
2479.159974292881
 20
586.7682283712396
 30
0.0
 10
2478.974862770282
 20
586.7682283712396
 30
0.0
 10
2478.714646449585
 20
586.7682283712396
 30
0.0
 10
2478.452810185451
 20
586.7682283712396
 30
0.0
  0
LINE
  5
FDA
330
F87
100
AcDbEntity
  8
0
  6
Continuous
 62
     7
370
    15
100
AcDbLine
 10
2479.159971303826
 20
586.7682290905736
 30
0.0
 11
2479.159881896859
 21
577.7684082919381
 31
0.0
  0
LINE
  5
FDB
330
F87
100
AcDbEntity
  8
0
  6
Continuous
 62
     7
370
    15
100
AcDbLine
 10
2478.452747292405
 20
577.7684082919381
 30
0.0
 11
2479.159881896859
 21
577.7684082919381
 31
0.0
  0
LINE
  5
FDC
330
F87
100
AcDbEntity
  8
0
  6
Continuous
 62
     7
370
    15
100
AcDbLine
 10
2432.993163890725
 20
586.7682290905736
 30
0.0
 11
2433.086176938897
 21
586.7682290905736
 31
0.0
  0
LINE
  5
FDD
330
F87
100
AcDbEntity
  8
0
  6
Continuous
 62
     7
370
    15
100
AcDbLine
 10
2432.993163890725
 20
586.7682290905736
 30
0.0
 11
2432.993163890725
 21
589.8884055846951
 31
0.0
  0
LINE
  5
FDE
330
F87
100
AcDbEntity
  8
0
  6
Continuous
 62
     7
370
    15
100
AcDbLine
 10
2432.993163890725
 20
589.8884055846951
 30
0.0
 11
2424.421889312153
 21
589.8884055846951
 31
0.0
  0
LINE
  5
FDF
330
F87
100
AcDbEntity
  8
0
  6
Continuous
 62
     7
370
    15
100
AcDbLine
 10
2424.421889312153
 20
589.8884055846951
 30
0.0
 11
2424.421889312153
 21
586.7682290905736
 31
0.0
  0
LINE
  5
FE0
330
F87
100
AcDbEntity
  8
0
  6
Continuous
 62
     7
370
    15
100
AcDbLine
 10
2424.328704900628
 20
586.7682290905736
 30
0.0
 11
2424.421889312153
 21
586.7682290905736
 31
0.0
  0
LINE
  5
FE1
330
F87
100
AcDbEntity
  8
0
  6
Continuous
 62
     7
370
    15
100
AcDbLine
 10
2424.328704900628
 20
586.7682290905736
 30
0.0
 11
2424.32861549366
 21
595.2680488759301
 31
0.0
  0
LINE
  5
FE2
330
F87
100
AcDbEntity
  8
0
  6
Continuous
 62
     7
370
    15
100
AcDbLine
 10
2424.32861549366
 20
595.7680498892091
 30
0.0
 11
2424.32861549366
 21
595.2680488759301
 31
0.0
  0
LINE
  5
FE3
330
F87
100
AcDbEntity
  8
0
  6
Continuous
 62
     7
370
    15
100
AcDbLine
 10
2433.08608753193
 20
595.7680498892091
 30
0.0
 11
2424.32861549366
 21
595.7680498892091
 31
0.0
  0
LINE
  5
FE4
330
F87
100
AcDbEntity
  8
0
  6
Continuous
 62
     7
370
    15
100
AcDbLine
 10
2424.328727252369
 20
577.7684082919381
 30
0.0
 11
2424.328727252369
 21
578.2684055799268
 31
0.0
  0
LINE
  5
FE5
330
F87
100
AcDbEntity
  8
0
  6
Continuous
 62
     7
370
    15
100
AcDbLine
 10
2424.328645295983
 20
586.7682290905736
 30
0.0
 11
2424.328727252369
 21
578.2684055799268
 31
0.0
  0
LINE
  5
FE6
330
F87
100
AcDbEntity
  8
0
  6
Continuous
 62
     7
370
    15
100
AcDbLine
 10
2424.421837158089
 20
586.7682290905736
 30
0.0
 11
2424.421837158089
 21
583.6484064990304
 31
0.0
  0
LINE
  5
FE7
330
F87
100
AcDbEntity
  8
0
  6
Continuous
 62
     7
370
    15
100
AcDbLine
 10
2424.421837158089
 20
583.6484064990304
 30
0.0
 11
2432.99310428608
 21
583.6484064990304
 31
0.0
  0
LINE
  5
FE8
330
F87
100
AcDbEntity
  8
0
  6
Continuous
 62
     7
370
    15
100
AcDbLine
 10
2432.99310428608
 20
583.6484064990304
 30
0.0
 11
2432.99310428608
 21
586.7682290905736
 31
0.0
  0
LINE
  5
FE9
330
F87
100
AcDbEntity
  8
0
  6
Continuous
 62
     7
370
    15
100
AcDbLine
 10
2433.086206741219
 20
577.7684082919381
 30
0.0
 11
2424.328727252369
 21
577.7684082919381
 31
0.0
  0
LINE
  5
FEA
330
F87
100
AcDbEntity
  8
0
  6
Continuous
 62
     7
370
    15
100
AcDbLine
 10
2487.917398638611
 20
586.7682290905736
 30
0.0
 11
2487.917473144417
 21
595.2680488759301
 31
0.0
  0
LINE
  5
FEB
330
F87
100
AcDbEntity
  8
0
  6
Continuous
 62
     7
370
    15
100
AcDbLine
 10
2487.917443342095
 20
586.7682290905736
 30
0.0
 11
2487.824251479989
 21
586.7682290905736
 31
0.0
  0
LINE
  5
FEC
330
F87
100
AcDbEntity
  8
0
  6
Continuous
 62
     7
370
    15
100
AcDbLine
 10
2487.824206776505
 20
589.8884055846951
 30
0.0
 11
2487.824206776505
 21
586.7682290905736
 31
0.0
  0
LINE
  5
FED
330
F87
100
AcDbEntity
  8
0
  6
Continuous
 62
     7
370
    15
100
AcDbLine
 10
2479.252932197934
 20
589.8884055846951
 30
0.0
 11
2487.824206776505
 21
589.8884055846951
 31
0.0
  0
LINE
  5
FEE
330
F87
100
AcDbEntity
  8
0
  6
Continuous
 62
     7
370
    15
100
AcDbLine
 10
2479.252932197934
 20
586.7682290905736
 30
0.0
 11
2479.252932197934
 21
589.8884055846951
 31
0.0
  0
LINE
  5
FEF
330
F87
100
AcDbEntity
  8
0
  6
Continuous
 62
     7
370
    15
100
AcDbLine
 10
2479.252984351998
 20
586.7682290905736
 30
0.0
 11
2479.159971303826
 21
586.7682290905736
 31
0.0
  0
LINE
  5
FF0
330
F87
100
AcDbEntity
  8
0
  6
Continuous
 62
     7
370
    15
100
AcDbLine
 10
2487.917473144417
 20
595.7680498892091
 30
0.0
 11
2487.917473144417
 21
595.2680488759301
 31
0.0
  0
LINE
  5
FF1
330
F87
100
AcDbEntity
  8
0
  6
Continuous
 62
     7
370
    15
100
AcDbLine
 10
2479.160008556729
 20
595.7680498892091
 30
0.0
 11
2487.917473144417
 21
595.7680498892091
 31
0.0
  0
LINE
  5
FF2
330
F87
100
AcDbEntity
  8
0
  6
Continuous
 62
     7
370
    15
100
AcDbLine
 10
2479.252984351998
 20
583.6484064990304
 30
0.0
 11
2479.252984351998
 21
586.7682290905736
 31
0.0
  0
LINE
  5
FF3
330
F87
100
AcDbEntity
  8
0
  6
Continuous
 62
     7
370
    15
100
AcDbLine
 10
2487.824251479989
 20
583.6484064990304
 30
0.0
 11
2479.252984351998
 21
583.6484064990304
 31
0.0
  0
LINE
  5
FF4
330
F87
100
AcDbEntity
  8
0
  6
Continuous
 62
     7
370
    15
100
AcDbLine
 10
2487.824251479989
 20
586.7682290905736
 30
0.0
 11
2487.824251479989
 21
583.6484064990304
 31
0.0
  0
LINE
  5
FF5
330
F87
100
AcDbEntity
  8
0
  6
Continuous
 62
     7
370
    15
100
AcDbLine
 10
2487.917443342095
 20
586.7682290905736
 30
0.0
 11
2487.917368836289
 21
578.2684055799268
 31
0.0
  0
LINE
  5
FF6
330
F87
100
AcDbEntity
  8
0
  6
Continuous
 62
     7
370
    15
100
AcDbLine
 10
2487.917368836289
 20
577.7684082919381
 30
0.0
 11
2487.917368836289
 21
578.2684055799268
 31
0.0
  0
LINE
  5
FF7
330
F87
100
AcDbEntity
  8
0
  6
Continuous
 62
     7
370
    15
100
AcDbLine
 10
2479.159881896859
 20
577.7684082919381
 30
0.0
 11
2487.917368836289
 21
577.7684082919381
 31
0.0
  0
LINE
  5
FF8
330
F87
100
AcDbEntity
  8
0
  6
Continuous
 62
     7
370
    15
100
AcDbLine
 10
2431.774569280034
 20
583.6484064990304
 30
0.0
 11
2431.774569280034
 21
589.8884055846951
 31
0.0
  0
LINE
  5
FF9
330
F87
100
AcDbEntity
  8
0
  6
Continuous
 62
     7
370
    15
100
AcDbLine
 10
2432.045450038796
 20
589.8884055846951
 30
0.0
 11
2432.045450038796
 21
583.6484064990304
 31
0.0
  0
LINE
  5
FFA
330
F87
100
AcDbEntity
  8
0
  6
Continuous
 62
     7
370
    15
100
AcDbLine
 10
2480.471519358044
 20
583.6484064990304
 30
0.0
 11
2480.471519358044
 21
589.8884055846951
 31
0.0
  0
LINE
  5
FFB
330
F87
100
AcDbEntity
  8
0
  6
Continuous
 62
     7
370
    15
100
AcDbLine
 10
2480.200646049862
 20
589.8884055846951
 30
0.0
 11
2480.200646049862
 21
583.6484064990304
 31
0.0
  0
LINE
  5
FFC
330
F87
100
AcDbEntity
  8
0
  6
Continuous
 62
     7
370
    15
100
AcDbLine
 10
2432.519075996762
 20
583.6484064990304
 30
0.0
 11
2432.519075996762
 21
589.8884055846951
 31
0.0
  0
LINE
  5
FFD
330
F87
100
AcDbEntity
  8
0
  6
Continuous
 62
     7
370
    15
100
AcDbLine
 10
2479.727020091897
 20
583.6484064990304
 30
0.0
 11
2479.727020091897
 21
589.8884055846951
 31
0.0
  0
LINE
  5
FFE
330
F87
100
AcDbEntity
  8
0
  6
Continuous
 62
     7
370
    15
100
AcDbLine
 10
2430.941013224011
 20
589.8884055846951
 30
0.0
 11
2430.941013224011
 21
583.6484064990304
 31
0.0
  0
LINE
  5
FFF
330
F87
100
AcDbEntity
  8
0
  6
Continuous
 62
     7
370
    15
100
AcDbLine
 10
2481.305082864647
 20
589.8884055846951
 30
0.0
 11
2481.305082864647
 21
583.6484064990304
 31
0.0
  0
LINE
  5
1000
330
F87
100
AcDbEntity
  8
0
  6
Continuous
 62
     7
370
    15
100
AcDbLine
 10
2432.838311023598
 20
589.8884055846951
 30
0.0
 11
2432.838311023598
 21
583.6484064990304
 31
0.0
  0
LINE
  5
1001
330
F87
100
AcDbEntity
  8
0
  6
Continuous
 62
     7
370
    15
100
AcDbLine
 10
2479.40778506506
 20
589.8884055846951
 30
0.0
 11
2479.40778506506
 21
583.6484064990304
 31
0.0
  0
LINE
  5
1002
330
F87
100
AcDbEntity
  8
0
  6
Continuous
 62
     7
370
    15
100
AcDbLine
 10
2429.549632198697
 20
583.6484064990304
 30
0.0
 11
2429.549632198697
 21
589.8884055846951
 31
0.0
  0
LINE
  5
1003
330
F87
100
AcDbEntity
  8
0
  6
Continuous
 62
     7
370
    15
100
AcDbLine
 10
2429.820505506878
 20
589.8884055846951
 30
0.0
 11
2429.820505506878
 21
583.6484064990304
 31
0.0
  0
LINE
  5
1004
330
F87
100
AcDbEntity
  8
0
  6
Continuous
 62
     7
370
    15
100
AcDbLine
 10
2482.696463889962
 20
583.6484064990304
 30
0.0
 11
2482.696463889962
 21
589.8884055846951
 31
0.0
  0
LINE
  5
1005
330
F87
100
AcDbEntity
  8
0
  6
Continuous
 62
     7
370
    15
100
AcDbLine
 10
2482.42559058178
 20
589.8884055846951
 30
0.0
 11
2482.42559058178
 21
583.6484064990304
 31
0.0
  0
LINE
  5
1006
330
F87
100
AcDbEntity
  8
0
  6
Continuous
 62
     7
370
    15
100
AcDbLine
 10
2430.294131464844
 20
583.6484064990304
 30
0.0
 11
2430.294131464844
 21
589.8884055846951
 31
0.0
  0
LINE
  5
1007
330
F87
100
AcDbEntity
  8
0
  6
Continuous
 62
     7
370
    15
100
AcDbLine
 10
2481.951957173234
 20
583.6484064990304
 30
0.0
 11
2481.951957173234
 21
589.8884055846951
 31
0.0
  0
LINE
  5
1008
330
F87
100
AcDbEntity
  8
0
  6
Continuous
 62
     7
370
    15
100
AcDbLine
 10
2428.719533212071
 20
589.8884055846951
 30
0.0
 11
2428.719533212071
 21
583.6484064990304
 31
0.0
  0
LINE
  5
1009
330
F87
100
AcDbEntity
  8
0
  6
Continuous
 62
     7
370
    15
100
AcDbLine
 10
2483.526562876587
 20
589.8884055846951
 30
0.0
 11
2483.526562876587
 21
583.6484064990304
 31
0.0
  0
LINE
  5
100A
330
F87
100
AcDbEntity
  8
0
  6
Continuous
 62
     7
370
    15
100
AcDbLine
 10
2430.613366491681
 20
589.8884055846951
 30
0.0
 11
2430.613366491681
 21
583.6484064990304
 31
0.0
  0
LINE
  5
100B
330
F87
100
AcDbEntity
  8
0
  6
Continuous
 62
     7
370
    15
100
AcDbLine
 10
2481.632729596978
 20
589.8884055846951
 30
0.0
 11
2481.632729596978
 21
583.6484064990304
 31
0.0
  0
LINE
  5
100C
330
F87
100
AcDbEntity
  8
0
  6
Continuous
 62
     7
370
    15
100
AcDbLine
 10
2427.328152186757
 20
583.6484064990304
 30
0.0
 11
2427.328152186757
 21
589.8884055846951
 31
0.0
  0
LINE
  5
100D
330
F87
100
AcDbEntity
  8
0
  6
Continuous
 62
     7
370
    15
100
AcDbLine
 10
2427.599032945519
 20
589.8884055846951
 30
0.0
 11
2427.599032945519
 21
583.6484064990304
 31
0.0
  0
LINE
  5
100E
330
F87
100
AcDbEntity
  8
0
  6
Continuous
 62
     7
370
    15
100
AcDbLine
 10
2484.917943901902
 20
583.6484064990304
 30
0.0
 11
2484.917943901902
 21
589.8884055846951
 31
0.0
  0
LINE
  5
100F
330
F87
100
AcDbEntity
  8
0
  6
Continuous
 62
     7
370
    15
100
AcDbLine
 10
2484.64707059372
 20
589.8884055846951
 30
0.0
 11
2484.64707059372
 21
583.6484064990304
 31
0.0
  0
LINE
  5
1010
330
F87
100
AcDbEntity
  8
0
  6
Continuous
 62
     7
370
    15
100
AcDbLine
 10
2428.072651452904
 20
583.6484064990304
 30
0.0
 11
2428.072651452904
 21
589.8884055846951
 31
0.0
  0
LINE
  5
1011
330
F87
100
AcDbEntity
  8
0
  6
Continuous
 62
     7
370
    15
100
AcDbLine
 10
2484.173437185174
 20
583.6484064990304
 30
0.0
 11
2484.173437185174
 21
589.8884055846951
 31
0.0
  0
LINE
  5
1012
330
F87
100
AcDbEntity
  8
0
  6
Continuous
 62
     7
370
    15
100
AcDbLine
 10
2426.498053200131
 20
589.8884055846951
 30
0.0
 11
2426.498053200131
 21
583.6484064990304
 31
0.0
  0
LINE
  5
1013
330
F87
100
AcDbEntity
  8
0
  6
Continuous
 62
     7
370
    15
100
AcDbLine
 10
2485.748042888527
 20
589.8884055846951
 30
0.0
 11
2485.748042888527
 21
583.6484064990304
 31
0.0
  0
LINE
  5
1014
330
F87
100
AcDbEntity
  8
0
  6
Continuous
 62
     7
370
    15
100
AcDbLine
 10
2428.391886479741
 20
589.8884055846951
 30
0.0
 11
2428.391886479741
 21
583.6484064990304
 31
0.0
  0
LINE
  5
1015
330
F87
100
AcDbEntity
  8
0
  6
Continuous
 62
     7
370
    15
100
AcDbLine
 10
2483.854209608918
 20
589.8884055846951
 30
0.0
 11
2483.854209608918
 21
583.6484064990304
 31
0.0
  0
LINE
  5
1016
330
F87
100
AcDbEntity
  8
0
  6
Continuous
 62
     7
370
    15
100
AcDbLine
 10
2424.707343406563
 20
583.6484064990304
 30
0.0
 11
2424.707343406563
 21
589.8884055846951
 31
0.0
  0
LINE
  5
1017
330
F87
100
AcDbEntity
  8
0
  6
Continuous
 62
     7
370
    15
100
AcDbLine
 10
2487.538745231514
 20
583.6484064990304
 30
0.0
 11
2487.538745231514
 21
589.8884055846951
 31
0.0
  0
LINE
  5
1018
330
F87
100
AcDbEntity
  8
0
  6
Continuous
 62
     7
370
    15
100
AcDbLine
 10
2424.123620219117
 20
595.7680498892091
 30
0.0
 11
2424.123620219117
 21
595.2680488759301
 31
0.0
  0
SPLINE
  5
1019
330
F87
100
AcDbEntity
  8
0
  6
Continuous
 62
     7
370
    15
100
AcDbSpline
210
0.0
220
0.0
230
1.0
 70
    24
 71
     3
 72
     8
 73
     4
 74
     0
 42
0.0000000001
 43
0.0000000001
 40
0.0
 40
0.0
 40
0.0
 40
0.0
 40
1.0
 40
1.0
 40
1.0
 40
1.0
 10
2424.203591836936
 20
586.7682283712416
 30
0.0
 10
2424.236367659916
 20
586.7682283712416
 30
0.0
 10
2424.278690822109
 20
586.7682283712416
 30
0.0
 10
2424.328646671203
 20
586.7682283712416
 30
0.0
  0
SPLINE
  5
101A
330
F87
100
AcDbEntity
  8
0
  6
Continuous
 62
     7
370
    15
100
AcDbSpline
210
0.0
220
0.0
230
1.0
 70
    24
 71
     3
 72
     8
 73
     4
 74
     0
 42
0.0000000001
 43
0.0000000001
 40
0.0
 40
0.0
 40
0.0
 40
0.0
 40
1.0
 40
1.0
 40
1.0
 40
1.0
 10
2424.123744811574
 20
586.7682283712423
 30
0.0
 10
2424.123726085097
 20
586.7682283712423
 30
0.0
 10
2424.151378359864
 20
586.7682283712423
 30
0.0
 10
2424.203591836936
 20
586.7682283712423
 30
0.0
  0
LINE
  5
101B
330
F87
100
AcDbEntity
  8
0
  6
Continuous
 62
     7
370
    15
100
AcDbLine
 10
2424.123620219117
 20
595.2680488759301
 30
0.0
 11
2424.123620219117
 21
586.7682290905736
 31
0.0
  0
LINE
  5
101C
330
F87
100
AcDbEntity
  8
0
  6
Continuous
 62
     7
370
    15
100
AcDbLine
 10
2424.32861549366
 20
595.7680498892091
 30
0.0
 11
2424.123620219117
 21
595.7680498892091
 31
0.0
  0
LINE
  5
101D
330
F87
100
AcDbEntity
  8
0
  6
Continuous
 62
     7
370
    15
100
AcDbLine
 10
2424.123746878987
 20
577.7684082919381
 30
0.0
 11
2424.123746878987
 21
578.2684055799268
 31
0.0
  0
LINE
  5
101E
330
F87
100
AcDbEntity
  8
0
  6
Continuous
 62
     7
370
    15
100
AcDbLine
 10
2424.123746878987
 20
578.2684055799268
 30
0.0
 11
2424.123746878987
 21
586.7682290905736
 31
0.0
  0
LINE
  5
101F
330
F87
100
AcDbEntity
  8
0
  6
Continuous
 62
     7
370
    15
100
AcDbLine
 10
2424.328727252369
 20
577.7684082919381
 30
0.0
 11
2424.123746878987
 21
577.7684082919381
 31
0.0
  0
SPLINE
  5
1020
330
F87
100
AcDbEntity
  8
0
  6
Continuous
 62
     7
370
    15
100
AcDbSpline
210
0.0
220
0.0
230
1.0
 70
    24
 71
     3
 72
     8
 73
     4
 74
     0
 42
0.0000000001
 43
0.0000000001
 40
0.0
 40
0.0
 40
0.0
 40
0.0
 40
1.0
 40
1.0
 40
1.0
 40
1.0
 10
2488.042502691047
 20
586.7682283712412
 30
0.0
 10
2488.094758271661
 20
586.7682283712412
 30
0.0
 10
2488.12245298247
 20
586.7682283712412
 30
0.0
 10
2488.122471717141
 20
586.7682283712412
 30
0.0
  0
SPLINE
  5
1021
330
F87
100
AcDbEntity
  8
0
  6
Continuous
 62
     7
370
    15
100
AcDbSpline
210
0.0
220
0.0
230
1.0
 70
    24
 71
     3
 72
     8
 73
     4
 74
     0
 42
0.0000000001
 43
0.0000000001
 40
0.0
 40
0.0
 40
0.0
 40
0.0
 40
1.0
 40
1.0
 40
1.0
 40
1.0
 10
2487.917392397219
 20
586.7682283712404
 30
0.0
 10
2487.967363344421
 20
586.7682283712404
 30
0.0
 10
2488.009705204023
 20
586.7682283712404
 30
0.0
 10
2488.042502691047
 20
586.7682283712404
 30
0.0
  0
LINE
  5
1022
330
F87
100
AcDbEntity
  8
0
  6
Continuous
 62
     7
370
    15
100
AcDbLine
 10
2488.122468418961
 20
595.7680498892091
 30
0.0
 11
2488.122468418961
 21
595.2680488759301
 31
0.0
  0
LINE
  5
1023
330
F87
100
AcDbEntity
  8
0
  6
Continuous
 62
     7
370
    15
100
AcDbLine
 10
2488.122468418961
 20
595.2680488759301
 30
0.0
 11
2488.122468418961
 21
586.7682290905736
 31
0.0
  0
LINE
  5
1024
330
F87
100
AcDbEntity
  8
0
  6
Continuous
 62
     7
370
    15
100
AcDbLine
 10
2487.917473144417
 20
595.7680498892091
 30
0.0
 11
2488.122468418961
 21
595.7680498892091
 31
0.0
  0
LINE
  5
1025
330
F87
100
AcDbEntity
  8
0
  6
Continuous
 62
     7
370
    15
100
AcDbLine
 10
2488.122349209672
 20
578.2684055799268
 30
0.0
 11
2488.122349209672
 21
586.7682290905736
 31
0.0
  0
LINE
  5
1026
330
F87
100
AcDbEntity
  8
0
  6
Continuous
 62
     7
370
    15
100
AcDbLine
 10
2488.122349209672
 20
577.7684082919381
 30
0.0
 11
2488.122349209672
 21
578.2684055799268
 31
0.0
  0
LINE
  5
1027
330
F87
100
AcDbEntity
  8
0
  6
Continuous
 62
     7
370
    15
100
AcDbLine
 10
2487.917368836289
 20
577.7684082919381
 30
0.0
 11
2488.122349209672
 21
577.7684082919381
 31
0.0
  0
LINE
  5
1028
330
F87
100
AcDbEntity
  8
0
  6
Continuous
 62
     7
370
    15
100
AcDbLine
 10
2425.106672174817
 20
583.6484064990304
 30
0.0
 11
2425.106672174817
 21
589.8884055846951
 31
0.0
  0
LINE
  5
1029
330
F87
100
AcDbEntity
  8
0
  6
Continuous
 62
     7
370
    15
100
AcDbLine
 10
2425.377552933579
 20
589.8884055846951
 30
0.0
 11
2425.377552933579
 21
583.6484064990304
 31
0.0
  0
LINE
  5
102A
330
F87
100
AcDbEntity
  8
0
  6
Continuous
 62
     7
370
    15
100
AcDbLine
 10
2487.139423913842
 20
583.6484064990304
 30
0.0
 11
2487.139423913842
 21
589.8884055846951
 31
0.0
  0
LINE
  5
102B
330
F87
100
AcDbEntity
  8
0
  6
Continuous
 62
     7
370
    15
100
AcDbLine
 10
2486.86855060566
 20
589.8884055846951
 30
0.0
 11
2486.86855060566
 21
583.6484064990304
 31
0.0
  0
LINE
  5
102C
330
F87
100
AcDbEntity
  8
0
  6
Continuous
 62
     7
370
    15
100
AcDbLine
 10
2425.851171440964
 20
583.6484064990304
 30
0.0
 11
2425.851171440964
 21
589.8884055846951
 31
0.0
  0
LINE
  5
102D
330
F87
100
AcDbEntity
  8
0
  6
Continuous
 62
     7
370
    15
100
AcDbLine
 10
2486.394917197114
 20
583.6484064990304
 30
0.0
 11
2486.394917197114
 21
589.8884055846951
 31
0.0
  0
LINE
  5
102E
330
F87
100
AcDbEntity
  8
0
  6
Continuous
 62
     7
370
    15
100
AcDbLine
 10
2424.993080623036
 20
583.6484064990304
 30
0.0
 11
2424.993080623036
 21
589.8884055846951
 31
0.0
  0
LINE
  5
102F
330
F87
100
AcDbEntity
  8
0
  6
Continuous
 62
     7
370
    15
100
AcDbLine
 10
2487.253015465622
 20
583.6484064990304
 30
0.0
 11
2487.253015465622
 21
589.8884055846951
 31
0.0
  0
LINE
  5
1030
330
F87
100
AcDbEntity
  8
0
  6
Continuous
 62
     7
370
    15
100
AcDbLine
 10
2424.122472829705
 20
595.7680498892091
 30
0.0
 11
2424.122472829705
 21
577.7684082919381
 31
0.0
  0
LINE
  5
1031
330
F87
100
AcDbEntity
  8
0
  6
Continuous
 62
     7
370
    15
100
AcDbLine
 10
2424.122472829705
 20
577.7684082919381
 30
0.0
 11
2424.123746878987
 21
577.7684082919381
 31
0.0
  0
LINE
  5
1032
330
F87
100
AcDbEntity
  8
0
  6
Continuous
 62
     7
370
    15
100
AcDbLine
 10
2424.122472829705
 20
595.7680498892091
 30
0.0
 11
2424.123620219117
 21
595.7680498892091
 31
0.0
  0
LINE
  5
1033
330
F87
100
AcDbEntity
  8
0
  6
Continuous
 62
     7
370
    15
100
AcDbLine
 10
2488.123615808373
 20
595.7680498892091
 30
0.0
 11
2488.123615808373
 21
577.7684082919381
 31
0.0
  0
LINE
  5
1034
330
F87
100
AcDbEntity
  8
0
  6
Continuous
 62
     7
370
    15
100
AcDbLine
 10
2488.123615808373
 20
577.7684082919381
 30
0.0
 11
2488.122349209672
 21
577.7684082919381
 31
0.0
  0
LINE
  5
1035
330
F87
100
AcDbEntity
  8
0
  6
Continuous
 62
     7
370
    15
100
AcDbLine
 10
2488.123615808373
 20
595.7680498892091
 30
0.0
 11
2488.122468418961
 21
595.7680498892091
 31
0.0
  0
LINE
  5
1036
330
F87
100
AcDbEntity
  8
0
  6
Continuous
 62
     7
370
    15
100
AcDbLine
 10
2452.623119182473
 20
586.7682290905736
 30
0.0
 11
2452.623059577828
 21
595.7680498892091
 31
0.0
  0
SPLINE
  5
1037
330
F87
100
AcDbEntity
  8
0
  6
Continuous
 62
     7
370
    15
100
AcDbSpline
210
0.0
220
0.0
230
1.0
 70
    24
 71
     3
 72
    10
 73
     6
 74
     0
 42
0.0000000001
 43
0.0000000001
 40
0.0
 40
0.0
 40
0.0
 40
0.0
 40
0.5
 40
0.5
 40
1.0
 40
1.0
 40
1.0
 40
1.0
 10
2452.323183875753
 20
586.7682283712395
 30
0.0
 10
2452.323214344787
 20
586.7682283712395
 30
0.0
 10
2452.355550526474
 20
586.7682283712395
 30
0.0
 10
2452.466588851637
 20
586.7682283712395
 30
0.0
 10
2452.544608253399
 20
586.7682283712395
 30
0.0
 10
2452.623116944467
 20
586.7682283712395
 30
0.0
  0
LINE
  5
1038
330
F87
100
AcDbEntity
  8
0
  6
Continuous
 62
     7
370
    15
100
AcDbLine
 10
2452.623059577828
 20
595.7680498892091
 30
0.0
 11
2452.323061950093
 21
595.7680498892091
 31
0.0
  0
LINE
  5
1039
330
F87
100
AcDbEntity
  8
0
  6
Continuous
 62
     7
370
    15
100
AcDbLine
 10
2452.623178787117
 20
577.7684082919381
 30
0.0
 11
2452.623119182473
 21
586.7682290905736
 31
0.0
  0
LINE
  5
103A
330
F87
100
AcDbEntity
  8
0
  6
Continuous
 62
     7
370
    15
100
AcDbLine
 10
2452.623178787117
 20
577.7684082919381
 30
0.0
 11
2452.323181159382
 21
577.7684082919381
 31
0.0
  0
SPLINE
  5
103B
330
F87
100
AcDbEntity
  8
0
  6
Continuous
 62
     7
370
    15
100
AcDbSpline
210
0.0
220
0.0
230
1.0
 70
    24
 71
     3
 72
    10
 73
     6
 74
     0
 42
0.0000000001
 43
0.0000000001
 40
0.0
 40
0.0
 40
0.0
 40
0.0
 40
0.5
 40
0.5
 40
1.0
 40
1.0
 40
1.0
 40
1.0
 10
2459.622977583469
 20
586.7682283712394
 30
0.0
 10
2459.701545424865
 20
586.7682283712395
 30
0.0
 10
2459.779635325653
 20
586.7682283712395
 30
0.0
 10
2459.890736772099
 20
586.7682283712395
 30
0.0
 10
2459.923063157284
 20
586.7682283712394
 30
0.0
 10
2459.923032652891
 20
586.7682283712394
 30
0.0
  0
LINE
  5
103C
330
F87
100
AcDbEntity
  8
0
  6
Continuous
 62
     7
370
    15
100
AcDbLine
 10
2459.622976906186
 20
586.7682290905736
 30
0.0
 11
2459.62303651083
 21
595.7680498892091
 31
0.0
  0
LINE
  5
103D
330
F87
100
AcDbEntity
  8
0
  6
Continuous
 62
     7
370
    15
100
AcDbLine
 10
2459.62303651083
 20
595.7680498892091
 30
0.0
 11
2459.923034138566
 21
595.7680498892091
 31
0.0
  0
LINE
  5
103E
330
F87
100
AcDbEntity
  8
0
  6
Continuous
 62
     7
370
    15
100
AcDbLine
 10
2459.622917301541
 20
577.7684082919381
 30
0.0
 11
2459.622917301541
 21
586.7682290905736
 31
0.0
  0
LINE
  5
103F
330
F87
100
AcDbEntity
  8
0
  6
Continuous
 62
     7
370
    15
100
AcDbLine
 10
2459.622917301541
 20
577.7684082919381
 30
0.0
 11
2459.922907478695
 21
577.7684082919381
 31
0.0
  0
LINE
  5
1040
330
F87
100
AcDbEntity
  8
0
  6
Continuous
 62
     7
370
    15
100
AcDbLine
 10
2459.622976906186
 20
586.7682290905736
 30
0.0
 11
2458.722998924141
 21
586.7682290905736
 31
0.0
  0
SPLINE
  5
1041
330
F87
100
AcDbEntity
  8
0
  6
Continuous
 62
     7
370
    15
100
AcDbSpline
210
0.0
220
0.0
230
1.0
 70
     8
 71
     3
 72
    29
 73
    25
 74
     0
 42
0.0000000001
 43
0.0000000001
 40
0.0
 40
0.0
 40
0.0
 40
0.0
 40
0.0210076287128573
 40
0.0418352650210459
 40
0.0625717276489325
 40
0.0833070069702235
 40
0.1041311086994391
 40
0.1251328966044729
 40
0.187480172287802
 40
0.2500923879398467
 40
0.3124396469038236
 40
0.3750518799478096
 40
0.4373991389122876
 40
0.5000113719558695
 40
0.5623586309204757
 40
0.6249708639638252
 40
0.6873181229320712
 40
0.7499303559720168
 40
0.812277623012121
 40
0.8748898482939873
 40
0.9062254153098626
 40
0.9373180587649766
 40
0.9684746013234351
 40
1.0
 40
1.0
 40
1.0
 40
1.0
 10
2453.523096231729
 20
586.7682283712404
 30
0.0
 10
2453.52419556847
 20
586.8253663008931
 30
0.0
 10
2453.526384822882
 20
586.9391526050232
 30
0.0
 10
2453.543574733127
 20
587.1086234801042
 30
0.0
 10
2453.57098748067
 20
587.2759085814982
 30
0.0
 10
2453.609586471614
 20
587.4409950137791
 30
0.0
 10
2453.659140856091
 20
587.6038853352908
 30
0.0
 10
2453.758959856366
 20
587.869127602156
 30
0.0
 10
2453.946447844681
 20
588.2223008675784
 30
0.0
 10
2454.272625974384
 20
588.61765545921
 30
0.0
 10
2454.668499690448
 20
588.9445416909281
 30
0.0
 10
2455.121253576216
 20
589.1850374794469
 30
0.0
 10
2455.612058061558
 20
589.3355310071464
 30
0.0
 10
2456.122389646905
 20
589.3844628087602
 30
0.0
 10
2456.633423296265
 20
589.3356773513154
 30
0.0
 10
2457.123633618522
 20
589.1855873364189
 30
0.0
 10
2457.577099606481
 20
588.9449585791721
 30
0.0
 10
2457.972550525034
 20
588.6186707571095
 30
0.0
 10
2458.29944160887
 20
588.2229268011614
 30
0.0
 10
2458.50002294674
 20
587.8447912681904
 30
0.0
 10
2458.615501952573
 20
587.5244849218583
 30
0.0
 10
2458.67726979672
 20
587.277222362215
 30
0.0
 10
2458.715856399542
 20
587.0245233248815
 30
0.0
 10
2458.720606589868
 20
586.8539945185475
 30
0.0
 10
2458.722995661439
 20
586.7682283712395
 30
0.0
  0
LINE
  5
1042
330
F87
100
AcDbEntity
  8
0
  6
Continuous
 62
     7
370
    15
100
AcDbLine
 10
2453.523097164517
 20
586.7682290905736
 30
0.0
 11
2453.056556708699
 21
586.7682290905736
 31
0.0
  0
LINE
  5
1043
330
F87
100
AcDbEntity
  8
0
  6
Continuous
 62
     7
370
    15
100
AcDbLine
 10
2452.623119182473
 20
586.7682290905736
 30
0.0
 11
2453.056556708699
 21
586.7682290905736
 31
0.0
  0
LINE
  5
1044
330
F87
100
AcDbEntity
  8
0
  6
Continuous
 62
     7
370
    15
100
AcDbLine
 10
2452.623059577828
 20
595.7680498892091
 30
0.0
 11
2459.62303651083
 21
595.7680498892091
 31
0.0
  0
SPLINE
  5
1045
330
F87
100
AcDbEntity
  8
0
  6
Continuous
 62
     7
370
    15
100
AcDbSpline
210
0.0
220
0.0
230
1.0
 70
     8
 71
     3
 72
    29
 73
    25
 74
     0
 42
0.0000000001
 43
0.0000000001
 40
0.0
 40
0.0
 40
0.0
 40
0.0
 40
0.0210074816952705
 40
0.041835021955498
 40
0.0625714444528436
 40
0.0833067438542997
 40
0.1041309293877222
 40
0.1251328674786555
 40
0.187480143402782
 40
0.2500923588680755
 40
0.3124396210690941
 40
0.3750518508095884
 40
0.4373991130083159
 40
0.5000113427510432
 40
0.5623586049472234
 40
0.6249708346925487
 40
0.6873180968903278
 40
0.7499303266341606
 40
0.8122775950939331
 40
0.8748898188193175
 40
0.9062251802528001
 40
0.9373177683285923
 40
0.968474394350286
 40
1.0
 40
1.0
 40
1.0
 40
1.0
 10
2458.722995661439
 20
586.7682283712395
 30
0.0
 10
2458.721896772063
 20
586.7110908316024
 30
0.0
 10
2458.719708405944
 20
586.5973051689572
 30
0.0
 10
2458.702519405484
 20
586.4278349645977
 30
0.0
 10
2458.675107254612
 20
586.2605500811509
 30
0.0
 10
2458.636508514028
 20
586.095463406434
 30
0.0
 10
2458.586954041761
 20
585.932572385863
 30
0.0
 10
2458.487134851301
 20
585.6673295072314
 30
0.0
 10
2458.299646695035
 20
585.3141558680092
 30
0.0
 10
2457.973468544474
 20
584.9188012779381
 30
0.0
 10
2457.577594830719
 20
584.5919150458839
 30
0.0
 10
2457.12484093515
 20
584.3514192564003
 30
0.0
 10
2456.634036457428
 20
584.2009257334443
 30
0.0
 10
2456.12370486333
 20
584.1519939337489
 30
0.0
 10
2455.612671222711
 20
584.2007793929281
 30
0.0
 10
2455.122460892869
 20
584.3508694127604
 30
0.0
 10
2454.668994914711
 20
584.5914981687614
 30
0.0
 10
2454.273543990828
 20
584.9177859933599
 30
0.0
 10
2453.946652929695
 20
585.3135299498167
 30
0.0
 10
2453.746071817311
 20
585.6916649740306
 30
0.0
 10
2453.630593026453
 20
586.0119706272516
 30
0.0
 10
2453.56882496687
 20
586.2592326262817
 30
0.0
 10
2453.530237425795
 20
586.5119321305741
 30
0.0
 10
2453.52548595295
 20
586.6824616830061
 30
0.0
 10
2453.523096231729
 20
586.7682283712404
 30
0.0
  0
LINE
  5
1046
330
F87
100
AcDbEntity
  8
0
  6
Continuous
 62
     7
370
    15
100
AcDbLine
 10
2452.623178787117
 20
577.7684082919381
 30
0.0
 11
2459.622917301541
 21
577.7684082919381
 31
0.0
  0
LINE
  5
1047
330
F87
100
AcDbEntity
  8
0
  6
Continuous
 62
     7
370
    15
100
AcDbLine
 10
2426.170413918381
 20
589.8884055846951
 30
0.0
 11
2426.170413918381
 21
583.6484064990304
 31
0.0
  0
LINE
  5
1048
330
F87
100
AcDbEntity
  8
0
  6
Continuous
 62
     7
370
    15
100
AcDbLine
 10
2486.075689620858
 20
589.8884055846951
 30
0.0
 11
2486.075689620858
 21
583.6484064990304
 31
0.0
  0
ENDBLK
  5
F89
330
F87
100
AcDbEntity
  8
0
100
AcDbBlockEnd
  0
BLOCK
  5
104B
330
104A
100
AcDbEntity
  8
0
100
AcDbBlockBegin
  2
4
 70
     0
 10
0.0
 20
0.0
 30
0.0
  3
4
  1

  0
LINE
  5
104D
330
104A
100
AcDbEntity
  8
0
  6
Continuous
 62
     7
370
    15
100
AcDbLine
 10
2571.307871514517
 20
690.2273849984474
 30
0.0
 11
2571.267961660781
 21
687.5711014642575
 31
0.0
  0
LINE
  5
104E
330
104A
100
AcDbEntity
  8
0
  6
Continuous
 62
     7
370
    15
100
AcDbLine
 10
2582.266719964904
 20
687.4058487821587
 30
0.0
 11
2582.306656611789
 21
690.0639155902326
 31
0.0
  0
LINE
  5
104F
330
104A
100
AcDbEntity
  8
0
  6
Continuous
 62
     7
370
    15
100
AcDbLine
 10
2589.58147584924
 20
674.7822068749638
 30
0.0
 11
2585.390372386493
 21
673.0705059036441
 31
0.0
  0
LINE
  5
1050
330
104A
100
AcDbEntity
  8
0
  6
Continuous
 62
     7
370
    15
100
AcDbLine
 10
2588.121124034894
 20
677.5324813890027
 30
0.0
 11
2583.930020572148
 21
675.8207804176832
 31
0.0
  0
LINE
  5
1051
330
104A
100
AcDbEntity
  8
0
  6
Continuous
 62
     7
370
    15
100
AcDbLine
 10
2586.660762226525
 20
680.2827611554749
 30
0.0
 11
2582.469658763778
 21
678.5710601841554
 31
0.0
  0
LINE
  5
1052
330
104A
100
AcDbEntity
  8
0
  6
Continuous
 62
     7
370
    15
100
AcDbLine
 10
2584.736518664275
 20
674.301899955318
 30
0.0
 11
2588.546030785228
 21
675.857754077186
 31
0.0
  0
LINE
  5
1053
330
104A
100
AcDbEntity
  8
0
  6
Continuous
 62
     7
370
    15
100
AcDbLine
 10
2585.198117885601
 20
683.0373313514783
 30
0.0
 11
2581.007014422854
 21
681.3256303801587
 31
0.0
  0
LINE
  5
1054
330
104A
100
AcDbEntity
  8
0
  6
Continuous
 62
     7
370
    15
100
AcDbLine
 10
2583.276156849711
 20
677.0521793094726
 30
0.0
 11
2587.085668970663
 21
678.6080334313407
 31
0.0
  0
LINE
  5
1055
330
104A
100
AcDbEntity
  8
0
  6
Continuous
 62
     7
370
    15
100
AcDbLine
 10
2581.815800032158
 20
679.8024560374106
 30
0.0
 11
2585.625312153111
 21
681.3583101592787
 31
0.0
  0
LINE
  5
1056
330
104A
100
AcDbEntity
  8
0
  6
Continuous
 62
     7
370
    15
100
AcDbLine
 10
2580.353160689794
 20
682.5570237102769
 30
0.0
 11
2584.162672810747
 21
684.1128778321449
 31
0.0
  0
LINE
  5
1057
330
104A
100
AcDbEntity
  8
0
  6
Continuous
 62
     7
370
    15
100
AcDbLine
 10
2569.588088673826
 20
691.0962077318339
 30
0.0
 11
2562.913635614968
 21
688.3702746009944
 31
0.0
  0
LINE
  5
1058
330
104A
100
AcDbEntity
  8
0
  6
Continuous
 62
     7
370
    15
100
AcDbLine
 10
2576.262618586044
 20
693.821892594183
 30
0.0
 11
2569.588165527185
 21
691.0959594633436
 31
0.0
  0
LINE
  5
1059
330
104A
100
AcDbEntity
  8
0
  6
Continuous
 62
     7
370
    15
100
AcDbLine
 10
2551.293750087222
 20
700.745954923122
 30
0.0
 11
2551.253840233486
 21
698.0896713889322
 31
0.0
  0
LINE
  5
105A
330
104A
100
AcDbEntity
  8
0
  6
Continuous
 62
     7
370
    15
100
AcDbLine
 10
2562.25259853761
 20
697.9244187068332
 30
0.0
 11
2562.292535184494
 21
700.5824855149072
 31
0.0
  0
LINE
  5
105B
330
104A
100
AcDbEntity
  8
0
  6
Continuous
 62
     7
370
    15
100
AcDbLine
 10
2581.973253655709
 20
623.6341260350949
 30
0.0
 11
2583.313627778162
 21
624.1815521980916
 31
0.0
  0
LINE
  5
105C
330
104A
100
AcDbEntity
  8
0
  6
Continuous
 62
     7
370
    15
100
AcDbLine
 10
2583.611011359208
 20
634.5241265502932
 30
0.0
 11
2588.352482699153
 21
636.4606048954851
 31
0.0
  0
LINE
  5
105D
330
104A
100
AcDbEntity
  8
0
  6
Continuous
 62
     7
370
    15
100
AcDbLine
 10
2581.995668076612
 20
619.8592233287143
 30
0.0
 11
2583.4789096438
 21
620.4649984077176
 31
0.0
  0
LINE
  5
105E
330
104A
100
AcDbEntity
  8
0
  6
Continuous
 62
     7
370
    15
100
AcDbLine
 10
2589.187884348243
 20
628.2361467480292
 30
0.0
 11
2583.481521782398
 21
625.9055943210896
 31
0.0
  0
LINE
  5
105F
330
104A
100
AcDbEntity
  8
0
  6
Continuous
 62
     7
370
    15
100
AcDbLine
 10
2583.465606067974
 20
619.5795511784204
 30
0.0
 11
2590.881811141159
 21
622.6084254450935
 31
0.0
  0
LINE
  5
1060
330
104A
100
AcDbEntity
  8
0
  6
Continuous
 62
     7
370
    15
100
AcDbLine
 10
2580.282035130557
 20
613.3689171467622
 30
0.0
 11
2586.956620801525
 21
616.0949044381054
 31
0.0
  0
LINE
  5
1061
330
104A
100
AcDbEntity
  8
0
  6
Continuous
 62
     7
370
    15
100
AcDbLine
 10
2551.291826838911
 20
700.6177876129234
 30
0.0
 11
2544.718186609925
 21
697.9330277483486
 31
0.0
  0
LINE
  5
1062
330
104A
100
AcDbEntity
  8
0
  6
Continuous
 62
     7
370
    15
100
AcDbLine
 10
2591.174541932094
 20
627.3920448602162
 30
0.0
 11
2592.658048723498
 21
627.9979282602271
 31
0.0
  0
LINE
  5
1063
330
104A
100
AcDbEntity
  8
0
  6
Continuous
 62
     7
370
    15
100
AcDbLine
 10
2590.483664834843
 20
627.6724546520365
 30
0.0
 11
2590.408476532157
 21
627.6417467747717
 31
0.0
  0
LINE
  5
1064
330
104A
100
AcDbEntity
  8
0
  6
Continuous
 62
     7
370
    15
100
AcDbLine
 10
2586.959758738427
 20
616.0962112370491
 30
0.0
 11
2593.630921359347
 21
618.8208005103902
 31
0.0
  0
LINE
  5
1065
330
104A
100
AcDbEntity
  8
0
  6
Continuous
 62
     7
370
    15
100
AcDbLine
 10
2591.03798216172
 20
623.5522215903974
 30
0.0
 11
2592.378356284172
 21
624.099647753394
 31
0.0
  0
LINE
  5
1066
330
104A
100
AcDbEntity
  8
0
  6
Continuous
 62
     7
370
    15
100
AcDbLine
 10
2583.561140535557
 20
631.204711404738
 30
0.0
 11
2584.028965663561
 21
631.3957772500766
 31
0.0
  0
LINE
  5
1067
330
104A
100
AcDbEntity
  8
0
  6
Continuous
 62
     7
370
    15
100
AcDbLine
 10
2558.067009676626
 20
703.384729780468
 30
0.0
 11
2557.548518434973
 21
703.1729712376771
 31
0.0
  0
LINE
  5
1068
330
104A
100
AcDbEntity
  8
0
  6
Continuous
 62
     7
370
    15
100
AcDbLine
 10
2546.904474177154
 20
630.1819256925838
 30
0.0
 11
2549.648470109487
 21
631.3026091938198
 31
0.0
  0
LINE
  5
1069
330
104A
100
AcDbEntity
  8
0
  6
Continuous
 62
     7
370
    15
100
AcDbLine
 10
2549.429963218436
 20
629.7565792627657
 30
0.0
 11
2554.057410247213
 21
631.64648860151
 31
0.0
  0
LINE
  5
106A
330
104A
100
AcDbEntity
  8
0
  6
Continuous
 62
     7
370
    15
100
AcDbLine
 10
2547.264097468965
 20
635.2167678583415
 30
0.0
 11
2547.19706387283
 21
630.7552070912083
 31
0.0
  0
LWPOLYLINE
  5
106B
330
104A
100
AcDbEntity
  8
0
  6
Continuous
 62
     7
370
    15
100
AcDbPolyline
 90
        9
 70
   128
 43
0.0
 10
2546.513071373273
 20
630.2222453990655
 10
2546.644173754399
 20
630.1704917938409
 10
2546.770745588534
 20
630.1547574294703
 10
2546.887930621288
 20
630.1756396888938
 10
2546.991219340442
 20
630.2323435722124
 10
2547.076640448301
 20
630.3226874537784
 10
2547.140918346158
 20
630.4431931936292
 10
2547.18158114423
 20
630.5892354964981
 10
2547.19706387283
 20
630.7552070912083
  0
LINE
  5
106C
330
104A
100
AcDbEntity
  8
0
  6
Continuous
 62
     7
370
    15
100
AcDbLine
 10
2541.960393903537
 20
632.6149388022642
 30
0.0
 11
2546.513071373273
 21
630.2222453990655
 31
0.0
  0
ARC
  5
106D
330
104A
100
AcDbEntity
  8
0
  6
Continuous
 62
     7
370
    15
100
AcDbCircle
 10
2542.342228132374
 20
633.3364122069463
 30
0.0
 40
0.8162850310856306
100
AcDbArc
 50
233.9072576173585
 51
242.1103144409465
  0
LINE
  5
106E
330
104A
100
AcDbEntity
  8
0
  6
Continuous
 62
     7
370
    15
100
AcDbLine
 10
2538.208974711249
 20
635.3251619225887
 30
0.0
 11
2541.861359514109
 21
632.6768012428599
 31
0.0
  0
ARC
  5
106F
330
104A
100
AcDbEntity
  8
0
  6
Continuous
 62
     7
370
    15
100
AcDbCircle
 10
2539.159081819066
 20
636.49681108855
 30
0.0
 40
1.508464545298432
100
AcDbArc
 50
179.8320715153999
 51
230.9609084108227
  0
LINE
  5
1070
330
104A
100
AcDbEntity
  8
0
  6
Continuous
 62
     7
370
    15
100
AcDbLine
 10
2537.649844218938
 20
636.5016419382311
 30
0.0
 11
2537.650623752771
 21
636.5012322484444
 31
0.0
  0
LINE
  5
1071
330
104A
100
AcDbEntity
  8
0
  6
Continuous
 62
     7
370
    15
100
AcDbLine
 10
2538.496441793159
 20
692.8487087896544
 30
0.0
 11
2537.649844218938
 21
636.5016419382311
 31
0.0
  0
LINE
  5
1072
330
104A
100
AcDbEntity
  8
0
  6
Continuous
 62
     7
370
    15
100
AcDbLine
 10
2538.496441793159
 20
692.8487087896544
 30
0.0
 11
2538.497296282169
 21
692.848259706619
 31
0.0
  0
ARC
  5
1073
330
104A
100
AcDbEntity
  8
0
  6
Continuous
 62
     7
370
    15
100
AcDbCircle
 10
2538.960159802595
 20
692.8774049999142
 30
0.0
 40
0.4637802137459578
100
AcDbArc
 50
133.4244602481016
 51
183.6030070816831
  0
LINE
  5
1074
330
104A
100
AcDbEntity
  8
0
  6
Continuous
 62
     7
370
    15
100
AcDbLine
 10
2544.63141090915
 20
697.8825886591643
 30
0.0
 11
2538.641358382115
 21
693.2142398867093
 31
0.0
  0
ARC
  5
1075
330
104A
100
AcDbEntity
  8
0
  6
Continuous
 62
     7
370
    15
100
AcDbCircle
 10
2544.878057571537
 20
697.530238735064
 30
0.0
 40
0.4300988782597632
100
AcDbArc
 50
57.43208907792753
 51
124.9922074202912
  0
LINE
  5
1076
330
104A
100
AcDbEntity
  8
0
  6
Continuous
 62
     7
370
    15
100
AcDbLine
 10
2556.866633520867
 20
691.7136992699669
 30
0.0
 11
2545.109579314528
 21
697.8927062889264
 31
0.0
  0
ARC
  5
1077
330
104A
100
AcDbEntity
  8
0
  6
Continuous
 62
     7
370
    15
100
AcDbCircle
 10
2556.072165481236
 20
690.4983132262202
 30
0.0
 40
1.452013326842616
100
AcDbArc
 50
359.1113559463732
 51
56.82833969184034
  0
LINE
  5
1078
330
104A
100
AcDbEntity
  8
0
  6
Continuous
 62
     7
370
    15
100
AcDbLine
 10
2557.408265602605
 20
682.7725721469302
 30
0.0
 11
2557.524004168645
 21
690.4757937441838
 31
0.0
  0
ARC
  5
1079
330
104A
100
AcDbEntity
  8
0
  6
Continuous
 62
     7
370
    15
100
AcDbCircle
 10
2557.843828171247
 20
682.7658217481357
 30
0.0
 40
0.4356148747290653
100
AcDbArc
 50
179.1120945025765
 51
236.8279432044921
  0
LINE
  5
107A
330
104A
100
AcDbEntity
  8
0
  6
Continuous
 62
     7
370
    15
100
AcDbLine
 10
2557.60547928499
 20
682.4011984802203
 30
0.0
 11
2562.300116861673
 21
679.9338968901539
 31
0.0
  0
LWPOLYLINE
  5
107B
330
104A
100
AcDbEntity
  8
0
  6
Continuous
 62
     7
370
    15
100
AcDbPolyline
 90
        9
 70
   128
 43
0.0
 10
2562.300116861673
 20
679.9338968901539
 10
2562.339445082461
 20
679.9183724515489
 10
2562.377414619029
 20
679.9136522031621
 10
2562.412572624882
 20
679.9199154029537
 10
2562.443555720419
 20
679.9369269219574
 10
2562.469185530861
 20
679.964026928659
 10
2562.488464407863
 20
680.0001813440633
 10
2562.500666243014
 20
680.0439922942668
 10
2562.505307538906
 20
680.093783961761
  0
LINE
  5
107C
330
104A
100
AcDbEntity
  8
0
  6
Continuous
 62
     7
370
    15
100
AcDbLine
 10
2562.505307538906
 20
680.093783961761
 30
0.0
 11
2562.621046104946
 21
687.7970055590147
 31
0.0
  0
LWPOLYLINE
  5
107D
330
104A
100
AcDbEntity
  8
0
  6
Continuous
 62
     7
370
    15
100
AcDbPolyline
 90
        9
 70
   128
 43
0.0
 10
2562.621046104946
 20
687.7970055590147
 10
2562.636528740622
 20
687.9629709689601
 10
2562.677191520883
 20
688.1090120864158
 10
2562.741469420288
 20
688.2295179293459
 10
2562.82689047704
 20
688.3198584092911
 10
2562.93017913347
 20
688.3765581178934
 10
2563.047359149563
 20
688.3974416957134
 10
2563.173925947894
 20
688.3817073757422
 10
2563.305023322559
 20
688.3299557677887
  0
LINE
  5
107E
330
104A
100
AcDbEntity
  8
0
  6
Continuous
 62
     7
370
    15
100
AcDbLine
 10
2563.305023322559
 20
688.3299557677887
 30
0.0
 11
2575.062082525909
 21
682.1509461226126
 31
0.0
  0
ARC
  5
107F
330
104A
100
AcDbEntity
  8
0
  6
Continuous
 62
     7
370
    15
100
AcDbCircle
 10
2574.447149653598
 20
681.1104605265344
 30
0.0
 40
1.208616032119271
100
AcDbArc
 50
26.10735770385779
 51
59.41667243897653
  0
LINE
  5
1080
330
104A
100
AcDbEntity
  8
0
  6
Continuous
 62
     7
370
    15
100
AcDbLine
 10
2575.532451888876
 20
681.6423174351074
 30
0.0
 11
2581.289469538692
 21
670.8002088244231
 31
0.0
  0
ARC
  5
1081
330
104A
100
AcDbEntity
  8
0
  6
Continuous
 62
     7
370
    15
100
AcDbCircle
 10
2580.338158771715
 20
670.2842595021272
 30
0.0
 40
1.082218036508253
100
AcDbArc
 50
0.2892919692509424
 51
28.47346646546657
  0
LINE
  5
1082
330
104A
100
AcDbEntity
  8
0
  6
Continuous
 62
     7
370
    15
100
AcDbLine
 10
2581.421212505552
 20
670.2892772463258
 30
0.0
 11
2581.420363013553
 21
670.2897237031447
 31
0.0
  0
LINE
  5
1083
330
104A
100
AcDbEntity
  8
0
  6
Continuous
 62
     7
370
    15
100
AcDbLine
 10
2581.421212505552
 20
670.2892772463258
 30
0.0
 11
2580.574550602993
 21
613.9379288883101
 31
0.0
  0
LWPOLYLINE
  5
1084
330
104A
100
AcDbEntity
  8
0
  6
Continuous
 62
     7
370
    15
100
AcDbPolyline
 90
        9
 70
   128
 43
0.0
 10
2580.574550602993
 20
613.9379288883101
 10
2580.561143348119
 20
613.7877421201275
 10
2580.52714378319
 20
613.653431166485
 10
2580.473632373021
 20
613.5391956398406
 10
2580.402274769451
 20
613.4486283903799
 10
2580.315319333364
 20
613.3845505789512
 10
2580.215475719622
 20
613.3489757500256
 10
2580.105883209965
 20
613.3430134385916
 10
2579.989959414994
 20
613.3668555974975
  0
LINE
  5
1085
330
104A
100
AcDbEntity
  8
0
  6
Continuous
 62
     7
370
    15
100
AcDbLine
 10
2579.989959414994
 20
613.3668555974975
 30
0.0
 11
2576.315865499019
 21
614.5689801357018
 31
0.0
  0
ARC
  5
1086
330
104A
100
AcDbEntity
  8
0
  6
Continuous
 62
     7
370
    15
100
AcDbCircle
 10
2576.518932785677
 20
615.1823953213797
 30
0.0
 40
0.6461536295116344
100
AcDbArc
 50
242.0960138411612
 51
251.6831953169193
  0
LINE
  5
1087
330
104A
100
AcDbEntity
  8
0
  6
Continuous
 62
     7
370
    15
100
AcDbLine
 10
2576.216538509821
 20
614.6113679885307
 30
0.0
 11
2571.663856043074
 21
617.0040640179459
 31
0.0
  0
ARC
  5
1088
330
104A
100
AcDbEntity
  8
0
  6
Continuous
 62
     7
370
    15
100
AcDbCircle
 10
2572.458369197244
 20
618.2194917552134
 30
0.0
 40
1.452072910245712
100
AcDbArc
 50
179.1119627613997
 51
236.8277498009764
  0
LINE
  5
1089
330
104A
100
AcDbEntity
  8
0
  6
Continuous
 62
     7
370
    15
100
AcDbLine
 10
2571.073504291303
 20
622.7035575515306
 30
0.0
 11
2571.006470695168
 21
618.2419967843975
 31
0.0
  0
LINE
  5
108A
330
104A
100
AcDbEntity
  8
0
  6
Continuous
 62
     7
370
    15
100
AcDbLine
 10
2571.073504291303
 20
622.7035575515306
 30
0.0
 11
2547.264097468965
 21
635.2167678583415
 31
0.0
  0
LINE
  5
108B
330
104A
100
AcDbEntity
  8
0
  6
Continuous
 62
     7
370
    15
100
AcDbLine
 10
2582.20696373135
 20
684.3681404790636
 30
0.0
 11
2575.532451888876
 21
681.6423174351074
 31
0.0
  0
LINE
  5
108C
330
104A
100
AcDbEntity
  8
0
  6
Continuous
 62
     7
370
    15
100
AcDbLine
 10
2582.268108873015
 20
684.2529868652057
 30
0.0
 11
2582.20696373135
 21
684.3681404790636
 31
0.0
  0
LINE
  5
108D
330
104A
100
AcDbEntity
  8
0
  6
Continuous
 62
     7
370
    15
100
AcDbLine
 10
2579.954383977251
 20
683.3080316316617
 30
0.0
 11
2582.268108873015
 21
684.2529868652057
 31
0.0
  0
LINE
  5
108E
330
104A
100
AcDbEntity
  8
0
  6
Continuous
 62
     7
370
    15
100
AcDbLine
 10
2585.588983840172
 20
672.6964595146011
 30
0.0
 11
2579.954383977251
 21
683.3080316316617
 31
0.0
  0
LINE
  5
108F
330
104A
100
AcDbEntity
  8
0
  6
Continuous
 62
     7
370
    15
100
AcDbLine
 10
2587.902708735937
 20
673.6414147481451
 30
0.0
 11
2585.588983840172
 21
672.6964595146011
 31
0.0
  0
LINE
  5
1090
330
104A
100
AcDbEntity
  8
0
  6
Continuous
 62
     7
370
    15
100
AcDbLine
 10
2587.963971452578
 20
673.5260414759177
 30
0.0
 11
2587.902708735937
 21
673.6414147481451
 31
0.0
  0
LINE
  5
1091
330
104A
100
AcDbEntity
  8
0
  6
Continuous
 62
     7
370
    15
100
AcDbLine
 10
2587.963971452578
 20
673.5260414759177
 30
0.0
 11
2581.660277858425
 21
670.9516517479161
 31
0.0
  0
LINE
  5
1092
330
104A
100
AcDbEntity
  8
0
  6
Continuous
 62
     7
370
    15
100
AcDbLine
 10
2581.289469538692
 20
670.8002088244231
 30
0.0
 11
2581.660277858425
 21
670.9516517479161
 31
0.0
  0
SPLINE
  5
1093
330
104A
100
AcDbEntity
  8
0
  6
Continuous
 62
     7
370
    15
100
AcDbSpline
210
0.0
220
0.0
230
1.0
 70
     8
 71
     3
 72
     8
 73
     4
 74
     0
 42
0.0000000001
 43
0.0000000001
 40
0.0
 40
0.0
 40
0.0
 40
0.0
 40
1.0
 40
1.0
 40
1.0
 40
1.0
 10
2587.963936012551
 20
673.5260100655548
 30
0.0
 10
2587.996786270677
 20
673.4641599134692
 30
0.0
 10
2588.024418462409
 20
673.3982545220909
 30
0.0
 10
2588.045582677552
 20
673.3312750454729
 30
0.0
  0
SPLINE
  5
1094
330
104A
100
AcDbEntity
  8
0
  6
Continuous
 62
     7
370
    15
100
AcDbSpline
210
0.0
220
0.0
230
1.0
 70
     8
 71
     3
 72
     8
 73
     4
 74
     0
 42
0.0000000001
 43
0.0000000001
 40
0.0
 40
0.0
 40
0.0
 40
0.0
 40
1.0
 40
1.0
 40
1.0
 40
1.0
 10
2588.045582677553
 20
673.3312750454731
 30
0.0
 10
2588.079303198573
 20
673.2245579839655
 30
0.0
 10
2588.096381339736
 20
673.115202859841
 30
0.0
 10
2588.094896148482
 20
673.015509958224
 30
0.0
  0
LINE
  5
1095
330
104A
100
AcDbEntity
  8
0
  6
Continuous
 62
     7
370
    15
100
AcDbLine
 10
2581.791171246556
 20
670.4411608541904
 30
0.0
 11
2588.094814523675
 21
673.0155537545689
 31
0.0
  0
LINE
  5
1096
330
104A
100
AcDbEntity
  8
0
  6
Continuous
 62
     7
370
    15
100
AcDbLine
 10
2581.420362926823
 20
670.2897179306973
 30
0.0
 11
2581.791171246556
 21
670.4411608541904
 31
0.0
  0
LINE
  5
1097
330
104A
100
AcDbEntity
  8
0
  6
Continuous
 62
     7
370
    15
100
AcDbLine
 10
2594.770115513405
 20
675.740936524539
 30
0.0
 11
2594.769345973595
 21
675.7413409618926
 31
0.0
  0
LINE
  5
1098
330
104A
100
AcDbEntity
  8
0
  6
Continuous
 62
     7
370
    15
100
AcDbLine
 10
2594.770115513405
 20
675.740936524539
 30
0.0
 11
2581.421212505552
 21
670.2892772463258
 31
0.0
  0
LINE
  5
1099
330
104A
100
AcDbEntity
  8
0
  6
Continuous
 62
     7
370
    15
100
AcDbLine
 10
2594.398534977839
 20
675.5899026825029
 30
0.0
 11
2588.094894475863
 21
673.0155117351037
 31
0.0
  0
LINE
  5
109A
330
104A
100
AcDbEntity
  8
0
  6
Continuous
 62
     7
370
    15
100
AcDbLine
 10
2594.769345973595
 20
675.7413409618926
 30
0.0
 11
2594.398534977839
 21
675.5899026825029
 31
0.0
  0
LINE
  5
109B
330
104A
100
AcDbEntity
  8
0
  6
Continuous
 62
     7
370
    15
100
AcDbLine
 10
2581.976681009253
 20
623.8624145198591
 30
0.0
 11
2583.459922576441
 21
624.4681895988626
 31
0.0
  0
LINE
  5
109C
330
104A
100
AcDbEntity
  8
0
  6
Continuous
 62
     7
370
    15
100
AcDbLine
 10
2581.976681009253
 20
623.8624145198591
 30
0.0
 11
2581.904841818737
 21
619.0810073981536
 31
0.0
  0
LINE
  5
109D
330
104A
100
AcDbEntity
  8
0
  6
Continuous
 62
     7
370
    15
100
AcDbLine
 10
2583.388083385924
 20
619.6867824771569
 30
0.0
 11
2581.904841818737
 21
619.0810073981536
 31
0.0
  0
LINE
  5
109E
330
104A
100
AcDbEntity
  8
0
  6
Continuous
 62
     7
370
    15
100
AcDbLine
 10
2583.388083385924
 20
619.6867824771569
 30
0.0
 11
2583.374779909217
 21
618.8013418449424
 31
0.0
  0
LINE
  5
109F
330
104A
100
AcDbEntity
  8
0
  6
Continuous
 62
     7
370
    15
100
AcDbLine
 10
2587.305369647851
 20
620.4066456350497
 30
0.0
 11
2583.374779909217
 21
618.8013418449424
 31
0.0
  0
LINE
  5
10A0
330
104A
100
AcDbEntity
  8
0
  6
Continuous
 62
     7
370
    15
100
AcDbLine
 10
2591.235959386485
 20
622.0119494251571
 30
0.0
 11
2587.305369647851
 21
620.4066456350497
 31
0.0
  0
LINE
  5
10A1
330
104A
100
AcDbEntity
  8
0
  6
Continuous
 62
     7
370
    15
100
AcDbLine
 10
2591.249262863192
 20
622.8973900573716
 30
0.0
 11
2591.235959386485
 21
622.0119494251571
 31
0.0
  0
LINE
  5
10A2
330
104A
100
AcDbEntity
  8
0
  6
Continuous
 62
     7
370
    15
100
AcDbLine
 10
2592.732504430379
 20
623.503165136375
 30
0.0
 11
2591.249262863192
 21
622.8973900573716
 31
0.0
  0
LINE
  5
10A3
330
104A
100
AcDbEntity
  8
0
  6
Continuous
 62
     7
370
    15
100
AcDbLine
 10
2592.804343620896
 20
628.2845722580806
 30
0.0
 11
2592.732504430379
 21
623.503165136375
 31
0.0
  0
LINE
  5
10A4
330
104A
100
AcDbEntity
  8
0
  6
Continuous
 62
     7
370
    15
100
AcDbLine
 10
2592.062721455926
 20
627.981684154407
 30
0.0
 11
2592.804343620896
 21
628.2845722580806
 31
0.0
  0
LINE
  5
10A5
330
104A
100
AcDbEntity
  8
0
  6
Continuous
 62
     7
370
    15
100
AcDbLine
 10
2591.320836829491
 20
627.6786888580698
 30
0.0
 11
2592.062721455926
 21
627.981684154407
 31
0.0
  0
LINE
  5
10A6
330
104A
100
AcDbEntity
  8
0
  6
Continuous
 62
     7
370
    15
100
AcDbLine
 10
2591.49464763433
 20
639.2470293990029
 30
0.0
 11
2591.320836829491
 21
627.6786888580698
 31
0.0
  0
LINE
  5
10A7
330
104A
100
AcDbEntity
  8
0
  6
Continuous
 62
     7
370
    15
100
AcDbLine
 10
2583.633733381279
 20
636.0365301397957
 30
0.0
 11
2591.49464763433
 21
639.2470293990029
 31
0.0
  0
LINE
  5
10A8
330
104A
100
AcDbEntity
  8
0
  6
Continuous
 62
     7
370
    15
100
AcDbLine
 10
2583.633733381279
 20
636.0365301397957
 30
0.0
 11
2583.459922576441
 21
624.4681895988626
 31
0.0
  0
LINE
  5
10A9
330
104A
100
AcDbEntity
  8
0
  6
Continuous
 62
     7
370
    15
100
AcDbLine
 10
2587.249200602297
 20
616.6681976862458
 30
0.0
 11
2593.923521049048
 21
619.3940766565815
 31
0.0
  0
LINE
  5
10AA
330
104A
100
AcDbEntity
  8
0
  6
Continuous
 62
     7
370
    15
100
AcDbLine
 10
2587.24913627396
 20
616.6639161796533
 30
0.0
 11
2587.249200602297
 21
616.6681976862458
 31
0.0
  0
LINE
  5
10AB
330
104A
100
AcDbEntity
  8
0
  6
Continuous
 62
     7
370
    15
100
AcDbLine
 10
2587.24913627396
 20
616.6639161796533
 30
0.0
 11
2580.574550602993
 21
613.9379288883101
 31
0.0
  0
LINE
  5
10AC
330
104A
100
AcDbEntity
  8
0
  6
Continuous
 62
     7
370
    15
100
AcDbLine
 10
2594.770115513405
 20
675.740936524539
 30
0.0
 11
2593.923521049048
 21
619.3940766565815
 31
0.0
  0
LINE
  5
10AD
330
104A
100
AcDbEntity
  8
0
  6
Continuous
 62
     7
370
    15
100
AcDbLine
 10
2593.971807304583
 20
661.8537628240551
 30
0.0
 11
2581.809229768948
 21
656.88640853024
 31
0.0
  0
LINE
  5
10AE
330
104A
100
AcDbEntity
  8
0
  6
Continuous
 62
     7
370
    15
100
AcDbLine
 10
2581.809229768948
 20
656.88640853024
 30
0.0
 11
2581.536036565346
 21
638.7034652104221
 31
0.0
  0
LINE
  5
10AF
330
104A
100
AcDbEntity
  8
0
  6
Continuous
 62
     7
370
    15
100
AcDbLine
 10
2581.536036565346
 20
638.7034652104221
 30
0.0
 11
2593.698614100981
 21
643.6708195042371
 31
0.0
  0
LINE
  5
10B0
330
104A
100
AcDbEntity
  8
0
  6
Continuous
 62
     7
370
    15
100
AcDbLine
 10
2593.698614100981
 20
643.6708195042371
 30
0.0
 11
2593.971807304583
 21
661.8537628240551
 31
0.0
  0
LINE
  5
10B1
330
104A
100
AcDbEntity
  8
0
  6
Continuous
 62
     7
370
    15
100
AcDbLine
 10
2587.963940727114
 20
673.526007755098
 30
0.0
 11
2594.267631558515
 21
676.1003963547559
 31
0.0
  0
LINE
  5
10B2
330
104A
100
AcDbEntity
  8
0
  6
Continuous
 62
     7
370
    15
100
AcDbLine
 10
2590.216665380092
 20
674.5864442781683
 30
0.0
 11
2587.902678022862
 21
673.6413818519606
 31
0.0
  0
LINE
  5
10B3
330
104A
100
AcDbEntity
  8
0
  6
Continuous
 62
     7
370
    15
100
AcDbLine
 10
2584.582060511253
 20
685.1980184287388
 30
0.0
 11
2590.216665380092
 21
674.5864442781683
 31
0.0
  0
LINE
  5
10B4
330
104A
100
AcDbEntity
  8
0
  6
Continuous
 62
     7
370
    15
100
AcDbLine
 10
2582.268073155959
 20
684.2529561313804
 30
0.0
 11
2584.582060511253
 21
685.1980184287388
 31
0.0
  0
LINE
  5
10B5
330
104A
100
AcDbEntity
  8
0
  6
Continuous
 62
     7
370
    15
100
AcDbLine
 10
2588.88143985677
 20
687.0939327891946
 30
0.0
 11
2582.206928014295
 21
684.3681097452384
 31
0.0
  0
LINE
  5
10B6
330
104A
100
AcDbEntity
  8
0
  6
Continuous
 62
     7
370
    15
100
AcDbLine
 10
2588.88143985677
 20
687.0939327891946
 30
0.0
 11
2594.638442641
 21
676.2518404065927
 31
0.0
  0
LINE
  5
10B7
330
104A
100
AcDbEntity
  8
0
  6
Continuous
 62
     7
370
    15
100
AcDbLine
 10
2594.638442641
 20
676.2518404065927
 30
0.0
 11
2594.267631558515
 21
676.1003963547559
 31
0.0
  0
LINE
  5
10B8
330
104A
100
AcDbEntity
  8
0
  6
Continuous
 62
     7
370
    15
100
AcDbLine
 10
2575.062082525909
 20
682.1509461226126
 30
0.0
 11
2581.736575560862
 21
684.8768582437195
 31
0.0
  0
SPLINE
  5
10B9
330
104A
100
AcDbEntity
  8
0
  6
Continuous
 62
     7
370
    15
100
AcDbSpline
210
0.0
220
0.0
230
1.0
 70
     8
 71
     3
 72
     8
 73
     4
 74
     0
 42
0.0000000001
 43
0.0000000001
 40
0.0
 40
0.0
 40
0.0
 40
0.0
 40
1.0
 40
1.0
 40
1.0
 40
1.0
 10
2582.206965202296
 20
684.3681391873817
 30
0.0
 10
2582.085276768754
 20
684.5973557433468
 30
0.0
 10
2581.912187346622
 20
684.7845494102711
 30
0.0
 10
2581.736577232855
 20
684.876856865169
 30
0.0
  0
LWPOLYLINE
  5
10BA
330
104A
100
AcDbEntity
  8
0
  6
Continuous
 62
     7
370
    15
100
AcDbPolyline
 90
       29
 70
   128
 43
0.0
 10
2582.266719964904
 20
687.4058487821587
 10
2582.243080345623
 20
687.1866056823916
 10
2582.149157266711
 20
686.8992399100964
 10
2581.985072437987
 20
686.6195569063854
 10
2581.752968197652
 20
686.3511991970849
 10
2581.455866908195
 20
686.0976693458252
 10
2581.097643569454
 20
685.8622720982477
 10
2580.682968449591
 20
685.6480722835116
 10
2580.217248538807
 20
685.4578662361693
 10
2579.706553603813
 20
685.29413292761
 10
2579.157541593513
 20
685.1590035007754
 10
2578.577369582161
 20
685.0542435664324
 10
2577.973600364265
 20
684.9812197223847
 10
2577.354107872239
 20
684.940879593058
 10
2576.726963662975
 20
684.9337521397561
 10
2576.100345098247
 20
684.9599288285889
 10
2575.482422359776
 20
685.0190688236336
 10
2574.881250461317
 20
685.110401553881
 10
2574.304667314744
 20
685.2327364197716
 10
2573.760192324623
 20
685.3844773826383
 10
2573.254915517257
 20
685.5636476894851
 10
2572.795428759795
 20
685.7679131196499
 10
2572.387725411793
 20
685.994606340055
 10
2572.037113141754
 20
686.2407753054492
 10
2571.748171716773
 20
686.5032080227008
 10
2571.524658587811
 20
686.7784873318173
 10
2571.369491015617
 20
687.0630209424281
 10
2571.284697037304
 20
687.3531007479365
 10
2571.267961660781
 20
687.5711014642575
  0
LINE
  5
10BB
330
104A
100
AcDbEntity
  8
0
  6
Continuous
 62
     7
370
    15
100
AcDbLine
 10
2569.979521354524
 20
691.055865262679
 30
0.0
 11
2563.305023322559
 21
688.3299557677887
 31
0.0
  0
LINE
  5
10BC
330
104A
100
AcDbEntity
  8
0
  6
Continuous
 62
     7
370
    15
100
AcDbLine
 10
2576.654014389476
 20
693.781777383786
 30
0.0
 11
2569.979521354524
 21
691.055865262679
 31
0.0
  0
LINE
  5
10BD
330
104A
100
AcDbEntity
  8
0
  6
Continuous
 62
     7
370
    15
100
AcDbLine
 10
2588.411073592827
 20
687.6027677386097
 30
0.0
 11
2581.908622100435
 21
691.0201793373646
 31
0.0
  0
LINE
  5
10BE
330
104A
100
AcDbEntity
  8
0
  6
Continuous
 62
     7
370
    15
100
AcDbLine
 10
2579.32215882203
 20
692.3795142924535
 30
0.0
 11
2576.654014389476
 21
693.781777383786
 31
0.0
  0
LINE
  5
10BF
330
104A
100
AcDbEntity
  8
0
  6
Continuous
 62
     7
370
    15
100
AcDbLine
 10
2581.736575560862
 20
684.8768582437195
 30
0.0
 11
2588.411073592827
 21
687.6027677386097
 31
0.0
  0
LINE
  5
10C0
330
104A
100
AcDbEntity
  8
0
  6
Continuous
 62
     7
370
    15
100
AcDbLine
 10
2584.382338165819
 20
684.7899890944833
 30
0.0
 11
2584.457011205515
 21
684.6493553166803
 31
0.0
  0
ARC
  5
10C1
330
104A
100
AcDbEntity
  8
0
  6
Continuous
 62
     7
370
    15
100
AcDbCircle
 10
2584.656045043406
 20
684.9384394989953
 30
0.0
 40
0.311372730723055
100
AcDbArc
 50
180.2892004275347
 51
208.4740769055117
  0
ARC
  5
10C2
330
104A
100
AcDbEntity
  8
0
  6
Continuous
 62
     7
370
    15
100
AcDbCircle
 10
2584.477186601947
 20
684.9454183400403
 30
0.0
 40
0.1327859047442808
100
AcDbArc
 50
132.9191134599296
 51
183.6920039065783
  0
LINE
  5
10C3
330
104A
100
AcDbEntity
  8
0
  6
Continuous
 62
     7
370
    15
100
AcDbLine
 10
2584.582060511253
 20
685.1980184287388
 30
0.0
 11
2584.386764021484
 21
685.0426595527085
 31
0.0
  0
ARC
  5
10C4
330
104A
100
AcDbEntity
  8
0
  6
Continuous
 62
     7
370
    15
100
AcDbCircle
 10
2590.075223434566
 20
674.6575002880781
 30
0.0
 40
0.2761765468346864
100
AcDbArc
 50
207.2585246156791
 51
227.7989037709098
  0
LINE
  5
10C5
330
104A
100
AcDbEntity
  8
0
  6
Continuous
 62
     7
370
    15
100
AcDbLine
 10
2589.755043532184
 20
674.6716438098039
 30
0.0
 11
2589.829716567233
 21
674.5310097227628
 31
0.0
  0
LWPOLYLINE
  5
10C6
330
104A
100
AcDbEntity
  8
0
  6
Continuous
 62
     7
370
    15
100
AcDbPolyline
 90
        9
 70
   128
 43
0.0
 10
2589.755043532184
 20
674.6716438098039
 10
2589.73620063409
 20
674.702721133644
 10
2589.714684169948
 20
674.7301643261485
 10
2589.69123548941
 20
674.7530335462469
 10
2589.666638792678
 20
674.7705592585311
 10
2589.641731236038
 20
674.7821444025393
 10
2589.617373086074
 20
674.7873892210447
 10
2589.594377662388
 20
674.7861214300053
 10
2589.58147584924
 20
674.7822068749638
  0
LINE
  5
10C7
330
104A
100
AcDbEntity
  8
0
  6
Continuous
 62
     7
370
    15
100
AcDbLine
 10
2588.592621429593
 20
674.3783444978363
 30
0.0
 11
2587.938774119505
 21
675.6097351405111
 31
0.0
  0
LWPOLYLINE
  5
10C8
330
104A
100
AcDbEntity
  8
0
  6
Continuous
 62
     7
370
    15
100
AcDbPolyline
 90
        3
 70
   128
 43
0.0
 10
2588.546030785228
 20
675.857754077186
 10
2588.550563854521
 20
675.8597817545812
 10
2588.571063432625
 20
675.8746073745443
  0
LINE
  5
10C9
330
104A
100
AcDbEntity
  8
0
  6
Continuous
 62
     7
370
    15
100
AcDbLine
 10
2588.844139826353
 20
676.1487447045502
 30
0.0
 11
2588.571063432625
 21
675.8746073745443
 31
0.0
  0
ARC
  5
10CA
330
104A
100
AcDbEntity
  8
0
  6
Continuous
 62
     7
370
    15
100
AcDbCircle
 10
2588.653914725109
 20
676.268597548141
 30
0.0
 40
0.224833923730874
100
AcDbArc
 50
327.7866940890746
 51
33.97097019156592
  0
LINE
  5
10CB
330
104A
100
AcDbEntity
  8
0
  6
Continuous
 62
     7
370
    15
100
AcDbLine
 10
2588.29468171762
 20
677.4219231639586
 30
0.0
 11
2588.84037417236
 21
676.3942286262667
 31
0.0
  0
LWPOLYLINE
  5
10CC
330
104A
100
AcDbEntity
  8
0
  6
Continuous
 62
     7
370
    15
100
AcDbPolyline
 90
        9
 70
   128
 43
0.0
 10
2588.29468171762
 20
677.4219231639586
 10
2588.275838825721
 20
677.4530009001161
 10
2588.254322355384
 20
677.4804436803029
 10
2588.230873681041
 20
677.5033133127191
 10
2588.206276984309
 20
677.5208390250034
 10
2588.181369427669
 20
677.5324241690116
 10
2588.15701127151
 20
677.5376685751994
 10
2588.13401585402
 20
677.5364011964776
 10
2588.121124034894
 20
677.5324813890027
  0
LINE
  5
10CD
330
104A
100
AcDbEntity
  8
0
  6
Continuous
 62
     7
370
    15
100
AcDbLine
 10
2587.132259608834
 20
677.1286234396732
 30
0.0
 11
2586.478412311135
 21
678.3600149069833
 31
0.0
  0
LWPOLYLINE
  5
10CE
330
104A
100
AcDbEntity
  8
0
  6
Continuous
 62
     7
370
    15
100
AcDbPolyline
 90
        3
 70
   128
 43
0.0
 10
2587.085668970663
 20
678.6080334313407
 10
2587.090202046152
 20
678.6100615210535
 10
2587.110701618061
 20
678.6248867286989
  0
LINE
  5
10CF
330
104A
100
AcDbEntity
  8
0
  6
Continuous
 62
     7
370
    15
100
AcDbLine
 10
2587.383778017984
 20
678.8990244710224
 30
0.0
 11
2587.110701618061
 21
678.6248867286989
 31
0.0
  0
ARC
  5
10D0
330
104A
100
AcDbEntity
  8
0
  6
Continuous
 62
     7
370
    15
100
AcDbCircle
 10
2587.19355291674
 20
679.0188773146134
 30
0.0
 40
0.2248339237309524
100
AcDbArc
 50
327.7866940890801
 51
33.97097019153515
  0
LINE
  5
10D1
330
104A
100
AcDbEntity
  8
0
  6
Continuous
 62
     7
370
    15
100
AcDbLine
 10
2586.834319909251
 20
680.1722029304309
 30
0.0
 11
2587.38001236399
 21
679.1445083927389
 31
0.0
  0
LWPOLYLINE
  5
10D2
330
104A
100
AcDbEntity
  8
0
  6
Continuous
 62
     7
370
    15
100
AcDbPolyline
 90
        9
 70
   128
 43
0.0
 10
2586.834319909251
 20
680.1722029304309
 10
2586.815477017351
 20
680.2032806665883
 10
2586.793960547014
 20
680.2307234467753
 10
2586.770511866476
 20
680.2535926668737
 10
2586.745915169745
 20
680.2711183791578
 10
2586.7210076193
 20
680.2827039354838
 10
2586.696649456946
 20
680.2879479293539
 10
2586.673654039455
 20
680.2866805506321
 10
2586.660762226525
 20
680.2827611554749
  0
LINE
  5
10D3
330
104A
100
AcDbEntity
  8
0
  6
Continuous
 62
     7
370
    15
100
AcDbLine
 10
2585.671902797477
 20
679.878900579929
 30
0.0
 11
2585.018045499559
 21
681.1102968873544
 31
0.0
  0
LWPOLYLINE
  5
10D4
330
104A
100
AcDbEntity
  8
0
  6
Continuous
 62
     7
370
    15
100
AcDbPolyline
 90
        3
 70
   128
 43
0.0
 10
2585.625312153111
 20
681.3583101592787
 10
2585.629835240771
 20
681.3603439137423
 10
2585.650339809691
 20
681.3751664951711
  0
LINE
  5
10D5
330
104A
100
AcDbEntity
  8
0
  6
Continuous
 62
     7
370
    15
100
AcDbLine
 10
2585.923416206517
 20
681.6493040313359
 30
0.0
 11
2585.650339809691
 21
681.3751664951711
 31
0.0
  0
ARC
  5
10D6
330
104A
100
AcDbEntity
  8
0
  6
Continuous
 62
     7
370
    15
100
AcDbCircle
 10
2585.733219854779
 20
681.7691572080783
 30
0.0
 40
0.2248097777891307
100
AcDbArc
 50
327.7827163219986
 51
33.97495088007595
  0
LINE
  5
10D7
330
104A
100
AcDbEntity
  8
0
  6
Continuous
 62
     7
370
    15
100
AcDbLine
 10
2585.371680562241
 20
682.9267702940588
 30
0.0
 11
2585.919650549426
 21
681.8947877468936
 31
0.0
  0
LWPOLYLINE
  5
10D8
330
104A
100
AcDbEntity
  8
0
  6
Continuous
 62
     7
370
    15
100
AcDbPolyline
 90
        9
 70
   128
 43
0.0
 10
2585.371680562241
 20
682.9267702940588
 10
2585.35283767344
 20
682.9578482363752
 10
2585.331326200114
 20
682.9852883903454
 10
2585.307872525662
 20
683.0081604428193
 10
2585.283275828931
 20
683.0256861551035
 10
2585.258373272399
 20
683.0372688790539
 10
2585.234015113143
 20
683.042513079083
 10
2585.211019695652
 20
683.0412457003611
 10
2585.198117885601
 20
683.0373313514783
  0
LINE
  5
10D9
330
104A
100
AcDbEntity
  8
0
  6
Continuous
 62
     7
370
    15
100
AcDbLine
 10
2584.209263456662
 20
682.6334683558745
 30
0.0
 11
2583.555411152659
 21
683.8648618309247
 31
0.0
  0
LWPOLYLINE
  5
10DA
330
104A
100
AcDbEntity
  8
0
  6
Continuous
 62
     7
370
    15
100
AcDbPolyline
 90
        3
 70
   128
 43
0.0
 10
2584.162672810747
 20
684.1128778321449
 10
2584.167200890773
 20
684.1149086511536
 10
2584.187700465779
 20
684.1297340649579
  0
LINE
  5
10DB
330
104A
100
AcDbEntity
  8
0
  6
Continuous
 62
     7
370
    15
100
AcDbLine
 10
2584.460776862605
 20
684.4038716011226
 30
0.0
 11
2584.187700465779
 21
684.1297340649579
 31
0.0
  0
ARC
  5
10DC
330
104A
100
AcDbEntity
  8
0
  6
Continuous
 62
     7
370
    15
100
AcDbCircle
 10
2584.270579966476
 20
684.5237247695144
 30
0.0
 40
0.224810233910428
100
AcDbArc
 50
327.7827920920704
 51
33.97487510995874
  0
SPLINE
  5
10DD
330
104A
100
AcDbEntity
  8
0
  6
Continuous
 62
     7
370
    15
100
AcDbSpline
210
0.0
220
0.0
230
1.0
 70
     8
 71
     3
 72
    23
 73
    19
 74
     0
 42
0.0000000001
 43
0.0000000001
 40
0.0
 40
0.0
 40
0.0
 40
0.0
 40
0.0312790992544
 40
0.0625215055378493
 40
0.0938020946956283
 40
0.125195469366079
 40
0.1877049111470232
 40
0.2501007698209572
 40
0.3123139621902504
 40
0.3751308749721462
 40
0.5000160418638949
 40
0.6248381832128826
 40
0.6875345841634431
 40
0.7499276189945358
 40
0.8121722166468199
 40
0.8747648194489006
 40
0.9374087487736854
 40
0.9999999999999998
 40
0.9999999999999998
 40
0.9999999999999998
 40
0.9999999999999998
 10
2573.831584914442
 20
688.9294563630955
 30
0.0
 10
2573.788276693626
 20
688.9529058107064
 30
0.0
 10
2573.701711056119
 20
688.9997771977862
 30
0.0
 10
2573.581211597027
 20
689.0736251497005
 30
0.0
 10
2573.467827779593
 20
689.1499341899701
 30
0.0
 10
2573.32752937213
 20
689.2548774849329
 30
0.0
 10
2573.172664754926
 20
689.3913951246869
 30
0.0
 10
2573.022301590399
 20
689.562083485999
 30
0.0
 10
2572.908381865989
 20
689.738731753591
 30
0.0
 10
2572.807016168582
 20
689.9794063911497
 30
0.0
 10
2572.773844553748
 20
690.2863405912287
 30
0.0
 10
2572.872908917676
 20
690.5885161879255
 30
0.0
 10
2573.025461527568
 20
690.8202635641873
 30
0.0
 10
2573.176345850245
 20
690.9875471126771
 30
0.0
 10
2573.362130544706
 20
691.1466463184637
 30
0.0
 10
2573.582098164454
 20
691.2959596323831
 30
0.0
 10
2573.83124928916
 20
691.4355829650768
 30
0.0
 10
2574.021265989018
 20
691.5179011611086
 30
0.0
 10
2574.116234375263
 20
691.5590429462335
 30
0.0
  0
SPLINE
  5
10DE
330
104A
100
AcDbEntity
  8
0
  6
Continuous
 62
     7
370
    15
100
AcDbSpline
210
0.0
220
0.0
230
1.0
 70
     8
 71
     3
 72
    23
 73
    19
 74
     0
 42
0.0000000001
 43
0.0000000001
 40
0.0
 40
0.0
 40
0.0
 40
0.0
 40
0.0312151157096688
 40
0.0624293814631143
 40
0.0937181296960037
 40
0.125156157419309
 40
0.1876974391820958
 40
0.2501026372481431
 40
0.3123157607766483
 40
0.3751328653792587
 40
0.5000176782827177
 40
0.6248641409644592
 40
0.6875637148550862
 40
0.7499277214791214
 40
0.8121739978966843
 40
0.8749642805960363
 40
0.9373266558641441
 40
1.0
 40
1.0
 40
1.0
 40
1.0
 10
2579.498351589513
 20
688.7304313348504
 30
0.0
 10
2579.449095734743
 20
688.7109229932063
 30
0.0
 10
2579.350585366392
 20
688.6719068411106
 30
0.0
 10
2579.194840803527
 20
688.6178038740276
 30
0.0
 10
2579.033427577853
 20
688.567017207202
 30
0.0
 10
2578.810960981096
 20
688.5044154134256
 30
0.0
 10
2578.520918668405
 20
688.4358323240324
 30
0.0
 10
2578.157294357769
 20
688.370232686944
 30
0.0
 10
2577.779975862817
 20
688.3217449147858
 30
0.0
 10
2577.264560343774
 20
688.2807205108536
 30
0.0
 10
2576.604755217681
 20
688.2730705362347
 30
0.0
 10
2575.951845810207
 20
688.3268347115695
 30
0.0
 10
2575.449210535951
 20
688.403634831806
 30
0.0
 10
2575.085375644829
 20
688.4779980344019
 30
0.0
 10
2574.737998377087
 20
688.5685470059195
 30
0.0
 10
2574.411167272192
 20
688.6745307647024
 30
0.0
 10
2574.104385875718
 20
688.7939248010218
 30
0.0
 10
2573.922669213752
 20
688.8842043327944
 30
0.0
 10
2573.831584914442
 20
688.9294563630955
 30
0.0
  0
LINE
  5
10DF
330
104A
100
AcDbEntity
  8
0
  6
Continuous
 62
     7
370
    15
100
AcDbLine
 10
2579.498349651939
 20
688.730224926272
 30
0.0
 11
2580.496033030893
 21
688.2058850284486
 31
0.0
  0
LWPOLYLINE
  5
10E0
330
104A
100
AcDbEntity
  8
0
  6
Continuous
 62
     7
370
    15
100
AcDbPolyline
 90
       28
 70
   128
 43
0.0
 10
2573.118472961457
 20
692.0834244234852
 10
2572.669880072958
 20
691.8769199728399
 10
2572.277241612755
 20
691.6469894595632
 10
2571.945863836133
 20
691.3967427733942
 10
2571.680224864938
 20
691.1295676356872
 10
2571.483918495836
 20
690.8490739805497
 10
2571.359605119551
 20
690.5590552413798
 10
2571.30896605164
 20
690.2634323624755
 10
2571.33267220552
 20
689.9662083352662
 10
2571.430421017898
 20
689.6713946049779
 10
2571.600875668215
 20
689.3829862470679
 10
2571.84174303716
 20
689.1048771299669
 10
2572.149760013186
 20
688.8408309871809
 10
2572.520758045469
 20
688.5944191073947
 10
2572.949726519576
 20
688.3689715449439
 10
2573.430858907848
 20
688.1675399634965
 10
2573.957652709634
 20
687.992845111721
 10
2574.522978232181
 20
687.8472535766235
 10
2575.119200104395
 20
687.7327294030624
 10
2575.738247643212
 20
687.6508254957979
 10
2576.37175347236
 20
687.6026468919735
 10
2577.011145462256
 20
687.5888463070127
 10
2577.647782465733
 20
687.6096095649336
 10
2578.273057308942
 20
687.6646556576204
 10
2578.8785030735
 20
687.7532428153427
 10
2579.455943702961
 20
687.8741693445988
 10
2579.997558074615
 20
688.0258044629272
 10
2580.496036131464
 20
688.2060913934379
  0
LINE
  5
10E1
330
104A
100
AcDbEntity
  8
0
  6
Continuous
 62
     7
370
    15
100
AcDbLine
 10
2573.118469860885
 20
692.0832180584959
 30
0.0
 11
2574.116233192028
 21
691.5588361412071
 31
0.0
  0
SPLINE
  5
10E2
330
104A
100
AcDbEntity
  8
0
  6
Continuous
 62
     7
370
    15
100
AcDbSpline
210
0.0
220
0.0
230
1.0
 70
     8
 71
     3
 72
    33
 73
    29
 74
     0
 42
0.0000000001
 43
0.0000000001
 40
0.0
 40
0.0
 40
0.0
 40
0.0
 40
0.0125376080374536
 40
0.025043722227373
 40
0.0375376105912812
 40
0.0500385976825593
 40
0.0625659752034471
 40
0.0938225563701506
 40
0.1251111195597397
 40
0.1563677007257435
 40
0.1876562639160366
 40
0.2501257057355768
 40
0.3125951475551171
 40
0.3750645893746572
 40
0.4375340311941972
 40
0.500003473013737
 40
0.5624729148332773
 40
0.6249423566528175
 40
0.6874117984723574
 40
0.7498812402918973
 40
0.8123506821114375
 40
0.8436072632795655
 40
0.8748958264677341
 40
0.9061524076349403
 40
0.9374409708240246
 40
0.9582875996971763
 40
0.9791107469703563
 40
1.0
 40
1.0
 40
1.0
 40
1.0
 10
2580.496031912464
 20
688.2058851722257
 30
0.0
 10
2580.548976462744
 20
688.2280243695786
 30
0.0
 10
2580.65473256923
 20
688.2722471517222
 30
0.0
 10
2580.805819598431
 20
688.3422067840231
 30
0.0
 10
2580.950992936172
 20
688.4146668754314
 30
0.0
 10
2581.089741232137
 20
688.4898992783923
 30
0.0
 10
2581.288010533136
 20
688.6065353787103
 30
0.0
 10
2581.528888161351
 20
688.7706806270312
 30
0.0
 10
2581.784025542039
 20
688.9890378672003
 30
0.0
 10
2581.991652119348
 20
689.2185612483985
 30
0.0
 10
2582.201343923941
 20
689.536183320773
 30
0.0
 10
2582.335315497894
 20
689.9504740816567
 30
0.0
 10
2582.283174734241
 20
690.4545872081882
 30
0.0
 10
2582.020707408114
 20
690.9468723362063
 30
0.0
 10
2581.557860080991
 20
691.4083015058094
 30
0.0
 10
2580.912458415568
 20
691.8211718916288
 30
0.0
 10
2580.109289948642
 20
692.1696082794004
 30
0.0
 10
2579.179240843529
 20
692.4402261628094
 30
0.0
 10
2578.157983854808
 20
692.622611850591
 30
0.0
 10
2577.085018510086
 20
692.7098066454635
 30
0.0
 10
2576.181238263361
 20
692.7001935692361
 30
0.0
 10
2575.474779897322
 20
692.6436648812591
 30
0.0
 10
2574.957400036014
 20
692.5770583074726
 30
0.0
 10
2574.457645728718
 20
692.4871422123524
 30
0.0
 10
2574.033573114637
 20
692.3870832329948
 30
0.0
 10
2573.680552843663
 20
692.2855955170866
 30
0.0
 10
2573.390175187045
 20
692.1899275100801
 30
0.0
 10
2573.209133169051
 20
692.1188255463142
 30
0.0
 10
2573.118468702479
 20
692.0832182232825
 30
0.0
  0
ARC
  5
10E3
330
104A
100
AcDbEntity
  8
0
  6
Continuous
 62
     7
370
    15
100
AcDbCircle
 10
2593.687140679892
 20
675.7358725979892
 30
0.0
 40
1.082219109387258
100
AcDbArc
 50
0.2895120803723809
 51
28.47454906126547
  0
LINE
  5
10E4
330
104A
100
AcDbEntity
  8
0
  6
Continuous
 62
     7
370
    15
100
AcDbLine
 10
2574.252316137167
 20
688.8102623436691
 30
0.0
 11
2574.116199705928
 21
691.5589538932795
 31
0.0
  0
LINE
  5
10E5
330
104A
100
AcDbEntity
  8
0
  6
Continuous
 62
     7
370
    15
100
AcDbLine
 10
2574.252316137167
 20
688.8102623436691
 30
0.0
 11
2574.184474421916
 21
688.7763617180516
 31
0.0
  0
LINE
  5
10E6
330
104A
100
AcDbEntity
  8
0
  6
Continuous
 62
     7
370
    15
100
AcDbLine
 10
2581.736572462136
 20
684.8766520015397
 30
0.0
 11
2588.411070494101
 21
687.6025614964298
 31
0.0
  0
ARC
  5
10E7
330
104A
100
AcDbEntity
  8
0
  6
Continuous
 62
     7
370
    15
100
AcDbCircle
 10
2587.79612719583
 20
686.5620662799033
 30
0.0
 40
1.208629618908144
100
AcDbArc
 50
26.10754890512469
 51
59.41647898593794
  0
SPLINE
  5
10E8
330
104A
100
AcDbEntity
  8
0
  6
Continuous
 62
     7
370
    15
100
AcDbSpline
210
0.0
220
0.0
230
1.0
 70
     8
 71
     3
 72
    31
 73
    27
 74
     0
 42
0.0000000001
 43
0.0000000001
 40
0.0
 40
0.0
 40
0.0
 40
0.0
 40
0.0156149716808869
 40
0.031229575729435
 40
0.0468814988593421
 40
0.0626081594969237
 40
0.0938932814925489
 40
0.125110580571353
 40
0.1562318477308223
 40
0.1876552883801186
 40
0.2501272534885115
 40
0.3125959365787782
 40
0.3750679178529694
 40
0.437536600943407
 40
0.5000085822173449
 40
0.5624772653054952
 40
0.6249492465818657
 40
0.6874177461954058
 40
0.7498899182216632
 40
0.8123303357404719
 40
0.8436932118566714
 40
0.8749047639832578
 40
0.9060421046658834
 40
0.937353418533589
 40
0.9686899357276423
 40
0.9999999999999998
 40
0.9999999999999998
 40
0.9999999999999998
 40
0.9999999999999998
 10
2574.116231276534
 20
691.558836703887
 30
0.0
 10
2574.165487217187
 20
691.5783450752112
 30
0.0
 10
2574.26399793883
 20
691.6173613585627
 30
0.0
 10
2574.419743644409
 20
691.6714644353734
 30
0.0
 10
2574.581158788071
 20
691.7222512792498
 30
0.0
 10
2574.803626132248
 20
691.7848526132772
 30
0.0
 10
2575.093668669937
 20
691.8534347748614
 30
0.0
 10
2575.45729084001
 20
691.9190342031274
 30
0.0
 10
2575.834611779912
 20
691.9675206461134
 30
0.0
 10
2576.35001337654
 20
692.0085518860036
 30
0.0
 10
2577.009991373323
 20
692.0161507039359
 30
0.0
 10
2577.792482276147
 20
691.9518854090078
 30
0.0
 10
2578.537947419931
 20
691.8194581410905
 30
0.0
 10
2579.215674757346
 20
691.621489325375
 30
0.0
 10
2579.802522148363
 20
691.3677917478832
 30
0.0
 10
2580.272193907213
 20
691.0662297408846
 30
0.0
 10
2580.611116902246
 20
690.7298962370155
 30
0.0
 10
2580.801200609732
 20
690.3706361848044
 30
0.0
 10
2580.840680717293
 20
690.0029745405938
 30
0.0
 10
2580.741685883325
 20
689.7007451331663
 30
0.0
 10
2580.589123755248
 20
689.4690049098523
 30
0.0
 10
2580.438239974816
 20
689.3017191517263
 30
0.0
 10
2580.252453091655
 20
689.1426188681356
 30
0.0
 10
2580.032484022404
 20
688.9933052052704
 30
0.0
 10
2579.78333257902
 20
688.8536829213276
 30
0.0
 10
2579.593316441684
 20
688.771366115845
 30
0.0
 10
2579.498348490784
 20
688.7302250925038
 30
0.0
  0
LINE
  5
10E9
330
104A
100
AcDbEntity
  8
0
  6
Continuous
 62
     7
370
    15
100
AcDbLine
 10
2588.411073592827
 20
687.6027677386097
 30
0.0
 11
2588.411070494101
 21
687.6025614964298
 31
0.0
  0
SPLINE
  5
10EA
330
104A
100
AcDbEntity
  8
0
  6
Continuous
 62
     7
370
    15
100
AcDbSpline
210
0.0
220
0.0
230
1.0
 70
     8
 71
     3
 72
    15
 73
    11
 74
     0
 42
0.0000000001
 43
0.0000000001
 40
0.0
 40
0.0
 40
0.0
 40
0.0
 40
0.0915152692491449
 40
0.2212982921765743
 40
0.351082519002844
 40
0.4808659231263415
 40
0.6106497444836459
 40
0.7404327712122929
 40
0.8702168053513064
 40
1.0
 40
1.0
 40
1.0
 40
1.0
 10
2579.388028785331
 20
688.6938406602513
 30
0.0
 10
2579.263924331609
 20
688.7514494189925
 30
0.0
 10
2578.963820273723
 20
688.8907564442401
 30
0.0
 10
2578.382414415812
 20
689.0525660696724
 30
0.0
 10
2577.688970396045
 20
689.178294449363
 30
0.0
 10
2576.956645599712
 20
689.2373083530032
 30
0.0
 10
2576.217515445581
 20
689.2298300162685
 30
0.0
 10
2575.501122042661
 20
689.1543267693724
 30
0.0
 10
2574.826515134459
 20
689.0184931708355
 30
0.0
 10
2574.443758775986
 20
688.8796549176342
 30
0.0
 10
2574.252381215703
 20
688.8102360155485
 30
0.0
  0
LINE
  5
10EB
330
104A
100
AcDbEntity
  8
0
  6
Continuous
 62
     7
370
    15
100
AcDbLine
 10
2577.751531139831
 20
688.7285840158599
 30
0.0
 11
2578.35071782236
 21
688.4136770117724
 31
0.0
  0
LINE
  5
10EC
330
104A
100
AcDbEntity
  8
0
  6
Continuous
 62
     7
370
    15
100
AcDbLine
 10
2575.052691664291
 20
688.4909860426319
 30
0.0
 11
2577.751531139831
 21
688.7285840158599
 31
0.0
  0
LINE
  5
10ED
330
104A
100
AcDbEntity
  8
0
  6
Continuous
 62
     7
370
    15
100
AcDbLine
 10
2577.745549414242
 20
688.3304577963929
 30
0.0
 11
2577.751531139831
 21
688.7285840158599
 31
0.0
  0
LINE
  5
10EE
330
104A
100
AcDbEntity
  8
0
  6
Continuous
 62
     7
370
    15
100
AcDbLine
 10
2588.97454663582
 20
649.1166878355495
 30
0.0
 11
2591.429480351049
 21
647.0073529830206
 31
0.0
  0
LINE
  5
10EF
330
104A
100
AcDbEntity
  8
0
  6
Continuous
 62
     7
370
    15
100
AcDbLine
 10
2593.698614100981
 20
643.6708195042371
 30
0.0
 11
2591.429480351049
 21
647.0073529830206
 31
0.0
  0
LINE
  5
10F0
330
104A
100
AcDbEntity
  8
0
  6
Continuous
 62
     7
370
    15
100
AcDbLine
 10
2585.988635818567
 20
650.1615056471256
 30
0.0
 11
2586.116103557842
 21
658.6453868263438
 31
0.0
  0
LINE
  5
10F1
330
104A
100
AcDbEntity
  8
0
  6
Continuous
 62
     7
370
    15
100
AcDbLine
 10
2581.681764747978
 20
648.402523684403
 30
0.0
 11
2585.988635818567
 21
650.1615056471256
 31
0.0
  0
LINE
  5
10F2
330
104A
100
AcDbEntity
  8
0
  6
Continuous
 62
     7
370
    15
100
AcDbLine
 10
2591.638223598622
 20
660.9006950901531
 30
0.0
 11
2591.429480351049
 21
647.0073529830206
 31
0.0
  0
ARC
  5
10F3
330
104A
100
AcDbEntity
  8
0
  6
Continuous
 62
     7
370
    15
100
AcDbCircle
 10
2576.416879626805
 20
693.3995271446478
 30
0.0
 40
0.449654357987992
100
AcDbArc
 50
58.17245520598554
 51
110.063770826215
  0
LINE
  5
10F4
330
104A
100
AcDbEntity
  8
0
  6
Continuous
 62
     7
370
    15
100
AcDbLine
 10
2563.541046603631
 20
694.4396534105391
 30
0.0
 11
2556.866633520867
 21
691.7136992699669
 31
0.0
  0
SPLINE
  5
10F5
330
104A
100
AcDbEntity
  8
0
  6
Continuous
 62
     7
370
    15
100
AcDbSpline
210
0.0
220
0.0
230
1.0
 70
     8
 71
     3
 72
    10
 73
     6
 74
     0
 42
0.0000000001
 43
0.0000000001
 40
0.0
 40
0.0
 40
0.0
 40
0.0
 40
0.5
 40
0.5
 40
1.0
 40
1.0
 40
1.0
 40
1.0
 10
2563.541046642934
 20
694.4396528900837
 30
0.0
 10
2563.716648796077
 20
694.3473781325661
 30
0.0
 10
2563.889739475821
 20
694.1602217274333
 30
0.0
 10
2564.13314513048
 20
693.7018419818553
 30
0.0
 10
2564.201960586519
 20
693.4334425243718
 30
0.0
 10
2564.198456947293
 20
693.2016226213359
 30
0.0
  0
LINE
  5
10F6
330
104A
100
AcDbEntity
  8
0
  6
Continuous
 62
     7
370
    15
100
AcDbLine
 10
2557.524004168645
 20
690.4757937441838
 30
0.0
 11
2564.198455678767
 21
693.2016237956081
 31
0.0
  0
ELLIPSE
  5
10F7
330
104A
100
AcDbEntity
  8
0
  6
Continuous
 62
     7
370
    15
100
AcDbEllipse
 10
2587.817575937066
 20
647.9210174043194
 30
0.0
 11
1.732022549149917
 21
-1.228031088259684
 31
0.0
210
0.0
220
0.0
230
1.0
 40
0.7800938692629135
 41
1.451707183747372
 42
2.062572421945352
  0
LINE
  5
10F8
330
104A
100
AcDbEntity
  8
0
  6
Continuous
 62
     7
370
    15
100
AcDbLine
 10
2586.164225814626
 20
650.0692230226634
 30
0.0
 11
2587.844184644431
 21
649.6919081415199
 31
0.0
  0
LINE
  5
10F9
330
104A
100
AcDbEntity
  8
0
  6
Continuous
 62
     7
370
    15
100
AcDbLine
 10
2586.294172796746
 20
658.7181153791052
 30
0.0
 11
2586.164225814626
 21
650.0692230226634
 31
0.0
  0
ARC
  5
10FA
330
104A
100
AcDbEntity
  8
0
  6
Continuous
 62
     7
370
    15
100
AcDbCircle
 10
2559.937102519361
 20
698.3720671176449
 30
0.0
 40
2.358370392925669
100
AcDbArc
 50
282.3621155847096
 51
349.0581521750657
  0
LWPOLYLINE
  5
10FB
330
104A
100
AcDbEntity
  8
0
  6
Continuous
 62
     7
370
    15
100
AcDbPolyline
 90
       22
 70
   128
 43
0.0
 10
2551.253840233486
 20
698.0896713889322
 10
2551.254947804841
 20
698.0176116095382
 10
2551.304086159567
 20
697.726172700667
 10
2551.424262890011
 20
697.4383953100554
 10
2551.613911531925
 20
697.1580313777508
 10
2551.870557466364
 20
696.8887372982494
 10
2552.190856959087
 20
696.6340198587775
 10
2552.570633316911
 20
696.3972043354064
 10
2553.004941440659
 20
696.1813721831557
 10
2553.488105566998
 20
695.9893437808207
 10
2554.013841959469
 20
695.8236165301181
 10
2554.575289419052
 20
695.6863539812915
 10
2555.165126329408
 20
695.5793449617458
 10
2555.775666536802
 20
695.5039867299194
 10
2556.398954173031
 20
695.461258363345
 10
2557.026858358076
 20
695.4517174328906
 10
2557.65119617905
 20
695.4754895571634
 10
2558.263827392847
 20
695.53226507675
 10
2558.856765705297
 20
695.6213024985185
 10
2559.422280584801
 20
695.741442075259
 10
2559.952996313203
 20
695.8911182569799
 10
2560.442004850434
 20
696.0683777839228
  0
LINE
  5
10FC
330
104A
100
AcDbEntity
  8
0
  6
Continuous
 62
     7
370
    15
100
AcDbLine
 10
2557.95691897855
 20
703.1398009835379
 30
0.0
 11
2558.458400483046
 21
703.3446171962873
 31
0.0
  0
LINE
  5
10FD
330
104A
100
AcDbEntity
  8
0
  6
Continuous
 62
     7
370
    15
100
AcDbLine
 10
2570.215459686397
 20
697.1656075511113
 30
0.0
 11
2563.541046603631
 21
694.4396534105391
 31
0.0
  0
LINE
  5
10FE
330
104A
100
AcDbEntity
  8
0
  6
Continuous
 62
     7
370
    15
100
AcDbLine
 10
2558.458400483046
 20
703.3446171962873
 30
0.0
 11
2559.308037394735
 21
702.8980842171281
 31
0.0
  0
LINE
  5
10FF
330
104A
100
AcDbEntity
  8
0
  6
Continuous
 62
     7
370
    15
100
AcDbLine
 10
2561.894500673141
 20
701.5387492620391
 30
0.0
 11
2570.215459686397
 21
697.1656075511113
 31
0.0
  0
LINE
  5
1100
330
104A
100
AcDbEntity
  8
0
  6
Continuous
 62
     7
370
    15
100
AcDbLine
 10
2585.988635818567
 20
650.1615056471256
 30
0.0
 11
2586.164225814626
 21
650.0692230226634
 31
0.0
  0
LINE
  5
1101
330
104A
100
AcDbEntity
  8
0
  6
Continuous
 62
     7
370
    15
100
AcDbLine
 10
2590.138637871195
 20
638.6932119751841
 30
0.0
 11
2588.597221456923
 21
636.6547980916395
 31
0.0
  0
LWPOLYLINE
  5
1102
330
104A
100
AcDbEntity
  8
0
  6
Continuous
 62
     7
370
    15
100
AcDbPolyline
 90
       28
 70
   128
 43
0.0
 10
2560.48191470417
 20
698.7246613181126
 10
2559.983436647321
 20
698.5443743876016
 10
2559.441822275666
 20
698.3927392692732
 10
2558.864381646205
 20
698.2718127400174
 10
2558.258935881648
 20
698.1832255822949
 10
2557.633661038439
 20
698.1281794896081
 10
2556.997029031973
 20
698.1074136054708
 10
2556.357632045065
 20
698.1212168166481
 10
2555.724126215917
 20
698.1693954204724
 10
2555.105078677101
 20
698.2512993277371
 10
2554.508861801898
 20
698.3658208750815
 10
2553.943531282339
 20
698.5114150363956
 10
2553.416737480553
 20
698.6861098881711
 10
2552.935605092281
 20
698.8875414696186
 10
2552.506636618174
 20
699.1129890320693
 10
2552.135638585891
 20
699.3594009118554
 10
2551.827621609865
 20
699.6234470546414
 10
2551.586754240921
 20
699.9015561717425
 10
2551.416299590603
 20
700.1899645296523
 10
2551.318550778225
 20
700.4847782599409
 10
2551.294844624345
 20
700.7820022871501
 10
2551.345483692257
 20
701.0776251660545
 10
2551.469797068542
 20
701.3676439052243
 10
2551.666103437643
 20
701.6481375603618
 10
2551.931742408838
 20
701.9153126980687
 10
2552.263120185461
 20
702.1655593842377
 10
2552.655758645664
 20
702.3954898975144
 10
2553.104351534163
 20
702.6019943481598
  0
LINE
  5
1103
330
104A
100
AcDbEntity
  8
0
  6
Continuous
 62
     7
370
    15
100
AcDbLine
 10
2554.102034913116
 20
702.0776544503363
 30
0.0
 11
2553.104351534163
 21
702.6019943481598
 31
0.0
  0
SPLINE
  5
1104
330
104A
100
AcDbEntity
  8
0
  6
Continuous
 62
     7
370
    15
100
AcDbSpline
210
0.0
220
0.0
230
1.0
 70
     8
 71
     3
 72
    14
 73
    10
 74
     0
 42
0.0000000001
 43
0.0000000001
 40
0.0
 40
0.0
 40
0.0
 40
0.0
 40
0.25
 40
0.25
 40
0.5
 40
0.5
 40
0.75
 40
0.75
 40
1.0
 40
1.0
 40
1.0
 40
1.0
 10
2553.817463651939
 20
699.4480262011826
 30
0.0
 10
2553.465205024718
 20
699.6331586997617
 30
0.0
 10
2553.190533671872
 20
699.8498494093164
 30
0.0
 10
2552.837765752695
 20
700.3136862987926
 30
0.0
 10
2552.759807985595
 20
700.5606499790281
 30
0.0
 10
2552.812495143037
 20
701.0474439207264
 30
0.0
 10
2552.943119337558
 20
701.2870826498617
 30
0.0
 10
2553.39324045433
 20
701.7227237964379
 30
0.0
 10
2553.712560273257
 20
701.9185548079708
 30
0.0
 10
2554.102074392785
 20
702.0776378326885
 30
0.0
  0
SPLINE
  5
1105
330
104A
100
AcDbEntity
  8
0
  6
Continuous
 62
     7
370
    15
100
AcDbSpline
210
0.0
220
0.0
230
1.0
 70
     8
 71
     3
 72
    14
 73
    10
 74
     0
 42
0.0000000001
 43
0.0000000001
 40
0.0
 40
0.0
 40
0.0
 40
0.0
 40
0.25
 40
0.25
 40
0.5
 40
0.5
 40
0.75
 40
0.75
 40
1.0
 40
1.0
 40
1.0
 40
1.0
 10
2559.48418929714
 20
699.2490182907388
 30
0.0
 10
2559.094675274613
 20
699.0899360583671
 30
0.0
 10
2558.63527348198
 20
698.9677269893136
 30
0.0
 10
2557.645938334778
 20
698.8154753719327
 30
0.0
 10
2557.11639424131
 20
698.7854927284547
 30
0.0
 10
2556.067369294126
 20
698.8223330085786
 30
0.0
 10
2555.548301186942
 20
698.8891414374454
 30
0.0
 10
2554.599290981327
 20
699.109465138421
 30
0.0
 10
2554.16972227794
 20
699.2628937228983
 30
0.0
 10
2553.817463651939
 20
699.4480262011822
 30
0.0
  0
LINE
  5
1106
330
104A
100
AcDbEntity
  8
0
  6
Continuous
 62
     7
370
    15
100
AcDbLine
 10
2560.48191470417
 20
698.7246613181126
 30
0.0
 11
2559.484151373028
 21
699.2490432354014
 31
0.0
  0
SPLINE
  5
1107
330
104A
100
AcDbEntity
  8
0
  6
Continuous
 62
     7
370
    15
100
AcDbSpline
210
0.0
220
0.0
230
1.0
 70
     8
 71
     3
 72
    22
 73
    18
 74
     0
 42
0.0000000001
 43
0.0000000001
 40
0.0
 40
0.0
 40
0.0
 40
0.0
 40
0.125
 40
0.125
 40
0.25
 40
0.25
 40
0.375
 40
0.375
 40
0.5
 40
0.5
 40
0.625
 40
0.625
 40
0.75
 40
0.75
 40
0.875
 40
0.875
 40
1.0
 40
1.0
 40
1.0
 40
1.0
 10
2553.104347439982
 20
702.6017880613811
 30
0.0
 10
2553.638275987055
 20
702.8198513997749
 30
0.0
 10
2554.268003567578
 20
702.9873706390644
 30
0.0
 10
2555.624140217912
 20
703.1960713458582
 30
0.0
 10
2556.350015705862
 20
703.2371706985466
 30
0.0
 10
2557.787972400779
 20
703.1866726446142
 30
0.0
 10
2558.499487833192
 20
703.095095106821
 30
0.0
 10
2559.800348701002
 20
702.7930861631073
 30
0.0
 10
2560.389182303197
 20
702.5827735848096
 30
0.0
 10
2561.354903069108
 20
702.0752318752771
 30
0.0
 10
2561.731410262942
 20
701.7782024400321
 30
0.0
 10
2562.214968694625
 20
701.1423965890802
 30
0.0
 10
2562.321829672881
 20
700.8038703358255
 30
0.0
 10
2562.249608382581
 20
700.1365960206672
 30
0.0
 10
2562.070554530018
 20
699.8081105027126
 30
0.0
 10
2561.453548554494
 20
699.2109541889741
 30
0.0
 10
2561.015839197038
 20
698.9425183486997
 30
0.0
 10
2560.481910649964
 20
698.7244550103058
 30
0.0
  0
LINE
  5
1108
330
104A
100
AcDbEntity
  8
0
  6
Continuous
 62
     7
370
    15
100
AcDbLine
 10
2564.198375726579
 20
693.2016658150733
 30
0.0
 11
2570.872827236701
 21
695.9274958664977
 31
0.0
  0
LINE
  5
1109
330
104A
100
AcDbEntity
  8
0
  6
Continuous
 62
     7
370
    15
100
AcDbLine
 10
2570.21545658767
 20
697.1654013089314
 30
0.0
 11
2563.541043504905
 21
694.4394471683592
 31
0.0
  0
ARC
  5
110A
330
104A
100
AcDbEntity
  8
0
  6
Continuous
 62
     7
370
    15
100
AcDbCircle
 10
2569.420966857291
 20
695.9500037466937
 30
0.0
 40
1.452034836349074
100
AcDbArc
 50
359.1118269627811
 51
56.82787196182625
  0
LINE
  5
110B
330
104A
100
AcDbEntity
  8
0
  6
Continuous
 62
     7
370
    15
100
AcDbLine
 10
2570.807718373643
 20
691.5940397227475
 30
0.0
 11
2570.872827236701
 21
695.9274958664977
 31
0.0
  0
LINE
  5
110C
330
104A
100
AcDbEntity
  8
0
  6
Continuous
 62
     7
370
    15
100
AcDbLine
 10
2570.215459686397
 20
697.1656075511113
 30
0.0
 11
2570.21545658767
 21
697.1654013089314
 31
0.0
  0
LINE
  5
110D
330
104A
100
AcDbEntity
  8
0
  6
Continuous
 62
     7
370
    15
100
AcDbLine
 10
2554.10198331063
 20
702.0775720667984
 30
0.0
 11
2554.238099653211
 21
699.3288746162942
 31
0.0
  0
LINE
  5
110E
330
104A
100
AcDbEntity
  8
0
  6
Continuous
 62
     7
370
    15
100
AcDbLine
 10
2554.170350266927
 20
699.2949328477622
 30
0.0
 11
2554.238194744931
 21
699.3288346017234
 31
0.0
  0
ARC
  5
110F
330
104A
100
AcDbEntity
  8
0
  6
Continuous
 62
     7
370
    15
100
AcDbCircle
 10
2583.172121741574
 20
624.4344263193505
 30
0.0
 40
0.2897745323406544
100
AcDbArc
 50
299.2309758181016
 51
6.691055437997633
  0
ARC
  5
1110
330
104A
100
AcDbEntity
  8
0
  6
Continuous
 62
     7
370
    15
100
AcDbCircle
 10
2588.073272381621
 20
637.0494442627498
 30
0.0
 40
0.6559483469611405
100
AcDbArc
 50
313.3070040462718
 51
323.0124015589368
  0
LINE
  5
1111
330
104A
100
AcDbEntity
  8
0
  6
Continuous
 62
     7
370
    15
100
AcDbLine
 10
2588.523192150024
 20
636.5721179216775
 30
0.0
 11
2583.611643018361
 21
634.5661776021219
 31
0.0
  0
LINE
  5
1112
330
104A
100
AcDbEntity
  8
0
  6
Continuous
 62
     7
370
    15
100
AcDbLine
 10
2583.611634759597
 20
634.5654181652628
 30
0.0
 11
2588.524001665928
 21
636.5716924745912
 31
0.0
  0
ARC
  5
1113
330
104A
100
AcDbEntity
  8
0
  6
Continuous
 62
     7
370
    15
100
AcDbCircle
 10
2588.142005760252
 20
636.9735370400753
 30
0.0
 40
0.5544365849789547
100
AcDbArc
 50
292.310338982214
 51
313.5494478830468
  0
LINE
  5
1114
330
104A
100
AcDbEntity
  8
0
  6
Continuous
 62
     7
370
    15
100
AcDbLine
 10
2588.524001665928
 20
636.5716924745912
 30
0.0
 11
2588.523192150024
 21
636.5721179216775
 31
0.0
  0
LINE
  5
1115
330
104A
100
AcDbEntity
  8
0
  6
Continuous
 62
     7
370
    15
100
AcDbLine
 10
2583.611910959395
 20
619.8661899238409
 30
0.0
 11
2591.02811603258
 21
622.8950641905139
 31
0.0
  0
LINE
  5
1116
330
104A
100
AcDbEntity
  8
0
  6
Continuous
 62
     7
370
    15
100
AcDbLine
 10
2583.611910959395
 20
619.8661899238409
 30
0.0
 11
2583.625214535221
 21
620.751637153138
 31
0.0
  0
LINE
  5
1117
330
104A
100
AcDbEntity
  8
0
  6
Continuous
 62
     7
370
    15
100
AcDbLine
 10
2582.141972968034
 20
620.1458620741346
 30
0.0
 11
2583.625214535221
 21
620.751637153138
 31
0.0
  0
LINE
  5
1118
330
104A
100
AcDbEntity
  8
0
  6
Continuous
 62
     7
370
    15
100
AcDbLine
 10
2582.141972968034
 20
620.1458620741346
 30
0.0
 11
2582.181883596393
 21
622.8021971649436
 31
0.0
  0
LINE
  5
1119
330
104A
100
AcDbEntity
  8
0
  6
Continuous
 62
     7
370
    15
100
AcDbLine
 10
2583.66512516358
 20
623.4079722439469
 30
0.0
 11
2582.181883596393
 21
622.8021971649436
 31
0.0
  0
LINE
  5
111A
330
104A
100
AcDbEntity
  8
0
  6
Continuous
 62
     7
370
    15
100
AcDbLine
 10
2583.6810893951
 20
624.470504960854
 30
0.0
 11
2583.66512516358
 21
623.4079722439469
 31
0.0
  0
LINE
  5
111B
330
104A
100
AcDbEntity
  8
0
  6
Continuous
 62
     7
370
    15
100
AcDbLine
 10
2583.6810893951
 20
624.470504960854
 30
0.0
 11
2591.097294468284
 21
627.499379227527
 31
0.0
  0
LINE
  5
111C
330
104A
100
AcDbEntity
  8
0
  6
Continuous
 62
     7
370
    15
100
AcDbLine
 10
2591.081330236765
 20
626.4368465106199
 30
0.0
 11
2591.097294468284
 21
627.499379227527
 31
0.0
  0
LINE
  5
111D
330
104A
100
AcDbEntity
  8
0
  6
Continuous
 62
     7
370
    15
100
AcDbLine
 10
2592.564571803952
 20
627.0426215896232
 30
0.0
 11
2591.081330236765
 21
626.4368465106199
 31
0.0
  0
LINE
  5
111E
330
104A
100
AcDbEntity
  8
0
  6
Continuous
 62
     7
370
    15
100
AcDbLine
 10
2592.524661175593
 20
624.3862864988145
 30
0.0
 11
2592.564571803952
 21
627.0426215896232
 31
0.0
  0
LINE
  5
111F
330
104A
100
AcDbEntity
  8
0
  6
Continuous
 62
     7
370
    15
100
AcDbLine
 10
2591.041419608406
 20
623.7805114198111
 30
0.0
 11
2592.524661175593
 21
624.3862864988145
 31
0.0
  0
LINE
  5
1120
330
104A
100
AcDbEntity
  8
0
  6
Continuous
 62
     7
370
    15
100
AcDbLine
 10
2591.041419608406
 20
623.7805114198111
 30
0.0
 11
2591.02811603258
 21
622.8950641905139
 31
0.0
  0
ARC
  5
1121
330
104A
100
AcDbEntity
  8
0
  6
Continuous
 62
     7
370
    15
100
AcDbCircle
 10
2581.410315922571
 20
622.800470613475
 30
0.0
 40
0.7715696055871653
100
AcDbArc
 50
0.1282116274456931
 51
43.63645790674575
  0
LWPOLYLINE
  5
1122
330
104A
100
AcDbEntity
  8
0
  6
Continuous
 62
     7
370
    15
100
AcDbPolyline
 90
        8
 70
   128
 43
0.0
 10
2581.916332636222
 20
619.8457504495049
 10
2581.92881127782
 20
619.8456352578326
 10
2581.987401345251
 20
619.8560809991939
 10
2582.039048203334
 20
619.884431627745
 10
2582.08176120621
 20
619.9295989568784
 10
2582.11389265962
 20
619.9898557661287
 10
2582.134229154787
 20
620.0628808884292
 10
2582.141972968034
 20
620.1458620741346
  0
LINE
  5
1123
330
104A
100
AcDbEntity
  8
0
  6
Continuous
 62
     7
370
    15
100
AcDbLine
 10
2581.97077694976
 20
623.469191872715
 30
0.0
 11
2582.780210868888
 21
623.799775175634
 31
0.0
  0
LINE
  5
1124
330
104A
100
AcDbEntity
  8
0
  6
Continuous
 62
     7
370
    15
100
AcDbLine
 10
2582.780210868888
 20
623.799775175634
 30
0.0
 11
2583.336427492616
 21
624.0269412533892
 31
0.0
  0
ARC
  5
1125
330
104A
100
AcDbEntity
  8
0
  6
Continuous
 62
     7
370
    15
100
AcDbCircle
 10
2582.939144268225
 20
623.4192073255098
 30
0.0
 40
0.7260678256731735
100
AcDbArc
 50
359.1133769808386
 51
56.82685580173459
  0
LINE
  5
1126
330
104A
100
AcDbEntity
  8
0
  6
Continuous
 62
     7
370
    15
100
AcDbLine
 10
2581.916232368169
 20
619.8388635102626
 30
0.0
 11
2581.933156988498
 21
619.8457757445497
 31
0.0
  0
LINE
  5
1127
330
104A
100
AcDbEntity
  8
0
  6
Continuous
 62
     7
370
    15
100
AcDbLine
 10
2582.782688947083
 20
623.9647088371374
 30
0.0
 11
2582.780210868888
 21
623.799775175634
 31
0.0
  0
SPLINE
  5
1128
330
104A
100
AcDbEntity
  8
0
  6
Continuous
 62
     7
370
    15
100
AcDbSpline
210
0.0
220
0.0
230
1.0
 70
     8
 71
     3
 72
    22
 73
    18
 74
     0
 42
0.0000000001
 43
0.0000000001
 40
0.0
 40
0.0
 40
0.0
 40
0.0
 40
0.125
 40
0.125
 40
0.25
 40
0.25
 40
0.375
 40
0.375
 40
0.5
 40
0.5
 40
0.625
 40
0.625
 40
0.75
 40
0.75
 40
0.875
 40
0.875
 40
1.0
 40
1.0
 40
1.0
 40
1.0
 10
2554.101989950364
 20
702.0774648878958
 30
0.0
 10
2554.491503979152
 20
702.2365478914565
 30
0.0
 10
2554.950905778584
 20
702.3587577324084
 30
0.0
 10
2555.940240941732
 20
702.5110108944581
 30
0.0
 10
2556.469785044354
 20
702.5409943107005
 30
0.0
 10
2557.518810012724
 20
702.5041555762275
 30
0.0
 10
2558.037878131943
 20
702.4373479202406
 30
0.0
 10
2558.986888364181
 20
702.2170257643935
 30
0.0
 10
2559.416457082151
 20
702.0635979521588
 30
0.0
 10
2560.120974364774
 20
701.6933345388759
 30
0.0
 10
2560.395645731872
 20
701.4766446209494
 30
0.0
 10
2560.748413679134
 20
701.0128093140736
 30
0.0
 10
2560.826371460061
 20
700.7658464248104
 30
0.0
 10
2560.773684329112
 20
700.2790540645386
 30
0.0
 10
2560.643060147252
 20
700.0394161258589
 30
0.0
 10
2560.192939054078
 20
699.6037765599762
 30
0.0
 10
2559.873619246086
 20
699.4079463386837
 30
0.0
 10
2559.484105136521
 20
699.2488641043005
 30
0.0
  0
SPLINE
  5
1129
330
104A
100
AcDbEntity
  8
0
  6
Continuous
 62
     7
370
    15
100
AcDbSpline
210
0.0
220
0.0
230
1.0
 70
     8
 71
     3
 72
    15
 73
    11
 74
     0
 42
0.0000000001
 43
0.0000000001
 40
0.0
 40
0.0
 40
0.0
 40
0.0
 40
0.1297773029834197
 40
0.259555063597246
 40
0.3893328187053327
 40
0.5191102399891933
 40
0.6488871528946754
 40
0.7786654880088145
 40
0.9084426192787658
 40
0.9999999999999998
 40
0.9999999999999998
 40
0.9999999999999998
 40
0.9999999999999998
 10
2554.238099653211
 20
699.3288746162942
 30
0.0
 10
2554.42947760641
 20
699.3982937505989
 30
0.0
 10
2554.812234187661
 20
699.5371322639991
 30
0.0
 10
2555.486835640147
 20
699.6729740904752
 30
0.0
 10
2556.203232781641
 20
699.7484735949081
 30
0.0
 10
2556.942360707704
 20
699.7559522396236
 30
0.0
 10
2557.674685148582
 20
699.6969461769067
 30
0.0
 10
2558.368129319279
 20
699.5712192629786
 30
0.0
 10
2558.949605918579
 20
699.4093870579846
 30
0.0
 10
2559.249770431674
 20
699.2700506541861
 30
0.0
 10
2559.373936682826
 20
699.2124126651707
 30
0.0
  0
LINE
  5
112A
330
104A
100
AcDbEntity
  8
0
  6
Continuous
 62
     7
370
    15
100
AcDbLine
 10
2558.336606389089
 20
698.9322416840137
 30
0.0
 11
2557.596119205164
 21
699.3214102143804
 31
0.0
  0
LINE
  5
112B
330
104A
100
AcDbEntity
  8
0
  6
Continuous
 62
     7
370
    15
100
AcDbLine
 10
2557.596119205164
 20
699.3214102143804
 30
0.0
 11
2554.80982294661
 21
699.0761101243679
 31
0.0
  0
LINE
  5
112C
330
104A
100
AcDbEntity
  8
0
  6
Continuous
 62
     7
370
    15
100
AcDbLine
 10
2583.336427492616
 20
624.0269412533892
 30
0.0
 11
2583.160922445757
 21
624.1191792321695
 31
0.0
  0
LINE
  5
112D
330
104A
100
AcDbEntity
  8
0
  6
Continuous
 62
     7
370
    15
100
AcDbLine
 10
2583.465681679645
 20
624.8514464545848
 30
0.0
 11
2583.483870802432
 21
624.8418870262277
 31
0.0
  0
ARC
  5
112E
330
104A
100
AcDbEntity
  8
0
  6
Continuous
 62
     7
370
    15
100
AcDbCircle
 10
2583.245499990557
 20
624.4772462033007
 30
0.0
 40
0.4356415656234224
100
AcDbArc
 50
359.1133532986165
 51
56.82679277999995
  0
ARC
  5
112F
330
104A
100
AcDbEntity
  8
0
  6
Continuous
 62
     7
370
    15
100
AcDbCircle
 10
2590.715963358817
 20
627.5043415527857
 30
0.0
 40
0.3813633958831406
100
AcDbArc
 50
359.2544425584714
 51
5.234738400693296
  0
LINE
  5
1130
330
104A
100
AcDbEntity
  8
0
  6
Continuous
 62
     7
370
    15
100
AcDbLine
 10
2583.483870802432
 20
624.8418870262277
 30
0.0
 11
2590.380940912689
 21
627.6587398459979
 31
0.0
  0
ARC
  5
1131
330
104A
100
AcDbEntity
  8
0
  6
Continuous
 62
     7
370
    15
100
AcDbCircle
 10
2590.145333877662
 20
627.2961978801926
 30
0.0
 40
0.4323740879425845
100
AcDbArc
 50
4.100371250340236
 51
56.98115917698487
  0
LINE
  5
1132
330
104A
100
AcDbEntity
  8
0
  6
Continuous
 62
     7
370
    15
100
AcDbLine
 10
2590.576601226143
 20
627.3271143168912
 30
0.0
 11
2591.095736189072
 21
627.5391357637938
 31
0.0
  0
LWPOLYLINE
  5
1133
330
104A
100
AcDbEntity
  8
0
  6
Continuous
 62
     7
370
    15
100
AcDbPolyline
 90
        8
 70
   128
 43
0.0
 10
2591.095478312722
 20
627.3785621069631
 10
2591.138837691763
 20
627.381606310172
 10
2591.189594990789
 20
627.3990211172915
 10
2591.233803024448
 20
627.4310618523909
 10
2591.270046257775
 20
627.4767037797145
 10
2591.297154347793
 20
627.5344807897965
 10
2591.314273390223
 20
627.6025343945018
 10
2591.320836829491
 20
627.6786888580698
  0
LINE
  5
1134
330
104A
100
AcDbEntity
  8
0
  6
Continuous
 62
     7
370
    15
100
AcDbLine
 10
2583.674553590081
 20
631.2510302020926
 30
0.0
 11
2590.894056281266
 21
627.456767028739
 31
0.0
  0
LINE
  5
1135
330
104A
100
AcDbEntity
  8
0
  6
Continuous
 62
     7
370
    15
100
AcDbLine
 10
2585.321946503799
 20
635.222891387465
 30
0.0
 11
2585.272400006005
 21
631.9252209139494
 31
0.0
  0
LINE
  5
1136
330
104A
100
AcDbEntity
  8
0
  6
Continuous
 62
     7
370
    15
100
AcDbLine
 10
2590.380940912689
 20
627.6587398459979
 30
0.0
 11
2589.305304150357
 21
628.2240487224949
 31
0.0
  0
ARC
  5
1137
330
104A
100
AcDbEntity
  8
0
  6
Continuous
 62
     7
370
    15
100
AcDbCircle
 10
2583.337354077574
 20
620.7179081023074
 30
0.0
 40
0.2898297637358618
100
AcDbArc
 50
299.2360862164996
 51
6.682961602527046
  0
ARC
  5
1138
330
104A
100
AcDbEntity
  8
0
  6
Continuous
 62
     7
370
    15
100
AcDbCircle
 10
2582.656075474454
 20
619.6963697457134
 30
0.0
 40
0.7320706920594202
100
AcDbArc
 50
359.2496274822492
 51
55.37848301565948
  0
ARC
  5
1139
330
104A
100
AcDbEntity
  8
0
  6
Continuous
 62
     7
370
    15
100
AcDbCircle
 10
2589.233823133767
 20
628.106145123782
 30
0.0
 40
0.1378796370834775
100
AcDbArc
 50
58.77296509797607
 51
109.4619238012408
  0
LWPOLYLINE
  5
113A
330
104A
100
AcDbEntity
  8
0
  6
Continuous
 62
     7
370
    15
100
AcDbPolyline
 90
        8
 70
   128
 43
0.0
 10
2583.386270726703
 20
619.5660848962937
 10
2583.398749368301
 20
619.5659697046214
 10
2583.457339336612
 20
619.5764088489002
 10
2583.508986194695
 20
619.6047594774511
 10
2583.551699197571
 20
619.6499268065846
 10
2583.583830750101
 20
619.7101902129174
 10
2583.604167146149
 20
619.7832087381352
 10
2583.611910959395
 20
619.8661899238409
  0
LINE
  5
113B
330
104A
100
AcDbEntity
  8
0
  6
Continuous
 62
     7
370
    15
100
AcDbLine
 10
2583.940647597653
 20
634.5500709967337
 30
0.0
 11
2585.053078082356
 21
635.0044020239003
 31
0.0
  0
ARC
  5
113C
330
104A
100
AcDbEntity
  8
0
  6
Continuous
 62
     7
370
    15
100
AcDbCircle
 10
2584.226375672641
 20
633.9601166793557
 30
0.0
 40
0.6555048660607705
100
AcDbArc
 50
115.8419452111446
 51
161.237175992511
  0
LINE
  5
113D
330
104A
100
AcDbEntity
  8
0
  6
Continuous
 62
     7
370
    15
100
AcDbLine
 10
2585.053078082356
 20
635.0044020239003
 30
0.0
 11
2585.054721081602
 21
635.1137552646939
 31
0.0
  0
ARC
  5
113E
330
104A
100
AcDbEntity
  8
0
  6
Continuous
 62
     7
370
    15
100
AcDbCircle
 10
2590.740255574932
 20
622.8613351396834
 30
0.0
 40
0.2898297637360568
100
AcDbArc
 50
299.2360862165256
 51
6.682961602494698
  0
ARC
  5
113F
330
104A
100
AcDbEntity
  8
0
  6
Continuous
 62
     7
370
    15
100
AcDbCircle
 10
2586.675046033594
 20
616.5993488759359
 30
0.0
 40
0.5777097374924061
100
AcDbArc
 50
299.1697250733388
 51
6.417027675488409
  0
SPLINE
  5
1140
330
104A
100
AcDbEntity
  8
0
  6
Continuous
 62
     7
370
    15
100
AcDbSpline
210
0.0
220
0.0
230
1.0
 70
     8
 71
     3
 72
    10
 73
     6
 74
     0
 42
0.0000000001
 43
0.0000000001
 40
0.0
 40
0.0
 40
0.0
 40
0.0
 40
0.5
 40
0.5
 40
1.0
 40
1.0
 40
1.0
 40
1.0
 10
2587.305373916774
 20
620.4066400255292
 30
0.0
 10
2587.307098923762
 20
620.5214534348439
 30
0.0
 10
2587.273378643283
 20
620.6542088552648
 30
0.0
 10
2587.15375993282
 20
620.8819336340435
 30
0.0
 10
2587.068571138476
 20
620.9755520196426
 30
0.0
 10
2586.981639851966
 20
621.0229505341951
 30
0.0
  0
LINE
  5
1141
330
104A
100
AcDbEntity
  8
0
  6
Continuous
 62
     7
370
    15
100
AcDbLine
 10
2588.555915830295
 20
628.6855957696955
 30
0.0
 11
2588.768992944425
 21
628.0650626311597
 31
0.0
  0
LINE
  5
1142
330
104A
100
AcDbEntity
  8
0
  6
Continuous
 62
     7
370
    15
100
AcDbLine
 10
2557.588798722728
 20
698.8341802413907
 30
0.0
 11
2557.596119205164
 21
699.3214102143804
 31
0.0
  0
ARC
  5
1143
330
104A
100
AcDbEntity
  8
0
  6
Continuous
 62
     7
370
    15
100
AcDbCircle
 10
2590.506053531712
 20
622.0221075204459
 30
0.0
 40
0.7299765364251189
100
AcDbArc
 50
359.202666463045
 51
55.89070848518127
  0
LINE
  5
1144
330
104A
100
AcDbEntity
  8
0
  6
Continuous
 62
     7
370
    15
100
AcDbLine
 10
2590.671834303441
 20
627.3660086929756
 30
0.0
 11
2590.555623798068
 21
627.4270839857981
 31
0.0
  0
LINE
  5
1145
330
104A
100
AcDbEntity
  8
0
  6
Continuous
 62
     7
370
    15
100
AcDbLine
 10
2585.272400006005
 20
631.9252209139494
 30
0.0
 11
2583.561466211524
 21
631.2264533784042
 31
0.0
  0
ARC
  5
1146
330
104A
100
AcDbEntity
  8
0
  6
Continuous
 62
     7
370
    15
100
AcDbCircle
 10
2592.516437794492
 20
628.2508567922299
 30
0.0
 40
0.2898732438759778
100
AcDbArc
 50
299.2438166235093
 51
6.679251070647779
  0
ARC
  5
1147
330
104A
100
AcDbEntity
  8
0
  6
Continuous
 62
     7
370
    15
100
AcDbCircle
 10
2584.933953186911
 20
629.3011820091809
 30
0.0
 40
1.432905394366692
100
AcDbArc
 50
191.9498280698419
 51
236.8887937755209
  0
ARC
  5
1148
330
104A
100
AcDbEntity
  8
0
  6
Continuous
 62
     7
370
    15
100
AcDbCircle
 10
2591.838590908598
 20
627.0538566711863
 30
0.0
 40
0.7260678256730352
100
AcDbArc
 50
359.113376980832
 51
56.82685580175996
  0
LINE
  5
1149
330
104A
100
AcDbEntity
  8
0
  6
Continuous
 62
     7
370
    15
100
AcDbLine
 10
2592.235874132987
 20
627.6615905990657
 30
0.0
 11
2592.060359092105
 21
627.753833830279
 31
0.0
  0
ARC
  5
114A
330
104A
100
AcDbEntity
  8
0
  6
Continuous
 62
     7
370
    15
100
AcDbCircle
 10
2592.002620311566
 20
623.5133345692092
 30
0.0
 40
0.7299549604320055
100
AcDbArc
 50
359.2017528986695
 51
55.89162204955893
  0
ARC
  5
114B
330
104A
100
AcDbEntity
  8
0
  6
Continuous
 62
     7
370
    15
100
AcDbCircle
 10
2593.347559037866
 20
619.326737811929
 30
0.0
 40
0.5798851251100828
100
AcDbArc
 50
299.2520533391727
 51
6.668486184965602
  0
ARC
  5
114C
330
104A
100
AcDbEntity
  8
0
  6
Continuous
 62
     7
370
    15
100
AcDbCircle
 10
2592.236800717945
 20
624.3525574479838
 30
0.0
 40
0.2898297637358771
100
AcDbArc
 50
299.2360862165256
 51
6.682961602527046
  0
ARC
  5
114D
330
104A
100
AcDbEntity
  8
0
  6
Continuous
 62
     7
370
    15
100
AcDbCircle
 10
2590.477630434453
 20
622.8956479923411
 30
0.0
 40
0.7716343952100947
100
AcDbArc
 50
0.1293527858565999
 51
43.63238482442115
  0
ARC
  5
114E
330
104A
100
AcDbEntity
  8
0
  6
Continuous
 62
     7
370
    15
100
AcDbCircle
 10
2558.219377089117
 20
702.9439867815105
 30
0.0
 40
0.4663370235347158
100
AcDbArc
 50
59.16627304097575
 51
109.0705646874275
  0
LINE
  5
114F
330
104A
100
AcDbEntity
  8
0
  6
Continuous
 62
     7
370
    15
100
AcDbLine
 10
2538.497306534616
 20
692.8490619612724
 30
0.0
 11
2538.496441793159
 21
692.8487087896544
 31
0.0
  0
LINE
  5
1150
330
104A
100
AcDbEntity
  8
0
  6
Continuous
 62
     7
370
    15
100
AcDbLine
 10
2551.762340143997
 20
632.6486488381533
 30
0.0
 11
2551.765381615515
 21
632.8510803170233
 31
0.0
  0
ARC
  5
1151
330
104A
100
AcDbEntity
  8
0
  6
Continuous
 62
     7
370
    15
100
AcDbCircle
 10
2539.911940046176
 20
639.7582121541563
 30
0.0
 40
13.81947441195471
100
AcDbArc
 50
313.8635618970524
 51
329.0386494103206
  0
ARC
  5
1152
330
104A
100
AcDbEntity
  8
0
  6
Continuous
 62
     7
370
    15
100
AcDbCircle
 10
2549.349401322999
 20
629.9538066546756
 30
0.0
 40
0.2112080483253062
100
AcDbArc
 50
236.9652828810894
 51
311.0316222087219
  0
LINE
  5
1153
330
104A
100
AcDbEntity
  8
0
  6
Continuous
 62
     7
370
    15
100
AcDbLine
 10
2547.781650536927
 20
630.5401730699636
 30
0.0
 11
2549.234261866055
 21
629.7767424145478
 31
0.0
  0
LINE
  5
1154
330
104A
100
AcDbEntity
  8
0
  6
Continuous
 62
     7
370
    15
100
AcDbLine
 10
2547.19706387283
 20
630.7552070912083
 30
0.0
 11
2549.941059805164
 21
631.8758905924442
 31
0.0
  0
LINE
  5
1155
330
104A
100
AcDbEntity
  8
0
  6
Continuous
 62
     7
370
    15
100
AcDbLine
 10
2549.969889604928
 20
633.7947180307414
 30
0.0
 11
2549.941059805164
 21
631.8758905924442
 31
0.0
  0
LINE
  5
1156
330
104A
100
AcDbEntity
  8
0
  6
Continuous
 62
     7
370
    15
100
AcDbLine
 10
2551.762340143997
 20
632.6486488381533
 30
0.0
 11
2551.980793727743
 21
632.7378681129361
 31
0.0
  0
ARC
  5
1157
330
104A
100
AcDbEntity
  8
0
  6
Continuous
 62
     7
370
    15
100
AcDbCircle
 10
2549.365305132563
 20
631.8084363515348
 30
0.0
 40
0.5796926061618805
100
AcDbArc
 50
299.2403551622096
 51
6.682194317675955
  0
LINE
  5
1158
330
104A
100
AcDbEntity
  8
0
  6
Continuous
 62
     8
370
    15
100
AcDbLine
 10
2585.544223673612
 20
672.7807588845774
 30
0.0
 11
2589.829716567233
 21
674.5310097227628
 31
0.0
  0
LINE
  5
1159
330
104A
100
AcDbEntity
  8
0
  6
Continuous
 62
     8
370
    15
100
AcDbLine
 10
2588.84037417236
 20
676.3942286262667
 30
0.0
 11
2584.55488127874
 21
674.6439777880813
 31
0.0
  0
LINE
  5
115A
330
104A
100
AcDbEntity
  8
0
  6
Continuous
 62
     8
370
    15
100
AcDbLine
 10
2584.009188823999
 20
675.671672325773
 30
0.0
 11
2588.29468171762
 21
677.4219231639586
 31
0.0
  0
LINE
  5
115B
330
104A
100
AcDbEntity
  8
0
  6
Continuous
 62
     8
370
    15
100
AcDbLine
 10
2585.469550638564
 20
672.9213929716185
 30
0.0
 11
2589.755043532184
 21
674.6716438098039
 31
0.0
  0
LINE
  5
115C
330
104A
100
AcDbEntity
  8
0
  6
Continuous
 62
     8
370
    15
100
AcDbLine
 10
2584.662672843481
 20
674.4409793965009
 30
0.0
 11
2588.844139826353
 21
676.1487447045502
 31
0.0
  0
LINE
  5
115D
330
104A
100
AcDbEntity
  8
0
  6
Continuous
 62
     8
370
    15
100
AcDbLine
 10
2587.38001236399
 20
679.1445083927389
 30
0.0
 11
2583.09451947037
 21
677.3942575545535
 31
0.0
  0
LINE
  5
115E
330
104A
100
AcDbEntity
  8
0
  6
Continuous
 62
     8
370
    15
100
AcDbLine
 10
2582.54882701563
 20
678.4219520922454
 30
0.0
 11
2586.834319909251
 21
680.1722029304309
 31
0.0
  0
LINE
  5
115F
330
104A
100
AcDbEntity
  8
0
  6
Continuous
 62
     8
370
    15
100
AcDbLine
 10
2588.571063432625
 20
675.8746073745443
 30
0.0
 11
2584.733628174606
 21
674.307349081612
 31
0.0
  0
LINE
  5
1160
330
104A
100
AcDbEntity
  8
0
  6
Continuous
 62
     8
370
    15
100
AcDbLine
 10
2583.202311035111
 20
677.1912591629731
 30
0.0
 11
2587.383778017984
 21
678.8990244710224
 31
0.0
  0
LINE
  5
1161
330
104A
100
AcDbEntity
  8
0
  6
Continuous
 62
     8
370
    15
100
AcDbLine
 10
2585.919650549426
 20
681.8947877468936
 30
0.0
 11
2581.634157655806
 21
680.1445369087081
 31
0.0
  0
LINE
  5
1162
330
104A
100
AcDbEntity
  8
0
  6
Continuous
 62
     8
370
    15
100
AcDbLine
 10
2581.086187668621
 20
681.1765194558732
 30
0.0
 11
2585.371680562241
 21
682.9267702940588
 31
0.0
  0
LINE
  5
1163
330
104A
100
AcDbEntity
  8
0
  6
Continuous
 62
     8
370
    15
100
AcDbLine
 10
2587.110701618061
 20
678.6248867286989
 30
0.0
 11
2583.273266360042
 21
677.0576284357665
 31
0.0
  0
LINE
  5
1164
330
104A
100
AcDbEntity
  8
0
  6
Continuous
 62
     8
370
    15
100
AcDbLine
 10
2581.741949223645
 20
679.9415387232865
 30
0.0
 11
2585.923416206517
 21
681.6493040313359
 31
0.0
  0
LINE
  5
1165
330
104A
100
AcDbEntity
  8
0
  6
Continuous
 62
     8
370
    15
100
AcDbLine
 10
2584.386764021484
 20
685.0426595527085
 30
0.0
 11
2579.987379428804
 21
683.2458938685789
 31
0.0
  0
LINE
  5
1166
330
104A
100
AcDbEntity
  8
0
  6
Continuous
 62
     8
370
    15
100
AcDbLine
 10
2585.650339809691
 20
681.3751664951711
 30
0.0
 11
2581.812904551673
 21
679.8079082022389
 31
0.0
  0
LINE
  5
1167
330
104A
100
AcDbEntity
  8
0
  6
Continuous
 62
     8
370
    15
100
AcDbLine
 10
2584.382338165819
 20
684.7899890944833
 30
0.0
 11
2580.096845272199
 21
683.0397382562978
 31
0.0
  0
LINE
  5
1168
330
104A
100
AcDbEntity
  8
0
  6
Continuous
 62
     8
370
    15
100
AcDbLine
 10
2584.457011205515
 20
684.6493553166803
 30
0.0
 11
2580.171518311894
 21
682.8991044784949
 31
0.0
  0
LINE
  5
1169
330
104A
100
AcDbEntity
  8
0
  6
Continuous
 62
     8
370
    15
100
AcDbLine
 10
2580.279309879732
 20
682.6961062930733
 30
0.0
 11
2584.460776862605
 21
684.4038716011226
 31
0.0
  0
LINE
  5
116A
330
104A
100
AcDbEntity
  8
0
  6
Continuous
 62
     8
370
    15
100
AcDbLine
 10
2584.187700465779
 20
684.1297340649579
 30
0.0
 11
2580.350265207761
 21
682.5624757720255
 31
0.0
  0
SPLINE
  5
116B
330
104A
100
AcDbEntity
  8
0
  6
Continuous
 62
     8
370
    15
100
AcDbSpline
210
0.0
220
0.0
230
1.0
 70
     8
 71
     3
 72
     9
 73
     5
 74
     0
 42
0.0000000001
 43
0.0000000001
 40
0.0
 40
0.0
 40
0.0
 40
0.0
 40
0.3653622611858132
 40
1.0
 40
1.0
 40
1.0
 40
1.0
 10
2569.594968883303
 20
691.0784675226543
 30
0.0
 10
2569.635968310829
 20
691.0984383474306
 30
0.0
 10
2569.748184135728
 20
691.1530986856697
 30
0.0
 10
2569.889704250278
 20
691.0934893517681
 30
0.0
 10
2569.979518255773
 20
691.0556590188885
 30
0.0
  0
LINE
  5
116C
330
104A
100
AcDbEntity
  8
0
  6
Continuous
 62
     8
370
    15
100
AcDbLine
 10
2588.97454663582
 20
649.1166878355495
 30
0.0
 11
2581.647534256513
 21
646.1242410210029
 31
0.0
  0
LINE
  5
116D
330
104A
100
AcDbEntity
  8
0
  6
Continuous
 62
     8
370
    15
100
AcDbLine
 10
2562.300116861673
 20
679.9338968901539
 30
0.0
 11
2562.491512049809
 21
680.0120651654903
 31
0.0
  0
LINE
  5
116E
330
104A
100
AcDbEntity
  8
0
  6
Continuous
 62
     8
370
    15
100
AcDbLine
 10
2557.60547928499
 20
682.4011984802203
 30
0.0
 11
2562.570443877002
 21
684.428982368418
 31
0.0
  0
LINE
  5
116F
330
104A
100
AcDbEntity
  8
0
  6
Continuous
 62
     8
370
    15
100
AcDbLine
 10
2564.133350675162
 20
688.8684245257607
 30
0.0
 11
2564.198455678767
 21
693.2016237956081
 31
0.0
  0
LINE
  5
1170
330
104A
100
AcDbEntity
  8
0
  6
Continuous
 62
     8
370
    15
100
AcDbLine
 10
2562.577271652564
 20
684.8835817097985
 30
0.0
 11
2557.408265602605
 21
682.7725721469302
 31
0.0
  0
LINE
  5
1171
330
104A
100
AcDbEntity
  8
0
  6
Continuous
 62
     8
370
    15
100
AcDbLine
 10
2545.109579314528
 20
697.8927062889264
 30
0.0
 11
2551.288802208179
 21
700.4164183385487
 31
0.0
  0
LINE
  5
1172
330
104A
100
AcDbEntity
  8
0
  6
Continuous
 62
     8
370
    15
100
AcDbLine
 10
2581.663211631039
 20
647.1675186568011
 30
0.0
 11
2587.844184644431
 21
649.6919081415199
 31
0.0
  0
LINE
  5
1173
330
104A
100
AcDbEntity
  8
0
  6
Continuous
 62
     8
370
    15
100
AcDbLine
 10
2583.612442813925
 20
634.6189498905928
 30
0.0
 11
2588.597221456923
 21
636.6547980916395
 31
0.0
  0
LINE
  5
1174
330
104A
100
AcDbEntity
  8
0
  6
Continuous
 62
     8
370
    15
100
AcDbLine
 10
2583.480612905328
 20
625.8451693294242
 30
0.0
 11
2589.305304150357
 21
628.2240487224949
 31
0.0
  0
LINE
  5
1175
330
104A
100
AcDbEntity
  8
0
  6
Continuous
 62
     8
370
    15
100
AcDbLine
 10
2583.502442635816
 20
627.2976919106943
 30
0.0
 11
2587.832122989041
 21
629.0659894800564
 31
0.0
  0
LINE
  5
1176
330
104A
100
AcDbEntity
  8
0
  6
Continuous
 62
     8
370
    15
100
AcDbLine
 10
2583.510581750062
 20
627.8393241738584
 30
0.0
 11
2584.151205980758
 21
628.1009634122307
 31
0.0
  0
LINE
  5
1177
330
104A
100
AcDbEntity
  8
0
  6
Continuous
 62
     8
370
    15
100
AcDbLine
 10
2583.38617035953
 20
619.5591913599688
 30
0.0
 11
2583.40309497986
 21
619.566103594256
 31
0.0
  0
LINE
  5
1178
330
104A
100
AcDbEntity
  8
0
  6
Continuous
 62
     8
370
    15
100
AcDbLine
 10
2588.35809751139
 20
628.7895572962862
 30
0.0
 11
2583.495015342579
 21
626.8034115124962
 31
0.0
  0
LINE
  5
1179
330
104A
100
AcDbEntity
  8
0
  6
Continuous
 62
     8
370
    15
100
AcDbLine
 10
2591.092710792174
 20
627.1947078751622
 30
0.0
 11
2592.235874132987
 21
627.6615905990657
 31
0.0
  0
LINE
  5
117A
330
104A
100
AcDbEntity
  8
0
  6
Continuous
 62
     8
370
    15
100
AcDbLine
 10
2590.59082603137
 20
627.6161352201755
 30
0.0
 11
2590.48042092566
 21
627.5710443441417
 31
0.0
  0
LINE
  5
117B
330
104A
100
AcDbEntity
  8
0
  6
Continuous
 62
     8
370
    15
100
AcDbLine
 10
2549.488054224116
 20
629.7944824170675
 30
0.0
 11
2554.042233063026
 21
631.6544680775071
 31
0.0
  0
ENDBLK
  5
104C
330
104A
100
AcDbEntity
  8
0
100
AcDbBlockEnd
  0
ENDSEC
  0
SECTION
  2
ENTITIES
  0
INSERT
  5
EBC
330
1F
100
AcDbEntity
  8
0
100
AcDbBlockReference
  2
1
 10
0.0
 20
0.0
 30
0.0
  0
INSERT
  5
F86
330
1F
100
AcDbEntity
  8
0
100
AcDbBlockReference
  2
2
 10
0.0
 20
0.0
 30
0.0
  0
INSERT
  5
1049
330
1F
100
AcDbEntity
  8
0
100
AcDbBlockReference
  2
3
 10
0.0
 20
0.0
 30
0.0
  0
INSERT
  5
117C
330
1F
100
AcDbEntity
  8
0
100
AcDbBlockReference
  2
4
 10
0.0
 20
0.0
 30
0.0
  0
ENDSEC
  0
SECTION
  2
OBJECTS
  0
DICTIONARY
  5
C
330
0
100
AcDbDictionary
281
     1
  3
ACAD_COLOR
350
6B
  3
ACAD_GROUP
350
D
  3
ACAD_LAYOUT
350
1A
  3
ACAD_MATERIAL
350
6A
  3
ACAD_MLEADERSTYLE
350
12D
  3
ACAD_MLINESTYLE
350
17
  3
ACAD_PLOTSETTINGS
350
19
  3
ACAD_PLOTSTYLENAME
350
E
  3
ACAD_SCALELIST
350
10C
  3
ACAD_TABLESTYLE
350
7E
  3
ACAD_VISUALSTYLE
350
EF
  3
ACDB_RECOMPOSE_DATA
350
15D
  3
AcDbVariableDictionary
350
5E
  3
DWGPROPS
350
118A
  0
DICTIONARY
  5
13C
330
10
100
AcDbDictionary
280
     1
281
     1
  3
ADSK_XREC_LAYER_RECONCILED
360
117D
  0
DICTIONARY
  5
6B
102
{ACAD_REACTORS
330
C
102
}
330
C
100
AcDbDictionary
281
     1
  0
DICTIONARY
  5
D
102
{ACAD_REACTORS
330
C
102
}
330
C
100
AcDbDictionary
281
     1
  0
DICTIONARY
  5
1A
102
{ACAD_REACTORS
330
C
102
}
330
C
100
AcDbDictionary
281
     1
  3
Layout1
350
D3
  3
Layout2
350
D7
  3
Model
350
22
  0
DICTIONARY
  5
6A
102
{ACAD_REACTORS
330
C
102
}
330
C
100
AcDbDictionary
281
     1
  3
ByBlock
350
ED
  3
ByLayer
350
EC
  3
Global
350
EE
  0
DICTIONARY
  5
12D
102
{ACAD_REACTORS
330
C
102
}
330
C
100
AcDbDictionary
281
     1
  3
Annotative
350
13B
  3
Standard
350
12E
  0
DICTIONARY
  5
17
102
{ACAD_REACTORS
330
C
102
}
330
C
100
AcDbDictionary
281
     1
  3
Standard
350
18
  0
DICTIONARY
  5
19
102
{ACAD_REACTORS
330
C
102
}
330
C
100
AcDbDictionary
281
     1
  0
ACDBDICTIONARYWDFLT
  5
E
102
{ACAD_REACTORS
330
C
102
}
330
C
100
AcDbDictionary
281
     1
  3
Normal
350
F
100
AcDbDictionaryWithDefault
340
F
  0
DICTIONARY
  5
10C
102
{ACAD_REACTORS
330
C
102
}
330
C
100
AcDbDictionary
281
     1
  3
A0
350
10D
  3
A1
350
188
  3
A2
350
189
  3
A3
350
18A
  3
A4
350
18B
  3
A5
350
18C
  3
A6
350
18D
  3
A7
350
18E
  3
A8
350
18F
  3
A9
350
190
  3
B0
350
191
  3
B1
350
192
  3
B2
350
193
  3
B3
350
194
  3
B4
350
195
  3
B5
350
196
  3
B6
350
197
  3
B7
350
198
  3
B8
350
199
  3
B9
350
19A
  3
C0
350
19B
  3
C1
350
19C
  3
C2
350
19D
  3
C3
350
19E
  3
C4
350
19F
  3
C5
350
1A0
  3
C6
350
1A1
  3
C7
350
1A2
  3
C8
350
1A3
  3
C9
350
1A4
  3
D0
350
1A5
  3
D1
350
1A6
  3
D2
350
1A7
  0
DICTIONARY
  5
7E
102
{ACAD_REACTORS
330
C
102
}
330
C
100
AcDbDictionary
281
     1
  3
Standard
350
7F
  0
DICTIONARY
  5
EF
102
{ACAD_REACTORS
330
C
102
}
330
C
100
AcDbDictionary
281
     1
  3
2dWireframe
350
F5
  3
3D Hidden
350
F7
  3
3dWireframe
350
F6
  3
Basic
350
F4
  3
Brighten
350
FB
  3
ColorChange
350
FF
  3
Conceptual
350
F8
  3
Dim
350
FA
  3
Facepattern
350
FE
  3
Flat
350
F0
  3
FlatWithEdges
350
F1
  3
Gouraud
350
F2
  3
GouraudWithEdges
350
F3
  3
Linepattern
350
FD
  3
Realistic
350
F9
  3
Thicken
350
FC
  0
XRECORD
  5
15D
102
{ACAD_REACTORS
330
C
102
}
330
C
100
AcDbXrecord
280
     1
 90
        1
330
7F
  0
DICTIONARY
  5
5E
102
{ACAD_REACTORS
330
C
102
}
330
C
100
AcDbDictionary
281
     1
  3
CANNOSCALE
350
146
  3
CMLEADERSTYLE
350
145
  3
CTABLESTYLE
350
84
  3
DIMASSOC
350
5F
  3
HIDETEXT
350
63
  3
INDEXCTL
350
1186
  3
LIGHTINGUNITS
350
1184
  3
MSLTSCALE
350
1183
  3
PSOLHEIGHT
350
1188
  3
PSOLWIDTH
350
1187
  3
SORTENTS
350
1185
  0
XRECORD
  5
118A
102
{ACAD_REACTORS
330
C
102
}
330
C
100
AcDbXrecord
280
     1
  1
DWGPROPS COOKIE
  2

  3

  4

  6

  7

  8
orhan kara
  9

300
=
301
=
302
=
303
=
304
=
305
=
306
=
307
=
308
=
309
=
 40
0.0029437384259259
 41
2458927.445579097
 42
2458956.395622268
  1

 90
        0
  0
XRECORD
  5
117D
102
{ACAD_REACTORS
330
13C
102
}
330
13C
100
AcDbXrecord
280
     1
290
     1
  0
LAYOUT
  5
D3
102
{ACAD_XDICTIONARY
360
118E
102
}
102
{ACAD_REACTORS
330
1A
102
}
330
1A
100
AcDbPlotSettings
  1

  2
C:\Documents and Settings\basas\Application Data\Autodesk\AutoCAD 2005\R16.1\enu\plotters\Default Windows System Printer.pc3
  4

  6

 40
0.0
 41
0.0
 42
0.0
 43
0.0
 44
0.0
 45
0.0
 46
0.0
 47
0.0
 48
0.0
 49
0.0
140
0.0
141
0.0
142
1.0
143
1.0
 70
   688
 72
     0
 73
     0
 74
     5
  7

 75
    16
147
1.0
148
0.0
149
0.0
100
AcDbLayout
  1
Layout1
 70
     1
 71
     1
 10
0.0
 20
0.0
 11
12.0
 21
9.0
 12
0.0
 22
0.0
 32
0.0
 14
0.0
 24
0.0
 34
0.0
 15
0.0
 25
0.0
 35
0.0
146
0.0
 13
0.0
 23
0.0
 33
0.0
 16
1.0
 26
0.0
 36
0.0
 17
0.0
 27
1.0
 37
0.0
 76
     0
330
D2
  0
LAYOUT
  5
D7
102
{ACAD_XDICTIONARY
360
1190
102
}
102
{ACAD_REACTORS
330
1A
102
}
330
1A
100
AcDbPlotSettings
  1

  2
C:\Documents and Settings\basas\Application Data\Autodesk\AutoCAD 2005\R16.1\enu\plotters\Default Windows System Printer.pc3
  4

  6

 40
0.0
 41
0.0
 42
0.0
 43
0.0
 44
0.0
 45
0.0
 46
0.0
 47
0.0
 48
0.0
 49
0.0
140
0.0
141
0.0
142
1.0
143
1.0
 70
   688
 72
     0
 73
     0
 74
     5
  7

 75
    16
147
1.0
148
0.0
149
0.0
100
AcDbLayout
  1
Layout2
 70
     1
 71
     2
 10
0.0
 20
0.0
 11
12.0
 21
9.0
 12
0.0
 22
0.0
 32
0.0
 14
0.0
 24
0.0
 34
0.0
 15
0.0
 25
0.0
 35
0.0
146
0.0
 13
0.0
 23
0.0
 33
0.0
 16
1.0
 26
0.0
 36
0.0
 17
0.0
 27
1.0
 37
0.0
 76
     0
330
D6
  0
LAYOUT
  5
22
102
{ACAD_XDICTIONARY
360
118B
102
}
102
{ACAD_REACTORS
330
1A
102
}
330
1A
100
AcDbPlotSettings
  1

  2
none_device
  4
ISO_A4_(210.00_x_297.00_MM)
  6

 40
7.5
 41
20.0
 42
7.5
 43
20.0
 44
210.0
 45
297.0
 46
11.54999923706054
 47
-13.65000009536743
 48
0.0
 49
0.0
140
0.0
141
0.0
142
1.0
143
8.704084754739808
 70
 11952
 72
     1
 73
     0
 74
     0
  7

 75
     0
147
0.1148885871608098
148
0.0
149
0.0
100
AcDbLayout
  1
Model
 70
     1
 71
     0
 10
0.0
 20
0.0
 11
12.0
 21
9.0
 12
0.0
 22
0.0
 32
0.0
 14
0.0
 24
0.0
 34
0.0
 15
0.0
 25
0.0
 35
0.0
146
0.0
 13
0.0
 23
0.0
 33
0.0
 16
1.0
 26
0.0
 36
0.0
 17
0.0
 27
1.0
 37
0.0
 76
     0
330
1F
331
EA
1001
ACAD_PSEXT
1000
None
1000
None
1000
Not applicable
1000
The layout will not be plotted unless a new plotter configuration name is selected.
1070
     0
  0
MATERIAL
  5
ED
102
{ACAD_XDICTIONARY
360
1194
102
}
102
{ACAD_REACTORS
330
6A
102
}
330
6A
100
AcDbMaterial
  1
ByBlock
  0
MATERIAL
  5
EC
102
{ACAD_XDICTIONARY
360
1192
102
}
102
{ACAD_REACTORS
330
6A
102
}
330
6A
100
AcDbMaterial
  1
ByLayer
  0
MATERIAL
  5
EE
102
{ACAD_XDICTIONARY
360
173
102
}
102
{ACAD_REACTORS
330
6A
102
}
330
6A
100
AcDbMaterial
  1
Global
 43
0.0007999999797903
 43
0.0
 43
0.0
 43
0.0
 43
0.0
 43
0.0007999999797903
 43
0.0
 43
0.0
 43
0.0
 43
0.0
 43
1.0
 43
0.0
 43
0.0
 43
0.0
 43
0.0
 43
1.0
 49
0.0007999999797903
 49
0.0
 49
0.0
 49
0.0
 49
0.0
 49
0.0007999999797903
 49
0.0
 49
0.0
 49
0.0
 49
0.0
 49
1.0
 49
0.0
 49
0.0
 49
0.0
 49
0.0
 49
1.0
142
0.0007999999797903
142
0.0
142
0.0
142
0.0
142
0.0
142
0.0007999999797903
142
0.0
142
0.0
142
0.0
142
0.0
142
1.0
142
0.0
142
0.0
142
0.0
142
0.0
142
1.0
144
0.0007999999797903
144
0.0
144
0.0
144
0.0
144
0.0
144
0.0007999999797903
144
0.0
144
0.0
144
0.0
144
0.0
144
1.0
144
0.0
144
0.0
144
0.0
144
0.0
144
1.0
1001
ACAD
1070
    -1
1070
     3
1070
     0
1000

1071
        0
1070
     0
  0
MLEADERSTYLE
  5
13B
102
{ACAD_REACTORS
330
12D
102
}
330
12D
100
AcDbMLeaderStyle
170
     2
171
     1
172
     0
 90
        2
 40
0.0
 41
0.0
173
     1
 91
-1056964608
340
14
 92
       -2
290
     1
 42
2.0
291
     1
 43
8.0
  3
Standard
 44
4.0
300

342
11
174
     1
178
     1
175
     1
176
     0
 93
-1056964608
 45
4.0
292
     0
297
     0
 46
4.0
 94
-1056964608
 47
1.0
 49
1.0
140
1.0
293
     1
141
0.0
294
     1
177
     0
142
1.0
295
     0
296
     1
143
3.75
1001
ACAD_MLEADERVER
1070
     2
  0
MLEADERSTYLE
  5
12E
102
{ACAD_REACTORS
330
12D
102
}
330
12D
100
AcDbMLeaderStyle
170
     2
171
     1
172
     0
 90
        2
 40
0.0
 41
0.0
173
     1
 91
-1056964608
340
14
 92
       -2
290
     1
 42
2.0
291
     1
 43
8.0
  3
Standard
 44
4.0
300

342
11
174
     1
178
     1
175
     1
176
     0
 93
-1056964608
 45
4.0
292
     0
297
     0
 46
4.0
 94
-1056964608
 47
1.0
 49
1.0
140
1.0
293
     1
141
0.0
294
     1
177
     0
142
1.0
295
     0
296
     0
143
3.75
1001
ACAD_MLEADERVER
1070
     2
  0
MLINESTYLE
  5
18
102
{ACAD_REACTORS
330
17
102
}
330
17
100
AcDbMlineStyle
  2
STANDARD
 70
     0
  3

 62
   256
 51
90.0
 52
90.0
 71
     2
 49
0.5
 62
   256
  6
BYLAYER
 49
-0.5
 62
   256
  6
BYLAYER
  0
ACDBPLACEHOLDER
  5
F
102
{ACAD_REACTORS
330
E
102
}
330
E
  0
SCALE
  5
10D
102
{ACAD_REACTORS
330
10C
102
}
330
10C
100
AcDbScale
 70
     0
300
1:1
140
1.0
141
1.0
290
     1
  0
SCALE
  5
188
102
{ACAD_REACTORS
330
10C
102
}
330
10C
100
AcDbScale
 70
     0
300
1:2
140
1.0
141
2.0
290
     0
  0
SCALE
  5
189
102
{ACAD_REACTORS
330
10C
102
}
330
10C
100
AcDbScale
 70
     0
300
1:4
140
1.0
141
4.0
290
     0
  0
SCALE
  5
18A
102
{ACAD_REACTORS
330
10C
102
}
330
10C
100
AcDbScale
 70
     0
300
1:5
140
1.0
141
5.0
290
     0
  0
SCALE
  5
18B
102
{ACAD_REACTORS
330
10C
102
}
330
10C
100
AcDbScale
 70
     0
300
1:8
140
1.0
141
8.0
290
     0
  0
SCALE
  5
18C
102
{ACAD_REACTORS
330
10C
102
}
330
10C
100
AcDbScale
 70
     0
300
1:10
140
1.0
141
10.0
290
     0
  0
SCALE
  5
18D
102
{ACAD_REACTORS
330
10C
102
}
330
10C
100
AcDbScale
 70
     0
300
1:16
140
1.0
141
16.0
290
     0
  0
SCALE
  5
18E
102
{ACAD_REACTORS
330
10C
102
}
330
10C
100
AcDbScale
 70
     0
300
1:20
140
1.0
141
20.0
290
     0
  0
SCALE
  5
18F
102
{ACAD_REACTORS
330
10C
102
}
330
10C
100
AcDbScale
 70
     0
300
1:30
140
1.0
141
30.0
290
     0
  0
SCALE
  5
190
102
{ACAD_REACTORS
330
10C
102
}
330
10C
100
AcDbScale
 70
     0
300
1:40
140
1.0
141
40.0
290
     0
  0
SCALE
  5
191
102
{ACAD_REACTORS
330
10C
102
}
330
10C
100
AcDbScale
 70
     0
300
1:50
140
1.0
141
50.0
290
     0
  0
SCALE
  5
192
102
{ACAD_REACTORS
330
10C
102
}
330
10C
100
AcDbScale
 70
     0
300
1:100
140
1.0
141
100.0
290
     0
  0
SCALE
  5
193
102
{ACAD_REACTORS
330
10C
102
}
330
10C
100
AcDbScale
 70
     0
300
2:1
140
2.0
141
1.0
290
     0
  0
SCALE
  5
194
102
{ACAD_REACTORS
330
10C
102
}
330
10C
100
AcDbScale
 70
     0
300
4:1
140
4.0
141
1.0
290
     0
  0
SCALE
  5
195
102
{ACAD_REACTORS
330
10C
102
}
330
10C
100
AcDbScale
 70
     0
300
8:1
140
8.0
141
1.0
290
     0
  0
SCALE
  5
196
102
{ACAD_REACTORS
330
10C
102
}
330
10C
100
AcDbScale
 70
     0
300
10:1
140
10.0
141
1.0
290
     0
  0
SCALE
  5
197
102
{ACAD_REACTORS
330
10C
102
}
330
10C
100
AcDbScale
 70
     0
300
100:1
140
100.0
141
1.0
290
     0
  0
SCALE
  5
198
102
{ACAD_REACTORS
330
10C
102
}
330
10C
100
AcDbScale
 70
     0
300
1/128" = 1'-0"
140
0.0078125
141
12.0
290
     0
  0
SCALE
  5
199
102
{ACAD_REACTORS
330
10C
102
}
330
10C
100
AcDbScale
 70
     0
300
1/64" = 1'-0"
140
0.015625
141
12.0
290
     0
  0
SCALE
  5
19A
102
{ACAD_REACTORS
330
10C
102
}
330
10C
100
AcDbScale
 70
     0
300
1/32" = 1'-0"
140
0.03125
141
12.0
290
     0
  0
SCALE
  5
19B
102
{ACAD_REACTORS
330
10C
102
}
330
10C
100
AcDbScale
 70
     0
300
1/16" = 1'-0"
140
0.0625
141
12.0
290
     0
  0
SCALE
  5
19C
102
{ACAD_REACTORS
330
10C
102
}
330
10C
100
AcDbScale
 70
     0
300
3/32" = 1'-0"
140
0.09375
141
12.0
290
     0
  0
SCALE
  5
19D
102
{ACAD_REACTORS
330
10C
102
}
330
10C
100
AcDbScale
 70
     0
300
1/8" = 1'-0"
140
0.125
141
12.0
290
     0
  0
SCALE
  5
19E
102
{ACAD_REACTORS
330
10C
102
}
330
10C
100
AcDbScale
 70
     0
300
3/16" = 1'-0"
140
0.1875
141
12.0
290
     0
  0
SCALE
  5
19F
102
{ACAD_REACTORS
330
10C
102
}
330
10C
100
AcDbScale
 70
     0
300
1/4" = 1'-0"
140
0.25
141
12.0
290
     0
  0
SCALE
  5
1A0
102
{ACAD_REACTORS
330
10C
102
}
330
10C
100
AcDbScale
 70
     0
300
3/8" = 1'-0"
140
0.375
141
12.0
290
     0
  0
SCALE
  5
1A1
102
{ACAD_REACTORS
330
10C
102
}
330
10C
100
AcDbScale
 70
     0
300
1/2" = 1'-0"
140
0.5
141
12.0
290
     0
  0
SCALE
  5
1A2
102
{ACAD_REACTORS
330
10C
102
}
330
10C
100
AcDbScale
 70
     0
300
3/4" = 1'-0"
140
0.75
141
12.0
290
     0
  0
SCALE
  5
1A3
102
{ACAD_REACTORS
330
10C
102
}
330
10C
100
AcDbScale
 70
     0
300
1" = 1'-0"
140
1.0
141
12.0
290
     0
  0
SCALE
  5
1A4
102
{ACAD_REACTORS
330
10C
102
}
330
10C
100
AcDbScale
 70
     0
300
1-1/2" = 1'-0"
140
1.5
141
12.0
290
     0
  0
SCALE
  5
1A5
102
{ACAD_REACTORS
330
10C
102
}
330
10C
100
AcDbScale
 70
     0
300
3" = 1'-0"
140
3.0
141
12.0
290
     0
  0
SCALE
  5
1A6
102
{ACAD_REACTORS
330
10C
102
}
330
10C
100
AcDbScale
 70
     0
300
6" = 1'-0"
140
6.0
141
12.0
290
     0
  0
SCALE
  5
1A7
102
{ACAD_REACTORS
330
10C
102
}
330
10C
100
AcDbScale
 70
     0
300
1'-0" = 1'-0"
140
12.0
141
12.0
290
     0
  0
TABLESTYLE
  5
7F
102
{ACAD_XDICTIONARY
360
162
102
}
102
{ACAD_REACTORS
330
7E
102
}
330
7E
100
AcDbTableStyle
  3
Standard
 70
     0
 71
     0
 40
1.5
 41
1.5
280
     0
281
     0
  7
Standard
140
4.5
170
     2
 62
     0
 63
     7
283
     0
274
    -2
284
     1
 64
     0
275
    -2
285
     1
 65
     0
276
    -2
286
     1
 66
     0
277
    -2
287
     1
 67
     0
278
    -2
288
     1
 68
     0
279
    -2
289
     1
 69
     0
  7
Standard
140
6.0
170
     5
 62
     0
 63
     7
283
     0
274
    -2
284
     1
 64
     0
275
    -2
285
     1
 65
     0
276
    -2
286
     1
 66
     0
277
    -2
287
     1
 67
     0
278
    -2
288
     1
 68
     0
279
    -2
289
     1
 69
     0
  7
Standard
140
4.5
170
     5
 62
     0
 63
     7
283
     0
274
    -2
284
     1
 64
     0
275
    -2
285
     1
 65
     0
276
    -2
286
     1
 66
     0
277
    -2
287
     1
 67
     0
278
    -2
288
     1
 68
     0
279
    -2
289
     1
 69
     0
  0
VISUALSTYLE
  5
F5
102
{ACAD_REACTORS
330
EF
102
}
330
EF
100
AcDbVisualStyle
  2
2dWireframe
 70
     4
 71
     0
 72
     2
 73
     1
 90
        0
 40
-0.6
 41
-30.0
 62
     5
 63
     7
 74
     1
 91
        4
 64
     7
 65
   257
 75
     1
175
     1
 42
1.0
 92
        0
 66
   257
 43
1.0
 76
     1
 77
     6
 78
     2
 67
     7
 79
     5
170
     0
171
     0
290
     0
174
     0
 93
        1
 44
0.0
173
     0
291
     0
 45
0.0
1001
ACAD
1000
AcDbSavedByObjectVersion
1070
     0
  0
VISUALSTYLE
  5
F7
102
{ACAD_REACTORS
330
EF
102
}
330
EF
100
AcDbVisualStyle
  2
3D Hidden
 70
     6
 71
     1
 72
     2
 73
     2
 90
        0
 40
-0.6
 41
-30.0
 62
     5
 63
     7
 74
     2
 91
        2
 64
     7
 65
   257
 75
     2
175
     1
 42
40.0
 92
        0
 66
   257
 43
1.0
 76
     1
 77
     6
 78
     2
 67
     7
 79
     3
170
     0
171
     0
290
     0
174
     0
 93
        1
 44
0.0
173
     0
291
     0
 45
0.0
1001
ACAD
1000
AcDbSavedByObjectVersion
1070
     0
  0
VISUALSTYLE
  5
F6
102
{ACAD_REACTORS
330
EF
102
}
330
EF
100
AcDbVisualStyle
  2
3dWireframe
 70
     5
 71
     0
 72
     2
 73
     1
 90
        0
 40
-0.6
 41
-30.0
 62
     5
 63
     7
 74
     1
 91
        4
 64
     7
 65
   257
 75
     1
175
     1
 42
1.0
 92
        0
 66
   257
 43
1.0
 76
     1
 77
     6
 78
     2
 67
     7
 79
     5
170
     0
171
     0
290
     0
174
     0
 93
        1
 44
0.0
173
     0
291
     0
 45
0.0
1001
ACAD
1000
AcDbSavedByObjectVersion
1070
     0
  0
VISUALSTYLE
  5
F4
102
{ACAD_REACTORS
330
EF
102
}
330
EF
100
AcDbVisualStyle
  2
Basic
 70
     7
 71
     1
 72
     0
 73
     1
 90
        0
 40
-0.6
 41
-30.0
 62
     5
 63
     7
 74
     0
 91
        4
 64
     7
 65
   257
 75
     1
175
     1
 42
1.0
 92
        8
 66
     7
 43
1.0
 76
     1
 77
     6
 78
     2
 67
     7
 79
     5
170
     0
171
     0
290
     0
174
     0
 93
        1
 44
0.0
173
     0
291
     1
 45
0.0
1001
ACAD
1000
AcDbSavedByObjectVersion
1070
     0
  0
VISUALSTYLE
  5
FB
102
{ACAD_REACTORS
330
EF
102
}
330
EF
100
AcDbVisualStyle
  2
Brighten
 70
    12
 71
     2
 72
     2
 73
     1
 90
        0
 40
-0.6
 41
-30.0
 62
     5
 63
     7
 74
     1
 91
        4
 64
     7
 65
   257
 75
     1
175
     1
 42
1.0
 92
        8
 66
     7
 43
1.0
 76
     1
 77
     6
 78
     2
 67
     7
 79
     5
170
     0
171
     0
290
     0
174
     0
 93
        1
 44
50.0
173
     0
291
     1
 45
0.0
1001
ACAD
1000
AcDbSavedByObjectVersion
1070
     0
  0
VISUALSTYLE
  5
FF
102
{ACAD_REACTORS
330
EF
102
}
330
EF
100
AcDbVisualStyle
  2
ColorChange
 70
    16
 71
     2
 72
     2
 73
     3
 90
        0
 40
-0.6
 41
-30.0
 62
     5
 63
     8
 74
     1
 91
        4
 64
     7
 65
   257
 75
     1
175
     1
 42
1.0
 92
        8
 66
     8
 43
1.0
 76
     1
 77
     6
 78
     2
 67
     7
 79
     5
170
     0
171
     0
290
     0
174
     0
 93
        1
 44
0.0
173
     0
291
     1
 45
0.0
1001
ACAD
1000
AcDbSavedByObjectVersion
1070
     0
  0
VISUALSTYLE
  5
F8
102
{ACAD_REACTORS
330
EF
102
}
330
EF
100
AcDbVisualStyle
  2
Conceptual
 70
     9
 71
     3
 72
     2
 73
     1
 90
        0
 40
-0.6
 41
-30.0
 62
     5
 63
     7
 74
     2
 91
        2
 64
     7
 65
   257
 75
     1
175
     1
 42
40.0
 92
        8
 66
     7
 43
1.0
 76
     1
 77
     6
 78
     2
 67
     7
 79
     3
170
     0
171
     0
290
     0
174
     0
 93
        1
 44
0.0
173
     0
291
     0
 45
0.0
1001
ACAD
1000
AcDbSavedByObjectVersion
1070
     0
  0
VISUALSTYLE
  5
FA
102
{ACAD_REACTORS
330
EF
102
}
330
EF
100
AcDbVisualStyle
  2
Dim
 70
    11
 71
     2
 72
     2
 73
     1
 90
        0
 40
-0.6
 41
-30.0
 62
     5
 63
     7
 74
     1
 91
        4
 64
     7
 65
   257
 75
     1
175
     1
 42
1.0
 92
        8
 66
     7
 43
1.0
 76
     1
 77
     6
 78
     2
 67
     7
 79
     5
170
     0
171
     0
290
     0
174
     0
 93
        1
 44
-50.0
173
     0
291
     1
 45
0.0
1001
ACAD
1000
AcDbSavedByObjectVersion
1070
     0
  0
VISUALSTYLE
  5
FE
102
{ACAD_REACTORS
330
EF
102
}
330
EF
100
AcDbVisualStyle
  2
Facepattern
 70
    15
 71
     2
 72
     2
 73
     1
 90
        0
 40
-0.6
 41
-30.0
 62
     5
 63
     7
 74
     1
 91
        4
 64
     7
 65
   257
 75
     1
175
     1
 42
1.0
 92
        8
 66
     7
 43
1.0
 76
     1
 77
     6
 78
     2
 67
     7
 79
     5
170
     0
171
     0
290
     0
174
     0
 93
        1
 44
0.0
173
     0
291
     1
 45
0.0
1001
ACAD
1000
AcDbSavedByObjectVersion
1070
     0
  0
VISUALSTYLE
  5
F0
102
{ACAD_REACTORS
330
EF
102
}
330
EF
100
AcDbVisualStyle
  2
Flat
 70
     0
 71
     2
 72
     1
 73
     1
 90
        2
 40
-0.6
 41
30.0
 62
     5
 63
     7
 74
     0
 91
        4
 64
     7
 65
   257
 75
     1
175
     1
 42
1.0
 92
        8
 66
     7
 43
1.0
 76
     1
 77
     6
 78
     2
 67
     7
 79
     5
170
     0
171
     0
290
     0
174
     0
 93
        1
 44
0.0
173
     0
291
     1
 45
0.0
1001
ACAD
1000
AcDbSavedByObjectVersion
1070
     0
  0
VISUALSTYLE
  5
F1
102
{ACAD_REACTORS
330
EF
102
}
330
EF
100
AcDbVisualStyle
  2
FlatWithEdges
 70
     1
 71
     2
 72
     1
 73
     1
 90
        2
 40
-0.6
 41
30.0
 62
     5
 63
     7
 74
     1
 91
        4
 64
     7
 65
   257
 75
     1
175
     1
 42
1.0
 92
        0
 66
   257
 43
1.0
 76
     1
 77
     6
 78
     2
 67
     7
 79
     5
170
     0
171
     0
290
     0
174
     0
 93
        1
 44
0.0
173
     0
291
     1
 45
0.0
1001
ACAD
1000
AcDbSavedByObjectVersion
1070
     0
  0
VISUALSTYLE
  5
F2
102
{ACAD_REACTORS
330
EF
102
}
330
EF
100
AcDbVisualStyle
  2
Gouraud
 70
     2
 71
     2
 72
     2
 73
     1
 90
        2
 40
-0.6
 41
30.0
 62
     5
 63
     7
 74
     0
 91
        4
 64
     7
 65
   257
 75
     1
175
     1
 42
1.0
 92
        0
 66
     7
 43
1.0
 76
     1
 77
     6
 78
     2
 67
     7
 79
     5
170
     0
171
     0
290
     0
174
     0
 93
        1
 44
0.0
173
     0
291
     1
 45
0.0
1001
ACAD
1000
AcDbSavedByObjectVersion
1070
     0
  0
VISUALSTYLE
  5
F3
102
{ACAD_REACTORS
330
EF
102
}
330
EF
100
AcDbVisualStyle
  2
GouraudWithEdges
 70
     3
 71
     2
 72
     2
 73
     1
 90
        2
 40
-0.6
 41
30.0
 62
     5
 63
     7
 74
     1
 91
        4
 64
     7
 65
   257
 75
     1
175
     1
 42
1.0
 92
        0
 66
   257
 43
1.0
 76
     1
 77
     6
 78
     2
 67
     7
 79
     5
170
     0
171
     0
290
     0
174
     0
 93
        1
 44
0.0
173
     0
291
     1
 45
0.0
1001
ACAD
1000
AcDbSavedByObjectVersion
1070
     0
  0
VISUALSTYLE
  5
FD
102
{ACAD_REACTORS
330
EF
102
}
330
EF
100
AcDbVisualStyle
  2
Linepattern
 70
    14
 71
     2
 72
     2
 73
     1
 90
        0
 40
-0.6
 41
-30.0
 62
     5
 63
     7
 74
     1
 91
        4
 64
     7
 65
   257
 75
     7
175
     7
 42
1.0
 92
        8
 66
     7
 43
1.0
 76
     1
 77
     6
 78
     2
 67
     7
 79
     5
170
     0
171
     0
290
     0
174
     0
 93
        1
 44
0.0
173
     0
291
     1
 45
0.0
1001
ACAD
1000
AcDbSavedByObjectVersion
1070
     0
  0
VISUALSTYLE
  5
F9
102
{ACAD_REACTORS
330
EF
102
}
330
EF
100
AcDbVisualStyle
  2
Realistic
 70
     8
 71
     2
 72
     2
 73
     1
 90
        0
 40
-0.6
 41
-30.0
 62
     5
 63
     7
 74
     1
 91
        0
 64
     7
 65
   257
 75
     1
175
     1
 42
1.0
 92
        8
 66
     8
 43
1.0
 76
     1
 77
     6
 78
     2
 67
     7
 79
     5
170
     0
171
     0
290
     0
174
     0
 93
       13
 44
0.0
173
     0
291
     0
 45
0.0
1001
ACAD
1000
AcDbSavedByObjectVersion
1070
     0
  0
VISUALSTYLE
  5
FC
102
{ACAD_REACTORS
330
EF
102
}
330
EF
100
AcDbVisualStyle
  2
Thicken
 70
    13
 71
     2
 72
     2
 73
     1
 90
        0
 40
-0.6
 41
-30.0
 62
     5
 63
     7
 74
     1
 91
        4
 64
     7
 65
   257
 75
     1
175
     1
 42
1.0
 92
       12
 66
     7
 43
1.0
 76
     1
 77
     6
 78
     2
 67
     7
 79
     5
170
     0
171
     0
290
     0
174
     0
 93
        1
 44
0.0
173
     0
291
     1
 45
0.0
1001
ACAD
1000
AcDbSavedByObjectVersion
1070
     0
  0
DICTIONARYVAR
  5
146
102
{ACAD_REACTORS
330
5E
102
}
330
5E
100
DictionaryVariables
280
     0
  1
1:1
  0
DICTIONARYVAR
  5
145
102
{ACAD_REACTORS
330
5E
102
}
330
5E
100
DictionaryVariables
280
     0
  1
STANDARD
  0
DICTIONARYVAR
  5
84
102
{ACAD_REACTORS
330
5E
102
}
330
5E
100
DictionaryVariables
280
     0
  1
STANDARD
  0
DICTIONARYVAR
  5
5F
102
{ACAD_REACTORS
330
5E
102
}
330
5E
100
DictionaryVariables
280
     0
  1
2
  0
DICTIONARYVAR
  5
63
102
{ACAD_REACTORS
330
5E
102
}
330
5E
100
DictionaryVariables
280
     0
  1
1
  0
DICTIONARYVAR
  5
1186
102
{ACAD_REACTORS
330
5E
102
}
330
5E
100
DictionaryVariables
280
     0
  1
0
  0
DICTIONARYVAR
  5
1184
102
{ACAD_REACTORS
330
5E
102
}
330
5E
100
DictionaryVariables
280
     0
  1
2
  0
DICTIONARYVAR
  5
1183
102
{ACAD_REACTORS
330
5E
102
}
330
5E
100
DictionaryVariables
280
     0
  1
1
  0
DICTIONARYVAR
  5
1188
102
{ACAD_REACTORS
330
5E
102
}
330
5E
100
DictionaryVariables
280
     0
  1
80.000000
  0
DICTIONARYVAR
  5
1187
102
{ACAD_REACTORS
330
5E
102
}
330
5E
100
DictionaryVariables
280
     0
  1
5.000000
  0
DICTIONARYVAR
  5
1185
102
{ACAD_REACTORS
330
5E
102
}
330
5E
100
DictionaryVariables
280
     0
  1
127
  0
DICTIONARY
  5
118E
330
D3
100
AcDbDictionary
280
     1
281
     1
  3
ACAD_XREC_ROUNDTRIP
360
118F
  0
DICTIONARY
  5
1190
330
D7
100
AcDbDictionary
280
     1
281
     1
  3
ACAD_XREC_ROUNDTRIP
360
1191
  0
DICTIONARY
  5
118B
330
22
100
AcDbDictionary
280
     1
281
     1
  3
ACAD_XREC_ROUNDTRIP
360
118C
  0
DICTIONARY
  5
1194
330
ED
100
AcDbDictionary
280
     1
281
     1
  3
ACAD_XREC_ROUNDTRIP
360
1195
  0
DICTIONARY
  5
1192
330
EC
100
AcDbDictionary
280
     1
281
     1
  3
ACAD_XREC_ROUNDTRIP
360
1193
  0
DICTIONARY
  5
173
330
EE
100
AcDbDictionary
280
     1
281
     1
  3
ACAD_XREC_ROUNDTRIP
360
1196
  3
BUMPTILE
360
175
  3
DIFFUSETILE
360
174
  3
OPACITYTILE
360
176
  3
REFLECTIONTILE
360
177
  0
DICTIONARY
  5
162
330
7F
100
AcDbDictionary
280
     1
281
     1
  3
ACAD_ROUNDTRIP_2008_TABLESTYLE_CELLSTYLEMAP
360
1189
  3
ACAD_XREC_ROUNDTRIP
360
118D
  0
XRECORD
  5
118F
102
{ACAD_REACTORS
330
118E
102
}
330
118E
100
AcDbXrecord
280
     1
102
SHADEPLOT
 70
     0
102
SHADEPLOTRESLEVEL
 70
     2
102
SHADEPLOTCUSTOMDPI
 70
   300
  0
XRECORD
  5
1191
102
{ACAD_REACTORS
330
1190
102
}
330
1190
100
AcDbXrecord
280
     1
102
SHADEPLOT
 70
     0
102
SHADEPLOTRESLEVEL
 70
     2
102
SHADEPLOTCUSTOMDPI
 70
   300
  0
XRECORD
  5
118C
102
{ACAD_REACTORS
330
118B
102
}
330
118B
100
AcDbXrecord
280
     1
102
SHADEPLOT
 70
     0
102
SHADEPLOTRESLEVEL
 70
     2
102
SHADEPLOTCUSTOMDPI
 70
   300
  0
XRECORD
  5
1195
102
{ACAD_REACTORS
330
1194
102
}
330
1194
100
AcDbXrecord
280
     1
102
MATERIAL
148
0.0
149
0.0
149
0.0
 93
        0
 94
       63
282
     0
 72
     1
 77
     1
171
     1
175
     1
179
     1
273
     0
  0
XRECORD
  5
1193
102
{ACAD_REACTORS
330
1192
102
}
330
1192
100
AcDbXrecord
280
     1
102
MATERIAL
148
0.0
149
0.0
149
0.0
 93
        0
 94
       63
282
     0
 72
     1
 77
     1
171
     1
175
     1
179
     1
273
     0
  0
XRECORD
  5
1196
102
{ACAD_REACTORS
330
173
102
}
330
173
100
AcDbXrecord
280
     1
102
MATERIAL
148
0.0
149
0.0
149
0.0
 93
        0
 94
       63
282
     0
 72
     1
 77
     1
171
     1
175
     1
179
     1
273
     0
  0
XRECORD
  5
175
102
{ACAD_REACTORS
330
173
102
}
330
173
100
AcDbXrecord
280
     1
270
     1
271
     1
  0
XRECORD
  5
174
102
{ACAD_REACTORS
330
173
102
}
330
173
100
AcDbXrecord
280
     1
270
     1
271
     1
  0
XRECORD
  5
176
102
{ACAD_REACTORS
330
173
102
}
330
173
100
AcDbXrecord
280
     1
270
     1
271
     1
  0
XRECORD
  5
177
102
{ACAD_REACTORS
330
173
102
}
330
173
100
AcDbXrecord
280
     1
270
     1
271
     1
  0
CELLSTYLEMAP
  5
1189
102
{ACAD_REACTORS
330
162
102
}
330
162
100
AcDbCellStyleMap
 90
        3
300
CELLSTYLE
  1
TABLEFORMAT_BEGIN
 90
        5
170
     1
 91
        0
 92
    32768
 62
   257
 93
        1
300
CONTENTFORMAT
  1
CONTENTFORMAT_BEGIN
 90
        0
 91
        0
 92
      512
 93
        0
300

 40
0.0
140
1.0
 94
        5
 62
     0
340
11
144
6.0
309
CONTENTFORMAT_END
171
     1
301
MARGIN
  1
CELLMARGIN_BEGIN
 40
1.5
 40
1.5
 40
1.5
 40
1.5
 40
4.5
 40
4.5
309
CELLMARGIN_END
 94
        6
 95
        1
302
GRIDFORMAT
  1
GRIDFORMAT_BEGIN
 90
        0
 91
        1
 62
     0
 92
       -2
340
14
 93
        0
 40
1.125
309
GRIDFORMAT_END
 95
        2
302
GRIDFORMAT
  1
GRIDFORMAT_BEGIN
 90
        0
 91
        1
 62
     0
 92
       -2
340
14
 93
        0
 40
1.125
309
GRIDFORMAT_END
 95
        4
302
GRIDFORMAT
  1
GRIDFORMAT_BEGIN
 90
        0
 91
        1
 62
     0
 92
       -2
340
14
 93
        0
 40
1.125
309
GRIDFORMAT_END
 95
        8
302
GRIDFORMAT
  1
GRIDFORMAT_BEGIN
 90
        0
 91
        1
 62
     0
 92
       -2
340
14
 93
        0
 40
1.125
309
GRIDFORMAT_END
 95
       16
302
GRIDFORMAT
  1
GRIDFORMAT_BEGIN
 90
        0
 91
        1
 62
     0
 92
       -2
340
14
 93
        0
 40
1.125
309
GRIDFORMAT_END
 95
       32
302
GRIDFORMAT
  1
GRIDFORMAT_BEGIN
 90
        0
 91
        1
 62
     0
 92
       -2
340
14
 93
        0
 40
1.125
309
GRIDFORMAT_END
309
TABLEFORMAT_END
  1
CELLSTYLE_BEGIN
 90
        1
 91
        1
300
_TITLE
309
CELLSTYLE_END
300
CELLSTYLE
  1
TABLEFORMAT_BEGIN
 90
        5
170
     1
 91
        0
 92
        0
 62
   257
 93
        1
300
CONTENTFORMAT
  1
CONTENTFORMAT_BEGIN
 90
        0
 91
        0
 92
      512
 93
        0
300

 40
0.0
140
1.0
 94
        5
 62
     0
340
11
144
4.5
309
CONTENTFORMAT_END
171
     1
301
MARGIN
  1
CELLMARGIN_BEGIN
 40
1.5
 40
1.5
 40
1.5
 40
1.5
 40
4.5
 40
4.5
309
CELLMARGIN_END
 94
        6
 95
        1
302
GRIDFORMAT
  1
GRIDFORMAT_BEGIN
 90
        0
 91
        1
 62
     0
 92
       -2
340
14
 93
        0
 40
1.125
309
GRIDFORMAT_END
 95
        2
302
GRIDFORMAT
  1
GRIDFORMAT_BEGIN
 90
        0
 91
        1
 62
     0
 92
       -2
340
14
 93
        0
 40
1.125
309
GRIDFORMAT_END
 95
        4
302
GRIDFORMAT
  1
GRIDFORMAT_BEGIN
 90
        0
 91
        1
 62
     0
 92
       -2
340
14
 93
        0
 40
1.125
309
GRIDFORMAT_END
 95
        8
302
GRIDFORMAT
  1
GRIDFORMAT_BEGIN
 90
        0
 91
        1
 62
     0
 92
       -2
340
14
 93
        0
 40
1.125
309
GRIDFORMAT_END
 95
       16
302
GRIDFORMAT
  1
GRIDFORMAT_BEGIN
 90
        0
 91
        1
 62
     0
 92
       -2
340
14
 93
        0
 40
1.125
309
GRIDFORMAT_END
 95
       32
302
GRIDFORMAT
  1
GRIDFORMAT_BEGIN
 90
        0
 91
        1
 62
     0
 92
       -2
340
14
 93
        0
 40
1.125
309
GRIDFORMAT_END
309
TABLEFORMAT_END
  1
CELLSTYLE_BEGIN
 90
        2
 91
        1
300
_HEADER
309
CELLSTYLE_END
300
CELLSTYLE
  1
TABLEFORMAT_BEGIN
 90
        5
170
     1
 91
        0
 92
        0
 62
   257
 93
        1
300
CONTENTFORMAT
  1
CONTENTFORMAT_BEGIN
 90
        0
 91
        0
 92
      512
 93
        0
300

 40
0.0
140
1.0
 94
        2
 62
     0
340
11
144
4.5
309
CONTENTFORMAT_END
171
     1
301
MARGIN
  1
CELLMARGIN_BEGIN
 40
1.5
 40
1.5
 40
1.5
 40
1.5
 40
4.5
 40
4.5
309
CELLMARGIN_END
 94
        6
 95
        1
302
GRIDFORMAT
  1
GRIDFORMAT_BEGIN
 90
        0
 91
        1
 62
     0
 92
       -2
340
14
 93
        0
 40
1.125
309
GRIDFORMAT_END
 95
        2
302
GRIDFORMAT
  1
GRIDFORMAT_BEGIN
 90
        0
 91
        1
 62
     0
 92
       -2
340
14
 93
        0
 40
1.125
309
GRIDFORMAT_END
 95
        4
302
GRIDFORMAT
  1
GRIDFORMAT_BEGIN
 90
        0
 91
        1
 62
     0
 92
       -2
340
14
 93
        0
 40
1.125
309
GRIDFORMAT_END
 95
        8
302
GRIDFORMAT
  1
GRIDFORMAT_BEGIN
 90
        0
 91
        1
 62
     0
 92
       -2
340
14
 93
        0
 40
1.125
309
GRIDFORMAT_END
 95
       16
302
GRIDFORMAT
  1
GRIDFORMAT_BEGIN
 90
        0
 91
        1
 62
     0
 92
       -2
340
14
 93
        0
 40
1.125
309
GRIDFORMAT_END
 95
       32
302
GRIDFORMAT
  1
GRIDFORMAT_BEGIN
 90
        0
 91
        1
 62
     0
 92
       -2
340
14
 93
        0
 40
1.125
309
GRIDFORMAT_END
309
TABLEFORMAT_END
  1
CELLSTYLE_BEGIN
 90
        3
 91
        2
300
_DATA
309
CELLSTYLE_END
  0
XRECORD
  5
118D
102
{ACAD_REACTORS
330
162
102
}
330
162
100
AcDbXrecord
280
     1
102
ACAD_ROUNDTRIP_PRE2007_TABLESTYLE
 90
      512
 91
        0
  1

 92
      512
 93
        0
  2

 94
      512
 95
        0
  3

  0
ENDSEC
  0
EOF
