  0
SECTION
  2
HEADER
  9
$ACADVER
  1
AC1015
  9
$ACADMAINTVER
 70
    20
  9
$DWGCODEPAGE
  3
ANSI_1254
  9
$INSBASE
 10
0.0
 20
0.0
 30
0.0
  9
$EXTMIN
 10
1394.041599436774
 20
702.9843795898776
 30
0.0
  9
$EXTMAX
 10
1508.970867165929
 20
769.3250048190216
 30
0.0
  9
$LIMMIN
 10
0.0
 20
0.0
  9
$LIMMAX
 10
420.0
 20
297.0
  9
$ORTHOMODE
 70
     1
  9
$REGENMODE
 70
     1
  9
$FILLMODE
 70
     1
  9
$QTEXTMODE
 70
     0
  9
$MIRRTEXT
 70
     0
  9
$LTSCALE
 40
1.0
  9
$ATTMODE
 70
     1
  9
$TEXTSIZE
 40
2.5
  9
$TRACEWID
 40
1.0
  9
$TEXTSTYLE
  7
Standard
  9
$CLAYER
  8
0
  9
$CELTYPE
  6
ByLayer
  9
$CECOLOR
 62
   256
  9
$CELTSCALE
 40
1.0
  9
$DISPSILH
 70
     0
  9
$DIMSCALE
 40
1.0
  9
$DIMASZ
 40
2.5
  9
$DIMEXO
 40
0.625
  9
$DIMDLI
 40
3.75
  9
$DIMRND
 40
0.0
  9
$DIMDLE
 40
0.0
  9
$DIMEXE
 40
1.25
  9
$DIMTP
 40
0.0
  9
$DIMTM
 40
0.0
  9
$DIMTXT
 40
2.5
  9
$DIMCEN
 40
2.5
  9
$DIMTSZ
 40
0.0
  9
$DIMTOL
 70
     0
  9
$DIMLIM
 70
     0
  9
$DIMTIH
 70
     0
  9
$DIMTOH
 70
     0
  9
$DIMSE1
 70
     0
  9
$DIMSE2
 70
     0
  9
$DIMTAD
 70
     1
  9
$DIMZIN
 70
     8
  9
$DIMBLK
  1

  9
$DIMASO
 70
     1
  9
$DIMSHO
 70
     1
  9
$DIMPOST
  1

  9
$DIMAPOST
  1

  9
$DIMALT
 70
     0
  9
$DIMALTD
 70
     3
  9
$DIMALTF
 40
0.03937007874016
  9
$DIMLFAC
 40
1.0
  9
$DIMTOFL
 70
     1
  9
$DIMTVP
 40
0.0
  9
$DIMTIX
 70
     0
  9
$DIMSOXD
 70
     0
  9
$DIMSAH
 70
     0
  9
$DIMBLK1
  1

  9
$DIMBLK2
  1

  9
$DIMSTYLE
  2
ISO-25
  9
$DIMCLRD
 70
     0
  9
$DIMCLRE
 70
     0
  9
$DIMCLRT
 70
     0
  9
$DIMTFAC
 40
1.0
  9
$DIMGAP
 40
0.625
  9
$DIMJUST
 70
     0
  9
$DIMSD1
 70
     0
  9
$DIMSD2
 70
     0
  9
$DIMTOLJ
 70
     0
  9
$DIMTZIN
 70
     8
  9
$DIMALTZ
 70
     0
  9
$DIMALTTZ
 70
     0
  9
$DIMUPT
 70
     0
  9
$DIMDEC
 70
     2
  9
$DIMTDEC
 70
     2
  9
$DIMALTU
 70
     2
  9
$DIMALTTD
 70
     3
  9
$DIMTXSTY
  7
Standard
  9
$DIMAUNIT
 70
     0
  9
$DIMADEC
 70
     0
  9
$DIMALTRND
 40
0.0
  9
$DIMAZIN
 70
     0
  9
$DIMDSEP
 70
    44
  9
$DIMATFIT
 70
     3
  9
$DIMFRAC
 70
     0
  9
$DIMLDRBLK
  1

  9
$DIMLUNIT
 70
     2
  9
$DIMLWD
 70
    -2
  9
$DIMLWE
 70
    -2
  9
$DIMTMOVE
 70
     0
  9
$LUNITS
 70
     2
  9
$LUPREC
 70
     4
  9
$SKETCHINC
 40
1.0
  9
$FILLETRAD
 40
0.0
  9
$AUNITS
 70
     0
  9
$AUPREC
 70
     0
  9
$MENU
  1
.
  9
$ELEVATION
 40
0.0
  9
$PELEVATION
 40
0.0
  9
$THICKNESS
 40
0.0
  9
$LIMCHECK
 70
     0
  9
$CHAMFERA
 40
0.0
  9
$CHAMFERB
 40
0.0
  9
$CHAMFERC
 40
0.0
  9
$CHAMFERD
 40
0.0
  9
$SKPOLY
 70
     0
  9
$TDCREATE
 40
2458424.669354225
  9
$TDUCREATE
 40
2458424.544354225
  9
$TDUPDATE
 40
2458956.391519479
  9
$TDUUPDATE
 40
2458956.266519479
  9
$TDINDWG
 40
0.0044739583
  9
$TDUSRTIMER
 40
0.0044739583
  9
$USRTIMER
 70
     1
  9
$ANGBASE
 50
0.0
  9
$ANGDIR
 70
     0
  9
$PDMODE
 70
     0
  9
$PDSIZE
 40
0.0
  9
$PLINEWID
 40
0.0
  9
$SPLFRAME
 70
     0
  9
$SPLINETYPE
 70
     6
  9
$SPLINESEGS
 70
     8
  9
$HANDSEED
  5
EF7
  9
$SURFTAB1
 70
     6
  9
$SURFTAB2
 70
     6
  9
$SURFTYPE
 70
     6
  9
$SURFU
 70
     6
  9
$SURFV
 70
     6
  9
$UCSBASE
  2

  9
$UCSNAME
  2

  9
$UCSORG
 10
0.0
 20
0.0
 30
0.0
  9
$UCSXDIR
 10
1.0
 20
0.0
 30
0.0
  9
$UCSYDIR
 10
0.0
 20
1.0
 30
0.0
  9
$UCSORTHOREF
  2

  9
$UCSORTHOVIEW
 70
     0
  9
$UCSORGTOP
 10
0.0
 20
0.0
 30
0.0
  9
$UCSORGBOTTOM
 10
0.0
 20
0.0
 30
0.0
  9
$UCSORGLEFT
 10
0.0
 20
0.0
 30
0.0
  9
$UCSORGRIGHT
 10
0.0
 20
0.0
 30
0.0
  9
$UCSORGFRONT
 10
0.0
 20
0.0
 30
0.0
  9
$UCSORGBACK
 10
0.0
 20
0.0
 30
0.0
  9
$PUCSBASE
  2

  9
$PUCSNAME
  2

  9
$PUCSORG
 10
0.0
 20
0.0
 30
0.0
  9
$PUCSXDIR
 10
1.0
 20
0.0
 30
0.0
  9
$PUCSYDIR
 10
0.0
 20
1.0
 30
0.0
  9
$PUCSORTHOREF
  2

  9
$PUCSORTHOVIEW
 70
     0
  9
$PUCSORGTOP
 10
0.0
 20
0.0
 30
0.0
  9
$PUCSORGBOTTOM
 10
0.0
 20
0.0
 30
0.0
  9
$PUCSORGLEFT
 10
0.0
 20
0.0
 30
0.0
  9
$PUCSORGRIGHT
 10
0.0
 20
0.0
 30
0.0
  9
$PUCSORGFRONT
 10
0.0
 20
0.0
 30
0.0
  9
$PUCSORGBACK
 10
0.0
 20
0.0
 30
0.0
  9
$USERI1
 70
     0
  9
$USERI2
 70
     0
  9
$USERI3
 70
     0
  9
$USERI4
 70
     0
  9
$USERI5
 70
     0
  9
$USERR1
 40
0.0
  9
$USERR2
 40
0.0
  9
$USERR3
 40
0.0
  9
$USERR4
 40
0.0
  9
$USERR5
 40
0.0
  9
$WORLDVIEW
 70
     1
  9
$SHADEDGE
 70
     3
  9
$SHADEDIF
 70
    70
  9
$TILEMODE
 70
     1
  9
$MAXACTVP
 70
    64
  9
$PINSBASE
 10
0.0
 20
0.0
 30
0.0
  9
$PLIMCHECK
 70
     0
  9
$PEXTMIN
 10
0.0
 20
0.0
 30
0.0
  9
$PEXTMAX
 10
0.0
 20
0.0
 30
0.0
  9
$PLIMMIN
 10
0.0
 20
0.0
  9
$PLIMMAX
 10
12.0
 20
9.0
  9
$UNITMODE
 70
     0
  9
$VISRETAIN
 70
     1
  9
$PLINEGEN
 70
     0
  9
$PSLTSCALE
 70
     1
  9
$TREEDEPTH
 70
  3020
  9
$CMLSTYLE
  2
Standard
  9
$CMLJUST
 70
     0
  9
$CMLSCALE
 40
20.0
  9
$PROXYGRAPHICS
 70
     1
  9
$MEASUREMENT
 70
     1
  9
$CELWEIGHT
370
    -1
  9
$ENDCAPS
280
     0
  9
$JOINSTYLE
280
     0
  9
$LWDISPLAY
290
     0
  9
$INSUNITS
 70
     4
  9
$HYPERLINKBASE
  1

  9
$STYLESHEET
  1

  9
$XEDIT
290
     1
  9
$CEPSNTYPE
380
     0
  9
$PSTYLEMODE
290
     1
  9
$FINGERPRINTGUID
  2
{46F67937-FF74-4F3A-B407-62AE8FF03721}
  9
$VERSIONGUID
  2
{E921ACE0-FB7D-4CC6-9A83-B91C5DDBB038}
  9
$EXTNAMES
290
     1
  9
$PSVPSCALE
 40
0.0
  9
$OLESTARTUP
290
     0
  0
ENDSEC
  0
SECTION
  2
CLASSES
  0
CLASS
  1
ACDBDICTIONARYWDFLT
  2
AcDbDictionaryWithDefault
  3
ObjectDBX Classes
 90
        0
280
     0
281
     0
  0
CLASS
  1
ACDBPLACEHOLDER
  2
AcDbPlaceHolder
  3
ObjectDBX Classes
 90
        0
280
     0
281
     0
  0
CLASS
  1
LAYOUT
  2
AcDbLayout
  3
ObjectDBX Classes
 90
        0
280
     0
281
     0
  0
CLASS
  1
DICTIONARYVAR
  2
AcDbDictionaryVar
  3
ObjectDBX Classes
 90
        0
280
     0
281
     0
  0
CLASS
  1
TABLESTYLE
  2
AcDbTableStyle
  3
ObjectDBX Classes
 90
     4095
280
     0
281
     0
  0
CLASS
  1
MATERIAL
  2
AcDbMaterial
  3
ObjectDBX Classes
 90
     1153
280
     0
281
     0
  0
CLASS
  1
VISUALSTYLE
  2
AcDbVisualStyle
  3
ObjectDBX Classes
 90
     4095
280
     0
281
     0
  0
CLASS
  1
SCALE
  2
AcDbScale
  3
ObjectDBX Classes
 90
     1153
280
     0
281
     0
  0
CLASS
  1
MLEADERSTYLE
  2
AcDbMLeaderStyle
  3
ACDB_MLEADERSTYLE_CLASS
 90
     4095
280
     0
281
     0
  0
CLASS
  1
CELLSTYLEMAP
  2
AcDbCellStyleMap
  3
ObjectDBX Classes
 90
     1152
280
     0
281
     0
  0
CLASS
  1
ACAD_EVALUATION_GRAPH
  2
AcDbEvalGraph
  3
ObjectDBX Classes
 90
    33921
280
     0
281
     0
  0
CLASS
  1
ACAECUSTOBJ
  2
AcAeEditorObj
  3
AcAeEditorObj
 90
    33792
280
     0
281
     0
  0
CLASS
  1
ACDB_DYNAMICBLOCKPURGEPREVENTER_VERSION
  2
AcDbDynamicBlockPurgePreventer
  3
ObjectDBX Classes
 90
    33921
280
     0
281
     0
  0
ENDSEC
  0
SECTION
  2
TABLES
  0
TABLE
  2
VPORT
  5
8
330
0
100
AcDbSymbolTable
 70
     1
  0
VPORT
  5
EA
330
8
100
AcDbSymbolTableRecord
100
AcDbViewportTableRecord
  2
*Active
 70
     0
 10
0.0
 20
0.0
 11
1.0
 21
1.0
 12
1448.000789797459
 22
731.6398743633045
 13
0.0
 23
0.0
 14
10.0
 24
10.0
 15
10.0
 25
10.0
 16
0.0
 26
0.0
 36
1.0
 17
0.0
 27
0.0
 37
0.0
 40
74.50720197962164
 41
1.903110047846889
 42
50.0
 43
0.0
 44
0.0
 50
0.0
 51
0.0
 71
     0
 72
  1000
 73
     1
 74
     3
 75
     0
 76
     0
 77
     0
 78
     0
281
     0
 65
     1
110
0.0
120
0.0
130
0.0
111
1.0
121
0.0
131
0.0
112
0.0
122
1.0
132
0.0
 79
     0
146
0.0
  0
ENDTAB
  0
TABLE
  2
LTYPE
  5
5
330
0
100
AcDbSymbolTable
 70
     1
  0
LTYPE
  5
14
330
5
100
AcDbSymbolTableRecord
100
AcDbLinetypeTableRecord
  2
ByBlock
 70
     0
  3

 72
    65
 73
     0
 40
0.0
  0
LTYPE
  5
15
330
5
100
AcDbSymbolTableRecord
100
AcDbLinetypeTableRecord
  2
ByLayer
 70
     0
  3

 72
    65
 73
     0
 40
0.0
  0
LTYPE
  5
16
330
5
100
AcDbSymbolTableRecord
100
AcDbLinetypeTableRecord
  2
Continuous
 70
     0
  3
Solid line
 72
    65
 73
     0
 40
0.0
  0
ENDTAB
  0
TABLE
  2
LAYER
  5
2
330
0
100
AcDbSymbolTable
 70
     1
  0
LAYER
  5
10
102
{ACAD_XDICTIONARY
360
13C
102
}
330
2
100
AcDbSymbolTableRecord
100
AcDbLayerTableRecord
  2
0
 70
     0
 62
     7
  6
Continuous
370
    -3
390
F
  0
ENDTAB
  0
TABLE
  2
STYLE
  5
3
330
0
100
AcDbSymbolTable
 70
     2
  0
STYLE
  5
11
330
3
100
AcDbSymbolTableRecord
100
AcDbTextStyleTableRecord
  2
Standard
 70
     0
 40
0.0
 41
1.0
 50
0.0
 71
     0
 42
2.5
  3
txt
  4

  0
STYLE
  5
132
330
3
100
AcDbSymbolTableRecord
100
AcDbTextStyleTableRecord
  2
Annotative
 70
     0
 40
0.0
 41
1.0
 50
0.0
 71
     0
 42
2.5
  3
txt.shx
  4

1001
AcadAnnotative
1000
AnnotativeData
1002
{
1070
     1
1070
     1
1002
}
  0
ENDTAB
  0
TABLE
  2
VIEW
  5
6
330
0
100
AcDbSymbolTable
 70
     0
  0
ENDTAB
  0
TABLE
  2
UCS
  5
7
330
0
100
AcDbSymbolTable
 70
     0
  0
ENDTAB
  0
TABLE
  2
APPID
  5
9
330
0
100
AcDbSymbolTable
 70
    11
  0
APPID
  5
12
330
9
100
AcDbSymbolTableRecord
100
AcDbRegAppTableRecord
  2
ACAD
 70
     0
  0
APPID
  5
9E
330
9
100
AcDbSymbolTableRecord
100
AcDbRegAppTableRecord
  2
ACAD_PSEXT
 70
     0
  0
APPID
  5
133
330
9
100
AcDbSymbolTableRecord
100
AcDbRegAppTableRecord
  2
AcadAnnoPO
 70
     0
  0
APPID
  5
134
330
9
100
AcDbSymbolTableRecord
100
AcDbRegAppTableRecord
  2
AcadAnnotative
 70
     0
  0
APPID
  5
135
330
9
100
AcDbSymbolTableRecord
100
AcDbRegAppTableRecord
  2
ACAD_DSTYLE_DIMJAG
 70
     0
  0
APPID
  5
136
330
9
100
AcDbSymbolTableRecord
100
AcDbRegAppTableRecord
  2
ACAD_DSTYLE_DIMTALN
 70
     0
  0
APPID
  5
165
330
9
100
AcDbSymbolTableRecord
100
AcDbRegAppTableRecord
  2
ACAD_MLEADERVER
 70
     0
  0
APPID
  5
E34
330
9
100
AcDbSymbolTableRecord
100
AcDbRegAppTableRecord
  2
ACAUTHENVIRON
 70
     0
  0
APPID
  5
E38
330
9
100
AcDbSymbolTableRecord
100
AcDbRegAppTableRecord
  2
AcDbDynamicBlockTrueName
 70
     0
  0
APPID
  5
E39
330
9
100
AcDbSymbolTableRecord
100
AcDbRegAppTableRecord
  2
AcDbDynamicBlockGUID
 70
     0
  0
APPID
  5
E3B
330
9
100
AcDbSymbolTableRecord
100
AcDbRegAppTableRecord
  2
AcDbBlockRepETag
 70
     0
  0
ENDTAB
  0
TABLE
  2
DIMSTYLE
  5
A
330
0
100
AcDbSymbolTable
 70
     2
100
AcDbDimStyleTable
 71
     2
340
27
340
137
  0
DIMSTYLE
105
27
330
A
100
AcDbSymbolTableRecord
100
AcDbDimStyleTableRecord
  2
ISO-25
 70
     0
 41
2.5
 42
0.625
 43
3.75
 44
1.25
 73
     0
 74
     0
 77
     1
 78
     8
140
2.5
141
2.5
143
0.03937007874016
147
0.625
171
     3
172
     1
271
     2
272
     2
274
     3
278
    44
283
     0
284
     8
340
11
  0
DIMSTYLE
105
137
330
A
100
AcDbSymbolTableRecord
100
AcDbDimStyleTableRecord
  2
Annotative
 70
     0
 40
0.0
 41
2.5
 42
0.625
 43
3.75
 44
1.25
 73
     0
 74
     0
 77
     1
 78
     8
140
2.5
141
2.5
143
0.03937007874016
147
0.625
171
     3
172
     1
271
     2
272
     2
274
     3
278
    44
283
     0
284
     8
340
11
1001
AcadAnnotative
1000
AnnotativeData
1002
{
1070
     1
1070
     1
1002
}
1001
ACAD_DSTYLE_DIMJAG
1070
   388
1040
1.5
1001
ACAD_DSTYLE_DIMTALN
1070
   392
1070
     0
  0
ENDTAB
  0
TABLE
  2
BLOCK_RECORD
  5
1
330
0
100
AcDbSymbolTable
 70
     5
  0
BLOCK_RECORD
  5
1F
330
1
100
AcDbSymbolTableRecord
100
AcDbBlockTableRecord
  2
*Model_Space
340
22
  0
BLOCK_RECORD
  5
D2
330
1
100
AcDbSymbolTableRecord
100
AcDbBlockTableRecord
  2
*Paper_Space
340
D3
  0
BLOCK_RECORD
  5
D6
330
1
100
AcDbSymbolTableRecord
100
AcDbBlockTableRecord
  2
*Paper_Space0
340
D7
  0
BLOCK_RECORD
  5
979
102
{ACAD_XDICTIONARY
360
E35
102
}
330
1
100
AcDbSymbolTableRecord
100
AcDbBlockTableRecord
  2
1
340
0
310
2800000020000000200000000100080000000000000400000000000000000000000000000000000000000000000080000080000000808000800000008000800080800000C0C0C000C0DCC000F0CAA6000020400000206000002080000020A0000020C0000020E00000400000004020000040400000406000004080000040A0
310
000040C0000040E00000600000006020000060400000606000006080000060A0000060C0000060E00000800000008020000080400000806000008080000080A0000080C0000080E00000A0000000A0200000A0400000A0600000A0800000A0A00000A0C00000A0E00000C0000000C0200000C0400000C0600000C0800000C0
310
A00000C0C00000C0E00000E0000000E0200000E0400000E0600000E0800000E0A00000E0C00000E0E00040000000400020004000400040006000400080004000A0004000C0004000E00040200000402020004020400040206000402080004020A0004020C0004020E000404000004040200040404000404060004040800040
310
40A0004040C0004040E00040600000406020004060400040606000406080004060A0004060C0004060E00040800000408020004080400040806000408080004080A0004080C0004080E00040A0000040A0200040A0400040A0600040A0800040A0A00040A0C00040A0E00040C0000040C0200040C0400040C0600040C08000
310
40C0A00040C0C00040C0E00040E0000040E0200040E0400040E0600040E0800040E0A00040E0C00040E0E00080000000800020008000400080006000800080008000A0008000C0008000E00080200000802020008020400080206000802080008020A0008020C0008020E00080400000804020008040400080406000804080
310
008040A0008040C0008040E00080600000806020008060400080606000806080008060A0008060C0008060E00080800000808020008080400080806000808080008080A0008080C0008080E00080A0000080A0200080A0400080A0600080A0800080A0A00080A0C00080A0E00080C0000080C0200080C0400080C0600080C0
310
800080C0A00080C0C00080C0E00080E0000080E0200080E0400080E0600080E0800080E0A00080E0C00080E0E000C0000000C0002000C0004000C0006000C0008000C000A000C000C000C000E000C0200000C0202000C0204000C0206000C0208000C020A000C020C000C020E000C0400000C0402000C0404000C0406000C0
310
408000C040A000C040C000C040E000C0600000C0602000C0604000C0606000C0608000C060A000C060C000C060E000C0800000C0802000C0804000C0806000C0808000C080A000C080C000C080E000C0A00000C0A02000C0A04000C0A06000C0A08000C0A0A000C0A0C000C0A0E000C0C00000C0C02000C0C04000C0C06000
310
C0C08000C0C0A000F0FBFF00A4A0A000808080000000FF0000FF000000FFFF00FF000000FF00FF00FFFF0000FFFFFF0000000000000000000000000000000000000000000000000000000000000000000000000000000000000000000000000000000000000000000000000000000000000000000000000000000000000000
310
00000000000000000000000000000000000000FFFF000000000000000000000000000000000000000000000000FFFF000000FF00FFFFFF0000FFFF000000000000000000000000FFFF0000FFFFFF00FF0000FFFFFFFFFF00FFFFFF000000000000000000000000FFFFFF00FFFFFFFFFF0000000000FFFF00FFFF0000000000
310
000000000000000000FFFF00FFFF00000000000000FF00FF00FFFF0000000000000000000000000000FFFF00FF00FF000000000000FFFF0000FFFF0000000000000000000000000000FFFF0000FFFF000000000000FFFFFFFF0000FF00000000000000000000000000FF00FFFFFFFF000000000000FF0000000000FFFFFFFF
310
FFFFFFFFFFFFFFFFFFFF0000000000FF000000000000FF000000000000000000000000000000000000000000000000FF000000000000FF000000000000000000000000000000000000000000000000FF000000000000FF000000000000000000000000000000000000000000000000FF000000000000FF0000000000000000
310
00000000000000000000000000000000FF000000000000FF000000000000000000000000000000000000000000000000FF000000000000FF000000000000000000000000000000000000000000000000FF000000000000FF000000000000000000000000000000000000000000000000FF000000000000FF00000000000000
310
0000000000000000000000000000000000FF000000000000FF000000000000000000000000000000000000000000000000FF000000000000FFFF00000000000000000000000000000000000000000000FFFF0000000000000000FFFF000000000000000000000000000000000000FFFF00000000000000000000FFFF000000
310
000000000000000000000000000000FFFF0000000000000000000000FF000000000000000000000000000000000000FF000000000000000000000000FFFF00000000000000000000000000000000FFFF000000000000000000000000FF000000000000000000000000000000000000FF000000000000000000000000FF0000
310
00000000FFFFFFFFFFFF000000000000FF0000000000000000000000FFFF000000000000FF0000000000FF0000000000FFFF000000000000000000000000FFFFFFFFFFFF000000000000FFFFFFFFFFFF0000000000000000000000000000000000000000000000000000000000000000000000000000000000000000000000
310
0000000000000000000000000000000000000000000000000000000000000000000000000000000000000000000000000000000000000000
102
{BLKREFS
331
A3A
102
}
1001
AcDbDynamicBlockGUID
1000
{F9B99915-0B0C-4DF0-92FF-2585ADF8ADEF}
1001
AcDbBlockRepETag
1070
     1
1071
      190
1001
ACAD
1000
DesignCenter Data
1002
{
1070
     1
1070
     4
1002
}
  0
BLOCK_RECORD
  5
A3B
102
{ACAD_XDICTIONARY
360
ED9
102
}
330
1
100
AcDbSymbolTableRecord
100
AcDbBlockTableRecord
  2
2
340
0
310
2800000020000000200000000100080000000000000400000000000000000000000000000000000000000000000080000080000000808000800000008000800080800000C0C0C000C0DCC000F0CAA6000020400000206000002080000020A0000020C0000020E00000400000004020000040400000406000004080000040A0
310
000040C0000040E00000600000006020000060400000606000006080000060A0000060C0000060E00000800000008020000080400000806000008080000080A0000080C0000080E00000A0000000A0200000A0400000A0600000A0800000A0A00000A0C00000A0E00000C0000000C0200000C0400000C0600000C0800000C0
310
A00000C0C00000C0E00000E0000000E0200000E0400000E0600000E0800000E0A00000E0C00000E0E00040000000400020004000400040006000400080004000A0004000C0004000E00040200000402020004020400040206000402080004020A0004020C0004020E000404000004040200040404000404060004040800040
310
40A0004040C0004040E00040600000406020004060400040606000406080004060A0004060C0004060E00040800000408020004080400040806000408080004080A0004080C0004080E00040A0000040A0200040A0400040A0600040A0800040A0A00040A0C00040A0E00040C0000040C0200040C0400040C0600040C08000
310
40C0A00040C0C00040C0E00040E0000040E0200040E0400040E0600040E0800040E0A00040E0C00040E0E00080000000800020008000400080006000800080008000A0008000C0008000E00080200000802020008020400080206000802080008020A0008020C0008020E00080400000804020008040400080406000804080
310
008040A0008040C0008040E00080600000806020008060400080606000806080008060A0008060C0008060E00080800000808020008080400080806000808080008080A0008080C0008080E00080A0000080A0200080A0400080A0600080A0800080A0A00080A0C00080A0E00080C0000080C0200080C0400080C0600080C0
310
800080C0A00080C0C00080C0E00080E0000080E0200080E0400080E0600080E0800080E0A00080E0C00080E0E000C0000000C0002000C0004000C0006000C0008000C000A000C000C000C000E000C0200000C0202000C0204000C0206000C0208000C020A000C020C000C020E000C0400000C0402000C0404000C0406000C0
310
408000C040A000C040C000C040E000C0600000C0602000C0604000C0606000C0608000C060A000C060C000C060E000C0800000C0802000C0804000C0806000C0808000C080A000C080C000C080E000C0A00000C0A02000C0A04000C0A06000C0A08000C0A0A000C0A0C000C0A0E000C0C00000C0C02000C0C04000C0C06000
310
C0C08000C0C0A000F0FBFF00A4A0A000808080000000FF0000FF000000FFFF00FF000000FF00FF00FFFF0000FFFFFF00000000000000000000000000000000000000000000000000000000000000000000000000000000000000000000FFFFFFFFFFFF0000000000000000000000000000000000000000000000000000FFFF
310
FFFFFFFF0000000000000000000000000000000000000000000000000000FF00000000FF0000000000000000000000000000000000000000000000000000FFFFFFFFFFFF0000000000000000000000000000000000000000000000000000FF00000000FF0000000000000000000000000000000000000000000000000000FF
310
00000000FF0000000000000000000000000000000000000000000000000000FF00000000FF0000000000000000000000000000000000000000000000000000FFFFFFFFFFFF0000000000000000000000000000000000000000000000000000FF00000000FF0000000000000000000000000000000000000000000000000000
310
FFFFFFFFFFFF0000000000000000000000000000000000000000000000000000FF00000000FF0000000000000000000000000000000000000000000000000000FFFFFFFFFFFF0000000000000000000000000000000000000000000000000000FFFFFFFFFFFF00000000000000000000000000000000000000000000000000
310
00FFFFFFFFFFFF0000000000000000000000000000000000000000000000000000FFFF0000FFFF0000000000000000000000000000000000000000000000000000FFFF0000FFFF0000000000000000000000000000000000000000000000000000FFFF0000FFFF000000000000000000000000000000000000000000000000
310
0000FFFFFFFFFFFF0000000000000000000000000000000000000000000000000000FFFFFFFFFFFF0000000000000000000000000000000000000000000000000000FFFFFFFFFFFF0000000000000000000000000000000000000000000000000000FFFFFFFFFFFF0000000000000000000000000000000000000000000000
310
000000FFFFFFFFFFFF0000000000000000000000000000000000000000000000000000FFFFFFFFFFFF0000000000000000000000000000000000000000000000000000FFFFFFFFFFFF0000000000000000000000000000000000000000000000000000FFFFFFFFFFFF00000000000000000000000000000000000000000000
310
00000000FFFFFFFFFFFF0000000000000000000000000000000000000000000000000000FFFFFFFFFFFF0000000000000000000000000000000000000000000000000000FFFFFFFFFFFF0000000000000000000000000000000000000000000000000000FFFFFFFFFFFF000000000000000000000000000000000000000000
310
0000000000FFFFFFFFFFFF000000000000000000000000000000000000000000000000000000000000000000000000000000000000000000
102
{BLKREFS
331
AD7
102
}
1001
AcDbDynamicBlockGUID
1000
{72DF69A5-8B4A-4D6D-9B6E-F2FA5C47EE13}
1001
AcDbBlockRepETag
1070
     1
1071
      153
1001
ACAD
1000
DesignCenter Data
1002
{
1070
     1
1070
     4
1002
}
  0
BLOCK_RECORD
  5
AD8
330
1
100
AcDbSymbolTableRecord
100
AcDbBlockTableRecord
  2
3
340
0
310
2800000020000000200000000100080000000000000400000000000000000000000000000000000000000000000080000080000000808000800000008000800080800000C0C0C000C0DCC000F0CAA6000020400000206000002080000020A0000020C0000020E00000400000004020000040400000406000004080000040A0
310
000040C0000040E00000600000006020000060400000606000006080000060A0000060C0000060E00000800000008020000080400000806000008080000080A0000080C0000080E00000A0000000A0200000A0400000A0600000A0800000A0A00000A0C00000A0E00000C0000000C0200000C0400000C0600000C0800000C0
310
A00000C0C00000C0E00000E0000000E0200000E0400000E0600000E0800000E0A00000E0C00000E0E00040000000400020004000400040006000400080004000A0004000C0004000E00040200000402020004020400040206000402080004020A0004020C0004020E000404000004040200040404000404060004040800040
310
40A0004040C0004040E00040600000406020004060400040606000406080004060A0004060C0004060E00040800000408020004080400040806000408080004080A0004080C0004080E00040A0000040A0200040A0400040A0600040A0800040A0A00040A0C00040A0E00040C0000040C0200040C0400040C0600040C08000
310
40C0A00040C0C00040C0E00040E0000040E0200040E0400040E0600040E0800040E0A00040E0C00040E0E00080000000800020008000400080006000800080008000A0008000C0008000E00080200000802020008020400080206000802080008020A0008020C0008020E00080400000804020008040400080406000804080
310
008040A0008040C0008040E00080600000806020008060400080606000806080008060A0008060C0008060E00080800000808020008080400080806000808080008080A0008080C0008080E00080A0000080A0200080A0400080A0600080A0800080A0A00080A0C00080A0E00080C0000080C0200080C0400080C0600080C0
310
800080C0A00080C0C00080C0E00080E0000080E0200080E0400080E0600080E0800080E0A00080E0C00080E0E000C0000000C0002000C0004000C0006000C0008000C000A000C000C000C000E000C0200000C0202000C0204000C0206000C0208000C020A000C020C000C020E000C0400000C0402000C0404000C0406000C0
310
408000C040A000C040C000C040E000C0600000C0602000C0604000C0606000C0608000C060A000C060C000C060E000C0800000C0802000C0804000C0806000C0808000C080A000C080C000C080E000C0A00000C0A02000C0A04000C0A06000C0A08000C0A0A000C0A0C000C0A0E000C0C00000C0C02000C0C04000C0C06000
310
C0C08000C0C0A000F0FBFF00A4A0A000808080000000FF0000FF000000FFFF00FF000000FF00FF00FFFF0000FFFFFF0000000000000000000000000000000000000000000000000000000000000000000000000000000000000000000000000000000000000000000000000000000000000000000000000000000000000000
310
00000000000000000000000000000000000000000000000000000000000000000000000000000000000000000000000000000000000000000000000000000000000000000000000000000000000000000000000000000000000000000000000000000000000000000000000000000000000000000000000000000000000000
310
00000000000000000000000000000000000000000000000000000000000000000000000000000000000000000000000000000000000000000000000000000000000000000000000000000000000000000000000000000000000000000000000000000000000000000000000000000000000000000000000000000000000000
310
000000000000000000000000000000000000000000000000000000000000000000000000000000000000000000000000000000000000000000000000000000000000000000000000000000000000000000000000FFFFFFFFFFFFFFFFFFFFFFFFFFFFFFFFFFFFFFFFFFFFFFFFFFFFFFFFFFFF0000FFFFFFFFFFFFFF00FFFF00
310
FFFFFFFFFFFFFFFF00FFFF00FFFFFFFFFFFFFF0000FFFFFFFFFFFFFFFFFFFFFFFFFF00FFFF00FFFFFFFFFFFFFFFFFFFFFFFFFF0000FFFFFFFFFFFFFF00FFFF00FFFF00FFFF00FFFF00FFFFFFFFFFFFFFFFFFFF0000FFFFFFFFFFFFFF00FFFF00FFFFFFFFFFFFFFFF00FFFF00FFFFFFFFFFFFFF0000FFFFFFFFFFFFFFFFFFFF
310
FFFFFFFFFFFFFFFFFFFFFFFFFFFFFFFFFFFFFFFF0000000000000000000000000000000000000000000000000000000000000000000000000000000000000000000000000000000000000000000000000000000000000000000000000000000000000000000000000000000000000000000000000000000000000000000000
310
00000000000000000000000000000000000000000000000000000000000000000000000000000000000000000000000000000000000000000000000000000000000000000000000000000000000000000000000000000000000000000000000000000000000000000000000000000000000000000000000000000000000000
310
00000000000000000000000000000000000000000000000000000000000000000000000000000000000000000000000000000000000000000000000000000000000000000000000000000000000000000000000000000000000000000000000000000000000000000000000000000000000000000000000000000000000000
310
0000000000000000000000000000000000000000000000000000000000000000000000000000000000000000000000000000000000000000
102
{BLKREFS
331
BBB
102
}
1001
ACAD
1000
DesignCenter Data
1002
{
1070
     1
1070
     4
1002
}
  0
BLOCK_RECORD
  5
BBC
330
1
100
AcDbSymbolTableRecord
100
AcDbBlockTableRecord
  2
4
340
0
310
2800000020000000200000000100080000000000000400000000000000000000000000000000000000000000000080000080000000808000800000008000800080800000C0C0C000C0DCC000F0CAA6000020400000206000002080000020A0000020C0000020E00000400000004020000040400000406000004080000040A0
310
000040C0000040E00000600000006020000060400000606000006080000060A0000060C0000060E00000800000008020000080400000806000008080000080A0000080C0000080E00000A0000000A0200000A0400000A0600000A0800000A0A00000A0C00000A0E00000C0000000C0200000C0400000C0600000C0800000C0
310
A00000C0C00000C0E00000E0000000E0200000E0400000E0600000E0800000E0A00000E0C00000E0E00040000000400020004000400040006000400080004000A0004000C0004000E00040200000402020004020400040206000402080004020A0004020C0004020E000404000004040200040404000404060004040800040
310
40A0004040C0004040E00040600000406020004060400040606000406080004060A0004060C0004060E00040800000408020004080400040806000408080004080A0004080C0004080E00040A0000040A0200040A0400040A0600040A0800040A0A00040A0C00040A0E00040C0000040C0200040C0400040C0600040C08000
310
40C0A00040C0C00040C0E00040E0000040E0200040E0400040E0600040E0800040E0A00040E0C00040E0E00080000000800020008000400080006000800080008000A0008000C0008000E00080200000802020008020400080206000802080008020A0008020C0008020E00080400000804020008040400080406000804080
310
008040A0008040C0008040E00080600000806020008060400080606000806080008060A0008060C0008060E00080800000808020008080400080806000808080008080A0008080C0008080E00080A0000080A0200080A0400080A0600080A0800080A0A00080A0C00080A0E00080C0000080C0200080C0400080C0600080C0
310
800080C0A00080C0C00080C0E00080E0000080E0200080E0400080E0600080E0800080E0A00080E0C00080E0E000C0000000C0002000C0004000C0006000C0008000C000A000C000C000C000E000C0200000C0202000C0204000C0206000C0208000C020A000C020C000C020E000C0400000C0402000C0404000C0406000C0
310
408000C040A000C040C000C040E000C0600000C0602000C0604000C0606000C0608000C060A000C060C000C060E000C0800000C0802000C0804000C0806000C0808000C080A000C080C000C080E000C0A00000C0A02000C0A04000C0A06000C0A08000C0A0A000C0A0C000C0A0E000C0C00000C0C02000C0C04000C0C06000
310
C0C08000C0C0A000F0FBFF00A4A0A000808080000000FF0000FF000000FFFF00FF000000FF00FF00FFFF0000FFFFFF00000000000000000000000000000000000000000000000000000000000000000000000000000000000000FF0000000000000000000000000000000000000000000000000000000000FFFFFF00000000
310
0000000000000000000000000000000000000000000000FFFFFFFFFFFF0000000000000000000000000000000000000000000000000000FFFFFFFFFFFFFFFF000000000000000000000000000000000000000000000000FFFF000000FFFFFFFF000000000000000000000000000000000000000000000000FF0000FFFFFFFF
310
000000000000000000000000000000000000000000000000FF00FFFFFFFFFFFF000000000000000000000000000000000000000000000000FFFFFFFFFF0000FF00000000000000000000000000000000000000000000000000FF00FFFF000000FF0000000000FFFFFF00000000000000000000000000000000FFFFFFFF0000
310
00FF0000FFFFFFFFFFFFFFFFFF00000000000000000000000000FFFFFFFF00000000FFFFFFFFFFFF00FFFF00FF00000000000000000000000000FFFFFFFF000000000000FFFF000000FFFFFFFF000000000000000000000000FFFFFFFFFF0000000000000000FFFFFFFFFFFFFF000000000000000000000000FFFFFFFFFF00
310
0000000000000000A4FF00FFFF00000000000000000000000000FFFFFFFFFFFF0000000000000000000000FFFF0000000000000000000000000000FFFFFFFFFFFF0000000000000000000000FF0000000000000000000000000000FFFFFFFFFFFF0000000000000000000000FF000000000000000000000000000000FFFFFF
310
00FF0000000000000000000000FF000000000000000000000000000000FF00FFFFFF0000000000000000000000FF000000000000000000000000000000FFFFFFFFFF0000000000000000000000FF000000000000000000000000000000FFFFFFFFFF0000000000000000000000FF000000000000000000000000000000FFFF
310
FFFFFF0000000000000000000000FF000000000000000000000000000000FFFFFFFFFFFFFF00FF000000000000FFFF00000000000000000000000000000000FFFFA4A4FFFFFFFFFFFF000000FFFF000000000000000000000000000000000000FFFFFFFFFFFFFFFFFFFF0000FF000000000000000000000000000000000000
310
000000000000FFFF00FFFF0000FF000000000000000000000000000000000000000000000000FFFFFFFFFFFFFFFFFF0000000000000000000000000000000000000000000000FFFFFFFFFFFF00FF00000000000000000000000000000000000000000000000000FFFFA4A4FFFF000000000000000000000000000000000000
310
00000000000000000000FFFF0000000000000000000000000000000000000000000000000000000000000000000000000000000000000000
102
{BLKREFS
331
D6C
102
}
1001
ACAD
1000
DesignCenter Data
1002
{
1070
     1
1070
     4
1002
}
  0
ENDTAB
  0
ENDSEC
  0
SECTION
  2
BLOCKS
  0
BLOCK
  5
20
330
1F
100
AcDbEntity
  8
0
100
AcDbBlockBegin
  2
*Model_Space
 70
     0
 10
0.0
 20
0.0
 30
0.0
  3
*Model_Space
  1

  0
ENDBLK
  5
21
330
1F
100
AcDbEntity
  8
0
100
AcDbBlockEnd
  0
BLOCK
  5
D4
330
D2
100
AcDbEntity
 67
     1
  8
0
100
AcDbBlockBegin
  2
*Paper_Space
 70
     0
 10
0.0
 20
0.0
 30
0.0
  3
*Paper_Space
  1

  0
ENDBLK
  5
D5
330
D2
100
AcDbEntity
 67
     1
  8
0
100
AcDbBlockEnd
  0
BLOCK
  5
D8
330
D6
100
AcDbEntity
 67
     1
  8
0
100
AcDbBlockBegin
  2
*Paper_Space0
 70
     0
 10
0.0
 20
0.0
 30
0.0
  3
*Paper_Space0
  1

  0
ENDBLK
  5
D9
330
D6
100
AcDbEntity
 67
     1
  8
0
100
AcDbBlockEnd
  0
BLOCK
  5
97A
330
979
100
AcDbEntity
  8
0
100
AcDbBlockBegin
  2
1
 70
     0
 10
0.0
 20
0.0
 30
0.0
  3
1
  1

  0
LINE
  5
D76
330
979
100
AcDbEntity
  8
0
  6
Continuous
 62
     7
370
    15
100
AcDbLine
 10
1418.128196503539
 20
731.7132700568834
 30
0.0
 11
1419.098917748351
 21
731.7132700568834
 31
0.0
1001
AcDbBlockRepETag
1070
     1
1071
        0
1005
D76
  0
ARC
  5
D77
330
979
100
AcDbEntity
  8
0
  6
Continuous
 62
     7
370
    15
100
AcDbCircle
 10
1419.469019634763
 20
725.1216072211223
 30
0.0
 40
0.1999999812802995
100
AcDbArc
 50
94.99999935714511
 51
179.2188758494333
1001
AcDbBlockRepETag
1070
     1
1071
        1
1005
D77
  0
LINE
  5
D78
330
979
100
AcDbEntity
  8
0
  6
Continuous
 62
     7
370
    15
100
AcDbLine
 10
1419.26902940454
 20
724.3702162391343
 30
0.0
 11
1419.26902940454
 21
725.1243342048326
 31
0.0
1001
AcDbBlockRepETag
1070
     1
1071
        2
1005
D78
  0
ARC
  5
D79
330
979
100
AcDbEntity
  8
0
  6
Continuous
 62
     7
370
    15
100
AcDbCircle
 10
1419.469019634763
 20
724.3676268561734
 30
0.0
 40
0.2000005621476245
100
AcDbArc
 50
179.2521595569712
 51
259.9995758391941
1001
AcDbBlockRepETag
1070
     1
1071
        3
1005
D79
  0
LINE
  5
D7A
330
979
100
AcDbEntity
  8
0
  6
Continuous
 62
     7
370
    15
100
AcDbLine
 10
1420.162741448302
 20
724.0422118789354
 30
0.0
 11
1419.434253479858
 21
724.1706598884263
 31
0.0
1001
AcDbBlockRepETag
1070
     1
1071
        4
1005
D7A
  0
ARC
  5
D7B
330
979
100
AcDbEntity
  8
0
  6
Continuous
 62
     7
370
    15
100
AcDbCircle
 10
1420.110645186124
 20
723.7467890734132
 30
0.0
 40
0.2999999719202023
100
AcDbArc
 50
325.0000044558545
 51
80.00003533624898
1001
AcDbBlockRepETag
1070
     1
1071
        5
1005
D7B
  0
LINE
  5
D7C
330
979
100
AcDbEntity
  8
0
  6
Continuous
 62
     7
370
    15
100
AcDbLine
 10
1419.620577599425
 20
722.5239027625718
 30
0.0
 11
1420.356337334533
 21
723.574732649962
 31
0.0
1001
AcDbBlockRepETag
1070
     1
1071
        6
1005
D7C
  0
ARC
  5
D7D
330
979
100
AcDbEntity
  8
0
  6
Continuous
 62
     7
370
    15
100
AcDbCircle
 10
1417.163136451167
 20
724.244616082363
 30
0.0
 40
2.999999719199735
100
AcDbArc
 50
270.0
 51
325.0000044560263
1001
AcDbBlockRepETag
1070
     1
1071
        7
1005
D7D
  0
ARC
  5
D7E
330
979
100
AcDbEntity
  8
0
  6
Continuous
 62
     7
370
    15
100
AcDbCircle
 10
1415.854479556566
 20
722.7446162227631
 30
0.0
 40
1.499999859599938
100
AcDbArc
 50
179.9999999999674
 51
270.0
1001
AcDbBlockRepETag
1070
     1
1071
        8
1005
D7E
  0
LINE
  5
D7F
330
979
100
AcDbEntity
  8
0
  6
Continuous
 62
     7
370
    15
100
AcDbLine
 10
1414.35450723352
 20
724.2498634913792
 30
0.0
 11
1414.35450723352
 21
722.7446187621751
 31
0.0
1001
AcDbBlockRepETag
1070
     1
1071
        9
1005
D7F
  0
ARC
  5
D80
330
979
100
AcDbEntity
  8
0
  6
Continuous
 62
     7
370
    15
100
AcDbCircle
 10
1414.854479650166
 20
724.244616035564
 30
0.0
 40
0.4999999532000459
100
AcDbArc
 50
90.0
 51
180.0
1001
AcDbBlockRepETag
1070
     1
1071
       10
1005
D80
  0
LINE
  5
D81
330
979
100
AcDbEntity
  8
0
  6
Continuous
 62
     7
370
    15
100
AcDbLine
 10
1415.496889855285
 20
724.7446163779893
 30
0.0
 11
1414.854470993896
 21
724.7446163779893
 31
0.0
1001
AcDbBlockRepETag
1070
     1
1071
       11
1005
D81
  0
ARC
  5
D82
330
979
100
AcDbEntity
  8
0
  6
Continuous
 62
     7
370
    15
100
AcDbCircle
 10
1415.496842431298
 20
724.244616035564
 30
0.0
 40
0.4999999532001596
100
AcDbArc
 50
29.99891236625542
 51
90.0
1001
AcDbBlockRepETag
1070
     1
1071
       12
1005
D82
  0
LINE
  5
D83
330
979
100
AcDbEntity
  8
0
  6
Continuous
 62
     7
370
    15
100
AcDbLine
 10
1416.216833004097
 20
723.9975583544567
 30
0.0
 11
1415.929857994933
 21
724.4946344978013
 31
0.0
1001
AcDbBlockRepETag
1070
     1
1071
       13
1005
D83
  0
ARC
  5
D84
330
979
100
AcDbEntity
  8
0
  6
Continuous
 62
     7
370
    15
100
AcDbCircle
 10
1416.478313752557
 20
723.2946161712831
 30
0.0
 40
0.749999929800083
100
AcDbArc
 50
110.4042169845043
 51
270.0
1001
AcDbBlockRepETag
1070
     1
1071
       14
1005
D84
  0
LINE
  5
D85
330
979
100
AcDbEntity
  8
0
  6
Continuous
 62
     7
370
    15
100
AcDbLine
 10
1417.728606964965
 20
722.5446451789537
 30
0.0
 11
1416.478339936156
 21
722.5446451789537
 31
0.0
1001
AcDbBlockRepETag
1070
     1
1071
       15
1005
D85
  0
ARC
  5
D86
330
979
100
AcDbEntity
  8
0
  6
Continuous
 62
     7
370
    15
100
AcDbCircle
 10
1417.728607024988
 20
723.0446161946829
 30
0.0
 40
0.4999999531999322
100
AcDbArc
 50
270.0
 51
14.99891236637481
1001
AcDbBlockRepETag
1070
     1
1071
       16
1005
D86
  0
LINE
  5
D87
330
979
100
AcDbEntity
  8
0
  6
Continuous
 62
     7
370
    15
100
AcDbLine
 10
1416.093413140197
 20
731.0798514968553
 30
0.0
 11
1418.211523796935
 21
723.174010623137
 31
0.0
1001
AcDbBlockRepETag
1070
     1
1071
       17
1005
D87
  0
LINE
  5
D88
330
979
100
AcDbEntity
  8
0
  6
Continuous
 62
     7
370
    15
100
AcDbLine
 10
1416.518990303893
 20
746.7215407973924
 30
0.0
 11
1416.518990303893
 21
732.9132903701463
 31
0.0
1001
AcDbBlockRepETag
1070
     1
1071
       18
1005
D88
  0
ARC
  5
D89
330
979
100
AcDbEntity
  8
0
  6
Continuous
 62
     7
370
    15
100
AcDbCircle
 10
1417.213106415956
 20
748.2502049452984
 30
0.0
 40
0.249999976599775
100
AcDbArc
 50
9.987420827689952
 51
159.9999999997881
1001
AcDbBlockRepETag
1070
     1
1071
       19
1005
D89
  0
LINE
  5
D8A
330
979
100
AcDbEntity
  8
0
  6
Continuous
 62
     7
370
    15
100
AcDbLine
 10
1417.494360710998
 20
748.0945337897935
 30
0.0
 11
1417.45931317987
 21
748.2935536986985
 31
0.0
1001
AcDbBlockRepETag
1070
     1
1071
       20
1005
D8A
  0
LINE
  5
D8B
330
979
100
AcDbEntity
  8
0
  6
Continuous
 62
     7
370
    15
100
AcDbLine
 10
1417.964402939696
 20
747.9234684592881
 30
0.0
 11
1417.494360710998
 21
748.0945337897935
 31
0.0
1001
AcDbBlockRepETag
1070
     1
1071
       21
1005
D8B
  0
ARC
  5
D8C
330
979
100
AcDbEntity
  8
0
  6
Continuous
 62
     7
370
    15
100
AcDbCircle
 10
1412.398016342656
 20
752.8559496014298
 30
0.0
 40
7.499998617200644
100
AcDbArc
 50
325.0000431282727
 51
340.0006066546309
1001
AcDbBlockRepETag
1070
     1
1071
       22
1005
D8C
  0
LINE
  5
D8D
330
979
100
AcDbEntity
  8
0
  6
Continuous
 62
     7
370
    15
100
AcDbLine
 10
1419.573013092895
 20
750.6405461913743
 30
0.0
 11
1419.445697571654
 21
750.2908457404771
 31
0.0
1001
AcDbBlockRepETag
1070
     1
1071
       23
1005
D8D
  0
ARC
  5
D8E
330
979
100
AcDbEntity
  8
0
  6
Continuous
 62
     7
370
    15
100
AcDbCircle
 10
1419.760948961381
 20
750.5721624504376
 30
0.0
 40
0.1999999812820339
100
AcDbArc
 50
72.49716849131226
 51
160.0018295892822
1001
AcDbBlockRepETag
1070
     1
1071
       24
1005
D8E
  0
LINE
  5
D8F
330
979
100
AcDbEntity
  8
0
  6
Continuous
 62
     7
370
    15
100
AcDbLine
 10
1420.403544213195
 20
750.5792130119004
 30
0.0
 11
1419.82108762445
 21
750.7629145270982
 31
0.0
1001
AcDbBlockRepETag
1070
     1
1071
       25
1005
D8F
  0
ARC
  5
D90
330
979
100
AcDbEntity
  8
0
  6
Continuous
 62
     7
370
    15
100
AcDbCircle
 10
1420.343379083585
 20
750.3884912931687
 30
0.0
 40
0.19999998128068
100
AcDbArc
 50
340.0018116730791
 51
72.49716849072317
1001
AcDbBlockRepETag
1070
     1
1071
       26
1005
D90
  0
LINE
  5
D91
330
979
100
AcDbEntity
  8
0
  6
Continuous
 62
     7
370
    15
100
AcDbLine
 10
1420.518104340453
 20
750.2838123923936
 30
0.0
 11
1420.531336571593
 21
750.3201116210618
 31
0.0
1001
AcDbBlockRepETag
1070
     1
1071
       27
1005
D91
  0
ARC
  5
D92
330
979
100
AcDbEntity
  8
0
  6
Continuous
 62
     7
370
    15
100
AcDbCircle
 10
1420.659075645651
 20
750.2325254568541
 30
0.0
 40
0.1499999859601529
100
AcDbArc
 50
160.001811673015
 51
249.9990546469155
1001
AcDbBlockRepETag
1070
     1
1071
       28
1005
D92
  0
ARC
  5
D93
330
979
100
AcDbEntity
  8
0
  6
Continuous
 62
     7
370
    15
100
AcDbCircle
 10
1421.106478175643
 20
750.1228850964958
 30
0.0
 40
0.1999999812805118
100
AcDbArc
 50
249.9990546465427
 51
339.9760117299511
1001
AcDbBlockRepETag
1070
     1
1071
       29
1005
D93
  0
LINE
  5
D94
330
979
100
AcDbEntity
  8
0
  6
Continuous
 62
     7
370
    15
100
AcDbLine
 10
1421.313945557494
 20
750.1080978995958
 30
0.0
 11
1421.294395234008
 21
750.0543941146531
 31
0.0
1001
AcDbBlockRepETag
1070
     1
1071
       30
1005
D94
  0
ARC
  5
D95
330
979
100
AcDbEntity
  8
0
  6
Continuous
 62
     7
370
    15
100
AcDbCircle
 10
1420.057914078115
 20
750.4694922393814
 30
0.0
 40
1.30699955476611
100
AcDbArc
 50
343.9476952006665
 51
25.08991072651874
1001
AcDbBlockRepETag
1070
     1
1071
       31
1005
D95
  0
ARC
  5
D96
330
979
100
AcDbEntity
  8
0
  6
Continuous
 62
     7
370
    15
100
AcDbCircle
 10
1422.147232314086
 20
751.4477538724061
 30
0.0
 40
0.9999999063992454
100
AcDbArc
 50
165.1304631624041
 51
205.0900175511676
1001
AcDbBlockRepETag
1070
     1
1071
       32
1005
D96
  0
ARC
  5
D97
330
979
100
AcDbEntity
  8
0
  6
Continuous
 62
     7
370
    15
100
AcDbCircle
 10
1430.845842531957
 20
749.1381727167903
 30
0.0
 40
9.999999064000119
100
AcDbArc
 50
154.8687641784856
 51
165.1303990951623
1001
AcDbBlockRepETag
1070
     1
1071
       33
1005
D97
  0
ARC
  5
D98
330
979
100
AcDbEntity
  8
0
  6
Continuous
 62
     7
370
    15
100
AcDbCircle
 10
1422.697806653841
 20
752.9604097797857
 30
0.0
 40
0.9999999063999355
100
AcDbArc
 50
114.9092476854733
 51
154.8687641784565
1001
AcDbBlockRepETag
1070
     1
1071
       34
1005
D98
  0
ARC
  5
D99
330
979
100
AcDbEntity
  8
0
  6
Continuous
 62
     7
370
    15
100
AcDbCircle
 10
1421.726138424924
 20
755.0528054072072
 30
0.0
 40
1.30700217611763
100
AcDbArc
 50
294.9092476854296
 51
336.0516658364265
1001
AcDbBlockRepETag
1070
     1
1071
       35
1005
D99
  0
LINE
  5
D9A
330
979
100
AcDbEntity
  8
0
  6
Continuous
 62
     7
370
    15
100
AcDbLine
 10
1422.940198685546
 20
754.5758832580247
 30
0.0
 11
1422.92064836206
 21
754.5222986823716
 31
0.0
1001
AcDbBlockRepETag
1070
     1
1071
       36
1005
D9A
  0
ARC
  5
D9B
330
979
100
AcDbEntity
  8
0
  6
Continuous
 62
     7
370
    15
100
AcDbCircle
 10
1422.752206299727
 20
754.6443041124559
 30
0.0
 40
0.1999999812805321
100
AcDbArc
 50
339.9959880322025
 51
70.00415457169321
1001
AcDbBlockRepETag
1070
     1
1071
       37
1005
D9B
  0
LINE
  5
D9C
330
979
100
AcDbEntity
  8
0
  6
Continuous
 62
     7
370
    15
100
AcDbLine
 10
1422.390286232848
 20
754.9888242370286
 30
0.0
 11
1422.820631768127
 21
754.8322428352037
 31
0.0
1001
AcDbBlockRepETag
1070
     1
1071
       38
1005
D9C
  0
ARC
  5
D9D
330
979
100
AcDbEntity
  8
0
  6
Continuous
 62
     7
370
    15
100
AcDbCircle
 10
1422.338950941987
 20
754.8478903070535
 30
0.0
 40
0.1499999859603949
100
AcDbArc
 50
70.00415457190134
 51
159.8803668594784
1001
AcDbBlockRepETag
1070
     1
1071
       39
1005
D9D
  0
LINE
  5
D9E
330
979
100
AcDbEntity
  8
0
  6
Continuous
 62
     7
370
    15
100
AcDbLine
 10
1422.184650208373
 20
754.8627604133287
 30
0.0
 11
1422.198120858092
 21
754.8994768745103
 31
0.0
1001
AcDbBlockRepETag
1070
     1
1071
       40
1005
D9E
  0
ARC
  5
D9F
330
979
100
AcDbEntity
  8
0
  6
Continuous
 62
     7
370
    15
100
AcDbCircle
 10
1421.996854757772
 20
754.9315567648132
 30
0.0
 40
0.1999999812802266
100
AcDbArc
 50
247.4997188402809
 51
339.8803668592909
1001
AcDbBlockRepETag
1070
     1
1071
       41
1005
D9F
  0
LINE
  5
DA0
330
979
100
AcDbEntity
  8
0
  6
Continuous
 62
     7
370
    15
100
AcDbLine
 10
1421.356145645995
 20
754.9804795867601
 30
0.0
 11
1421.920363213439
 21
754.7467697745958
 31
0.0
1001
AcDbBlockRepETag
1070
     1
1071
       42
1005
DA0
  0
LINE
  5
DA1
330
979
100
AcDbEntity
  8
0
  6
Continuous
 62
     7
370
    15
100
AcDbLine
 10
1421.289030815978
 20
758.5201610213914
 30
0.0
 11
1421.760384346862
 21
758.3485592490831
 31
0.0
1001
AcDbBlockRepETag
1070
     1
1071
       43
1005
DA1
  0
LINE
  5
DA2
330
979
100
AcDbEntity
  8
0
  6
Continuous
 62
     7
370
    15
100
AcDbLine
 10
1421.134177948852
 20
758.3901632911363
 30
0.0
 11
1421.289030815978
 21
758.5201610213914
 31
0.0
1001
AcDbBlockRepETag
1070
     1
1071
       44
1005
DA2
  0
ARC
  5
DA3
330
979
100
AcDbEntity
  8
0
  6
Continuous
 62
     7
370
    15
100
AcDbCircle
 10
1420.973463770279
 20
758.5817018653888
 30
0.0
 40
0.2499999766000623
100
AcDbArc
 50
159.9999999999985
 51
310.0002479389366
1001
AcDbBlockRepETag
1070
     1
1071
       45
1005
DA3
  0
LINE
  5
DA4
330
979
100
AcDbEntity
  8
0
  6
Continuous
 62
     7
370
    15
100
AcDbLine
 10
1421.197716500182
 20
759.9286783820787
 30
0.0
 11
1420.738522316833
 21
758.6672056800523
 31
0.0
1001
AcDbBlockRepETag
1070
     1
1071
       46
1005
DA4
  0
ARC
  5
DA5
330
979
100
AcDbEntity
  8
0
  6
Continuous
 62
     7
370
    15
100
AcDbCircle
 10
1423.077054548284
 20
759.2446128063629
 30
0.0
 40
1.999999812799757
100
AcDbArc
 50
90.0
 51
160.0000000000046
1001
AcDbBlockRepETag
1070
     1
1071
       47
1005
DA5
  0
LINE
  5
DA6
330
979
100
AcDbEntity
  8
0
  6
Continuous
 62
     7
370
    15
100
AcDbLine
 10
1430.87095430078
 20
761.2446297294297
 30
0.0
 11
1423.07705094995
 21
761.2446297294297
 31
0.0
1001
AcDbBlockRepETag
1070
     1
1071
       48
1005
DA6
  0
ARC
  5
DA7
330
979
100
AcDbEntity
  8
0
  6
Continuous
 62
     7
370
    15
100
AcDbCircle
 10
1430.870917153883
 20
760.2446152222133
 30
0.0
 40
0.9999973969465846
100
AcDbArc
 50
29.99992073013212
 51
90.00003074661201
1001
AcDbBlockRepETag
1070
     1
1071
       49
1005
DA7
  0
LINE
  5
DA8
330
979
100
AcDbEntity
  8
0
  6
Continuous
 62
     7
370
    15
100
AcDbLine
 10
1433.345977570434
 20
757.957671988646
 30
0.0
 11
1431.736890580077
 21
760.744606364409
 31
0.0
1001
AcDbBlockRepETag
1070
     1
1071
       50
1005
DA8
  0
ARC
  5
DA9
330
979
100
AcDbEntity
  8
0
  6
Continuous
 62
     7
370
    15
100
AcDbCircle
 10
1434.210310604039
 20
758.456686563349
 30
0.0
 40
0.9980236219995219
100
AcDbArc
 50
210.0002530468218
 51
270.0
1001
AcDbBlockRepETag
1070
     1
1071
       51
1005
DA9
  0
LINE
  5
DAA
330
979
100
AcDbEntity
  8
0
  6
Continuous
 62
     7
370
    15
100
AcDbLine
 10
1438.827697541137
 20
757.4586619025865
 30
0.0
 11
1434.210364128967
 21
757.4586619025865
 31
0.0
1001
AcDbBlockRepETag
1070
     1
1071
       52
1005
DAA
  0
ARC
  5
DAB
330
979
100
AcDbEntity
  8
0
  6
Continuous
 62
     7
370
    15
100
AcDbCircle
 10
1438.827753119564
 20
758.456686563349
 30
0.0
 40
0.998023621999863
100
AcDbArc
 50
270.0
 51
329.9997469531136
1001
AcDbBlockRepETag
1070
     1
1071
       53
1005
DAB
  0
LINE
  5
DAC
330
979
100
AcDbEntity
  8
0
  6
Continuous
 62
     7
370
    15
100
AcDbLine
 10
1441.301171090026
 20
760.744606364409
 30
0.0
 11
1439.69208409967
 21
757.957671988646
 31
0.0
1001
AcDbBlockRepETag
1070
     1
1071
       54
1005
DAC
  0
ARC
  5
DAD
330
979
100
AcDbEntity
  8
0
  6
Continuous
 62
     7
370
    15
100
AcDbCircle
 10
1442.16714656972
 20
760.2446152222133
 30
0.0
 40
0.9999973969499304
100
AcDbArc
 50
89.99997509529404
 51
150.0001572209272
1001
AcDbBlockRepETag
1070
     1
1071
       55
1005
DAD
  0
ARC
  5
DAE
330
979
100
AcDbEntity
  8
0
  6
Continuous
 62
     7
370
    15
100
AcDbCircle
 10
1449.961009175321
 20
759.2446128063629
 30
0.0
 40
1.99999981279987
100
AcDbArc
 50
20.00000000000148
 51
90.0
1001
AcDbBlockRepETag
1070
     1
1071
       56
1005
DAE
  0
ARC
  5
DAF
330
979
100
AcDbEntity
  8
0
  6
Continuous
 62
     7
370
    15
100
AcDbCircle
 10
1452.064599953324
 20
758.5817018653888
 30
0.0
 40
0.2499999765999099
100
AcDbArc
 50
229.9997520610451
 51
19.99999999999536
1001
AcDbBlockRepETag
1070
     1
1071
       57
1005
DAF
  0
LINE
  5
DB0
330
979
100
AcDbEntity
  8
0
  6
Continuous
 62
     7
370
    15
100
AcDbLine
 10
1451.117698456664
 20
754.7467697745958
 30
0.0
 11
1451.681916024108
 21
754.9804795867601
 31
0.0
1001
AcDbBlockRepETag
1070
     1
1071
       58
1005
DB0
  0
ARC
  5
DB1
330
979
100
AcDbEntity
  8
0
  6
Continuous
 62
     7
370
    15
100
AcDbCircle
 10
1451.041208965831
 20
754.9315567648132
 30
0.0
 40
0.1999999812802786
100
AcDbArc
 50
200.1196331407381
 51
292.5002811468869
1001
AcDbBlockRepETag
1070
     1
1071
       59
1005
DB1
  0
LINE
  5
DB2
330
979
100
AcDbEntity
  8
0
  6
Continuous
 62
     7
370
    15
100
AcDbLine
 10
1450.839940812011
 20
754.8994768745103
 30
0.0
 11
1450.85341146173
 21
754.8627604133287
 31
0.0
1001
AcDbBlockRepETag
1070
     1
1071
       60
1005
DB2
  0
ARC
  5
DB3
330
979
100
AcDbEntity
  8
0
  6
Continuous
 62
     7
370
    15
100
AcDbCircle
 10
1450.699112781616
 20
754.8478903070535
 30
0.0
 40
0.1499999859588276
100
AcDbArc
 50
20.11963314079596
 51
109.9958454282077
1001
AcDbBlockRepETag
1070
     1
1071
       61
1005
DB3
  0
LINE
  5
DB4
330
979
100
AcDbEntity
  8
0
  6
Continuous
 62
     7
370
    15
100
AcDbLine
 10
1450.217429901977
 20
754.8322428352037
 30
0.0
 11
1450.647775437255
 21
754.9888242370286
 31
0.0
1001
AcDbBlockRepETag
1070
     1
1071
       62
1005
DB4
  0
ARC
  5
DB5
330
979
100
AcDbEntity
  8
0
  6
Continuous
 62
     7
370
    15
100
AcDbCircle
 10
1450.285857423876
 20
754.6443041124559
 30
0.0
 40
0.1999999812803318
100
AcDbArc
 50
109.9958454282778
 51
200.0040119678265
1001
AcDbBlockRepETag
1070
     1
1071
       63
1005
DB5
  0
LINE
  5
DB6
330
979
100
AcDbEntity
  8
0
  6
Continuous
 62
     7
370
    15
100
AcDbLine
 10
1450.117413308044
 20
754.5222986823716
 30
0.0
 11
1450.097982193847
 21
754.5758832580247
 31
0.0
1001
AcDbBlockRepETag
1070
     1
1071
       64
1005
DB6
  0
ARC
  5
DB7
330
979
100
AcDbEntity
  8
0
  6
Continuous
 62
     7
370
    15
100
AcDbCircle
 10
1451.31192529868
 20
755.0528054072072
 30
0.0
 40
1.307002176117884
100
AcDbArc
 50
203.9483341635794
 51
245.0907523145822
1001
AcDbBlockRepETag
1070
     1
1071
       65
1005
DB7
  0
ARC
  5
DB8
330
979
100
AcDbEntity
  8
0
  6
Continuous
 62
     7
370
    15
100
AcDbCircle
 10
1450.340257069762
 20
752.9604097797857
 30
0.0
 40
0.9999999064000254
100
AcDbArc
 50
25.13123582154938
 51
65.09075231452669
1001
AcDbBlockRepETag
1070
     1
1071
       66
1005
DB8
  0
ARC
  5
DB9
330
979
100
AcDbEntity
  8
0
  6
Continuous
 62
     7
370
    15
100
AcDbCircle
 10
1442.192221191646
 20
749.1381727167903
 30
0.0
 40
9.999999064000553
100
AcDbArc
 50
14.86960019298276
 51
25.13123582151436
1001
AcDbBlockRepETag
1070
     1
1071
       67
1005
DB9
  0
ARC
  5
DBA
330
979
100
AcDbEntity
  8
0
  6
Continuous
 62
     7
370
    15
100
AcDbCircle
 10
1450.890831409515
 20
751.4477538724061
 30
0.0
 40
0.9999999064022956
100
AcDbArc
 50
334.9099923721366
 51
14.8695297189832
1001
AcDbBlockRepETag
1070
     1
1071
       68
1005
DBA
  0
ARC
  5
DBB
330
979
100
AcDbEntity
  8
0
  6
Continuous
 62
     7
370
    15
100
AcDbCircle
 10
1452.980149645491
 20
750.4694922393814
 30
0.0
 40
1.306999554765955
100
AcDbArc
 50
154.9100816811201
 51
196.0523047994122
1001
AcDbBlockRepETag
1070
     1
1071
       69
1005
DBB
  0
LINE
  5
DBC
330
979
100
AcDbEntity
  8
0
  6
Continuous
 62
     7
370
    15
100
AcDbLine
 10
1451.743666436095
 20
750.0543941146531
 30
0.0
 11
1451.724116112609
 21
750.1080978995958
 31
0.0
1001
AcDbBlockRepETag
1070
     1
1071
       70
1005
DBC
  0
ARC
  5
DBD
330
979
100
AcDbEntity
  8
0
  6
Continuous
 62
     7
370
    15
100
AcDbCircle
 10
1451.93158554796
 20
750.1228850964958
 30
0.0
 40
0.199999981280011
100
AcDbArc
 50
200.0239882700611
 51
290.0009453529609
1001
AcDbBlockRepETag
1070
     1
1071
       71
1005
DBD
  0
LINE
  5
DBE
330
979
100
AcDbEntity
  8
0
  6
Continuous
 62
     7
370
    15
100
AcDbLine
 10
1452.430311943908
 20
750.091587412993
 30
0.0
 11
1451.99996640863
 21
749.9349464065232
 31
0.0
1001
AcDbBlockRepETag
1070
     1
1071
       72
1005
DBE
  0
ARC
  5
DBF
330
979
100
AcDbEntity
  8
0
  6
Continuous
 62
     7
370
    15
100
AcDbCircle
 10
1452.378988077951
 20
750.2325254568541
 30
0.0
 40
0.1499999859596835
100
AcDbArc
 50
290.0009453531668
 51
19.99818832698498
1001
AcDbBlockRepETag
1070
     1
1071
       73
1005
DBF
  0
LINE
  5
DC0
330
979
100
AcDbEntity
  8
0
  6
Continuous
 62
     7
370
    15
100
AcDbLine
 10
1452.50672509851
 20
750.3201116210618
 30
0.0
 11
1452.51995732965
 21
750.2838123923936
 31
0.0
1001
AcDbBlockRepETag
1070
     1
1071
       74
1005
DC0
  0
ARC
  5
DC1
330
979
100
AcDbEntity
  8
0
  6
Continuous
 62
     7
370
    15
100
AcDbCircle
 10
1452.694684640019
 20
750.3884912931687
 30
0.0
 40
0.1999999812808936
100
AcDbArc
 50
107.5028315093304
 51
199.9981883269026
1001
AcDbBlockRepETag
1070
     1
1071
       75
1005
DC1
  0
LINE
  5
DC2
330
979
100
AcDbEntity
  8
0
  6
Continuous
 62
     7
370
    15
100
AcDbLine
 10
1453.216974045654
 20
750.7629145270982
 30
0.0
 11
1452.634517456908
 21
750.5792130119004
 31
0.0
1001
AcDbBlockRepETag
1070
     1
1071
       76
1005
DC2
  0
ARC
  5
DC3
330
979
100
AcDbEntity
  8
0
  6
Continuous
 62
     7
370
    15
100
AcDbCircle
 10
1453.277114762222
 20
750.5721624504376
 30
0.0
 40
0.1999999812729311
100
AcDbArc
 50
19.9990876154423
 51
107.5028315086877
1001
AcDbBlockRepETag
1070
     1
1071
       77
1005
DC3
  0
LINE
  5
DC4
330
979
100
AcDbEntity
  8
0
  6
Continuous
 62
     7
370
    15
100
AcDbLine
 10
1453.592364098449
 20
750.2908457404771
 30
0.0
 11
1453.465048577209
 21
750.6405461913743
 31
0.0
1001
AcDbBlockRepETag
1070
     1
1071
       78
1005
DC4
  0
ARC
  5
DC5
330
979
100
AcDbEntity
  8
0
  6
Continuous
 62
     7
370
    15
100
AcDbCircle
 10
1460.640047380947
 20
752.8559496014298
 30
0.0
 40
7.499998617188005
100
AcDbArc
 50
199.9993933453691
 51
214.9999910264866
1001
AcDbBlockRepETag
1070
     1
1071
       79
1005
DC5
  0
LINE
  5
DC6
330
979
100
AcDbEntity
  8
0
  6
Continuous
 62
     7
370
    15
100
AcDbLine
 10
1455.543700959106
 20
748.0945337897935
 30
0.0
 11
1455.073658730407
 21
747.9234684592881
 31
0.0
1001
AcDbBlockRepETag
1070
     1
1071
       80
1005
DC6
  0
LINE
  5
DC7
330
979
100
AcDbEntity
  8
0
  6
Continuous
 62
     7
370
    15
100
AcDbLine
 10
1455.578748490234
 20
748.2935536986985
 30
0.0
 11
1455.543700959106
 21
748.0945337897935
 31
0.0
1001
AcDbBlockRepETag
1070
     1
1071
       81
1005
DC7
  0
ARC
  5
DC8
330
979
100
AcDbEntity
  8
0
  6
Continuous
 62
     7
370
    15
100
AcDbCircle
 10
1455.824957307646
 20
748.2502049452984
 30
0.0
 40
0.2499999765999065
100
AcDbArc
 50
20.00000000005324
 51
170.0125791722587
1001
AcDbBlockRepETag
1070
     1
1071
       82
1005
DC8
  0
LINE
  5
DC9
330
979
100
AcDbEntity
  8
0
  6
Continuous
 62
     7
370
    15
100
AcDbLine
 10
1456.398431565185
 20
747.4055637008348
 30
0.0
 11
1456.059877182861
 21
748.3356941825547
 31
0.0
1001
AcDbBlockRepETag
1070
     1
1071
       83
1005
DC9
  0
ARC
  5
DCA
330
979
100
AcDbEntity
  8
0
  6
Continuous
 62
     7
370
    15
100
AcDbCircle
 10
1454.519030177001
 20
746.7215530268328
 30
0.0
 40
1.999999812800578
100
AcDbArc
 50
0.0
 51
19.99999999995418
1001
AcDbBlockRepETag
1070
     1
1071
       84
1005
DCA
  0
LINE
  5
DCB
330
979
100
AcDbEntity
  8
0
  6
Continuous
 62
     7
370
    15
100
AcDbLine
 10
1456.51907136621
 20
732.9132903701463
 30
0.0
 11
1456.51907136621
 21
746.7215407973924
 31
0.0
1001
AcDbBlockRepETag
1070
     1
1071
       85
1005
DCB
  0
ARC
  5
DCC
330
979
100
AcDbEntity
  8
0
  6
Continuous
 62
     7
370
    15
100
AcDbCircle
 10
1455.012832544876
 20
731.5974574367684
 30
0.0
 40
1.999999813082186
100
AcDbArc
 50
345.0010876336504
 51
41.14047736200565
1001
AcDbBlockRepETag
1070
     1
1071
       86
1005
DCC
  0
LINE
  5
DCD
330
979
100
AcDbEntity
  8
0
  6
Continuous
 62
     7
370
    15
100
AcDbLine
 10
1454.824771193082
 20
723.1674164956825
 30
0.0
 11
1456.944648529906
 21
731.0798514968553
 31
0.0
1001
AcDbBlockRepETag
1070
     1
1071
       87
1005
DCD
  0
ARC
  5
DCE
330
979
100
AcDbEntity
  8
0
  6
Continuous
 62
     7
370
    15
100
AcDbCircle
 10
1455.309456698616
 20
723.0446161946829
 30
0.0
 40
0.4999999531999322
100
AcDbArc
 50
165.0010876336252
 51
270.0
1001
AcDbBlockRepETag
1070
     1
1071
       88
1005
DCE
  0
LINE
  5
DCF
330
979
100
AcDbEntity
  8
0
  6
Continuous
 62
     7
370
    15
100
AcDbLine
 10
1456.559721733947
 20
722.5446451789537
 30
0.0
 11
1455.309454705138
 21
722.5446451789537
 31
0.0
1001
AcDbBlockRepETag
1070
     1
1071
       89
1005
DCF
  0
ARC
  5
DD0
330
979
100
AcDbEntity
  8
0
  6
Continuous
 62
     7
370
    15
100
AcDbCircle
 10
1456.559749971047
 20
723.2946161712831
 30
0.0
 40
0.749999929800083
100
AcDbArc
 50
270.0
 51
69.59592080293163
1001
AcDbBlockRepETag
1070
     1
1071
       90
1005
DD0
  0
LINE
  5
DD1
330
979
100
AcDbEntity
  8
0
  6
Continuous
 62
     7
370
    15
100
AcDbLine
 10
1457.10820367517
 20
724.4946344978013
 30
0.0
 11
1456.82122902904
 21
723.997558983275
 31
0.0
1001
AcDbBlockRepETag
1070
     1
1071
       91
1005
DD1
  0
ARC
  5
DD2
330
979
100
AcDbEntity
  8
0
  6
Continuous
 62
     7
370
    15
100
AcDbCircle
 10
1457.541221292306
 20
724.244616035564
 30
0.0
 40
0.4999999531993922
100
AcDbArc
 50
90.0
 51
150.0010876336274
1001
AcDbBlockRepETag
1070
     1
1071
       92
1005
DD2
  0
LINE
  5
DD3
330
979
100
AcDbEntity
  8
0
  6
Continuous
 62
     7
370
    15
100
AcDbLine
 10
1458.183590676208
 20
724.7446163779893
 30
0.0
 11
1457.541171814819
 21
724.7446163779893
 31
0.0
1001
AcDbBlockRepETag
1070
     1
1071
       93
1005
DD3
  0
ARC
  5
DD4
330
979
100
AcDbEntity
  8
0
  6
Continuous
 62
     7
370
    15
100
AcDbCircle
 10
1457.183584167039
 20
722.7446162227631
 30
0.0
 40
1.499999859599938
100
AcDbArc
 50
270.0
 51
0.0000000000325689
1001
AcDbBlockRepETag
1070
     1
1071
       94
1005
DD4
  0
ARC
  5
DD5
330
979
100
AcDbEntity
  8
0
  6
Continuous
 62
     7
370
    15
100
AcDbCircle
 10
1453.569044088841
 20
724.3676268561734
 30
0.0
 40
0.1999999812828411
100
AcDbArc
 50
279.9999936139224
 51
0.7812300496870314
1001
AcDbBlockRepETag
1070
     1
1071
       95
1005
DD5
  0
LINE
  5
DD6
330
979
100
AcDbEntity
  8
0
  6
Continuous
 62
     7
370
    15
100
AcDbLine
 10
1453.769032265563
 20
725.124214995543
 30
0.0
 11
1453.769032265563
 21
724.3703354484239
 31
0.0
1001
AcDbBlockRepETag
1070
     1
1071
       96
1005
DD6
  0
ARC
  5
DD7
330
979
100
AcDbEntity
  8
0
  6
Continuous
 62
     7
370
    15
100
AcDbCircle
 10
1452.622737371727
 20
725.708416284206
 30
0.0
 40
0.302098426550392
100
AcDbArc
 50
179.999141391015
 51
265.0000522400793
1001
AcDbBlockRepETag
1070
     1
1071
       97
1005
DD7
  0
LINE
  5
DD8
330
979
100
AcDbEntity
  8
0
  6
Continuous
 62
     7
370
    15
100
AcDbLine
 10
1452.320639397521
 20
727.5135267860093
 30
0.0
 11
1452.320639397521
 21
725.7084001189866
 31
0.0
1001
AcDbBlockRepETag
1070
     1
1071
       98
1005
DD8
  0
ARC
  5
DD9
330
979
100
AcDbEntity
  8
0
  6
Continuous
 62
     7
370
    15
100
AcDbCircle
 10
1454.90989828218
 20
731.213272365993
 30
0.0
 40
0.4999999532011443
100
AcDbArc
 50
345.0010876337926
 51
90.0
1001
AcDbBlockRepETag
1070
     1
1071
       99
1005
DD9
  0
ARC
  5
DDA
330
979
100
AcDbEntity
  8
0
  6
Continuous
 62
     7
370
    15
100
AcDbCircle
 10
1453.939162821029
 20
730.713272412793
 30
0.0
 40
0.9999999064000732
100
AcDbArc
 50
90.0
 51
120.0000000000005
1001
AcDbBlockRepETag
1070
     1
1071
      100
1005
DDA
  0
ARC
  5
DDB
330
979
100
AcDbEntity
  8
0
  6
Continuous
 62
     7
370
    15
100
AcDbCircle
 10
1450.87363556848
 20
728.9433894283256
 30
0.0
 40
0.9999999064001045
100
AcDbArc
 50
119.999999999986
 51
169.9993685197723
1001
AcDbBlockRepETag
1070
     1
1071
      101
1005
DDB
  0
ARC
  5
DDC
330
979
100
AcDbEntity
  8
0
  6
Continuous
 62
     7
370
    15
100
AcDbCircle
 10
1426.719032779081
 20
732.605416760369
 30
0.0
 40
0.499999953199378
100
AcDbArc
 50
90.0
 51
180.0
1001
AcDbBlockRepETag
1070
     1
1071
      102
1005
DDC
  0
LINE
  5
DDD
330
979
100
AcDbEntity
  8
0
  6
Continuous
 62
     7
370
    15
100
AcDbLine
 10
1426.21905019464
 20
732.1107734328904
 30
0.0
 11
1426.21905019464
 21
732.6054323798814
 31
0.0
1001
AcDbBlockRepETag
1070
     1
1071
      103
1005
DDD
  0
ARC
  5
DDE
330
979
100
AcDbEntity
  8
0
  6
Continuous
 62
     7
370
    15
100
AcDbCircle
 10
1424.019033031801
 20
732.1107968835114
 30
0.0
 40
2.199999794081591
100
AcDbArc
 50
294.9139958078874
 51
0.0
1001
AcDbBlockRepETag
1070
     1
1071
      104
1005
DDE
  0
ARC
  5
DDF
330
979
100
AcDbEntity
  8
0
  6
Continuous
 62
     7
370
    15
100
AcDbCircle
 10
1425.367056480353
 20
729.2085855085023
 30
0.0
 40
0.9999999063999583
100
AcDbArc
 50
114.9139958079165
 51
189.9999946998578
1001
AcDbBlockRepETag
1070
     1
1071
      105
1005
DDF
  0
LINE
  5
DE0
330
979
100
AcDbEntity
  8
0
  6
Continuous
 62
     7
370
    15
100
AcDbLine
 10
1425.074164177795
 20
725.111221182982
 30
0.0
 11
1424.382273461242
 21
729.0349353439012
 31
0.0
1001
AcDbBlockRepETag
1070
     1
1071
      106
1005
DE0
  0
ARC
  5
DE1
330
979
100
AcDbEntity
  8
0
  6
Continuous
 62
     7
370
    15
100
AcDbCircle
 10
1426.058915561419
 20
725.2848555578542
 30
0.0
 40
0.9999999063998725
100
AcDbArc
 50
189.9999946999114
 51
270.0007012399808
1001
AcDbBlockRepETag
1070
     1
1071
      107
1005
DE1
  0
LINE
  5
DE2
330
979
100
AcDbEntity
  8
0
  6
Continuous
 62
     7
370
    15
100
AcDbLine
 10
1426.381174828429
 20
724.284862387816
 30
0.0
 11
1426.058952118774
 21
724.284862387816
 31
0.0
1001
AcDbBlockRepETag
1070
     1
1071
      108
1005
DE2
  0
ARC
  5
DE3
330
979
100
AcDbEntity
  8
0
  6
Continuous
 62
     7
370
    15
100
AcDbCircle
 10
1426.38113924521
 20
723.7848596418201
 30
0.0
 40
0.4999999531998635
100
AcDbArc
 50
0.0
 51
90.00070123987653
1001
AcDbBlockRepETag
1070
     1
1071
      109
1005
DE3
  0
LINE
  5
DE4
330
979
100
AcDbEntity
  8
0
  6
Continuous
 62
     7
370
    15
100
AcDbLine
 10
1426.881138588805
 20
723.5848654395738
 30
0.0
 11
1426.881138588805
 21
723.7848390227952
 31
0.0
1001
AcDbBlockRepETag
1070
     1
1071
      110
1005
DE4
  0
ARC
  5
DE5
330
979
100
AcDbEntity
  8
0
  6
Continuous
 62
     7
370
    15
100
AcDbCircle
 10
1426.38113924521
 20
723.5848602907763
 30
0.0
 40
0.4999999531998185
100
AcDbArc
 50
269.9991261059511
 51
0.0
1001
AcDbBlockRepETag
1070
     1
1071
      111
1005
DE5
  0
LINE
  5
DE6
330
979
100
AcDbEntity
  8
0
  6
Continuous
 62
     7
370
    15
100
AcDbLine
 10
1426.058832909484
 20
723.084842074553
 30
0.0
 11
1426.381174828429
 21
723.084842074553
 31
0.0
1001
AcDbBlockRepETag
1070
     1
1071
      112
1005
DE6
  0
ARC
  5
DE7
330
979
100
AcDbEntity
  8
0
  6
Continuous
 62
     7
370
    15
100
AcDbCircle
 10
1424.935228632576
 20
722.8248988572803
 30
0.0
 40
0.4999999532002066
100
AcDbArc
 50
65.88327841933949
 51
108.4586900813663
1001
AcDbBlockRepETag
1070
     1
1071
      113
1005
DE7
  0
ARC
  5
DE8
330
979
100
AcDbEntity
  8
0
  6
Continuous
 62
     7
370
    15
100
AcDbCircle
 10
1424.381142217526
 20
724.4848650230071
 30
0.0
 40
1.249999883000121
100
AcDbArc
 50
131.2857505586574
 51
288.4586900812571
1001
AcDbBlockRepETag
1070
     1
1071
      114
1005
DE8
  0
ARC
  5
DE9
330
979
100
AcDbEntity
  8
0
  6
Continuous
 62
     7
370
    15
100
AcDbCircle
 10
1423.226466410886
 20
725.7998643417354
 30
0.0
 40
0.4999999531989544
100
AcDbArc
 50
311.2857505585006
 51
10.00063148032196
1001
AcDbBlockRepETag
1070
     1
1071
      115
1005
DE9
  0
LINE
  5
DEA
330
979
100
AcDbEntity
  8
0
  6
Continuous
 62
     7
370
    15
100
AcDbLine
 10
1423.149291779418
 20
729.1170705444017
 30
0.0
 11
1423.718873764892
 21
725.8866776115098
 31
0.0
1001
AcDbBlockRepETag
1070
     1
1071
      116
1005
DEA
  0
ARC
  5
DEB
330
979
100
AcDbEntity
  8
0
  6
Continuous
 62
     7
370
    15
100
AcDbCircle
 10
1422.164428155125
 20
728.9433894283256
 30
0.0
 40
0.9999999063990582
100
AcDbArc
 50
10.00063148025555
 51
59.99999999999946
1001
AcDbBlockRepETag
1070
     1
1071
      117
1005
DEB
  0
LINE
  5
DEC
330
979
100
AcDbEntity
  8
0
  6
Continuous
 62
     7
370
    15
100
AcDbLine
 10
1419.598881508727
 20
731.5792788154283
 30
0.0
 11
1422.664467598815
 21
729.8094380981126
 31
0.0
1001
AcDbBlockRepETag
1070
     1
1071
      118
1005
DEC
  0
ARC
  5
DED
330
979
100
AcDbEntity
  8
0
  6
Continuous
 62
     7
370
    15
100
AcDbCircle
 10
1419.098900902574
 20
730.713272412793
 30
0.0
 40
0.9999999064000661
100
AcDbArc
 50
59.99999999999946
 51
90.0
1001
AcDbBlockRepETag
1070
     1
1071
      119
1005
DED
  0
ARC
  5
DEE
330
979
100
AcDbEntity
  8
0
  6
Continuous
 62
     7
370
    15
100
AcDbCircle
 10
1458.183584073439
 20
724.244616035564
 30
0.0
 40
0.4999999532000459
100
AcDbArc
 50
0.0
 51
90.0
1001
AcDbBlockRepETag
1070
     1
1071
      120
1005
DEE
  0
LINE
  5
DEF
330
979
100
AcDbEntity
  8
0
  6
Continuous
 62
     7
370
    15
100
AcDbLine
 10
1458.683554436584
 20
722.7446187621751
 30
0.0
 11
1458.683554436584
 21
724.250055629046
 31
0.0
1001
AcDbBlockRepETag
1070
     1
1071
      121
1005
DEF
  0
LINE
  5
DF0
330
979
100
AcDbEntity
  8
0
  6
Continuous
 62
     7
370
    15
100
AcDbLine
 10
1455.874983574767
 20
721.2446082717576
 30
0.0
 11
1457.183543946166
 21
721.2446082717576
 31
0.0
1001
AcDbBlockRepETag
1070
     1
1071
      122
1005
DF0
  0
ARC
  5
DF1
330
979
100
AcDbEntity
  8
0
  6
Continuous
 62
     7
370
    15
100
AcDbCircle
 10
1455.874927272437
 20
724.244616082363
 30
0.0
 40
2.999999719199962
100
AcDbArc
 50
214.9999955439684
 51
270.0
1001
AcDbBlockRepETag
1070
     1
1071
      123
1005
DF1
  0
LINE
  5
DF2
330
979
100
AcDbEntity
  8
0
  6
Continuous
 62
     7
370
    15
100
AcDbLine
 10
1452.681724335571
 20
723.574732649962
 30
0.0
 11
1453.417484070678
 21
722.5239027625718
 31
0.0
1001
AcDbBlockRepETag
1070
     1
1071
      124
1005
DF2
  0
ARC
  5
DF3
330
979
100
AcDbEntity
  8
0
  6
Continuous
 62
     7
370
    15
100
AcDbCircle
 10
1452.927418537482
 20
723.7467890734132
 30
0.0
 40
0.2999999719151757
100
AcDbArc
 50
99.99968728248887
 51
214.9999955441039
1001
AcDbBlockRepETag
1070
     1
1071
      125
1005
DF3
  0
LINE
  5
DF4
330
979
100
AcDbEntity
  8
0
  6
Continuous
 62
     7
370
    15
100
AcDbLine
 10
1453.603808190246
 20
724.1706598884263
 30
0.0
 11
1452.875320221801
 21
724.0422118789354
 31
0.0
1001
AcDbBlockRepETag
1070
     1
1071
      126
1005
DF4
  0
ARC
  5
DF5
330
979
100
AcDbEntity
  8
0
  6
Continuous
 62
     7
370
    15
100
AcDbCircle
 10
1426.058868664022
 20
725.3348620996343
 30
0.0
 40
2.24999684647833
100
AcDbArc
 50
245.8832784190974
 51
269.9991261060162
1001
AcDbBlockRepETag
1070
     1
1071
      127
1005
DF5
  0
ARC
  5
DF6
330
979
100
AcDbEntity
  8
0
  6
Continuous
 62
     7
370
    15
100
AcDbCircle
 10
1453.569044088841
 20
725.1216072211223
 30
0.0
 40
0.2000005621384104
100
AcDbArc
 50
0.7479719260964836
 51
85.00004722283707
1001
AcDbBlockRepETag
1070
     1
1071
      128
1005
DF6
  0
LINE
  5
DF7
330
979
100
AcDbEntity
  8
0
  6
Continuous
 62
     7
370
    15
100
AcDbLine
 10
1452.596370484252
 20
725.4074562675157
 30
0.0
 11
1453.586522843261
 21
725.320850718657
 31
0.0
1001
AcDbBlockRepETag
1070
     1
1071
      129
1005
DF7
  0
ARC
  5
DF8
330
979
100
AcDbEntity
  8
0
  6
Continuous
 62
     7
370
    15
100
AcDbCircle
 10
1420.217424825163
 20
727.5135391896467
 30
0.0
 40
0.4999999532087003
100
AcDbArc
 50
0.0
 51
60.00091586151592
1001
AcDbBlockRepETag
1070
     1
1071
      130
1005
DF8
  0
LINE
  5
DF9
330
979
100
AcDbEntity
  8
0
  6
Continuous
 62
     7
370
    15
100
AcDbLine
 10
1420.467440392394
 20
727.9465545303025
 30
0.0
 11
1418.66130044641
 21
728.9892781860032
 31
0.0
1001
AcDbBlockRepETag
1070
     1
1071
      131
1005
DF9
  0
ARC
  5
DFA
330
979
100
AcDbEntity
  8
0
  6
Continuous
 62
     7
370
    15
100
AcDbCircle
 10
1452.82063889844
 20
727.5135391896467
 30
0.0
 40
0.4999999532002733
100
AcDbArc
 50
119.9990841385746
 51
180.0
1001
AcDbBlockRepETag
1070
     1
1071
      132
1005
DFA
  0
LINE
  5
DFB
330
979
100
AcDbEntity
  8
0
  6
Continuous
 62
     7
370
    15
100
AcDbLine
 10
1454.376761223693
 20
728.9892781860032
 30
0.0
 11
1452.570621277709
 21
727.9465545303025
 31
0.0
1001
AcDbBlockRepETag
1070
     1
1071
      133
1005
DFB
  0
ARC
  5
DFC
330
979
100
AcDbEntity
  8
0
  6
Continuous
 62
     7
370
    15
100
AcDbCircle
 10
1453.626813135145
 20
730.2883464683654
 30
0.0
 40
1.49999985959983
100
AcDbArc
 50
299.9990841384986
 51
345.0010876336092
1001
AcDbBlockRepETag
1070
     1
1071
      134
1005
DFC
  0
LINE
  5
DFD
330
979
100
AcDbEntity
  8
0
  6
Continuous
 62
     7
370
    15
100
AcDbLine
 10
1455.392901207824
 20
731.0838450080552
 30
0.0
 11
1455.075685288329
 21
729.9001563674607
 31
0.0
1001
AcDbBlockRepETag
1070
     1
1071
      135
1005
DFD
  0
LINE
  5
DFE
330
979
100
AcDbEntity
  8
0
  6
Continuous
 62
     7
370
    15
100
AcDbLine
 10
1453.939143921752
 20
731.7132700568834
 30
0.0
 11
1454.909865166564
 21
731.7132700568834
 31
0.0
1001
AcDbBlockRepETag
1070
     1
1071
      136
1005
DFE
  0
LINE
  5
DFF
330
979
100
AcDbEntity
  8
0
  6
Continuous
 62
     7
370
    15
100
AcDbLine
 10
1450.373594071288
 20
729.8094380981126
 30
0.0
 11
1453.439180161376
 21
731.5792788154283
 31
0.0
1001
AcDbBlockRepETag
1070
     1
1071
      137
1005
DFF
  0
LINE
  5
E00
330
979
100
AcDbEntity
  8
0
  6
Continuous
 62
     7
370
    15
100
AcDbLine
 10
1449.319187905212
 20
725.8866776115098
 30
0.0
 11
1449.888889099975
 21
729.1170705444017
 31
0.0
1001
AcDbBlockRepETag
1070
     1
1071
      138
1005
E00
  0
ARC
  5
E01
330
979
100
AcDbEntity
  8
0
  6
Continuous
 62
     7
370
    15
100
AcDbCircle
 10
1449.811597312717
 20
725.7998643417354
 30
0.0
 40
0.4999999531989207
100
AcDbArc
 50
169.9993685196931
 51
228.7142494414583
1001
AcDbBlockRepETag
1070
     1
1071
      139
1005
E01
  0
ARC
  5
E02
330
979
100
AcDbEntity
  8
0
  6
Continuous
 62
     7
370
    15
100
AcDbCircle
 10
1448.65692150608
 20
724.4848650230071
 30
0.0
 40
1.249999883000864
100
AcDbArc
 50
251.5413099186604
 51
48.71424944143995
1001
AcDbBlockRepETag
1070
     1
1071
      140
1005
E02
  0
ARC
  5
E03
330
979
100
AcDbEntity
  8
0
  6
Continuous
 62
     7
370
    15
100
AcDbCircle
 10
1448.102835091027
 20
722.8248988572803
 30
0.0
 40
0.4999999532001663
100
AcDbArc
 50
71.54130991860482
 51
114.1167215808589
1001
AcDbBlockRepETag
1070
     1
1071
      141
1005
E03
  0
ARC
  5
E04
330
979
100
AcDbEntity
  8
0
  6
Continuous
 62
     7
370
    15
100
AcDbCircle
 10
1446.979195059581
 20
725.3348620996343
 30
0.0
 40
2.249996846477508
100
AcDbArc
 50
270.0008738940359
 51
294.1167215808589
1001
AcDbBlockRepETag
1070
     1
1071
      142
1005
E04
  0
LINE
  5
E05
330
979
100
AcDbEntity
  8
0
  6
Continuous
 62
     7
370
    15
100
AcDbLine
 10
1446.656886841674
 20
723.084842074553
 30
0.0
 11
1446.979228760619
 21
723.084842074553
 31
0.0
1001
AcDbBlockRepETag
1070
     1
1071
      143
1005
E05
  0
ARC
  5
E06
330
979
100
AcDbEntity
  8
0
  6
Continuous
 62
     7
370
    15
100
AcDbCircle
 10
1446.656924478394
 20
723.5848602907763
 30
0.0
 40
0.4999999531998185
100
AcDbArc
 50
180.0
 51
270.0008738940489
1001
AcDbBlockRepETag
1070
     1
1071
      144
1005
E06
  0
LINE
  5
E07
330
979
100
AcDbEntity
  8
0
  6
Continuous
 62
     7
370
    15
100
AcDbLine
 10
1446.156923081298
 20
723.7848390227952
 30
0.0
 11
1446.156923081298
 21
723.5848654395738
 31
0.0
1001
AcDbBlockRepETag
1070
     1
1071
      145
1005
E07
  0
ARC
  5
E08
330
979
100
AcDbEntity
  8
0
  6
Continuous
 62
     7
370
    15
100
AcDbCircle
 10
1446.656924478394
 20
723.7848596418201
 30
0.0
 40
0.4999999532000459
100
AcDbArc
 50
89.99929875988897
 51
180.0
1001
AcDbBlockRepETag
1070
     1
1071
      146
1005
E08
  0
LINE
  5
E09
330
979
100
AcDbEntity
  8
0
  6
Continuous
 62
     7
370
    15
100
AcDbLine
 10
1446.97910955133
 20
724.284862387816
 30
0.0
 11
1446.656886841674
 21
724.284862387816
 31
0.0
1001
AcDbBlockRepETag
1070
     1
1071
      147
1005
E09
  0
ARC
  5
E0A
330
979
100
AcDbEntity
  8
0
  6
Continuous
 62
     7
370
    15
100
AcDbCircle
 10
1446.979148162184
 20
725.2848555578542
 30
0.0
 40
0.9999999064007148
100
AcDbArc
 50
269.9992987600193
 51
350.0000053001143
1001
AcDbBlockRepETag
1070
     1
1071
      148
1005
E0A
  0
LINE
  5
E0B
330
979
100
AcDbEntity
  8
0
  6
Continuous
 62
     7
370
    15
100
AcDbLine
 10
1448.655788208862
 20
729.0349353439012
 30
0.0
 11
1447.963897492309
 21
725.111221182982
 31
0.0
1001
AcDbBlockRepETag
1070
     1
1071
      149
1005
E0B
  0
ARC
  5
E0C
330
979
100
AcDbEntity
  8
0
  6
Continuous
 62
     7
370
    15
100
AcDbCircle
 10
1447.671007243251
 20
729.2085855085023
 30
0.0
 40
0.9999999064001787
100
AcDbArc
 50
350.0000053001421
 51
65.0860041922145
1001
AcDbBlockRepETag
1070
     1
1071
      150
1005
E0C
  0
ARC
  5
E0D
330
979
100
AcDbEntity
  8
0
  6
Continuous
 62
     7
370
    15
100
AcDbCircle
 10
1449.019030691801
 20
732.1107968835114
 30
0.0
 40
2.199999794080018
100
AcDbArc
 50
180.0
 51
245.0860041921126
1001
AcDbBlockRepETag
1070
     1
1071
      151
1005
E0D
  0
LINE
  5
E0E
330
979
100
AcDbEntity
  8
0
  6
Continuous
 62
     7
370
    15
100
AcDbLine
 10
1446.819011475463
 20
732.6054323798814
 30
0.0
 11
1446.819011475463
 21
732.1107734328904
 31
0.0
1001
AcDbBlockRepETag
1070
     1
1071
      152
1005
E0E
  0
ARC
  5
E0F
330
979
100
AcDbEntity
  8
0
  6
Continuous
 62
     7
370
    15
100
AcDbCircle
 10
1446.319030944521
 20
732.605416760369
 30
0.0
 40
0.4999999532000459
100
AcDbArc
 50
0.0
 51
90.0
1001
AcDbBlockRepETag
1070
     1
1071
      153
1005
E0F
  0
LINE
  5
E10
330
979
100
AcDbEntity
  8
0
  6
Continuous
 62
     7
370
    15
100
AcDbLine
 10
1426.719013955016
 20
733.1053961402574
 30
0.0
 11
1446.319047715087
 21
733.1053961402574
 31
0.0
1001
AcDbBlockRepETag
1070
     1
1071
      154
1005
E10
  0
LINE
  5
E11
330
979
100
AcDbEntity
  8
0
  6
Continuous
 62
     7
370
    15
100
AcDbLine
 10
1416.978184487243
 20
748.3356941825547
 30
0.0
 11
1416.639630104919
 21
747.4055637008348
 31
0.0
1001
AcDbBlockRepETag
1070
     1
1071
      155
1005
E11
  0
LINE
  5
E12
330
979
100
AcDbEntity
  8
0
  6
Continuous
 62
     7
370
    15
100
AcDbLine
 10
1421.038095261474
 20
749.9349464065232
 30
0.0
 11
1420.607749726196
 21
750.091587412993
 31
0.0
1001
AcDbBlockRepETag
1070
     1
1071
      156
1005
E12
  0
ARC
  5
E13
330
979
100
AcDbEntity
  8
0
  6
Continuous
 62
     7
370
    15
100
AcDbCircle
 10
1419.411250588459
 20
730.2883464683654
 30
0.0
 40
1.499999859599527
100
AcDbArc
 50
194.998912366397
 51
240.0009158615014
1001
AcDbBlockRepETag
1070
     1
1071
      157
1005
E13
  0
LINE
  5
E14
330
979
100
AcDbEntity
  8
0
  6
Continuous
 62
     7
370
    15
100
AcDbLine
 10
1417.962376381774
 20
729.9001563674607
 30
0.0
 11
1417.645160462279
 21
731.0838450080552
 31
0.0
1001
AcDbBlockRepETag
1070
     1
1071
      158
1005
E14
  0
LINE
  5
E15
330
979
100
AcDbEntity
  8
0
  6
Continuous
 62
     7
370
    15
100
AcDbLine
 10
1449.961010720153
 20
761.2446297294297
 30
0.0
 11
1442.167107369323
 21
761.2446297294297
 31
0.0
1001
AcDbBlockRepETag
1070
     1
1071
      159
1005
E15
  0
LINE
  5
E16
330
979
100
AcDbEntity
  8
0
  6
Continuous
 62
     7
370
    15
100
AcDbLine
 10
1419.451538826842
 20
725.320850718657
 30
0.0
 11
1420.441691185851
 21
725.4074562675157
 31
0.0
1001
AcDbBlockRepETag
1070
     1
1071
      160
1005
E16
  0
ARC
  5
E17
330
979
100
AcDbEntity
  8
0
  6
Continuous
 62
     7
370
    15
100
AcDbCircle
 10
1420.415326351879
 20
725.708416284206
 30
0.0
 40
0.3020984265587425
100
AcDbArc
 50
274.9999956767178
 51
0.0012834555633298
1001
AcDbBlockRepETag
1070
     1
1071
      161
1005
E17
  0
LINE
  5
E18
330
979
100
AcDbEntity
  8
0
  6
Continuous
 62
     7
370
    15
100
AcDbLine
 10
1420.717422272582
 20
725.7084001189866
 30
0.0
 11
1420.717422272582
 21
727.5135267860093
 31
0.0
1001
AcDbBlockRepETag
1070
     1
1071
      162
1005
E18
  0
ARC
  5
E19
330
979
100
AcDbEntity
  8
0
  6
Continuous
 62
     7
370
    15
100
AcDbCircle
 10
1418.128165441423
 20
731.213272365993
 30
0.0
 40
0.4999999531999322
100
AcDbArc
 50
90.0
 51
194.99891236628
1001
AcDbBlockRepETag
1070
     1
1071
      163
1005
E19
  0
LINE
  5
E1A
330
979
100
AcDbEntity
  8
0
  6
Continuous
 62
     7
370
    15
100
AcDbLine
 10
1415.854517723937
 20
721.2446082717576
 30
0.0
 11
1417.163078095336
 21
721.2446082717576
 31
0.0
1001
AcDbBlockRepETag
1070
     1
1071
      164
1005
E1A
  0
ARC
  5
E1B
330
979
100
AcDbEntity
  8
0
  6
Continuous
 62
     7
370
    15
100
AcDbCircle
 10
1418.025231178727
 20
731.5974574367684
 30
0.0
 40
1.999999813082229
100
AcDbArc
 50
138.8595226379943
 51
194.9989123663496
1001
AcDbBlockRepETag
1070
     1
1071
      165
1005
E1B
  0
ARC
  5
E1C
330
979
100
AcDbEntity
  8
0
  6
Continuous
 62
     7
370
    15
100
AcDbCircle
 10
1418.519033546602
 20
746.7215530268328
 30
0.0
 40
1.999999812800378
100
AcDbArc
 50
160.0000000000458
 51
180.0
1001
AcDbBlockRepETag
1070
     1
1071
      166
1005
E1C
  0
LINE
  5
E1D
330
979
100
AcDbEntity
  8
0
  6
Continuous
 62
     7
370
    15
100
AcDbLine
 10
1451.749030854125
 20
758.5201610213914
 30
0.0
 11
1451.903883721252
 21
758.3901632911363
 31
0.0
1001
AcDbBlockRepETag
1070
     1
1071
      167
1005
E1D
  0
LINE
  5
E1E
330
979
100
AcDbEntity
  8
0
  6
Continuous
 62
     7
370
    15
100
AcDbLine
 10
1452.299539353271
 20
758.6672056800523
 30
0.0
 11
1451.840345169921
 21
759.9286783820787
 31
0.0
1001
AcDbBlockRepETag
1070
     1
1071
      168
1005
E1E
  0
LINE
  5
E1F
330
979
100
AcDbEntity
  8
0
  6
Continuous
 62
     7
370
    15
100
AcDbLine
 10
1451.277677323241
 20
758.3485592490831
 30
0.0
 11
1451.749030854125
 21
758.5201610213914
 31
0.0
1001
AcDbBlockRepETag
1070
     1
1071
      169
1005
E1F
  0
LINE
  5
E20
330
979
100
AcDbEntity
  8
0
  6
Continuous
 62
     7
370
    15
100
AcDbLine
 10
1454.899493958373
 20
747.978423941771
 30
0.0
 11
1454.496447350402
 21
748.5541452056565
 31
0.0
1001
AcDbBlockRepETag
1070
     1
1071
      170
1005
E20
  0
ARC
  5
E21
330
979
100
AcDbEntity
  8
0
  6
Continuous
 62
     7
370
    15
100
AcDbCircle
 10
1421.709071851792
 20
758.2076005080529
 30
0.0
 40
0.1499999859603388
100
AcDbArc
 50
354.996304963818
 51
69.99537208000186
1001
AcDbBlockRepETag
1070
     1
1071
      171
1005
E21
  0
ARC
  5
E22
330
979
100
AcDbEntity
  8
0
  6
Continuous
 62
     7
370
    15
100
AcDbCircle
 10
1455.022379767539
 20
748.0644231388319
 30
0.0
 40
0.1499999859604865
100
AcDbArc
 50
214.9948068804028
 51
289.9982724680642
1001
AcDbBlockRepETag
1070
     1
1071
      172
1005
E22
  0
ARC
  5
E23
330
979
100
AcDbEntity
  8
0
  6
Continuous
 62
     7
370
    15
100
AcDbCircle
 10
1414.326196836147
 20
758.1535774374533
 30
0.0
 40
7.499998098011519
100
AcDbArc
 50
340.0015892536241
 51
355.0016187979574
1001
AcDbBlockRepETag
1070
     1
1071
      173
1005
E23
  0
LINE
  5
E24
330
979
100
AcDbEntity
  8
0
  6
Continuous
 62
     7
370
    15
100
AcDbLine
 10
1421.373907830138
 20
755.5886257774034
 30
0.0
 11
1421.244684960265
 21
755.2336801177659
 31
0.0
1001
AcDbBlockRepETag
1070
     1
1071
      174
1005
E24
  0
ARC
  5
E25
330
979
100
AcDbEntity
  8
0
  6
Continuous
 62
     7
370
    15
100
AcDbCircle
 10
1421.432651252238
 20
755.1652607522635
 30
0.0
 40
0.199999980685178
100
AcDbArc
 50
159.9968423163361
 51
247.499718853551
1001
AcDbBlockRepETag
1070
     1
1071
      175
1005
E25
  0
LINE
  5
E26
330
979
100
AcDbEntity
  8
0
  6
Continuous
 62
     7
370
    15
100
AcDbLine
 10
1421.858493592162
 20
758.1945408469835
 30
0.0
 11
1421.797696854491
 21
757.5001467353501
 31
0.0
1001
AcDbBlockRepETag
1070
     1
1071
      176
1005
E26
  0
LINE
  5
E27
330
979
100
AcDbEntity
  8
0
  6
Continuous
 62
     7
370
    15
100
AcDbLine
 10
1418.541614319701
 20
748.5541452056565
 30
0.0
 11
1418.13856771173
 21
747.978423941771
 31
0.0
1001
AcDbBlockRepETag
1070
     1
1071
      177
1005
E27
  0
ARC
  5
E28
330
979
100
AcDbEntity
  8
0
  6
Continuous
 62
     7
370
    15
100
AcDbCircle
 10
1418.015683956066
 20
748.0644231388319
 30
0.0
 40
0.1499999860872612
100
AcDbArc
 50
250.0017275312579
 51
325.0069187110511
1001
AcDbBlockRepETag
1070
     1
1071
      178
1005
E28
  0
ARC
  5
E29
330
979
100
AcDbEntity
  8
0
  6
Continuous
 62
     7
370
    15
100
AcDbCircle
 10
1451.328991871812
 20
758.2076005080529
 30
0.0
 40
0.1499999861564144
100
AcDbArc
 50
110.0046279196932
 51
185.0020804714425
1001
AcDbBlockRepETag
1070
     1
1071
      179
1005
E29
  0
LINE
  5
E2A
330
979
100
AcDbEntity
  8
0
  6
Continuous
 62
     7
370
    15
100
AcDbLine
 10
1451.240364815612
 20
757.5001467353501
 30
0.0
 11
1451.179568077941
 21
758.1945408469835
 31
0.0
1001
AcDbBlockRepETag
1070
     1
1071
      180
1005
E2A
  0
ARC
  5
E2B
330
979
100
AcDbEntity
  8
0
  6
Continuous
 62
     7
370
    15
100
AcDbCircle
 10
1458.711866887456
 20
758.1535774374533
 30
0.0
 40
7.499998097745251
100
AcDbArc
 50
184.9983812021346
 51
199.9984107466703
1001
AcDbBlockRepETag
1070
     1
1071
      181
1005
E2B
  0
LINE
  5
E2C
330
979
100
AcDbEntity
  8
0
  6
Continuous
 62
     7
370
    15
100
AcDbLine
 10
1451.793376709838
 20
755.2336801177659
 30
0.0
 11
1451.664153839965
 21
755.5886257774034
 31
0.0
1001
AcDbBlockRepETag
1070
     1
1071
      182
1005
E2C
  0
ARC
  5
E2D
330
979
100
AcDbEntity
  8
0
  6
Continuous
 62
     7
370
    15
100
AcDbCircle
 10
1451.605412471366
 20
755.1652607522635
 30
0.0
 40
0.1999999812276673
100
AcDbArc
 50
292.5002811467877
 51
20.0031576724747
1001
AcDbBlockRepETag
1070
     1
1071
      183
1005
E2D
  0
LINE
  5
E2E
330
979
100
AcDbEntity
  8
0
  6
Continuous
 62
     7
370
    15
100
AcDbLine
 10
1457.541171814819
 20
724.7446163779893
 30
0.0
 11
1455.247330150679
 21
724.7446163779894
 31
0.0
1001
AcDbBlockRepETag
1070
     1
1071
      184
1005
E2E
  0
LINE
  5
E2F
330
979
100
AcDbEntity
  8
0
  6
Continuous
 62
     7
370
    15
100
AcDbLine
 10
1417.790731519424
 20
724.7446163779894
 30
0.0
 11
1415.496889855285
 21
724.7446163779893
 31
0.0
1001
AcDbBlockRepETag
1070
     1
1071
      185
1005
E2F
  0
ARC
  5
E30
330
979
100
AcDbEntity
  8
0
  6
Continuous
 62
     7
370
    15
100
AcDbCircle
 10
1430.845842531957
 20
749.1381727167903
 30
0.0
 40
9.999999064001309
100
AcDbArc
 50
144.8950889415146
 51
154.8687641784856
1001
AcDbBlockRepETag
1070
     1
1071
      186
1005
E30
  0
ARC
  5
E31
330
979
100
AcDbEntity
  8
0
  6
Continuous
 62
     7
370
    15
100
AcDbCircle
 10
1442.192221191646
 20
749.1381727167903
 30
0.0
 40
9.999999064001169
100
AcDbArc
 50
4.895939350372883
 51
14.86960019298276
1001
AcDbBlockRepETag
1070
     1
1071
      187
1005
E31
  0
ARC
  5
E32
330
979
100
AcDbEntity
  8
0
  6
Continuous
 62
     7
370
    15
100
AcDbCircle
 10
1442.192221191646
 20
749.1381727167903
 30
0.0
 40
9.999999064000069
100
AcDbArc
 50
25.13123582151436
 51
35.1049110584854
1001
AcDbBlockRepETag
1070
     1
1071
      188
1005
E32
  0
ARC
  5
E33
330
979
100
AcDbEntity
  8
0
  6
Continuous
 62
     7
370
    15
100
AcDbCircle
 10
1430.845842531957
 20
749.1381727167903
 30
0.0
 40
9.999999063999878
100
AcDbArc
 50
165.1303998070172
 51
175.1040606496271
1001
AcDbBlockRepETag
1070
     1
1071
      189
1005
E33
  0
ENDBLK
  5
97B
330
979
100
AcDbEntity
  8
0
100
AcDbBlockEnd
  0
BLOCK
  5
A3C
330
A3B
100
AcDbEntity
  8
0
100
AcDbBlockBegin
  2
2
 70
     0
 10
0.0
 20
0.0
 30
0.0
  3
2
  1

  0
LINE
  5
E40
330
A3B
100
AcDbEntity
  8
0
  6
Continuous
 62
     7
370
    15
100
AcDbLine
 10
1398.658593676933
 20
748.5002030021347
 30
0.0
 11
1390.459187122011
 21
748.5002030021347
 31
0.0
1001
AcDbBlockRepETag
1070
     1
1071
        0
1005
E40
  0
LINE
  5
E41
330
A3B
100
AcDbEntity
  8
0
  6
Continuous
 62
     7
370
    15
100
AcDbLine
 10
1398.658593676933
 20
750.7721532470383
 30
0.0
 11
1390.459187122011
 21
750.7721532470383
 31
0.0
1001
AcDbBlockRepETag
1070
     1
1071
        1
1005
E41
  0
LINE
  5
E42
330
A3B
100
AcDbEntity
  8
0
  6
Continuous
 62
     7
370
    15
100
AcDbLine
 10
1390.459187122011
 20
758.3316911346115
 30
0.0
 11
1398.658593676933
 21
758.3316911346115
 31
0.0
1001
AcDbBlockRepETag
1070
     1
1071
        2
1005
E42
  0
LINE
  5
E43
330
A3B
100
AcDbEntity
  8
0
  6
Continuous
 62
     7
370
    15
100
AcDbLine
 10
1390.459187122011
 20
754.7315705901779
 30
0.0
 11
1398.658593676933
 21
754.7315705901779
 31
0.0
1001
AcDbBlockRepETag
1070
     1
1071
        3
1005
E43
  0
LINE
  5
E44
330
A3B
100
AcDbEntity
  8
0
  6
Continuous
 62
     7
370
    15
100
AcDbLine
 10
1390.459187122011
 20
722.744618762175
 30
0.0
 11
1390.459187122011
 21
724.7445930129685
 31
0.0
1001
AcDbBlockRepETag
1070
     1
1071
        4
1005
E44
  0
LINE
  5
E45
330
A3B
100
AcDbEntity
  8
0
  6
Continuous
 62
     7
370
    15
100
AcDbLine
 10
1390.459187122011
 20
724.2445930129685
 30
0.0
 11
1398.658593676933
 21
724.2445930129685
 31
0.0
1001
AcDbBlockRepETag
1070
     1
1071
        5
1005
E45
  0
LINE
  5
E46
330
A3B
100
AcDbEntity
  8
0
  6
Continuous
 62
     7
370
    15
100
AcDbLine
 10
1390.459187122011
 20
722.744618762175
 30
0.0
 11
1398.658593676933
 21
722.744618762175
 31
0.0
1001
AcDbBlockRepETag
1070
     1
1071
        6
1005
E46
  0
LINE
  5
E47
330
A3B
100
AcDbEntity
  8
0
  6
Continuous
 62
     7
370
    15
100
AcDbLine
 10
1398.658593676933
 20
724.7445930129685
 30
0.0
 11
1398.658593676933
 21
722.744618762175
 31
0.0
1001
AcDbBlockRepETag
1070
     1
1071
        7
1005
E47
  0
LINE
  5
E48
330
A3B
100
AcDbEntity
  8
0
  6
Continuous
 62
     7
370
    15
100
AcDbLine
 10
1390.459187122011
 20
724.2445930129685
 30
0.0
 11
1390.459187122011
 21
724.7446163779892
 31
0.0
1001
AcDbBlockRepETag
1070
     1
1071
        8
1005
E48
  0
LINE
  5
E49
330
A3B
100
AcDbEntity
  8
0
  6
Continuous
 62
     7
370
    15
100
AcDbLine
 10
1390.459187122011
 20
724.7446163779892
 30
0.0
 11
1398.658593676933
 21
724.7446163779892
 31
0.0
1001
AcDbBlockRepETag
1070
     1
1071
        9
1005
E49
  0
LINE
  5
E4A
330
A3B
100
AcDbEntity
  8
0
  6
Continuous
 62
     7
370
    15
100
AcDbLine
 10
1398.658593676933
 20
724.7446163779892
 30
0.0
 11
1398.658593676933
 21
724.2445930129685
 31
0.0
1001
AcDbBlockRepETag
1070
     1
1071
       10
1005
E4A
  0
LINE
  5
E4B
330
A3B
100
AcDbEntity
  8
0
  6
Continuous
 62
     7
370
    15
100
AcDbLine
 10
1390.459187122011
 20
721.2446082717575
 30
0.0
 11
1390.459187122011
 21
722.744618762175
 31
0.0
1001
AcDbBlockRepETag
1070
     1
1071
       11
1005
E4B
  0
LINE
  5
E4C
330
A3B
100
AcDbEntity
  8
0
  6
Continuous
 62
     7
370
    15
100
AcDbLine
 10
1390.459187122011
 20
721.2446082717575
 30
0.0
 11
1398.658593676933
 21
721.2446082717575
 31
0.0
1001
AcDbBlockRepETag
1070
     1
1071
       12
1005
E4C
  0
LINE
  5
E4D
330
A3B
100
AcDbEntity
  8
0
  6
Continuous
 62
     7
370
    15
100
AcDbLine
 10
1398.658593676933
 20
722.744618762175
 30
0.0
 11
1398.658593676933
 21
721.2446082717575
 31
0.0
1001
AcDbBlockRepETag
1070
     1
1071
       13
1005
E4D
  0
LINE
  5
E4E
330
A3B
100
AcDbEntity
  8
0
  6
Continuous
 62
     7
370
    15
100
AcDbLine
 10
1390.459187122011
 20
731.0798514968552
 30
0.0
 11
1398.658593676933
 21
731.0798514968552
 31
0.0
1001
AcDbBlockRepETag
1070
     1
1071
       14
1005
E4E
  0
LINE
  5
E4F
330
A3B
100
AcDbEntity
  8
0
  6
Continuous
 62
     7
370
    15
100
AcDbLine
 10
1398.658593676933
 20
732.9132903701462
 30
0.0
 11
1390.459187122011
 21
732.9132903701462
 31
0.0
1001
AcDbBlockRepETag
1070
     1
1071
       15
1005
E4F
  0
LINE
  5
E50
330
A3B
100
AcDbEntity
  8
0
  6
Continuous
 62
     7
370
    15
100
AcDbLine
 10
1390.459187122011
 20
731.0798514968552
 30
0.0
 11
1390.459187122011
 21
732.9132903701462
 31
0.0
1001
AcDbBlockRepETag
1070
     1
1071
       16
1005
E50
  0
LINE
  5
E51
330
A3B
100
AcDbEntity
  8
0
  6
Continuous
 62
     7
370
    15
100
AcDbLine
 10
1398.658593676933
 20
732.9132903701462
 30
0.0
 11
1398.658593676933
 21
731.0798514968552
 31
0.0
1001
AcDbBlockRepETag
1070
     1
1071
       17
1005
E51
  0
LINE
  5
E52
330
A3B
100
AcDbEntity
  8
0
  6
Continuous
 62
     7
370
    15
100
AcDbLine
 10
1390.459187122011
 20
724.7446163779892
 30
0.0
 11
1390.459187122011
 21
731.0798514968552
 31
0.0
1001
AcDbBlockRepETag
1070
     1
1071
       18
1005
E52
  0
LINE
  5
E53
330
A3B
100
AcDbEntity
  8
0
  6
Continuous
 62
     7
370
    15
100
AcDbLine
 10
1398.658593676933
 20
731.0798514968552
 30
0.0
 11
1398.658593676933
 21
724.7446163779892
 31
0.0
1001
AcDbBlockRepETag
1070
     1
1071
       19
1005
E53
  0
SPLINE
  5
E54
330
A3B
100
AcDbEntity
  8
0
  6
Continuous
 62
     7
370
    15
100
AcDbSpline
210
0.0
220
0.0
230
1.0
 70
     8
 71
     3
 72
    12
 73
     8
 74
     0
 42
0.0000000001
 43
0.0000000001
 40
0.0
 40
0.0
 40
0.0
 40
0.0
 40
0.1141231295671884
 40
0.2283546856802403
 40
0.4617465791686982
 40
0.7304459024862614
 40
1.0
 40
1.0
 40
1.0
 40
1.0
 10
1394.558594122478
 20
737.2807611114182
 30
0.0
 10
1394.470923953957
 20
737.2128235136657
 30
0.0
 10
1394.2955003229
 20
737.0768837717445
 30
0.0
 10
1393.877110791116
 20
736.8253667033436
 30
0.0
 10
1393.263401812434
 20
736.5153711502964
 30
0.0
 10
1392.437767486409
 20
736.1586959016683
 30
0.0
 10
1391.835573954506
 20
735.9267631063259
 30
0.0
 10
1391.533999031359
 20
735.8106125480332
 30
0.0
1001
AcDbBlockRepETag
1070
     1
1071
       20
1005
E54
  0
LINE
  5
E55
330
A3B
100
AcDbEntity
  8
0
  6
Continuous
 62
     7
370
    15
100
AcDbLine
 10
1391.533999031359
 20
735.8106125480332
 30
0.0
 11
1391.167588325166
 21
735.8305801040329
 31
0.0
1001
AcDbBlockRepETag
1070
     1
1071
       21
1005
E55
  0
SPLINE
  5
E56
330
A3B
100
AcDbEntity
  8
0
  6
Continuous
 62
     7
370
    15
100
AcDbSpline
210
0.0
220
0.0
230
1.0
 70
     8
 71
     3
 72
    11
 73
     7
 74
     0
 42
0.0000000001
 43
0.0000000001
 40
0.0
 40
0.0
 40
0.0
 40
0.0
 40
0.5240735607602593
 40
0.7611573266316693
 40
0.8806293268113101
 40
1.0
 40
1.0
 40
1.0
 40
1.0
 10
1391.019510364109
 20
736.9553197509445
 30
0.0
 10
1391.532638215229
 20
737.09005507881
 30
0.0
 10
1392.277898141739
 20
737.2857428402994
 30
0.0
 10
1393.095265738949
 20
737.5125167250814
 30
0.0
 10
1393.519732754383
 20
737.6400516847115
 30
0.0
 10
1393.712334231951
 20
737.7142145007373
 30
0.0
 10
1393.808594115959
 20
737.7512801772751
 30
0.0
1001
AcDbBlockRepETag
1070
     1
1071
       22
1005
E56
  0
ARC
  5
E57
330
A3B
100
AcDbEntity
  8
0
  6
Continuous
 62
     7
370
    15
100
AcDbCircle
 10
1395.105222127097
 20
738.9850812246187
 30
0.0
 40
1.789834971077779
100
AcDbArc
 50
223.5777192868393
 51
252.2173525119291
1001
AcDbBlockRepETag
1070
     1
1071
       23
1005
E57
  0
LINE
  5
E58
330
A3B
100
AcDbEntity
  8
0
  6
Continuous
 62
     7
370
    15
100
AcDbLine
 10
1397.949599686959
 20
735.8305801040329
 30
0.0
 11
1397.583188980767
 21
735.8106125480332
 31
0.0
1001
AcDbBlockRepETag
1070
     1
1071
       24
1005
E58
  0
SPLINE
  5
E59
330
A3B
100
AcDbEntity
  8
0
  6
Continuous
 62
     7
370
    15
100
AcDbSpline
210
0.0
220
0.0
230
1.0
 70
     8
 71
     3
 72
    12
 73
     8
 74
     0
 42
0.0000000001
 43
0.0000000001
 40
0.0
 40
0.0
 40
0.0
 40
0.0
 40
0.2688143641087926
 40
0.5382533543698165
 40
0.7672777753055485
 40
0.8837028228826536
 40
1.0
 40
1.0
 40
1.0
 40
1.0
 10
1397.583188980767
 20
735.8106125480332
 30
0.0
 10
1397.28242021049
 20
735.926463531446
 30
0.0
 10
1396.680183793445
 20
736.1584346935365
 30
0.0
 10
1395.859162618038
 20
736.5129643025287
 30
0.0
 10
1395.24664115689
 20
736.8220425689683
 30
0.0
 10
1394.827024532264
 20
737.073075303871
 30
0.0
 10
1394.648038144067
 20
737.2115578722297
 30
0.0
 10
1394.558594122478
 20
737.2807611114182
 30
0.0
1001
AcDbBlockRepETag
1070
     1
1071
       25
1005
E59
  0
ARC
  5
E5A
330
A3B
100
AcDbEntity
  8
0
  6
Continuous
 62
     7
370
    15
100
AcDbCircle
 10
1394.011965851446
 20
738.9850813284676
 30
0.0
 40
1.789835151329663
100
AcDbArc
 50
287.7826545936954
 51
316.4222816148522
1001
AcDbBlockRepETag
1070
     1
1071
       26
1005
E5A
  0
SPLINE
  5
E5B
330
A3B
100
AcDbEntity
  8
0
  6
Continuous
 62
     7
370
    15
100
AcDbSpline
210
0.0
220
0.0
230
1.0
 70
     8
 71
     3
 72
    11
 73
     7
 74
     0
 42
0.0000000001
 43
0.0000000001
 40
0.0
 40
0.0
 40
0.0
 40
0.0
 40
0.1182263189069507
 40
0.2365892736073516
 40
0.4759254406700915
 40
0.9999999999999998
 40
0.9999999999999998
 40
0.9999999999999998
 40
0.9999999999999998
 10
1395.308594012582
 20
737.7512801772751
 30
0.0
 10
1395.403928652038
 20
737.7145712371174
 30
0.0
 10
1395.594708110511
 20
737.6411109317717
 30
0.0
 10
1396.018717043999
 20
737.5133223650156
 30
0.0
 10
1396.837140717027
 20
737.286374295293
 30
0.0
 10
1397.584572493377
 20
737.0900764478695
 30
0.0
 10
1398.097677648016
 20
736.9553197509445
 30
0.0
1001
AcDbBlockRepETag
1070
     1
1071
       27
1005
E5B
  0
LINE
  5
E5C
330
A3B
100
AcDbEntity
  8
0
  6
Continuous
 62
     7
370
    15
100
AcDbLine
 10
1391.215992418998
 20
746.1870063430466
 30
0.0
 11
1390.853851361149
 21
743.4362519866623
 31
0.0
1001
AcDbBlockRepETag
1070
     1
1071
       28
1005
E5C
  0
LINE
  5
E5D
330
A3B
100
AcDbEntity
  8
0
  6
Continuous
 62
     7
370
    15
100
AcDbLine
 10
1390.853851361149
 20
743.4362519866623
 30
0.0
 11
1390.853851361149
 21
738.2136334067978
 31
0.0
1001
AcDbBlockRepETag
1070
     1
1071
       29
1005
E5D
  0
LINE
  5
E5E
330
A3B
100
AcDbEntity
  8
0
  6
Continuous
 62
     7
370
    15
100
AcDbLine
 10
1397.583188980767
 20
735.8106125480332
 30
0.0
 11
1391.533999031359
 21
735.8106125480332
 31
0.0
1001
AcDbBlockRepETag
1070
     1
1071
       30
1005
E5E
  0
LINE
  5
E5F
330
A3B
100
AcDbEntity
  8
0
  6
Continuous
 62
     7
370
    15
100
AcDbLine
 10
1398.263336883807
 20
743.4362519866623
 30
0.0
 11
1398.263336883807
 21
738.2136334067978
 31
0.0
1001
AcDbBlockRepETag
1070
     1
1071
       31
1005
E5F
  0
LINE
  5
E60
330
A3B
100
AcDbEntity
  8
0
  6
Continuous
 62
     7
370
    15
100
AcDbLine
 10
1397.901195825958
 20
746.1870063430466
 30
0.0
 11
1398.263336883807
 21
743.4362519866623
 31
0.0
1001
AcDbBlockRepETag
1070
     1
1071
       32
1005
E60
  0
LINE
  5
E61
330
A3B
100
AcDbEntity
  8
0
  6
Continuous
 62
     7
370
    15
100
AcDbLine
 10
1397.901195825958
 20
746.1870063430466
 30
0.0
 11
1391.215992418998
 21
746.1870063430466
 31
0.0
1001
AcDbBlockRepETag
1070
     1
1071
       33
1005
E61
  0
LINE
  5
E62
330
A3B
100
AcDbEntity
  8
0
  6
Continuous
 62
     7
370
    15
100
AcDbLine
 10
1390.459187122011
 20
746.7215407973923
 30
0.0
 11
1398.658593676933
 21
746.7215407973923
 31
0.0
1001
AcDbBlockRepETag
1070
     1
1071
       34
1005
E62
  0
LINE
  5
E63
330
A3B
100
AcDbEntity
  8
0
  6
Continuous
 62
     7
370
    15
100
AcDbLine
 10
1397.949599686959
 20
735.8305801040329
 30
0.0
 11
1398.263336883807
 21
738.2136334067978
 31
0.0
1001
AcDbBlockRepETag
1070
     1
1071
       35
1005
E63
  0
LINE
  5
E64
330
A3B
100
AcDbEntity
  8
0
  6
Continuous
 62
     7
370
    15
100
AcDbLine
 10
1391.167588325166
 20
735.8305801040329
 30
0.0
 11
1390.853851361149
 21
738.2136334067978
 31
0.0
1001
AcDbBlockRepETag
1070
     1
1071
       36
1005
E64
  0
LINE
  5
E65
330
A3B
100
AcDbEntity
  8
0
  6
Continuous
 62
     7
370
    15
100
AcDbLine
 10
1390.459187122011
 20
732.9132903701462
 30
0.0
 11
1390.459187122011
 21
746.7215407973923
 31
0.0
1001
AcDbBlockRepETag
1070
     1
1071
       37
1005
E65
  0
LINE
  5
E66
330
A3B
100
AcDbEntity
  8
0
  6
Continuous
 62
     7
370
    15
100
AcDbLine
 10
1398.658593676933
 20
746.7215407973923
 30
0.0
 11
1398.658593676933
 21
732.9132903701462
 31
0.0
1001
AcDbBlockRepETag
1070
     1
1071
       38
1005
E66
  0
LINE
  5
E67
330
A3B
100
AcDbEntity
  8
0
  6
Continuous
 62
     7
370
    15
100
AcDbLine
 10
1398.658593676933
 20
747.4055637008347
 30
0.0
 11
1390.459187122011
 21
747.4055637008347
 31
0.0
1001
AcDbBlockRepETag
1070
     1
1071
       39
1005
E67
  0
LINE
  5
E68
330
A3B
100
AcDbEntity
  8
0
  6
Continuous
 62
     7
370
    15
100
AcDbLine
 10
1390.459187122011
 20
746.7215407973923
 30
0.0
 11
1390.459187122011
 21
747.4055637008347
 31
0.0
1001
AcDbBlockRepETag
1070
     1
1071
       40
1005
E68
  0
LINE
  5
E69
330
A3B
100
AcDbEntity
  8
0
  6
Continuous
 62
     7
370
    15
100
AcDbLine
 10
1398.658593676933
 20
747.4055637008347
 30
0.0
 11
1398.658593676933
 21
746.7215407973923
 31
0.0
1001
AcDbBlockRepETag
1070
     1
1071
       41
1005
E69
  0
LINE
  5
E6A
330
A3B
100
AcDbEntity
  8
0
  6
Continuous
 62
     7
370
    15
100
AcDbLine
 10
1397.842813309231
 20
744.4318879729904
 30
0.0
 11
1397.834200670892
 21
744.4233645087876
 31
0.0
1001
AcDbBlockRepETag
1070
     1
1071
       42
1005
E6A
  0
LINE
  5
E6B
330
A3B
100
AcDbEntity
  8
0
  6
Continuous
 62
     7
370
    15
100
AcDbLine
 10
1397.834200670892
 20
744.4233645087876
 30
0.0
 11
1391.282987574064
 21
744.4233645087876
 31
0.0
1001
AcDbBlockRepETag
1070
     1
1071
       43
1005
E6B
  0
LINE
  5
E6C
330
A3B
100
AcDbEntity
  8
0
  6
Continuous
 62
     7
370
    15
100
AcDbLine
 10
1391.208594458127
 20
744.4970358497299
 30
0.0
 11
1391.282987574064
 21
744.4233645087876
 31
0.0
1001
AcDbBlockRepETag
1070
     1
1071
       44
1005
E6C
  0
ELLIPSE
  5
E6D
330
A3B
100
AcDbEntity
  8
0
  6
Continuous
 62
     7
370
    15
100
AcDbEllipse
 10
1393.069921029233
 20
744.9463838390715
 30
0.0
 11
2.017791297483217
 21
0.0566756242992028
 31
0.0
210
0.0
220
0.0
230
1.0
 40
0.5182422954015951
 41
3.058691575200866
 42
3.523688941762746
1001
AcDbBlockRepETag
1070
     1
1071
       45
1005
E6D
  0
ELLIPSE
  5
E6E
330
A3B
100
AcDbEntity
  8
0
  6
Continuous
 62
     7
370
    15
100
AcDbEllipse
 10
1396.047267131063
 20
744.9463838390715
 30
0.0
 11
2.01779129748322
 21
-0.0566756242992312
 31
0.0
210
0.0
220
0.0
230
0.9999999999999998
 40
0.5182422954015942
 41
5.823770025070817
 42
6.366086385569126
1001
AcDbBlockRepETag
1070
     1
1071
       46
1005
E6E
  0
LINE
  5
E6F
330
A3B
100
AcDbEntity
  8
0
  6
Continuous
 62
     7
370
    15
100
AcDbLine
 10
1398.658593676933
 20
748.3356941825547
 30
0.0
 11
1390.459187122011
 21
748.3356941825547
 31
0.0
1001
AcDbBlockRepETag
1070
     1
1071
       47
1005
E6F
  0
LINE
  5
E70
330
A3B
100
AcDbEntity
  8
0
  6
Continuous
 62
     7
370
    15
100
AcDbLine
 10
1390.459187122011
 20
747.4055637008347
 30
0.0
 11
1390.459187122011
 21
748.3356941825547
 31
0.0
1001
AcDbBlockRepETag
1070
     1
1071
       48
1005
E70
  0
LINE
  5
E71
330
A3B
100
AcDbEntity
  8
0
  6
Continuous
 62
     7
370
    15
100
AcDbLine
 10
1398.658593676933
 20
748.3356941825547
 30
0.0
 11
1398.658593676933
 21
747.4055637008347
 31
0.0
1001
AcDbBlockRepETag
1070
     1
1071
       49
1005
E71
  0
LINE
  5
E72
330
A3B
100
AcDbEntity
  8
0
  6
Continuous
 62
     7
370
    15
100
AcDbLine
 10
1390.459187122011
 20
748.3356941825547
 30
0.0
 11
1390.459187122011
 21
748.5002030021347
 31
0.0
1001
AcDbBlockRepETag
1070
     1
1071
       50
1005
E72
  0
LINE
  5
E73
330
A3B
100
AcDbEntity
  8
0
  6
Continuous
 62
     7
370
    15
100
AcDbLine
 10
1398.658593676933
 20
748.5002030021347
 30
0.0
 11
1398.658593676933
 21
748.3356941825547
 31
0.0
1001
AcDbBlockRepETag
1070
     1
1071
       51
1005
E73
  0
SPLINE
  5
E74
330
A3B
100
AcDbEntity
  8
0
  6
Continuous
 62
     7
370
    15
100
AcDbSpline
210
0.0
220
0.0
230
1.0
 70
     8
 71
     3
 72
    10
 73
     6
 74
     0
 42
0.0000000001
 43
0.0000000001
 40
0.0
 40
0.0
 40
0.0
 40
0.0
 40
0.3528695861589444
 40
0.7156956243745038
 40
1.0
 40
1.0
 40
1.0
 40
1.0
 10
1390.853851361149
 20
739.135478842894
 30
0.0
 10
1391.005586031821
 20
739.2170589682657
 30
0.0
 10
1391.313336668672
 20
739.3825210569657
 30
0.0
 10
1391.771578262099
 20
739.4578099841334
 30
0.0
 10
1392.07263542506
 20
739.4238601595215
 30
0.0
 10
1392.204899134063
 20
739.4089449531235
 30
0.0
1001
AcDbBlockRepETag
1070
     1
1071
       52
1005
E74
  0
SPLINE
  5
E75
330
A3B
100
AcDbEntity
  8
0
  6
Continuous
 62
     7
370
    15
100
AcDbSpline
210
0.0
220
0.0
230
1.0
 70
     8
 71
     3
 72
    11
 73
     7
 74
     0
 42
0.0000000001
 43
0.0000000001
 40
0.0
 40
0.0
 40
0.0
 40
0.0
 40
0.2461081774083202
 40
0.5535455641023856
 40
0.8691227156093129
 40
1.0
 40
1.0
 40
1.0
 40
1.0
 10
1392.204899134063
 20
739.4089449531235
 30
0.0
 10
1392.256261773034
 20
739.4001493900002
 30
0.0
 10
1392.371786422649
 20
739.3803664433219
 30
0.0
 10
1392.510239656099
 20
739.3567358965895
 30
0.0
 10
1392.591683990931
 20
739.3380776019073
 30
0.0
 10
1392.614637362354
 20
739.3271055589407
 30
0.0
 10
1392.621366100335
 20
739.323889125029
 30
0.0
1001
AcDbBlockRepETag
1070
     1
1071
       53
1005
E75
  0
LINE
  5
E76
330
A3B
100
AcDbEntity
  8
0
  6
Continuous
 62
     7
370
    15
100
AcDbLine
 10
1393.808594115959
 20
738.638435710112
 30
0.0
 11
1392.621366100335
 21
739.323889125029
 31
0.0
1001
AcDbBlockRepETag
1070
     1
1071
       54
1005
E76
  0
LINE
  5
E77
330
A3B
100
AcDbEntity
  8
0
  6
Continuous
 62
     7
370
    15
100
AcDbLine
 10
1393.808594115959
 20
737.7512801772751
 30
0.0
 11
1393.808594115959
 21
738.638435710112
 31
0.0
1001
AcDbBlockRepETag
1070
     1
1071
       55
1005
E77
  0
SPLINE
  5
E78
330
A3B
100
AcDbEntity
  8
0
  6
Continuous
 62
     7
370
    15
100
AcDbSpline
210
0.0
220
0.0
230
1.0
 70
     8
 71
     3
 72
    11
 73
     7
 74
     0
 42
0.0000000001
 43
0.0000000001
 40
0.0
 40
0.0
 40
0.0
 40
0.0
 40
0.312136190687821
 40
0.6345399630129919
 40
0.753869719066829
 40
1.0
 40
1.0
 40
1.0
 40
1.0
 10
1396.495822144621
 20
739.323889125029
 30
0.0
 10
1396.515385496261
 20
739.3315174329835
 30
0.0
 10
1396.555155727321
 20
739.3470249787017
 30
0.0
 10
1396.664675989941
 20
739.3666354297319
 30
0.0
 10
1396.784270661698
 20
739.387004632852
 30
0.0
 10
1396.860768904495
 20
739.400115223427
 30
0.0
 10
1396.912288994477
 20
739.4089449531235
 30
0.0
1001
AcDbBlockRepETag
1070
     1
1071
       56
1005
E78
  0
SPLINE
  5
E79
330
A3B
100
AcDbEntity
  8
0
  6
Continuous
 62
     7
370
    15
100
AcDbSpline
210
0.0
220
0.0
230
1.0
 70
     8
 71
     3
 72
    11
 73
     7
 74
     0
 42
0.0000000001
 43
0.0000000001
 40
0.0
 40
0.0
 40
0.0
 40
0.0
 40
0.3818690478200236
 40
0.5786310119821489
 40
0.7753803885022296
 40
1.0
 40
1.0
 40
1.0
 40
1.0
 10
1396.912288994477
 20
739.4089449531236
 30
0.0
 10
1397.090251156825
 20
739.4268329325983
 30
0.0
 10
1397.359910158205
 20
739.453937877932
 30
0.0
 10
1397.71214022742
 20
739.385301248224
 30
0.0
 10
1397.98782592673
 20
739.2948936595985
 30
0.0
 10
1398.16753772545
 20
739.190909688302
 30
0.0
 10
1398.263336883807
 20
739.135478842894
 30
0.0
1001
AcDbBlockRepETag
1070
     1
1071
       57
1005
E79
  0
LINE
  5
E7A
330
A3B
100
AcDbEntity
  8
0
  6
Continuous
 62
     7
370
    15
100
AcDbLine
 10
1395.308594012582
 20
738.638435710112
 30
0.0
 11
1395.308594012582
 21
737.7512801772751
 31
0.0
1001
AcDbBlockRepETag
1070
     1
1071
       58
1005
E7A
  0
LINE
  5
E7B
330
A3B
100
AcDbEntity
  8
0
  6
Continuous
 62
     7
370
    15
100
AcDbLine
 10
1395.308594012582
 20
738.638435710112
 30
0.0
 11
1396.495822144621
 21
739.323889125029
 31
0.0
1001
AcDbBlockRepETag
1070
     1
1071
       59
1005
E7B
  0
LINE
  5
E7C
330
A3B
100
AcDbEntity
  8
0
  6
Continuous
 62
     7
370
    15
100
AcDbLine
 10
1390.459187122011
 20
748.5541452056565
 30
0.0
 11
1398.658593676933
 21
748.5541452056565
 31
0.0
1001
AcDbBlockRepETag
1070
     1
1071
       60
1005
E7C
  0
LINE
  5
E7D
330
A3B
100
AcDbEntity
  8
0
  6
Continuous
 62
     7
370
    15
100
AcDbLine
 10
1390.459187122011
 20
748.5002030021347
 30
0.0
 11
1390.459187122011
 21
748.5541452056565
 31
0.0
1001
AcDbBlockRepETag
1070
     1
1071
       61
1005
E7D
  0
LINE
  5
E7E
330
A3B
100
AcDbEntity
  8
0
  6
Continuous
 62
     7
370
    15
100
AcDbLine
 10
1398.658593676933
 20
748.5541452056565
 30
0.0
 11
1398.658593676933
 21
748.5002030021347
 31
0.0
1001
AcDbBlockRepETag
1070
     1
1071
       62
1005
E7E
  0
ARC
  5
E7F
330
A3B
100
AcDbEntity
  8
0
  6
Continuous
 62
     7
370
    15
100
AcDbCircle
 10
1396.144932201288
 20
740.3141496546822
 30
0.0
 40
1.186689512794983
100
AcDbArc
 50
310.2884883282214
 51
2.156539251445318
1001
AcDbBlockRepETag
1070
     1
1071
       63
1005
E7F
  0
ELLIPSE
  5
E80
330
A3B
100
AcDbEntity
  8
0
  6
Continuous
 62
     7
370
    15
100
AcDbEllipse
 10
1397.433733150221
 20
736.2054164234148
 30
0.0
 11
0.0
 21
4.156704323820548
 31
0.0
210
0.0
220
0.0
230
1.0
 40
0.6191197188363841
 41
6.046805672558989
 42
6.323200654212581
1001
AcDbBlockRepETag
1070
     1
1071
       64
1005
E80
  0
SPLINE
  5
E81
330
A3B
100
AcDbEntity
  8
0
  6
Continuous
 62
     7
370
    15
100
AcDbSpline
210
0.0
220
0.0
230
1.0
 70
     8
 71
     3
 72
    10
 73
     6
 74
     0
 42
0.0000000001
 43
0.0000000001
 40
0.0
 40
0.0
 40
0.0
 40
0.0
 40
0.825107162177151
 40
0.9899846728426284
 40
0.9999999999999998
 40
0.9999999999999998
 40
0.9999999999999998
 40
0.9999999999999998
 10
1398.263336883807
 20
739.6020640021958
 30
0.0
 10
1398.216148089388
 20
739.7818575802092
 30
0.0
 10
1398.15952976713
 20
739.9975785127955
 30
0.0
 10
1398.056515634019
 20
740.2080012551745
 30
0.0
 10
1398.037495593757
 20
740.2444236732435
 30
0.0
 10
1398.036406401494
 20
740.2465094215073
 30
0.0
1001
AcDbBlockRepETag
1070
     1
1071
       65
1005
E81
  0
ELLIPSE
  5
E82
330
A3B
100
AcDbEntity
  8
0
  6
Continuous
 62
     7
370
    15
100
AcDbEllipse
 10
1391.683455010076
 20
736.2054164234148
 30
0.0
 11
0.0
 21
4.156704323820548
 31
0.0
210
0.0
220
0.0
230
1.0
 40
0.6191197188363824
 41
6.243169960146612
 42
6.519564941800198
1001
AcDbBlockRepETag
1070
     1
1071
       66
1005
E82
  0
ARC
  5
E83
330
A3B
100
AcDbEntity
  8
0
  6
Continuous
 62
     7
370
    15
100
AcDbCircle
 10
1392.972255662335
 20
740.3141493926259
 30
0.0
 40
1.186689141593597
100
AcDbArc
 50
177.8434474120733
 51
229.711513246901
1001
AcDbBlockRepETag
1070
     1
1071
       67
1005
E83
  0
SPLINE
  5
E84
330
A3B
100
AcDbEntity
  8
0
  6
Continuous
 62
     7
370
    15
100
AcDbSpline
210
0.0
220
0.0
230
1.0
 70
     8
 71
     3
 72
    10
 73
     6
 74
     0
 42
0.0000000001
 43
0.0000000001
 40
0.0
 40
0.0
 40
0.0
 40
0.0
 40
0.0100153280410158
 40
0.1748927650242909
 40
1.0
 40
1.0
 40
1.0
 40
1.0
 10
1391.080781610632
 20
740.2465094215073
 30
0.0
 10
1391.079692418234
 20
740.2444236732803
 30
0.0
 10
1391.060672385202
 20
740.2080012742253
 30
0.0
 10
1390.95765895298
 20
739.9975783635801
 30
0.0
 10
1390.901040373859
 20
739.7818575211181
 30
0.0
 10
1390.853851361149
 20
739.6020640021958
 30
0.0
1001
AcDbBlockRepETag
1070
     1
1071
       68
1005
E84
  0
LINE
  5
E85
330
A3B
100
AcDbEntity
  8
0
  6
Continuous
 62
     7
370
    15
100
AcDbLine
 10
1391.208594458127
 20
743.9322222358383
 30
0.0
 11
1391.080781610632
 21
742.9613817817368
 31
0.0
1001
AcDbBlockRepETag
1070
     1
1071
       69
1005
E85
  0
ELLIPSE
  5
E86
330
A3B
100
AcDbEntity
  8
0
  6
Continuous
 62
     7
370
    15
100
AcDbEllipse
 10
1392.808594243964
 20
742.9614098350953
 30
0.0
 11
1.999947288241905
 21
-0.131083470719318
 31
0.0
210
0.0
220
0.0
230
1.0
 40
0.1105758778349963
 41
3.361979999278704
 42
3.676661615043001
1001
AcDbBlockRepETag
1070
     1
1071
       70
1005
E86
  0
LINE
  5
E87
330
A3B
100
AcDbEntity
  8
0
  6
Continuous
 62
     7
370
    15
100
AcDbLine
 10
1391.208594458127
 20
743.9322222358383
 30
0.0
 11
1391.208594458127
 21
744.5038903838791
 31
0.0
1001
AcDbBlockRepETag
1070
     1
1071
       71
1005
E87
  0
ELLIPSE
  5
E88
330
A3B
100
AcDbEntity
  8
0
  6
Continuous
 62
     7
370
    15
100
AcDbEllipse
 10
1396.308593916333
 20
742.9614098350953
 30
0.0
 11
1.999947288241903
 21
0.1310834707192896
 31
0.0
210
0.0
220
0.0
230
1.0
 40
0.1105758778349823
 41
5.748116345726602
 42
6.062797961491011
1001
AcDbBlockRepETag
1070
     1
1071
       72
1005
E88
  0
LINE
  5
E89
330
A3B
100
AcDbEntity
  8
0
  6
Continuous
 62
     7
370
    15
100
AcDbLine
 10
1397.842813309231
 20
744.4318879729904
 30
0.0
 11
1398.036406401494
 21
742.9613817817368
 31
0.0
1001
AcDbBlockRepETag
1070
     1
1071
       73
1005
E89
  0
LINE
  5
E8A
330
A3B
100
AcDbEntity
  8
0
  6
Continuous
 62
     7
370
    15
100
AcDbLine
 10
1390.459187122011
 20
750.290845740477
 30
0.0
 11
1398.658593676933
 21
750.290845740477
 31
0.0
1001
AcDbBlockRepETag
1070
     1
1071
       74
1005
E8A
  0
LINE
  5
E8B
330
A3B
100
AcDbEntity
  8
0
  6
Continuous
 62
     7
370
    15
100
AcDbLine
 10
1390.459187122011
 20
748.5541452056565
 30
0.0
 11
1390.459187122011
 21
750.290845740477
 31
0.0
1001
AcDbBlockRepETag
1070
     1
1071
       75
1005
E8B
  0
LINE
  5
E8C
330
A3B
100
AcDbEntity
  8
0
  6
Continuous
 62
     7
370
    15
100
AcDbLine
 10
1398.658593676933
 20
750.290845740477
 30
0.0
 11
1398.658593676933
 21
748.5541452056565
 31
0.0
1001
AcDbBlockRepETag
1070
     1
1071
       76
1005
E8C
  0
LINE
  5
E8D
330
A3B
100
AcDbEntity
  8
0
  6
Continuous
 62
     7
370
    15
100
AcDbLine
 10
1391.080781610632
 20
742.9613817817368
 30
0.0
 11
1391.080781610632
 21
740.2465094215073
 31
0.0
1001
AcDbBlockRepETag
1070
     1
1071
       77
1005
E8D
  0
LINE
  5
E8E
330
A3B
100
AcDbEntity
  8
0
  6
Continuous
 62
     7
370
    15
100
AcDbLine
 10
1398.036406401494
 20
742.9613817817368
 30
0.0
 11
1398.036406401494
 21
740.2465094215073
 31
0.0
1001
AcDbBlockRepETag
1070
     1
1071
       78
1005
E8E
  0
ARC
  5
E8F
330
A3B
100
AcDbEntity
  8
0
  6
Continuous
 62
     7
370
    15
100
AcDbCircle
 10
1394.55859406427
 20
739.8736203293431
 30
0.0
 40
2.250961493128561
100
AcDbArc
 50
250.5374333118868
 51
289.4625666881254
1001
AcDbBlockRepETag
1070
     1
1071
       79
1005
E8F
  0
LINE
  5
E90
330
A3B
100
AcDbEntity
  8
0
  6
Continuous
 62
     7
370
    15
100
AcDbLine
 10
1391.786407006853
 20
740.3588045722641
 30
0.0
 11
1391.786407006853
 21
744.1600907928147
 31
0.0
1001
AcDbBlockRepETag
1070
     1
1071
       80
1005
E90
  0
ELLIPSE
  5
E91
330
A3B
100
AcDbEntity
  8
0
  6
Continuous
 62
     7
370
    15
100
AcDbEllipse
 10
1391.865981769224
 20
746.1554154920889
 30
0.0
 11
0.0
 21
1.999999812799984
 31
0.0
210
0.0
220
0.0
230
1.0
 40
0.5829944458070801
 41
2.617993877991601
 42
3.073292905289411
1001
AcDbBlockRepETag
1070
     1
1071
       81
1005
E91
  0
ELLIPSE
  5
E92
330
A3B
100
AcDbEntity
  8
0
  6
Continuous
 62
     7
370
    15
100
AcDbEllipse
 10
1397.251206391073
 20
746.1554154920889
 30
0.0
 11
0.0
 21
1.999999812799984
 31
0.0
210
0.0
220
0.0
230
1.0
 40
0.5829944458070836
 41
3.209892401890204
 42
3.665191429188053
1001
AcDbBlockRepETag
1070
     1
1071
       82
1005
E92
  0
LINE
  5
E93
330
A3B
100
AcDbEntity
  8
0
  6
Continuous
 62
     7
370
    15
100
AcDbLine
 10
1397.330781238103
 20
740.3588045722641
 30
0.0
 11
1397.330781238103
 21
744.1600907928147
 31
0.0
1001
AcDbBlockRepETag
1070
     1
1071
       83
1005
E93
  0
ARC
  5
E94
330
A3B
100
AcDbEntity
  8
0
  6
Continuous
 62
     7
370
    15
100
AcDbCircle
 10
1394.558594080148
 20
739.9374668816721
 30
0.0
 40
1.499999859600193
100
AcDbArc
 50
240.0000000000027
 51
300.0000000000004
1001
AcDbBlockRepETag
1070
     1
1071
       84
1005
E94
  0
LINE
  5
E95
330
A3B
100
AcDbEntity
  8
0
  6
Continuous
 62
     7
370
    15
100
AcDbLine
 10
1390.459187122011
 20
750.6405461913742
 30
0.0
 11
1398.658593676933
 21
750.6405461913742
 31
0.0
1001
AcDbBlockRepETag
1070
     1
1071
       85
1005
E95
  0
LINE
  5
E96
330
A3B
100
AcDbEntity
  8
0
  6
Continuous
 62
     7
370
    15
100
AcDbLine
 10
1390.459187122011
 20
750.290845740477
 30
0.0
 11
1390.459187122011
 21
750.6405461913742
 31
0.0
1001
AcDbBlockRepETag
1070
     1
1071
       86
1005
E96
  0
LINE
  5
E97
330
A3B
100
AcDbEntity
  8
0
  6
Continuous
 62
     7
370
    15
100
AcDbLine
 10
1398.658593676933
 20
750.6405461913742
 30
0.0
 11
1398.658593676933
 21
750.290845740477
 31
0.0
1001
AcDbBlockRepETag
1070
     1
1071
       87
1005
E97
  0
LINE
  5
E98
330
A3B
100
AcDbEntity
  8
0
  6
Continuous
 62
     7
370
    15
100
AcDbLine
 10
1390.459187122011
 20
750.6405461913742
 30
0.0
 11
1390.459187122011
 21
750.7721532470383
 31
0.0
1001
AcDbBlockRepETag
1070
     1
1071
       88
1005
E98
  0
LINE
  5
E99
330
A3B
100
AcDbEntity
  8
0
  6
Continuous
 62
     7
370
    15
100
AcDbLine
 10
1398.658593676933
 20
750.7721532470383
 30
0.0
 11
1398.658593676933
 21
750.6405461913742
 31
0.0
1001
AcDbBlockRepETag
1070
     1
1071
       89
1005
E99
  0
LINE
  5
E9A
330
A3B
100
AcDbEntity
  8
0
  6
Continuous
 62
     7
370
    15
100
AcDbLine
 10
1397.330781238103
 20
744.1600907928147
 30
0.0
 11
1397.258125388012
 21
744.1554416305222
 31
0.0
1001
AcDbBlockRepETag
1070
     1
1071
       90
1005
E9A
  0
LINE
  5
E9B
330
A3B
100
AcDbEntity
  8
0
  6
Continuous
 62
     7
370
    15
100
AcDbLine
 10
1397.258125388012
 20
744.1554416305222
 30
0.0
 11
1391.859062740528
 21
744.1554416305222
 31
0.0
1001
AcDbBlockRepETag
1070
     1
1071
       91
1005
E9B
  0
LINE
  5
E9C
330
A3B
100
AcDbEntity
  8
0
  6
Continuous
 62
     7
370
    15
100
AcDbLine
 10
1391.859062740528
 20
744.1554416305222
 30
0.0
 11
1391.786407006853
 21
744.1600907928147
 31
0.0
1001
AcDbBlockRepETag
1070
     1
1071
       92
1005
E9C
  0
SPLINE
  5
E9D
330
A3B
100
AcDbEntity
  8
0
  6
Continuous
 62
     7
370
    15
100
AcDbSpline
210
0.0
220
0.0
230
1.0
 70
     8
 71
     3
 72
    10
 73
     6
 74
     0
 42
0.0000000001
 43
0.0000000001
 40
0.0
 40
0.0
 40
0.0
 40
0.0
 40
0.3772981465367174
 40
0.7657915053218432
 40
0.9999999999999998
 40
0.9999999999999998
 40
0.9999999999999998
 40
0.9999999999999998
 10
1392.050830440545
 20
740.319823134581
 30
0.0
 10
1392.035698496594
 20
740.3271242036201
 30
0.0
 10
1392.004985612782
 20
740.341942979438
 30
0.0
 10
1391.905865783502
 20
740.3479953047295
 30
0.0
 10
1391.819057167183
 20
740.3558502115384
 30
0.0
 10
1391.786407006853
 20
740.3588045722641
 30
0.0
1001
AcDbBlockRepETag
1070
     1
1071
       93
1005
E9D
  0
ARC
  5
E9E
330
A3B
100
AcDbEntity
  8
0
  6
Continuous
 62
     7
370
    15
100
AcDbCircle
 10
1393.193894135489
 20
740.313257292068
 30
0.0
 40
1.14308255213172
100
AcDbArc
 50
179.6708924189958
 51
239.9428717877795
1001
AcDbBlockRepETag
1070
     1
1071
       94
1005
E9E
  0
ARC
  5
E9F
330
A3B
100
AcDbEntity
  8
0
  6
Continuous
 62
     7
370
    15
100
AcDbCircle
 10
1395.923293313449
 20
740.3132577480785
 30
0.0
 40
1.143083345516732
100
AcDbArc
 50
300.0571512980418
 51
0.3290844951889674
1001
AcDbBlockRepETag
1070
     1
1071
       95
1005
E9F
  0
SPLINE
  5
EA0
330
A3B
100
AcDbEntity
  8
0
  6
Continuous
 62
     7
370
    15
100
AcDbSpline
210
0.0
220
0.0
230
1.0
 70
     8
 71
     3
 72
    10
 73
     6
 74
     0
 42
0.0000000001
 43
0.0000000001
 40
0.0
 40
0.0
 40
0.0
 40
0.0
 40
0.2342097912889874
 40
0.6116604430030025
 40
1.0
 40
1.0
 40
1.0
 40
1.0
 10
1397.330781238103
 20
740.3588045722641
 30
0.0
 10
1397.298128352632
 20
740.3558501813947
 30
0.0
 10
1397.212852334569
 20
740.3481345175103
 30
0.0
 10
1397.113095429191
 20
740.3419667181637
 30
0.0
 10
1397.082083998329
 20
740.3272739687021
 30
0.0
 10
1397.066357804411
 20
740.319823134581
 30
0.0
1001
AcDbBlockRepETag
1070
     1
1071
       96
1005
EA0
  0
LINE
  5
EA1
330
A3B
100
AcDbEntity
  8
0
  6
Continuous
 62
     7
370
    15
100
AcDbLine
 10
1392.058594411188
 20
744.1554416305222
 30
0.0
 11
1392.058594411188
 21
740.3127301818527
 31
0.0
1001
AcDbBlockRepETag
1070
     1
1071
       97
1005
EA1
  0
ARC
  5
EA2
330
A3B
100
AcDbEntity
  8
0
  6
Continuous
 62
     7
370
    15
100
AcDbCircle
 10
1391.08709554413
 20
739.2571198653339
 30
0.0
 40
1.434616042373773
100
AcDbArc
 50
47.37602799514486
 51
47.7960231849107
1001
AcDbBlockRepETag
1070
     1
1071
       98
1005
EA2
  0
ARC
  5
EA3
330
A3B
100
AcDbEntity
  8
0
  6
Continuous
 62
     7
370
    15
100
AcDbCircle
 10
1398.02872139318
 20
739.2586209034375
 30
0.0
 40
1.432582930364103
100
AcDbArc
 50
132.2036787865835
 51
132.6242700333577
1001
AcDbBlockRepETag
1070
     1
1071
       99
1005
EA3
  0
LINE
  5
EA4
330
A3B
100
AcDbEntity
  8
0
  6
Continuous
 62
     7
370
    15
100
AcDbLine
 10
1397.058593833768
 20
744.1554416305222
 30
0.0
 11
1397.058593833768
 21
740.3127301818527
 31
0.0
1001
AcDbBlockRepETag
1070
     1
1071
      100
1005
EA4
  0
LINE
  5
EA5
330
A3B
100
AcDbEntity
  8
0
  6
Continuous
 62
     7
370
    15
100
AcDbLine
 10
1390.459187122011
 20
758.6672056800522
 30
0.0
 11
1398.658593676933
 21
758.6672056800522
 31
0.0
1001
AcDbBlockRepETag
1070
     1
1071
      101
1005
EA5
  0
LINE
  5
EA6
330
A3B
100
AcDbEntity
  8
0
  6
Continuous
 62
     7
370
    15
100
AcDbLine
 10
1390.459187122011
 20
758.3316911346115
 30
0.0
 11
1390.459187122011
 21
758.6672056800522
 31
0.0
1001
AcDbBlockRepETag
1070
     1
1071
      102
1005
EA6
  0
LINE
  5
EA7
330
A3B
100
AcDbEntity
  8
0
  6
Continuous
 62
     7
370
    15
100
AcDbLine
 10
1398.658593676933
 20
758.6672056800522
 30
0.0
 11
1398.658593676933
 21
758.3316911346115
 31
0.0
1001
AcDbBlockRepETag
1070
     1
1071
      103
1005
EA7
  0
LINE
  5
EA8
330
A3B
100
AcDbEntity
  8
0
  6
Continuous
 62
     7
370
    15
100
AcDbLine
 10
1398.658593676933
 20
759.9286783820786
 30
0.0
 11
1390.459187122011
 21
759.9286783820786
 31
0.0
1001
AcDbBlockRepETag
1070
     1
1071
      104
1005
EA8
  0
LINE
  5
EA9
330
A3B
100
AcDbEntity
  8
0
  6
Continuous
 62
     7
370
    15
100
AcDbLine
 10
1390.459187122011
 20
758.6672056800522
 30
0.0
 11
1390.459187122011
 21
759.9286783820786
 31
0.0
1001
AcDbBlockRepETag
1070
     1
1071
      105
1005
EA9
  0
LINE
  5
EAA
330
A3B
100
AcDbEntity
  8
0
  6
Continuous
 62
     7
370
    15
100
AcDbLine
 10
1398.658593676933
 20
759.9286783820786
 30
0.0
 11
1398.658593676933
 21
758.6672056800522
 31
0.0
1001
AcDbBlockRepETag
1070
     1
1071
      106
1005
EAA
  0
LINE
  5
EAB
330
A3B
100
AcDbEntity
  8
0
  6
Continuous
 62
     7
370
    15
100
AcDbLine
 10
1390.459187122011
 20
751.7043698913254
 30
0.0
 11
1398.008593849787
 21
751.7043698913254
 31
0.0
1001
AcDbBlockRepETag
1070
     1
1071
      107
1005
EAB
  0
LINE
  5
EAC
330
A3B
100
AcDbEntity
  8
0
  6
Continuous
 62
     7
370
    15
100
AcDbLine
 10
1390.459187122011
 20
753.3851016647019
 30
0.0
 11
1398.008593849787
 21
753.3851016647019
 31
0.0
1001
AcDbBlockRepETag
1070
     1
1071
      108
1005
EAC
  0
LINE
  5
EAD
330
A3B
100
AcDbEntity
  8
0
  6
Continuous
 62
     7
370
    15
100
AcDbLine
 10
1398.008593849787
 20
753.3851016647019
 30
0.0
 11
1398.008593849787
 21
754.7315705901779
 31
0.0
1001
AcDbBlockRepETag
1070
     1
1071
      109
1005
EAD
  0
LINE
  5
EAE
330
A3B
100
AcDbEntity
  8
0
  6
Continuous
 62
     7
370
    15
100
AcDbLine
 10
1398.008593849787
 20
750.7721532470383
 30
0.0
 11
1398.008593849787
 21
751.7043698913254
 31
0.0
1001
AcDbBlockRepETag
1070
     1
1071
      110
1005
EAE
  0
LINE
  5
EAF
330
A3B
100
AcDbEntity
  8
0
  6
Continuous
 62
     7
370
    15
100
AcDbLine
 10
1390.459187122011
 20
751.7043698913254
 30
0.0
 11
1390.459187122011
 21
753.3851016647019
 31
0.0
1001
AcDbBlockRepETag
1070
     1
1071
      111
1005
EAF
  0
LINE
  5
EB0
330
A3B
100
AcDbEntity
  8
0
  6
Continuous
 62
     7
370
    15
100
AcDbLine
 10
1398.658593676933
 20
754.7315705901779
 30
0.0
 11
1398.658593676933
 21
750.7721532470383
 31
0.0
1001
AcDbBlockRepETag
1070
     1
1071
      112
1005
EB0
  0
LINE
  5
EB1
330
A3B
100
AcDbEntity
  8
0
  6
Continuous
 62
     7
370
    15
100
AcDbLine
 10
1390.459187122011
 20
751.0236848479904
 30
0.0
 11
1398.008593849787
 21
751.0236848479904
 31
0.0
1001
AcDbBlockRepETag
1070
     1
1071
      113
1005
EB1
  0
LINE
  5
EB2
330
A3B
100
AcDbEntity
  8
0
  6
Continuous
 62
     7
370
    15
100
AcDbLine
 10
1390.459187122011
 20
751.0236848479904
 30
0.0
 11
1390.459187122011
 21
751.7043698913254
 31
0.0
1001
AcDbBlockRepETag
1070
     1
1071
      114
1005
EB2
  0
ARC
  5
EB3
330
A3B
100
AcDbEntity
  8
0
  6
Continuous
 62
     7
370
    15
100
AcDbCircle
 10
1393.208594206523
 20
740.3127445215106
 30
0.0
 40
1.149999892359996
100
AcDbArc
 50
180.0
 51
239.9999999999995
1001
AcDbBlockRepETag
1070
     1
1071
      115
1005
EB3
  0
ARC
  5
EB4
330
A3B
100
AcDbEntity
  8
0
  6
Continuous
 62
     7
370
    15
100
AcDbCircle
 10
1395.908593953773
 20
740.3127445215106
 30
0.0
 40
1.149999892360007
100
AcDbArc
 50
300.0000000000118
 51
0.0
1001
AcDbBlockRepETag
1070
     1
1071
      116
1005
EB4
  0
LINE
  5
EB5
330
A3B
100
AcDbEntity
  8
0
  6
Continuous
 62
     7
370
    15
100
AcDbLine
 10
1398.658593676933
 20
761.2446297294297
 30
0.0
 11
1390.459187122011
 21
761.2446297294297
 31
0.0
1001
AcDbBlockRepETag
1070
     1
1071
      117
1005
EB5
  0
LINE
  5
EB6
330
A3B
100
AcDbEntity
  8
0
  6
Continuous
 62
     7
370
    15
100
AcDbLine
 10
1390.459187122011
 20
759.9286783820786
 30
0.0
 11
1390.459187122011
 21
761.2446297294297
 31
0.0
1001
AcDbBlockRepETag
1070
     1
1071
      118
1005
EB6
  0
LINE
  5
EB7
330
A3B
100
AcDbEntity
  8
0
  6
Continuous
 62
     7
370
    15
100
AcDbLine
 10
1398.658593676933
 20
761.2446297294297
 30
0.0
 11
1398.658593676933
 21
759.9286783820786
 31
0.0
1001
AcDbBlockRepETag
1070
     1
1071
      119
1005
EB7
  0
LINE
  5
EB8
330
A3B
100
AcDbEntity
  8
0
  6
Continuous
 62
     7
370
    15
100
AcDbLine
 10
1390.459187122011
 20
754.98047958676
 30
0.0
 11
1398.658593676933
 21
754.98047958676
 31
0.0
1001
AcDbBlockRepETag
1070
     1
1071
      120
1005
EB8
  0
LINE
  5
EB9
330
A3B
100
AcDbEntity
  8
0
  6
Continuous
 62
     7
370
    15
100
AcDbLine
 10
1390.459187122011
 20
755.2336801177658
 30
0.0
 11
1398.508623734066
 21
755.2336801177658
 31
0.0
1001
AcDbBlockRepETag
1070
     1
1071
      121
1005
EB9
  0
LINE
  5
EBA
330
A3B
100
AcDbEntity
  8
0
  6
Continuous
 62
     7
370
    15
100
AcDbLine
 10
1398.508608600074
 20
755.2336205131211
 30
0.0
 11
1398.658593676933
 21
755.2336205131211
 31
0.0
1001
AcDbBlockRepETag
1070
     1
1071
      122
1005
EBA
  0
LINE
  5
EBB
330
A3B
100
AcDbEntity
  8
0
  6
Continuous
 62
     7
370
    15
100
AcDbLine
 10
1390.459187122011
 20
754.98047958676
 30
0.0
 11
1390.459187122011
 21
755.2336801177658
 31
0.0
1001
AcDbBlockRepETag
1070
     1
1071
      123
1005
EBB
  0
LINE
  5
EBC
330
A3B
100
AcDbEntity
  8
0
  6
Continuous
 62
     7
370
    15
100
AcDbLine
 10
1398.658593676933
 20
755.2336205131211
 30
0.0
 11
1398.658593676933
 21
754.98047958676
 31
0.0
1001
AcDbBlockRepETag
1070
     1
1071
      124
1005
EBC
  0
LINE
  5
EBD
330
A3B
100
AcDbEntity
  8
0
  6
Continuous
 62
     7
370
    15
100
AcDbLine
 10
1390.459187122011
 20
750.7629145270981
 30
0.0
 11
1390.459187122011
 21
751.0236848479904
 31
0.0
1001
AcDbBlockRepETag
1070
     1
1071
      125
1005
EBD
  0
LINE
  5
EBE
330
A3B
100
AcDbEntity
  8
0
  6
Continuous
 62
     7
370
    15
100
AcDbLine
 10
1390.459187122011
 20
755.5886257774033
 30
0.0
 11
1398.508593698912
 21
755.5886257774033
 31
0.0
1001
AcDbBlockRepETag
1070
     1
1071
      126
1005
EBE
  0
LINE
  5
EBF
330
A3B
100
AcDbEntity
  8
0
  6
Continuous
 62
     7
370
    15
100
AcDbLine
 10
1398.508593698912
 20
755.5886257774033
 30
0.0
 11
1398.658593676933
 21
755.5886257774033
 31
0.0
1001
AcDbBlockRepETag
1070
     1
1071
      127
1005
EBF
  0
LINE
  5
EC0
330
A3B
100
AcDbEntity
  8
0
  6
Continuous
 62
     7
370
    15
100
AcDbLine
 10
1390.459187122011
 20
755.2336801177658
 30
0.0
 11
1390.459187122011
 21
755.5886257774033
 31
0.0
1001
AcDbBlockRepETag
1070
     1
1071
      128
1005
EC0
  0
LINE
  5
EC1
330
A3B
100
AcDbEntity
  8
0
  6
Continuous
 62
     7
370
    15
100
AcDbLine
 10
1398.658593676933
 20
755.5886257774033
 30
0.0
 11
1398.658593676933
 21
755.2336205131211
 31
0.0
1001
AcDbBlockRepETag
1070
     1
1071
      129
1005
EC1
  0
LINE
  5
EC2
330
A3B
100
AcDbEntity
  8
0
  6
Continuous
 62
     7
370
    15
100
AcDbLine
 10
1390.459187122011
 20
754.7467697745957
 30
0.0
 11
1398.658593676933
 21
754.7467697745957
 31
0.0
1001
AcDbBlockRepETag
1070
     1
1071
      130
1005
EC2
  0
LINE
  5
EC3
330
A3B
100
AcDbEntity
  8
0
  6
Continuous
 62
     7
370
    15
100
AcDbLine
 10
1390.459187122011
 20
754.7467697745957
 30
0.0
 11
1390.459187122011
 21
754.98047958676
 31
0.0
1001
AcDbBlockRepETag
1070
     1
1071
      131
1005
EC3
  0
LINE
  5
EC4
330
A3B
100
AcDbEntity
  8
0
  6
Continuous
 62
     7
370
    15
100
AcDbLine
 10
1398.658593676933
 20
754.98047958676
 30
0.0
 11
1398.658593676933
 21
754.7467697745957
 31
0.0
1001
AcDbBlockRepETag
1070
     1
1071
      132
1005
EC4
  0
LINE
  5
EC5
330
A3B
100
AcDbEntity
  8
0
  6
Continuous
 62
     7
370
    15
100
AcDbLine
 10
1390.459187122011
 20
757.5001467353501
 30
0.0
 11
1398.508593698912
 21
757.5001467353501
 31
0.0
1001
AcDbBlockRepETag
1070
     1
1071
      133
1005
EC5
  0
LINE
  5
EC6
330
A3B
100
AcDbEntity
  8
0
  6
Continuous
 62
     7
370
    15
100
AcDbLine
 10
1398.508593698912
 20
757.5000871307053
 30
0.0
 11
1398.658593676933
 21
757.5000871307053
 31
0.0
1001
AcDbBlockRepETag
1070
     1
1071
      134
1005
EC6
  0
LINE
  5
EC7
330
A3B
100
AcDbEntity
  8
0
  6
Continuous
 62
     7
370
    15
100
AcDbLine
 10
1390.459187122011
 20
755.5886257774033
 30
0.0
 11
1390.459187122011
 21
757.5001467353501
 31
0.0
1001
AcDbBlockRepETag
1070
     1
1071
      135
1005
EC7
  0
LINE
  5
EC8
330
A3B
100
AcDbEntity
  8
0
  6
Continuous
 62
     7
370
    15
100
AcDbLine
 10
1398.658593676933
 20
757.5000871307053
 30
0.0
 11
1398.658593676933
 21
755.5886257774033
 31
0.0
1001
AcDbBlockRepETag
1070
     1
1071
      136
1005
EC8
  0
LINE
  5
EC9
330
A3B
100
AcDbEntity
  8
0
  6
Continuous
 62
     7
370
    15
100
AcDbLine
 10
1390.608594546044
 20
758.1945408469834
 30
0.0
 11
1390.70859437617
 21
758.1945408469834
 31
0.0
1001
AcDbBlockRepETag
1070
     1
1071
      137
1005
EC9
  0
LINE
  5
ECA
330
A3B
100
AcDbEntity
  8
0
  6
Continuous
 62
     7
370
    15
100
AcDbLine
 10
1390.608594546044
 20
758.1945408469834
 30
0.0
 11
1390.459187122011
 21
758.1945408469834
 31
0.0
1001
AcDbBlockRepETag
1070
     1
1071
      138
1005
ECA
  0
LINE
  5
ECB
330
A3B
100
AcDbEntity
  8
0
  6
Continuous
 62
     7
370
    15
100
AcDbLine
 10
1390.70859437617
 20
758.1945408469834
 30
0.0
 11
1398.658593676933
 21
758.1945408469834
 31
0.0
1001
AcDbBlockRepETag
1070
     1
1071
      139
1005
ECB
  0
LINE
  5
ECC
330
A3B
100
AcDbEntity
  8
0
  6
Continuous
 62
     7
370
    15
100
AcDbLine
 10
1390.459187122011
 20
758.1945408469834
 30
0.0
 11
1390.459187122011
 21
758.3316911346115
 31
0.0
1001
AcDbBlockRepETag
1070
     1
1071
      140
1005
ECC
  0
LINE
  5
ECD
330
A3B
100
AcDbEntity
  8
0
  6
Continuous
 62
     7
370
    15
100
AcDbLine
 10
1398.658593676933
 20
758.3316911346115
 30
0.0
 11
1398.658593676933
 21
758.1945408469834
 31
0.0
1001
AcDbBlockRepETag
1070
     1
1071
      141
1005
ECD
  0
LINE
  5
ECE
330
A3B
100
AcDbEntity
  8
0
  6
Continuous
 62
     7
370
    15
100
AcDbLine
 10
1390.459187122011
 20
753.8673628455796
 30
0.0
 11
1398.008593849787
 21
753.8673628455796
 31
0.0
1001
AcDbBlockRepETag
1070
     1
1071
      142
1005
ECE
  0
LINE
  5
ECF
330
A3B
100
AcDbEntity
  8
0
  6
Continuous
 62
     7
370
    15
100
AcDbLine
 10
1390.459187122011
 20
753.3851016647019
 30
0.0
 11
1390.459187122011
 21
753.8673628455796
 31
0.0
1001
AcDbBlockRepETag
1070
     1
1071
      143
1005
ECF
  0
LINE
  5
ED0
330
A3B
100
AcDbEntity
  8
0
  6
Continuous
 62
     7
370
    15
100
AcDbLine
 10
1390.459187122011
 20
757.5001467353501
 30
0.0
 11
1390.459187122011
 21
758.1945408469834
 31
0.0
1001
AcDbBlockRepETag
1070
     1
1071
      144
1005
ED0
  0
LINE
  5
ED1
330
A3B
100
AcDbEntity
  8
0
  6
Continuous
 62
     7
370
    15
100
AcDbLine
 10
1398.658593676933
 20
758.1945408469834
 30
0.0
 11
1398.658593676933
 21
757.5000871307053
 31
0.0
1001
AcDbBlockRepETag
1070
     1
1071
      145
1005
ED1
  0
LINE
  5
ED2
330
A3B
100
AcDbEntity
  8
0
  6
Continuous
 62
     7
370
    15
100
AcDbLine
 10
1390.459187122011
 20
754.7315705901779
 30
0.0
 11
1390.459187122011
 21
754.7467697745957
 31
0.0
1001
AcDbBlockRepETag
1070
     1
1071
      146
1005
ED2
  0
LINE
  5
ED3
330
A3B
100
AcDbEntity
  8
0
  6
Continuous
 62
     7
370
    15
100
AcDbLine
 10
1398.658593676933
 20
754.7467697745957
 30
0.0
 11
1398.658593676933
 21
754.7315705901779
 31
0.0
1001
AcDbBlockRepETag
1070
     1
1071
      147
1005
ED3
  0
LINE
  5
ED4
330
A3B
100
AcDbEntity
  8
0
  6
Continuous
 62
     7
370
    15
100
AcDbLine
 10
1390.459187122011
 20
754.5222986823715
 30
0.0
 11
1398.008593849787
 21
754.5222986823715
 31
0.0
1001
AcDbBlockRepETag
1070
     1
1071
      148
1005
ED4
  0
LINE
  5
ED5
330
A3B
100
AcDbEntity
  8
0
  6
Continuous
 62
     7
370
    15
100
AcDbLine
 10
1390.459187122011
 20
753.8673628455796
 30
0.0
 11
1390.459187122011
 21
754.5222986823715
 31
0.0
1001
AcDbBlockRepETag
1070
     1
1071
      149
1005
ED5
  0
LINE
  5
ED6
330
A3B
100
AcDbEntity
  8
0
  6
Continuous
 62
     7
370
    15
100
AcDbLine
 10
1390.459187122011
 20
754.5758832580246
 30
0.0
 11
1398.008593849787
 21
754.5758832580246
 31
0.0
1001
AcDbBlockRepETag
1070
     1
1071
      150
1005
ED6
  0
LINE
  5
ED7
330
A3B
100
AcDbEntity
  8
0
  6
Continuous
 62
     7
370
    15
100
AcDbLine
 10
1390.459187122011
 20
754.5758832580246
 30
0.0
 11
1390.459187122011
 21
754.7315705901779
 31
0.0
1001
AcDbBlockRepETag
1070
     1
1071
      151
1005
ED7
  0
LINE
  5
ED8
330
A3B
100
AcDbEntity
  8
0
  6
Continuous
 62
     7
370
    15
100
AcDbLine
 10
1390.459187122011
 20
754.5222986823715
 30
0.0
 11
1390.459187122011
 21
754.5758832580246
 31
0.0
1001
AcDbBlockRepETag
1070
     1
1071
      152
1005
ED8
  0
ENDBLK
  5
A3D
330
A3B
100
AcDbEntity
  8
0
100
AcDbBlockEnd
  0
BLOCK
  5
AD9
330
AD8
100
AcDbEntity
  8
0
100
AcDbBlockBegin
  2
3
 70
     0
 10
0.0
 20
0.0
 30
0.0
  3
3
  1

  0
CIRCLE
  5
ADB
330
AD8
100
AcDbEntity
  8
0
  6
Continuous
 62
     7
370
    15
100
AcDbCircle
 10
1427.01903764669
 20
699.9680863845477
 30
0.0
 40
2.557143347687969
  0
CIRCLE
  5
ADC
330
AD8
100
AcDbEntity
  8
0
  6
Continuous
 62
     7
370
    15
100
AcDbCircle
 10
1446.019026076913
 20
699.9680863845477
 30
0.0
 40
2.557143347687997
  0
LINE
  5
ADD
330
AD8
100
AcDbEntity
  8
0
  6
Continuous
 62
     7
370
    15
100
AcDbLine
 10
1452.314559723754
 20
695.8686794264105
 30
0.0
 11
1452.314559723754
 21
704.0680859813329
 31
0.0
  0
LINE
  5
ADE
330
AD8
100
AcDbEntity
  8
0
  6
Continuous
 62
     7
370
    15
100
AcDbLine
 10
1420.723501946349
 20
704.0680859813329
 30
0.0
 11
1420.723501946349
 21
695.8686794264105
 31
0.0
  0
LINE
  5
ADF
330
AD8
100
AcDbEntity
  8
0
  6
Continuous
 62
     7
370
    15
100
AcDbLine
 10
1452.494684960265
 20
704.0680859813329
 30
0.0
 11
1452.494684960265
 21
695.8686794264105
 31
0.0
  0
LINE
  5
AE0
330
AD8
100
AcDbEntity
  8
0
  6
Continuous
 62
     7
370
    15
100
AcDbLine
 10
1420.543376709838
 20
695.8686794264105
 30
0.0
 11
1420.543376709838
 21
704.0680859813329
 31
0.0
  0
LINE
  5
AE1
330
AD8
100
AcDbEntity
  8
0
  6
Continuous
 62
     7
370
    15
100
AcDbLine
 10
1416.025225426574
 20
704.0680859813329
 30
0.0
 11
1416.025225426574
 21
695.8686794264105
 31
0.0
  0
LINE
  5
AE2
330
AD8
100
AcDbEntity
  8
0
  6
Continuous
 62
     7
370
    15
100
AcDbLine
 10
1457.012836243529
 20
695.8686794264105
 30
0.0
 11
1457.012836243529
 21
704.0680859813329
 31
0.0
  0
ARC
  5
AE3
330
AD8
100
AcDbEntity
  8
0
  6
Continuous
 62
     7
370
    15
100
AcDbCircle
 10
1427.01903764669
 20
699.9680863845477
 30
0.0
 40
2.064745871578198
100
AcDbArc
 50
106.8934411818468
 51
253.1065588181532
  0
SPLINE
  5
AE4
330
AD8
100
AcDbEntity
  8
0
  6
Continuous
 62
     7
370
    15
100
AcDbSpline
210
0.0
220
0.0
230
1.0
 70
    24
 71
     3
 72
    12
 73
     8
 74
     0
 42
0.0000000001
 43
0.0000000001
 40
0.0
 40
0.0
 40
0.0
 40
0.0
 40
0.0905229436513634
 40
0.3342698101917303
 40
0.5719178302959981
 40
0.8008720002756202
 40
1.0
 40
1.0
 40
1.0
 40
1.0
 10
1426.419083382507
 20
697.9924408828702
 30
0.0
 10
1426.419083382507
 20
697.9742525089725
 30
0.0
 10
1426.419083382507
 20
697.907089157393
 30
0.0
 10
1426.419083382507
 20
697.7944870538626
 30
0.0
 10
1426.419083382506
 20
697.6788407136004
 30
0.0
 10
1426.419083382507
 20
697.6018954274571
 30
0.0
 10
1426.419083382507
 20
697.5863064025758
 30
0.0
 10
1426.419083382507
 20
697.5790549645063
 30
0.0
  0
ARC
  5
AE5
330
AD8
100
AcDbEntity
  8
0
  6
Continuous
 62
     7
370
    15
100
AcDbCircle
 10
1427.01903764669
 20
699.9680863845477
 30
0.0
 40
2.463223750814916
100
AcDbArc
 50
104.0981225408567
 51
255.9018774591433
  0
SPLINE
  5
AE6
330
AD8
100
AcDbEntity
  8
0
  6
Continuous
 62
     7
370
    15
100
AcDbSpline
210
0.0
220
0.0
230
1.0
 70
    24
 71
     3
 72
    12
 73
     8
 74
     0
 42
0.0000000001
 43
0.0000000001
 40
0.0
 40
0.0
 40
0.0
 40
0.0
 40
0.2147993348107259
 40
0.3377117193438926
 40
0.5650104077593497
 40
0.792158065007568
 40
1.0
 40
1.0
 40
1.0
 40
1.0
 10
1426.419083382507
 20
702.3571177728337
 30
0.0
 10
1426.419083382507
 20
702.3491026463342
 30
0.0
 10
1426.419083382507
 20
702.3365011075386
 30
0.0
 10
1426.419083382506
 20
702.2786164786025
 30
0.0
 10
1426.419083382506
 20
702.1954675310435
 30
0.0
 10
1426.419083382507
 20
702.0733974201139
 30
0.0
 10
1426.419083382507
 20
701.985655735865
 30
0.0
 10
1426.419083382507
 20
701.9437319708851
 30
0.0
  0
ARC
  5
AE7
330
AD8
100
AcDbEntity
  8
0
  6
Continuous
 62
     7
370
    15
100
AcDbCircle
 10
1427.01903764669
 20
699.9680863845477
 30
0.0
 40
2.463223750814919
100
AcDbArc
 50
284.0981225408695
 51
75.90187745914324
  0
SPLINE
  5
AE8
330
AD8
100
AcDbEntity
  8
0
  6
Continuous
 62
     7
370
    15
100
AcDbSpline
210
0.0
220
0.0
230
1.0
 70
    24
 71
     3
 72
    13
 73
     9
 74
     0
 42
0.0000000001
 43
0.0000000001
 40
0.0
 40
0.0
 40
0.0
 40
0.0
 40
0.0643749635823338
 40
0.2805382079880647
 40
0.4985550915088956
 40
0.7217366473215611
 40
0.9524400986158727
 40
1.0
 40
1.0
 40
1.0
 40
1.0
 10
1427.619044091125
 20
697.5790549645063
 30
0.0
 10
1427.619044091125
 20
697.5806174374351
 30
0.0
 10
1427.619044091124
 20
697.5874265031202
 30
0.0
 10
1427.619044091124
 20
697.6241516450686
 30
0.0
 10
1427.619044091125
 20
697.7096348022398
 30
0.0
 10
1427.619044091125
 20
697.8267500561259
 30
0.0
 10
1427.619044091124
 20
697.9269490318458
 30
0.0
 10
1427.619044091125
 20
697.9828811416997
 30
0.0
 10
1427.619044091125
 20
697.9924408828702
 30
0.0
  0
ARC
  5
AE9
330
AD8
100
AcDbEntity
  8
0
  6
Continuous
 62
     7
370
    15
100
AcDbCircle
 10
1427.01903764669
 20
699.9680863845477
 30
0.0
 40
2.064745871578202
100
AcDbArc
 50
286.8934411818468
 51
73.1065588181532
  0
SPLINE
  5
AEA
330
AD8
100
AcDbEntity
  8
0
  6
Continuous
 62
     7
370
    15
100
AcDbSpline
210
0.0
220
0.0
230
1.0
 70
    24
 71
     3
 72
    13
 73
     9
 74
     0
 42
0.0000000001
 43
0.0000000001
 40
0.0
 40
0.0
 40
0.0
 40
0.0
 40
0.0268941429989026
 40
0.27115411047661
 40
0.5106753418536423
 40
0.662330544573496
 40
0.8806143359200653
 40
0.9999999999999998
 40
0.9999999999999998
 40
0.9999999999999998
 40
0.9999999999999998
 10
1427.619044091125
 20
701.9437319708851
 30
0.0
 10
1427.619044091125
 20
701.9491379933834
 30
0.0
 10
1427.619044091125
 20
702.0036429918077
 30
0.0
 10
1427.619044091124
 20
702.1064139093041
 30
0.0
 10
1427.619044091125
 20
702.2174324312439
 30
0.0
 10
1427.619044091125
 20
702.2991021553906
 30
0.0
 10
1427.619044091125
 20
702.3437679177951
 30
0.0
 10
1427.619044091125
 20
702.3536307069611
 30
0.0
 10
1427.619044091125
 20
702.3571177728337
 30
0.0
  0
LINE
  5
AEB
330
AD8
100
AcDbEntity
  8
0
  6
Continuous
 62
     7
370
    15
100
AcDbLine
 10
1427.619044091125
 20
697.9924408828702
 30
0.0
 11
1427.619044091125
 21
701.9437319708851
 31
0.0
  0
LINE
  5
AEC
330
AD8
100
AcDbEntity
  8
0
  6
Continuous
 62
     7
370
    15
100
AcDbLine
 10
1426.419083382507
 20
701.9437319708851
 30
0.0
 11
1426.419083382507
 21
697.9924408828702
 31
0.0
  0
ARC
  5
AED
330
AD8
100
AcDbEntity
  8
0
  6
Continuous
 62
     7
370
    15
100
AcDbCircle
 10
1427.01903764669
 20
699.9680863845477
 30
0.0
 40
2.536264737416287
100
AcDbArc
 50
256.3159094805317
 51
283.6840905194683
  0
ARC
  5
AEE
330
AD8
100
AcDbEntity
  8
0
  6
Continuous
 62
     7
370
    15
100
AcDbCircle
 10
1427.01903764669
 20
699.9680863845477
 30
0.0
 40
2.536264737416287
100
AcDbArc
 50
76.31590948053169
 51
103.6840905194683
  0
LINE
  5
AEF
330
AD8
100
AcDbEntity
  8
0
  6
Continuous
 62
     7
370
    15
100
AcDbLine
 10
1427.619044091125
 20
697.5038138793644
 30
0.0
 11
1427.619044091125
 21
697.5790549645063
 31
0.0
  0
LINE
  5
AF0
330
AD8
100
AcDbEntity
  8
0
  6
Continuous
 62
     7
370
    15
100
AcDbLine
 10
1427.619044091125
 20
702.3571177728337
 30
0.0
 11
1427.619044091125
 21
702.4323588579756
 31
0.0
  0
LINE
  5
AF1
330
AD8
100
AcDbEntity
  8
0
  6
Continuous
 62
     7
370
    15
100
AcDbLine
 10
1426.419083382507
 20
702.4323588579756
 30
0.0
 11
1426.419083382507
 21
702.3571177728337
 31
0.0
  0
LINE
  5
AF2
330
AD8
100
AcDbEntity
  8
0
  6
Continuous
 62
     7
370
    15
100
AcDbLine
 10
1426.419083382507
 20
697.5790549645063
 30
0.0
 11
1426.419083382507
 21
697.5038138793644
 31
0.0
  0
ARC
  5
AF3
330
AD8
100
AcDbEntity
  8
0
  6
Continuous
 62
     7
370
    15
100
AcDbCircle
 10
1446.019026076913
 20
699.9680863845477
 30
0.0
 40
2.064745871578202
100
AcDbArc
 50
106.8934411818468
 51
253.1065588181532
  0
ARC
  5
AF4
330
AD8
100
AcDbEntity
  8
0
  6
Continuous
 62
     7
370
    15
100
AcDbCircle
 10
1446.019026076913
 20
699.9680863845477
 30
0.0
 40
2.463223750814892
100
AcDbArc
 50
104.0981225408567
 51
255.9018774591433
  0
SPLINE
  5
AF5
330
AD8
100
AcDbEntity
  8
0
  6
Continuous
 62
     7
370
    15
100
AcDbSpline
210
0.0
220
0.0
230
1.0
 70
    24
 71
     3
 72
    12
 73
     8
 74
     0
 42
0.0000000001
 43
0.0000000001
 40
0.0
 40
0.0
 40
0.0
 40
0.0
 40
0.0905229436513634
 40
0.3342698101917303
 40
0.5719178302959981
 40
0.8008720002756202
 40
1.0
 40
1.0
 40
1.0
 40
1.0
 10
1445.419017578979
 20
697.9924408828702
 30
0.0
 10
1445.419017578979
 20
697.9742525089725
 30
0.0
 10
1445.419017578979
 20
697.907089157393
 30
0.0
 10
1445.419017578979
 20
697.7944870538626
 30
0.0
 10
1445.419017578978
 20
697.6788407136004
 30
0.0
 10
1445.419017578979
 20
697.6018954274571
 30
0.0
 10
1445.419017578979
 20
697.5863064025758
 30
0.0
 10
1445.419017578979
 20
697.5790549645063
 30
0.0
  0
SPLINE
  5
AF6
330
AD8
100
AcDbEntity
  8
0
  6
Continuous
 62
     7
370
    15
100
AcDbSpline
210
0.0
220
0.0
230
1.0
 70
    24
 71
     3
 72
    12
 73
     8
 74
     0
 42
0.0000000001
 43
0.0000000001
 40
0.0
 40
0.0
 40
0.0
 40
0.0
 40
0.2147993348107259
 40
0.3377117193438926
 40
0.5650104077593497
 40
0.792158065007568
 40
1.0
 40
1.0
 40
1.0
 40
1.0
 10
1445.419017578979
 20
702.3571177728337
 30
0.0
 10
1445.419017578979
 20
702.3491026463342
 30
0.0
 10
1445.419017578979
 20
702.3365011075386
 30
0.0
 10
1445.419017578979
 20
702.2786164786025
 30
0.0
 10
1445.419017578978
 20
702.1954675310435
 30
0.0
 10
1445.419017578979
 20
702.0733974201139
 30
0.0
 10
1445.419017578979
 20
701.985655735865
 30
0.0
 10
1445.419017578979
 20
701.9437319708851
 30
0.0
  0
ARC
  5
AF7
330
AD8
100
AcDbEntity
  8
0
  6
Continuous
 62
     7
370
    15
100
AcDbCircle
 10
1446.019026076913
 20
699.9680863845477
 30
0.0
 40
2.463223750814892
100
AcDbArc
 50
284.0981225408695
 51
75.90187745914324
  0
ARC
  5
AF8
330
AD8
100
AcDbEntity
  8
0
  6
Continuous
 62
     7
370
    15
100
AcDbCircle
 10
1446.019026076913
 20
699.9680863845477
 30
0.0
 40
2.064745871578202
100
AcDbArc
 50
286.8934411818468
 51
73.1065588181532
  0
SPLINE
  5
AF9
330
AD8
100
AcDbEntity
  8
0
  6
Continuous
 62
     7
370
    15
100
AcDbSpline
210
0.0
220
0.0
230
1.0
 70
    24
 71
     3
 72
    13
 73
     9
 74
     0
 42
0.0000000001
 43
0.0000000001
 40
0.0
 40
0.0
 40
0.0
 40
0.0
 40
0.0643749635823338
 40
0.2805382079880647
 40
0.4985550915088956
 40
0.7217366473215611
 40
0.9524400986158727
 40
1.0
 40
1.0
 40
1.0
 40
1.0
 10
1446.618978287597
 20
697.5790549645063
 30
0.0
 10
1446.618978287597
 20
697.5806174374351
 30
0.0
 10
1446.618978287596
 20
697.5874265031202
 30
0.0
 10
1446.618978287597
 20
697.6241516450686
 30
0.0
 10
1446.618978287597
 20
697.7096348022398
 30
0.0
 10
1446.618978287597
 20
697.8267500561259
 30
0.0
 10
1446.618978287596
 20
697.9269490318458
 30
0.0
 10
1446.618978287597
 20
697.9828811416997
 30
0.0
 10
1446.618978287597
 20
697.9924408828702
 30
0.0
  0
SPLINE
  5
AFA
330
AD8
100
AcDbEntity
  8
0
  6
Continuous
 62
     7
370
    15
100
AcDbSpline
210
0.0
220
0.0
230
1.0
 70
    24
 71
     3
 72
    13
 73
     9
 74
     0
 42
0.0000000001
 43
0.0000000001
 40
0.0
 40
0.0
 40
0.0
 40
0.0
 40
0.0268941429989026
 40
0.27115411047661
 40
0.5106753418536423
 40
0.662330544573496
 40
0.8806143359200653
 40
0.9999999999999998
 40
0.9999999999999998
 40
0.9999999999999998
 40
0.9999999999999998
 10
1446.618978287597
 20
701.9437319708851
 30
0.0
 10
1446.618978287597
 20
701.9491379933834
 30
0.0
 10
1446.618978287597
 20
702.0036429918077
 30
0.0
 10
1446.618978287596
 20
702.1064139093041
 30
0.0
 10
1446.618978287597
 20
702.2174324312439
 30
0.0
 10
1446.618978287597
 20
702.2991021553906
 30
0.0
 10
1446.618978287597
 20
702.3437679177951
 30
0.0
 10
1446.618978287597
 20
702.3536307069611
 30
0.0
 10
1446.618978287597
 20
702.3571177728337
 30
0.0
  0
LINE
  5
AFB
330
AD8
100
AcDbEntity
  8
0
  6
Continuous
 62
     7
370
    15
100
AcDbLine
 10
1446.618978287597
 20
697.9924408828702
 30
0.0
 11
1446.618978287597
 21
701.9437319708851
 31
0.0
  0
LINE
  5
AFC
330
AD8
100
AcDbEntity
  8
0
  6
Continuous
 62
     7
370
    15
100
AcDbLine
 10
1445.419017578979
 20
701.9437319708851
 30
0.0
 11
1445.419017578979
 21
697.9924408828702
 31
0.0
  0
ARC
  5
AFD
330
AD8
100
AcDbEntity
  8
0
  6
Continuous
 62
     7
370
    15
100
AcDbCircle
 10
1446.019026076913
 20
699.9680863845477
 30
0.0
 40
2.536264737416287
100
AcDbArc
 50
256.3159094805317
 51
283.6840905194683
  0
ARC
  5
AFE
330
AD8
100
AcDbEntity
  8
0
  6
Continuous
 62
     7
370
    15
100
AcDbCircle
 10
1446.019026076913
 20
699.9680863845477
 30
0.0
 40
2.536264737416287
100
AcDbArc
 50
76.31590948053169
 51
103.6840905194683
  0
LINE
  5
AFF
330
AD8
100
AcDbEntity
  8
0
  6
Continuous
 62
     7
370
    15
100
AcDbLine
 10
1446.618978287597
 20
697.5038138793644
 30
0.0
 11
1446.618978287597
 21
697.5790549645063
 31
0.0
  0
LINE
  5
B00
330
AD8
100
AcDbEntity
  8
0
  6
Continuous
 62
     7
370
    15
100
AcDbLine
 10
1446.618978287597
 20
702.3571177728337
 30
0.0
 11
1446.618978287597
 21
702.4323588579756
 31
0.0
  0
LINE
  5
B01
330
AD8
100
AcDbEntity
  8
0
  6
Continuous
 62
     7
370
    15
100
AcDbLine
 10
1445.419017578979
 20
702.4323588579756
 30
0.0
 11
1445.419017578979
 21
702.3571177728337
 31
0.0
  0
LINE
  5
B02
330
AD8
100
AcDbEntity
  8
0
  6
Continuous
 62
     7
370
    15
100
AcDbLine
 10
1445.419017578979
 20
697.5790549645063
 30
0.0
 11
1445.419017578979
 21
697.5038138793644
 31
0.0
  0
LINE
  5
B03
330
AD8
100
AcDbEntity
  8
0
  6
Continuous
 62
     7
370
    15
100
AcDbLine
 10
1441.301171090026
 20
704.0680859813329
 30
0.0
 11
1442.167107369323
 21
704.0680859813329
 31
0.0
  0
LINE
  5
B04
330
AD8
100
AcDbEntity
  8
0
  6
Continuous
 62
     7
370
    15
100
AcDbLine
 10
1442.167107369323
 20
704.0680859813329
 30
0.0
 11
1442.167107369323
 21
695.8686794264105
 31
0.0
  0
LINE
  5
B05
330
AD8
100
AcDbEntity
  8
0
  6
Continuous
 62
     7
370
    15
100
AcDbLine
 10
1442.167107369323
 20
695.8686794264105
 30
0.0
 11
1441.301171090026
 21
695.8686794264105
 31
0.0
  0
LINE
  5
B06
330
AD8
100
AcDbEntity
  8
0
  6
Continuous
 62
     7
370
    15
100
AcDbLine
 10
1441.301171090026
 20
704.0680859813329
 30
0.0
 11
1441.301171090026
 21
695.8686794264105
 31
0.0
  0
CIRCLE
  5
B07
330
AD8
100
AcDbEntity
  8
0
  6
Continuous
 62
     7
370
    15
100
AcDbCircle
 10
1446.019026076913
 20
699.9680863845477
 30
0.0
 40
2.93876732261333
  0
LINE
  5
B08
330
AD8
100
AcDbEntity
  8
0
  6
Continuous
 62
     7
370
    15
100
AcDbLine
 10
1449.961010720153
 20
704.0680859813329
 30
0.0
 11
1449.961010720153
 21
695.8686794264105
 31
0.0
  0
LINE
  5
B09
330
AD8
100
AcDbEntity
  8
0
  6
Continuous
 62
     7
370
    15
100
AcDbLine
 10
1442.167107369323
 20
704.0680859813329
 30
0.0
 11
1449.961010720153
 21
704.0680859813329
 31
0.0
  0
LINE
  5
B0A
330
AD8
100
AcDbEntity
  8
0
  6
Continuous
 62
     7
370
    15
100
AcDbLine
 10
1449.961010720153
 20
695.8686794264105
 30
0.0
 11
1442.167107369323
 21
695.8686794264105
 31
0.0
  0
LINE
  5
B0B
330
AD8
100
AcDbEntity
  8
0
  6
Continuous
 62
     7
370
    15
100
AcDbLine
 10
1451.840345169921
 20
704.0680859813329
 30
0.0
 11
1451.840345169921
 21
695.8686794264105
 31
0.0
  0
LINE
  5
B0C
330
AD8
100
AcDbEntity
  8
0
  6
Continuous
 62
     7
370
    15
100
AcDbLine
 10
1449.961010720153
 20
704.0680859813329
 30
0.0
 11
1451.840345169921
 21
704.0680859813329
 31
0.0
  0
LINE
  5
B0D
330
AD8
100
AcDbEntity
  8
0
  6
Continuous
 62
     7
370
    15
100
AcDbLine
 10
1451.840345169921
 20
695.8686794264105
 30
0.0
 11
1449.961010720153
 21
695.8686794264105
 31
0.0
  0
LINE
  5
B0E
330
AD8
100
AcDbEntity
  8
0
  6
Continuous
 62
     7
370
    15
100
AcDbLine
 10
1423.07705094995
 20
704.0680859813329
 30
0.0
 11
1423.07705094995
 21
695.8686794264105
 31
0.0
  0
LINE
  5
B0F
330
AD8
100
AcDbEntity
  8
0
  6
Continuous
 62
     7
370
    15
100
AcDbLine
 10
1421.197716500182
 20
704.0680859813329
 30
0.0
 11
1421.197716500182
 21
695.8686794264105
 31
0.0
  0
LINE
  5
B10
330
AD8
100
AcDbEntity
  8
0
  6
Continuous
 62
     7
370
    15
100
AcDbLine
 10
1421.197716500182
 20
704.0680859813329
 30
0.0
 11
1423.07705094995
 21
704.0680859813329
 31
0.0
  0
LINE
  5
B11
330
AD8
100
AcDbEntity
  8
0
  6
Continuous
 62
     7
370
    15
100
AcDbLine
 10
1423.07705094995
 20
695.8686794264105
 30
0.0
 11
1421.197716500182
 21
695.8686794264105
 31
0.0
  0
CIRCLE
  5
B12
330
AD8
100
AcDbEntity
  8
0
  6
Continuous
 62
     7
370
    15
100
AcDbCircle
 10
1427.01903764669
 20
699.9680863845477
 30
0.0
 40
2.93876732261333
  0
LINE
  5
B13
330
AD8
100
AcDbEntity
  8
0
  6
Continuous
 62
     7
370
    15
100
AcDbLine
 10
1430.87095430078
 20
704.0680859813329
 30
0.0
 11
1430.87095430078
 21
695.8686794264105
 31
0.0
  0
LINE
  5
B14
330
AD8
100
AcDbEntity
  8
0
  6
Continuous
 62
     7
370
    15
100
AcDbLine
 10
1423.07705094995
 20
704.0680859813329
 30
0.0
 11
1430.87095430078
 21
704.0680859813329
 31
0.0
  0
LINE
  5
B15
330
AD8
100
AcDbEntity
  8
0
  6
Continuous
 62
     7
370
    15
100
AcDbLine
 10
1430.87095430078
 20
695.8686794264105
 30
0.0
 11
1423.07705094995
 21
695.8686794264105
 31
0.0
  0
LINE
  5
B16
330
AD8
100
AcDbEntity
  8
0
  6
Continuous
 62
     7
370
    15
100
AcDbLine
 10
1431.736890580077
 20
704.0680859813329
 30
0.0
 11
1431.736890580077
 21
695.8686794264105
 31
0.0
  0
LINE
  5
B17
330
AD8
100
AcDbEntity
  8
0
  6
Continuous
 62
     7
370
    15
100
AcDbLine
 10
1430.87095430078
 20
704.0680859813329
 30
0.0
 11
1431.736890580077
 21
704.0680859813329
 31
0.0
  0
LINE
  5
B18
330
AD8
100
AcDbEntity
  8
0
  6
Continuous
 62
     7
370
    15
100
AcDbLine
 10
1431.736890580077
 20
695.8686794264105
 30
0.0
 11
1430.87095430078
 21
695.8686794264105
 31
0.0
  0
CIRCLE
  5
B19
330
AD8
100
AcDbEntity
  8
0
  6
Continuous
 62
     7
370
    15
100
AcDbCircle
 10
1446.019026076913
 20
699.9680863845477
 30
0.0
 40
2.838782562456287
  0
CIRCLE
  5
B1A
330
AD8
100
AcDbEntity
  8
0
  6
Continuous
 62
     7
370
    15
100
AcDbCircle
 10
1427.01903764669
 20
699.9680863845477
 30
0.0
 40
2.838782562456287
  0
CIRCLE
  5
B1B
330
AD8
100
AcDbEntity
  8
0
  6
Continuous
 62
     7
370
    15
100
AcDbCircle
 10
1446.019026076913
 20
699.9680863845477
 30
0.0
 40
2.814700437246642
  0
CIRCLE
  5
B1C
330
AD8
100
AcDbEntity
  8
0
  6
Continuous
 62
     7
370
    15
100
AcDbCircle
 10
1427.01903764669
 20
699.9680863845477
 30
0.0
 40
2.814700437246671
  0
LINE
  5
B1D
330
AD8
100
AcDbEntity
  8
0
  6
Continuous
 62
     7
370
    15
100
AcDbLine
 10
1433.345977570434
 20
704.0680859813329
 30
0.0
 11
1433.345977570434
 21
702.8180861256879
 31
0.0
  0
LINE
  5
B1E
330
AD8
100
AcDbEntity
  8
0
  6
Continuous
 62
     7
370
    15
100
AcDbLine
 10
1433.345977570434
 20
702.8180861256879
 30
0.0
 11
1432.619039322753
 21
702.8180861256879
 31
0.0
  0
LINE
  5
B1F
330
AD8
100
AcDbEntity
  8
0
  6
Continuous
 62
     7
370
    15
100
AcDbLine
 10
1432.619039322753
 20
702.8180861256879
 30
0.0
 11
1432.619039322753
 21
697.1180868444827
 31
0.0
  0
LINE
  5
B20
330
AD8
100
AcDbEntity
  8
0
  6
Continuous
 62
     7
370
    15
100
AcDbLine
 10
1433.345977570434
 20
697.1180868444827
 30
0.0
 11
1432.619039322753
 21
697.1180868444827
 31
0.0
  0
LINE
  5
B21
330
AD8
100
AcDbEntity
  8
0
  6
Continuous
 62
     7
370
    15
100
AcDbLine
 10
1433.345977570434
 20
695.8686794264105
 30
0.0
 11
1433.345977570434
 21
697.1180868444827
 31
0.0
  0
LINE
  5
B22
330
AD8
100
AcDbEntity
  8
0
  6
Continuous
 62
     7
370
    15
100
AcDbLine
 10
1431.736890580077
 20
704.0680859813329
 30
0.0
 11
1433.345977570434
 21
704.0680859813329
 31
0.0
  0
LINE
  5
B23
330
AD8
100
AcDbEntity
  8
0
  6
Continuous
 62
     7
370
    15
100
AcDbLine
 10
1433.345977570434
 20
695.8686794264105
 30
0.0
 11
1431.736890580077
 21
695.8686794264105
 31
0.0
  0
LINE
  5
B24
330
AD8
100
AcDbEntity
  8
0
  6
Continuous
 62
     7
370
    15
100
AcDbLine
 10
1439.69208409967
 20
695.8686794264105
 30
0.0
 11
1439.69208409967
 21
697.1180868444827
 31
0.0
  0
LINE
  5
B25
330
AD8
100
AcDbEntity
  8
0
  6
Continuous
 62
     7
370
    15
100
AcDbLine
 10
1439.69208409967
 20
697.1180868444827
 30
0.0
 11
1440.41902234735
 21
697.1180868444827
 31
0.0
  0
LINE
  5
B26
330
AD8
100
AcDbEntity
  8
0
  6
Continuous
 62
     7
370
    15
100
AcDbLine
 10
1440.41902234735
 20
702.8180861256879
 30
0.0
 11
1440.41902234735
 21
697.1180868444827
 31
0.0
  0
LINE
  5
B27
330
AD8
100
AcDbEntity
  8
0
  6
Continuous
 62
     7
370
    15
100
AcDbLine
 10
1439.69208409967
 20
702.8180861256879
 30
0.0
 11
1440.41902234735
 21
702.8180861256879
 31
0.0
  0
LINE
  5
B28
330
AD8
100
AcDbEntity
  8
0
  6
Continuous
 62
     7
370
    15
100
AcDbLine
 10
1439.69208409967
 20
704.0680859813329
 30
0.0
 11
1439.69208409967
 21
702.8180861256879
 31
0.0
  0
LINE
  5
B29
330
AD8
100
AcDbEntity
  8
0
  6
Continuous
 62
     7
370
    15
100
AcDbLine
 10
1439.69208409967
 20
704.0680859813329
 30
0.0
 11
1441.301171090026
 21
704.0680859813329
 31
0.0
  0
LINE
  5
B2A
330
AD8
100
AcDbEntity
  8
0
  6
Continuous
 62
     7
370
    15
100
AcDbLine
 10
1441.301171090026
 20
695.8686794264105
 30
0.0
 11
1439.69208409967
 21
695.8686794264105
 31
0.0
  0
LINE
  5
B2B
330
AD8
100
AcDbEntity
  8
0
  6
Continuous
 62
     7
370
    15
100
AcDbLine
 10
1452.299539353271
 20
695.8686794264105
 30
0.0
 11
1452.299539353271
 21
704.0680859813329
 31
0.0
  0
LINE
  5
B2C
330
AD8
100
AcDbEntity
  8
0
  6
Continuous
 62
     7
370
    15
100
AcDbLine
 10
1451.840345169921
 20
704.0680859813329
 30
0.0
 11
1452.299539353271
 21
704.0680859813329
 31
0.0
  0
LINE
  5
B2D
330
AD8
100
AcDbEntity
  8
0
  6
Continuous
 62
     7
370
    15
100
AcDbLine
 10
1452.299539353271
 20
695.8686794264105
 30
0.0
 11
1451.840345169921
 21
695.8686794264105
 31
0.0
  0
LINE
  5
B2E
330
AD8
100
AcDbEntity
  8
0
  6
Continuous
 62
     7
370
    15
100
AcDbLine
 10
1420.738522316833
 20
695.8686794264105
 30
0.0
 11
1420.738522316833
 21
704.0680859813329
 31
0.0
  0
LINE
  5
B2F
330
AD8
100
AcDbEntity
  8
0
  6
Continuous
 62
     7
370
    15
100
AcDbLine
 10
1420.738522316833
 20
704.0680859813329
 30
0.0
 11
1421.197716500182
 21
704.0680859813329
 31
0.0
  0
LINE
  5
B30
330
AD8
100
AcDbEntity
  8
0
  6
Continuous
 62
     7
370
    15
100
AcDbLine
 10
1421.197716500182
 20
695.8686794264105
 30
0.0
 11
1420.738522316833
 21
695.8686794264105
 31
0.0
  0
CIRCLE
  5
B31
330
AD8
100
AcDbEntity
  8
0
  6
Continuous
 62
     7
370
    15
100
AcDbCircle
 10
1446.019026076913
 20
699.9680863845477
 30
0.0
 40
2.68594093057095
  0
CIRCLE
  5
B32
330
AD8
100
AcDbEntity
  8
0
  6
Continuous
 62
     7
370
    15
100
AcDbCircle
 10
1427.01903764669
 20
699.9680863845477
 30
0.0
 40
2.685940930570978
  0
LINE
  5
B33
330
AD8
100
AcDbEntity
  8
0
  6
Continuous
 62
     7
370
    15
100
AcDbLine
 10
1452.299539353271
 20
704.0680859813329
 30
0.0
 11
1452.314559723754
 21
704.0680859813329
 31
0.0
  0
LINE
  5
B34
330
AD8
100
AcDbEntity
  8
0
  6
Continuous
 62
     7
370
    15
100
AcDbLine
 10
1452.299539353271
 20
695.8686794264105
 30
0.0
 11
1452.314559723754
 21
695.8686794264105
 31
0.0
  0
LINE
  5
B35
330
AD8
100
AcDbEntity
  8
0
  6
Continuous
 62
     7
370
    15
100
AcDbLine
 10
1420.738522316833
 20
704.0680859813329
 30
0.0
 11
1420.723501946349
 21
704.0680859813329
 31
0.0
  0
LINE
  5
B36
330
AD8
100
AcDbEntity
  8
0
  6
Continuous
 62
     7
370
    15
100
AcDbLine
 10
1420.738522316833
 20
695.8686794264105
 30
0.0
 11
1420.723501946349
 21
695.8686794264105
 31
0.0
  0
LINE
  5
B37
330
AD8
100
AcDbEntity
  8
0
  6
Continuous
 62
     7
370
    15
100
AcDbLine
 10
1438.827697541137
 20
704.0680859813329
 30
0.0
 11
1438.827697541137
 21
702.8180861256879
 31
0.0
  0
LINE
  5
B38
330
AD8
100
AcDbEntity
  8
0
  6
Continuous
 62
     7
370
    15
100
AcDbLine
 10
1439.69208409967
 20
702.8180861256879
 30
0.0
 11
1438.827697541137
 21
702.8180861256879
 31
0.0
  0
LINE
  5
B39
330
AD8
100
AcDbEntity
  8
0
  6
Continuous
 62
     7
370
    15
100
AcDbLine
 10
1438.827697541137
 20
704.0680859813329
 30
0.0
 11
1439.69208409967
 21
704.0680859813329
 31
0.0
  0
LINE
  5
B3A
330
AD8
100
AcDbEntity
  8
0
  6
Continuous
 62
     7
370
    15
100
AcDbLine
 10
1434.210364128967
 20
704.0680859813329
 30
0.0
 11
1434.210364128967
 21
702.8180861256879
 31
0.0
  0
LINE
  5
B3B
330
AD8
100
AcDbEntity
  8
0
  6
Continuous
 62
     7
370
    15
100
AcDbLine
 10
1433.345977570434
 20
702.8180861256879
 30
0.0
 11
1434.210364128967
 21
702.8180861256879
 31
0.0
  0
LINE
  5
B3C
330
AD8
100
AcDbEntity
  8
0
  6
Continuous
 62
     7
370
    15
100
AcDbLine
 10
1433.345977570434
 20
704.0680859813329
 30
0.0
 11
1434.210364128967
 21
704.0680859813329
 31
0.0
  0
LINE
  5
B3D
330
AD8
100
AcDbEntity
  8
0
  6
Continuous
 62
     7
370
    15
100
AcDbLine
 10
1434.210364128967
 20
695.8686794264105
 30
0.0
 11
1434.210364128967
 21
697.1180868444827
 31
0.0
  0
LINE
  5
B3E
330
AD8
100
AcDbEntity
  8
0
  6
Continuous
 62
     7
370
    15
100
AcDbLine
 10
1433.345977570434
 20
697.1180868444827
 30
0.0
 11
1434.210364128967
 21
697.1180868444827
 31
0.0
  0
LINE
  5
B3F
330
AD8
100
AcDbEntity
  8
0
  6
Continuous
 62
     7
370
    15
100
AcDbLine
 10
1434.210364128967
 20
695.8686794264105
 30
0.0
 11
1433.345977570434
 21
695.8686794264105
 31
0.0
  0
LINE
  5
B40
330
AD8
100
AcDbEntity
  8
0
  6
Continuous
 62
     7
370
    15
100
AcDbLine
 10
1438.827697541137
 20
695.8686794264105
 30
0.0
 11
1438.827697541137
 21
697.1180868444827
 31
0.0
  0
LINE
  5
B41
330
AD8
100
AcDbEntity
  8
0
  6
Continuous
 62
     7
370
    15
100
AcDbLine
 10
1439.69208409967
 20
697.1180868444827
 30
0.0
 11
1438.827697541137
 21
697.1180868444827
 31
0.0
  0
LINE
  5
B42
330
AD8
100
AcDbEntity
  8
0
  6
Continuous
 62
     7
370
    15
100
AcDbLine
 10
1439.69208409967
 20
695.8686794264105
 30
0.0
 11
1438.827697541137
 21
695.8686794264105
 31
0.0
  0
LINE
  5
B43
330
AD8
100
AcDbEntity
  8
0
  6
Continuous
 62
     7
370
    15
100
AcDbLine
 10
1437.119070794006
 20
697.1180868444827
 30
0.0
 11
1437.119070794006
 21
702.8180861256879
 31
0.0
  0
LINE
  5
B44
330
AD8
100
AcDbEntity
  8
0
  6
Continuous
 62
     7
370
    15
100
AcDbLine
 10
1435.918990876098
 20
697.1180868444827
 30
0.0
 11
1435.918990876098
 21
702.8180861256879
 31
0.0
  0
LINE
  5
B45
330
AD8
100
AcDbEntity
  8
0
  6
Continuous
 62
     7
370
    15
100
AcDbLine
 10
1434.210364128967
 20
702.8180861256879
 30
0.0
 11
1435.918990876098
 21
702.8180861256879
 31
0.0
  0
LINE
  5
B46
330
AD8
100
AcDbEntity
  8
0
  6
Continuous
 62
     7
370
    15
100
AcDbLine
 10
1434.210364128967
 20
697.1180868444827
 30
0.0
 11
1435.918990876098
 21
697.1180868444827
 31
0.0
  0
LINE
  5
B47
330
AD8
100
AcDbEntity
  8
0
  6
Continuous
 62
     7
370
    15
100
AcDbLine
 10
1438.827697541137
 20
702.8180861256879
 30
0.0
 11
1437.119070794006
 21
702.8180861256879
 31
0.0
  0
LINE
  5
B48
330
AD8
100
AcDbEntity
  8
0
  6
Continuous
 62
     7
370
    15
100
AcDbLine
 10
1438.827697541137
 20
697.1180868444827
 30
0.0
 11
1437.119070794006
 21
697.1180868444827
 31
0.0
  0
LINE
  5
B49
330
AD8
100
AcDbEntity
  8
0
  6
Continuous
 62
     7
370
    15
100
AcDbLine
 10
1434.210364128967
 20
704.0680859813329
 30
0.0
 11
1438.827697541137
 21
704.0680859813329
 31
0.0
  0
LINE
  5
B4A
330
AD8
100
AcDbEntity
  8
0
  6
Continuous
 62
     7
370
    15
100
AcDbLine
 10
1438.827697541137
 20
695.8686794264105
 30
0.0
 11
1434.210364128967
 21
695.8686794264105
 31
0.0
  0
LINE
  5
B4B
330
AD8
100
AcDbEntity
  8
0
  6
Continuous
 62
     7
370
    15
100
AcDbLine
 10
1419.573013092895
 20
695.8686794264105
 30
0.0
 11
1419.573013092895
 21
704.0680859813329
 31
0.0
  0
LINE
  5
B4C
330
AD8
100
AcDbEntity
  8
0
  6
Continuous
 62
     7
370
    15
100
AcDbLine
 10
1419.82108762445
 20
695.8686794264105
 30
0.0
 11
1419.82108762445
 21
704.0680859813329
 31
0.0
  0
LINE
  5
B4D
330
AD8
100
AcDbEntity
  8
0
  6
Continuous
 62
     7
370
    15
100
AcDbLine
 10
1419.573013092895
 20
704.0680859813329
 30
0.0
 11
1419.82108762445
 21
704.0680859813329
 31
0.0
  0
LINE
  5
B4E
330
AD8
100
AcDbEntity
  8
0
  6
Continuous
 62
     7
370
    15
100
AcDbLine
 10
1419.82108762445
 20
695.8686794264105
 30
0.0
 11
1419.573013092895
 21
695.8686794264105
 31
0.0
  0
LINE
  5
B4F
330
AD8
100
AcDbEntity
  8
0
  6
Continuous
 62
     7
370
    15
100
AcDbLine
 10
1453.216974045654
 20
695.8686794264105
 30
0.0
 11
1453.216974045654
 21
704.0680859813329
 31
0.0
  0
LINE
  5
B50
330
AD8
100
AcDbEntity
  8
0
  6
Continuous
 62
     7
370
    15
100
AcDbLine
 10
1453.465048577209
 20
695.8686794264105
 30
0.0
 11
1453.465048577209
 21
704.0680859813329
 31
0.0
  0
LINE
  5
B51
330
AD8
100
AcDbEntity
  8
0
  6
Continuous
 62
     7
370
    15
100
AcDbLine
 10
1453.216974045654
 20
704.0680859813329
 30
0.0
 11
1453.465048577209
 21
704.0680859813329
 31
0.0
  0
LINE
  5
B52
330
AD8
100
AcDbEntity
  8
0
  6
Continuous
 62
     7
370
    15
100
AcDbLine
 10
1453.465048577209
 20
695.8686794264105
 30
0.0
 11
1453.216974045654
 21
695.8686794264105
 31
0.0
  0
LINE
  5
B53
330
AD8
100
AcDbEntity
  8
0
  6
Continuous
 62
     7
370
    15
100
AcDbLine
 10
1420.403544213195
 20
695.8686794264105
 30
0.0
 11
1420.403544213195
 21
704.0680859813329
 31
0.0
  0
LINE
  5
B54
330
AD8
100
AcDbEntity
  8
0
  6
Continuous
 62
     7
370
    15
100
AcDbLine
 10
1419.82108762445
 20
704.0680859813329
 30
0.0
 11
1420.403544213195
 21
704.0680859813329
 31
0.0
  0
LINE
  5
B55
330
AD8
100
AcDbEntity
  8
0
  6
Continuous
 62
     7
370
    15
100
AcDbLine
 10
1420.403544213195
 20
695.8686794264105
 30
0.0
 11
1419.82108762445
 21
695.8686794264105
 31
0.0
  0
LINE
  5
B56
330
AD8
100
AcDbEntity
  8
0
  6
Continuous
 62
     7
370
    15
100
AcDbLine
 10
1452.634517456908
 20
695.8686794264105
 30
0.0
 11
1452.634517456908
 21
704.0680859813329
 31
0.0
  0
LINE
  5
B57
330
AD8
100
AcDbEntity
  8
0
  6
Continuous
 62
     7
370
    15
100
AcDbLine
 10
1452.634517456908
 20
704.0680859813329
 30
0.0
 11
1453.216974045654
 21
704.0680859813329
 31
0.0
  0
LINE
  5
B58
330
AD8
100
AcDbEntity
  8
0
  6
Continuous
 62
     7
370
    15
100
AcDbLine
 10
1453.216974045654
 20
695.8686794264105
 30
0.0
 11
1452.634517456908
 21
695.8686794264105
 31
0.0
  0
LINE
  5
B59
330
AD8
100
AcDbEntity
  8
0
  6
Continuous
 62
     7
370
    15
100
AcDbLine
 10
1453.592364098449
 20
695.8686794264105
 30
0.0
 11
1453.592364098449
 21
704.0680859813329
 31
0.0
  0
LINE
  5
B5A
330
AD8
100
AcDbEntity
  8
0
  6
Continuous
 62
     7
370
    15
100
AcDbLine
 10
1453.465048577209
 20
704.0680859813329
 30
0.0
 11
1453.592364098449
 21
704.0680859813329
 31
0.0
  0
LINE
  5
B5B
330
AD8
100
AcDbEntity
  8
0
  6
Continuous
 62
     7
370
    15
100
AcDbLine
 10
1453.592364098449
 20
695.8686794264105
 30
0.0
 11
1453.465048577209
 21
695.8686794264105
 31
0.0
  0
LINE
  5
B5C
330
AD8
100
AcDbEntity
  8
0
  6
Continuous
 62
     7
370
    15
100
AcDbLine
 10
1419.445697571654
 20
695.8686794264105
 30
0.0
 11
1419.445697571654
 21
704.0680859813329
 31
0.0
  0
LINE
  5
B5D
330
AD8
100
AcDbEntity
  8
0
  6
Continuous
 62
     7
370
    15
100
AcDbLine
 10
1419.445697571654
 20
704.0680859813329
 30
0.0
 11
1419.573013092895
 21
704.0680859813329
 31
0.0
  0
LINE
  5
B5E
330
AD8
100
AcDbEntity
  8
0
  6
Continuous
 62
     7
370
    15
100
AcDbLine
 10
1419.573013092895
 20
695.8686794264105
 30
0.0
 11
1419.445697571654
 21
695.8686794264105
 31
0.0
  0
LINE
  5
B5F
330
AD8
100
AcDbEntity
  8
0
  6
Continuous
 62
     7
370
    15
100
AcDbLine
 10
1452.494684960265
 20
704.0680859813329
 30
0.0
 11
1452.634517456908
 21
704.0680859813329
 31
0.0
  0
LINE
  5
B60
330
AD8
100
AcDbEntity
  8
0
  6
Continuous
 62
     7
370
    15
100
AcDbLine
 10
1452.634517456908
 20
695.8686794264105
 30
0.0
 11
1452.494684960265
 21
695.8686794264105
 31
0.0
  0
LINE
  5
B61
330
AD8
100
AcDbEntity
  8
0
  6
Continuous
 62
     7
370
    15
100
AcDbLine
 10
1420.403544213195
 20
704.0680859813329
 30
0.0
 11
1420.543376709838
 21
704.0680859813329
 31
0.0
  0
LINE
  5
B62
330
AD8
100
AcDbEntity
  8
0
  6
Continuous
 62
     7
370
    15
100
AcDbLine
 10
1420.543376709838
 20
695.8686794264105
 30
0.0
 11
1420.403544213195
 21
695.8686794264105
 31
0.0
  0
LINE
  5
B63
330
AD8
100
AcDbEntity
  8
0
  6
Continuous
 62
     7
370
    15
100
AcDbLine
 10
1454.496447350402
 20
695.8686794264105
 30
0.0
 11
1454.496447350402
 21
704.0680859813329
 31
0.0
  0
LINE
  5
B64
330
AD8
100
AcDbEntity
  8
0
  6
Continuous
 62
     7
370
    15
100
AcDbLine
 10
1453.592364098449
 20
704.0680859813329
 30
0.0
 11
1454.496447350402
 21
704.0680859813329
 31
0.0
  0
LINE
  5
B65
330
AD8
100
AcDbEntity
  8
0
  6
Continuous
 62
     7
370
    15
100
AcDbLine
 10
1454.496447350402
 20
695.8686794264105
 30
0.0
 11
1453.592364098449
 21
695.8686794264105
 31
0.0
  0
LINE
  5
B66
330
AD8
100
AcDbEntity
  8
0
  6
Continuous
 62
     7
370
    15
100
AcDbLine
 10
1418.541614319701
 20
695.8686794264105
 30
0.0
 11
1418.541614319701
 21
704.0680859813329
 31
0.0
  0
LINE
  5
B67
330
AD8
100
AcDbEntity
  8
0
  6
Continuous
 62
     7
370
    15
100
AcDbLine
 10
1418.541614319701
 20
704.0680859813329
 30
0.0
 11
1419.445697571654
 21
704.0680859813329
 31
0.0
  0
LINE
  5
B68
330
AD8
100
AcDbEntity
  8
0
  6
Continuous
 62
     7
370
    15
100
AcDbLine
 10
1419.445697571654
 20
695.8686794264105
 30
0.0
 11
1418.541614319701
 21
695.8686794264105
 31
0.0
  0
LINE
  5
B69
330
AD8
100
AcDbEntity
  8
0
  6
Continuous
 62
     7
370
    15
100
AcDbLine
 10
1420.607749726196
 20
695.8686794264105
 30
0.0
 11
1420.607749726196
 21
704.0680859813329
 31
0.0
  0
LINE
  5
B6A
330
AD8
100
AcDbEntity
  8
0
  6
Continuous
 62
     7
370
    15
100
AcDbLine
 10
1420.543376709838
 20
704.0680859813329
 30
0.0
 11
1420.607749726196
 21
704.0680859813329
 31
0.0
  0
LINE
  5
B6B
330
AD8
100
AcDbEntity
  8
0
  6
Continuous
 62
     7
370
    15
100
AcDbLine
 10
1420.607749726196
 20
695.8686794264105
 30
0.0
 11
1420.543376709838
 21
695.8686794264105
 31
0.0
  0
LINE
  5
B6C
330
AD8
100
AcDbEntity
  8
0
  6
Continuous
 62
     7
370
    15
100
AcDbLine
 10
1452.430311943908
 20
695.8686794264105
 30
0.0
 11
1452.430311943908
 21
704.0680859813329
 31
0.0
  0
LINE
  5
B6D
330
AD8
100
AcDbEntity
  8
0
  6
Continuous
 62
     7
370
    15
100
AcDbLine
 10
1452.430311943908
 20
704.0680859813329
 30
0.0
 11
1452.494684960265
 21
704.0680859813329
 31
0.0
  0
LINE
  5
B6E
330
AD8
100
AcDbEntity
  8
0
  6
Continuous
 62
     7
370
    15
100
AcDbLine
 10
1452.494684960265
 20
695.8686794264105
 30
0.0
 11
1452.430311943908
 21
695.8686794264105
 31
0.0
  0
LINE
  5
B6F
330
AD8
100
AcDbEntity
  8
0
  6
Continuous
 62
     7
370
    15
100
AcDbLine
 10
1452.314559723754
 20
704.0680859813329
 30
0.0
 11
1452.430311943908
 21
704.0680859813329
 31
0.0
  0
LINE
  5
B70
330
AD8
100
AcDbEntity
  8
0
  6
Continuous
 62
     7
370
    15
100
AcDbLine
 10
1452.430311943908
 20
695.8686794264105
 30
0.0
 11
1452.314559723754
 21
695.8686794264105
 31
0.0
  0
LINE
  5
B71
330
AD8
100
AcDbEntity
  8
0
  6
Continuous
 62
     7
370
    15
100
AcDbLine
 10
1420.607749726196
 20
704.0680859813329
 30
0.0
 11
1420.723501946349
 21
704.0680859813329
 31
0.0
  0
LINE
  5
B72
330
AD8
100
AcDbEntity
  8
0
  6
Continuous
 62
     7
370
    15
100
AcDbLine
 10
1420.723501946349
 20
695.8686794264105
 30
0.0
 11
1420.607749726196
 21
695.8686794264105
 31
0.0
  0
LINE
  5
B73
330
AD8
100
AcDbEntity
  8
0
  6
Continuous
 62
     7
370
    15
100
AcDbLine
 10
1418.13856771173
 20
696.0180868504432
 30
0.0
 11
1418.13856771173
 21
695.8686794264105
 31
0.0
  0
LINE
  5
B74
330
AD8
100
AcDbEntity
  8
0
  6
Continuous
 62
     7
370
    15
100
AcDbLine
 10
1418.13856771173
 20
696.0180868504432
 30
0.0
 11
1418.13856771173
 21
696.1180866805699
 31
0.0
  0
LINE
  5
B75
330
AD8
100
AcDbEntity
  8
0
  6
Continuous
 62
     7
370
    15
100
AcDbLine
 10
1418.13856771173
 20
696.1180866805699
 30
0.0
 11
1418.13856771173
 21
704.0680859813329
 31
0.0
  0
LINE
  5
B76
330
AD8
100
AcDbEntity
  8
0
  6
Continuous
 62
     7
370
    15
100
AcDbLine
 10
1418.13856771173
 20
704.0680859813329
 30
0.0
 11
1418.541614319701
 21
704.0680859813329
 31
0.0
  0
LINE
  5
B77
330
AD8
100
AcDbEntity
  8
0
  6
Continuous
 62
     7
370
    15
100
AcDbLine
 10
1418.541614319701
 20
695.8686794264105
 30
0.0
 11
1418.13856771173
 21
695.8686794264105
 31
0.0
  0
LINE
  5
B78
330
AD8
100
AcDbEntity
  8
0
  6
Continuous
 62
     7
370
    15
100
AcDbLine
 10
1454.899493958373
 20
703.8180859403547
 30
0.0
 11
1454.899493958373
 21
703.9180860033122
 31
0.0
  0
LINE
  5
B79
330
AD8
100
AcDbEntity
  8
0
  6
Continuous
 62
     7
370
    15
100
AcDbLine
 10
1454.899493958373
 20
695.8686794264105
 30
0.0
 11
1454.899493958373
 21
703.8180859403547
 31
0.0
  0
LINE
  5
B7A
330
AD8
100
AcDbEntity
  8
0
  6
Continuous
 62
     7
370
    15
100
AcDbLine
 10
1454.899493958373
 20
703.9180860033122
 30
0.0
 11
1454.899493958373
 21
704.0680859813329
 31
0.0
  0
LINE
  5
B7B
330
AD8
100
AcDbEntity
  8
0
  6
Continuous
 62
     7
370
    15
100
AcDbLine
 10
1454.496447350402
 20
704.0680859813329
 30
0.0
 11
1454.899493958373
 21
704.0680859813329
 31
0.0
  0
LINE
  5
B7C
330
AD8
100
AcDbEntity
  8
0
  6
Continuous
 62
     7
370
    15
100
AcDbLine
 10
1454.899493958373
 20
695.8686794264105
 30
0.0
 11
1454.496447350402
 21
695.8686794264105
 31
0.0
  0
LINE
  5
B7D
330
AD8
100
AcDbEntity
  8
0
  6
Continuous
 62
     7
370
    15
100
AcDbLine
 10
1455.578748490234
 20
695.8686794264105
 30
0.0
 11
1455.578748490234
 21
704.0680859813329
 31
0.0
  0
LINE
  5
B7E
330
AD8
100
AcDbEntity
  8
0
  6
Continuous
 62
     7
370
    15
100
AcDbLine
 10
1456.059877182861
 20
704.0680859813329
 30
0.0
 11
1456.059877182861
 21
695.8686794264105
 31
0.0
  0
LINE
  5
B7F
330
AD8
100
AcDbEntity
  8
0
  6
Continuous
 62
     7
370
    15
100
AcDbLine
 10
1455.578748490234
 20
704.0680859813329
 30
0.0
 11
1456.059877182861
 21
704.0680859813329
 31
0.0
  0
LINE
  5
B80
330
AD8
100
AcDbEntity
  8
0
  6
Continuous
 62
     7
370
    15
100
AcDbLine
 10
1456.059877182861
 20
695.8686794264105
 30
0.0
 11
1455.578748490234
 21
695.8686794264105
 31
0.0
  0
LINE
  5
B81
330
AD8
100
AcDbEntity
  8
0
  6
Continuous
 62
     7
370
    15
100
AcDbLine
 10
1417.45931317987
 20
695.8686794264105
 30
0.0
 11
1417.45931317987
 21
704.0680859813329
 31
0.0
  0
LINE
  5
B82
330
AD8
100
AcDbEntity
  8
0
  6
Continuous
 62
     7
370
    15
100
AcDbLine
 10
1416.978184487243
 20
704.0680859813329
 30
0.0
 11
1416.978184487243
 21
695.8686794264105
 31
0.0
  0
LINE
  5
B83
330
AD8
100
AcDbEntity
  8
0
  6
Continuous
 62
     7
370
    15
100
AcDbLine
 10
1416.978184487243
 20
704.0680859813329
 30
0.0
 11
1417.45931317987
 21
704.0680859813329
 31
0.0
  0
LINE
  5
B84
330
AD8
100
AcDbEntity
  8
0
  6
Continuous
 62
     7
370
    15
100
AcDbLine
 10
1417.45931317987
 20
695.8686794264105
 30
0.0
 11
1416.978184487243
 21
695.8686794264105
 31
0.0
  0
LINE
  5
B85
330
AD8
100
AcDbEntity
  8
0
  6
Continuous
 62
     7
370
    15
100
AcDbLine
 10
1416.639630104919
 20
704.0680859813329
 30
0.0
 11
1416.639630104919
 21
695.8686794264105
 31
0.0
  0
LINE
  5
B86
330
AD8
100
AcDbEntity
  8
0
  6
Continuous
 62
     7
370
    15
100
AcDbLine
 10
1416.639630104919
 20
704.0680859813329
 30
0.0
 11
1416.978184487243
 21
704.0680859813329
 31
0.0
  0
LINE
  5
B87
330
AD8
100
AcDbEntity
  8
0
  6
Continuous
 62
     7
370
    15
100
AcDbLine
 10
1416.978184487243
 20
695.8686794264105
 30
0.0
 11
1416.639630104919
 21
695.8686794264105
 31
0.0
  0
LINE
  5
B88
330
AD8
100
AcDbEntity
  8
0
  6
Continuous
 62
     7
370
    15
100
AcDbLine
 10
1456.398431565185
 20
704.0680859813329
 30
0.0
 11
1456.398431565185
 21
695.8686794264105
 31
0.0
  0
LINE
  5
B89
330
AD8
100
AcDbEntity
  8
0
  6
Continuous
 62
     7
370
    15
100
AcDbLine
 10
1456.059877182861
 20
704.0680859813329
 30
0.0
 11
1456.398431565185
 21
704.0680859813329
 31
0.0
  0
LINE
  5
B8A
330
AD8
100
AcDbEntity
  8
0
  6
Continuous
 62
     7
370
    15
100
AcDbLine
 10
1456.398431565185
 20
695.8686794264105
 30
0.0
 11
1456.059877182861
 21
695.8686794264105
 31
0.0
  0
LINE
  5
B8B
330
AD8
100
AcDbEntity
  8
0
  6
Continuous
 62
     7
370
    15
100
AcDbLine
 10
1455.543700959106
 20
695.8686794264105
 30
0.0
 11
1455.543700959106
 21
704.0680859813329
 31
0.0
  0
LINE
  5
B8C
330
AD8
100
AcDbEntity
  8
0
  6
Continuous
 62
     7
370
    15
100
AcDbLine
 10
1455.543700959106
 20
704.0680859813329
 30
0.0
 11
1455.578748490234
 21
704.0680859813329
 31
0.0
  0
LINE
  5
B8D
330
AD8
100
AcDbEntity
  8
0
  6
Continuous
 62
     7
370
    15
100
AcDbLine
 10
1455.578748490234
 20
695.8686794264105
 30
0.0
 11
1455.543700959106
 21
695.8686794264105
 31
0.0
  0
LINE
  5
B8E
330
AD8
100
AcDbEntity
  8
0
  6
Continuous
 62
     7
370
    15
100
AcDbLine
 10
1417.494360710998
 20
695.8686794264105
 30
0.0
 11
1417.494360710998
 21
704.0680859813329
 31
0.0
  0
LINE
  5
B8F
330
AD8
100
AcDbEntity
  8
0
  6
Continuous
 62
     7
370
    15
100
AcDbLine
 10
1417.45931317987
 20
704.0680859813329
 30
0.0
 11
1417.494360710998
 21
704.0680859813329
 31
0.0
  0
LINE
  5
B90
330
AD8
100
AcDbEntity
  8
0
  6
Continuous
 62
     7
370
    15
100
AcDbLine
 10
1417.494360710998
 20
695.8686794264105
 30
0.0
 11
1417.45931317987
 21
695.8686794264105
 31
0.0
  0
LINE
  5
B91
330
AD8
100
AcDbEntity
  8
0
  6
Continuous
 62
     7
370
    15
100
AcDbLine
 10
1417.964402939696
 20
695.8686794264105
 30
0.0
 11
1417.964402939696
 21
704.0680859813329
 31
0.0
  0
LINE
  5
B92
330
AD8
100
AcDbEntity
  8
0
  6
Continuous
 62
     7
370
    15
100
AcDbLine
 10
1417.494360710998
 20
704.0680859813329
 30
0.0
 11
1417.964402939696
 21
704.0680859813329
 31
0.0
  0
LINE
  5
B93
330
AD8
100
AcDbEntity
  8
0
  6
Continuous
 62
     7
370
    15
100
AcDbLine
 10
1417.964402939696
 20
695.8686794264105
 30
0.0
 11
1417.494360710998
 21
695.8686794264105
 31
0.0
  0
LINE
  5
B94
330
AD8
100
AcDbEntity
  8
0
  6
Continuous
 62
     7
370
    15
100
AcDbLine
 10
1455.073658730407
 20
695.8686794264105
 30
0.0
 11
1455.073658730407
 21
704.0680859813329
 31
0.0
  0
LINE
  5
B95
330
AD8
100
AcDbEntity
  8
0
  6
Continuous
 62
     7
370
    15
100
AcDbLine
 10
1455.073658730407
 20
704.0680859813329
 30
0.0
 11
1455.543700959106
 21
704.0680859813329
 31
0.0
  0
LINE
  5
B96
330
AD8
100
AcDbEntity
  8
0
  6
Continuous
 62
     7
370
    15
100
AcDbLine
 10
1455.543700959106
 20
695.8686794264105
 30
0.0
 11
1455.073658730407
 21
695.8686794264105
 31
0.0
  0
LINE
  5
B97
330
AD8
100
AcDbEntity
  8
0
  6
Continuous
 62
     7
370
    15
100
AcDbLine
 10
1417.964402939696
 20
704.0680859813329
 30
0.0
 11
1418.13856771173
 21
704.0680859813329
 31
0.0
  0
LINE
  5
B98
330
AD8
100
AcDbEntity
  8
0
  6
Continuous
 62
     7
370
    15
100
AcDbLine
 10
1418.13856771173
 20
695.8686794264105
 30
0.0
 11
1417.964402939696
 21
695.8686794264105
 31
0.0
  0
LINE
  5
B99
330
AD8
100
AcDbEntity
  8
0
  6
Continuous
 62
     7
370
    15
100
AcDbLine
 10
1454.899493958373
 20
704.0680859813329
 30
0.0
 11
1455.073658730407
 21
704.0680859813329
 31
0.0
  0
LINE
  5
B9A
330
AD8
100
AcDbEntity
  8
0
  6
Continuous
 62
     7
370
    15
100
AcDbLine
 10
1455.073658730407
 20
695.8686794264105
 30
0.0
 11
1454.899493958373
 21
695.8686794264105
 31
0.0
  0
LINE
  5
B9B
330
AD8
100
AcDbEntity
  8
0
  6
Continuous
 62
     7
370
    15
100
AcDbLine
 10
1416.518990303893
 20
695.8686794264105
 30
0.0
 11
1416.518990303893
 21
704.0680859813329
 31
0.0
  0
LINE
  5
B9C
330
AD8
100
AcDbEntity
  8
0
  6
Continuous
 62
     7
370
    15
100
AcDbLine
 10
1416.518990303893
 20
704.0680859813329
 30
0.0
 11
1416.639630104919
 21
704.0680859813329
 31
0.0
  0
LINE
  5
B9D
330
AD8
100
AcDbEntity
  8
0
  6
Continuous
 62
     7
370
    15
100
AcDbLine
 10
1416.639630104919
 20
695.8686794264105
 30
0.0
 11
1416.518990303893
 21
695.8686794264105
 31
0.0
  0
LINE
  5
B9E
330
AD8
100
AcDbEntity
  8
0
  6
Continuous
 62
     7
370
    15
100
AcDbLine
 10
1456.51907136621
 20
695.8686794264105
 30
0.0
 11
1456.51907136621
 21
704.0680859813329
 31
0.0
  0
LINE
  5
B9F
330
AD8
100
AcDbEntity
  8
0
  6
Continuous
 62
     7
370
    15
100
AcDbLine
 10
1456.398431565185
 20
704.0680859813329
 30
0.0
 11
1456.51907136621
 21
704.0680859813329
 31
0.0
  0
LINE
  5
BA0
330
AD8
100
AcDbEntity
  8
0
  6
Continuous
 62
     7
370
    15
100
AcDbLine
 10
1456.51907136621
 20
695.8686794264105
 30
0.0
 11
1456.398431565185
 21
695.8686794264105
 31
0.0
  0
LINE
  5
BA1
330
AD8
100
AcDbEntity
  8
0
  6
Continuous
 62
     7
370
    15
100
AcDbLine
 10
1416.025225426574
 20
704.0680859813329
 30
0.0
 11
1416.518990303893
 21
704.0680859813329
 31
0.0
  0
LINE
  5
BA2
330
AD8
100
AcDbEntity
  8
0
  6
Continuous
 62
     7
370
    15
100
AcDbLine
 10
1416.518990303893
 20
695.8686794264105
 30
0.0
 11
1416.025225426574
 21
695.8686794264105
 31
0.0
  0
LINE
  5
BA3
330
AD8
100
AcDbEntity
  8
0
  6
Continuous
 62
     7
370
    15
100
AcDbLine
 10
1456.51907136621
 20
704.0680859813329
 30
0.0
 11
1457.012836243529
 21
704.0680859813329
 31
0.0
  0
LINE
  5
BA4
330
AD8
100
AcDbEntity
  8
0
  6
Continuous
 62
     7
370
    15
100
AcDbLine
 10
1457.012836243529
 20
695.8686794264105
 30
0.0
 11
1456.51907136621
 21
695.8686794264105
 31
0.0
  0
LINE
  5
BA5
330
AD8
100
AcDbEntity
  8
0
  6
Continuous
 62
     7
370
    15
100
AcDbLine
 10
1415.496889855285
 20
695.8686794264105
 30
0.0
 11
1415.496889855285
 21
703.4180861541864
 31
0.0
  0
LINE
  5
BA6
330
AD8
100
AcDbEntity
  8
0
  6
Continuous
 62
     7
370
    15
100
AcDbLine
 10
1415.929857994933
 20
695.8686794264105
 30
0.0
 11
1415.929857994933
 21
703.4180861541864
 31
0.0
  0
LINE
  5
BA7
330
AD8
100
AcDbEntity
  8
0
  6
Continuous
 62
     7
370
    15
100
AcDbLine
 10
1415.929857994933
 20
695.8686794264105
 30
0.0
 11
1415.496889855285
 21
695.8686794264105
 31
0.0
  0
LINE
  5
BA8
330
AD8
100
AcDbEntity
  8
0
  6
Continuous
 62
     7
370
    15
100
AcDbLine
 10
1416.025225426574
 20
703.4180861541864
 30
0.0
 11
1415.496889855285
 21
703.4180861541864
 31
0.0
  0
LINE
  5
BA9
330
AD8
100
AcDbEntity
  8
0
  6
Continuous
 62
     7
370
    15
100
AcDbLine
 10
1414.854470993896
 20
695.8686794264105
 30
0.0
 11
1414.854470993896
 21
704.0680859813329
 31
0.0
  0
LINE
  5
BAA
330
AD8
100
AcDbEntity
  8
0
  6
Continuous
 62
     7
370
    15
100
AcDbLine
 10
1414.854470993896
 20
704.0680859813329
 30
0.0
 11
1416.025225426574
 21
704.0680859813329
 31
0.0
  0
LINE
  5
BAB
330
AD8
100
AcDbEntity
  8
0
  6
Continuous
 62
     7
370
    15
100
AcDbLine
 10
1415.496889855285
 20
695.8686794264105
 30
0.0
 11
1414.854470993896
 21
695.8686794264105
 31
0.0
  0
LINE
  5
BAC
330
AD8
100
AcDbEntity
  8
0
  6
Continuous
 62
     7
370
    15
100
AcDbLine
 10
1458.183590676208
 20
695.8686794264105
 30
0.0
 11
1458.183590676208
 21
704.0680859813329
 31
0.0
  0
LINE
  5
BAD
330
AD8
100
AcDbEntity
  8
0
  6
Continuous
 62
     7
370
    15
100
AcDbLine
 10
1457.541171814819
 20
695.8686794264105
 30
0.0
 11
1457.541171814819
 21
703.4180861541864
 31
0.0
  0
LINE
  5
BAE
330
AD8
100
AcDbEntity
  8
0
  6
Continuous
 62
     7
370
    15
100
AcDbLine
 10
1457.541171814819
 20
703.4180861541864
 30
0.0
 11
1457.012836243529
 21
703.4180861541864
 31
0.0
  0
LINE
  5
BAF
330
AD8
100
AcDbEntity
  8
0
  6
Continuous
 62
     7
370
    15
100
AcDbLine
 10
1457.012836243529
 20
704.0680859813329
 30
0.0
 11
1458.183590676208
 21
704.0680859813329
 31
0.0
  0
LINE
  5
BB0
330
AD8
100
AcDbEntity
  8
0
  6
Continuous
 62
     7
370
    15
100
AcDbLine
 10
1458.183590676208
 20
695.8686794264105
 30
0.0
 11
1457.541171814819
 21
695.8686794264105
 31
0.0
  0
LINE
  5
BB1
330
AD8
100
AcDbEntity
  8
0
  6
Continuous
 62
     7
370
    15
100
AcDbLine
 10
1458.683554436584
 20
695.8686794264105
 30
0.0
 11
1458.683554436584
 21
704.0680859813329
 31
0.0
  0
LINE
  5
BB2
330
AD8
100
AcDbEntity
  8
0
  6
Continuous
 62
     7
370
    15
100
AcDbLine
 10
1458.183590676208
 20
704.0680859813329
 30
0.0
 11
1458.683554436584
 21
704.0680859813329
 31
0.0
  0
LINE
  5
BB3
330
AD8
100
AcDbEntity
  8
0
  6
Continuous
 62
     7
370
    15
100
AcDbLine
 10
1458.683554436584
 20
695.8686794264105
 30
0.0
 11
1458.183590676208
 21
695.8686794264105
 31
0.0
  0
LINE
  5
BB4
330
AD8
100
AcDbEntity
  8
0
  6
Continuous
 62
     7
370
    15
100
AcDbLine
 10
1457.10820367517
 20
695.8686794264105
 30
0.0
 11
1457.10820367517
 21
703.4180861541864
 31
0.0
  0
LINE
  5
BB5
330
AD8
100
AcDbEntity
  8
0
  6
Continuous
 62
     7
370
    15
100
AcDbLine
 10
1457.541171814819
 20
695.8686794264105
 30
0.0
 11
1457.10820367517
 21
695.8686794264105
 31
0.0
  0
LINE
  5
BB6
330
AD8
100
AcDbEntity
  8
0
  6
Continuous
 62
     7
370
    15
100
AcDbLine
 10
1414.35450723352
 20
695.8686794264105
 30
0.0
 11
1414.35450723352
 21
704.0680859813329
 31
0.0
  0
LINE
  5
BB7
330
AD8
100
AcDbEntity
  8
0
  6
Continuous
 62
     7
370
    15
100
AcDbLine
 10
1414.35450723352
 20
704.0680859813329
 30
0.0
 11
1414.854470993896
 21
704.0680859813329
 31
0.0
  0
LINE
  5
BB8
330
AD8
100
AcDbEntity
  8
0
  6
Continuous
 62
     7
370
    15
100
AcDbLine
 10
1414.854470993896
 20
695.8686794264105
 30
0.0
 11
1414.35450723352
 21
695.8686794264105
 31
0.0
  0
LINE
  5
BB9
330
AD8
100
AcDbEntity
  8
0
  6
Continuous
 62
     7
370
    15
100
AcDbLine
 10
1457.10820367517
 20
695.8686794264105
 30
0.0
 11
1457.012836243529
 21
695.8686794264105
 31
0.0
  0
LINE
  5
BBA
330
AD8
100
AcDbEntity
  8
0
  6
Continuous
 62
     7
370
    15
100
AcDbLine
 10
1416.025225426574
 20
695.8686794264105
 30
0.0
 11
1415.929857994933
 21
695.8686794264105
 31
0.0
  0
ENDBLK
  5
ADA
330
AD8
100
AcDbEntity
  8
0
100
AcDbBlockEnd
  0
BLOCK
  5
BBD
330
BBC
100
AcDbEntity
  8
0
100
AcDbBlockBegin
  2
4
 70
     0
 10
0.0
 20
0.0
 30
0.0
  3
4
  1

  0
SPLINE
  5
BBF
330
BBC
100
AcDbEntity
  8
0
  6
Continuous
 62
     7
370
    15
100
AcDbSpline
210
0.0
220
0.0
230
1.0
 70
     8
 71
     3
 72
    15
 73
    11
 74
     0
 42
0.0000000001
 43
0.0000000001
 40
0.0
 40
0.0
 40
0.0
 40
0.0
 40
0.0818712604450583
 40
0.2345991793287764
 40
0.3866687473020658
 40
0.53840683497952
 40
0.6901421930090716
 40
0.8421275437488976
 40
0.9946843371537392
 40
1.0
 40
1.0
 40
1.0
 40
1.0
 10
1498.233511577031
 20
765.0185730519309
 30
0.0
 10
1498.184087716589
 20
765.0297412845628
 30
0.0
 10
1498.042465405709
 20
765.0617434571903
 30
0.0
 10
1497.79477195628
 20
765.0934376289915
 30
0.0
 10
1497.497126532265
 20
765.1148338922663
 30
0.0
 10
1497.196328364084
 20
765.1153779450242
 30
0.0
 10
1496.896668825086
 20
765.097063091295
 30
0.0
 10
1496.604256094272
 20
765.057006627161
 30
0.0
 10
1496.408056836048
 20
765.0223055522986
 30
0.0
 10
1496.315326691516
 20
764.9959422825608
 30
0.0
 10
1496.312204410431
 20
764.9950546150297
 30
0.0
  0
SPLINE
  5
BC0
330
BBC
100
AcDbEntity
  8
0
  6
Continuous
 62
     7
370
    15
100
AcDbSpline
210
0.0
220
0.0
230
1.0
 70
     8
 71
     3
 72
    15
 73
    11
 74
     0
 42
0.0000000001
 43
0.0000000001
 40
0.0
 40
0.0
 40
0.0
 40
0.0
 40
0.0818712604449657
 40
0.2345991793286611
 40
0.3866687473019277
 40
0.5384068349793595
 40
0.6901421930088884
 40
0.8421275437486917
 40
0.9946843371535106
 40
1.0
 40
1.0
 40
1.0
 40
1.0
 10
1486.092319623742
 20
757.6621332876303
 30
0.0
 10
1486.042895763301
 20
757.6733015202623
 30
0.0
 10
1485.901273452421
 20
757.7053036928898
 30
0.0
 10
1485.653580002992
 20
757.7369978646905
 30
0.0
 10
1485.355934578976
 20
757.7583941279661
 30
0.0
 10
1485.055136410796
 20
757.7589381807233
 30
0.0
 10
1484.755476871797
 20
757.7406233269947
 30
0.0
 10
1484.463064140986
 20
757.7005668628597
 30
0.0
 10
1484.266864882758
 20
757.6658657879991
 30
0.0
 10
1484.174134738228
 20
757.6395025182599
 30
0.0
 10
1484.171012457142
 20
757.638614850729
 30
0.0
  0
LINE
  5
BC1
330
BBC
100
AcDbEntity
  8
0
  6
Continuous
 62
     7
370
    15
100
AcDbLine
 10
1478.033386472283
 20
755.3916284009885
 30
0.0
 11
1484.339545833914
 21
752.8680110928179
 31
0.0
  0
SPLINE
  5
BC2
330
BBC
100
AcDbEntity
  8
0
  6
Continuous
 62
     7
370
    15
100
AcDbSpline
210
0.0
220
0.0
230
1.0
 70
     8
 71
     3
 72
    17
 73
    13
 74
     0
 42
0.0000000001
 43
0.0000000001
 40
0.0
 40
0.0
 40
0.0
 40
0.0
 40
0.0937424023537026
 40
0.1999021866911045
 40
0.3058473123126073
 40
0.4115534654357571
 40
0.5170367745219854
 40
0.6224089186951863
 40
0.7278583198089498
 40
0.8338958224371596
 40
0.941430819277912
 40
1.0
 40
1.0
 40
1.0
 40
1.0
 10
1483.810753057717
 20
757.7168411894944
 30
0.0
 10
1483.726799464932
 20
757.7379838382004
 30
0.0
 10
1483.547771550594
 20
757.7830697502592
 30
0.0
 10
1483.297658575606
 20
757.8708293803991
 30
0.0
 10
1483.059815688307
 20
757.9742329000679
 30
0.0
 10
1482.84973919202
 20
758.089868067896
 30
0.0
 10
1482.669479178684
 20
758.2152581777441
 30
0.0
 10
1482.521428942864
 20
758.3483623196189
 30
0.0
 10
1482.406350360811
 20
758.4869148868947
 30
0.0
 10
1482.326920066902
 20
758.6290437307836
 30
0.0
 10
1482.283335182145
 20
758.7506851977864
 30
0.0
 10
1482.279727396193
 20
758.8249654020654
 30
0.0
 10
1482.278455272453
 20
758.8511569811839
 30
0.0
  0
SPLINE
  5
BC3
330
BBC
100
AcDbEntity
  8
0
  6
Continuous
 62
     7
370
    15
100
AcDbSpline
210
0.0
220
0.0
230
1.0
 70
     8
 71
     3
 72
    17
 73
    13
 74
     0
 42
0.0000000001
 43
0.0000000001
 40
0.0
 40
0.0
 40
0.0
 40
0.0
 40
0.043039700951235
 40
0.1571779025555187
 40
0.2688523594671327
 40
0.3780805216067422
 40
0.4859588202856575
 40
0.5933387460279083
 40
0.7006427089394883
 40
0.8080374466103055
 40
0.9156102809266208
 40
0.9999999999999998
 40
0.9999999999999998
 40
0.9999999999999998
 40
0.9999999999999998
 10
1487.941828002947
 20
758.8989287061168
 30
0.0
 10
1487.94101746838
 20
758.879931416924
 30
0.0
 10
1487.938057454245
 20
758.810554678621
 30
0.0
 10
1487.894819142418
 20
758.690820323579
 30
0.0
 10
1487.812162876585
 20
758.5415052464618
 30
0.0
 10
1487.692395043078
 20
758.3970675450333
 30
0.0
 10
1487.540391367723
 20
758.2594015792935
 30
0.0
 10
1487.357015901265
 20
758.1300161343882
 30
0.0
 10
1487.144622041689
 20
758.0103864955773
 30
0.0
 10
1486.904963158923
 20
757.9028220729102
 30
0.0
 10
1486.662506651749
 20
757.8136027216577
 30
0.0
 10
1486.492476024434
 20
757.7677974546795
 30
0.0
 10
1486.417727920599
 20
757.7476607480974
 30
0.0
  0
LINE
  5
BC4
330
BBC
100
AcDbEntity
  8
0
  6
Continuous
 62
     7
370
    15
100
AcDbLine
 10
1478.387446365724
 20
752.6465560202694
 30
0.0
 11
1484.693605727355
 21
750.1229387120988
 31
0.0
  0
LINE
  5
BC5
330
BBC
100
AcDbEntity
  8
0
  6
Continuous
 62
     7
370
    15
100
AcDbLine
 10
1482.2495904023
 20
742.8970155804949
 30
0.0
 11
1475.943431040668
 21
745.4206328886656
 31
0.0
  0
LINE
  5
BC6
330
BBC
100
AcDbEntity
  8
0
  6
Continuous
 62
     7
370
    15
100
AcDbLine
 10
1483.059612307492
 20
757.9789112886461
 30
0.0
 11
1483.103628591648
 21
758.0065327359311
 31
0.0
  0
LINE
  5
BC7
330
BBC
100
AcDbEntity
  8
0
  6
Continuous
 62
     7
370
    15
100
AcDbLine
 10
1483.103628591648
 20
758.0065327359311
 30
0.0
 11
1483.148330677836
 21
758.0320365658488
 31
0.0
  0
LINE
  5
BC8
330
BBC
100
AcDbEntity
  8
0
  6
Continuous
 62
     7
370
    15
100
AcDbLine
 10
1484.204967676178
 20
745.9209955476406
 30
0.0
 11
1477.898808314547
 21
748.4446128558111
 31
0.0
  0
LINE
  5
BC9
330
BBC
100
AcDbEntity
  8
0
  6
Continuous
 62
     7
370
    15
100
AcDbLine
 10
1491.108071796145
 20
759.3059037772897
 30
0.0
 11
1484.801912434514
 21
761.8295210854603
 31
0.0
  0
LINE
  5
BCA
330
BBC
100
AcDbEntity
  8
0
  6
Continuous
 62
     7
370
    15
100
AcDbLine
 10
1480.949097984801
 20
722.2700600655188
 30
0.0
 11
1475.228965511144
 21
724.5591594186656
 31
0.0
  0
LINE
  5
BCB
330
BBC
100
AcDbEntity
  8
0
  6
Continuous
 62
     7
370
    15
100
AcDbLine
 10
1474.739045900403
 20
721.1025628322039
 30
0.0
 11
1481.045205262034
 21
718.5789455240334
 31
0.0
  0
SPLINE
  5
BCC
330
BBC
100
AcDbEntity
  8
0
  6
Continuous
 62
     7
370
    15
100
AcDbSpline
210
0.0
220
0.0
230
1.0
 70
     8
 71
     3
 72
    17
 73
    13
 74
     0
 42
0.0000000001
 43
0.0000000001
 40
0.0
 40
0.0
 40
0.0
 40
0.0
 40
0.093742402356124
 40
0.1999021866926763
 40
0.3058473123139623
 40
0.4115534654362578
 40
0.5170367745216799
 40
0.6224089186953458
 40
0.7278583198096048
 40
0.8338958224375767
 40
0.9414308192771462
 40
0.9999999999999998
 40
0.9999999999999998
 40
0.9999999999999998
 40
0.9999999999999998
 10
1495.951945011011
 20
765.0732809537936
 30
0.0
 10
1495.867991418223
 20
765.0944236025
 30
0.0
 10
1495.688963503884
 20
765.1395095145595
 30
0.0
 10
1495.438850528894
 20
765.2272691447002
 30
0.0
 10
1495.201007641594
 20
765.3306726643689
 30
0.0
 10
1494.990931145307
 20
765.4463078321967
 30
0.0
 10
1494.810671131972
 20
765.5716979420451
 30
0.0
 10
1494.662620896152
 20
765.7048020839205
 30
0.0
 10
1494.547542314097
 20
765.843354651197
 30
0.0
 10
1494.46811202019
 20
765.9854834950863
 30
0.0
 10
1494.424527135433
 20
766.1071249620896
 30
0.0
 10
1494.42091934948
 20
766.1814051663688
 30
0.0
 10
1494.41964722574
 20
766.2075967454876
 30
0.0
  0
SPLINE
  5
BCD
330
BBC
100
AcDbEntity
  8
0
  6
Continuous
 62
     7
370
    15
100
AcDbSpline
210
0.0
220
0.0
230
1.0
 70
     8
 71
     3
 72
    17
 73
    13
 74
     0
 42
0.0000000001
 43
0.0000000001
 40
0.0
 40
0.0
 40
0.0
 40
0.0
 40
0.0430397009512881
 40
0.1571779025557435
 40
0.2688523594672558
 40
0.3780805216067845
 40
0.4859588202855385
 40
0.5933387460278559
 40
0.7006427089393542
 40
0.8080374466101632
 40
0.9156102809264693
 40
0.9999999999999998
 40
0.9999999999999998
 40
0.9999999999999998
 40
0.9999999999999998
 10
1500.083019956235
 20
766.2553684704175
 30
0.0
 10
1500.082209421668
 20
766.2363711812248
 30
0.0
 10
1500.079249407533
 20
766.1669944429215
 30
0.0
 10
1500.036011095706
 20
766.0472600878796
 30
0.0
 10
1499.953354829873
 20
765.8979450107619
 30
0.0
 10
1499.833586996366
 20
765.7535073093342
 30
0.0
 10
1499.681583321011
 20
765.6158413435939
 30
0.0
 10
1499.498207854553
 20
765.4864558986893
 30
0.0
 10
1499.285813994978
 20
765.3668262598779
 30
0.0
 10
1499.046155112211
 20
765.2592618372111
 30
0.0
 10
1498.803698605037
 20
765.1700424859584
 30
0.0
 10
1498.633667977722
 20
765.1242372189804
 30
0.0
 10
1498.558919873888
 20
765.1041005123982
 30
0.0
  0
LINE
  5
BCE
330
BBC
100
AcDbEntity
  8
0
  6
Continuous
 62
     7
370
    15
100
AcDbLine
 10
1484.517540269672
 20
726.2697773791988
 30
0.0
 11
1482.884850226875
 21
726.9231520585561
 31
0.0
  0
LINE
  5
BCF
330
BBC
100
AcDbEntity
  8
0
  6
Continuous
 62
     7
370
    15
100
AcDbLine
 10
1495.200804260781
 20
765.3353510529468
 30
0.0
 11
1495.244820544936
 21
765.3629725002319
 31
0.0
  0
LINE
  5
BD0
330
BBC
100
AcDbEntity
  8
0
  6
Continuous
 62
     7
370
    15
100
AcDbLine
 10
1499.241978344506
 20
765.4407686413791
 30
0.0
 11
1499.326166668463
 21
765.3940707178072
 31
0.0
  0
LINE
  5
BD1
330
BBC
100
AcDbEntity
  8
0
  6
Continuous
 62
     7
370
    15
100
AcDbLine
 10
1495.244820544936
 20
765.3629725002319
 30
0.0
 11
1495.265445882227
 21
765.37473985024
 31
0.0
  0
LINE
  5
BD2
330
BBC
100
AcDbEntity
  8
0
  6
Continuous
 62
     7
370
    15
100
AcDbLine
 10
1484.42136938338
 20
722.7690096191139
 30
0.0
 11
1483.75980012539
 21
723.0337583408434
 31
0.0
  0
LINE
  5
BD3
330
BBC
100
AcDbEntity
  8
0
  6
Continuous
 62
     7
370
    15
100
AcDbLine
 10
1484.671205608314
 20
724.382873053445
 30
0.0
 11
1486.565293435865
 21
723.6248914436104
 31
0.0
  0
LINE
  5
BD4
330
BBC
100
AcDbEntity
  8
0
  6
Continuous
 62
     7
370
    15
100
AcDbLine
 10
1503.690689197937
 20
766.7565326805337
 30
0.0
 11
1497.384529836305
 21
769.2801499887043
 31
0.0
  0
LINE
  5
BD5
330
BBC
100
AcDbEntity
  8
0
  6
Continuous
 62
     7
370
    15
100
AcDbLine
 10
1504.090347826316
 20
764.9526423245584
 30
0.0
 11
1504.207108060621
 21
764.9059168722979
 31
0.0
  0
LINE
  5
BD6
330
BBC
100
AcDbEntity
  8
0
  6
Continuous
 62
     7
370
    15
100
AcDbLine
 10
1488.502119625278
 20
725.4155988387289
 30
0.0
 11
1487.426092593304
 21
725.846206485353
 31
0.0
  0
LINE
  5
BD7
330
BBC
100
AcDbEntity
  8
0
  6
Continuous
 62
     7
370
    15
100
AcDbLine
 10
1503.430917604091
 20
761.4580337251294
 30
0.0
 11
1503.616661723694
 21
761.3837020997711
 31
0.0
  0
LINE
  5
BD8
330
BBC
100
AcDbEntity
  8
0
  6
Continuous
 62
     7
370
    15
100
AcDbLine
 10
1505.247709265527
 20
758.8319528087817
 30
0.0
 11
1504.210773752689
 21
759.2469166968775
 31
0.0
  0
LINE
  5
BD9
330
BBC
100
AcDbEntity
  8
0
  6
Continuous
 62
     7
370
    15
100
AcDbLine
 10
1506.922968234573
 20
757.8468012772609
 30
0.0
 11
1505.401806487142
 21
758.4555442369937
 31
0.0
  0
LINE
  5
BDA
330
BBC
100
AcDbEntity
  8
0
  6
Continuous
 62
     7
370
    15
100
AcDbLine
 10
1499.457848953972
 20
739.8722695736381
 30
0.0
 11
1501.862324952172
 21
738.9100393320336
 31
0.0
  0
LINE
  5
BDB
330
BBC
100
AcDbEntity
  8
0
  6
Continuous
 62
     7
370
    15
100
AcDbLine
 10
1494.783324767956
 20
734.6873799708559
 30
0.0
 11
1501.089484129588
 21
732.1637626626853
 31
0.0
  0
LINE
  5
BDC
330
BBC
100
AcDbEntity
  8
0
  6
Continuous
 62
     7
370
    15
100
AcDbLine
 10
1503.116975281593
 20
737.2361445459441
 30
0.0
 11
1504.949087300381
 21
736.5029645966309
 31
0.0
  0
LINE
  5
BDD
330
BBC
100
AcDbEntity
  8
0
  6
Continuous
 62
     7
370
    15
100
AcDbLine
 10
1503.249949495214
 20
735.1028588871685
 30
0.0
 11
1506.042920226178
 21
733.9851596864856
 31
0.0
  0
LINE
  5
BDE
330
BBC
100
AcDbEntity
  8
0
  6
Continuous
 62
     7
370
    15
100
AcDbLine
 10
1508.812400648017
 20
738.5630492075597
 30
0.0
 11
1507.122296368021
 21
739.2394000843807
 31
0.0
  0
LWPOLYLINE
  5
BDF
330
BBC
100
AcDbEntity
  8
0
  6
Continuous
 62
     7
370
    15
100
AcDbPolyline
 90
        9
 70
   128
 43
0.0
 10
1508.946137342033
 20
738.2924308126393
 10
1508.938797328601
 20
738.3734890309238
 10
1508.919460981495
 20
738.4439926483822
 10
1508.888871385693
 20
738.5012322505352
 10
1508.848204082205
 20
738.5430081515722
 10
1508.799021892699
 20
738.5677149270439
 10
1508.743214861135
 20
738.5744031094255
 10
1508.682927620438
 20
738.5628156756183
 10
1508.620476975461
 20
738.5333979242053
  0
LINE
  5
BE0
330
BBC
100
AcDbEntity
  8
0
  6
Continuous
 62
     7
370
    15
100
AcDbLine
 10
1508.970757944102
 20
736.5541998868654
 30
0.0
 11
1508.946137342033
 21
738.2924308126393
 31
0.0
  0
ARC
  5
BE1
330
BBC
100
AcDbEntity
  8
0
  6
Continuous
 62
     7
370
    15
100
AcDbCircle
 10
1506.657000870138
 20
736.5317179501298
 30
0.0
 40
2.313866295791811
100
AcDbArc
 50
306.4189197202854
 51
0.5567047502893984
  0
LINE
  5
BE2
330
BBC
100
AcDbEntity
  8
0
  6
Continuous
 62
     7
370
    15
100
AcDbLine
 10
1507.194462261516
 20
734.1630673866115
 30
0.0
 11
1508.03070774749
 21
734.6697548329024
 31
0.0
  0
ARC
  5
BE3
330
BBC
100
AcDbEntity
  8
0
  6
Continuous
 62
     7
370
    15
100
AcDbCircle
 10
1506.482976773414
 20
735.0499592271138
 30
0.0
 40
1.137008679179455
100
AcDbArc
 50
219.716647329385
 51
308.7374057004857
  0
LINE
  5
BE4
330
BBC
100
AcDbEntity
  8
0
  6
Continuous
 62
     7
370
    15
100
AcDbLine
 10
1505.125255002915
 20
734.9518250656561
 30
0.0
 11
1505.608373860984
 21
734.323420527458
 31
0.0
  0
ARC
  5
BE5
330
BBC
100
AcDbEntity
  8
0
  6
Continuous
 62
     7
370
    15
100
AcDbCircle
 10
1505.505296378402
 20
735.1137729585945
 30
0.0
 40
0.4131084205260435
100
AcDbArc
 50
129.3710860719978
 51
203.080418574019
  0
LINE
  5
BE6
330
BBC
100
AcDbEntity
  8
0
  6
Continuous
 62
     7
370
    15
100
AcDbLine
 10
1505.707151223842
 20
735.8267942797659
 30
0.0
 11
1505.243244985617
 21
735.433127987753
 31
0.0
  0
ARC
  5
BE7
330
BBC
100
AcDbEntity
  8
0
  6
Continuous
 62
     7
370
    15
100
AcDbCircle
 10
1505.487917258095
 20
736.0631460199369
 30
0.0
 40
0.3223750561361222
100
AcDbArc
 50
312.8482312468354
 51
0.2102122727209852
  0
LINE
  5
BE8
330
BBC
100
AcDbEntity
  8
0
  6
Continuous
 62
     7
370
    15
100
AcDbLine
 10
1505.801013319745
 20
736.7194196938697
 30
0.0
 11
1505.810290144521
 21
736.0643287779299
 31
0.0
  0
LWPOLYLINE
  5
BE9
330
BBC
100
AcDbEntity
  8
0
  6
Continuous
 62
     7
370
    15
100
AcDbPolyline
 90
        9
 70
   128
 43
0.0
 10
1505.681937778028
 20
736.8197362690472
 10
1505.705110335387
 20
736.8280383589778
 10
1505.727208668012
 20
736.8299941844104
 10
1505.747487651747
 20
736.8255377977099
 10
1505.765263508274
 20
736.8148194618594
 10
1505.779936861148
 20
736.7982005838077
 10
1505.791012945905
 20
736.7762415283433
 10
1505.798118292814
 20
736.7496827233968
 10
1505.801013319745
 20
736.7194196938697
  0
LINE
  5
BEA
330
BBC
100
AcDbEntity
  8
0
  6
Continuous
 62
     7
370
    15
100
AcDbLine
 10
1505.048208034901
 20
736.5116846377174
 30
0.0
 11
1505.681937778028
 21
736.8197362690472
 31
0.0
  0
LWPOLYLINE
  5
BEB
330
BBC
100
AcDbEntity
  8
0
  6
Continuous
 62
     7
370
    15
100
AcDbPolyline
 90
        9
 70
   128
 43
0.0
 10
1504.868283947466
 20
736.6664753291562
 10
1504.872278928883
 20
736.6200692961106
 10
1504.882756543297
 20
736.5792653037427
 10
1504.899357505661
 20
736.5454625507457
 10
1504.921512556852
 20
736.5198201582022
 10
1504.948461983988
 20
736.503217422476
 10
1504.979281671535
 20
736.4962236634982
 10
1505.012914789902
 20
736.499078702371
 10
1505.048208034901
 20
736.5116846377174
  0
LINE
  5
BEC
330
BBC
100
AcDbEntity
  8
0
  6
Continuous
 62
     7
370
    15
100
AcDbLine
 10
1504.846062394745
 20
738.2353317709477
 30
0.0
 11
1504.868283947466
 21
736.6664753291562
 31
0.0
  0
ARC
  5
BED
330
BBC
100
AcDbEntity
  8
0
  6
Continuous
 62
     7
370
    15
100
AcDbCircle
 10
1505.679434336355
 20
738.2251013329132
 30
0.0
 40
0.8334347334526063
100
AcDbArc
 50
144.5513316321518
 51
179.2966748090542
  0
LINE
  5
BEE
330
BBC
100
AcDbEntity
  8
0
  6
Continuous
 62
     7
370
    15
100
AcDbLine
 10
1506.141798943034
 20
740.3140394648182
 30
0.0
 11
1505.000488859874
 21
738.7084712687702
 31
0.0
  0
ARC
  5
BEF
330
BBC
100
AcDbEntity
  8
0
  6
Continuous
 62
     7
370
    15
100
AcDbCircle
 10
1504.01702145447
 20
741.8053196018543
 30
0.0
 40
2.595880548682327
100
AcDbArc
 50
324.9368112028208
 51
350.4866667462808
  0
LINE
  5
BF0
330
BBC
100
AcDbEntity
  8
0
  6
Continuous
 62
     7
370
    15
100
AcDbLine
 10
1506.765294310791
 20
742.5278713995212
 30
0.0
 11
1506.577201290802
 21
741.3762799432387
 31
0.0
  0
LWPOLYLINE
  5
BF1
330
BBC
100
AcDbEntity
  8
0
  6
Continuous
 62
     7
370
    15
100
AcDbPolyline
 90
        9
 70
   128
 43
0.0
 10
1506.448926293426
 20
742.8878978494384
 10
1506.521638393383
 20
742.9205055101196
 10
1506.590873227925
 20
742.9287061317934
 10
1506.653013625626
 20
742.912071273277
 10
1506.704813063657
 20
742.871470022152
 10
1506.743565282253
 20
742.8090235893139
 10
1506.767245673155
 20
742.727994486387
 10
1506.774617055197
 20
742.6326160759217
 10
1506.765294310791
 20
742.5278713995212
  0
LINE
  5
BF2
330
BBC
100
AcDbEntity
  8
0
  6
Continuous
 62
     7
370
    15
100
AcDbLine
 10
1505.82861614887
 20
742.5120472549365
 30
0.0
 11
1506.448926293426
 21
742.8878978494384
 31
0.0
  0
ARC
  5
BF3
330
BBC
100
AcDbEntity
  8
0
  6
Continuous
 62
     7
370
    15
100
AcDbCircle
 10
1506.432007328724
 20
741.5754702462931
 30
0.0
 40
1.114117322836869
100
AcDbArc
 50
122.7917212452122
 51
145.7800899518234
  0
LINE
  5
BF4
330
BBC
100
AcDbEntity
  8
0
  6
Continuous
 62
     7
370
    15
100
AcDbLine
 10
1503.573643917151
 20
739.4768696753336
 30
0.0
 11
1505.510760200426
 21
742.2020172418545
 31
0.0
  0
ARC
  5
BF5
330
BBC
100
AcDbEntity
  8
0
  6
Continuous
 62
     7
370
    15
100
AcDbCircle
 10
1504.977881647644
 20
738.4887690411334
 30
0.0
 40
1.717040030705877
100
AcDbArc
 50
144.8676259844769
 51
173.3565003972971
  0
LINE
  5
BF6
330
BBC
100
AcDbEntity
  8
0
  6
Continuous
 62
     7
370
    15
100
AcDbLine
 10
1502.948134822252
 20
735.6593120840346
 30
0.0
 11
1503.272371166883
 21
738.6874156294838
 31
0.0
  0
ARC
  5
BF7
330
BBC
100
AcDbEntity
  8
0
  6
Continuous
 62
     7
370
    15
100
AcDbCircle
 10
1503.27871607213
 20
735.5788602330243
 30
0.0
 40
0.3402300149925843
100
AcDbArc
 50
166.3221155833718
 51
229.4802535818478
  0
LWPOLYLINE
  5
BF8
330
BBC
100
AcDbEntity
  8
0
  6
Continuous
 62
     7
370
    15
100
AcDbPolyline
 90
       16
 70
   128
 43
0.0
 10
1502.303883586241
 20
733.0008024079361
 10
1502.446534219871
 20
733.0414748053373
 10
1502.592375209643
 20
733.1202703261806
 10
1502.736542521262
 20
733.2345610116427
 10
1502.874227940321
 20
733.3805350814101
 10
1503.000839434074
 20
733.5533240627508
 10
1503.112154303206
 20
733.7471651620051
 10
1503.204460015717
 20
733.9555934631269
 10
1503.274678025913
 20
734.1716575431554
 10
1503.320466448905
 20
734.3881513134784
 10
1503.340298166287
 20
734.597854354614
 10
1503.333511758019
 20
734.7937727289473
 10
1503.300333561858
 20
734.9693722399291
 10
1503.241870124627
 20
735.1187963581623
 10
1503.160071297081
 20
735.2370615461869
 10
1503.057665203205
 20
735.3202234675603
  0
ARC
  5
BF9
330
BBC
100
AcDbEntity
  8
0
  6
Continuous
 62
     7
370
    15
100
AcDbCircle
 10
1502.397924943743
 20
732.6114509050371
 30
0.0
 40
0.4005475873482704
100
AcDbArc
 50
103.5787718678639
 51
144.3621902017535
  0
ARC
  5
BFA
330
BBC
100
AcDbEntity
  8
0
  6
Continuous
 62
     7
370
    15
100
AcDbCircle
 10
1500.235103684466
 20
734.2976163008773
 30
0.0
 40
2.342266096691551
100
AcDbArc
 50
302.3192434474832
 51
321.6658555335309
  0
LINE
  5
BFB
330
BBC
100
AcDbEntity
  8
0
  6
Continuous
 62
     7
370
    15
100
AcDbLine
 10
1501.281412675342
 20
732.1934168987978
 30
0.0
 11
1501.487363953607
 21
732.31820864048
 31
0.0
  0
LWPOLYLINE
  5
BFC
330
BBC
100
AcDbEntity
  8
0
  6
Continuous
 62
     7
370
    15
100
AcDbPolyline
 90
        9
 70
   128
 43
0.0
 10
1500.955747435572
 20
732.4343810576058
 10
1500.963087579354
 20
732.3533220987448
 10
1500.982424284019
 20
732.2828179734808
 10
1501.013014436465
 20
732.2255781682569
 10
1501.053682451534
 20
732.1838024192678
 10
1501.10286544996
 20
732.1590961761959
 10
1501.15867332011
 20
732.1524089044861
 10
1501.218961355314
 20
732.1639975972145
 10
1501.281412675342
 20
732.1934168987978
  0
LINE
  5
BFD
330
BBC
100
AcDbEntity
  8
0
  6
Continuous
 62
     7
370
    15
100
AcDbLine
 10
1500.953285383124
 20
732.6082036024351
 30
0.0
 11
1500.955747435572
 21
732.4343810576058
 31
0.0
  0
ARC
  5
BFE
330
BBC
100
AcDbEntity
  8
0
  6
Continuous
 62
     7
370
    15
100
AcDbCircle
 10
1501.725645950927
 20
732.6151442396239
 30
0.0
 40
0.7723917523786169
100
AcDbArc
 50
126.4603646723578
 51
180.5148612329782
  0
LINE
  5
BFF
330
BBC
100
AcDbEntity
  8
0
  6
Continuous
 62
     7
370
    15
100
AcDbLine
 10
1501.472531991079
 20
733.3611027647624
 30
0.0
 11
1501.266639359068
 21
733.2363543230677
 31
0.0
  0
ARC
  5
C00
330
BBC
100
AcDbEntity
  8
0
  6
Continuous
 62
     7
370
    15
100
AcDbCircle
 10
1500.564605579715
 20
734.5964345917765
 30
0.0
 40
1.533093308082028
100
AcDbArc
 50
306.3146071554159
 51
354.9169024047226
  0
LINE
  5
C01
330
BBC
100
AcDbEntity
  8
0
  6
Continuous
 62
     7
370
    15
100
AcDbLine
 10
1502.485472519482
 20
738.1386513953973
 30
0.0
 11
1502.091669609141
 21
734.4606018220871
 31
0.0
  0
LWPOLYLINE
  5
C02
330
BBC
100
AcDbEntity
  8
0
  6
Continuous
 62
     7
370
    15
100
AcDbPolyline
 90
        9
 70
   128
 43
0.0
 10
1502.112055554933
 20
738.8596120575713
 10
1502.203959552517
 20
738.8444348097035
 10
1502.286494427657
 20
738.8041922892405
 10
1502.357450350704
 20
738.7399619693695
 10
1502.414927512604
 20
738.6534635845087
 10
1502.45738699134
 20
738.5470130852838
 10
1502.483691955784
 20
738.4234606301195
 10
1502.49313810378
 20
738.2861142736848
 10
1502.485472519482
 20
738.1386513953973
  0
LWPOLYLINE
  5
C03
330
BBC
100
AcDbEntity
  8
0
  6
Continuous
 62
     7
370
    15
100
AcDbPolyline
 90
        9
 70
   128
 43
0.0
 10
1501.273883498503
 20
740.1007602696834
 10
1501.291865046363
 20
739.8387412919518
 10
1501.337782321552
 20
739.5991422446554
 10
1501.410711059612
 20
739.3867859941829
 10
1501.509183284927
 20
739.2059470392608
 10
1501.631216859458
 20
739.0602654699781
 10
1501.774355381013
 20
738.9526736967588
 10
1501.935717627935
 20
738.8853374241517
 10
1502.112055554933
 20
738.8596120575713
  0
LINE
  5
C04
330
BBC
100
AcDbEntity
  8
0
  6
Continuous
 62
     7
370
    15
100
AcDbLine
 10
1501.267794578351
 20
740.5306420931484
 30
0.0
 11
1501.273883498503
 21
740.1007602696834
 31
0.0
  0
LWPOLYLINE
  5
C05
330
BBC
100
AcDbEntity
  8
0
  6
Continuous
 62
     7
370
    15
100
AcDbPolyline
 90
        9
 70
   128
 43
0.0
 10
1500.942134211779
 20
740.7716092047145
 10
1501.004584856756
 20
740.8010269561275
 10
1501.064872097452
 20
740.8126143899346
 10
1501.120679129017
 20
740.8059262075531
 10
1501.169861318523
 20
740.7812194320813
 10
1501.210528622011
 20
740.7394435310444
 10
1501.241118217813
 20
740.6822039288916
 10
1501.260454564919
 20
740.611700311433
 10
1501.267794578351
 20
740.5306420931484
  0
LINE
  5
C06
330
BBC
100
AcDbEntity
  8
0
  6
Continuous
 62
     7
370
    15
100
AcDbLine
 10
1488.417529742433
 20
733.1828569055232
 30
0.0
 11
1500.942134211779
 21
740.7716092047145
 31
0.0
  0
ARC
  5
C07
330
BBC
100
AcDbEntity
  8
0
  6
Continuous
 62
     7
370
    15
100
AcDbCircle
 10
1488.87654310086
 20
732.5616482809286
 30
0.0
 40
0.7723946002435277
100
AcDbArc
 50
126.4608326762612
 51
180.514791794274
  0
LINE
  5
C08
330
BBC
100
AcDbEntity
  8
0
  6
Continuous
 62
     7
370
    15
100
AcDbLine
 10
1488.110268597047
 20
732.1248267307375
 30
0.0
 11
1488.104179676895
 21
732.5547085542027
 31
0.0
  0
ARC
  5
C09
330
BBC
100
AcDbEntity
  8
0
  6
Continuous
 62
     7
370
    15
100
AcDbCircle
 10
1484.447813358431
 20
732.1690914628294
 30
0.0
 40
3.662722722425718
100
AcDbArc
 50
321.67450763105
 51
359.3075522603927
  0
ARC
  5
C0A
330
BBC
100
AcDbEntity
  8
0
  6
Continuous
 62
     7
370
    15
100
AcDbCircle
 10
1488.563831263263
 20
728.8947344107871
 30
0.0
 40
1.596899426041604
100
AcDbArc
 50
141.0905120456328
 51
185.546763105381
  0
LINE
  5
C0B
330
BBC
100
AcDbEntity
  8
0
  6
Continuous
 62
     7
370
    15
100
AcDbLine
 10
1487.464816607704
 20
725.5980812837137
 30
0.0
 11
1486.97440909458
 21
728.7403810933915
 31
0.0
  0
LWPOLYLINE
  5
C0C
330
BBC
100
AcDbEntity
  8
0
  6
Continuous
 62
     7
370
    15
100
AcDbPolyline
 90
        9
 70
   128
 43
0.0
 10
1488.104299507394
 20
725.2611898896694
 10
1487.993148423247
 20
725.2071581155099
 10
1487.885000381555
 20
725.1811760532196
 10
1487.783141463737
 20
725.1840331685229
 10
1487.690666655995
 20
725.2156426478872
 10
1487.610385808074
 20
725.2750440363557
 10
1487.544738255891
 20
725.3604324209987
 10
1487.495718702242
 20
725.469213273246
 10
1487.464816607704
 20
725.5980812837137
  0
LINE
  5
C0D
330
BBC
100
AcDbEntity
  8
0
  6
Continuous
 62
     7
370
    15
100
AcDbLine
 10
1488.310192042314
 20
725.3859451859963
 30
0.0
 11
1488.104299507394
 21
725.2611898896694
 31
0.0
  0
LWPOLYLINE
  5
C0E
330
BBC
100
AcDbEntity
  8
0
  6
Continuous
 62
     7
370
    15
100
AcDbPolyline
 90
        9
 70
   128
 43
0.0
 10
1488.635856319294
 20
725.1449804438085
 10
1488.628516201265
 20
725.2260392563551
 10
1488.609179567243
 20
725.2965432812929
 10
1488.578589524772
 20
725.3537830463971
 10
1488.53792165029
 20
725.3955588254269
 10
1488.488738811681
 20
725.4202651736858
 10
1488.432931107209
 20
725.4269526253172
 10
1488.372643228975
 20
725.4153641813135
 10
1488.310192042314
 20
725.3859451859963
  0
LINE
  5
C0F
330
BBC
100
AcDbEntity
  8
0
  6
Continuous
 62
     7
370
    15
100
AcDbLine
 10
1488.638318371742
 20
724.971157898979
 30
0.0
 11
1488.635856319294
 21
725.1449804438085
 31
0.0
  0
ARC
  5
C10
330
BBC
100
AcDbEntity
  8
0
  6
Continuous
 62
     7
370
    15
100
AcDbCircle
 10
1487.86595850717
 20
724.9642170376188
 30
0.0
 40
0.7723910511899311
100
AcDbArc
 50
306.4602494434193
 51
0.5148783300506428
  0
LINE
  5
C11
330
BBC
100
AcDbEntity
  8
0
  6
Continuous
 62
     7
370
    15
100
AcDbLine
 10
1488.119012033709
 20
724.2182233980866
 30
0.0
 11
1488.324963433006
 21
724.3430065950014
 31
0.0
  0
ARC
  5
C12
330
BBC
100
AcDbEntity
  8
0
  6
Continuous
 62
     7
370
    15
100
AcDbCircle
 10
1487.492483146973
 20
725.1814403247911
 30
0.0
 40
1.149054086544416
100
AcDbArc
 50
271.8285151194992
 51
303.0421744841535
  0
ARC
  5
C13
330
BBC
100
AcDbEntity
  8
0
  6
Continuous
 62
     7
370
    15
100
AcDbCircle
 10
1487.56141470173
 20
723.6951289579383
 30
0.0
 40
0.3393798010980109
100
AcDbArc
 50
95.45576905409099
 51
141.1211707303746
  0
LWPOLYLINE
  5
C14
330
BBC
100
AcDbEntity
  8
0
  6
Continuous
 62
     7
370
    15
100
AcDbPolyline
 90
       16
 70
   128
 43
0.0
 10
1486.491116173678
 20
725.2824264780273
 10
1486.392788651117
 20
725.0776385446717
 10
1486.315703649949
 20
724.8631044466462
 10
1486.262432080384
 20
724.6459792451735
 10
1486.234750635941
 20
724.4335044189921
 10
1486.233582537831
 20
724.2327663492578
 10
1486.258966744026
 20
724.0504599772032
 10
1486.31005664995
 20
723.8926655169541
 10
1486.385148324114
 20
723.7646456704964
 10
1486.481737337008
 20
723.6706701080014
 10
1486.596602287901
 20
723.6138730673793
 10
1486.72591224379
 20
723.5961488223456
 10
1486.865354507255
 20
723.6180885053098
 10
1487.010278451934
 20
723.6789603921485
 10
1487.155850628474
 20
723.7767343063956
 10
1487.29721596794
 20
723.9081493289295
  0
ARC
  5
C15
330
BBC
100
AcDbEntity
  8
0
  6
Continuous
 62
     7
370
    15
100
AcDbCircle
 10
1485.821612465588
 20
725.6665738552205
 30
0.0
 40
0.7718836845992949
100
AcDbArc
 50
330.1536878448629
 51
6.006557238561816
  0
LINE
  5
C16
330
BBC
100
AcDbEntity
  8
0
  6
Continuous
 62
     7
370
    15
100
AcDbLine
 10
1486.185488824596
 20
728.334344761785
 30
0.0
 11
1486.589258451681
 21
725.7473455246759
 31
0.0
  0
ARC
  5
C17
330
BBC
100
AcDbEntity
  8
0
  6
Continuous
 62
     7
370
    15
100
AcDbCircle
 10
1485.7424627552
 20
728.3231231699851
 30
0.0
 40
0.4431681647947655
100
AcDbArc
 50
1.4509584102362
 51
73.65631267275566
  0
LINE
  5
C18
330
BBC
100
AcDbEntity
  8
0
  6
Continuous
 62
     7
370
    15
100
AcDbLine
 10
1483.886477725371
 20
729.0997014160269
 30
0.0
 11
1485.867169597393
 21
728.7483833559863
 31
0.0
  0
ARC
  5
C19
330
BBC
100
AcDbEntity
  8
0
  6
Continuous
 62
     7
370
    15
100
AcDbCircle
 10
1483.828657227076
 20
728.6333842056048
 30
0.0
 40
0.4698882321987944
100
AcDbArc
 50
82.93174803757542
 51
124.0847340167308
  0
LINE
  5
C1A
330
BBC
100
AcDbEntity
  8
0
  6
Continuous
 62
     7
370
    15
100
AcDbLine
 10
1482.945013097151
 20
728.6466995948529
 30
0.0
 11
1483.565323241706
 21
729.0225501893546
 31
0.0
  0
ARC
  5
C1B
330
BBC
100
AcDbEntity
  8
0
  6
Continuous
 62
     7
370
    15
100
AcDbCircle
 10
1483.38861212786
 20
728.0361976547339
 30
0.0
 40
0.7546474136542435
100
AcDbArc
 50
126.0026662679444
 51
189.4201061298493
  0
LINE
  5
C1C
330
BBC
100
AcDbEntity
  8
0
  6
Continuous
 62
     7
370
    15
100
AcDbLine
 10
1482.86137837932
 20
727.0066839941445
 30
0.0
 11
1482.644141295457
 21
727.9126828838069
 31
0.0
  0
ARC
  5
C1D
330
BBC
100
AcDbEntity
  8
0
  6
Continuous
 62
     7
370
    15
100
AcDbCircle
 10
1483.477600515771
 20
727.0865010828337
 30
0.0
 40
0.6213698488812255
100
AcDbArc
 50
187.3802311140726
 51
255.2316762825398
  0
LINE
  5
C1E
330
BBC
100
AcDbEntity
  8
0
  6
Continuous
 62
     7
370
    15
100
AcDbLine
 10
1484.486189366747
 20
726.2787025023575
 30
0.0
 11
1483.319206378612
 21
726.4856585190847
 31
0.0
  0
ARC
  5
C1F
330
BBC
100
AcDbEntity
  8
0
  6
Continuous
 62
     7
370
    15
100
AcDbCircle
 10
1484.399594196836
 20
726.0390438061033
 30
0.0
 40
0.254823496055844
100
AcDbArc
 50
350.9950726375355
 51
70.1338412177477
  0
LINE
  5
C20
330
BBC
100
AcDbEntity
  8
0
  6
Continuous
 62
     7
370
    15
100
AcDbLine
 10
1484.673498502635
 20
724.4303035159269
 30
0.0
 11
1484.651276963688
 21
725.9991589842804
 31
0.0
  0
ARC
  5
C21
330
BBC
100
AcDbEntity
  8
0
  6
Continuous
 62
     7
370
    15
100
AcDbCircle
 10
1484.195449546482
 20
724.4296348757505
 30
0.0
 40
0.4780494237609238
100
AcDbArc
 50
309.7268031983233
 51
0.0801387277269497
  0
LINE
  5
C22
330
BBC
100
AcDbEntity
  8
0
  6
Continuous
 62
     7
370
    15
100
AcDbLine
 10
1483.86938690221
 20
723.6033492345403
 30
0.0
 11
1484.500984163629
 21
724.0619667519175
 31
0.0
  0
ARC
  5
C23
330
BBC
100
AcDbEntity
  8
0
  6
Continuous
 62
     7
370
    15
100
AcDbCircle
 10
1484.071798051261
 20
723.3598399089126
 30
0.0
 40
0.3166497511886754
100
AcDbArc
 50
129.734221440157
 51
179.6693879630336
  0
LINE
  5
C24
330
BBC
100
AcDbEntity
  8
0
  6
Continuous
 62
     7
370
    15
100
AcDbLine
 10
1483.764436333825
 20
722.7065797006599
 30
0.0
 11
1483.755153571643
 21
723.3616670528871
 31
0.0
  0
LWPOLYLINE
  5
C25
330
BBC
100
AcDbEntity
  8
0
  6
Continuous
 62
     7
370
    15
100
AcDbPolyline
 90
        9
 70
   128
 43
0.0
 10
1483.872491231897
 20
722.5970092443096
 10
1483.850655943329
 20
722.5917910397204
 10
1483.830109510053
 20
722.5924541211321
 10
1483.811488439931
 20
722.5989779469492
 10
1483.795369595005
 20
722.6111604156016
 10
1483.782252320898
 20
722.6286241264499
 10
1483.772542977582
 20
722.6508280712776
 10
1483.76654235076
 20
722.6770843941816
 10
1483.764436333825
 20
722.7065797006599
  0
LINE
  5
C26
330
BBC
100
AcDbEntity
  8
0
  6
Continuous
 62
     7
370
    15
100
AcDbLine
 10
1484.33955960993
 20
722.76742748916
 30
0.0
 11
1483.872491231897
 21
722.5970092443096
 31
0.0
  0
LWPOLYLINE
  5
C27
330
BBC
100
AcDbEntity
  8
0
  6
Continuous
 62
     7
370
    15
100
AcDbPolyline
 90
        9
 70
   128
 43
0.0
 10
1484.469060558588
 20
722.4360810782522
 10
1484.490625285283
 20
722.507350113879
 10
1484.500874050489
 20
722.5775630568298
 10
1484.49916510704
 20
722.6423233816426
 10
1484.485605463887
 20
722.6975759895706
 10
1484.461044185517
 20
722.7398611267934
 10
1484.427019226062
 20
722.7665310239019
 10
1484.385661127191
 20
722.7759156913363
 10
1484.33955960993
 20
722.76742748916
  0
LINE
  5
C28
330
BBC
100
AcDbEntity
  8
0
  6
Continuous
 62
     7
370
    15
100
AcDbLine
 10
1484.011813746884
 20
721.2379018891954
 30
0.0
 11
1484.469060558588
 21
722.4360810782522
 31
0.0
  0
ARC
  5
C29
330
BBC
100
AcDbEntity
  8
0
  6
Continuous
 62
     7
370
    15
100
AcDbCircle
 10
1480.078539385815
 20
722.5840967447427
 30
0.0
 40
4.157269270632845
100
AcDbArc
 50
304.9019816173187
 51
341.1060755935736
  0
LINE
  5
C2A
330
BBC
100
AcDbEntity
  8
0
  6
Continuous
 62
     7
370
    15
100
AcDbLine
 10
1481.620976279703
 20
718.6678993740961
 30
0.0
 11
1482.457221765678
 21
719.1745868203878
 31
0.0
  0
LWPOLYLINE
  5
C2B
330
BBC
100
AcDbEntity
  8
0
  6
Continuous
 62
     7
370
    15
100
AcDbPolyline
 90
       10
 70
   128
 43
0.0
 10
1480.643995179987
 20
719.3908007087953
 10
1480.661763678467
 20
719.1732434638614
 10
1480.708116303049
 20
718.9799430447959
 10
1480.781644652691
 20
718.8167727870173
 10
1480.880114605697
 20
718.6886905362398
 10
1481.000534202371
 20
718.5995880068405
 10
1481.139244554205
 20
718.5521725340877
 10
1481.292031017348
 20
718.5478848131269
 10
1481.454251252433
 20
718.5868551241904
 10
1481.620976279703
 20
718.6678993740961
  0
LINE
  5
C2C
330
BBC
100
AcDbEntity
  8
0
  6
Continuous
 62
     7
370
    15
100
AcDbLine
 10
1480.619374577917
 20
721.1290316345691
 30
0.0
 11
1480.643995179987
 21
719.3908007087953
 31
0.0
  0
ARC
  5
C2D
330
BBC
100
AcDbEntity
  8
0
  6
Continuous
 62
     7
370
    15
100
AcDbCircle
 10
1481.391738001882
 20
721.1359713612954
 30
0.0
 40
0.7723946002435615
100
AcDbArc
 50
126.4608326762612
 51
180.5147917943001
  0
LINE
  5
C2E
330
BBC
100
AcDbEntity
  8
0
  6
Continuous
 62
     7
370
    15
100
AcDbLine
 10
1482.723436126352
 20
722.8421855775863
 30
0.0
 11
1480.932724643455
 21
721.75717998589
 31
0.0
  0
LINE
  5
C2F
330
BBC
100
AcDbEntity
  8
0
  6
Continuous
 62
     7
370
    15
100
AcDbLine
 10
1481.652554930495
 20
727.3083529425295
 30
0.0
 11
1482.723436126352
 21
722.8421855775863
 31
0.0
  0
ARC
  5
C30
330
BBC
100
AcDbEntity
  8
0
  6
Continuous
 62
     7
370
    15
100
AcDbCircle
 10
1484.473353436472
 20
727.8050057428596
 30
0.0
 40
2.864187182325807
100
AcDbArc
 50
153.8657213804871
 51
189.9856171423406
  0
LINE
  5
C31
330
BBC
100
AcDbEntity
  8
0
  6
Continuous
 62
     7
370
    15
100
AcDbLine
 10
1481.732004582282
 20
741.0676039823211
 30
0.0
 11
1481.901988691857
 21
729.0666124825175
 31
0.0
  0
ARC
  5
C32
330
BBC
100
AcDbEntity
  8
0
  6
Continuous
 62
     7
370
    15
100
AcDbCircle
 10
1484.572867038699
 20
741.0877173759831
 30
0.0
 40
2.84093365724768
100
AcDbArc
 50
167.3717714221451
 51
180.4056491052185
  0
LINE
  5
C33
330
BBC
100
AcDbEntity
  8
0
  6
Continuous
 62
     7
370
    15
100
AcDbLine
 10
1482.005535201634
 20
742.6482669834155
 30
0.0
 11
1481.800657929335
 21
741.7088137443871
 31
0.0
  0
LWPOLYLINE
  5
C34
330
BBC
100
AcDbEntity
  8
0
  6
Continuous
 62
     7
370
    15
100
AcDbPolyline
 90
        9
 70
   128
 43
0.0
 10
1482.313504084951
 20
742.7979226324683
 10
1482.295300524831
 20
742.8542551508961
 10
1482.262384147437
 20
742.8904873972409
 10
1482.218249269303
 20
742.9027730509939
 10
1482.16758113366
 20
742.8898078992848
 10
1482.115758537269
 20
742.85296828871
 10
1482.068282831424
 20
742.7961650159758
 10
1482.030193912888
 20
742.7254281679514
 10
1482.005535201634
 20
742.6482669834155
  0
LINE
  5
C35
330
BBC
100
AcDbEntity
  8
0
  6
Continuous
 62
     7
370
    15
100
AcDbLine
 10
1482.338352238364
 20
742.6385055582322
 30
0.0
 11
1482.313504084951
 21
742.7979226324683
 31
0.0
  0
LINE
  5
C36
330
BBC
100
AcDbEntity
  8
0
  6
Continuous
 62
     7
370
    15
100
AcDbLine
 10
1482.640803393884
 20
742.6718197389602
 30
0.0
 11
1482.338352238364
 21
742.6385055582322
 31
0.0
  0
ARC
  5
C37
330
BBC
100
AcDbEntity
  8
0
  6
Continuous
 62
     7
370
    15
100
AcDbCircle
 10
1482.59055425006
 20
742.8307992765022
 30
0.0
 40
0.1667317300699244
100
AcDbArc
 50
287.5403404060081
 51
344.7713440658326
  0
LINE
  5
C38
330
BBC
100
AcDbEntity
  8
0
  6
Continuous
 62
     7
370
    15
100
AcDbLine
 10
1483.001923610266
 20
743.443449179775
 30
0.0
 11
1482.751431235842
 21
742.7870035545874
 31
0.0
  0
ARC
  5
C39
330
BBC
100
AcDbEntity
  8
0
  6
Continuous
 62
     7
370
    15
100
AcDbCircle
 10
1470.862050298484
 20
748.0885405843494
 30
0.0
 40
12.99820749884288
100
AcDbArc
 50
339.0616018737615
 51
347.6250672408442
  0
LINE
  5
C3A
330
BBC
100
AcDbEntity
  8
0
  6
Continuous
 62
     7
370
    15
100
AcDbLine
 10
1483.635282850099
 20
745.6561190671011
 30
0.0
 11
1483.558259170823
 21
745.3029206438491
 31
0.0
  0
ARC
  5
C3B
330
BBC
100
AcDbEntity
  8
0
  6
Continuous
 62
     7
370
    15
100
AcDbCircle
 10
1483.88765578693
 20
745.6224150094587
 30
0.0
 40
0.2546135557003291
100
AcDbArc
 50
111.9919495393431
 51
172.3932373694886
  0
LINE
  5
C3C
330
BBC
100
AcDbEntity
  8
0
  6
Continuous
 62
     7
370
    15
100
AcDbLine
 10
1484.166749047483
 20
745.9243765667602
 30
0.0
 11
1483.792309041134
 21
745.8585019866777
 31
0.0
  0
LWPOLYLINE
  5
C3D
330
BBC
100
AcDbEntity
  8
0
  6
Continuous
 62
     7
370
    15
100
AcDbPolyline
 90
        9
 70
   128
 43
0.0
 10
1484.251598327987
 20
745.7486332156621
 10
1484.257440699059
 20
745.7864088535246
 10
1484.258137984324
 20
745.8221108433316
 10
1484.2536618861
 20
745.8542903037493
 10
1484.244194056311
 20
745.8816413070183
 10
1484.230118724574
 20
745.9030538769635
 10
1484.212007105141
 20
745.9176590347667
 10
1484.190594215513
 20
745.9248640644298
 10
1484.166749047483
 20
745.9243765667602
  0
LINE
  5
C3E
330
BBC
100
AcDbEntity
  8
0
  6
Continuous
 62
     7
370
    15
100
AcDbLine
 10
1484.243610123894
 20
745.7120004512838
 30
0.0
 11
1484.251598327987
 21
745.7486332156621
 31
0.0
  0
LWPOLYLINE
  5
C3F
330
BBC
100
AcDbEntity
  8
0
  6
Continuous
 62
     7
370
    15
100
AcDbPolyline
 90
        9
 70
   128
 43
0.0
 10
1484.303264191738
 20
745.5796224664569
 10
1484.286166204956
 20
745.5804101353447
 10
1484.270918385235
 20
745.586638360821
 10
1484.258106661951
 20
745.5980678102898
 10
1484.248223352376
 20
745.6142592832421
 10
1484.241648243362
 20
745.6345905884506
 10
1484.238633997228
 20
745.6582804529739
 10
1484.23929644269
 20
745.6844185441999
 10
1484.243610123894
 20
745.7120004512838
  0
LINE
  5
C40
330
BBC
100
AcDbEntity
  8
0
  6
Continuous
 62
     7
370
    15
100
AcDbLine
 10
1484.479940963768
 20
745.5990703110935
 30
0.0
 11
1484.303264191738
 21
745.5796224664569
 31
0.0
  0
ARC
  5
C41
330
BBC
100
AcDbEntity
  8
0
  6
Continuous
 62
     7
370
    15
100
AcDbCircle
 10
1500.596885180784
 20
744.6750535227173
 30
0.0
 40
16.14341035591946
100
AcDbArc
 50
158.6757387569982
 51
176.7187098720879
  0
LINE
  5
C42
330
BBC
100
AcDbEntity
  8
0
  6
Continuous
 62
     7
370
    15
100
AcDbLine
 10
1485.3819964769
 20
750.5260610521439
 30
0.0
 11
1485.558695809099
 21
750.5455354740525
 31
0.0
  0
ARC
  5
C43
330
BBC
100
AcDbEntity
  8
0
  6
Continuous
 62
     7
370
    15
100
AcDbCircle
 10
1485.444765249366
 20
750.3511188859902
 30
0.0
 40
0.1858619926060794
100
AcDbArc
 50
109.7378481365832
 51
172.9272959275704
  0
LINE
  5
C44
330
BBC
100
AcDbEntity
  8
0
  6
Continuous
 62
     7
370
    15
100
AcDbLine
 10
1485.252172113392
 20
750.336874472785
 30
0.0
 11
1485.260317534657
 21
750.3740038337528
 31
0.0
  0
ARC
  5
C45
330
BBC
100
AcDbEntity
  8
0
  6
Continuous
 62
     7
370
    15
100
AcDbCircle
 10
1485.01253087467
 20
750.3638348925151
 30
0.0
 40
0.2411530375678362
100
AcDbArc
 50
287.4106853154123
 51
353.5810290222766
  0
LINE
  5
C46
330
BBC
100
AcDbEntity
  8
0
  6
Continuous
 62
     7
370
    15
100
AcDbLine
 10
1484.721279458105
 20
750.1183971267094
 30
0.0
 11
1485.084688384428
 21
750.13373039166
 31
0.0
  0
LWPOLYLINE
  5
C47
330
BBC
100
AcDbEntity
  8
0
  6
Continuous
 62
     7
370
    15
100
AcDbPolyline
 90
        9
 70
   128
 43
0.0
 10
1484.646973190286
 20
750.2952923979866
 10
1484.64131740181
 20
750.2595195807128
 10
1484.640260409422
 20
750.2255305002874
 10
1484.643840610092
 20
750.1945598653752
 10
1484.651927947203
 20
750.167732734695
 10
1484.664228635071
 20
750.1460236474303
 10
1484.680295831192
 20
750.1302212215083
 10
1484.699545868515
 20
750.1208995057696
 10
1484.721279458105
 20
750.1183971267094
  0
LINE
  5
C48
330
BBC
100
AcDbEntity
  8
0
  6
Continuous
 62
     7
370
    15
100
AcDbLine
 10
1484.725202692116
 20
750.6538719162293
 30
0.0
 11
1484.646973190286
 21
750.2952923979866
 31
0.0
  0
ARC
  5
C49
330
BBC
100
AcDbEntity
  8
0
  6
Continuous
 62
     7
370
    15
100
AcDbCircle
 10
1473.873609309839
 20
753.0530027830756
 30
0.0
 40
11.11363612192328
100
AcDbArc
 50
347.5332670619429
 51
357.0405205286896
  0
LINE
  5
C4A
330
BBC
100
AcDbEntity
  8
0
  6
Continuous
 62
     7
370
    15
100
AcDbLine
 10
1485.002744015086
 20
753.1062771932506
 30
0.0
 11
1484.972423151658
 21
752.479209130988
 31
0.0
  0
LWPOLYLINE
  5
C4B
330
BBC
100
AcDbEntity
  8
0
  6
Continuous
 62
     7
370
    15
100
AcDbPolyline
 90
        9
 70
   128
 43
0.0
 10
1484.938151984965
 20
753.202161552764
 10
1484.95251164621
 20
753.2018848716129
 10
1484.965658152262
 20
753.1978125093062
 10
1484.977240324808
 20
753.1900532495256
 10
1484.986948773062
 20
753.1788143628382
 10
1484.994524158424
 20
753.1643960699473
 10
1484.999764122101
 20
753.147183521992
 10
1485.00252869066
 20
753.1276365121337
 10
1485.002744015086
 20
753.1062771932506
  0
LINE
  5
C4C
330
BBC
100
AcDbEntity
  8
0
  6
Continuous
 62
     7
370
    15
100
AcDbLine
 10
1484.634843412164
 20
753.1688044712158
 30
0.0
 11
1484.938151984965
 21
753.202161552764
 31
0.0
  0
LINE
  5
C4D
330
BBC
100
AcDbEntity
  8
0
  6
Continuous
 62
     7
370
    15
100
AcDbLine
 10
1484.537475172424
 20
752.9958900836764
 30
0.0
 11
1484.634843412164
 21
753.1688044712158
 31
0.0
  0
LWPOLYLINE
  5
C4E
330
BBC
100
AcDbEntity
  8
0
  6
Continuous
 62
     7
370
    15
100
AcDbPolyline
 90
        9
 70
   128
 43
0.0
 10
1484.281259155288
 20
753.0834715105364
 10
1484.27264836653
 20
753.0080831197722
 10
1484.280996824606
 20
752.942463064651
 10
1484.305418423435
 20
752.8935762636471
 10
1484.34332105235
 20
752.8666115661581
 10
1484.390681722954
 20
752.8644310075692
 10
1484.442473569466
 20
752.8872660325621
 10
1484.493199400698
 20
752.9326929295574
 10
1484.537475172424
 20
752.9958900836764
  0
LINE
  5
C4F
330
BBC
100
AcDbEntity
  8
0
  6
Continuous
 62
     7
370
    15
100
AcDbLine
 10
1484.559118521614
 20
754.3575800476179
 30
0.0
 11
1484.281259155288
 21
753.0834715105364
 31
0.0
  0
ARC
  5
C50
330
BBC
100
AcDbEntity
  8
0
  6
Continuous
 62
     7
370
    15
100
AcDbCircle
 10
1487.495008083633
 20
753.8096244699788
 30
0.0
 40
2.986587155172075
100
AcDbArc
 50
125.8974066899355
 51
169.427931346765
  0
LINE
  5
C51
330
BBC
100
AcDbEntity
  8
0
  6
Continuous
 62
     7
370
    15
100
AcDbLine
 10
1490.724225136522
 20
759.2466011911027
 30
0.0
 11
1485.74386543671
 21
756.2289636908338
 31
0.0
  0
ARC
  5
C52
330
BBC
100
AcDbEntity
  8
0
  6
Continuous
 62
     7
370
    15
100
AcDbCircle
 10
1490.961028734053
 20
758.9546991884016
 30
0.0
 40
0.3758759409492729
100
AcDbArc
 50
30.83332437520091
 51
129.0504669618308
  0
LINE
  5
C53
330
BBC
100
AcDbEntity
  8
0
  6
Continuous
 62
     7
370
    15
100
AcDbLine
 10
1492.346291926246
 20
757.3481745952739
 30
0.0
 11
1491.283779097676
 21
759.1473515327046
 31
0.0
  0
ARC
  5
C54
330
BBC
100
AcDbEntity
  8
0
  6
Continuous
 62
     7
370
    15
100
AcDbCircle
 10
1492.668403086709
 20
757.5404502906973
 30
0.0
 40
0.3751340330407615
100
AcDbArc
 50
210.8339665679532
 51
309.0504219995866
  0
LINE
  5
C55
330
BBC
100
AcDbEntity
  8
0
  6
Continuous
 62
     7
370
    15
100
AcDbLine
 10
1495.855333263441
 20
759.0369115467884
 30
0.0
 11
1492.904739050179
 21
757.2491242617949
 31
0.0
  0
ARC
  5
C56
330
BBC
100
AcDbEntity
  8
0
  6
Continuous
 62
     7
370
    15
100
AcDbCircle
 10
1495.032672684599
 20
760.1999698439121
 30
0.0
 40
1.424596444783222
100
AcDbArc
 50
305.272736280615
 51
343.9144015385962
  0
LINE
  5
C57
330
BBC
100
AcDbEntity
  8
0
  6
Continuous
 62
     7
370
    15
100
AcDbLine
 10
1497.395391359163
 20
762.8504239803787
 30
0.0
 11
1496.401494508981
 21
759.8052524214635
 31
0.0
  0
ARC
  5
C58
330
BBC
100
AcDbEntity
  8
0
  6
Continuous
 62
     7
370
    15
100
AcDbCircle
 10
1498.76692372751
 20
762.4549298236991
 30
0.0
 40
1.427416079981634
100
AcDbArc
 50
125.2727391028981
 51
163.9145899845643
  0
LINE
  5
C59
330
BBC
100
AcDbEntity
  8
0
  6
Continuous
 62
     7
370
    15
100
AcDbLine
 10
1502.922994507711
 20
766.6379275471164
 30
0.0
 11
1497.942634838763
 21
763.6202900655465
 31
0.0
  0
ARC
  5
C5A
330
BBC
100
AcDbEntity
  8
0
  6
Continuous
 62
     7
370
    15
100
AcDbCircle
 10
1503.398120221492
 20
766.0395076383744
 30
0.0
 40
0.7641013225184902
100
AcDbArc
 50
13.80756322761124
 51
128.4484186654575
  0
LINE
  5
C5B
330
BBC
100
AcDbEntity
  8
0
  6
Continuous
 62
     7
370
    15
100
AcDbLine
 10
1504.449058075824
 20
765.3032929669683
 30
0.0
 11
1504.140141143249
 21
766.2218693195175
 31
0.0
  0
LWPOLYLINE
  5
C5C
330
BBC
100
AcDbEntity
  8
0
  6
Continuous
 62
     7
370
    15
100
AcDbPolyline
 90
        9
 70
   128
 43
0.0
 10
1504.19966234588
 20
764.9093575696062
 10
1504.244959656148
 20
764.9004334213606
 10
1504.296098138416
 20
764.9167268801002
 10
1504.347649949637
 20
764.9565085566678
 10
1504.394143375992
 20
765.015556020382
 10
1504.430643601082
 20
765.0876019682033
 10
1504.453276487776
 20
765.1649994368355
 10
1504.459639779472
 20
765.2395334520887
 10
1504.449058075824
 20
765.3032929669683
  0
LINE
  5
C5D
330
BBC
100
AcDbEntity
  8
0
  6
Continuous
 62
     7
370
    15
100
AcDbLine
 10
1504.099094451116
 20
764.9623409605634
 30
0.0
 11
1504.19966234588
 21
764.9093575696062
 31
0.0
  0
LINE
  5
C5E
330
BBC
100
AcDbEntity
  8
0
  6
Continuous
 62
     7
370
    15
100
AcDbLine
 10
1503.800010765446
 20
764.6307040299116
 30
0.0
 11
1504.099094451116
 21
764.9623409605634
 31
0.0
  0
ARC
  5
C5F
330
BBC
100
AcDbEntity
  8
0
  6
Continuous
 62
     7
370
    15
100
AcDbCircle
 10
1503.983475536219
 20
764.4691140263171
 30
0.0
 40
0.2444803701247547
100
AcDbArc
 50
138.627414973646
 51
182.4067622143909
  0
LINE
  5
C60
330
BBC
100
AcDbEntity
  8
0
  6
Continuous
 62
     7
370
    15
100
AcDbLine
 10
1503.786628157721
 20
763.8788836827404
 30
0.0
 11
1503.739210826909
 21
764.4588474220919
 31
0.0
  0
ARC
  5
C61
330
BBC
100
AcDbEntity
  8
0
  6
Continuous
 62
     7
370
    15
100
AcDbCircle
 10
1510.096341450893
 20
764.3415146353031
 30
0.0
 40
6.326650712683642
100
AcDbArc
 50
184.1934479842331
 51
198.0462174090491
  0
LINE
  5
C62
330
BBC
100
AcDbEntity
  8
0
  6
Continuous
 62
     7
370
    15
100
AcDbLine
 10
1504.167872974074
 20
762.1231789395249
 30
0.0
 11
1504.08091804887
 21
762.3816190935232
 31
0.0
  0
ARC
  5
C63
330
BBC
100
AcDbEntity
  8
0
  6
Continuous
 62
     7
370
    15
100
AcDbCircle
 10
1503.87274004972
 20
762.0591124974126
 30
0.0
 40
0.3020065430460976
100
AcDbArc
 50
318.7518695655418
 51
12.2475532664299
  0
LINE
  5
C64
330
BBC
100
AcDbEntity
  8
0
  6
Continuous
 62
     7
370
    15
100
AcDbLine
 10
1503.742152095394
 20
761.4384283547934
 30
0.0
 11
1504.099807088301
 21
761.8599931562306
 31
0.0
  0
LWPOLYLINE
  5
C65
330
BBC
100
AcDbEntity
  8
0
  6
Continuous
 62
     7
370
    15
100
AcDbPolyline
 90
        9
 70
   128
 43
0.0
 10
1503.571812887775
 20
761.4368829710347
 10
1503.58348783105
 20
761.4122243460947
 10
1503.599513874801
 20
761.3939279893569
 10
1503.619242246398
 20
761.3827345811577
 10
1503.641874294114
 20
761.3790972574665
 10
1503.66649381846
 20
761.3831632658574
 10
1503.692104162132
 20
761.3947680045729
 10
1503.717668557086
 20
761.4134416859995
 10
1503.742152095394
 20
761.4384283547934
  0
LINE
  5
C66
330
BBC
100
AcDbEntity
  8
0
  6
Continuous
 62
     7
370
    15
100
AcDbLine
 10
1503.562763224478
 20
761.4635937005938
 30
0.0
 11
1503.571812887775
 21
761.4368829710347
 31
0.0
  0
LWPOLYLINE
  5
C67
330
BBC
100
AcDbEntity
  8
0
  6
Continuous
 62
     7
370
    15
100
AcDbPolyline
 90
        9
 70
   128
 43
0.0
 10
1503.438884175566
 20
761.466865480329
 10
1503.456971062691
 20
761.4842165322591
 10
1503.475687422938
 20
761.4969686921965
 10
1503.494315967947
 20
761.5046332446119
 10
1503.512142774798
 20
761.5069164521449
 10
1503.528484646496
 20
761.5037308128363
 10
1503.542715294904
 20
761.4951984135648
 10
1503.554289342698
 20
761.4816462511729
 10
1503.562763224478
 20
761.4635937005938
  0
LINE
  5
C68
330
BBC
100
AcDbEntity
  8
0
  6
Continuous
 62
     7
370
    15
100
AcDbLine
 10
1503.264644982382
 20
761.2737036031924
 30
0.0
 11
1503.438884175566
 21
761.466865480329
 31
0.0
  0
ARC
  5
C69
330
BBC
100
AcDbEntity
  8
0
  6
Continuous
 62
     7
370
    15
100
AcDbCircle
 10
1497.765074892958
 20
757.4394003411279
 30
0.0
 40
6.704263768227637
100
AcDbArc
 50
2.292235659899199
 51
34.88422958658773
  0
LINE
  5
C6A
330
BBC
100
AcDbEntity
  8
0
  6
Continuous
 62
     7
370
    15
100
AcDbLine
 10
1504.638190342911
 20
757.9007075722808
 30
0.0
 11
1504.463974072443
 21
757.7075466762955
 31
0.0
  0
ARC
  5
C6B
330
BBC
100
AcDbEntity
  8
0
  6
Continuous
 62
     7
370
    15
100
AcDbCircle
 10
1504.471106711426
 20
758.0545534675567
 30
0.0
 40
0.2271244139309902
100
AcDbArc
 50
317.3620036089626
 51
12.18884935820191
  0
LINE
  5
C6C
330
BBC
100
AcDbEntity
  8
0
  6
Continuous
 62
     7
370
    15
100
AcDbLine
 10
1504.684229886696
 20
758.1289187647333
 30
0.0
 11
1504.693111060338
 21
758.102507283541
 31
0.0
  0
ARC
  5
C6D
330
BBC
100
AcDbEntity
  8
0
  6
Continuous
 62
     7
370
    15
100
AcDbCircle
 10
1504.980725237537
 20
758.1927806048725
 30
0.0
 40
0.3032949516497538
100
AcDbArc
 50
135.9603332641759
 51
192.1551823365844
  0
LINE
  5
C6E
330
BBC
100
AcDbEntity
  8
0
  6
Continuous
 62
     7
370
    15
100
AcDbLine
 10
1505.132616932668
 20
758.7887554708246
 30
0.0
 11
1504.762699021216
 21
758.4036179751205
 31
0.0
  0
LWPOLYLINE
  5
C6F
330
BBC
100
AcDbEntity
  8
0
  6
Continuous
 62
     7
370
    15
100
AcDbPolyline
 90
        9
 70
   128
 43
0.0
 10
1505.292655438522
 20
758.7784835630706
 10
1505.28175645336
 20
758.8020500591944
 10
1505.266920526012
 20
758.8199564334212
 10
1505.248686703182
 20
758.8315520778179
 10
1505.227717490279
 20
758.8364156777108
 10
1505.204774780026
 20
758.834370519677
 10
1505.180692169953
 20
758.8254909122297
 10
1505.156344674563
 20
758.8100994859009
 10
1505.132616932668
 20
758.7887554708246
  0
LINE
  5
C70
330
BBC
100
AcDbEntity
  8
0
  6
Continuous
 62
     7
370
    15
100
AcDbLine
 10
1505.378288447878
 20
758.523840933184
 30
0.0
 11
1505.292655438522
 21
758.7784835630706
 31
0.0
  0
ARC
  5
C71
330
BBC
100
AcDbEntity
  8
0
  6
Continuous
 62
     7
370
    15
100
AcDbCircle
 10
1509.157900301283
 20
759.7424160986933
 30
0.0
 40
3.971195184877519
100
AcDbArc
 50
197.8697100751751
 51
216.7842352460067
  0
LINE
  5
C72
330
BBC
100
AcDbEntity
  8
0
  6
Continuous
 62
     7
370
    15
100
AcDbLine
 10
1506.242052544704
 20
757.0201449102722
 30
0.0
 11
1505.977385326705
 21
757.3644514873341
 31
0.0
  0
LWPOLYLINE
  5
C73
330
BBC
100
AcDbEntity
  8
0
  6
Continuous
 62
     7
370
    15
100
AcDbPolyline
 90
        9
 70
   128
 43
0.0
 10
1506.354031189101
 20
757.0398432875395
 10
1506.339000013771
 20
757.025060972556
 10
1506.323448295021
 20
757.0134158122555
 10
1506.307791509444
 20
757.0052189164014
 10
1506.29244794058
 20
757.0006892716167
 10
1506.277827504132
 20
756.9999478909815
 10
1506.264320796741
 20
757.0030145810719
 10
1506.252288660891
 20
757.0098074128114
 10
1506.242052544704
 20
757.0201449102722
  0
LINE
  5
C74
330
BBC
100
AcDbEntity
  8
0
  6
Continuous
 62
     7
370
    15
100
AcDbLine
 10
1506.652270844309
 20
757.3704921989921
 30
0.0
 11
1506.354031189101
 21
757.0398432875395
 31
0.0
  0
LINE
  5
C75
330
BBC
100
AcDbEntity
  8
0
  6
Continuous
 62
     7
370
    15
100
AcDbLine
 10
1506.672218530059
 20
757.5570514099942
 30
0.0
 11
1506.652270844309
 21
757.3704921989921
 31
0.0
  0
LWPOLYLINE
  5
C76
330
BBC
100
AcDbEntity
  8
0
  6
Continuous
 62
     7
370
    15
100
AcDbPolyline
 90
        9
 70
   128
 43
0.0
 10
1506.979149727737
 20
757.7799683571345
 10
1506.952743417026
 20
757.8261888597674
 10
1506.913315900603
 20
757.8499579152793
 10
1506.865052700492
 20
757.8487522629028
 10
1506.813077311788
 20
757.8226998915412
 10
1506.762907305817
 20
757.7745664528002
 10
1506.719868599197
 20
757.7094616666466
 10
1506.688530068457
 20
757.6342968869013
 10
1506.672218530059
 20
757.5570514099942
  0
LINE
  5
C77
330
BBC
100
AcDbEntity
  8
0
  6
Continuous
 62
     7
370
    15
100
AcDbLine
 10
1507.206927035911
 20
757.1026637911709
 30
0.0
 11
1506.979149727737
 21
757.7799683571345
 31
0.0
  0
ARC
  5
C78
330
BBC
100
AcDbEntity
  8
0
  6
Continuous
 62
     7
370
    15
100
AcDbCircle
 10
1505.483380494393
 20
756.5530993426111
 30
0.0
 40
1.809042222806639
100
AcDbArc
 50
0.055559778422191
 51
17.6852330127781
  0
LINE
  5
C79
330
BBC
100
AcDbEntity
  8
0
  6
Continuous
 62
     7
370
    15
100
AcDbLine
 10
1507.462405976236
 20
744.5538620727038
 30
0.0
 11
1507.29242186666
 21
756.5548535725064
 31
0.0
  0
ARC
  5
C7A
330
BBC
100
AcDbEntity
  8
0
  6
Continuous
 62
     7
370
    15
100
AcDbCircle
 10
1506.188258591283
 20
743.5464538684965
 30
0.0
 40
1.624291491231237
100
AcDbArc
 50
344.9694822560092
 51
38.33175823240206
  0
LINE
  5
C7B
330
BBC
100
AcDbEntity
  8
0
  6
Continuous
 62
     7
370
    15
100
AcDbLine
 10
1506.829765492566
 20
737.4483923325101
 30
0.0
 11
1507.756979551032
 21
743.1252206801899
 31
0.0
  0
LINE
  5
C7C
330
BBC
100
AcDbEntity
  8
0
  6
Continuous
 62
     7
370
    15
100
AcDbLine
 10
1508.620476975461
 20
738.5333979242053
 30
0.0
 11
1506.829765492566
 21
737.4483923325101
 31
0.0
  0
LINE
  5
C7D
330
BBC
100
AcDbEntity
  8
0
  6
Continuous
 62
     7
370
    15
100
AcDbLine
 10
1484.559118521614
 20
754.3575800476179
 30
0.0
 11
1478.252959159983
 21
756.8811973557886
 31
0.0
  0
ARC
  5
C7E
330
BBC
100
AcDbEntity
  8
0
  6
Continuous
 62
     7
370
    15
100
AcDbCircle
 10
1481.188848722002
 20
756.3332417781492
 30
0.0
 40
2.986587155172239
100
AcDbArc
 50
125.8974066899393
 51
169.4279313467586
  0
LINE
  5
C7F
330
BBC
100
AcDbEntity
  8
0
  6
Continuous
 62
     7
370
    15
100
AcDbLine
 10
1485.74386543671
 20
756.2289636908338
 30
0.0
 11
1479.437706075079
 21
758.7525809990041
 31
0.0
  0
LINE
  5
C80
330
BBC
100
AcDbEntity
  8
0
  6
Continuous
 62
     7
370
    15
100
AcDbLine
 10
1477.975099793657
 20
755.6070888187071
 30
0.0
 11
1484.281259155288
 21
753.0834715105364
 31
0.0
  0
LINE
  5
C81
330
BBC
100
AcDbEntity
  8
0
  6
Continuous
 62
     7
370
    15
100
AcDbLine
 10
1477.975099793657
 20
755.6070888187071
 30
0.0
 11
1478.252959159983
 21
756.8811973557886
 31
0.0
  0
LWPOLYLINE
  5
C82
330
BBC
100
AcDbEntity
  8
0
  6
Continuous
 62
     7
370
    15
100
AcDbPolyline
 90
        5
 70
   128
 43
0.0
 10
1478.033386472283
 20
755.3916284009885
 10
1477.999259061804
 20
755.4171935718178
 10
1477.974837462975
 20
755.4660803728217
 10
1477.966489004899
 20
755.531700427943
 10
1477.975099793657
 20
755.6070888187071
  0
ARC
  5
C83
330
BBC
100
AcDbEntity
  8
0
  6
Continuous
 62
     7
370
    15
100
AcDbCircle
 10
1485.050818926404
 20
763.1978241215463
 30
0.0
 40
5.636050909392873
100
AcDbArc
 50
257.0049959805023
 51
284.2875736909665
  0
LINE
  5
C84
330
BBC
100
AcDbEntity
  8
0
  6
Continuous
 62
     7
370
    15
100
AcDbLine
 10
1490.724225136522
 20
759.2466011911027
 30
0.0
 11
1484.418065774891
 21
761.7702184992739
 31
0.0
  0
LINE
  5
C85
330
BBC
100
AcDbEntity
  8
0
  6
Continuous
 62
     7
370
    15
100
AcDbLine
 10
1479.437706075079
 20
758.7525809990041
 30
0.0
 11
1484.418065774891
 21
761.7702184992739
 31
0.0
  0
LINE
  5
C86
330
BBC
100
AcDbEntity
  8
0
  6
Continuous
 62
     7
370
    15
100
AcDbLine
 10
1478.66626408086
 20
755.0028324713198
 30
0.0
 11
1484.857058815435
 21
752.5253882663036
 31
0.0
  0
LINE
  5
C87
330
BBC
100
AcDbEntity
  8
0
  6
Continuous
 62
     7
370
    15
100
AcDbLine
 10
1484.857058234264
 20
752.5253762021901
 30
0.0
 11
1484.972423151658
 21
752.479209130988
 31
0.0
  0
LINE
  5
C88
330
BBC
100
AcDbEntity
  8
0
  6
Continuous
 62
     7
370
    15
100
AcDbLine
 10
1478.66626408086
 20
755.0028324713198
 30
0.0
 11
1478.672692972235
 21
755.1357888549216
 31
0.0
  0
LINE
  5
C89
330
BBC
100
AcDbEntity
  8
0
  6
Continuous
 62
     7
370
    15
100
AcDbLine
 10
1484.609837774871
 20
750.7000389870462
 30
0.0
 11
1484.725202692116
 21
750.6538719162293
 31
0.0
  0
LINE
  5
C8A
330
BBC
100
AcDbEntity
  8
0
  6
Continuous
 62
     7
370
    15
100
AcDbLine
 10
1478.419038282694
 20
753.1774660791828
 30
0.0
 11
1484.609834393707
 21
750.7000234888456
 31
0.0
  0
ARC
  5
C8B
330
BBC
100
AcDbEntity
  8
0
  6
Continuous
 62
     7
370
    15
100
AcDbCircle
 10
1467.567439821143
 20
755.5766209229987
 30
0.0
 40
11.11364625743244
100
AcDbArc
 50
347.5331520174343
 51
357.040550076323
  0
LWPOLYLINE
  5
C8C
330
BBC
100
AcDbEntity
  8
0
  6
Continuous
 62
     7
370
    15
100
AcDbPolyline
 90
        3
 70
   128
 43
0.0
 10
1482.272575352269
 20
758.8775917199095
 10
1482.273595306593
 20
758.8568674581948
 10
1482.274230825144
 20
758.8478766764526
  0
LINE
  5
C8D
330
BBC
100
AcDbEntity
  8
0
  6
Continuous
 62
     7
370
    15
100
AcDbLine
 10
1487.945746553139
 20
758.8918169667782
 30
0.0
 11
1487.949291166358
 21
758.9579976999476
 31
0.0
  0
LINE
  5
C8E
330
BBC
100
AcDbEntity
  8
0
  6
Continuous
 62
     7
370
    15
100
AcDbLine
 10
1484.531619781226
 20
750.3414548628037
 30
0.0
 11
1484.646973190286
 21
750.2952923979866
 31
0.0
  0
LINE
  5
C8F
330
BBC
100
AcDbEntity
  8
0
  6
Continuous
 62
     7
370
    15
100
AcDbLine
 10
1478.340819304533
 20
752.8189348160655
 30
0.0
 11
1484.53163567111
 21
750.3414703447853
 31
0.0
  0
LINE
  5
C90
330
BBC
100
AcDbEntity
  8
0
  6
Continuous
 62
     7
370
    15
100
AcDbLine
 10
1478.340819304533
 20
752.8189348160655
 30
0.0
 11
1478.419038282694
 21
753.1774660791828
 31
0.0
  0
LINE
  5
C91
330
BBC
100
AcDbEntity
  8
0
  6
Continuous
 62
     7
370
    15
100
AcDbLine
 10
1484.479940963768
 20
745.5990703110935
 30
0.0
 11
1484.240524825122
 21
745.694880562103
 31
0.0
  0
ARC
  5
C92
330
BBC
100
AcDbEntity
  8
0
  6
Continuous
 62
     7
370
    15
100
AcDbCircle
 10
1498.406914924427
 20
745.081112082353
 30
0.0
 40
14.44516441346439
100
AcDbArc
 50
170.7493571900554
 51
176.3271782267465
  0
LINE
  5
C93
330
BBC
100
AcDbEntity
  8
0
  6
Continuous
 62
     7
370
    15
100
AcDbLine
 10
1478.343371458246
 20
749.7267848323409
 30
0.0
 11
1484.149616185206
 21
747.4032248256619
 31
0.0
  0
LINE
  5
C94
330
BBC
100
AcDbEntity
  8
0
  6
Continuous
 62
     7
370
    15
100
AcDbLine
 10
1478.713595586496
 20
751.4243914912383
 30
0.0
 11
1484.519840313457
 21
749.1008314845592
 31
0.0
  0
ARC
  5
C95
330
BBC
100
AcDbEntity
  8
0
  6
Continuous
 62
     7
370
    15
100
AcDbCircle
 10
1501.356047064709
 20
744.4915225506388
 30
0.0
 40
17.45576084332167
100
AcDbArc
 50
161.1784167552093
 51
164.6890963846799
  0
ARC
  5
C96
330
BBC
100
AcDbEntity
  8
0
  6
Continuous
 62
     7
370
    15
100
AcDbCircle
 10
1494.470839712934
 20
747.0987845736452
 30
0.0
 40
16.34018413805977
100
AcDbArc
 50
164.6495628311784
 51
170.7448943419043
  0
LWPOLYLINE
  5
C97
330
BBC
100
AcDbEntity
  8
0
  6
Continuous
 62
     7
370
    15
100
AcDbPolyline
 90
        8
 70
   128
 43
0.0
 10
1478.387446365724
 20
752.6465560202694
 10
1478.374133391713
 20
752.6538407194074
 10
1478.358065565177
 20
752.6696458595703
 10
1478.345765032198
 20
752.6913585031324
 10
1478.337678706835
 20
752.7181897667416
 10
1478.334100388756
 20
752.7491647927249
 10
1478.33516008864
 20
752.7831581684965
 10
1478.340819304533
 20
752.8189348160655
  0
LINE
  5
C98
330
BBC
100
AcDbEntity
  8
0
  6
Continuous
 62
     7
370
    15
100
AcDbLine
 10
1481.800657929335
 20
741.7088137443871
 30
0.0
 11
1475.494498567704
 21
744.2324310525576
 31
0.0
  0
LINE
  5
C99
330
BBC
100
AcDbEntity
  8
0
  6
Continuous
 62
     7
370
    15
100
AcDbLine
 10
1482.005535201634
 20
742.6482669834155
 30
0.0
 11
1475.699375840003
 21
745.1718842915867
 31
0.0
  0
LINE
  5
C9A
330
BBC
100
AcDbEntity
  8
0
  6
Continuous
 62
     7
370
    15
100
AcDbLine
 10
1475.494498567704
 20
744.2324310525576
 30
0.0
 11
1475.699375840003
 21
745.1718842915867
 31
0.0
  0
LWPOLYLINE
  5
C9B
330
BBC
100
AcDbEntity
  8
0
  6
Continuous
 62
     7
370
    15
100
AcDbPolyline
 90
        7
 70
   128
 43
0.0
 10
1475.699375840003
 20
745.1718842915867
 10
1475.724034551257
 20
745.2490454761224
 10
1475.762123469793
 20
745.3197823241468
 10
1475.809599175638
 20
745.3765855968805
 10
1475.861421772029
 20
745.4134252074554
 10
1475.912089907672
 20
745.4263903591644
 10
1475.943431040668
 20
745.4206328886656
  0
LINE
  5
C9C
330
BBC
100
AcDbEntity
  8
0
  6
Continuous
 62
     7
370
    15
100
AcDbLine
 10
1477.252099809174
 20
747.8265379520183
 30
0.0
 11
1483.558259170823
 21
745.3029206438491
 31
0.0
  0
LINE
  5
C9D
330
BBC
100
AcDbEntity
  8
0
  6
Continuous
 62
     7
370
    15
100
AcDbLine
 10
1476.695762655126
 20
745.9670623122296
 30
0.0
 11
1483.001923610266
 21
743.443449179775
 31
0.0
  0
ARC
  5
C9E
330
BBC
100
AcDbEntity
  8
0
  6
Continuous
 62
     7
370
    15
100
AcDbCircle
 10
1464.555889897512
 20
750.6121581756149
 30
0.0
 40
12.99820857468808
100
AcDbArc
 50
339.0615826443487
 51
347.6250670037711
  0
ARC
  5
C9F
330
BBC
100
AcDbEntity
  8
0
  6
Continuous
 62
     7
370
    15
100
AcDbCircle
 10
1485.172546443054
 20
753.966198460756
 30
0.0
 40
4.545747012227318
100
AcDbArc
 50
63.32344011042833
 51
116.5110284719296
  0
LINE
  5
CA0
330
BBC
100
AcDbEntity
  8
0
  6
Continuous
 62
     7
370
    15
100
AcDbLine
 10
1475.425845220651
 20
743.5912212904916
 30
0.0
 11
1481.732004582282
 21
741.0676039823211
 31
0.0
  0
ARC
  5
CA1
330
BBC
100
AcDbEntity
  8
0
  6
Continuous
 62
     7
370
    15
100
AcDbCircle
 10
1478.266707677055
 20
743.6113346841554
 30
0.0
 40
2.84093365723478
100
AcDbArc
 50
167.371771422126
 51
180.4056491052576
  0
LINE
  5
CA2
330
BBC
100
AcDbEntity
  8
0
  6
Continuous
 62
     7
370
    15
100
AcDbLine
 10
1476.014484220417
 20
742.8936957394434
 30
0.0
 11
1475.769824088647
 21
740.614449680951
 31
0.0
  0
LINE
  5
CA3
330
BBC
100
AcDbEntity
  8
0
  6
Continuous
 62
     7
370
    15
100
AcDbLine
 10
1475.769824088647
 20
740.614449680951
 30
0.0
 11
1475.834116054987
 21
736.0753939805367
 31
0.0
  0
LINE
  5
CA4
330
BBC
100
AcDbEntity
  8
0
  6
Continuous
 62
     7
370
    15
100
AcDbLine
 10
1476.104747462436
 20
733.9076683636041
 30
0.0
 11
1475.834116054987
 21
736.0753939805367
 31
0.0
  0
SPLINE
  5
CA5
330
BBC
100
AcDbEntity
  8
0
  6
Continuous
 62
     7
370
    15
100
AcDbSpline
210
0.0
220
0.0
230
1.0
 70
     8
 71
     3
 72
     8
 73
     4
 74
     0
 42
0.0000000001
 43
0.0000000001
 40
0.0
 40
0.0
 40
0.0
 40
0.0
 40
1.0
 40
1.0
 40
1.0
 40
1.0
 10
1476.386799594067
 20
733.7775350032232
 30
0.0
 10
1476.292585049159
 20
733.8152380555213
 30
0.0
 10
1476.198553312261
 20
733.8582025525433
 30
0.0
 10
1476.104747462436
 20
733.9076683636041
 30
0.0
  0
LINE
  5
CA6
330
BBC
100
AcDbEntity
  8
0
  6
Continuous
 62
     7
370
    15
100
AcDbLine
 10
1481.039228512288
 20
731.9157123835148
 30
0.0
 11
1476.386799594088
 21
733.7775350032286
 31
0.0
  0
SPLINE
  5
CA7
330
BBC
100
AcDbEntity
  8
0
  6
Continuous
 62
     7
370
    15
100
AcDbSpline
210
0.0
220
0.0
230
1.0
 70
     8
 71
     3
 72
     8
 73
     4
 74
     0
 42
0.0000000001
 43
0.0000000001
 40
0.0
 40
0.0
 40
0.0
 40
0.0
 40
1.0
 40
1.0
 40
1.0
 40
1.0
 10
1481.320788883363
 20
731.8202976431497
 30
0.0
 10
1481.227322812165
 20
731.8457748574934
 30
0.0
 10
1481.133443057103
 20
731.8780093312538
 30
0.0
 10
1481.039228512209
 20
731.9157123835466
 30
0.0
  0
LINE
  5
CA8
330
BBC
100
AcDbEntity
  8
0
  6
Continuous
 62
     7
370
    15
100
AcDbLine
 10
1481.320788883363
 20
731.8202976431497
 30
0.0
 11
1481.532747659756
 21
733.7948989080233
 31
0.0
  0
LINE
  5
CA9
330
BBC
100
AcDbEntity
  8
0
  6
Continuous
 62
     7
370
    15
100
AcDbLine
 10
1481.468455693417
 20
738.3339546084377
 30
0.0
 11
1481.532747659756
 21
733.7948989080233
 31
0.0
  0
LINE
  5
CAA
330
BBC
100
AcDbEntity
  8
0
  6
Continuous
 62
     7
370
    15
100
AcDbLine
 10
1481.156070818744
 20
740.8361205677813
 30
0.0
 11
1481.468455693417
 21
738.3339546084377
 31
0.0
  0
LINE
  5
CAB
330
BBC
100
AcDbEntity
  8
0
  6
Continuous
 62
     7
370
    15
100
AcDbLine
 10
1481.156070818744
 20
740.8361205677813
 30
0.0
 11
1476.014484220417
 21
742.8936957394434
 31
0.0
  0
LINE
  5
CAC
330
BBC
100
AcDbEntity
  8
0
  6
Continuous
 62
     7
370
    15
100
AcDbLine
 10
1481.901988691857
 20
729.0666124825175
 30
0.0
 11
1475.595829330226
 21
731.5902297906883
 31
0.0
  0
LINE
  5
CAD
330
BBC
100
AcDbEntity
  8
0
  6
Continuous
 62
     7
370
    15
100
AcDbLine
 10
1475.595829330226
 20
731.5902297906883
 30
0.0
 11
1475.425845220651
 21
743.5912212904916
 31
0.0
  0
LINE
  5
CAE
330
BBC
100
AcDbEntity
  8
0
  6
Continuous
 62
     7
370
    15
100
AcDbLine
 10
1477.329123488471
 20
748.1797363752719
 30
0.0
 11
1483.635282850099
 21
745.6561190671011
 31
0.0
  0
LINE
  5
CAF
330
BBC
100
AcDbEntity
  8
0
  6
Continuous
 62
     7
370
    15
100
AcDbLine
 10
1477.252099809174
 20
747.8265379520183
 30
0.0
 11
1477.329123488471
 21
748.1797363752719
 31
0.0
  0
LINE
  5
CB0
330
BBC
100
AcDbEntity
  8
0
  6
Continuous
 62
     7
370
    15
100
AcDbLine
 10
1477.486149679501
 20
748.3821192948416
 30
0.0
 11
1483.792309041134
 21
745.8585019866777
 31
0.0
  0
ARC
  5
CB1
330
BBC
100
AcDbEntity
  8
0
  6
Continuous
 62
     7
370
    15
100
AcDbCircle
 10
1477.581496425299
 20
748.1460323176264
 30
0.0
 40
0.2546135556971186
100
AcDbArc
 50
111.9919495399479
 51
172.393237368679
  0
LINE
  5
CB2
330
BBC
100
AcDbEntity
  8
0
  6
Continuous
 62
     7
370
    15
100
AcDbLine
 10
1482.559154764156
 20
742.8639444518524
 30
0.0
 11
1482.636064707398
 21
742.8331664056907
 31
0.0
  0
LINE
  5
CB3
330
BBC
100
AcDbEntity
  8
0
  6
Continuous
 62
     7
370
    15
100
AcDbLine
 10
1476.445270264229
 20
745.3106166431791
 30
0.0
 11
1482.559154764157
 21
742.8639444518531
 31
0.0
  0
LINE
  5
CB4
330
BBC
100
AcDbEntity
  8
0
  6
Continuous
 62
     7
370
    15
100
AcDbLine
 10
1482.636066317465
 20
742.833170625241
 30
0.0
 11
1482.751431235842
 21
742.7870035545874
 31
0.0
  0
LINE
  5
CB5
330
BBC
100
AcDbEntity
  8
0
  6
Continuous
 62
     7
370
    15
100
AcDbLine
 10
1476.445270264229
 20
745.3106166431791
 30
0.0
 11
1476.695762655126
 21
745.9670623122296
 31
0.0
  0
LINE
  5
CB6
330
BBC
100
AcDbEntity
  8
0
  6
Continuous
 62
     7
370
    15
100
AcDbLine
 10
1477.860589685852
 20
748.4479938749315
 30
0.0
 11
1484.166749047483
 21
745.9243765667602
 31
0.0
  0
LINE
  5
CB7
330
BBC
100
AcDbEntity
  8
0
  6
Continuous
 62
     7
370
    15
100
AcDbLine
 10
1477.486149679501
 20
748.3821192948416
 30
0.0
 11
1477.860589685852
 21
748.4479938749315
 31
0.0
  0
ARC
  5
CB8
330
BBC
100
AcDbEntity
  8
0
  6
Continuous
 62
     7
370
    15
100
AcDbCircle
 10
1477.406778429579
 20
753.3100548325773
 30
0.0
 40
2.056429408063824
100
AcDbArc
 50
321.5394882059925
 51
331.1605262337802
  0
ARC
  5
CB9
330
BBC
100
AcDbEntity
  8
0
  6
Continuous
 62
     7
370
    15
100
AcDbCircle
 10
1480.358580969855
 20
750.9807338460553
 30
0.0
 40
1.703763192933245
100
AcDbArc
 50
141.9431463831617
 51
164.9062817248289
  0
ARC
  5
CBA
330
BBC
100
AcDbEntity
  8
0
  6
Continuous
 62
     7
370
    15
100
AcDbCircle
 10
1476.217495005164
 20
745.3953613021671
 30
0.0
 40
0.2430292695728197
100
AcDbArc
 50
319.3790135937575
 51
339.5920893738828
  0
LWPOLYLINE
  5
CBB
330
BBC
100
AcDbEntity
  8
0
  6
Continuous
 62
     7
370
    15
100
AcDbPolyline
 90
        3
 70
   128
 43
0.0
 10
1477.860589685852
 20
748.4479938749315
 10
1477.884434853882
 20
748.448481372601
 10
1477.898808314547
 20
748.4446128558111
  0
ARC
  5
CBC
330
BBC
100
AcDbEntity
  8
0
  6
Continuous
 62
     7
370
    15
100
AcDbCircle
 10
1479.339993824293
 20
749.5237650341399
 30
0.0
 40
1.017090546100585
100
AcDbArc
 50
168.4859407843973
 51
201.0297064974148
  0
LINE
  5
CBD
330
BBC
100
AcDbEntity
  8
0
  6
Continuous
 62
     7
370
    15
100
AcDbLine
 10
1478.448159859627
 20
748.3910141659596
 30
0.0
 11
1484.0025629528
 21
746.1682368813008
 31
0.0
  0
ARC
  5
CBE
330
BBC
100
AcDbEntity
  8
0
  6
Continuous
 62
     7
370
    15
100
AcDbCircle
 10
1477.131531679393
 20
748.678423662672
 30
0.0
 40
1.347632733271563
100
AcDbArc
 50
347.6859541591756
 51
20.88200861227526
  0
ARC
  5
CBF
330
BBC
100
AcDbEntity
  8
0
  6
Continuous
 62
     7
370
    15
100
AcDbCircle
 10
1478.092251269848
 20
748.4127703030411
 30
0.0
 40
0.3523586699351935
100
AcDbArc
 50
331.2933605492182
 51
347.5456856839234
  0
LINE
  5
CC0
330
BBC
100
AcDbEntity
  8
0
  6
Continuous
 62
     7
370
    15
100
AcDbLine
 10
1478.436318333604
 20
748.3367802516092
 30
0.0
 11
1478.448159859627
 21
748.3910141659596
 31
0.0
  0
ARC
  5
CC1
330
BBC
100
AcDbEntity
  8
0
  6
Continuous
 62
     7
370
    15
100
AcDbCircle
 10
1484.668262441868
 20
761.4226851322285
 30
0.0
 40
0.4282263576386854
100
AcDbArc
 50
71.81409113810744
 51
125.7509167561776
  0
LINE
  5
CC2
330
BBC
100
AcDbEntity
  8
0
  6
Continuous
 62
     7
370
    15
100
AcDbLine
 10
1475.769824088647
 20
740.614449680951
 30
0.0
 11
1476.887342098278
 21
741.2915622704726
 31
0.0
  0
SPLINE
  5
CC3
330
BBC
100
AcDbEntity
  8
0
  6
Continuous
 62
     7
370
    15
100
AcDbSpline
210
0.0
220
0.0
230
1.0
 70
     8
 71
     3
 72
    12
 73
     8
 74
     0
 42
0.0000000001
 43
0.0000000001
 40
0.0
 40
0.0
 40
0.0
 40
0.0
 40
0.4999999999999543
 40
0.4999999999999543
 40
0.7499999999999771
 40
0.7499999999999771
 40
1.0
 40
1.0
 40
1.0
 40
1.0
 10
1481.039228512214
 20
731.9157123835567
 30
0.0
 10
1480.836461906218
 20
732.4162505334424
 30
0.0
 10
1480.650194826253
 20
732.9240632526106
 30
0.0
 10
1480.436358564668
 20
733.7146893718792
 30
0.0
 10
1480.376541300142
 20
733.9825353334527
 30
0.0
 10
1480.299452705395
 20
734.5295752509509
 30
0.0
 10
1480.280900182636
 20
734.8088404960341
 30
0.0
 10
1480.306346001746
 20
735.1007500949654
 30
0.0
  0
ARC
  5
CC4
330
BBC
100
AcDbEntity
  8
0
  6
Continuous
 62
     7
370
    15
100
AcDbCircle
 10
1480.130594257409
 20
736.6762343311624
 30
0.0
 40
1.58525684169571
100
AcDbArc
 50
276.3652630473531
 51
304.8136676736508
  0
SPLINE
  5
CC5
330
BBC
100
AcDbEntity
  8
0
  6
Continuous
 62
     7
370
    15
100
AcDbSpline
210
0.0
220
0.0
230
1.0
 70
     8
 71
     3
 72
    12
 73
     8
 74
     0
 42
0.0000000001
 43
0.0000000001
 40
0.0
 40
0.0
 40
0.0
 40
0.0
 40
0.25
 40
0.25
 40
0.5
 40
0.5
 40
1.0
 40
1.0
 40
1.0
 40
1.0
 10
1480.306346001746
 20
735.1007500949653
 30
0.0
 10
1479.998890529892
 20
734.9216959441624
 30
0.0
 10
1479.680773658584
 20
734.7771600424517
 30
0.0
 10
1479.034851355627
 20
734.5194567418685
 30
0.0
 10
1478.70625117181
 20
734.4070488114664
 30
0.0
 10
1477.715458104842
 20
734.0984947822165
 30
0.0
 10
1477.051732274945
 20
733.9308347131864
 30
0.0
 10
1476.386799594067
 20
733.7775350032232
 30
0.0
  0
LINE
  5
CC6
330
BBC
100
AcDbEntity
  8
0
  6
Continuous
 62
     7
370
    15
100
AcDbLine
 10
1481.475867867461
 20
737.810650177672
 30
0.0
 11
1480.703829345941
 21
738.6158672867237
 31
0.0
  0
ARC
  5
CC7
330
BBC
100
AcDbEntity
  8
0
  6
Continuous
 62
     7
370
    15
100
AcDbCircle
 10
1481.850081290982
 20
739.7359090711566
 30
0.0
 40
1.602618831907668
100
AcDbArc
 50
182.7714716730082
 51
224.3373918769687
  0
LINE
  5
CC8
330
BBC
100
AcDbEntity
  8
0
  6
Continuous
 62
     7
370
    15
100
AcDbLine
 10
1480.249336983864
 20
739.6584185322873
 30
0.0
 11
1480.227391815573
 21
741.2077620490297
 31
0.0
  0
SPLINE
  5
CC9
330
BBC
100
AcDbEntity
  8
0
  6
Continuous
 62
     7
370
    15
100
AcDbSpline
210
0.0
220
0.0
230
1.0
 70
     8
 71
     3
 72
     8
 73
     4
 74
     0
 42
0.0000000001
 43
0.0000000001
 40
0.0
 40
0.0
 40
0.0
 40
0.0
 40
1.0
 40
1.0
 40
1.0
 40
1.0
 10
1477.174030337076
 20
738.1043356360436
 30
0.0
 10
1477.102975680267
 20
737.9111833408711
 30
0.0
 10
1477.016091518028
 20
737.7266915071062
 30
0.0
 10
1476.925043350024
 20
737.5444778374566
 30
0.0
  0
ARC
  5
CCA
330
BBC
100
AcDbEntity
  8
0
  6
Continuous
 62
     7
370
    15
100
AcDbCircle
 10
1483.509603750505
 20
734.2565703787808
 30
0.0
 40
7.359807818441812
100
AcDbArc
 50
153.4653965573505
 51
162.4661609244664
  0
LINE
  5
CCB
330
BBC
100
AcDbEntity
  8
0
  6
Continuous
 62
     7
370
    15
100
AcDbLine
 10
1476.491738589836
 20
736.4738524336997
 30
0.0
 11
1475.834116054987
 21
736.0753939805367
 31
0.0
  0
ELLIPSE
  5
CCC
330
BBC
100
AcDbEntity
  8
0
  6
Continuous
 62
     7
370
    15
100
AcDbEllipse
 10
1474.902555695797
 20
726.657571074254
 30
0.0
 11
2.066246670317838
 21
14.654550659345
 31
0.0
210
0.0
220
0.0
230
1.0
 40
0.0803129687900802
 41
6.121046248389832
 42
6.348680993125939
  0
LINE
  5
CCD
330
BBC
100
AcDbEntity
  8
0
  6
Continuous
 62
     7
370
    15
100
AcDbLine
 10
1477.174030337076
 20
738.1043356360436
 30
0.0
 11
1477.131696575738
 21
741.0931274192372
 31
0.0
  0
LINE
  5
CCE
330
BBC
100
AcDbEntity
  8
0
  6
Continuous
 62
     7
370
    15
100
AcDbLine
 10
1477.90698974083
 20
742.0696484089511
 30
0.0
 11
1477.680547160458
 21
741.1803370985409
 31
0.0
  0
ELLIPSE
  5
CCF
330
BBC
100
AcDbEntity
  8
0
  6
Continuous
 62
     7
370
    15
100
AcDbEllipse
 10
1478.365728347992
 20
740.2585404875556
 30
0.0
 11
1.999990107187045
 21
-0.2362540359374067
 31
0.0
210
0.0
220
0.0
230
1.0
 40
0.4506290924418863
 41
1.97313713918541
 42
2.287818754946611
  0
ELLIPSE
  5
CD0
330
BBC
100
AcDbEntity
  8
0
  6
Continuous
 62
     7
370
    15
100
AcDbEllipse
 10
1475.531045728185
 20
729.1258493166473
 30
0.0
 11
2.066246670317752
 21
14.65455065934472
 31
0.0
210
0.0
220
0.0
230
0.9999999999999998
 40
0.0803129687900853
 41
5.806364632627913
 42
5.816223050492787
  0
LINE
  5
CD1
330
BBC
100
AcDbEntity
  8
0
  6
Continuous
 62
     7
370
    15
100
AcDbLine
 10
1491.400553901019
 20
758.9496141243667
 30
0.0
 11
1493.035255279665
 21
758.295434542743
 31
0.0
  0
LINE
  5
CD2
330
BBC
100
AcDbEntity
  8
0
  6
Continuous
 62
     7
370
    15
100
AcDbLine
 10
1489.549173901809
 20
761.5605288549595
 30
0.0
 11
1490.510092204535
 21
761.1759857564687
 31
0.0
  0
LINE
  5
CD3
330
BBC
100
AcDbEntity
  8
0
  6
Continuous
 62
     7
370
    15
100
AcDbLine
 10
1490.510092204535
 20
761.1759857564687
 30
0.0
 11
1489.418201680917
 21
760.514401053986
 31
0.0
  0
LINE
  5
CD4
330
BBC
100
AcDbEntity
  8
0
  6
Continuous
 62
     7
370
    15
100
AcDbLine
 10
1489.418201680917
 20
760.514401053986
 30
0.0
 11
1493.802068445693
 21
758.7600524227712
 31
0.0
  0
LINE
  5
CD5
330
BBC
100
AcDbEntity
  8
0
  6
Continuous
 62
     7
370
    15
100
AcDbLine
 10
1494.89395896931
 20
759.4216371252539
 30
0.0
 11
1493.802068445693
 21
758.7600524227712
 31
0.0
  0
LINE
  5
CD6
330
BBC
100
AcDbEntity
  8
0
  6
Continuous
 62
     7
370
    15
100
AcDbLine
 10
1495.855333263441
 20
759.0369115467884
 30
0.0
 11
1494.89395896931
 21
759.4216371252539
 31
0.0
  0
LINE
  5
CD7
330
BBC
100
AcDbEntity
  8
0
  6
Continuous
 62
     7
370
    15
100
AcDbLine
 10
1492.115861811015
 20
757.738367106709
 30
0.0
 11
1493.035255279665
 21
758.295434542743
 31
0.0
  0
LINE
  5
CD8
330
BBC
100
AcDbEntity
  8
0
  6
Continuous
 62
     7
370
    15
100
AcDbLine
 10
1487.928265237489
 20
760.5784080715649
 30
0.0
 11
1489.549173901809
 21
761.5605288549595
 31
0.0
  0
LINE
  5
CD9
330
BBC
100
AcDbEntity
  8
0
  6
Continuous
 62
     7
370
    15
100
AcDbLine
 10
1475.346395568864
 20
729.8319702506997
 30
0.0
 11
1481.652554930495
 21
727.3083529425295
 31
0.0
  0
ARC
  5
CDA
330
BBC
100
AcDbEntity
  8
0
  6
Continuous
 62
     7
370
    15
100
AcDbCircle
 10
1478.167194074836
 20
730.3286230510308
 30
0.0
 40
2.864187182321611
100
AcDbArc
 50
153.865721380458
 51
189.9856171423749
  0
SPLINE
  5
CDB
330
BBC
100
AcDbEntity
  8
0
  6
Continuous
 62
     7
370
    15
100
AcDbSpline
210
0.0
220
0.0
230
1.0
 70
     8
 71
     3
 72
    12
 73
     8
 74
     0
 42
0.0000000001
 43
0.0000000001
 40
0.0
 40
0.0
 40
0.0
 40
0.0
 40
0.5000000000002311
 40
0.5000000000002311
 40
0.7500000000001155
 40
0.7500000000001155
 40
1.0
 40
1.0
 40
1.0
 40
1.0
 10
1476.104747462436
 20
733.9076683636041
 30
0.0
 10
1476.203682965126
 20
734.1031947435896
 30
0.0
 10
1476.282515464727
 20
734.3115899445605
 30
0.0
 10
1476.363902987492
 20
734.6427949986601
 30
0.0
 10
1476.383958230261
 20
734.7531882386339
 30
0.0
 10
1476.408644145234
 20
734.9739563050192
 30
0.0
 10
1476.413161538891
 20
735.0850460737914
 30
0.0
 10
1476.408396365516
 20
735.1921717296881
 30
0.0
  0
SPLINE
  5
CDC
330
BBC
100
AcDbEntity
  8
0
  6
Continuous
 62
     7
370
    15
100
AcDbSpline
210
0.0
220
0.0
230
1.0
 70
     8
 71
     3
 72
    12
 73
     8
 74
     0
 42
0.0000000001
 43
0.0000000001
 40
0.0
 40
0.0
 40
0.0
 40
0.0
 40
0.5
 40
0.5
 40
0.75
 40
0.75
 40
1.0
 40
1.0
 40
1.0
 40
1.0
 10
1476.408396365516
 20
735.1921717296881
 30
0.0
 10
1476.985577719447
 20
735.2756210043807
 30
0.0
 10
1477.564386654564
 20
735.3612976902876
 30
0.0
 10
1478.435969705933
 20
735.5073150137199
 30
0.0
 10
1478.726714571132
 20
735.5588299356131
 30
0.0
 10
1479.306598873903
 20
735.6776037535816
 30
0.0
 10
1479.596171984726
 20
735.7427924913316
 30
0.0
 10
1479.881983193796
 20
735.8363884778524
 30
0.0
  0
ARC
  5
CDD
330
BBC
100
AcDbEntity
  8
0
  6
Continuous
 62
     7
370
    15
100
AcDbCircle
 10
1380.401919000276
 20
677.9597684179531
 30
0.0
 40
115.0912087064203
100
AcDbArc
 50
29.76767646736992
 51
30.19046545242932
  0
SPLINE
  5
CDE
330
BBC
100
AcDbEntity
  8
0
  6
Continuous
 62
     7
370
    15
100
AcDbSpline
210
0.0
220
0.0
230
1.0
 70
     8
 71
     3
 72
    10
 73
     6
 74
     0
 42
0.0000000001
 43
0.0000000001
 40
0.0
 40
0.0
 40
0.0
 40
0.0
 40
0.5
 40
0.5
 40
1.0
 40
1.0
 40
1.0
 40
1.0
 10
1476.925043350024
 20
737.5444778374566
 30
0.0
 10
1477.284487991984
 20
737.7176587935159
 30
0.0
 10
1477.653689139889
 20
737.8483222597073
 30
0.0
 10
1478.409534680388
 20
738.0355287343401
 30
0.0
 10
1478.797981594393
 20
738.0914031395649
 30
0.0
 10
1479.18347319911
 20
738.1071405111145
 30
0.0
  0
SPLINE
  5
CDF
330
BBC
100
AcDbEntity
  8
0
  6
Continuous
 62
     7
370
    15
100
AcDbSpline
210
0.0
220
0.0
230
1.0
 70
     8
 71
     3
 72
     8
 73
     4
 74
     0
 42
0.0000000001
 43
0.0000000001
 40
0.0
 40
0.0
 40
0.0
 40
0.0
 40
1.0
 40
1.0
 40
1.0
 40
1.0
 10
1479.18347319911
 20
738.1071405111145
 30
0.0
 10
1479.542129530937
 20
738.1217823551483
 30
0.0
 10
1479.881133376734
 20
738.1880589384126
 30
0.0
 10
1480.150101649386
 20
738.2960101057717
 30
0.0
  0
LINE
  5
CE0
330
BBC
100
AcDbEntity
  8
0
  6
Continuous
 62
     7
370
    15
100
AcDbLine
 10
1481.071636267651
 20
737.3348722602794
 30
0.0
 11
1480.150101649386
 21
738.2960101057717
 31
0.0
  0
ARC
  5
CE1
330
BBC
100
AcDbEntity
  8
0
  6
Continuous
 62
     7
370
    15
100
AcDbCircle
 10
1482.92656920001
 20
734.640755211243
 30
0.0
 40
3.270939139981149
100
AcDbArc
 50
124.5478923230547
 51
158.5596670299423
  0
ELLIPSE
  5
CE2
330
BBC
100
AcDbEntity
  8
0
  6
Continuous
 62
     7
370
    15
100
AcDbEllipse
 10
1478.997827326407
 20
736.3255598709928
 30
0.0
 11
0.9445385377078139
 21
3.918965925059893
 31
0.0
210
0.0
220
0.0
230
1.0
 40
0.6167247497460059
 41
1.680919990687613
 42
2.008472849711096
  0
ELLIPSE
  5
CE3
330
BBC
100
AcDbEntity
  8
0
  6
Continuous
 62
     7
370
    15
100
AcDbEllipse
 10
1478.887811176995
 20
735.5233575844344
 30
0.0
 11
4.628441043969388
 21
1.807629195054857
 31
0.0
210
0.0
220
0.0
230
0.9999999999999998
 40
0.7042462866072004
 41
1.273035604261464
 42
1.549430585915284
  0
LINE
  5
CE4
330
BBC
100
AcDbEntity
  8
0
  6
Continuous
 62
     7
370
    15
100
AcDbLine
 10
1477.680547160458
 20
741.1803370985409
 30
0.0
 11
1477.713968128832
 21
738.8207944425966
 31
0.0
  0
LINE
  5
CE5
330
BBC
100
AcDbEntity
  8
0
  6
Continuous
 62
     7
370
    15
100
AcDbLine
 10
1477.906039620131
 20
742.1367275639894
 30
0.0
 11
1477.90698974083
 21
742.0696484089511
 31
0.0
  0
LINE
  5
CE6
330
BBC
100
AcDbEntity
  8
0
  6
Continuous
 62
     7
370
    15
100
AcDbLine
 10
1482.723436126352
 20
722.8421855775863
 30
0.0
 11
1482.223521491671
 21
723.0422428790816
 31
0.0
  0
LINE
  5
CE7
330
BBC
100
AcDbEntity
  8
0
  6
Continuous
 62
     7
370
    15
100
AcDbLine
 10
1476.757345546467
 20
723.9475278233601
 30
0.0
 11
1475.346395568864
 21
729.8319702506997
 31
0.0
  0
SPLINE
  5
CE8
330
BBC
100
AcDbEntity
  8
0
  6
Continuous
 62
     7
370
    15
100
AcDbSpline
210
0.0
220
0.0
230
1.0
 70
     8
 71
     3
 72
     8
 73
     4
 74
     0
 42
0.0000000001
 43
0.0000000001
 40
0.0
 40
0.0
 40
0.0
 40
0.0
 40
1.0
 40
1.0
 40
1.0
 40
1.0
 10
1477.174030337076
 20
738.1043356360436
 30
0.0
 10
1477.333797737295
 20
738.3593724349256
 30
0.0
 10
1477.514367130545
 20
738.6008497144183
 30
0.0
 10
1477.713968128832
 20
738.8207944425966
 30
0.0
  0
ELLIPSE
  5
CE9
330
BBC
100
AcDbEntity
  8
0
  6
Continuous
 62
     7
370
    15
100
AcDbEllipse
 10
1478.321703522858
 20
741.6322030043603
 30
0.0
 11
-1.632283774173771
 21
2.147419610693049
 31
0.0
210
0.0
220
0.0
230
1.0
 40
0.5518631790630947
 41
2.99525060754953
 42
3.083392481337644
  0
SPLINE
  5
CEA
330
BBC
100
AcDbEntity
  8
0
  6
Continuous
 62
     7
370
    15
100
AcDbSpline
210
0.0
220
0.0
230
1.0
 70
     8
 71
     3
 72
    10
 73
     6
 74
     0
 42
0.0000000001
 43
0.0000000001
 40
0.0
 40
0.0
 40
0.0
 40
0.0
 40
0.5
 40
0.5
 40
1.0
 40
1.0
 40
1.0
 40
1.0
 10
1479.763731037831
 20
739.3763824486934
 30
0.0
 10
1479.659771657809
 20
739.3337772873357
 30
0.0
 10
1479.546198037885
 20
739.2930787924864
 30
0.0
 10
1479.300585763778
 20
739.2211067847178
 30
0.0
 10
1479.167481701001
 20
739.1897219706256
 30
0.0
 10
1479.028706006505
 20
739.1698083350161
 30
0.0
  0
ARC
  5
CEB
330
BBC
100
AcDbEntity
  8
0
  6
Continuous
 62
     7
370
    15
100
AcDbCircle
 10
1487.474059445174
 20
753.1356655200344
 30
0.0
 40
18.89191911873718
100
AcDbArc
 50
246.3049305021562
 51
250.0741811217714
  0
ARC
  5
CEC
330
BBC
100
AcDbEntity
  8
0
  6
Continuous
 62
     7
370
    15
100
AcDbCircle
 10
1482.522137563994
 20
739.1359884541367
 30
0.0
 40
3.493595258641894
100
AcDbArc
 50
179.4453373785554
 51
197.1272854234654
  0
LINE
  5
CED
330
BBC
100
AcDbEntity
  8
0
  6
Continuous
 62
     7
370
    15
100
AcDbLine
 10
1480.249336983864
 20
739.6584185322873
 30
0.0
 11
1479.882290557882
 21
739.4360223347949
 31
0.0
  0
LINE
  5
CEE
330
BBC
100
AcDbEntity
  8
0
  6
Continuous
 62
     7
370
    15
100
AcDbLine
 10
1496.401494508981
 20
759.8052524214635
 30
0.0
 11
1495.440120214849
 21
760.1899779999292
 31
0.0
  0
LINE
  5
CEF
330
BBC
100
AcDbEntity
  8
0
  6
Continuous
 62
     7
370
    15
100
AcDbLine
 10
1495.889159644214
 20
761.5657768052837
 30
0.0
 11
1491.505292879439
 21
763.3201254364986
 31
0.0
  0
LINE
  5
CF0
330
BBC
100
AcDbEntity
  8
0
  6
Continuous
 62
     7
370
    15
100
AcDbLine
 10
1491.056253450074
 20
761.9443266311439
 30
0.0
 11
1491.505292879439
 21
763.3201254364986
 31
0.0
  0
LINE
  5
CF1
330
BBC
100
AcDbEntity
  8
0
  6
Continuous
 62
     7
370
    15
100
AcDbLine
 10
1490.095335147349
 20
762.3288697296343
 30
0.0
 11
1491.056253450074
 21
761.9443266311439
 31
0.0
  0
LINE
  5
CF2
330
BBC
100
AcDbEntity
  8
0
  6
Continuous
 62
     7
370
    15
100
AcDbLine
 10
1497.395391359163
 20
762.8504239803787
 30
0.0
 11
1491.089231997533
 21
765.3740412885492
 31
0.0
  0
LINE
  5
CF3
330
BBC
100
AcDbEntity
  8
0
  6
Continuous
 62
     7
370
    15
100
AcDbLine
 10
1495.440120214849
 20
760.1899779999292
 30
0.0
 11
1495.889159644214
 21
761.5657768052837
 31
0.0
  0
LINE
  5
CF4
330
BBC
100
AcDbEntity
  8
0
  6
Continuous
 62
     7
370
    15
100
AcDbLine
 10
1490.095335147349
 20
762.3288697296343
 30
0.0
 11
1491.089231997533
 21
765.3740412885492
 31
0.0
  0
ARC
  5
CF5
330
BBC
100
AcDbEntity
  8
0
  6
Continuous
 62
     7
370
    15
100
AcDbCircle
 10
1481.464066903138
 20
739.3751944172769
 30
0.0
 40
1.700336280347537
100
AcDbArc
 50
179.9599672180018
 51
219.3969035952352
  0
LINE
  5
CF6
330
BBC
100
AcDbEntity
  8
0
  6
Continuous
 62
     7
370
    15
100
AcDbLine
 10
1474.626565281823
 20
724.2807972940605
 30
0.0
 11
1480.932724643455
 21
721.75717998589
 31
0.0
  0
LINE
  5
CF7
330
BBC
100
AcDbEntity
  8
0
  6
Continuous
 62
     7
370
    15
100
AcDbLine
 10
1474.313215216286
 20
723.6526489427397
 30
0.0
 11
1480.619374577917
 21
721.1290316345691
 31
0.0
  0
ARC
  5
CF8
330
BBC
100
AcDbEntity
  8
0
  6
Continuous
 62
     7
370
    15
100
AcDbCircle
 10
1475.085578640251
 20
723.6595886694661
 30
0.0
 40
0.772394600243482
100
AcDbArc
 50
126.4608326762612
 51
180.5147917943066
  0
ARC
  5
CF9
330
BBC
100
AcDbEntity
  8
0
  6
Continuous
 62
     7
370
    15
100
AcDbCircle
 10
1494.071298390461
 20
760.5846954223811
 30
0.0
 40
1.424596444790046
100
AcDbArc
 50
305.2727362807453
 51
343.9144015385362
  0
LINE
  5
CFA
330
BBC
100
AcDbEntity
  8
0
  6
Continuous
 62
     7
370
    15
100
AcDbLine
 10
1497.942634838763
 20
763.6202900655465
 30
0.0
 11
1491.636475511424
 21
766.1439073944928
 31
0.0
  0
ARC
  5
CFB
330
BBC
100
AcDbEntity
  8
0
  6
Continuous
 62
     7
370
    15
100
AcDbCircle
 10
1492.460764330772
 20
764.9785471515591
 30
0.0
 40
1.427416040792613
100
AcDbArc
 50
125.2727368034809
 51
163.9145903534964
  0
LINE
  5
CFC
330
BBC
100
AcDbEntity
  8
0
  6
Continuous
 62
     7
370
    15
100
AcDbLine
 10
1474.337835818355
 20
721.9144180169658
 30
0.0
 11
1480.643995179987
 21
719.3908007087953
 31
0.0
  0
LINE
  5
CFD
330
BBC
100
AcDbEntity
  8
0
  6
Continuous
 62
     7
370
    15
100
AcDbLine
 10
1474.337835818355
 20
721.9144180169658
 30
0.0
 11
1474.313215216286
 21
723.6526489427397
 31
0.0
  0
ELLIPSE
  5
CFE
330
BBC
100
AcDbEntity
  8
0
  6
Continuous
 62
     7
370
    15
100
AcDbEllipse
 10
1477.891731537656
 20
740.9435992896552
 30
0.0
 11
2.854108480422098
 21
-2.186255720519229
 31
0.0
210
0.0
220
0.0
230
0.9999999999999998
 40
0.6278326871081453
 41
5.954555790339058
 42
6.042697664127249
  0
LINE
  5
CFF
330
BBC
100
AcDbEntity
  8
0
  6
Continuous
 62
     7
370
    15
100
AcDbLine
 10
1480.33678291996
 20
738.3934710892313
 30
0.0
 11
1480.703829345941
 21
738.6158672867237
 31
0.0
  0
LINE
  5
D00
330
BBC
100
AcDbEntity
  8
0
  6
Continuous
 62
     7
370
    15
100
AcDbLine
 10
1475.037041838587
 20
724.5295081353109
 30
0.0
 11
1480.843286565538
 21
722.2059481286363
 31
0.0
  0
LINE
  5
D01
330
BBC
100
AcDbEntity
  8
0
  6
Continuous
 62
     7
370
    15
100
AcDbLine
 10
1480.843286565538
 20
722.2059481286363
 30
0.0
 11
1482.223521491671
 21
723.0422428790816
 31
0.0
  0
LINE
  5
D02
330
BBC
100
AcDbEntity
  8
0
  6
Continuous
 62
     7
370
    15
100
AcDbLine
 10
1474.626565281823
 20
724.2807972940605
 30
0.0
 11
1475.037041838587
 21
724.5295081353109
 31
0.0
  0
ARC
  5
D03
330
BBC
100
AcDbEntity
  8
0
  6
Continuous
 62
     7
370
    15
100
AcDbCircle
 10
1481.483034865
 20
739.513512873664
 30
0.0
 40
1.602618831907244
100
AcDbArc
 50
182.7714716730017
 51
224.3373918769687
  0
LINE
  5
D04
330
BBC
100
AcDbEntity
  8
0
  6
Continuous
 62
     7
370
    15
100
AcDbLine
 10
1490.726747689843
 20
759.9907432827039
 30
0.0
 11
1491.545424788245
 21
760.4867859104768
 31
0.0
  0
LINE
  5
D05
330
BBC
100
AcDbEntity
  8
0
  6
Continuous
 62
     7
370
    15
100
AcDbLine
 10
1491.545424788245
 20
760.4867859104768
 30
0.0
 11
1494.620745544094
 21
759.2560950505441
 31
0.0
  0
ARC
  5
D06
330
BBC
100
AcDbEntity
  8
0
  6
Continuous
 62
     7
370
    15
100
AcDbCircle
 10
1497.192010879692
 20
770.5542638858583
 30
0.0
 40
5.636050909403907
100
AcDbArc
 50
257.0049959805956
 51
284.2875736909271
  0
LINE
  5
D07
330
BBC
100
AcDbEntity
  8
0
  6
Continuous
 62
     7
370
    15
100
AcDbLine
 10
1502.922994507711
 20
766.6379275471164
 30
0.0
 11
1496.61683514608
 21
769.1615448552869
 31
0.0
  0
LINE
  5
D08
330
BBC
100
AcDbEntity
  8
0
  6
Continuous
 62
     7
370
    15
100
AcDbLine
 10
1491.636475511424
 20
766.1439073944928
 30
0.0
 11
1496.61683514608
 21
769.1615448552869
 31
0.0
  0
ARC
  5
D09
330
BBC
100
AcDbEntity
  8
0
  6
Continuous
 62
     7
370
    15
100
AcDbCircle
 10
1475.162140269356
 20
724.3557415277612
 30
0.0
 40
0.2141131739992832
100
AcDbArc
 50
71.8140215754898
 51
125.7509497606315
  0
LINE
  5
D0A
330
BBC
100
AcDbEntity
  8
0
  6
Continuous
 62
     7
370
    15
100
AcDbLine
 10
1491.505292879439
 20
763.3201254364986
 30
0.0
 11
1491.545424788245
 21
760.4867859104768
 31
0.0
  0
ARC
  5
D0B
330
BBC
100
AcDbEntity
  8
0
  6
Continuous
 62
     7
370
    15
100
AcDbCircle
 10
1475.144403826837
 20
721.8079507919689
 30
0.0
 40
0.8135645163748515
100
AcDbArc
 50
172.4804123680206
 51
240.1157599235097
  0
LWPOLYLINE
  5
D0C
330
BBC
100
AcDbEntity
  8
0
  6
Continuous
 62
     7
370
    15
100
AcDbPolyline
 90
        3
 70
   128
 43
0.0
 10
1494.413767305557
 20
766.2340314842103
 10
1494.414787259881
 20
766.2133072224957
 10
1494.415422778431
 20
766.2043164407568
  0
LINE
  5
D0D
330
BBC
100
AcDbEntity
  8
0
  6
Continuous
 62
     7
370
    15
100
AcDbLine
 10
1500.086938506427
 20
766.2482567310786
 30
0.0
 11
1500.090483119646
 21
766.3144374642481
 31
0.0
  0
ARC
  5
D0E
330
BBC
100
AcDbEntity
  8
0
  6
Continuous
 62
     7
370
    15
100
AcDbCircle
 10
1489.687431625686
 20
762.3390440535959
 30
0.0
 40
1.424596444789749
100
AcDbArc
 50
305.2727362807415
 51
343.9144015385362
  0
ARC
  5
D0F
330
BBC
100
AcDbEntity
  8
0
  6
Continuous
 62
     7
370
    15
100
AcDbCircle
 10
1497.280513692685
 20
761.9273655346217
 30
0.0
 40
4.331377750256247
100
AcDbArc
 50
57.32195435618135
 51
118.6199554666591
  0
LWPOLYLINE
  5
D10
330
BBC
100
AcDbEntity
  8
0
  6
Continuous
 62
     7
370
    15
100
AcDbPolyline
 90
        3
 70
   128
 43
0.0
 10
1494.903503135227
 20
765.5041186594313
 10
1495.006968161245
 20
765.5926606689829
 10
1495.205794057435
 20
765.7295190889279
  0
ARC
  5
D11
330
BBC
100
AcDbEntity
  8
0
  6
Continuous
 62
     7
370
    15
100
AcDbCircle
 10
1497.325759354806
 20
761.3115240740714
 30
0.0
 40
4.556730691247424
100
AcDbArc
 50
64.76542888962331
 51
117.5674870787658
  0
ARC
  5
D12
330
BBC
100
AcDbEntity
  8
0
  6
Continuous
 62
     7
370
    15
100
AcDbCircle
 10
1488.72651332297
 20
762.7235871520809
 30
0.0
 40
1.424596444779959
100
AcDbArc
 50
305.2727362805825
 51
343.9144015386436
  0
ARC
  5
D13
330
BBC
100
AcDbEntity
  8
0
  6
Continuous
 62
     7
370
    15
100
AcDbCircle
 10
1497.114049142648
 20
768.48705982054
 30
0.0
 40
0.8379449984815881
100
AcDbArc
 50
71.16823266125118
 51
126.3967386746512
  0
LINE
  5
D14
330
BBC
100
AcDbEntity
  8
0
  6
Continuous
 62
     7
370
    15
100
AcDbLine
 10
1505.726721915896
 20
757.7408810777622
 30
0.0
 11
1506.652270844309
 21
757.3704921989921
 31
0.0
  0
LINE
  5
D15
330
BBC
100
AcDbEntity
  8
0
  6
Continuous
 62
     7
370
    15
100
AcDbLine
 10
1502.091669609141
 20
734.4606018220871
 30
0.0
 11
1495.78551024751
 21
736.9842191302581
 31
0.0
  0
LINE
  5
D16
330
BBC
100
AcDbEntity
  8
0
  6
Continuous
 62
     7
370
    15
100
AcDbLine
 10
1495.78551024751
 20
736.9842191302581
 30
0.0
 11
1495.861415803517
 21
737.693163606164
 31
0.0
  0
LINE
  5
D17
330
BBC
100
AcDbEntity
  8
0
  6
Continuous
 62
     7
370
    15
100
AcDbLine
 10
1500.953285383124
 20
732.6082036024351
 30
0.0
 11
1494.647126021492
 21
735.1318209106056
 31
0.0
  0
LINE
  5
D18
330
BBC
100
AcDbEntity
  8
0
  6
Continuous
 62
     7
370
    15
100
AcDbLine
 10
1501.266639359068
 20
733.2363543230677
 30
0.0
 11
1494.960479997437
 21
735.7599716312385
 31
0.0
  0
ARC
  5
D19
330
BBC
100
AcDbEntity
  8
0
  6
Continuous
 62
     7
370
    15
100
AcDbCircle
 10
1495.419486589296
 20
735.1387615477944
 30
0.0
 40
0.7723917523789349
100
AcDbArc
 50
126.4603646723615
 51
180.5148612329847
  0
LINE
  5
D1A
330
BBC
100
AcDbEntity
  8
0
  6
Continuous
 62
     7
370
    15
100
AcDbLine
 10
1501.472531991079
 20
733.3611027647624
 30
0.0
 11
1495.166372629448
 21
735.8847200729323
 31
0.0
  0
ARC
  5
D1B
330
BBC
100
AcDbEntity
  8
0
  6
Continuous
 62
     7
370
    15
100
AcDbCircle
 10
1494.258446218083
 20
737.1200518999483
 30
0.0
 40
1.533093308084368
100
AcDbArc
 50
306.3146071554197
 51
354.9169024047031
  0
LINE
  5
D1C
330
BBC
100
AcDbEntity
  8
0
  6
Continuous
 62
     7
370
    15
100
AcDbLine
 10
1500.955747435572
 20
732.4343810576058
 30
0.0
 11
1494.649588073941
 21
734.9579983657763
 31
0.0
  0
LINE
  5
D1D
330
BBC
100
AcDbEntity
  8
0
  6
Continuous
 62
     7
370
    15
100
AcDbLine
 10
1494.649588073941
 20
734.9579983657763
 30
0.0
 11
1494.647126021492
 21
735.1318209106056
 31
0.0
  0
LINE
  5
D1E
330
BBC
100
AcDbEntity
  8
0
  6
Continuous
 62
     7
370
    15
100
AcDbLine
 10
1494.960479997437
 20
735.7599716312385
 30
0.0
 11
1495.166372629448
 21
735.8847200729323
 31
0.0
  0
ARC
  5
D1F
330
BBC
100
AcDbEntity
  8
0
  6
Continuous
 62
     7
370
    15
100
AcDbCircle
 10
1494.926567829901
 20
734.9265239620169
 30
0.0
 40
0.2787623061026103
100
AcDbArc
 50
173.5170424090919
 51
239.079129882433
  0
LINE
  5
D20
330
BBC
100
AcDbEntity
  8
0
  6
Continuous
 62
     7
370
    15
100
AcDbLine
 10
1505.685953070578
 20
736.7654668659286
 30
0.0
 11
1505.801013319745
 21
736.7194196938697
 31
0.0
  0
LINE
  5
D21
330
BBC
100
AcDbEntity
  8
0
  6
Continuous
 62
     7
370
    15
100
AcDbLine
 10
1505.685653626574
 20
736.7653591228023
 30
0.0
 11
1505.685648401283
 21
736.7655867645561
 31
0.0
  0
SPLINE
  5
D22
330
BBC
100
AcDbEntity
  8
0
  6
Continuous
 62
     7
370
    15
100
AcDbSpline
210
0.0
220
0.0
230
1.0
 70
     8
 71
     3
 72
    10
 73
     6
 74
     0
 42
0.0000000001
 43
0.0000000001
 40
0.0
 40
0.0
 40
0.0
 40
0.0
 40
0.5
 40
0.5
 40
1.0
 40
1.0
 40
1.0
 40
1.0
 10
1505.686006804793
 20
736.7652991063157
 30
0.0
 10
1505.68595054457
 20
736.7652963751107
 30
0.0
 10
1505.685893117979
 20
736.7652991859034
 30
0.0
 10
1505.685775363901
 20
736.7653185911252
 30
0.0
 10
1505.685714252473
 20
736.7653355701342
 30
0.0
 10
1505.685653681911
 20
736.7653598037788
 30
0.0
  0
LINE
  5
D23
330
BBC
100
AcDbEntity
  8
0
  6
Continuous
 62
     7
370
    15
100
AcDbLine
 10
1505.618015282816
 20
736.1412738947745
 30
0.0
 11
1505.810290144521
 21
736.0643287779299
 31
0.0
  0
ARC
  5
D24
330
BBC
100
AcDbEntity
  8
0
  6
Continuous
 62
     7
370
    15
100
AcDbCircle
 10
1505.387401501266
 20
736.1356612477654
 30
0.0
 40
0.2306820713605152
100
AcDbArc
 50
1.28666004621767
 51
1.394181699459813
  0
LINE
  5
D25
330
BBC
100
AcDbEntity
  8
0
  6
Continuous
 62
     7
370
    15
100
AcDbLine
 10
1506.92093830596
 20
738.0065939763343
 30
0.0
 11
1507.710085784018
 21
738.4847443844506
 31
0.0
  0
ARC
  5
D26
330
BBC
100
AcDbEntity
  8
0
  6
Continuous
 62
     8
370
    15
100
AcDbCircle
 10
1497.326020357727
 20
761.0571879572632
 30
0.0
 40
4.005601508826314
100
AcDbArc
 50
79.03031764149901
 51
102.5926685864925
  0
ARC
  5
D27
330
BBC
100
AcDbEntity
  8
0
  6
Continuous
 62
     8
370
    15
100
AcDbCircle
 10
1485.184828426706
 20
753.7007466074409
 30
0.0
 40
4.005603083383656
100
AcDbArc
 50
79.03039251411096
 51
102.5925934633375
  0
LWPOLYLINE
  5
D28
330
BBC
100
AcDbEntity
  8
0
  6
Continuous
 62
     8
370
    15
100
AcDbPolyline
 90
       18
 70
   128
 43
0.0
 10
1486.987429471513
 20
760.1549613127185
 10
1487.241570201717
 20
760.0399974322749
 10
1487.465781709305
 20
759.9106746739026
 10
1487.65691655619
 20
759.7688084456503
 10
1487.812291628094
 20
759.6163902383879
 10
1487.929725799593
 20
759.4555596696404
 10
1488.007570552339
 20
759.2885744480484
 10
1488.044733116641
 20
759.1177786800866
 10
1488.040691811558
 20
758.9455699639484
 10
1487.995503368153
 20
758.7743657325221
 10
1487.909802133119
 20
758.6065693179328
 10
1487.784791163935
 20
758.4445362140272
 10
1487.622225340583
 20
758.2905410104027
 10
1487.424386730872
 20
758.1467454621568
 10
1487.194052555216
 20
758.0151681435834
 10
1486.934456200541
 20
757.8976561118138
 10
1486.649241830627
 20
757.7958589781847
 10
1486.44173343071
 20
757.7361003373388
  0
LWPOLYLINE
  5
D29
330
BBC
100
AcDbEntity
  8
0
  6
Continuous
 62
     8
370
    15
100
AcDbPolyline
 90
       31
 70
   128
 43
0.0
 10
1483.783462184009
 20
757.7061143021206
 10
1483.661044808284
 20
757.7372365469384
 10
1483.368817201479
 20
757.8277054273345
 10
1483.101025335004
 20
757.9348711601475
 10
1482.861428419656
 20
758.0572293733988
 10
1482.653389870924
 20
758.1930624259866
 10
1482.479830094007
 20
758.3404635196027
 10
1482.343185487724
 20
758.4973634659997
 10
1482.245374242818
 20
758.6615597338591
 10
1482.187769414765
 20
758.830747367503
 10
1482.171179649077
 20
759.0025513434186
 10
1482.195837829701
 20
759.1745599103831
 10
1482.261397809831
 20
759.344358445164
 10
1482.366939271056
 20
759.5095633485358
 10
1482.510980642609
 20
759.6678555057885
 10
1482.691499899377
 20
759.8170128420154
 10
1482.905962946699
 20
759.9549415151724
 10
1483.151359193497
 20
760.0797053090322
 10
1483.424243814384
 20
760.1895528134142
 10
1483.72078610745
 20
760.2829420101458
 10
1484.036823268932
 20
760.3585619196165
 10
1484.367918829843
 20
760.4153510040581
 10
1484.709424934279
 20
760.4525120692084
 10
1485.056547585124
 20
760.4695234551707
 10
1485.404413941262
 20
760.4661463593753
 10
1485.748140721587
 20
760.4424281888449
 10
1486.082902755559
 20
760.3987018947025
 10
1486.404000718031
 20
760.3355812982689
 10
1486.706927097464
 20
760.2539524743558
 10
1486.987429471513
 20
760.1549613127185
 10
1486.987429471513
 20
760.1549613127185
  0
LINE
  5
D2A
330
BBC
100
AcDbEntity
  8
0
  6
Continuous
 62
     8
370
    15
100
AcDbLine
 10
1484.800870171261
 20
753.1870636588519
 30
0.0
 11
1485.002744015086
 21
753.1062771932506
 31
0.0
  0
LWPOLYLINE
  5
D2B
330
BBC
100
AcDbEntity
  8
0
  6
Continuous
 62
     8
370
    15
100
AcDbPolyline
 90
       20
 70
   128
 43
0.0
 10
1486.924747706407
 20
760.0308543550426
 10
1486.648353028892
 20
760.1281560435524
 10
1486.34953643071
 20
760.2080111593579
 10
1486.032655330741
 20
760.2692552350525
 10
1485.702330568975
 20
760.3109951941032
 10
1485.363379024266
 20
760.3326223739165
 10
1485.020743373388
 20
760.3338214015106
 10
1484.679420015679
 20
760.3145747923634
 10
1484.344386214287
 20
760.2751632053759
 10
1484.020527516468
 20
760.2161613502333
 10
1483.712566511301
 20
760.1384296068443
 10
1483.424993963711
 20
760.0431014790641
 10
1483.162003328997
 20
759.9315670656562
 10
1482.927429602818
 20
759.8054527895214
 10
1482.724693398315
 20
759.6665976807905
 10
1482.556751065871
 20
759.5170265596233
 10
1482.426051582868
 20
759.3589205097713
 10
1482.334500842076
 20
759.1945850734649
 10
1482.283433859451
 20
759.026416631417
 10
1482.272575352269
 20
758.8775917199095
  0
ARC
  5
D2C
330
BBC
100
AcDbEntity
  8
0
  6
Continuous
 62
     8
370
    15
100
AcDbCircle
 10
1486.649043110775
 20
758.7419340825898
 30
0.0
 40
1.318077574648836
100
AcDbArc
 50
9.434692127977344
 51
77.92618077512809
  0
ARC
  5
D2D
330
BBC
100
AcDbEntity
  8
0
  6
Continuous
 62
     8
370
    15
100
AcDbCircle
 10
1483.8376446923
 20
757.0963817741145
 30
0.0
 40
1.738631044476013
100
AcDbArc
 50
120.2054665242202
 51
136.2761717683421
  0
ARC
  5
D2E
330
BBC
100
AcDbEntity
  8
0
  6
Continuous
 62
     8
370
    15
100
AcDbCircle
 10
1485.126083438963
 20
754.7358718726897
 30
0.0
 40
4.427483312391538
100
AcDbArc
 50
55.05529917260023
 51
119.2468231892756
  0
LWPOLYLINE
  5
D2F
330
BBC
100
AcDbEntity
  8
0
  6
Continuous
 62
     8
370
    15
100
AcDbPolyline
 90
        3
 70
   128
 43
0.0
 10
1483.064602104147
 20
758.3730793246273
 10
1482.865776207957
 20
758.2362209046822
 10
1482.764530357089
 20
758.1497493336552
  0
ARC
  5
D30
330
BBC
100
AcDbEntity
  8
0
  6
Continuous
 62
     8
370
    15
100
AcDbCircle
 10
1485.138907558255
 20
754.5732669899692
 30
0.0
 40
4.329124264278084
100
AcDbArc
 50
57.2565991532318
 51
118.6299857615708
  0
ARC
  5
D31
330
BBC
100
AcDbEntity
  8
0
  6
Continuous
 62
     8
370
    15
100
AcDbCircle
 10
1485.187748395101
 20
753.490463571089
 30
0.0
 40
4.88814683246143
100
AcDbArc
 50
67.05681046726538
 51
114.551218195186
  0
LINE
  5
D32
330
BBC
100
AcDbEntity
  8
0
  6
Continuous
 62
     8
370
    15
100
AcDbLine
 10
1482.312625616213
 20
742.8031508824339
 30
0.0
 11
1482.640803393884
 21
742.6718197389602
 31
0.0
  0
LINE
  5
D33
330
BBC
100
AcDbEntity
  8
0
  6
Continuous
 62
     8
370
    15
100
AcDbLine
 10
1479.017038759501
 20
752.0310069131345
 30
0.0
 11
1484.71182508964
 21
749.7520506538761
 31
0.0
  0
LINE
  5
D34
330
BBC
100
AcDbEntity
  8
0
  6
Continuous
 62
     8
370
    15
100
AcDbLine
 10
1484.258573035342
 20
745.5975071042094
 30
0.0
 11
1484.303264191738
 21
745.5796224664569
 31
0.0
  0
LINE
  5
D35
330
BBC
100
AcDbEntity
  8
0
  6
Continuous
 62
     8
370
    15
100
AcDbLine
 10
1478.390647106857
 20
749.1587801179287
 30
0.0
 11
1484.074763097295
 21
746.8840939464375
 31
0.0
  0
LINE
  5
D36
330
BBC
100
AcDbEntity
  8
0
  6
Continuous
 62
     8
370
    15
100
AcDbLine
 10
1478.436318333604
 20
748.3367802516092
 30
0.0
 11
1483.998392351121
 21
746.1109331939952
 31
0.0
  0
SPLINE
  5
D37
330
BBC
100
AcDbEntity
  8
0
  6
Continuous
 62
     8
370
    15
100
AcDbSpline
210
0.0
220
0.0
230
1.0
 70
     8
 71
     3
 72
    12
 73
     8
 74
     0
 42
0.0000000001
 43
0.0000000001
 40
0.0
 40
0.0
 40
0.0
 40
0.0
 40
0.1726916727730195
 40
0.346431818871803
 40
0.5216118408079927
 40
0.6969621235583783
 40
1.0
 40
1.0
 40
1.0
 40
1.0
 10
1481.03563234242
 20
735.3747177854274
 30
0.0
 10
1481.047139420432
 20
735.2760061886462
 30
0.0
 10
1481.070223440067
 20
735.0779836814369
 30
0.0
 10
1481.143685801134
 20
734.7930940036623
 30
0.0
 10
1481.231341433957
 20
734.5105437152088
 30
0.0
 10
1481.355233847907
 20
734.1620603228339
 30
0.0
 10
1481.460899439612
 20
733.9092605051661
 30
0.0
 10
1481.527833948562
 20
733.7491229297707
 30
0.0
  0
ARC
  5
D38
330
BBC
100
AcDbEntity
  8
0
  6
Continuous
 62
     8
370
    15
100
AcDbCircle
 10
1484.743291097769
 20
733.7878869174868
 30
0.0
 40
4.032959911721932
100
AcDbArc
 50
143.5586286097678
 51
156.8296901375603
  0
LINE
  5
D39
330
BBC
100
AcDbEntity
  8
0
  6
Continuous
 62
     8
370
    15
100
AcDbLine
 10
1476.887342098278
 20
741.2915622704726
 30
0.0
 11
1477.176846729213
 21
742.4285381090445
 31
0.0
  0
LINE
  5
D3A
330
BBC
100
AcDbEntity
  8
0
  6
Continuous
 62
     8
370
    15
100
AcDbLine
 10
1492.904739050179
 20
757.2491242617949
 30
0.0
 11
1492.25006823305
 21
757.5111123452728
 31
0.0
  0
LINE
  5
D3B
330
BBC
100
AcDbEntity
  8
0
  6
Continuous
 62
     8
370
    15
100
AcDbLine
 10
1479.028706006505
 20
739.1698083350161
 30
0.0
 11
1478.99284233198
 21
741.7018076742567
 31
0.0
  0
LINE
  5
D3C
330
BBC
100
AcDbEntity
  8
0
  6
Continuous
 62
     8
370
    15
100
AcDbLine
 10
1479.855084999784
 20
741.3567528801199
 30
0.0
 11
1479.882290557882
 21
739.4360223347949
 31
0.0
  0
ARC
  5
D3D
330
BBC
100
AcDbEntity
  8
0
  6
Continuous
 62
     8
370
    15
100
AcDbCircle
 10
1482.382266433045
 20
738.5734970512038
 30
0.0
 40
1.803314393869002
100
AcDbArc
 50
223.3820733916451
 51
240.2428655552959
  0
LINE
  5
D3E
330
BBC
100
AcDbEntity
  8
0
  6
Continuous
 62
     8
370
    15
100
AcDbLine
 10
1481.071636267651
 20
737.3348722602794
 30
0.0
 11
1481.479109856623
 21
737.5817635806996
 31
0.0
  0
LINE
  5
D3F
330
BBC
100
AcDbEntity
  8
0
  6
Continuous
 62
     8
370
    15
100
AcDbLine
 10
1483.138595109583
 20
726.5579360652798
 30
0.0
 11
1483.319206378612
 21
726.4856585190847
 31
0.0
  0
LWPOLYLINE
  5
D40
330
BBC
100
AcDbEntity
  8
0
  6
Continuous
 62
     8
370
    15
100
AcDbPolyline
 90
       18
 70
   128
 43
0.0
 10
1499.128621424801
 20
767.511401077019
 10
1499.382762155005
 20
767.3964371965754
 10
1499.606973662593
 20
767.2671144382031
 10
1499.798108509478
 20
767.1252482099508
 10
1499.953483581382
 20
766.9728300026884
 10
1500.070917752881
 20
766.8119994339409
 10
1500.148762505627
 20
766.6450142123489
 10
1500.185925069929
 20
766.474218444387
 10
1500.181883764845
 20
766.3020097282488
 10
1500.136695321441
 20
766.1308054968229
 10
1500.050994086407
 20
765.9630090822336
 10
1499.925983117223
 20
765.8009759783277
 10
1499.763417293871
 20
765.6469807747034
 10
1499.56557868416
 20
765.5031852264576
 10
1499.335244508503
 20
765.3716079078841
 10
1499.075648153829
 20
765.2540958761145
 10
1498.790433783915
 20
765.1522987424855
 10
1498.582925383998
 20
765.0925401016392
  0
LWPOLYLINE
  5
D41
330
BBC
100
AcDbEntity
  8
0
  6
Continuous
 62
     8
370
    15
100
AcDbPolyline
 90
       31
 70
   128
 43
0.0
 10
1495.924654137304
 20
765.06255406642
 10
1495.802236761572
 20
765.0936763112394
 10
1495.510009154767
 20
765.1841451916354
 10
1495.242217288292
 20
765.2913109244483
 10
1495.002620372944
 20
765.4136691376996
 10
1494.794581824212
 20
765.5495021902876
 10
1494.621022047295
 20
765.6969032839036
 10
1494.484377441012
 20
765.8538032303006
 10
1494.386566196107
 20
766.0179994981599
 10
1494.328961368053
 20
766.1871871318038
 10
1494.312371602365
 20
766.3589911077195
 10
1494.337029782989
 20
766.530999674684
 10
1494.402589763119
 20
766.7007982094646
 10
1494.508131224343
 20
766.8660031128364
 10
1494.652172595897
 20
767.0242952700891
 10
1494.832691852665
 20
767.1734526063159
 10
1495.047154899987
 20
767.3113812794731
 10
1495.292551146786
 20
767.4361450733328
 10
1495.565435767671
 20
767.545992577715
 10
1495.861978060738
 20
767.6393817744464
 10
1496.17801522222
 20
767.7150016839171
 10
1496.509110783131
 20
767.7717907683585
 10
1496.850616887567
 20
767.8089518335087
 10
1497.197739538412
 20
767.8259632194712
 10
1497.54560589455
 20
767.8225861236758
 10
1497.889332674875
 20
767.7988679531453
 10
1498.224094708847
 20
767.755141659003
 10
1498.545192671319
 20
767.6920210625694
 10
1498.848119050752
 20
767.6103922386563
 10
1499.128621424801
 20
767.511401077019
 10
1499.128621424801
 20
767.511401077019
  0
LINE
  5
D42
330
BBC
100
AcDbEntity
  8
0
  6
Continuous
 62
     8
370
    15
100
AcDbLine
 10
1484.486189366747
 20
726.2787025023575
 30
0.0
 11
1482.886214935804
 21
726.9189849524215
 31
0.0
  0
LWPOLYLINE
  5
D43
330
BBC
100
AcDbEntity
  8
0
  6
Continuous
 62
     8
370
    15
100
AcDbPolyline
 90
       20
 70
   128
 43
0.0
 10
1499.065939659694
 20
767.3872941193431
 10
1498.789544982179
 20
767.4845958078529
 10
1498.490728383998
 20
767.5644509236584
 10
1498.173847284029
 20
767.6256949993529
 10
1497.843522522263
 20
767.6674349584036
 10
1497.504570977554
 20
767.6890621382169
 10
1497.161935326676
 20
767.6902611658111
 10
1496.820611968966
 20
767.6710145566639
 10
1496.485578167575
 20
767.6316029696764
 10
1496.161719469756
 20
767.5726011145339
 10
1495.853758464589
 20
767.4948693711449
 10
1495.566185916999
 20
767.3995412433647
 10
1495.303195282285
 20
767.2880068299568
 10
1495.068621556106
 20
767.1618925538219
 10
1494.865885351602
 20
767.0230374450913
 10
1494.697943019159
 20
766.8734663239241
 10
1494.567243536156
 20
766.715360274072
 10
1494.475692795364
 20
766.5510248377657
 10
1494.424625812739
 20
766.382856395718
 10
1494.413767305557
 20
766.2340314842103
  0
ARC
  5
D44
330
BBC
100
AcDbEntity
  8
0
  6
Continuous
 62
     8
370
    15
100
AcDbCircle
 10
1498.790235064064
 20
766.0983738468904
 30
0.0
 40
1.318077574648606
100
AcDbArc
 50
9.434692127968796
 51
77.92618077514227
  0
ARC
  5
D45
330
BBC
100
AcDbEntity
  8
0
  6
Continuous
 62
     8
370
    15
100
AcDbCircle
 10
1497.268643533165
 20
762.1182805376037
 30
0.0
 40
4.40551515302273
100
AcDbArc
 50
54.88224858609521
 51
119.4273580213799
  0
ARC
  5
D46
330
BBC
100
AcDbEntity
  8
0
  6
Continuous
 62
     8
370
    15
100
AcDbCircle
 10
1495.978357111407
 20
764.4534772068888
 30
0.0
 40
1.737823145463871
100
AcDbArc
 50
120.2026786621417
 51
136.3166021761573
  0
ARC
  5
D47
330
BBC
100
AcDbEntity
  8
0
  6
Continuous
 62
     8
370
    15
100
AcDbCircle
 10
1497.328953047095
 20
760.8466594197482
 30
0.0
 40
4.888384765799288
100
AcDbArc
 50
67.06336304549996
 51
114.547021523792
  0
LINE
  5
D48
330
BBC
100
AcDbEntity
  8
0
  6
Continuous
 62
     8
370
    15
100
AcDbLine
 10
1484.58064434811
 20
728.9765761209267
 30
0.0
 11
1486.185488824596
 21
728.334344761785
 31
0.0
  0
LINE
  5
D49
330
BBC
100
AcDbEntity
  8
0
  6
Continuous
 62
     8
370
    15
100
AcDbLine
 10
1483.872491231897
 20
722.5970092443096
 30
0.0
 11
1483.77919802362
 21
722.6343443194422
 31
0.0
  0
LINE
  5
D4A
330
BBC
100
AcDbEntity
  8
0
  6
Continuous
 62
     8
370
    15
100
AcDbLine
 10
1484.33955960993
 20
722.76742748916
 30
0.0
 11
1483.760289237224
 21
722.9992415699067
 31
0.0
  0
LINE
  5
D4B
330
BBC
100
AcDbEntity
  8
0
  6
Continuous
 62
     8
370
    15
100
AcDbLine
 10
1486.589258451681
 20
725.7473455246759
 30
0.0
 11
1482.799714550714
 21
727.2638562929791
 31
0.0
  0
LINE
  5
D4C
330
BBC
100
AcDbEntity
  8
0
  6
Continuous
 62
     8
370
    15
100
AcDbLine
 10
1486.491116173678
 20
725.2824264780273
 30
0.0
 11
1484.650655428223
 21
726.0189474452107
 31
0.0
  0
LINE
  5
D4D
330
BBC
100
AcDbEntity
  8
0
  6
Continuous
 62
     8
370
    15
100
AcDbLine
 10
1488.104299507394
 20
725.2611898896694
 30
0.0
 11
1487.483478889006
 21
725.5096317015539
 31
0.0
  0
LINE
  5
D4E
330
BBC
100
AcDbEntity
  8
0
  6
Continuous
 62
     8
370
    15
100
AcDbLine
 10
1488.310192042314
 20
725.3859451859963
 30
0.0
 11
1487.443814198355
 21
725.7326548070273
 31
0.0
  0
LINE
  5
D4F
330
BBC
100
AcDbEntity
  8
0
  6
Continuous
 62
     8
370
    15
100
AcDbLine
 10
1504.19966234588
 20
764.9093575696062
 30
0.0
 11
1504.090653354077
 21
764.9529811069584
 31
0.0
  0
LINE
  5
D50
330
BBC
100
AcDbEntity
  8
0
  6
Continuous
 62
     8
370
    15
100
AcDbLine
 10
1503.47725990258
 20
761.4978106701747
 30
0.0
 11
1503.562763224478
 21
761.4635937005938
 31
0.0
  0
LINE
  5
D51
330
BBC
100
AcDbEntity
  8
0
  6
Continuous
 62
     8
370
    15
100
AcDbLine
 10
1503.455849350877
 20
761.4832895985953
 30
0.0
 11
1503.571812887775
 21
761.4368829710347
 31
0.0
  0
LINE
  5
D52
330
BBC
100
AcDbEntity
  8
0
  6
Continuous
 62
     8
370
    15
100
AcDbLine
 10
1504.438384828089
 20
757.9806663279283
 30
0.0
 11
1504.638190342911
 21
757.9007075722808
 31
0.0
  0
LINE
  5
D53
330
BBC
100
AcDbEntity
  8
0
  6
Continuous
 62
     8
370
    15
100
AcDbLine
 10
1504.357108943081
 20
758.5659281995389
 30
0.0
 11
1504.762699021216
 21
758.4036179751205
 31
0.0
  0
LINE
  5
D54
330
BBC
100
AcDbEntity
  8
0
  6
Continuous
 62
     8
370
    15
100
AcDbLine
 10
1504.407023313534
 20
758.2398521024193
 30
0.0
 11
1504.684229886696
 21
758.1289187647333
 31
0.0
  0
LINE
  5
D55
330
BBC
100
AcDbEntity
  8
0
  6
Continuous
 62
     8
370
    15
100
AcDbLine
 10
1504.235997168107
 20
759.1475673921437
 30
0.0
 11
1505.132616932668
 21
758.7887554708246
 31
0.0
  0
LINE
  5
D56
330
BBC
100
AcDbEntity
  8
0
  6
Continuous
 62
     8
370
    15
100
AcDbLine
 10
1504.410247513664
 20
758.2157044454426
 30
0.0
 11
1504.693111060338
 21
758.102507283541
 31
0.0
  0
LINE
  5
D57
330
BBC
100
AcDbEntity
  8
0
  6
Continuous
 62
     8
370
    15
100
AcDbLine
 10
1506.170431774962
 20
757.1133166383873
 30
0.0
 11
1506.354031189101
 21
757.0398432875395
 31
0.0
  0
LINE
  5
D58
330
BBC
100
AcDbEntity
  8
0
  6
Continuous
 62
     8
370
    15
100
AcDbLine
 10
1505.596094261011
 20
757.9876979692352
 30
0.0
 11
1506.672218530059
 21
757.5570514099942
 31
0.0
  0
LINE
  5
D59
330
BBC
100
AcDbEntity
  8
0
  6
Continuous
 62
     8
370
    15
100
AcDbLine
 10
1500.832160609422
 20
740.7049753697075
 30
0.0
 11
1501.267794578351
 21
740.5306420931484
 31
0.0
  0
LINE
  5
D5A
330
BBC
100
AcDbEntity
  8
0
  6
Continuous
 62
     8
370
    15
100
AcDbLine
 10
1500.407303049103
 20
740.4475509699521
 30
0.0
 11
1501.273883498503
 21
740.1007602696834
 31
0.0
  0
LINE
  5
D5B
330
BBC
100
AcDbEntity
  8
0
  6
Continuous
 62
     8
370
    15
100
AcDbLine
 10
1498.938994103174
 20
739.5578915067241
 30
0.0
 11
1502.485472519482
 21
738.1386513953973
 31
0.0
  0
LINE
  5
D5C
330
BBC
100
AcDbEntity
  8
0
  6
Continuous
 62
     8
370
    15
100
AcDbLine
 10
1504.605692953541
 20
740.9287628550729
 30
0.0
 11
1506.141798943034
 21
740.3140394648182
 31
0.0
  0
LINE
  5
D5D
330
BBC
100
AcDbEntity
  8
0
  6
Continuous
 62
     8
370
    15
100
AcDbLine
 10
1505.000488859874
 20
738.7084712687702
 30
0.0
 11
1503.474898633039
 21
739.3189864303525
 31
0.0
  0
LINE
  5
D5E
330
BBC
100
AcDbEntity
  8
0
  6
Continuous
 62
     8
370
    15
100
AcDbLine
 10
1506.216917961799
 20
742.7473222516717
 30
0.0
 11
1506.765294310791
 21
742.5278713995212
 31
0.0
  0
LINE
  5
D5F
330
BBC
100
AcDbEntity
  8
0
  6
Continuous
 62
     8
370
    15
100
AcDbLine
 10
1504.846062394745
 20
738.2353317709477
 30
0.0
 11
1503.299767074016
 21
738.8541327575959
 31
0.0
  0
LINE
  5
D60
330
BBC
100
AcDbEntity
  8
0
  6
Continuous
 62
     8
370
    15
100
AcDbLine
 10
1504.868283947466
 20
736.6664753291562
 30
0.0
 11
1503.130443828079
 21
737.3619298073544
 31
0.0
  0
LINE
  5
D61
330
BBC
100
AcDbEntity
  8
0
  6
Continuous
 62
     8
370
    15
100
AcDbLine
 10
1505.289969862377
 20
741.8914079833192
 30
0.0
 11
1506.577201290802
 21
741.3762799432387
 31
0.0
  0
LINE
  5
D62
330
BBC
100
AcDbEntity
  8
0
  6
Continuous
 62
     8
370
    15
100
AcDbLine
 10
1505.125255002915
 20
734.9518250656561
 30
0.0
 11
1502.964948982109
 21
735.8163426511524
 31
0.0
  0
LINE
  5
D63
330
BBC
100
AcDbEntity
  8
0
  6
Continuous
 62
     8
370
    15
100
AcDbLine
 10
1505.243244985617
 20
735.433127987753
 30
0.0
 11
1503.01921538275
 21
736.3231466627955
 31
0.0
  0
LINE
  5
D64
330
BBC
100
AcDbEntity
  8
0
  6
Continuous
 62
     8
370
    15
100
AcDbLine
 10
1505.685653682601
 20
736.7653598035121
 30
0.0
 11
1505.622261098241
 21
736.7907278490381
 31
0.0
  0
LINE
  5
D65
330
BBC
100
AcDbEntity
  8
0
  6
Continuous
 62
     8
370
    15
100
AcDbLine
 10
1505.707151223842
 20
735.8267942797659
 30
0.0
 11
1503.078697036605
 21
736.8786568944852
 31
0.0
  0
LINE
  5
D66
330
BBC
100
AcDbEntity
  8
0
  6
Continuous
 62
     8
370
    15
100
AcDbLine
 10
1505.608912132507
 20
736.7842390094096
 30
0.0
 11
1505.618015282816
 21
736.1412738947745
 31
0.0
  0
LINE
  5
D67
330
BBC
100
AcDbEntity
  8
0
  6
Continuous
 62
     8
370
    15
100
AcDbLine
 10
1505.608373860984
 20
734.323420527458
 30
0.0
 11
1503.007571707188
 21
735.3642171445529
 31
0.0
  0
LINE
  5
D68
330
BBC
100
AcDbEntity
  8
0
  6
Continuous
 62
     8
370
    15
100
AcDbLine
 10
1505.618025409467
 20
736.1408411137373
 30
0.0
 11
1503.107280005335
 21
737.1455985572027
 31
0.0
  0
LINE
  5
D69
330
BBC
100
AcDbEntity
  8
0
  6
Continuous
 62
     8
370
    15
100
AcDbLine
 10
1507.042661066258
 20
738.7518363612072
 30
0.0
 11
1507.710085784018
 21
738.4847443844506
 31
0.0
  0
LINE
  5
D6A
330
BBC
100
AcDbEntity
  8
0
  6
Continuous
 62
     8
370
    15
100
AcDbLine
 10
1507.105975390787
 20
739.139475600515
 30
0.0
 11
1508.620476975461
 21
738.5333979242053
 31
0.0
  0
LINE
  5
D6B
330
BBC
100
AcDbEntity
  8
0
  6
Continuous
 62
     8
370
    15
100
AcDbLine
 10
1506.966857053654
 20
738.287729541765
 30
0.0
 11
1507.218636648077
 21
738.1869716468417
 31
0.0
  0
ENDBLK
  5
BBE
330
BBC
100
AcDbEntity
  8
0
100
AcDbBlockEnd
  0
ENDSEC
  0
SECTION
  2
ENTITIES
  0
INSERT
  5
A3A
330
1F
100
AcDbEntity
  8
0
100
AcDbBlockReference
  2
1
 10
0.0
 20
0.0
 30
0.0
  0
INSERT
  5
AD7
330
1F
100
AcDbEntity
  8
0
100
AcDbBlockReference
  2
2
 10
3.582412314763132
 20
0.0
 30
0.0
  0
INSERT
  5
BBB
330
1F
100
AcDbEntity
  8
0
100
AcDbBlockReference
  2
3
 10
0.0
 20
7.115700163467181
 30
0.0
  0
INSERT
  5
D6C
330
1F
100
AcDbEntity
  8
0
100
AcDbBlockReference
  2
4
 10
0.0
 20
0.0
 30
0.0
  0
ENDSEC
  0
SECTION
  2
OBJECTS
  0
DICTIONARY
  5
C
330
0
100
AcDbDictionary
281
     1
  3
ACAD_COLOR
350
6B
  3
ACAD_GROUP
350
D
  3
ACAD_LAYOUT
350
1A
  3
ACAD_MATERIAL
350
6A
  3
ACAD_MLEADERSTYLE
350
12D
  3
ACAD_MLINESTYLE
350
17
  3
ACAD_PLOTSETTINGS
350
19
  3
ACAD_PLOTSTYLENAME
350
E
  3
ACAD_SCALELIST
350
10C
  3
ACAD_TABLESTYLE
350
7E
  3
ACAD_VISUALSTYLE
350
EF
  3
ACDB_RECOMPOSE_DATA
350
15D
  3
AcDbVariableDictionary
350
5E
  3
DWGPROPS
350
EEA
  0
DICTIONARY
  5
13C
330
10
100
AcDbDictionary
280
     1
281
     1
  3
ADSK_XREC_LAYER_RECONCILED
360
D6D
  0
DICTIONARY
  5
E35
330
979
100
AcDbDictionary
280
     1
281
     1
  0
DICTIONARY
  5
ED9
330
A3B
100
AcDbDictionary
280
     1
281
     1
  0
DICTIONARY
  5
6B
102
{ACAD_REACTORS
330
C
102
}
330
C
100
AcDbDictionary
281
     1
  0
DICTIONARY
  5
D
102
{ACAD_REACTORS
330
C
102
}
330
C
100
AcDbDictionary
281
     1
  0
DICTIONARY
  5
1A
102
{ACAD_REACTORS
330
C
102
}
330
C
100
AcDbDictionary
281
     1
  3
Layout1
350
D3
  3
Layout2
350
D7
  3
Model
350
22
  0
DICTIONARY
  5
6A
102
{ACAD_REACTORS
330
C
102
}
330
C
100
AcDbDictionary
281
     1
  3
ByBlock
350
ED
  3
ByLayer
350
EC
  3
Global
350
EE
  0
DICTIONARY
  5
12D
102
{ACAD_REACTORS
330
C
102
}
330
C
100
AcDbDictionary
281
     1
  3
Annotative
350
13B
  3
Standard
350
12E
  0
DICTIONARY
  5
17
102
{ACAD_REACTORS
330
C
102
}
330
C
100
AcDbDictionary
281
     1
  3
Standard
350
18
  0
DICTIONARY
  5
19
102
{ACAD_REACTORS
330
C
102
}
330
C
100
AcDbDictionary
281
     1
  0
ACDBDICTIONARYWDFLT
  5
E
102
{ACAD_REACTORS
330
C
102
}
330
C
100
AcDbDictionary
281
     1
  3
Normal
350
F
100
AcDbDictionaryWithDefault
340
F
  0
DICTIONARY
  5
10C
102
{ACAD_REACTORS
330
C
102
}
330
C
100
AcDbDictionary
281
     1
  3
A0
350
10D
  3
A1
350
188
  3
A2
350
189
  3
A3
350
18A
  3
A4
350
18B
  3
A5
350
18C
  3
A6
350
18D
  3
A7
350
18E
  3
A8
350
18F
  3
A9
350
190
  3
B0
350
191
  3
B1
350
192
  3
B2
350
193
  3
B3
350
194
  3
B4
350
195
  3
B5
350
196
  3
B6
350
197
  3
B7
350
198
  3
B8
350
199
  3
B9
350
19A
  3
C0
350
19B
  3
C1
350
19C
  3
C2
350
19D
  3
C3
350
19E
  3
C4
350
19F
  3
C5
350
1A0
  3
C6
350
1A1
  3
C7
350
1A2
  3
C8
350
1A3
  3
C9
350
1A4
  3
D0
350
1A5
  3
D1
350
1A6
  3
D2
350
1A7
  0
DICTIONARY
  5
7E
102
{ACAD_REACTORS
330
C
102
}
330
C
100
AcDbDictionary
281
     1
  3
Standard
350
7F
  0
DICTIONARY
  5
EF
102
{ACAD_REACTORS
330
C
102
}
330
C
100
AcDbDictionary
281
     1
  3
2dWireframe
350
F5
  3
3D Hidden
350
F7
  3
3dWireframe
350
F6
  3
Basic
350
F4
  3
Brighten
350
FB
  3
ColorChange
350
FF
  3
Conceptual
350
F8
  3
Dim
350
FA
  3
Facepattern
350
FE
  3
Flat
350
F0
  3
FlatWithEdges
350
F1
  3
Gouraud
350
F2
  3
GouraudWithEdges
350
F3
  3
Linepattern
350
FD
  3
Realistic
350
F9
  3
Thicken
350
FC
  0
XRECORD
  5
15D
102
{ACAD_REACTORS
330
C
102
}
330
C
100
AcDbXrecord
280
     1
 90
        1
330
7F
  0
DICTIONARY
  5
5E
102
{ACAD_REACTORS
330
C
102
}
330
C
100
AcDbDictionary
281
     1
  3
CANNOSCALE
350
146
  3
CMLEADERSTYLE
350
145
  3
CTABLESTYLE
350
84
  3
DIMASSOC
350
5F
  3
HIDETEXT
350
63
  3
INDEXCTL
350
EE6
  3
LIGHTINGUNITS
350
EE4
  3
MSLTSCALE
350
EE3
  3
PSOLHEIGHT
350
EE8
  3
PSOLWIDTH
350
EE7
  3
SORTENTS
350
EE5
  0
XRECORD
  5
EEA
102
{ACAD_REACTORS
330
C
102
}
330
C
100
AcDbXrecord
280
     1
  1
DWGPROPS COOKIE
  2

  3

  4

  6

  7

  8
orhan kara
  9

300
=
301
=
302
=
303
=
304
=
305
=
306
=
307
=
308
=
309
=
 40
0.0044737847222222
 41
2458424.669354225
 42
2458956.391519479
  1

 90
        0
  0
XRECORD
  5
D6D
102
{ACAD_REACTORS
330
13C
102
}
330
13C
100
AcDbXrecord
280
     1
290
     1
  0
LAYOUT
  5
D3
102
{ACAD_XDICTIONARY
360
EEE
102
}
102
{ACAD_REACTORS
330
1A
102
}
330
1A
100
AcDbPlotSettings
  1

  2
C:\Documents and Settings\basas\Application Data\Autodesk\AutoCAD 2005\R16.1\enu\plotters\Default Windows System Printer.pc3
  4

  6

 40
0.0
 41
0.0
 42
0.0
 43
0.0
 44
0.0
 45
0.0
 46
0.0
 47
0.0
 48
0.0
 49
0.0
140
0.0
141
0.0
142
1.0
143
1.0
 70
   688
 72
     0
 73
     0
 74
     5
  7

 75
    16
147
1.0
148
0.0
149
0.0
100
AcDbLayout
  1
Layout1
 70
     1
 71
     1
 10
0.0
 20
0.0
 11
12.0
 21
9.0
 12
0.0
 22
0.0
 32
0.0
 14
0.0
 24
0.0
 34
0.0
 15
0.0
 25
0.0
 35
0.0
146
0.0
 13
0.0
 23
0.0
 33
0.0
 16
1.0
 26
0.0
 36
0.0
 17
0.0
 27
1.0
 37
0.0
 76
     0
330
D2
  0
LAYOUT
  5
D7
102
{ACAD_XDICTIONARY
360
EF0
102
}
102
{ACAD_REACTORS
330
1A
102
}
330
1A
100
AcDbPlotSettings
  1

  2
C:\Documents and Settings\basas\Application Data\Autodesk\AutoCAD 2005\R16.1\enu\plotters\Default Windows System Printer.pc3
  4

  6

 40
0.0
 41
0.0
 42
0.0
 43
0.0
 44
0.0
 45
0.0
 46
0.0
 47
0.0
 48
0.0
 49
0.0
140
0.0
141
0.0
142
1.0
143
1.0
 70
   688
 72
     0
 73
     0
 74
     5
  7

 75
    16
147
1.0
148
0.0
149
0.0
100
AcDbLayout
  1
Layout2
 70
     1
 71
     2
 10
0.0
 20
0.0
 11
12.0
 21
9.0
 12
0.0
 22
0.0
 32
0.0
 14
0.0
 24
0.0
 34
0.0
 15
0.0
 25
0.0
 35
0.0
146
0.0
 13
0.0
 23
0.0
 33
0.0
 16
1.0
 26
0.0
 36
0.0
 17
0.0
 27
1.0
 37
0.0
 76
     0
330
D6
  0
LAYOUT
  5
22
102
{ACAD_XDICTIONARY
360
EEB
102
}
102
{ACAD_REACTORS
330
1A
102
}
330
1A
100
AcDbPlotSettings
  1

  2
none_device
  4
ISO_A4_(210.00_x_297.00_MM)
  6

 40
7.5
 41
20.0
 42
7.5
 43
20.0
 44
210.0
 45
297.0
 46
11.54999923706054
 47
-13.65000009536743
 48
0.0
 49
0.0
140
0.0
141
0.0
142
1.0
143
8.704084754739808
 70
 11952
 72
     1
 73
     0
 74
     0
  7

 75
     0
147
0.1148885871608098
148
0.0
149
0.0
100
AcDbLayout
  1
Model
 70
     1
 71
     0
 10
0.0
 20
0.0
 11
12.0
 21
9.0
 12
0.0
 22
0.0
 32
0.0
 14
0.0
 24
0.0
 34
0.0
 15
0.0
 25
0.0
 35
0.0
146
0.0
 13
0.0
 23
0.0
 33
0.0
 16
1.0
 26
0.0
 36
0.0
 17
0.0
 27
1.0
 37
0.0
 76
     0
330
1F
331
EA
1001
ACAD_PSEXT
1000
None
1000
None
1000
Not applicable
1000
The layout will not be plotted unless a new plotter configuration name is selected.
1070
     0
  0
MATERIAL
  5
ED
102
{ACAD_XDICTIONARY
360
EF4
102
}
102
{ACAD_REACTORS
330
6A
102
}
330
6A
100
AcDbMaterial
  1
ByBlock
  0
MATERIAL
  5
EC
102
{ACAD_XDICTIONARY
360
EF2
102
}
102
{ACAD_REACTORS
330
6A
102
}
330
6A
100
AcDbMaterial
  1
ByLayer
  0
MATERIAL
  5
EE
102
{ACAD_XDICTIONARY
360
173
102
}
102
{ACAD_REACTORS
330
6A
102
}
330
6A
100
AcDbMaterial
  1
Global
 43
0.0007999999797903
 43
0.0
 43
0.0
 43
0.0
 43
0.0
 43
0.0007999999797903
 43
0.0
 43
0.0
 43
0.0
 43
0.0
 43
1.0
 43
0.0
 43
0.0
 43
0.0
 43
0.0
 43
1.0
 49
0.0007999999797903
 49
0.0
 49
0.0
 49
0.0
 49
0.0
 49
0.0007999999797903
 49
0.0
 49
0.0
 49
0.0
 49
0.0
 49
1.0
 49
0.0
 49
0.0
 49
0.0
 49
0.0
 49
1.0
142
0.0007999999797903
142
0.0
142
0.0
142
0.0
142
0.0
142
0.0007999999797903
142
0.0
142
0.0
142
0.0
142
0.0
142
1.0
142
0.0
142
0.0
142
0.0
142
0.0
142
1.0
144
0.0007999999797903
144
0.0
144
0.0
144
0.0
144
0.0
144
0.0007999999797903
144
0.0
144
0.0
144
0.0
144
0.0
144
1.0
144
0.0
144
0.0
144
0.0
144
0.0
144
1.0
1001
ACAD
1070
    -1
1070
     3
1070
     0
1000

1071
        0
1070
     0
  0
MLEADERSTYLE
  5
13B
102
{ACAD_REACTORS
330
12D
102
}
330
12D
100
AcDbMLeaderStyle
170
     2
171
     1
172
     0
 90
        2
 40
0.0
 41
0.0
173
     1
 91
-1056964608
340
14
 92
       -2
290
     1
 42
2.0
291
     1
 43
8.0
  3
Standard
 44
4.0
300

342
11
174
     1
178
     1
175
     1
176
     0
 93
-1056964608
 45
4.0
292
     0
297
     0
 46
4.0
 94
-1056964608
 47
1.0
 49
1.0
140
1.0
293
     1
141
0.0
294
     1
177
     0
142
1.0
295
     0
296
     1
143
3.75
1001
ACAD_MLEADERVER
1070
     2
  0
MLEADERSTYLE
  5
12E
102
{ACAD_REACTORS
330
12D
102
}
330
12D
100
AcDbMLeaderStyle
170
     2
171
     1
172
     0
 90
        2
 40
0.0
 41
0.0
173
     1
 91
-1056964608
340
14
 92
       -2
290
     1
 42
2.0
291
     1
 43
8.0
  3
Standard
 44
4.0
300

342
11
174
     1
178
     1
175
     1
176
     0
 93
-1056964608
 45
4.0
292
     0
297
     0
 46
4.0
 94
-1056964608
 47
1.0
 49
1.0
140
1.0
293
     1
141
0.0
294
     1
177
     0
142
1.0
295
     0
296
     0
143
3.75
1001
ACAD_MLEADERVER
1070
     2
  0
MLINESTYLE
  5
18
102
{ACAD_REACTORS
330
17
102
}
330
17
100
AcDbMlineStyle
  2
STANDARD
 70
     0
  3

 62
   256
 51
90.0
 52
90.0
 71
     2
 49
0.5
 62
   256
  6
BYLAYER
 49
-0.5
 62
   256
  6
BYLAYER
  0
ACDBPLACEHOLDER
  5
F
102
{ACAD_REACTORS
330
E
102
}
330
E
  0
SCALE
  5
10D
102
{ACAD_REACTORS
330
10C
102
}
330
10C
100
AcDbScale
 70
     0
300
1:1
140
1.0
141
1.0
290
     1
  0
SCALE
  5
188
102
{ACAD_REACTORS
330
10C
102
}
330
10C
100
AcDbScale
 70
     0
300
1:2
140
1.0
141
2.0
290
     0
  0
SCALE
  5
189
102
{ACAD_REACTORS
330
10C
102
}
330
10C
100
AcDbScale
 70
     0
300
1:4
140
1.0
141
4.0
290
     0
  0
SCALE
  5
18A
102
{ACAD_REACTORS
330
10C
102
}
330
10C
100
AcDbScale
 70
     0
300
1:5
140
1.0
141
5.0
290
     0
  0
SCALE
  5
18B
102
{ACAD_REACTORS
330
10C
102
}
330
10C
100
AcDbScale
 70
     0
300
1:8
140
1.0
141
8.0
290
     0
  0
SCALE
  5
18C
102
{ACAD_REACTORS
330
10C
102
}
330
10C
100
AcDbScale
 70
     0
300
1:10
140
1.0
141
10.0
290
     0
  0
SCALE
  5
18D
102
{ACAD_REACTORS
330
10C
102
}
330
10C
100
AcDbScale
 70
     0
300
1:16
140
1.0
141
16.0
290
     0
  0
SCALE
  5
18E
102
{ACAD_REACTORS
330
10C
102
}
330
10C
100
AcDbScale
 70
     0
300
1:20
140
1.0
141
20.0
290
     0
  0
SCALE
  5
18F
102
{ACAD_REACTORS
330
10C
102
}
330
10C
100
AcDbScale
 70
     0
300
1:30
140
1.0
141
30.0
290
     0
  0
SCALE
  5
190
102
{ACAD_REACTORS
330
10C
102
}
330
10C
100
AcDbScale
 70
     0
300
1:40
140
1.0
141
40.0
290
     0
  0
SCALE
  5
191
102
{ACAD_REACTORS
330
10C
102
}
330
10C
100
AcDbScale
 70
     0
300
1:50
140
1.0
141
50.0
290
     0
  0
SCALE
  5
192
102
{ACAD_REACTORS
330
10C
102
}
330
10C
100
AcDbScale
 70
     0
300
1:100
140
1.0
141
100.0
290
     0
  0
SCALE
  5
193
102
{ACAD_REACTORS
330
10C
102
}
330
10C
100
AcDbScale
 70
     0
300
2:1
140
2.0
141
1.0
290
     0
  0
SCALE
  5
194
102
{ACAD_REACTORS
330
10C
102
}
330
10C
100
AcDbScale
 70
     0
300
4:1
140
4.0
141
1.0
290
     0
  0
SCALE
  5
195
102
{ACAD_REACTORS
330
10C
102
}
330
10C
100
AcDbScale
 70
     0
300
8:1
140
8.0
141
1.0
290
     0
  0
SCALE
  5
196
102
{ACAD_REACTORS
330
10C
102
}
330
10C
100
AcDbScale
 70
     0
300
10:1
140
10.0
141
1.0
290
     0
  0
SCALE
  5
197
102
{ACAD_REACTORS
330
10C
102
}
330
10C
100
AcDbScale
 70
     0
300
100:1
140
100.0
141
1.0
290
     0
  0
SCALE
  5
198
102
{ACAD_REACTORS
330
10C
102
}
330
10C
100
AcDbScale
 70
     0
300
1/128" = 1'-0"
140
0.0078125
141
12.0
290
     0
  0
SCALE
  5
199
102
{ACAD_REACTORS
330
10C
102
}
330
10C
100
AcDbScale
 70
     0
300
1/64" = 1'-0"
140
0.015625
141
12.0
290
     0
  0
SCALE
  5
19A
102
{ACAD_REACTORS
330
10C
102
}
330
10C
100
AcDbScale
 70
     0
300
1/32" = 1'-0"
140
0.03125
141
12.0
290
     0
  0
SCALE
  5
19B
102
{ACAD_REACTORS
330
10C
102
}
330
10C
100
AcDbScale
 70
     0
300
1/16" = 1'-0"
140
0.0625
141
12.0
290
     0
  0
SCALE
  5
19C
102
{ACAD_REACTORS
330
10C
102
}
330
10C
100
AcDbScale
 70
     0
300
3/32" = 1'-0"
140
0.09375
141
12.0
290
     0
  0
SCALE
  5
19D
102
{ACAD_REACTORS
330
10C
102
}
330
10C
100
AcDbScale
 70
     0
300
1/8" = 1'-0"
140
0.125
141
12.0
290
     0
  0
SCALE
  5
19E
102
{ACAD_REACTORS
330
10C
102
}
330
10C
100
AcDbScale
 70
     0
300
3/16" = 1'-0"
140
0.1875
141
12.0
290
     0
  0
SCALE
  5
19F
102
{ACAD_REACTORS
330
10C
102
}
330
10C
100
AcDbScale
 70
     0
300
1/4" = 1'-0"
140
0.25
141
12.0
290
     0
  0
SCALE
  5
1A0
102
{ACAD_REACTORS
330
10C
102
}
330
10C
100
AcDbScale
 70
     0
300
3/8" = 1'-0"
140
0.375
141
12.0
290
     0
  0
SCALE
  5
1A1
102
{ACAD_REACTORS
330
10C
102
}
330
10C
100
AcDbScale
 70
     0
300
1/2" = 1'-0"
140
0.5
141
12.0
290
     0
  0
SCALE
  5
1A2
102
{ACAD_REACTORS
330
10C
102
}
330
10C
100
AcDbScale
 70
     0
300
3/4" = 1'-0"
140
0.75
141
12.0
290
     0
  0
SCALE
  5
1A3
102
{ACAD_REACTORS
330
10C
102
}
330
10C
100
AcDbScale
 70
     0
300
1" = 1'-0"
140
1.0
141
12.0
290
     0
  0
SCALE
  5
1A4
102
{ACAD_REACTORS
330
10C
102
}
330
10C
100
AcDbScale
 70
     0
300
1-1/2" = 1'-0"
140
1.5
141
12.0
290
     0
  0
SCALE
  5
1A5
102
{ACAD_REACTORS
330
10C
102
}
330
10C
100
AcDbScale
 70
     0
300
3" = 1'-0"
140
3.0
141
12.0
290
     0
  0
SCALE
  5
1A6
102
{ACAD_REACTORS
330
10C
102
}
330
10C
100
AcDbScale
 70
     0
300
6" = 1'-0"
140
6.0
141
12.0
290
     0
  0
SCALE
  5
1A7
102
{ACAD_REACTORS
330
10C
102
}
330
10C
100
AcDbScale
 70
     0
300
1'-0" = 1'-0"
140
12.0
141
12.0
290
     0
  0
TABLESTYLE
  5
7F
102
{ACAD_XDICTIONARY
360
162
102
}
102
{ACAD_REACTORS
330
7E
102
}
330
7E
100
AcDbTableStyle
  3
Standard
 70
     0
 71
     0
 40
1.5
 41
1.5
280
     0
281
     0
  7
Standard
140
4.5
170
     2
 62
     0
 63
     7
283
     0
274
    -2
284
     1
 64
     0
275
    -2
285
     1
 65
     0
276
    -2
286
     1
 66
     0
277
    -2
287
     1
 67
     0
278
    -2
288
     1
 68
     0
279
    -2
289
     1
 69
     0
  7
Standard
140
6.0
170
     5
 62
     0
 63
     7
283
     0
274
    -2
284
     1
 64
     0
275
    -2
285
     1
 65
     0
276
    -2
286
     1
 66
     0
277
    -2
287
     1
 67
     0
278
    -2
288
     1
 68
     0
279
    -2
289
     1
 69
     0
  7
Standard
140
4.5
170
     5
 62
     0
 63
     7
283
     0
274
    -2
284
     1
 64
     0
275
    -2
285
     1
 65
     0
276
    -2
286
     1
 66
     0
277
    -2
287
     1
 67
     0
278
    -2
288
     1
 68
     0
279
    -2
289
     1
 69
     0
  0
VISUALSTYLE
  5
F5
102
{ACAD_REACTORS
330
EF
102
}
330
EF
100
AcDbVisualStyle
  2
2dWireframe
 70
     4
 71
     0
 72
     2
 73
     1
 90
        0
 40
-0.6
 41
-30.0
 62
     5
 63
     7
 74
     1
 91
        4
 64
     7
 65
   257
 75
     1
175
     1
 42
1.0
 92
        0
 66
   257
 43
1.0
 76
     1
 77
     6
 78
     2
 67
     7
 79
     5
170
     0
171
     0
290
     0
174
     0
 93
        1
 44
0.0
173
     0
291
     0
 45
0.0
1001
ACAD
1000
AcDbSavedByObjectVersion
1070
     0
  0
VISUALSTYLE
  5
F7
102
{ACAD_REACTORS
330
EF
102
}
330
EF
100
AcDbVisualStyle
  2
3D Hidden
 70
     6
 71
     1
 72
     2
 73
     2
 90
        0
 40
-0.6
 41
-30.0
 62
     5
 63
     7
 74
     2
 91
        2
 64
     7
 65
   257
 75
     2
175
     1
 42
40.0
 92
        0
 66
   257
 43
1.0
 76
     1
 77
     6
 78
     2
 67
     7
 79
     3
170
     0
171
     0
290
     0
174
     0
 93
        1
 44
0.0
173
     0
291
     0
 45
0.0
1001
ACAD
1000
AcDbSavedByObjectVersion
1070
     0
  0
VISUALSTYLE
  5
F6
102
{ACAD_REACTORS
330
EF
102
}
330
EF
100
AcDbVisualStyle
  2
3dWireframe
 70
     5
 71
     0
 72
     2
 73
     1
 90
        0
 40
-0.6
 41
-30.0
 62
     5
 63
     7
 74
     1
 91
        4
 64
     7
 65
   257
 75
     1
175
     1
 42
1.0
 92
        0
 66
   257
 43
1.0
 76
     1
 77
     6
 78
     2
 67
     7
 79
     5
170
     0
171
     0
290
     0
174
     0
 93
        1
 44
0.0
173
     0
291
     0
 45
0.0
1001
ACAD
1000
AcDbSavedByObjectVersion
1070
     0
  0
VISUALSTYLE
  5
F4
102
{ACAD_REACTORS
330
EF
102
}
330
EF
100
AcDbVisualStyle
  2
Basic
 70
     7
 71
     1
 72
     0
 73
     1
 90
        0
 40
-0.6
 41
-30.0
 62
     5
 63
     7
 74
     0
 91
        4
 64
     7
 65
   257
 75
     1
175
     1
 42
1.0
 92
        8
 66
     7
 43
1.0
 76
     1
 77
     6
 78
     2
 67
     7
 79
     5
170
     0
171
     0
290
     0
174
     0
 93
        1
 44
0.0
173
     0
291
     1
 45
0.0
1001
ACAD
1000
AcDbSavedByObjectVersion
1070
     0
  0
VISUALSTYLE
  5
FB
102
{ACAD_REACTORS
330
EF
102
}
330
EF
100
AcDbVisualStyle
  2
Brighten
 70
    12
 71
     2
 72
     2
 73
     1
 90
        0
 40
-0.6
 41
-30.0
 62
     5
 63
     7
 74
     1
 91
        4
 64
     7
 65
   257
 75
     1
175
     1
 42
1.0
 92
        8
 66
     7
 43
1.0
 76
     1
 77
     6
 78
     2
 67
     7
 79
     5
170
     0
171
     0
290
     0
174
     0
 93
        1
 44
50.0
173
     0
291
     1
 45
0.0
1001
ACAD
1000
AcDbSavedByObjectVersion
1070
     0
  0
VISUALSTYLE
  5
FF
102
{ACAD_REACTORS
330
EF
102
}
330
EF
100
AcDbVisualStyle
  2
ColorChange
 70
    16
 71
     2
 72
     2
 73
     3
 90
        0
 40
-0.6
 41
-30.0
 62
     5
 63
     8
 74
     1
 91
        4
 64
     7
 65
   257
 75
     1
175
     1
 42
1.0
 92
        8
 66
     8
 43
1.0
 76
     1
 77
     6
 78
     2
 67
     7
 79
     5
170
     0
171
     0
290
     0
174
     0
 93
        1
 44
0.0
173
     0
291
     1
 45
0.0
1001
ACAD
1000
AcDbSavedByObjectVersion
1070
     0
  0
VISUALSTYLE
  5
F8
102
{ACAD_REACTORS
330
EF
102
}
330
EF
100
AcDbVisualStyle
  2
Conceptual
 70
     9
 71
     3
 72
     2
 73
     1
 90
        0
 40
-0.6
 41
-30.0
 62
     5
 63
     7
 74
     2
 91
        2
 64
     7
 65
   257
 75
     1
175
     1
 42
40.0
 92
        8
 66
     7
 43
1.0
 76
     1
 77
     6
 78
     2
 67
     7
 79
     3
170
     0
171
     0
290
     0
174
     0
 93
        1
 44
0.0
173
     0
291
     0
 45
0.0
1001
ACAD
1000
AcDbSavedByObjectVersion
1070
     0
  0
VISUALSTYLE
  5
FA
102
{ACAD_REACTORS
330
EF
102
}
330
EF
100
AcDbVisualStyle
  2
Dim
 70
    11
 71
     2
 72
     2
 73
     1
 90
        0
 40
-0.6
 41
-30.0
 62
     5
 63
     7
 74
     1
 91
        4
 64
     7
 65
   257
 75
     1
175
     1
 42
1.0
 92
        8
 66
     7
 43
1.0
 76
     1
 77
     6
 78
     2
 67
     7
 79
     5
170
     0
171
     0
290
     0
174
     0
 93
        1
 44
-50.0
173
     0
291
     1
 45
0.0
1001
ACAD
1000
AcDbSavedByObjectVersion
1070
     0
  0
VISUALSTYLE
  5
FE
102
{ACAD_REACTORS
330
EF
102
}
330
EF
100
AcDbVisualStyle
  2
Facepattern
 70
    15
 71
     2
 72
     2
 73
     1
 90
        0
 40
-0.6
 41
-30.0
 62
     5
 63
     7
 74
     1
 91
        4
 64
     7
 65
   257
 75
     1
175
     1
 42
1.0
 92
        8
 66
     7
 43
1.0
 76
     1
 77
     6
 78
     2
 67
     7
 79
     5
170
     0
171
     0
290
     0
174
     0
 93
        1
 44
0.0
173
     0
291
     1
 45
0.0
1001
ACAD
1000
AcDbSavedByObjectVersion
1070
     0
  0
VISUALSTYLE
  5
F0
102
{ACAD_REACTORS
330
EF
102
}
330
EF
100
AcDbVisualStyle
  2
Flat
 70
     0
 71
     2
 72
     1
 73
     1
 90
        2
 40
-0.6
 41
30.0
 62
     5
 63
     7
 74
     0
 91
        4
 64
     7
 65
   257
 75
     1
175
     1
 42
1.0
 92
        8
 66
     7
 43
1.0
 76
     1
 77
     6
 78
     2
 67
     7
 79
     5
170
     0
171
     0
290
     0
174
     0
 93
        1
 44
0.0
173
     0
291
     1
 45
0.0
1001
ACAD
1000
AcDbSavedByObjectVersion
1070
     0
  0
VISUALSTYLE
  5
F1
102
{ACAD_REACTORS
330
EF
102
}
330
EF
100
AcDbVisualStyle
  2
FlatWithEdges
 70
     1
 71
     2
 72
     1
 73
     1
 90
        2
 40
-0.6
 41
30.0
 62
     5
 63
     7
 74
     1
 91
        4
 64
     7
 65
   257
 75
     1
175
     1
 42
1.0
 92
        0
 66
   257
 43
1.0
 76
     1
 77
     6
 78
     2
 67
     7
 79
     5
170
     0
171
     0
290
     0
174
     0
 93
        1
 44
0.0
173
     0
291
     1
 45
0.0
1001
ACAD
1000
AcDbSavedByObjectVersion
1070
     0
  0
VISUALSTYLE
  5
F2
102
{ACAD_REACTORS
330
EF
102
}
330
EF
100
AcDbVisualStyle
  2
Gouraud
 70
     2
 71
     2
 72
     2
 73
     1
 90
        2
 40
-0.6
 41
30.0
 62
     5
 63
     7
 74
     0
 91
        4
 64
     7
 65
   257
 75
     1
175
     1
 42
1.0
 92
        0
 66
     7
 43
1.0
 76
     1
 77
     6
 78
     2
 67
     7
 79
     5
170
     0
171
     0
290
     0
174
     0
 93
        1
 44
0.0
173
     0
291
     1
 45
0.0
1001
ACAD
1000
AcDbSavedByObjectVersion
1070
     0
  0
VISUALSTYLE
  5
F3
102
{ACAD_REACTORS
330
EF
102
}
330
EF
100
AcDbVisualStyle
  2
GouraudWithEdges
 70
     3
 71
     2
 72
     2
 73
     1
 90
        2
 40
-0.6
 41
30.0
 62
     5
 63
     7
 74
     1
 91
        4
 64
     7
 65
   257
 75
     1
175
     1
 42
1.0
 92
        0
 66
   257
 43
1.0
 76
     1
 77
     6
 78
     2
 67
     7
 79
     5
170
     0
171
     0
290
     0
174
     0
 93
        1
 44
0.0
173
     0
291
     1
 45
0.0
1001
ACAD
1000
AcDbSavedByObjectVersion
1070
     0
  0
VISUALSTYLE
  5
FD
102
{ACAD_REACTORS
330
EF
102
}
330
EF
100
AcDbVisualStyle
  2
Linepattern
 70
    14
 71
     2
 72
     2
 73
     1
 90
        0
 40
-0.6
 41
-30.0
 62
     5
 63
     7
 74
     1
 91
        4
 64
     7
 65
   257
 75
     7
175
     7
 42
1.0
 92
        8
 66
     7
 43
1.0
 76
     1
 77
     6
 78
     2
 67
     7
 79
     5
170
     0
171
     0
290
     0
174
     0
 93
        1
 44
0.0
173
     0
291
     1
 45
0.0
1001
ACAD
1000
AcDbSavedByObjectVersion
1070
     0
  0
VISUALSTYLE
  5
F9
102
{ACAD_REACTORS
330
EF
102
}
330
EF
100
AcDbVisualStyle
  2
Realistic
 70
     8
 71
     2
 72
     2
 73
     1
 90
        0
 40
-0.6
 41
-30.0
 62
     5
 63
     7
 74
     1
 91
        0
 64
     7
 65
   257
 75
     1
175
     1
 42
1.0
 92
        8
 66
     8
 43
1.0
 76
     1
 77
     6
 78
     2
 67
     7
 79
     5
170
     0
171
     0
290
     0
174
     0
 93
       13
 44
0.0
173
     0
291
     0
 45
0.0
1001
ACAD
1000
AcDbSavedByObjectVersion
1070
     0
  0
VISUALSTYLE
  5
FC
102
{ACAD_REACTORS
330
EF
102
}
330
EF
100
AcDbVisualStyle
  2
Thicken
 70
    13
 71
     2
 72
     2
 73
     1
 90
        0
 40
-0.6
 41
-30.0
 62
     5
 63
     7
 74
     1
 91
        4
 64
     7
 65
   257
 75
     1
175
     1
 42
1.0
 92
       12
 66
     7
 43
1.0
 76
     1
 77
     6
 78
     2
 67
     7
 79
     5
170
     0
171
     0
290
     0
174
     0
 93
        1
 44
0.0
173
     0
291
     1
 45
0.0
1001
ACAD
1000
AcDbSavedByObjectVersion
1070
     0
  0
DICTIONARYVAR
  5
146
102
{ACAD_REACTORS
330
5E
102
}
330
5E
100
DictionaryVariables
280
     0
  1
1:1
  0
DICTIONARYVAR
  5
145
102
{ACAD_REACTORS
330
5E
102
}
330
5E
100
DictionaryVariables
280
     0
  1
STANDARD
  0
DICTIONARYVAR
  5
84
102
{ACAD_REACTORS
330
5E
102
}
330
5E
100
DictionaryVariables
280
     0
  1
STANDARD
  0
DICTIONARYVAR
  5
5F
102
{ACAD_REACTORS
330
5E
102
}
330
5E
100
DictionaryVariables
280
     0
  1
2
  0
DICTIONARYVAR
  5
63
102
{ACAD_REACTORS
330
5E
102
}
330
5E
100
DictionaryVariables
280
     0
  1
1
  0
DICTIONARYVAR
  5
EE6
102
{ACAD_REACTORS
330
5E
102
}
330
5E
100
DictionaryVariables
280
     0
  1
0
  0
DICTIONARYVAR
  5
EE4
102
{ACAD_REACTORS
330
5E
102
}
330
5E
100
DictionaryVariables
280
     0
  1
2
  0
DICTIONARYVAR
  5
EE3
102
{ACAD_REACTORS
330
5E
102
}
330
5E
100
DictionaryVariables
280
     0
  1
1
  0
DICTIONARYVAR
  5
EE8
102
{ACAD_REACTORS
330
5E
102
}
330
5E
100
DictionaryVariables
280
     0
  1
80.000000
  0
DICTIONARYVAR
  5
EE7
102
{ACAD_REACTORS
330
5E
102
}
330
5E
100
DictionaryVariables
280
     0
  1
5.000000
  0
DICTIONARYVAR
  5
EE5
102
{ACAD_REACTORS
330
5E
102
}
330
5E
100
DictionaryVariables
280
     0
  1
127
  0
DICTIONARY
  5
EEE
330
D3
100
AcDbDictionary
280
     1
281
     1
  3
ACAD_XREC_ROUNDTRIP
360
EEF
  0
DICTIONARY
  5
EF0
330
D7
100
AcDbDictionary
280
     1
281
     1
  3
ACAD_XREC_ROUNDTRIP
360
EF1
  0
DICTIONARY
  5
EEB
330
22
100
AcDbDictionary
280
     1
281
     1
  3
ACAD_XREC_ROUNDTRIP
360
EEC
  0
DICTIONARY
  5
EF4
330
ED
100
AcDbDictionary
280
     1
281
     1
  3
ACAD_XREC_ROUNDTRIP
360
EF5
  0
DICTIONARY
  5
EF2
330
EC
100
AcDbDictionary
280
     1
281
     1
  3
ACAD_XREC_ROUNDTRIP
360
EF3
  0
DICTIONARY
  5
173
330
EE
100
AcDbDictionary
280
     1
281
     1
  3
ACAD_XREC_ROUNDTRIP
360
EF6
  3
BUMPTILE
360
175
  3
DIFFUSETILE
360
174
  3
OPACITYTILE
360
176
  3
REFLECTIONTILE
360
177
  0
DICTIONARY
  5
162
330
7F
100
AcDbDictionary
280
     1
281
     1
  3
ACAD_ROUNDTRIP_2008_TABLESTYLE_CELLSTYLEMAP
360
EE9
  3
ACAD_XREC_ROUNDTRIP
360
EED
  0
XRECORD
  5
EEF
102
{ACAD_REACTORS
330
EEE
102
}
330
EEE
100
AcDbXrecord
280
     1
102
SHADEPLOT
 70
     0
102
SHADEPLOTRESLEVEL
 70
     2
102
SHADEPLOTCUSTOMDPI
 70
   300
  0
XRECORD
  5
EF1
102
{ACAD_REACTORS
330
EF0
102
}
330
EF0
100
AcDbXrecord
280
     1
102
SHADEPLOT
 70
     0
102
SHADEPLOTRESLEVEL
 70
     2
102
SHADEPLOTCUSTOMDPI
 70
   300
  0
XRECORD
  5
EEC
102
{ACAD_REACTORS
330
EEB
102
}
330
EEB
100
AcDbXrecord
280
     1
102
SHADEPLOT
 70
     0
102
SHADEPLOTRESLEVEL
 70
     2
102
SHADEPLOTCUSTOMDPI
 70
   300
  0
XRECORD
  5
EF5
102
{ACAD_REACTORS
330
EF4
102
}
330
EF4
100
AcDbXrecord
280
     1
102
MATERIAL
148
0.0
149
0.0
149
0.0
 93
        0
 94
       63
282
     0
 72
     1
 77
     1
171
     1
175
     1
179
     1
273
     0
  0
XRECORD
  5
EF3
102
{ACAD_REACTORS
330
EF2
102
}
330
EF2
100
AcDbXrecord
280
     1
102
MATERIAL
148
0.0
149
0.0
149
0.0
 93
        0
 94
       63
282
     0
 72
     1
 77
     1
171
     1
175
     1
179
     1
273
     0
  0
XRECORD
  5
EF6
102
{ACAD_REACTORS
330
173
102
}
330
173
100
AcDbXrecord
280
     1
102
MATERIAL
148
0.0
149
0.0
149
0.0
 93
        0
 94
       63
282
     0
 72
     1
 77
     1
171
     1
175
     1
179
     1
273
     0
  0
XRECORD
  5
175
102
{ACAD_REACTORS
330
173
102
}
330
173
100
AcDbXrecord
280
     1
270
     1
271
     1
  0
XRECORD
  5
174
102
{ACAD_REACTORS
330
173
102
}
330
173
100
AcDbXrecord
280
     1
270
     1
271
     1
  0
XRECORD
  5
176
102
{ACAD_REACTORS
330
173
102
}
330
173
100
AcDbXrecord
280
     1
270
     1
271
     1
  0
XRECORD
  5
177
102
{ACAD_REACTORS
330
173
102
}
330
173
100
AcDbXrecord
280
     1
270
     1
271
     1
  0
CELLSTYLEMAP
  5
EE9
102
{ACAD_REACTORS
330
162
102
}
330
162
100
AcDbCellStyleMap
 90
        3
300
CELLSTYLE
  1
TABLEFORMAT_BEGIN
 90
        5
170
     1
 91
        0
 92
    32768
 62
   257
 93
        1
300
CONTENTFORMAT
  1
CONTENTFORMAT_BEGIN
 90
        0
 91
        0
 92
      512
 93
        0
300

 40
0.0
140
1.0
 94
        5
 62
     0
340
11
144
6.0
309
CONTENTFORMAT_END
171
     1
301
MARGIN
  1
CELLMARGIN_BEGIN
 40
1.5
 40
1.5
 40
1.5
 40
1.5
 40
4.5
 40
4.5
309
CELLMARGIN_END
 94
        6
 95
        1
302
GRIDFORMAT
  1
GRIDFORMAT_BEGIN
 90
        0
 91
        1
 62
     0
 92
       -2
340
14
 93
        0
 40
1.125
309
GRIDFORMAT_END
 95
        2
302
GRIDFORMAT
  1
GRIDFORMAT_BEGIN
 90
        0
 91
        1
 62
     0
 92
       -2
340
14
 93
        0
 40
1.125
309
GRIDFORMAT_END
 95
        4
302
GRIDFORMAT
  1
GRIDFORMAT_BEGIN
 90
        0
 91
        1
 62
     0
 92
       -2
340
14
 93
        0
 40
1.125
309
GRIDFORMAT_END
 95
        8
302
GRIDFORMAT
  1
GRIDFORMAT_BEGIN
 90
        0
 91
        1
 62
     0
 92
       -2
340
14
 93
        0
 40
1.125
309
GRIDFORMAT_END
 95
       16
302
GRIDFORMAT
  1
GRIDFORMAT_BEGIN
 90
        0
 91
        1
 62
     0
 92
       -2
340
14
 93
        0
 40
1.125
309
GRIDFORMAT_END
 95
       32
302
GRIDFORMAT
  1
GRIDFORMAT_BEGIN
 90
        0
 91
        1
 62
     0
 92
       -2
340
14
 93
        0
 40
1.125
309
GRIDFORMAT_END
309
TABLEFORMAT_END
  1
CELLSTYLE_BEGIN
 90
        1
 91
        1
300
_TITLE
309
CELLSTYLE_END
300
CELLSTYLE
  1
TABLEFORMAT_BEGIN
 90
        5
170
     1
 91
        0
 92
        0
 62
   257
 93
        1
300
CONTENTFORMAT
  1
CONTENTFORMAT_BEGIN
 90
        0
 91
        0
 92
      512
 93
        0
300

 40
0.0
140
1.0
 94
        5
 62
     0
340
11
144
4.5
309
CONTENTFORMAT_END
171
     1
301
MARGIN
  1
CELLMARGIN_BEGIN
 40
1.5
 40
1.5
 40
1.5
 40
1.5
 40
4.5
 40
4.5
309
CELLMARGIN_END
 94
        6
 95
        1
302
GRIDFORMAT
  1
GRIDFORMAT_BEGIN
 90
        0
 91
        1
 62
     0
 92
       -2
340
14
 93
        0
 40
1.125
309
GRIDFORMAT_END
 95
        2
302
GRIDFORMAT
  1
GRIDFORMAT_BEGIN
 90
        0
 91
        1
 62
     0
 92
       -2
340
14
 93
        0
 40
1.125
309
GRIDFORMAT_END
 95
        4
302
GRIDFORMAT
  1
GRIDFORMAT_BEGIN
 90
        0
 91
        1
 62
     0
 92
       -2
340
14
 93
        0
 40
1.125
309
GRIDFORMAT_END
 95
        8
302
GRIDFORMAT
  1
GRIDFORMAT_BEGIN
 90
        0
 91
        1
 62
     0
 92
       -2
340
14
 93
        0
 40
1.125
309
GRIDFORMAT_END
 95
       16
302
GRIDFORMAT
  1
GRIDFORMAT_BEGIN
 90
        0
 91
        1
 62
     0
 92
       -2
340
14
 93
        0
 40
1.125
309
GRIDFORMAT_END
 95
       32
302
GRIDFORMAT
  1
GRIDFORMAT_BEGIN
 90
        0
 91
        1
 62
     0
 92
       -2
340
14
 93
        0
 40
1.125
309
GRIDFORMAT_END
309
TABLEFORMAT_END
  1
CELLSTYLE_BEGIN
 90
        2
 91
        1
300
_HEADER
309
CELLSTYLE_END
300
CELLSTYLE
  1
TABLEFORMAT_BEGIN
 90
        5
170
     1
 91
        0
 92
        0
 62
   257
 93
        1
300
CONTENTFORMAT
  1
CONTENTFORMAT_BEGIN
 90
        0
 91
        0
 92
      512
 93
        0
300

 40
0.0
140
1.0
 94
        2
 62
     0
340
11
144
4.5
309
CONTENTFORMAT_END
171
     1
301
MARGIN
  1
CELLMARGIN_BEGIN
 40
1.5
 40
1.5
 40
1.5
 40
1.5
 40
4.5
 40
4.5
309
CELLMARGIN_END
 94
        6
 95
        1
302
GRIDFORMAT
  1
GRIDFORMAT_BEGIN
 90
        0
 91
        1
 62
     0
 92
       -2
340
14
 93
        0
 40
1.125
309
GRIDFORMAT_END
 95
        2
302
GRIDFORMAT
  1
GRIDFORMAT_BEGIN
 90
        0
 91
        1
 62
     0
 92
       -2
340
14
 93
        0
 40
1.125
309
GRIDFORMAT_END
 95
        4
302
GRIDFORMAT
  1
GRIDFORMAT_BEGIN
 90
        0
 91
        1
 62
     0
 92
       -2
340
14
 93
        0
 40
1.125
309
GRIDFORMAT_END
 95
        8
302
GRIDFORMAT
  1
GRIDFORMAT_BEGIN
 90
        0
 91
        1
 62
     0
 92
       -2
340
14
 93
        0
 40
1.125
309
GRIDFORMAT_END
 95
       16
302
GRIDFORMAT
  1
GRIDFORMAT_BEGIN
 90
        0
 91
        1
 62
     0
 92
       -2
340
14
 93
        0
 40
1.125
309
GRIDFORMAT_END
 95
       32
302
GRIDFORMAT
  1
GRIDFORMAT_BEGIN
 90
        0
 91
        1
 62
     0
 92
       -2
340
14
 93
        0
 40
1.125
309
GRIDFORMAT_END
309
TABLEFORMAT_END
  1
CELLSTYLE_BEGIN
 90
        3
 91
        2
300
_DATA
309
CELLSTYLE_END
  0
XRECORD
  5
EED
102
{ACAD_REACTORS
330
162
102
}
330
162
100
AcDbXrecord
280
     1
102
ACAD_ROUNDTRIP_PRE2007_TABLESTYLE
 90
      512
 91
        0
  1

 92
      512
 93
        0
  2

 94
      512
 95
        0
  3

  0
ENDSEC
  0
EOF
