  0
SECTION
  2
HEADER
  9
$ACADVER
  1
AC1015
  9
$ACADMAINTVER
 70
    20
  9
$DWGCODEPAGE
  3
ANSI_1254
  9
$INSBASE
 10
0.0
 20
0.0
 30
0.0
  9
$EXTMIN
 10
35.19973910897551
 20
-5.102805827503622
 30
0.0
  9
$EXTMAX
 10
281.3558299539671
 20
261.2753221413133
 30
0.0
  9
$LIMMIN
 10
0.0
 20
0.0
  9
$LIMMAX
 10
431.7999999999999
 20
279.4
  9
$ORTHOMODE
 70
     1
  9
$REGENMODE
 70
     1
  9
$FILLMODE
 70
     1
  9
$QTEXTMODE
 70
     0
  9
$MIRRTEXT
 70
     1
  9
$LTSCALE
 40
1.0
  9
$ATTMODE
 70
     1
  9
$TEXTSIZE
 40
2.5
  9
$TRACEWID
 40
1.0
  9
$TEXTSTYLE
  7
Standard
  9
$CLAYER
  8
0
  9
$CELTYPE
  6
ByLayer
  9
$CECOLOR
 62
   256
  9
$CELTSCALE
 40
1.0
  9
$DISPSILH
 70
     0
  9
$DIMSCALE
 40
1.0
  9
$DIMASZ
 40
6.0
  9
$DIMEXO
 40
1.0
  9
$DIMDLI
 40
3.75
  9
$DIMRND
 40
0.0
  9
$DIMDLE
 40
0.0
  9
$DIMEXE
 40
1.0
  9
$DIMTP
 40
0.0
  9
$DIMTM
 40
0.0
  9
$DIMTXT
 40
3.5
  9
$DIMCEN
 40
2.5
  9
$DIMTSZ
 40
0.0
  9
$DIMTOL
 70
     0
  9
$DIMLIM
 70
     0
  9
$DIMTIH
 70
     1
  9
$DIMTOH
 70
     1
  9
$DIMSE1
 70
     0
  9
$DIMSE2
 70
     0
  9
$DIMTAD
 70
     1
  9
$DIMZIN
 70
     0
  9
$DIMBLK
  1

  9
$DIMASO
 70
     1
  9
$DIMSHO
 70
     1
  9
$DIMPOST
  1

  9
$DIMAPOST
  1

  9
$DIMALT
 70
     0
  9
$DIMALTD
 70
     3
  9
$DIMALTF
 40
0.0393700787401575
  9
$DIMLFAC
 40
1.0
  9
$DIMTOFL
 70
     1
  9
$DIMTVP
 40
0.0
  9
$DIMTIX
 70
     0
  9
$DIMSOXD
 70
     0
  9
$DIMSAH
 70
     0
  9
$DIMBLK1
  1

  9
$DIMBLK2
  1

  9
$DIMSTYLE
  2
ISO-25
  9
$DIMCLRD
 70
     0
  9
$DIMCLRE
 70
     0
  9
$DIMCLRT
 70
     0
  9
$DIMTFAC
 40
1.0
  9
$DIMGAP
 40
1.524
  9
$DIMJUST
 70
     0
  9
$DIMSD1
 70
     0
  9
$DIMSD2
 70
     0
  9
$DIMTOLJ
 70
     0
  9
$DIMTZIN
 70
     0
  9
$DIMALTZ
 70
     0
  9
$DIMALTTZ
 70
     0
  9
$DIMUPT
 70
     0
  9
$DIMDEC
 70
     3
  9
$DIMTDEC
 70
     3
  9
$DIMALTU
 70
     2
  9
$DIMALTTD
 70
     3
  9
$DIMTXSTY
  7
Standard
  9
$DIMAUNIT
 70
     0
  9
$DIMADEC
 70
     2
  9
$DIMALTRND
 40
0.0
  9
$DIMAZIN
 70
     0
  9
$DIMDSEP
 70
    44
  9
$DIMATFIT
 70
     3
  9
$DIMFRAC
 70
     0
  9
$DIMLDRBLK
  1

  9
$DIMLUNIT
 70
     2
  9
$DIMLWD
 70
    -2
  9
$DIMLWE
 70
    -2
  9
$DIMTMOVE
 70
     0
  9
$LUNITS
 70
     2
  9
$LUPREC
 70
     2
  9
$SKETCHINC
 40
1.0
  9
$FILLETRAD
 40
10.0
  9
$AUNITS
 70
     0
  9
$AUPREC
 70
     2
  9
$MENU
  1
.
  9
$ELEVATION
 40
0.0
  9
$PELEVATION
 40
0.0
  9
$THICKNESS
 40
0.0
  9
$LIMCHECK
 70
     0
  9
$CHAMFERA
 40
10.0
  9
$CHAMFERB
 40
10.0
  9
$CHAMFERC
 40
20.0
  9
$CHAMFERD
 40
0.0
  9
$SKPOLY
 70
     0
  9
$TDCREATE
 40
2459747.698492281
  9
$TDUCREATE
 40
2459747.573492280
  9
$TDUPDATE
 40
2459747.702078993
  9
$TDUUPDATE
 40
2459747.577078993
  9
$TDINDWG
 40
0.0018776968
  9
$TDUSRTIMER
 40
0.0018776968
  9
$USRTIMER
 70
     1
  9
$ANGBASE
 50
0.0
  9
$ANGDIR
 70
     0
  9
$PDMODE
 70
     0
  9
$PDSIZE
 40
-1.0
  9
$PLINEWID
 40
0.0
  9
$SPLFRAME
 70
     0
  9
$SPLINETYPE
 70
     6
  9
$SPLINESEGS
 70
     8
  9
$HANDSEED
  5
752
  9
$SURFTAB1
 70
     6
  9
$SURFTAB2
 70
     6
  9
$SURFTYPE
 70
     6
  9
$SURFU
 70
     6
  9
$SURFV
 70
     6
  9
$UCSBASE
  2

  9
$UCSNAME
  2

  9
$UCSORG
 10
0.0
 20
0.0
 30
0.0
  9
$UCSXDIR
 10
1.0
 20
0.0
 30
0.0
  9
$UCSYDIR
 10
0.0
 20
1.0
 30
0.0
  9
$UCSORTHOREF
  2

  9
$UCSORTHOVIEW
 70
     0
  9
$UCSORGTOP
 10
0.0
 20
0.0
 30
0.0
  9
$UCSORGBOTTOM
 10
0.0
 20
0.0
 30
0.0
  9
$UCSORGLEFT
 10
0.0
 20
0.0
 30
0.0
  9
$UCSORGRIGHT
 10
0.0
 20
0.0
 30
0.0
  9
$UCSORGFRONT
 10
0.0
 20
0.0
 30
0.0
  9
$UCSORGBACK
 10
0.0
 20
0.0
 30
0.0
  9
$PUCSBASE
  2

  9
$PUCSNAME
  2

  9
$PUCSORG
 10
0.0
 20
0.0
 30
0.0
  9
$PUCSXDIR
 10
1.0
 20
0.0
 30
0.0
  9
$PUCSYDIR
 10
0.0
 20
1.0
 30
0.0
  9
$PUCSORTHOREF
  2

  9
$PUCSORTHOVIEW
 70
     0
  9
$PUCSORGTOP
 10
0.0
 20
0.0
 30
0.0
  9
$PUCSORGBOTTOM
 10
0.0
 20
0.0
 30
0.0
  9
$PUCSORGLEFT
 10
0.0
 20
0.0
 30
0.0
  9
$PUCSORGRIGHT
 10
0.0
 20
0.0
 30
0.0
  9
$PUCSORGFRONT
 10
0.0
 20
0.0
 30
0.0
  9
$PUCSORGBACK
 10
0.0
 20
0.0
 30
0.0
  9
$USERI1
 70
     0
  9
$USERI2
 70
     0
  9
$USERI3
 70
     0
  9
$USERI4
 70
     0
  9
$USERI5
 70
     0
  9
$USERR1
 40
0.0
  9
$USERR2
 40
0.0
  9
$USERR3
 40
0.0
  9
$USERR4
 40
0.0
  9
$USERR5
 40
0.0
  9
$WORLDVIEW
 70
     1
  9
$SHADEDGE
 70
     3
  9
$SHADEDIF
 70
    70
  9
$TILEMODE
 70
     1
  9
$MAXACTVP
 70
    64
  9
$PINSBASE
 10
0.0
 20
0.0
 30
0.0
  9
$PLIMCHECK
 70
     0
  9
$PEXTMIN
 10
1.000000000000000E+20
 20
1.000000000000000E+20
 30
1.000000000000000E+20
  9
$PEXTMAX
 10
-1.000000000000000E+20
 20
-1.000000000000000E+20
 30
-1.000000000000000E+20
  9
$PLIMMIN
 10
0.0
 20
0.0
  9
$PLIMMAX
 10
420.0
 20
297.0
  9
$UNITMODE
 70
     0
  9
$VISRETAIN
 70
     1
  9
$PLINEGEN
 70
     0
  9
$PSLTSCALE
 70
     1
  9
$TREEDEPTH
 70
  3020
  9
$CMLSTYLE
  2
Standard
  9
$CMLJUST
 70
     0
  9
$CMLSCALE
 40
20.0
  9
$PROXYGRAPHICS
 70
     1
  9
$MEASUREMENT
 70
     1
  9
$CELWEIGHT
370
    -1
  9
$ENDCAPS
280
     0
  9
$JOINSTYLE
280
     0
  9
$LWDISPLAY
290
     1
  9
$INSUNITS
 70
     4
  9
$HYPERLINKBASE
  1

  9
$STYLESHEET
  1

  9
$XEDIT
290
     1
  9
$CEPSNTYPE
380
     0
  9
$PSTYLEMODE
290
     1
  9
$FINGERPRINTGUID
  2
{FC0D6C3D-8B92-44F1-9DA5-574549EC741F}
  9
$VERSIONGUID
  2
{DEF9E9BD-7E37-4899-B88B-99CA54EECDCE}
  9
$EXTNAMES
290
     1
  9
$PSVPSCALE
 40
0.0
  9
$OLESTARTUP
290
     0
  0
ENDSEC
  0
SECTION
  2
CLASSES
  0
CLASS
  1
ACDBDICTIONARYWDFLT
  2
AcDbDictionaryWithDefault
  3
ObjectDBX Classes
 90
        0
280
     0
281
     0
  0
CLASS
  1
VISUALSTYLE
  2
AcDbVisualStyle
  3
ObjectDBX Classes
 90
     4095
280
     0
281
     0
  0
CLASS
  1
MATERIAL
  2
AcDbMaterial
  3
ObjectDBX Classes
 90
     1153
280
     0
281
     0
  0
CLASS
  1
ACDBPLACEHOLDER
  2
AcDbPlaceHolder
  3
ObjectDBX Classes
 90
        0
280
     0
281
     0
  0
CLASS
  1
LAYOUT
  2
AcDbLayout
  3
ObjectDBX Classes
 90
        0
280
     0
281
     0
  0
CLASS
  1
TABLESTYLE
  2
AcDbTableStyle
  3
ObjectDBX Classes
 90
     4095
280
     0
281
     0
  0
CLASS
  1
SCALE
  2
AcDbScale
  3
ObjectDBX Classes
 90
     1153
280
     0
281
     0
  0
CLASS
  1
MLEADERSTYLE
  2
AcDbMLeaderStyle
  3
ACDB_MLEADERSTYLE_CLASS
 90
     4095
280
     0
281
     0
  0
CLASS
  1
EXACXREFPANELOBJECT
  2
ExAcXREFPanelObject
  3
EXAC_ESW
 90
     1025
280
     0
281
     0
  0
CLASS
  1
NPOCOLLECTION
  2
AcDbImpNonPersistentObjectsCollection
  3
ObjectDBX Classes
 90
     1153
280
     0
281
     0
  0
CLASS
  1
DICTIONARYVAR
  2
AcDbDictionaryVar
  3
ObjectDBX Classes
 90
        0
280
     0
281
     0
  0
CLASS
  1
CELLSTYLEMAP
  2
AcDbCellStyleMap
  3
ObjectDBX Classes
 90
     1152
280
     0
281
     0
  0
ENDSEC
  0
SECTION
  2
TABLES
  0
TABLE
  2
VPORT
  5
8
330
0
100
AcDbSymbolTable
 70
     1
  0
VPORT
  5
29
330
8
100
AcDbSymbolTableRecord
100
AcDbViewportTableRecord
  2
*Active
 70
     0
 10
0.0
 20
0.0
 11
1.0
 21
1.0
 12
231.1690657901704
 22
148.8565502673915
 13
0.0
 23
0.0
 14
10.0
 24
10.0
 15
10.0
 25
10.0
 16
0.0
 26
0.0
 36
1.0
 17
0.0
 27
0.0
 37
0.0
 40
270.0890589473677
 41
2.208133971291866
 42
50.0
 43
0.0
 44
0.0
 50
0.0
 51
0.0
 71
     0
 72
  2000
 73
     1
 74
     3
 75
     0
 76
     0
 77
     0
 78
     0
281
     0
 65
     1
110
0.0
120
0.0
130
0.0
111
1.0
121
0.0
131
0.0
112
0.0
122
1.0
132
0.0
 79
     0
146
0.0
  0
ENDTAB
  0
TABLE
  2
LTYPE
  5
5
330
0
100
AcDbSymbolTable
 70
     6
  0
LTYPE
  5
14
330
5
100
AcDbSymbolTableRecord
100
AcDbLinetypeTableRecord
  2
ByBlock
 70
     0
  3

 72
    65
 73
     0
 40
0.0
  0
LTYPE
  5
15
330
5
100
AcDbSymbolTableRecord
100
AcDbLinetypeTableRecord
  2
ByLayer
 70
     0
  3

 72
    65
 73
     0
 40
0.0
  0
LTYPE
  5
16
330
5
100
AcDbSymbolTableRecord
100
AcDbLinetypeTableRecord
  2
Continuous
 70
     0
  3
Solid line
 72
    65
 73
     0
 40
0.0
  0
LTYPE
  5
3F
330
5
100
AcDbSymbolTableRecord
100
AcDbLinetypeTableRecord
  2
HIDDEN
 70
     0
  3
Hidden __ __ __ __ __ __ __ __ __ __ __ __ __ __
 72
    65
 73
     2
 40
1.905
 49
1.27
 74
     0
 49
-0.635
 74
     0
  0
LTYPE
  5
40
330
5
100
AcDbSymbolTableRecord
100
AcDbLinetypeTableRecord
  2
PHANTOM
 70
     0
  3
Phantom ______  __  __  ______  __  __  ______
 72
    65
 73
     6
 40
12.7
 49
6.349999999999999
 74
     0
 49
-1.27
 74
     0
 49
1.27
 74
     0
 49
-1.27
 74
     0
 49
1.27
 74
     0
 49
-1.27
 74
     0
  0
LTYPE
  5
41
330
5
100
AcDbSymbolTableRecord
100
AcDbLinetypeTableRecord
  2
CENTER
 70
     0
  3
Center ____ _ ____ _ ____ _ ____ _ ____ _ ____
 72
    65
 73
     4
 40
10.16
 49
6.349999999999999
 74
     0
 49
-1.27
 74
     0
 49
1.27
 74
     0
 49
-1.27
 74
     0
  0
LTYPE
  5
42
330
5
100
AcDbSymbolTableRecord
100
AcDbLinetypeTableRecord
  2
CENTERX2
 70
     0
  3
Center (2x) ________  __  ________  __  _____
 72
    65
 73
     4
 40
20.32
 49
12.7
 74
     0
 49
-2.54
 74
     0
 49
2.54
 74
     0
 49
-2.54
 74
     0
  0
LTYPE
  5
43
330
5
100
AcDbSymbolTableRecord
100
AcDbLinetypeTableRecord
  2
DOT2
 70
     0
  3
Dot (.5x) ........................................
 72
    65
 73
     2
 40
0.635
 49
0.0
 74
     0
 49
-0.635
 74
     0
  0
ENDTAB
  0
TABLE
  2
LAYER
  5
2
330
0
100
AcDbSymbolTable
 70
     1
  0
LAYER
  5
10
102
{ACAD_XDICTIONARY
360
72D
102
}
330
2
100
AcDbSymbolTableRecord
100
AcDbLayerTableRecord
  2
0
 70
     0
 62
     7
  6
Continuous
370
    -3
390
F
  0
ENDTAB
  0
TABLE
  2
STYLE
  5
3
330
0
100
AcDbSymbolTable
 70
     1
  0
STYLE
  5
11
330
3
100
AcDbSymbolTableRecord
100
AcDbTextStyleTableRecord
  2
Standard
 70
     0
 40
0.0
 41
1.0
 50
0.0
 71
     0
 42
2.5
  3
txt
  4

  0
ENDTAB
  0
TABLE
  2
VIEW
  5
6
330
0
100
AcDbSymbolTable
 70
     0
  0
ENDTAB
  0
TABLE
  2
UCS
  5
7
330
0
100
AcDbSymbolTable
 70
     0
  0
ENDTAB
  0
TABLE
  2
APPID
  5
9
330
0
100
AcDbSymbolTable
 70
     2
  0
APPID
  5
12
330
9
100
AcDbSymbolTableRecord
100
AcDbRegAppTableRecord
  2
ACAD
 70
     0
  0
APPID
  5
728
330
9
100
AcDbSymbolTableRecord
100
AcDbRegAppTableRecord
  2
ACAD_MLEADERVER
 70
     0
  0
ENDTAB
  0
TABLE
  2
DIMSTYLE
  5
A
330
0
100
AcDbSymbolTable
 70
     1
100
AcDbDimStyleTable
 71
     0
  0
DIMSTYLE
105
27
330
A
100
AcDbSymbolTableRecord
100
AcDbDimStyleTableRecord
  2
ISO-25
 70
     0
 41
2.5
 42
0.625
 43
3.75
 44
1.25
 73
     0
 74
     0
 77
     1
 78
     8
140
2.5
141
2.5
143
0.03937007874016
147
0.625
171
     3
172
     1
271
     2
272
     2
274
     3
278
    44
283
     0
284
     8
340
11
  0
ENDTAB
  0
TABLE
  2
BLOCK_RECORD
  5
1
330
0
100
AcDbSymbolTable
 70
     1
  0
BLOCK_RECORD
  5
1F
330
1
100
AcDbSymbolTableRecord
100
AcDbBlockTableRecord
  2
*Model_Space
340
22
  0
BLOCK_RECORD
  5
1B
330
1
100
AcDbSymbolTableRecord
100
AcDbBlockTableRecord
  2
*Paper_Space
340
1E
  0
BLOCK_RECORD
  5
23
330
1
100
AcDbSymbolTableRecord
100
AcDbBlockTableRecord
  2
*Paper_Space0
340
26
  0
ENDTAB
  0
ENDSEC
  0
SECTION
  2
BLOCKS
  0
BLOCK
  5
20
330
1F
100
AcDbEntity
  8
0
100
AcDbBlockBegin
  2
*Model_Space
 70
     0
 10
0.0
 20
0.0
 30
0.0
  3
*Model_Space
  1

  0
ENDBLK
  5
21
330
1F
100
AcDbEntity
  8
0
100
AcDbBlockEnd
  0
BLOCK
  5
1C
330
1B
100
AcDbEntity
 67
     1
  8
0
100
AcDbBlockBegin
  2
*Paper_Space
 70
     0
 10
0.0
 20
0.0
 30
0.0
  3
*Paper_Space
  1

  0
ENDBLK
  5
1D
330
1B
100
AcDbEntity
 67
     1
  8
0
100
AcDbBlockEnd
  0
BLOCK
  5
24
330
23
100
AcDbEntity
 67
     1
  8
0
100
AcDbBlockBegin
  2
*Paper_Space0
 70
     0
 10
0.0
 20
0.0
 30
0.0
  3
*Paper_Space0
  1

  0
ENDBLK
  5
25
330
23
100
AcDbEntity
 67
     1
  8
0
100
AcDbBlockEnd
  0
ENDSEC
  0
SECTION
  2
ENTITIES
  0
ARC
  5
44
330
1F
100
AcDbEntity
  8
0
  6
Continuous
 62
     7
370
    15
100
AcDbCircle
 10
173.5019889444525
 20
155.0773412352437
 30
0.0
 40
0.4999999904009656
100
AcDbArc
 50
181.5000000000945
 51
270.0000000000008
  0
ARC
  5
45
330
1F
100
AcDbEntity
  8
0
  6
Continuous
 62
     7
370
    15
100
AcDbCircle
 10
163.9230749847202
 20
155.0773412352439
 30
0.0
 40
0.4999999904009656
100
AcDbArc
 50
269.9999999999976
 51
358.4999999998811
  0
ARC
  5
46
330
1F
100
AcDbEntity
  8
0
  6
Continuous
 62
     7
370
    15
100
AcDbCircle
 10
152.1020211557688
 20
155.0773412352438
 30
0.0
 40
0.4999999904009656
100
AcDbArc
 50
181.4999999998632
 51
270.0000000000008
  0
ARC
  5
47
330
1F
100
AcDbEntity
  8
0
  6
Continuous
 62
     7
370
    15
100
AcDbCircle
 10
142.5231071960366
 20
155.0773412352438
 30
0.0
 40
0.4999999904009656
100
AcDbArc
 50
270.0000000000008
 51
358.5000000001384
  0
LINE
  5
48
330
1F
100
AcDbEntity
  8
0
  6
Continuous
 62
     7
370
    15
100
AcDbLine
 10
151.6021920419342
 20
155.0642552971109
 30
0.0
 11
151.6021920419342
 21
156.5773341058954
 31
0.0
  0
LINE
  5
49
330
1F
100
AcDbEntity
  8
0
  6
Continuous
 62
     7
370
    15
100
AcDbLine
 10
143.0229341662533
 20
156.5773341058954
 30
0.0
 11
143.0229341662533
 21
155.0642552971109
 31
0.0
  0
LINE
  5
4A
330
1F
100
AcDbEntity
  8
0
  6
Continuous
 62
     7
370
    15
100
AcDbLine
 10
173.002163139642
 20
155.0642552971109
 30
0.0
 11
173.002163139642
 21
156.5773341058954
 31
0.0
  0
LINE
  5
4B
330
1F
100
AcDbEntity
  8
0
  6
Continuous
 62
     7
370
    15
100
AcDbLine
 10
164.4229052639611
 20
156.5773341058954
 30
0.0
 11
164.4229052639611
 21
155.0642552971109
 31
0.0
  0
ARC
  5
4C
330
1F
100
AcDbEntity
  8
0
  6
Continuous
 62
     7
370
    15
100
AcDbCircle
 10
164.1602754619492
 20
101.8255010432749
 30
0.0
 40
5.0000000000002
100
AcDbArc
 50
103.9671903743963
 51
135.0000000000092
  0
LINE
  5
4D
330
1F
100
AcDbEntity
  8
0
  6
Continuous
 62
     7
370
    15
100
AcDbLine
 10
159.8820967650974
 20
104.6184006332619
 30
0.0
 11
160.6247408366764
 21
105.3610447048409
 31
0.0
  0
ARC
  5
4E
330
1F
100
AcDbEntity
  8
0
  6
Continuous
 62
     7
370
    15
100
AcDbCircle
 10
159.1749890213156
 20
105.3254959768799
 30
0.0
 40
0.9999999999999678
100
AcDbArc
 50
269.9999999999894
 51
315.0000000000146
  0
LINE
  5
4F
330
1F
100
AcDbEntity
  8
0
  6
Continuous
 62
     7
370
    15
100
AcDbLine
 10
156.3778763688171
 20
104.3255034088356
 30
0.0
 11
159.1749882376754
 21
104.3255034088356
 31
0.0
  0
ARC
  5
50
330
1F
100
AcDbEntity
  8
0
  6
Continuous
 62
     7
370
    15
100
AcDbCircle
 10
156.377876890465
 20
105.3254959768801
 30
0.0
 40
0.9999999999999754
100
AcDbArc
 50
210.0000032316442
 51
269.9999999999976
  0
LINE
  5
51
330
1F
100
AcDbEntity
  8
0
  6
Continuous
 62
     7
370
    15
100
AcDbLine
 10
155.0737304664218
 20
105.5843535064919
 30
0.0
 11
155.5118506825531
 21
104.825496971534
 31
0.0
  0
ARC
  5
52
330
1F
100
AcDbEntity
  8
0
  6
Continuous
 62
     7
370
    15
100
AcDbCircle
 10
155.2469360687243
 20
105.6843428416434
 30
0.0
 40
0.2000000000000618
100
AcDbArc
 50
120.0001060250734
 51
210.000003231664
  0
LINE
  5
53
330
1F
100
AcDbEntity
  8
0
  6
Continuous
 62
     7
370
    15
100
AcDbLine
 10
156.012961832341
 20
106.3575449585182
 30
0.0
 11
155.1469361460769
 21
105.8575513958199
 31
0.0
  0
LINE
  5
54
330
1F
100
AcDbEntity
  8
0
  6
Continuous
 62
     7
370
    15
100
AcDbLine
 10
155.8281390047634
 20
106.6776815056069
 30
0.0
 11
156.012961832341
 21
106.3575449585182
 31
0.0
  0
LINE
  5
55
330
1F
100
AcDbEntity
  8
0
  6
Continuous
 62
     7
370
    15
100
AcDbLine
 10
139.7129615820015
 20
106.5880659221871
 30
0.0
 11
140.7034305906856
 21
106.6747012733681
 31
0.0
  0
LINE
  5
56
330
1F
100
AcDbEntity
  8
0
  6
Continuous
 62
     7
370
    15
100
AcDbLine
 10
139.7129615820015
 20
105.3372326492531
 30
0.0
 11
139.7129615820015
 21
106.5880659221871
 31
0.0
  0
LINE
  5
57
330
1F
100
AcDbEntity
  8
0
  6
Continuous
 62
     7
370
    15
100
AcDbLine
 10
141.4809135771358
 20
105.0255003570778
 30
0.0
 11
139.7129615820015
 21
105.3372326492531
 31
0.0
  0
LINE
  5
58
330
1F
100
AcDbEntity
  8
0
  6
Continuous
 62
     7
370
    15
100
AcDbLine
 10
142.212962923106
 20
104.6028438209755
 30
0.0
 11
141.4809135771358
 21
105.0255003570778
 31
0.0
  0
ARC
  5
59
330
1F
100
AcDbEntity
  8
0
  6
Continuous
 62
     7
370
    15
100
AcDbCircle
 10
141.7129630234512
 20
103.7368254642282
 30
0.0
 40
1.000000000000203
100
AcDbArc
 50
4.436275244332184
 51
60.00000899400536
  0
ARC
  5
5A
330
1F
100
AcDbEntity
  8
0
  6
Continuous
 62
     7
370
    15
100
AcDbCircle
 10
141.7129630234512
 20
103.8915260026073
 30
0.0
 40
1.000000000000025
100
AcDbArc
 50
299.9999924954848
 51
355.5637247557563
  0
LINE
  5
5B
330
1F
100
AcDbEntity
  8
0
  6
Continuous
 62
     7
370
    15
100
AcDbLine
 10
141.0216039097869
 20
102.3376587032539
 30
0.0
 11
142.212962923106
 21
103.025496303962
 31
0.0
  0
ARC
  5
5C
330
1F
100
AcDbEntity
  8
0
  6
Continuous
 62
     7
370
    15
100
AcDbCircle
 10
140.5216045906115
 20
103.2036953068189
 30
0.0
 40
1.000000000000062
100
AcDbArc
 50
269.9999999999829
 51
299.9999849909778
  0
LINE
  5
5D
330
1F
100
AcDbEntity
  8
0
  6
Continuous
 62
     7
370
    15
100
AcDbLine
 10
139.2140893316829
 20
102.2036972641213
 30
0.0
 11
140.521602896508
 21
102.2036972641213
 31
0.0
  0
LINE
  5
5E
330
1F
100
AcDbEntity
  8
0
  6
Continuous
 62
     7
370
    15
100
AcDbLine
 10
136.1214743978345
 20
101.7037037014229
 30
0.0
 11
136.1557750082576
 21
101.7066541313393
 31
0.0
  0
LINE
  5
5F
330
1F
100
AcDbEntity
  8
0
  6
Continuous
 62
     7
370
    15
100
AcDbLine
 10
133.8129343516195
 20
101.7037037014229
 30
0.0
 11
136.1214743978345
 21
101.7037037014229
 31
0.0
  0
LINE
  5
60
330
1F
100
AcDbEntity
  8
0
  6
Continuous
 62
     7
370
    15
100
AcDbLine
 10
133.7708720988596
 20
101.7066541313393
 30
0.0
 11
133.8129343516195
 21
101.7037037014229
 31
0.0
  0
ARC
  5
61
330
1F
100
AcDbEntity
  8
0
  6
Continuous
 62
     7
370
    15
100
AcDbCircle
 10
132.8092018806767
 20
144.4282214605279
 30
0.0
 40
0.2499999952007931
100
AcDbArc
 50
359.9950796143563
 51
150.0003093167786
  0
LINE
  5
62
330
1F
100
AcDbEntity
  8
0
  6
Continuous
 62
     7
370
    15
100
AcDbLine
 10
133.0591851896587
 20
144.2261043190223
 30
0.0
 11
133.059201953465
 21
144.4281938671333
 31
0.0
  0
LINE
  5
63
330
1F
100
AcDbEntity
  8
0
  6
Continuous
 62
     7
370
    15
100
AcDbLine
 10
133.4923209673706
 20
143.9760330318672
 30
0.0
 11
133.0591851896587
 21
144.2261043190223
 31
0.0
  0
ARC
  5
64
330
1F
100
AcDbEntity
  8
0
  6
Continuous
 62
     7
370
    15
100
AcDbCircle
 10
133.5673202946021
 20
144.1059316958404
 30
0.0
 40
0.1499981648866548
100
AcDbArc
 50
239.9999502161478
 51
315.0011052456249
  0
LINE
  5
65
330
1F
100
AcDbEntity
  8
0
  6
Continuous
 62
     7
370
    15
100
AcDbLine
 10
134.170340565497
 20
144.4968733190757
 30
0.0
 11
133.6733868396821
 21
143.9998748897773
 31
0.0
  0
ARC
  5
66
330
1F
100
AcDbEntity
  8
0
  6
Continuous
 62
     7
370
    15
100
AcDbCircle
 10
128.8670389799769
 20
149.8001765990917
 30
0.0
 40
7.499999173361475
100
AcDbArc
 50
315.0000089724215
 51
329.9999999989058
  0
LINE
  5
67
330
1F
100
AcDbEntity
  8
0
  6
Continuous
 62
     7
370
    15
100
AcDbLine
 10
135.6440225667301
 20
146.5383622049552
 30
0.0
 11
135.3622285700384
 21
146.0501703619224
 31
0.0
  0
LINE
  5
68
330
1F
100
AcDbEntity
  8
0
  6
Continuous
 62
     7
370
    15
100
AcDbLine
 10
136.540876892859
 20
146.0715237259132
 30
0.0
 11
135.6440225667301
 21
146.5383622049552
 31
0.0
  0
LINE
  5
69
330
1F
100
AcDbEntity
  8
0
  6
Continuous
 62
     7
370
    15
100
AcDbLine
 10
136.4170761830154
 20
145.8570960163337
 30
0.0
 11
136.540876892859
 21
146.0715237259132
 31
0.0
  0
ARC
  5
6A
330
1F
100
AcDbEntity
  8
0
  6
Continuous
 62
     7
370
    15
100
AcDbCircle
 10
136.5469801625541
 20
145.7820919108518
 30
0.0
 40
0.149999997124151
100
AcDbArc
 50
149.9997666508584
 51
239.9994495595331
  0
LINE
  5
6B
330
1F
100
AcDbEntity
  8
0
  6
Continuous
 62
     7
370
    15
100
AcDbLine
 10
136.5571433729473
 20
145.6030163168174
 30
0.0
 11
136.4719795114341
 21
145.6521901487571
 31
0.0
  0
ARC
  5
6C
330
1F
100
AcDbEntity
  8
0
  6
Continuous
 62
     7
370
    15
100
AcDbCircle
 10
136.6321433328202
 20
145.7329233698318
 30
0.0
 40
0.1499999971201642
100
AcDbArc
 50
240.0000953962426
 51
344.0014370617005
  0
ARC
  5
6D
330
1F
100
AcDbEntity
  8
0
  6
Continuous
 62
     7
370
    15
100
AcDbCircle
 10
146.3890195279683
 20
142.9354489808703
 30
0.0
 40
9.999999808019829
100
AcDbArc
 50
135.9977325997334
 51
164.0014370799847
  0
ARC
  5
6E
330
1F
100
AcDbEntity
  8
0
  6
Continuous
 62
     7
370
    15
100
AcDbCircle
 10
139.0879997253326
 20
149.9865202389034
 30
0.0
 40
0.1499999971200587
100
AcDbArc
 50
315.997732559237
 51
59.99949489968131
  0
LINE
  5
6F
330
1F
100
AcDbEntity
  8
0
  6
Continuous
 62
     7
370
    15
100
AcDbLine
 10
139.0778331137243
 20
150.1655879616004
 30
0.0
 11
139.1630007005277
 21
150.1164290308219
 31
0.0
  0
ARC
  5
70
330
1F
100
AcDbEntity
  8
0
  6
Continuous
 62
     7
370
    15
100
AcDbCircle
 10
139.0028347457614
 20
150.035690041044
 30
0.0
 40
0.1499999971209494
100
AcDbArc
 50
60.00011192388535
 51
150.0049306980395
  0
LINE
  5
71
330
1F
100
AcDbEntity
  8
0
  6
Continuous
 62
     7
370
    15
100
AcDbLine
 10
138.7492587841096
 20
149.8964431881172
 30
0.0
 11
138.8729235208574
 21
150.1106771826011
 31
0.0
  0
LINE
  5
72
330
1F
100
AcDbEntity
  8
0
  6
Continuous
 62
     7
370
    15
100
AcDbLine
 10
137.8965323842111
 20
150.4397097229225
 30
0.0
 11
138.7492587841096
 21
149.8964431881172
 31
0.0
  0
LINE
  5
73
330
1F
100
AcDbEntity
  8
0
  6
Continuous
 62
     7
370
    15
100
AcDbLine
 10
138.1811445630136
 20
150.9326848386985
 30
0.0
 11
137.8965323842111
 21
150.4397097229225
 31
0.0
  0
ARC
  5
74
330
1F
100
AcDbEntity
  8
0
  6
Continuous
 62
     7
370
    15
100
AcDbCircle
 10
131.6858497081606
 20
154.6824968991711
 30
0.0
 40
7.499998654293924
100
AcDbArc
 50
330.0016173776687
 51
345.0016700271028
  0
LINE
  5
75
330
1F
100
AcDbEntity
  8
0
  6
Continuous
 62
     7
370
    15
100
AcDbLine
 10
139.1107907569948
 20
153.4148755668861
 30
0.0
 11
138.9303488708082
 21
152.7415665983421
 31
0.0
  0
ARC
  5
76
330
1F
100
AcDbEntity
  8
0
  6
Continuous
 62
     7
370
    15
100
AcDbCircle
 10
138.9659001971609
 20
153.4537019010453
 30
0.0
 40
0.1500016585216195
100
AcDbArc
 50
344.9985072568078
 51
60.00054603038664
  0
LINE
  5
77
330
1F
100
AcDbEntity
  8
0
  6
Continuous
 62
     7
370
    15
100
AcDbLine
 10
138.6064944840017
 20
153.8344326614601
 30
0.0
 11
139.0409005857053
 21
153.583601415084
 31
0.0
  0
LINE
  5
78
330
1F
100
AcDbEntity
  8
0
  6
Continuous
 62
     7
370
    15
100
AcDbLine
 10
138.431469169909
 20
153.7333580850822
 30
0.0
 11
138.6064944840017
 21
153.8344326614601
 31
0.0
  0
ARC
  5
79
330
1F
100
AcDbEntity
  8
0
  6
Continuous
 62
     7
370
    15
100
AcDbCircle
 10
138.3064449118398
 20
153.9498443957226
 30
0.0
 40
0.249999995205579
100
AcDbArc
 50
150.000309316762
 51
300.0059762674309
  0
LINE
  5
7A
330
1F
100
AcDbEntity
  8
0
  6
Continuous
 62
     7
370
    15
100
AcDbLine
 10
138.2357163405958
 20
154.3273332714302
 30
0.0
 11
138.0899382806364
 21
154.0748479961616
 31
0.0
  0
ARC
  5
7B
330
1F
100
AcDbEntity
  8
0
  6
Continuous
 62
     7
370
    15
100
AcDbCircle
 10
138.6687285692006
 20
154.0773412544409
 30
0.0
 40
0.4999999904014203
100
AcDbArc
 50
90.00000001541158
 51
150.0003093074488
  0
LINE
  5
7C
330
1F
100
AcDbEntity
  8
0
  6
Continuous
 62
     7
370
    15
100
AcDbLine
 10
153.0625654435697
 20
154.5773449539405
 30
0.0
 11
138.6687291837278
 21
154.5773449539405
 31
0.0
  0
ARC
  5
7D
330
1F
100
AcDbEntity
  8
0
  6
Continuous
 62
     7
370
    15
100
AcDbCircle
 10
153.0625649346634
 20
153.3773412678796
 30
0.0
 40
1.199999976976499
100
AcDbArc
 50
359.9999999993925
 51
90.00000000628714
  0
LINE
  5
7E
330
1F
100
AcDbEntity
  8
0
  6
Continuous
 62
     7
370
    15
100
AcDbLine
 10
154.2625634050908
 20
153.3773395418388
 30
0.0
 11
154.2625634050908
 21
144.7773429750663
 31
0.0
  0
ARC
  5
7F
330
1F
100
AcDbEntity
  8
0
  6
Continuous
 62
     7
370
    15
100
AcDbCircle
 10
154.4625649077999
 20
144.7773414329843
 30
0.0
 40
0.1999999961604999
100
AcDbArc
 50
180.0000000038522
 51
269.9999999602912
  0
LINE
  5
80
330
1F
100
AcDbEntity
  8
0
  6
Continuous
 62
     7
370
    15
100
AcDbLine
 10
154.4625630653444
 20
144.5773395895225
 30
0.0
 11
161.5625305152479
 21
144.5773395895225
 31
0.0
  0
ARC
  5
81
330
1F
100
AcDbEntity
  8
0
  6
Continuous
 62
     7
370
    15
100
AcDbCircle
 10
161.5625312326901
 20
144.7773414329843
 30
0.0
 40
0.1999999961606136
100
AcDbArc
 50
269.9999999605273
 51
359.9999999961495
  0
LINE
  5
82
330
1F
100
AcDbEntity
  8
0
  6
Continuous
 62
     7
370
    15
100
AcDbLine
 10
161.7625301755014
 20
144.7773429750663
 30
0.0
 11
161.7625301755014
 21
153.3773395418388
 31
0.0
  0
ARC
  5
83
330
1F
100
AcDbEntity
  8
0
  6
Continuous
 62
     7
370
    15
100
AcDbCircle
 10
162.9625312058059
 20
153.3773412678796
 30
0.0
 40
1.199999976962402
100
AcDbArc
 50
90.00000000640659
 51
179.9999999999389
  0
LINE
  5
84
330
1F
100
AcDbEntity
  8
0
  6
Continuous
 62
     7
370
    15
100
AcDbLine
 10
177.3563643968645
 20
154.5773449539405
 30
0.0
 11
162.9625318623128
 21
154.5773449539405
 31
0.0
  0
ARC
  5
85
330
1F
100
AcDbEntity
  8
0
  6
Continuous
 62
     7
370
    15
100
AcDbCircle
 10
177.3563675712692
 20
154.0773412544399
 30
0.0
 40
0.4999999904009889
100
AcDbArc
 50
29.99969070843441
 51
90.00000001503053
  0
LINE
  5
86
330
1F
100
AcDbEntity
  8
0
  6
Continuous
 62
     7
370
    15
100
AcDbLine
 10
177.9351552999559
 20
154.0748479961616
 30
0.0
 11
177.7893846905771
 21
154.3273332714302
 31
0.0
  0
ARC
  5
87
330
1F
100
AcDbEntity
  8
0
  6
Continuous
 62
     7
370
    15
100
AcDbCircle
 10
177.7186512286505
 20
153.9498443957216
 30
0.0
 40
0.2499999952006815
100
AcDbArc
 50
239.9940236789981
 51
29.99969071563899
  0
LINE
  5
88
330
1F
100
AcDbEntity
  8
0
  6
Continuous
 62
     7
370
    15
100
AcDbLine
 10
177.4186065471712
 20
153.8344326614601
 30
0.0
 11
177.5936281359735
 21
153.7333580850822
 31
0.0
  0
LINE
  5
89
330
1F
100
AcDbEntity
  8
0
  6
Continuous
 62
     7
370
    15
100
AcDbLine
 10
176.9841929948869
 20
153.583601415084
 30
0.0
 11
177.4186065471712
 21
153.8344326614601
 31
0.0
  0
ARC
  5
8A
330
1F
100
AcDbEntity
  8
0
  6
Continuous
 62
     7
370
    15
100
AcDbCircle
 10
177.0591959433285
 20
153.4537019010443
 30
0.0
 40
0.1500016585244623
100
AcDbArc
 50
120.0010725121755
 51
195.0001350273268
  0
LINE
  5
8B
330
1F
100
AcDbEntity
  8
0
  6
Continuous
 62
     7
370
    15
100
AcDbLine
 10
177.0947447097841
 20
152.7415665983421
 30
0.0
 11
176.9143065488878
 21
153.4148755668861
 31
0.0
  0
ARC
  5
8C
330
1F
100
AcDbEntity
  8
0
  6
Continuous
 62
     7
370
    15
100
AcDbCircle
 10
184.3392464323289
 20
154.6824968991701
 30
0.0
 40
7.499998654654036
100
AcDbArc
 50
194.9983299728106
 51
209.9983148780002
  0
LINE
  5
8D
330
1F
100
AcDbEntity
  8
0
  6
Continuous
 62
     7
370
    15
100
AcDbLine
 10
178.1285649216714
 20
150.4397097229225
 30
0.0
 11
177.8439452922883
 21
150.9326848386985
 31
0.0
  0
LINE
  5
8E
330
1F
100
AcDbEntity
  8
0
  6
Continuous
 62
     7
370
    15
100
AcDbLine
 10
177.2758385217729
 20
149.8964431881172
 30
0.0
 11
178.1285649216714
 21
150.4397097229225
 31
0.0
  0
LINE
  5
8F
330
1F
100
AcDbEntity
  8
0
  6
Continuous
 62
     7
370
    15
100
AcDbLine
 10
177.1521737850252
 20
150.1106771826011
 30
0.0
 11
177.2758385217729
 21
149.8964431881172
 31
0.0
  0
ARC
  5
90
330
1F
100
AcDbEntity
  8
0
  6
Continuous
 62
     7
370
    15
100
AcDbCircle
 10
177.0222613947286
 20
150.035690041044
 30
0.0
 40
0.1499999971205986
100
AcDbArc
 50
29.99506935360744
 51
119.9998881684465
  0
LINE
  5
91
330
1F
100
AcDbEntity
  8
0
  6
Continuous
 62
     7
370
    15
100
AcDbLine
 10
176.8620928800645
 20
150.1164290308219
 30
0.0
 11
176.947260466868
 21
150.1655879616004
 31
0.0
  0
ARC
  5
92
330
1F
100
AcDbEntity
  8
0
  6
Continuous
 62
     7
370
    15
100
AcDbCircle
 10
176.9370964151571
 20
149.9865202389024
 30
0.0
 40
0.1499999971196953
100
AcDbArc
 50
120.0000014984848
 51
224.0022673684995
  0
ARC
  5
93
330
1F
100
AcDbEntity
  8
0
  6
Continuous
 62
     7
370
    15
100
AcDbCircle
 10
169.6360766125215
 20
142.9354489808703
 30
0.0
 40
9.999999808019746
100
AcDbArc
 50
15.99856292043369
 51
44.00226740134644
  0
ARC
  5
94
330
1F
100
AcDbEntity
  8
0
  6
Continuous
 62
     7
370
    15
100
AcDbCircle
 10
179.3929528076693
 20
145.7329233698318
 30
0.0
 40
0.1499999971200301
100
AcDbArc
 50
195.9985629104316
 51
300.0004631709038
  0
LINE
  5
95
330
1F
100
AcDbEntity
  8
0
  6
Continuous
 62
     7
370
    15
100
AcDbLine
 10
179.5531159318033
 20
145.6521901487571
 30
0.0
 11
179.4679557955804
 21
145.6030163168174
 31
0.0
  0
ARC
  5
96
330
1F
100
AcDbEntity
  8
0
  6
Continuous
 62
     7
370
    15
100
AcDbCircle
 10
179.478115977936
 20
145.7820919108508
 30
0.0
 40
0.1499999971213312
100
AcDbArc
 50
299.9999205256192
 51
30.00070579507499
  0
LINE
  5
97
330
1F
100
AcDbEntity
  8
0
  6
Continuous
 62
     7
370
    15
100
AcDbLine
 10
179.4842204130235
 20
146.0715237259132
 30
0.0
 11
179.608019260222
 21
145.8570960163337
 31
0.0
  0
LINE
  5
98
330
1F
100
AcDbEntity
  8
0
  6
Continuous
 62
     7
370
    15
100
AcDbLine
 10
180.3810766017976
 20
146.5383622049552
 30
0.0
 11
179.4842204130235
 21
146.0715237259132
 31
0.0
  0
LINE
  5
99
330
1F
100
AcDbEntity
  8
0
  6
Continuous
 62
     7
370
    15
100
AcDbLine
 10
180.6628650105539
 20
146.0501703619224
 30
0.0
 11
180.3810766017976
 21
146.5383622049552
 31
0.0
  0
ARC
  5
9A
330
1F
100
AcDbEntity
  8
0
  6
Continuous
 62
     7
370
    15
100
AcDbCircle
 10
187.1580571605123
 20
149.8001765990917
 30
0.0
 40
7.499999173791726
100
AcDbArc
 50
210.000000002104
 51
224.9999910263919
  0
LINE
  5
9B
330
1F
100
AcDbEntity
  8
0
  6
Continuous
 62
     7
370
    15
100
AcDbLine
 10
182.3517030156198
 20
143.9998748897773
 30
0.0
 11
181.8547567403856
 21
144.4968733190757
 31
0.0
  0
ARC
  5
9C
330
1F
100
AcDbEntity
  8
0
  6
Continuous
 62
     7
370
    15
100
AcDbCircle
 10
182.4577758458878
 20
144.1059316958393
 30
0.0
 40
0.1499981648844798
100
AcDbArc
 50
224.9975631945572
 51
300.0002707677195
  0
LINE
  5
9D
330
1F
100
AcDbEntity
  8
0
  6
Continuous
 62
     7
370
    15
100
AcDbLine
 10
182.965913978869
 20
144.2261043190223
 30
0.0
 11
182.5327744758668
 21
143.9760330318672
 31
0.0
  0
LINE
  5
9E
330
1F
100
AcDbEntity
  8
0
  6
Continuous
 62
     7
370
    15
100
AcDbLine
 10
182.9658916271272
 20
144.4281938671333
 30
0.0
 11
182.965913978869
 21
144.2261043190223
 31
0.0
  0
ARC
  5
9F
330
1F
100
AcDbEntity
  8
0
  6
Continuous
 62
     7
370
    15
100
AcDbCircle
 10
183.2158942598135
 20
144.4282214605279
 30
0.0
 40
0.2499999952007648
100
AcDbArc
 50
29.99969071488125
 51
180.0049203859254
  0
LINE
  5
A0
330
1F
100
AcDbEntity
  8
0
  6
Continuous
 62
     7
370
    15
100
AcDbLine
 10
183.432402280623
 20
144.5532146095497
 30
0.0
 11
183.4455600059572
 21
144.5304307340843
 31
0.0
  0
ARC
  5
A1
330
1F
100
AcDbEntity
  8
0
  6
Continuous
 62
     7
370
    15
100
AcDbCircle
 10
183.012547590293
 20
144.2804279491175
 30
0.0
 40
0.4999999904007951
100
AcDbArc
 50
359.9999999985254
 51
29.99969070784796
  0
LINE
  5
A2
330
1F
100
AcDbEntity
  8
0
  6
Continuous
 62
     7
370
    15
100
AcDbLine
 10
183.5125481761041
 20
144.2804339527351
 30
0.0
 11
183.5125481761041
 21
102.1773520111304
 31
0.0
  0
ARC
  5
A3
330
1F
100
AcDbEntity
  8
0
  6
Continuous
 62
     7
370
    15
100
AcDbCircle
 10
183.0125669653514
 20
102.1773577510617
 30
0.0
 40
0.4999874002721333
100
AcDbArc
 50
269.9999973254064
 51
0.0000000000612722
  0
LINE
  5
A4
330
1F
100
AcDbEntity
  8
0
  6
Continuous
 62
     7
370
    15
100
AcDbLine
 10
183.0125695145669
 20
101.6773584484321
 30
0.0
 11
177.6572262919488
 21
101.6773584484321
 31
0.0
  0
ARC
  5
A5
330
1F
100
AcDbEntity
  8
0
  6
Continuous
 62
     7
370
    15
100
AcDbCircle
 10
177.6572281066416
 20
104.6772608263932
 30
0.0
 40
2.999890819395222
100
AcDbArc
 50
215.0012312447806
 51
269.9999973254024
  0
LINE
  5
A6
330
1F
100
AcDbEntity
  8
0
  6
Continuous
 62
     7
370
    15
100
AcDbLine
 10
175.1998981512132
 20
102.9565337299567
 30
0.0
 11
174.0531867421213
 21
104.5941415428382
 31
0.0
  0
ARC
  5
A7
330
1F
100
AcDbEntity
  8
0
  6
Continuous
 62
     7
370
    15
100
AcDbCircle
 10
174.2989321096367
 20
104.7662261848783
 30
0.0
 40
0.3000067482556168
100
AcDbArc
 50
100.005059326469
 51
215.0012295746251
  0
LINE
  5
A8
330
1F
100
AcDbEntity
  8
0
  6
Continuous
 62
     7
370
    15
100
AcDbLine
 10
174.2468124306741
 20
105.0616803764564
 30
0.0
 11
174.9851277149263
 21
105.1919165252906
 31
0.0
  0
ARC
  5
A9
330
1F
100
AcDbEntity
  8
0
  6
Continuous
 62
     7
370
    15
100
AcDbCircle
 10
174.9156381120658
 20
105.5858181877021
 30
0.0
 40
0.3999777380408034
100
AcDbArc
 50
280.0050593263579
 51
0.00000000006107
  0
LINE
  5
AA
330
1F
100
AcDbEntity
  8
0
  6
Continuous
 62
     7
370
    15
100
AcDbLine
 10
175.315613118464
 20
106.6776815056067
 30
0.0
 11
175.315613118464
 21
105.5858138202887
 31
0.0
  0
LINE
  5
AB
330
1F
100
AcDbEntity
  8
0
  6
Continuous
 62
     7
370
    15
100
AcDbLine
 10
175.315613118464
 20
106.6776815056067
 30
0.0
 11
142.2958357310834
 21
106.6776815056067
 31
0.0
  0
LINE
  5
AC
330
1F
100
AcDbEntity
  8
0
  6
Continuous
 62
     7
370
    15
100
AcDbLine
 10
142.2958357310834
 20
106.674701273368
 30
0.0
 11
142.2958357310834
 21
106.6776815056067
 31
0.0
  0
LINE
  5
AD
330
1F
100
AcDbEntity
  8
0
  6
Continuous
 62
     7
370
    15
100
AcDbLine
 10
142.2958357310834
 20
106.674701273368
 30
0.0
 11
139.5263841426912
 21
106.674701273368
 31
0.0
  0
ARC
  5
AE
330
1F
100
AcDbEntity
  8
0
  6
Continuous
 62
     7
370
    15
100
AcDbCircle
 10
139.526385406561
 20
106.3624168654222
 30
0.0
 40
0.3122954085427239
100
AcDbArc
 50
90.00000000002087
 51
179.9999999980019
  0
LINE
  5
AF
330
1F
100
AcDbEntity
  8
0
  6
Continuous
 62
     7
370
    15
100
AcDbLine
 10
139.2140893316808
 20
106.3624027370673
 30
0.0
 11
139.2140893316808
 21
101.7037037014228
 31
0.0
  0
LINE
  5
B0
330
1F
100
AcDbEntity
  8
0
  6
Continuous
 62
     7
370
    15
100
AcDbLine
 10
139.2140893316808
 20
101.7037037014228
 30
0.0
 11
136.5291031128707
 21
101.7037037014228
 31
0.0
  0
LINE
  5
B1
330
1F
100
AcDbEntity
  8
0
  6
Continuous
 62
     7
370
    15
100
AcDbLine
 10
136.5291031128707
 20
101.7066541313392
 30
0.0
 11
136.5291031128707
 21
101.7037037014228
 31
0.0
  0
LINE
  5
B2
330
1F
100
AcDbEntity
  8
0
  6
Continuous
 62
     7
370
    15
100
AcDbLine
 10
133.6119959182086
 20
101.7066541313392
 30
0.0
 11
136.5291031128707
 21
101.7066541313392
 31
0.0
  0
LINE
  5
B3
330
1F
100
AcDbEntity
  8
0
  6
Continuous
 62
     7
370
    15
100
AcDbLine
 10
133.6119959182086
 20
101.7037037014228
 30
0.0
 11
133.6119959182086
 21
101.7066541313392
 31
0.0
  0
LINE
  5
B4
330
1F
100
AcDbEntity
  8
0
  6
Continuous
 62
     7
370
    15
100
AcDbLine
 10
133.6119959182086
 20
101.7037037014228
 30
0.0
 11
130.3653812087121
 21
101.7037037014228
 31
0.0
  0
LINE
  5
B5
330
1F
100
AcDbEntity
  8
0
  6
Continuous
 62
     7
370
    15
100
AcDbLine
 10
130.3653812087121
 20
101.7037037014228
 30
0.0
 11
130.3653812087121
 21
108.8673177360755
 31
0.0
  0
ARC
  5
B6
330
1F
100
AcDbEntity
  8
0
  6
Continuous
 62
     7
370
    15
100
AcDbCircle
 10
135.2942622338234
 20
108.8673315164017
 30
0.0
 40
4.928880694229064
100
AcDbArc
 50
160.0000120354081
 51
179.999999999939
  0
LINE
  5
B7
330
1F
100
AcDbEntity
  8
0
  6
Continuous
 62
     7
370
    15
100
AcDbLine
 10
130.662629572207
 20
110.5531159042579
 30
0.0
 11
131.9156272388044
 21
113.9957013725501
 31
0.0
  0
ARC
  5
B8
330
1F
100
AcDbEntity
  8
0
  6
Continuous
 62
     7
370
    15
100
AcDbCircle
 10
122.6607162413669
 20
117.3642059920327
 30
0.0
 40
9.848869936861852
100
AcDbArc
 50
340.0000120296301
 51
1.175371330902087
  0
LINE
  5
B9
330
1F
100
AcDbEntity
  8
0
  6
Continuous
 62
     7
370
    15
100
AcDbLine
 10
132.5125491297784
 20
117.567092478202
 30
0.0
 11
132.5075143999401
 21
117.5662282108527
 31
0.0
  0
LINE
  5
BA
330
1F
100
AcDbEntity
  8
0
  6
Continuous
 62
     7
370
    15
100
AcDbLine
 10
132.5125491297784
 20
117.567092478202
 30
0.0
 11
132.5125491297784
 21
144.2804339527351
 31
0.0
  0
ARC
  5
BB
330
1F
100
AcDbEntity
  8
0
  6
Continuous
 62
     7
370
    15
100
AcDbCircle
 10
133.012548550197
 20
144.2804279491183
 30
0.0
 40
0.499999990400994
100
AcDbArc
 50
150.0003093073612
 51
180.0000000014762
  0
LINE
  5
BC
330
1F
100
AcDbEntity
  8
0
  6
Continuous
 62
     7
370
    15
100
AcDbLine
 10
132.5795354372802
 20
144.5304307340843
 30
0.0
 11
132.5926950252595
 21
144.5532146095497
 31
0.0
  0
LINE
  5
BD
330
1F
100
AcDbEntity
  8
0
  6
Continuous
 62
     7
370
    15
100
AcDbLine
 10
168.7125286138615
 20
155.0642552971108
 30
0.0
 11
173.002163139642
 21
155.0642552971109
 31
0.0
  0
LINE
  5
BE
330
1F
100
AcDbEntity
  8
0
  6
Continuous
 62
     7
370
    15
100
AcDbLine
 10
164.4229052639611
 20
155.0642552971109
 30
0.0
 11
168.7125286138615
 21
155.0642552971108
 31
0.0
  0
LINE
  5
BF
330
1F
100
AcDbEntity
  8
0
  6
Continuous
 62
     7
370
    15
100
AcDbLine
 10
147.3125649667343
 20
155.0642552971108
 30
0.0
 11
151.6021920419342
 21
155.0642552971109
 31
0.0
  0
LINE
  5
C0
330
1F
100
AcDbEntity
  8
0
  6
Continuous
 62
     7
370
    15
100
AcDbLine
 10
143.0229341662533
 20
155.0642552971109
 30
0.0
 11
147.3125649667343
 21
155.0642552971108
 31
0.0
  0
LINE
  5
C1
330
1F
100
AcDbEntity
  8
0
  6
Continuous
 62
     7
370
    15
100
AcDbLine
 10
151.6021920419342
 20
156.5773341058954
 30
0.0
 11
143.0229341662533
 21
156.5773341058954
 31
0.0
  0
LINE
  5
C2
330
1F
100
AcDbEntity
  8
0
  6
Continuous
 62
     7
370
    15
100
AcDbLine
 10
173.002163139642
 20
156.5773341058954
 30
0.0
 11
164.4229052639611
 21
156.5773341058954
 31
0.0
  0
LINE
  5
1A3
330
1F
100
AcDbEntity
  8
0
  6
Continuous
 62
     7
370
    15
100
AcDbLine
 10
230.2059231729284
 20
144.6782204508049
 30
0.0
 11
218.2103487134948
 21
144.6782204508053
 31
0.0
  0
LINE
  5
1A4
330
1F
100
AcDbEntity
  8
0
  6
Continuous
 62
     7
370
    15
100
AcDbLine
 10
218.2103487135009
 20
153.6998453735577
 30
0.0
 11
230.2059231729345
 21
153.6998453735573
 31
0.0
  0
ARC
  5
1A5
330
1F
100
AcDbEntity
  8
0
  6
Continuous
 62
     7
370
    15
100
AcDbCircle
 10
228.9975928536795
 20
155.0773412352437
 30
0.0
 40
0.4999999904009656
100
AcDbArc
 50
181.4999999998598
 51
270.0000000000008
  0
ARC
  5
1A6
330
1F
100
AcDbEntity
  8
0
  6
Continuous
 62
     7
370
    15
100
AcDbCircle
 10
219.4186788939472
 20
155.0773412352439
 30
0.0
 40
0.4999999904009656
100
AcDbArc
 50
270.0000000000008
 51
358.5000000001384
  0
LINE
  5
1A7
330
1F
100
AcDbEntity
  8
0
  6
Continuous
 62
     7
370
    15
100
AcDbLine
 10
228.4977639497453
 20
155.0642552971108
 30
0.0
 11
228.4977639497453
 21
156.5773341058953
 31
0.0
  0
LINE
  5
1A8
330
1F
100
AcDbEntity
  8
0
  6
Continuous
 62
     7
370
    15
100
AcDbLine
 10
219.9185060740644
 20
156.5773341058956
 30
0.0
 11
219.9185060740643
 21
155.0642552971111
 31
0.0
  0
LINE
  5
1A9
330
1F
100
AcDbEntity
  8
0
  6
Continuous
 62
     7
370
    15
100
AcDbLine
 10
218.2103487134906
 20
101.7037037014233
 30
0.0
 11
218.2103487134908
 21
108.867317736076
 31
0.0
  0
LINE
  5
1AA
330
1F
100
AcDbEntity
  8
0
  6
Continuous
 62
     7
370
    15
100
AcDbLine
 10
230.2059231729244
 20
108.8673177360755
 30
0.0
 11
218.2103487134908
 21
108.867317736076
 31
0.0
  0
LINE
  5
1AB
330
1F
100
AcDbEntity
  8
0
  6
Continuous
 62
     7
370
    15
100
AcDbLine
 10
218.2103487134906
 20
101.7037037014233
 30
0.0
 11
230.2059231729241
 21
101.7037037014228
 31
0.0
  0
LINE
  5
1AC
330
1F
100
AcDbEntity
  8
0
  6
Continuous
 62
     7
370
    15
100
AcDbLine
 10
230.2059231729241
 20
101.7037037014228
 30
0.0
 11
230.2059231729244
 21
108.8673177360755
 31
0.0
  0
LINE
  5
1AD
330
1F
100
AcDbEntity
  8
0
  6
Continuous
 62
     7
370
    15
100
AcDbLine
 10
218.2103487134912
 20
110.5531159042584
 30
0.0
 11
230.2059231729248
 21
110.5531159042579
 31
0.0
  0
LINE
  5
1AE
330
1F
100
AcDbEntity
  8
0
  6
Continuous
 62
     7
370
    15
100
AcDbLine
 10
218.2103487134912
 20
110.5531159042584
 30
0.0
 11
218.2103487134908
 21
108.867317736076
 31
0.0
  0
LINE
  5
1AF
330
1F
100
AcDbEntity
  8
0
  6
Continuous
 62
     7
370
    15
100
AcDbLine
 10
230.2059231729248
 20
110.5531159042579
 30
0.0
 11
230.2059231729244
 21
108.8673177360755
 31
0.0
  0
LINE
  5
1B0
330
1F
100
AcDbEntity
  8
0
  6
Continuous
 62
     7
370
    15
100
AcDbLine
 10
230.2059231729262
 20
113.9957013725501
 30
0.0
 11
218.2103487134927
 21
113.9957013725506
 31
0.0
  0
LINE
  5
1B1
330
1F
100
AcDbEntity
  8
0
  6
Continuous
 62
     7
370
    15
100
AcDbLine
 10
218.2103487134912
 20
110.5531159042584
 30
0.0
 11
218.2103487134927
 21
113.9957013725506
 31
0.0
  0
LINE
  5
1B2
330
1F
100
AcDbEntity
  8
0
  6
Continuous
 62
     7
370
    15
100
AcDbLine
 10
230.2059231729248
 20
110.5531159042579
 30
0.0
 11
230.2059231729262
 21
113.9957013725501
 31
0.0
  0
LINE
  5
1B3
330
1F
100
AcDbEntity
  8
0
  6
Continuous
 62
     7
370
    15
100
AcDbLine
 10
218.2103487134935
 20
117.5662282108532
 30
0.0
 11
230.205923172927
 21
117.5662282108527
 31
0.0
  0
LINE
  5
1B4
330
1F
100
AcDbEntity
  8
0
  6
Continuous
 62
     7
370
    15
100
AcDbLine
 10
218.2103487134927
 20
113.9957013725506
 30
0.0
 11
218.2103487134935
 21
117.5662282108532
 31
0.0
  0
LINE
  5
1B5
330
1F
100
AcDbEntity
  8
0
  6
Continuous
 62
     7
370
    15
100
AcDbLine
 10
230.205923172927
 20
117.5662282108527
 30
0.0
 11
230.2059231729262
 21
113.9957013725501
 31
0.0
  0
SPLINE
  5
1B6
330
1F
100
AcDbEntity
  8
0
  6
Continuous
 62
     7
370
    15
100
AcDbSpline
210
0.0
220
0.0
230
1.0
 70
     8
 71
     3
 72
    10
 73
     6
 74
     0
 42
0.0000000001
 43
0.0000000001
 40
0.0
 40
0.0
 40
0.0
 40
0.0
 40
0.491716753618603
 40
0.744879630856965
 40
1.0
 40
1.0
 40
1.0
 40
1.0
 10
228.9509883553755
 20
130.9673491119605
 30
0.0
 10
228.961961105648
 20
130.7566530696643
 30
0.0
 10
228.9785832323342
 20
130.437479095921
 30
0.0
 10
229.074786125239
 20
130.0190289629806
 30
0.0
 10
229.1449755825531
 20
129.8130482806936
 30
0.0
 10
229.1802054674398
 20
129.7096613048775
 30
0.0
  0
LINE
  5
1B7
330
1F
100
AcDbEntity
  8
0
  6
Continuous
 62
     7
370
    15
100
AcDbLine
 10
229.0473746539122
 20
130.7179930805428
 30
0.0
 11
228.9509883553755
 21
130.9673491119606
 31
0.0
  0
SPLINE
  5
1B8
330
1F
100
AcDbEntity
  8
0
  6
Continuous
 62
     7
370
    15
100
AcDbSpline
210
0.0
220
0.0
230
1.0
 70
     8
 71
     3
 72
    10
 73
     6
 74
     0
 42
0.0000000001
 43
0.0000000001
 40
0.0
 40
0.0
 40
0.0
 40
0.0
 40
0.2619294635235051
 40
0.5238605195882487
 40
1.0
 40
1.0
 40
1.0
 40
1.0
 10
229.0473746539122
 20
130.7179930805428
 30
0.0
 10
229.0502002314155
 20
130.6127612965445
 30
0.0
 10
229.0558514036018
 20
130.4022970887347
 30
0.0
 10
229.1078429102177
 20
130.0028115461347
 30
0.0
 10
229.189467944794
 20
129.7172274050961
 30
0.0
 10
229.2421253801351
 20
129.5329931377632
 30
0.0
  0
LINE
  5
1B9
330
1F
100
AcDbEntity
  8
0
  6
Continuous
 62
     7
370
    15
100
AcDbLine
 10
229.1802054674398
 20
129.7096613048775
 30
0.0
 11
229.2421253801351
 21
129.5329931377632
 31
0.0
  0
LINE
  5
1BA
330
1F
100
AcDbEntity
  8
0
  6
Continuous
 62
     7
370
    15
100
AcDbLine
 10
219.2360664189826
 20
126.0274651645886
 30
0.0
 11
219.174144643641
 21
126.2041333317028
 31
0.0
  0
SPLINE
  5
1BB
330
1F
100
AcDbEntity
  8
0
  6
Continuous
 62
     7
370
    15
100
AcDbSpline
210
0.0
220
0.0
230
1.0
 70
     8
 71
     3
 72
    10
 73
     6
 74
     0
 42
0.0000000001
 43
0.0000000001
 40
0.0
 40
0.0
 40
0.0
 40
0.0
 40
0.4917398559263527
 40
0.7448797051829594
 40
1.0
 40
1.0
 40
1.0
 40
1.0
 10
219.4652835310468
 20
124.7697773575054
 30
0.0
 10
219.454312329466
 20
124.9804837526305
 30
0.0
 10
219.4376933279744
 20
125.2996584454876
 30
0.0
 10
219.3414815180919
 20
125.7181065739205
 30
0.0
 10
219.27129594517
 20
125.9240781103302
 30
0.0
 10
219.2360664189826
 20
126.0274651645886
 30
0.0
  0
LINE
  5
1BC
330
1F
100
AcDbEntity
  8
0
  6
Continuous
 62
     7
370
    15
100
AcDbLine
 10
219.3688953698639
 20
125.0191333889233
 30
0.0
 11
219.4652835310468
 21
124.7697773575054
 31
0.0
  0
SPLINE
  5
1BD
330
1F
100
AcDbEntity
  8
0
  6
Continuous
 62
     7
370
    15
100
AcDbSpline
210
0.0
220
0.0
230
1.0
 70
     8
 71
     3
 72
    10
 73
     6
 74
     0
 42
0.0000000001
 43
0.0000000001
 40
0.0
 40
0.0
 40
0.0
 40
0.0
 40
0.2619294172423357
 40
0.5238602267966023
 40
1.0
 40
1.0
 40
1.0
 40
1.0
 10
219.3688953698639
 20
125.0191333889233
 30
0.0
 10
219.3660695905463
 20
125.1243651447395
 30
0.0
 10
219.3604180168905
 20
125.3348292157419
 30
0.0
 10
219.3084303693036
 20
125.734315367768
 30
0.0
 10
219.226803373364
 20
126.0198991768081
 30
0.0
 10
219.174144643641
 20
126.2041333317028
 30
0.0
  0
LINE
  5
1BE
330
1F
100
AcDbEntity
  8
0
  6
Continuous
 62
     7
370
    15
100
AcDbLine
 10
219.3688953698641
 20
130.7179930805431
 30
0.0
 11
219.4652835310471
 21
130.967349111961
 31
0.0
  0
SPLINE
  5
1BF
330
1F
100
AcDbEntity
  8
0
  6
Continuous
 62
     7
370
    15
100
AcDbSpline
210
0.0
220
0.0
230
1.0
 70
     8
 71
     3
 72
    10
 73
     6
 74
     0
 42
0.0000000001
 43
0.0000000001
 40
0.0
 40
0.0
 40
0.0
 40
0.0
 40
0.2457942217354973
 40
0.6194963639600716
 40
1.0
 40
1.0
 40
1.0
 40
1.0
 10
219.2360664189827
 20
129.7096613048778
 30
0.0
 10
219.2700481936762
 20
129.8092595147889
 30
0.0
 10
219.3556953895905
 20
130.0602854683736
 30
0.0
 10
219.4448339663352
 20
130.4814215339185
 30
0.0
 10
219.4584261509723
 20
130.8044023628053
 30
0.0
 10
219.4652835310471
 20
130.967349111961
 30
0.0
  0
LINE
  5
1C0
330
1F
100
AcDbEntity
  8
0
  6
Continuous
 62
     7
370
    15
100
AcDbLine
 10
219.174144643641
 20
129.5329931377636
 30
0.0
 11
219.2360664189827
 21
129.7096613048778
 31
0.0
  0
SPLINE
  5
1C1
330
1F
100
AcDbEntity
  8
0
  6
Continuous
 62
     7
370
    15
100
AcDbSpline
210
0.0
220
0.0
230
1.0
 70
     8
 71
     3
 72
    10
 73
     6
 74
     0
 42
0.0000000001
 43
0.0000000001
 40
0.0
 40
0.0
 40
0.0
 40
0.0
 40
0.2618930081990738
 40
0.523819293110595
 40
1.0
 40
1.0
 40
1.0
 40
1.0
 10
219.174144643641
 20
129.5329931377636
 30
0.0
 10
219.2047788744907
 20
129.6336734758464
 30
0.0
 10
219.2660512286441
 20
129.8350469446815
 30
0.0
 10
219.3464375432033
 20
130.2297644868398
 30
0.0
 10
219.360088574089
 20
130.5265351277663
 30
0.0
 10
219.3688953698641
 20
130.7179930805431
 30
0.0
  0
SPLINE
  5
1C2
330
1F
100
AcDbEntity
  8
0
  6
Continuous
 62
     7
370
    15
100
AcDbSpline
210
0.0
220
0.0
230
1.0
 70
     8
 71
     3
 72
    10
 73
     6
 74
     0
 42
0.0000000001
 43
0.0000000001
 40
0.0
 40
0.0
 40
0.0
 40
0.0
 40
0.4917396919798322
 40
0.7448801666590834
 40
1.0
 40
1.0
 40
1.0
 40
1.0
 10
228.9509883553753
 20
124.769777357505
 30
0.0
 10
228.961957654854
 20
124.9804840240221
 30
0.0
 10
228.9785737909056
 20
125.2996594321319
 30
0.0
 10
229.0747936754335
 20
125.7181057343682
 30
0.0
 10
229.1449770964726
 20
125.9240779764705
 30
0.0
 10
229.1802054674397
 20
126.0274651645882
 30
0.0
  0
LINE
  5
1C3
330
1F
100
AcDbEntity
  8
0
  6
Continuous
 62
     7
370
    15
100
AcDbLine
 10
229.2421272427802
 20
126.2041333317024
 30
0.0
 11
229.1802054674397
 21
126.0274651645882
 31
0.0
  0
SPLINE
  5
1C4
330
1F
100
AcDbEntity
  8
0
  6
Continuous
 62
     7
370
    15
100
AcDbSpline
210
0.0
220
0.0
230
1.0
 70
     8
 71
     3
 72
    10
 73
     6
 74
     0
 42
0.0000000001
 43
0.0000000001
 40
0.0
 40
0.0
 40
0.0
 40
0.0
 40
0.2618928695054463
 40
0.5237947734537613
 40
1.0
 40
1.0
 40
1.0
 40
1.0
 10
229.2421272427802
 20
126.2041333317024
 30
0.0
 10
229.2114934900174
 20
126.1034528998438
 30
0.0
 10
229.1502249277281
 20
125.9020885629825
 30
0.0
 10
229.0698277496864
 20
125.5073730781356
 30
0.0
 10
229.0561798690594
 20
125.2106016635084
 30
0.0
 10
229.047374653912
 20
125.0191333889229
 30
0.0
  0
LINE
  5
1C5
330
1F
100
AcDbEntity
  8
0
  6
Continuous
 62
     7
370
    15
100
AcDbLine
 10
228.9509883553753
 20
124.769777357505
 30
0.0
 11
229.047374653912
 21
125.0191333889229
 31
0.0
  0
LINE
  5
1C6
330
1F
100
AcDbEntity
  8
0
  6
Continuous
 62
     7
370
    15
100
AcDbLine
 10
218.2103487134935
 20
117.5670924782024
 30
0.0
 11
230.205923172927
 21
117.567092478202
 31
0.0
  0
LINE
  5
1C7
330
1F
100
AcDbEntity
  8
0
  6
Continuous
 62
     7
370
    15
100
AcDbLine
 10
218.2103487134935
 20
117.5670924782024
 30
0.0
 11
218.2103487134935
 21
117.5662282108532
 31
0.0
  0
LINE
  5
1C8
330
1F
100
AcDbEntity
  8
0
  6
Continuous
 62
     7
370
    15
100
AcDbLine
 10
230.205923172927
 20
117.567092478202
 30
0.0
 11
230.205923172927
 21
117.5662282108527
 31
0.0
  0
LINE
  5
1C9
330
1F
100
AcDbEntity
  8
0
  6
Continuous
 62
     7
370
    15
100
AcDbLine
 10
230.205923172928
 20
144.2804339527351
 30
0.0
 11
218.2103487134944
 21
144.2804339527356
 31
0.0
  0
LINE
  5
1CA
330
1F
100
AcDbEntity
  8
0
  6
Continuous
 62
     7
370
    15
100
AcDbLine
 10
229.0473746539124
 20
135.3319886326058
 30
0.0
 11
229.0473746539122
 21
130.7179930805428
 31
0.0
  0
LINE
  5
1CB
330
1F
100
AcDbEntity
  8
0
  6
Continuous
 62
     7
370
    15
100
AcDbLine
 10
219.3688990951546
 20
135.3319886326061
 30
0.0
 11
229.0473746539124
 21
135.3319886326058
 31
0.0
  0
LINE
  5
1CC
330
1F
100
AcDbEntity
  8
0
  6
Continuous
 62
     7
370
    15
100
AcDbLine
 10
219.3688953698641
 20
130.7179930805431
 30
0.0
 11
219.3688990951546
 21
135.3319886326061
 31
0.0
  0
ARC
  5
1CD
330
1F
100
AcDbEntity
  8
0
  6
Continuous
 62
     7
370
    15
100
AcDbCircle
 10
224.2060146617312
 20
127.8685645608564
 30
0.0
 40
5.299999898250224
100
AcDbArc
 50
161.6970384526048
 51
198.3029490779395
  0
LINE
  5
1CE
330
1F
100
AcDbEntity
  8
0
  6
Continuous
 62
     7
370
    15
100
AcDbLine
 10
219.3688953698636
 20
118.8938918709026
 30
0.0
 11
219.3688953698639
 21
125.0191333889233
 31
0.0
  0
LINE
  5
1CF
330
1F
100
AcDbEntity
  8
0
  6
Continuous
 62
     7
370
    15
100
AcDbLine
 10
229.0473765165569
 20
118.8938918709022
 30
0.0
 11
219.3688953698636
 21
118.8938918709026
 31
0.0
  0
LINE
  5
1D0
330
1F
100
AcDbEntity
  8
0
  6
Continuous
 62
     7
370
    15
100
AcDbLine
 10
229.047374653912
 20
125.0191333889229
 30
0.0
 11
229.0473765165569
 21
118.8938918709022
 31
0.0
  0
ARC
  5
1D1
330
1F
100
AcDbEntity
  8
0
  6
Continuous
 62
     7
370
    15
100
AcDbCircle
 10
224.2102570858119
 20
127.8685645608364
 30
0.0
 40
5.299999898250198
100
AcDbArc
 50
341.6970509220627
 51
18.30296154739841
  0
LINE
  5
1D2
330
1F
100
AcDbEntity
  8
0
  6
Continuous
 62
     7
370
    15
100
AcDbLine
 10
218.2103487134935
 20
117.5670924782024
 30
0.0
 11
218.2103487134944
 21
144.2804339527356
 31
0.0
  0
LINE
  5
1D3
330
1F
100
AcDbEntity
  8
0
  6
Continuous
 62
     7
370
    15
100
AcDbLine
 10
230.205923172927
 20
117.567092478202
 30
0.0
 11
230.205923172928
 21
144.2804339527351
 31
0.0
  0
ARC
  5
1D4
330
1F
100
AcDbEntity
  8
0
  6
Continuous
 62
     7
370
    15
100
AcDbCircle
 10
224.206014661731
 20
127.8685650859694
 30
0.0
 40
5.299999898250209
100
AcDbArc
 50
179.9999937652913
 51
200.3268788691798
  0
LINE
  5
1D5
330
1F
100
AcDbEntity
  8
0
  6
Continuous
 62
     7
370
    15
100
AcDbLine
 10
228.9509883553753
 20
124.769777357505
 30
0.0
 11
228.9509902180203
 21
120.620459616111
 31
0.0
  0
ELLIPSE
  5
1D6
330
1F
100
AcDbEntity
  8
0
  6
Continuous
 62
     7
370
    15
100
AcDbEllipse
 10
228.5183956415403
 20
118.893892404637
 30
0.0
 11
-0.0000005244590398
 21
2.99999994240575
 31
0.0
210
0.0
220
0.0
230
1.0
 40
0.176326980707075
 41
4.712388935072487
 42
5.325628338172374
  0
ARC
  5
1D7
330
1F
100
AcDbEntity
  8
0
  6
Continuous
 62
     7
370
    15
100
AcDbCircle
 10
224.2102570858127
 20
127.8685650859493
 30
0.0
 40
5.299999898250237
100
AcDbArc
 50
339.6731211294069
 51
0.000006234660192
  0
ELLIPSE
  5
1D8
330
1F
100
AcDbEntity
  8
0
  6
Continuous
 62
     7
370
    15
100
AcDbEllipse
 10
219.8097154016205
 20
135.331993356274
 30
0.0
 11
0.0000004370492661
 21
2.499999952004799
 31
0.0
210
0.0
220
0.0
230
1.0
 40
0.1763269807081431
 41
1.570796372103507
 42
2.244773655068251
  0
LINE
  5
1D9
330
1F
100
AcDbEntity
  8
0
  6
Continuous
 62
     7
370
    15
100
AcDbLine
 10
219.4652835310471
 20
130.967349111961
 30
0.0
 11
219.4652835310472
 21
133.7717476486431
 31
0.0
  0
LINE
  5
1DA
330
1F
100
AcDbEntity
  8
0
  6
Continuous
 62
     7
370
    15
100
AcDbLine
 10
219.4652835310467
 20
120.6204596161114
 30
0.0
 11
219.4652835310468
 21
124.7697773575054
 31
0.0
  0
ELLIPSE
  5
1DB
330
1F
100
AcDbEntity
  8
0
  6
Continuous
 62
     7
370
    15
100
AcDbEllipse
 10
219.8978761059288
 20
118.8938924046369
 30
0.0
 11
0.0000005244590966
 21
2.999999942405736
 31
0.0
210
0.0
220
0.0
230
1.0
 40
0.1763269807081559
 41
0.9575568340167894
 42
1.570796372106981
  0
LINE
  5
1DC
330
1F
100
AcDbEntity
  8
0
  6
Continuous
 62
     7
370
    15
100
AcDbLine
 10
228.9509864927305
 20
133.7717476486427
 30
0.0
 11
228.9509883553755
 21
130.9673491119606
 31
0.0
  0
ELLIPSE
  5
1DD
330
1F
100
AcDbEntity
  8
0
  6
Continuous
 62
     7
370
    15
100
AcDbEllipse
 10
228.6065563458488
 20
135.3319933562738
 30
0.0
 11
-0.0000004370491808
 21
2.49999995200477
 31
0.0
210
0.0
220
0.0
230
1.0
 40
0.1763269807070651
 41
4.038411609683795
 42
4.712388935076051
  0
LINE
  5
1DE
330
1F
100
AcDbEntity
  8
0
  6
Continuous
 62
     7
370
    15
100
AcDbLine
 10
230.205923172928
 20
144.5304307340843
 30
0.0
 11
218.2103487134945
 21
144.5304307340847
 31
0.0
  0
LINE
  5
1DF
330
1F
100
AcDbEntity
  8
0
  6
Continuous
 62
     7
370
    15
100
AcDbLine
 10
218.2103487134945
 20
144.5304307340847
 30
0.0
 11
218.2103487134944
 21
144.2804339527356
 31
0.0
  0
LINE
  5
1E0
330
1F
100
AcDbEntity
  8
0
  6
Continuous
 62
     7
370
    15
100
AcDbLine
 10
230.205923172928
 20
144.5304307340843
 30
0.0
 11
230.205923172928
 21
144.2804339527351
 31
0.0
  0
LINE
  5
1E1
330
1F
100
AcDbEntity
  8
0
  6
Continuous
 62
     7
370
    15
100
AcDbLine
 10
228.9509902180203
 20
120.620459616111
 30
0.0
 11
219.4652835310467
 21
120.6204596161114
 31
0.0
  0
LINE
  5
1E2
330
1F
100
AcDbEntity
  8
0
  6
Continuous
 62
     7
370
    15
100
AcDbLine
 10
219.4652835310472
 20
133.7717476486431
 30
0.0
 11
228.9509864927305
 21
133.7717476486427
 31
0.0
  0
LINE
  5
1E3
330
1F
100
AcDbEntity
  8
0
  6
Continuous
 62
     7
370
    15
100
AcDbLine
 10
230.2059231729281
 20
144.5532146095497
 30
0.0
 11
218.2103487134945
 21
144.5532146095501
 31
0.0
  0
LINE
  5
1E4
330
1F
100
AcDbEntity
  8
0
  6
Continuous
 62
     7
370
    15
100
AcDbLine
 10
218.2103487134945
 20
144.5532146095501
 30
0.0
 11
218.2103487134945
 21
144.5304307340847
 31
0.0
  0
LINE
  5
1E5
330
1F
100
AcDbEntity
  8
0
  6
Continuous
 62
     7
370
    15
100
AcDbLine
 10
230.205923172928
 20
144.5304307340843
 30
0.0
 11
230.2059231729281
 21
144.5532146095497
 31
0.0
  0
LINE
  5
1E6
330
1F
100
AcDbEntity
  8
0
  6
Continuous
 62
     7
370
    15
100
AcDbLine
 10
218.2103487134948
 20
144.6782204508053
 30
0.0
 11
218.2103487134945
 21
144.5532146095501
 31
0.0
  0
LINE
  5
1E7
330
1F
100
AcDbEntity
  8
0
  6
Continuous
 62
     7
370
    15
100
AcDbLine
 10
230.2059231729281
 20
144.5532146095497
 30
0.0
 11
230.2059231729284
 21
144.6782204508049
 31
0.0
  0
LINE
  5
1E8
330
1F
100
AcDbEntity
  8
0
  6
Continuous
 62
     7
370
    15
100
AcDbLine
 10
218.2103487134975
 20
146.0501703619229
 30
0.0
 11
230.2059231729311
 21
146.0501703619224
 31
0.0
  0
LINE
  5
1E9
330
1F
100
AcDbEntity
  8
0
  6
Continuous
 62
     7
370
    15
100
AcDbLine
 10
218.2103487134964
 20
144.6782204508053
 30
0.0
 11
218.2103487134975
 21
146.0501703619229
 31
0.0
  0
LINE
  5
1EA
330
1F
100
AcDbEntity
  8
0
  6
Continuous
 62
     7
370
    15
100
AcDbLine
 10
230.2059231729311
 20
146.0501703619224
 30
0.0
 11
230.20592317293
 21
144.6782204508049
 31
0.0
  0
LINE
  5
1EB
330
1F
100
AcDbEntity
  8
0
  6
Continuous
 62
     7
370
    15
100
AcDbLine
 10
218.2103487134979
 20
146.5383622049557
 30
0.0
 11
230.2059231729314
 21
146.5383622049553
 31
0.0
  0
LINE
  5
1EC
330
1F
100
AcDbEntity
  8
0
  6
Continuous
 62
     7
370
    15
100
AcDbLine
 10
218.2103487134975
 20
146.0501703619229
 30
0.0
 11
218.2103487134979
 21
146.5383622049557
 31
0.0
  0
LINE
  5
1ED
330
1F
100
AcDbEntity
  8
0
  6
Continuous
 62
     7
370
    15
100
AcDbLine
 10
230.2059231729314
 20
146.5383622049553
 30
0.0
 11
230.2059231729311
 21
146.0501703619224
 31
0.0
  0
LINE
  5
1EE
330
1F
100
AcDbEntity
  8
0
  6
Continuous
 62
     7
370
    15
100
AcDbLine
 10
230.2059231729353
 20
149.8823168873054
 30
0.0
 11
218.2103487135018
 21
149.8823168873059
 31
0.0
  0
LINE
  5
1EF
330
1F
100
AcDbEntity
  8
0
  6
Continuous
 62
     7
370
    15
100
AcDbLine
 10
218.2103487134994
 20
146.5383622049557
 30
0.0
 11
218.2103487135018
 21
149.8823168873059
 31
0.0
  0
LINE
  5
1F0
330
1F
100
AcDbEntity
  8
0
  6
Continuous
 62
     7
370
    15
100
AcDbLine
 10
230.2059231729329
 20
146.5383622049553
 30
0.0
 11
230.2059231729353
 21
149.8823168873054
 31
0.0
  0
LINE
  5
1F1
330
1F
100
AcDbEntity
  8
0
  6
Continuous
 62
     7
370
    15
100
AcDbLine
 10
230.205923172934
 20
150.4397097229225
 30
0.0
 11
218.2103487135004
 21
150.4397097229229
 31
0.0
  0
LINE
  5
1F2
330
1F
100
AcDbEntity
  8
0
  6
Continuous
 62
     7
370
    15
100
AcDbLine
 10
230.2059231729348
 20
149.8964431881172
 30
0.0
 11
218.2103487135013
 21
149.8964431881176
 31
0.0
  0
LINE
  5
1F3
330
1F
100
AcDbEntity
  8
0
  6
Continuous
 62
     7
370
    15
100
AcDbLine
 10
218.2103487135013
 20
149.8964431881176
 30
0.0
 11
218.2103487135004
 21
150.4397097229229
 31
0.0
  0
LINE
  5
1F4
330
1F
100
AcDbEntity
  8
0
  6
Continuous
 62
     7
370
    15
100
AcDbLine
 10
230.205923172934
 20
150.4397097229225
 30
0.0
 11
230.2059231729348
 21
149.8964431881172
 31
0.0
  0
LINE
  5
1F5
330
1F
100
AcDbEntity
  8
0
  6
Continuous
 62
     7
370
    15
100
AcDbLine
 10
230.2059231729343
 20
150.9326848386985
 30
0.0
 11
218.2103487135008
 21
150.932684838699
 31
0.0
  0
LINE
  5
1F6
330
1F
100
AcDbEntity
  8
0
  6
Continuous
 62
     7
370
    15
100
AcDbLine
 10
218.2103487135004
 20
150.4397097229229
 30
0.0
 11
218.2103487135008
 21
150.932684838699
 31
0.0
  0
LINE
  5
1F7
330
1F
100
AcDbEntity
  8
0
  6
Continuous
 62
     7
370
    15
100
AcDbLine
 10
230.2059231729343
 20
150.9326848386985
 30
0.0
 11
230.205923172934
 21
150.4397097229225
 31
0.0
  0
LINE
  5
1F8
330
1F
100
AcDbEntity
  8
0
  6
Continuous
 62
     7
370
    15
100
AcDbLine
 10
230.2059231729343
 20
154.0748479961616
 30
0.0
 11
218.2103487135008
 21
154.0748479961621
 31
0.0
  0
LINE
  5
1F9
330
1F
100
AcDbEntity
  8
0
  6
Continuous
 62
     7
370
    15
100
AcDbLine
 10
218.2103487135008
 20
154.0748479961621
 30
0.0
 11
218.2103487135009
 21
153.6998453735577
 31
0.0
  0
LINE
  5
1FA
330
1F
100
AcDbEntity
  8
0
  6
Continuous
 62
     7
370
    15
100
AcDbLine
 10
230.2059231729345
 20
153.6998453735573
 30
0.0
 11
230.2059231729343
 21
154.0748479961616
 31
0.0
  0
LINE
  5
1FB
330
1F
100
AcDbEntity
  8
0
  6
Continuous
 62
     7
370
    15
100
AcDbLine
 10
218.2103487135009
 20
154.3273332714306
 30
0.0
 11
230.2059231729344
 21
154.3273332714302
 31
0.0
  0
LINE
  5
1FC
330
1F
100
AcDbEntity
  8
0
  6
Continuous
 62
     7
370
    15
100
AcDbLine
 10
218.2103487135008
 20
154.0748479961621
 30
0.0
 11
218.2103487135009
 21
154.3273332714306
 31
0.0
  0
LINE
  5
1FD
330
1F
100
AcDbEntity
  8
0
  6
Continuous
 62
     7
370
    15
100
AcDbLine
 10
230.2059231729344
 20
154.3273332714302
 30
0.0
 11
230.2059231729343
 21
154.0748479961616
 31
0.0
  0
LINE
  5
1FE
330
1F
100
AcDbEntity
  8
0
  6
Continuous
 62
     7
370
    15
100
AcDbLine
 10
218.2103487135016
 20
152.7415665983425
 30
0.0
 11
230.2059231729351
 21
152.7415665983421
 31
0.0
  0
LINE
  5
1FF
330
1F
100
AcDbEntity
  8
0
  6
Continuous
 62
     7
370
    15
100
AcDbLine
 10
218.2103487135008
 20
150.932684838699
 30
0.0
 11
218.2103487135016
 21
152.7415665983425
 31
0.0
  0
LINE
  5
200
330
1F
100
AcDbEntity
  8
0
  6
Continuous
 62
     7
370
    15
100
AcDbLine
 10
230.2059231729351
 20
152.7415665983421
 30
0.0
 11
230.2059231729343
 21
150.9326848386985
 31
0.0
  0
LINE
  5
201
330
1F
100
AcDbEntity
  8
0
  6
Continuous
 62
     7
370
    15
100
AcDbLine
 10
230.2059231729349
 20
154.5773449539406
 30
0.0
 11
218.2103487135014
 21
154.577344953941
 31
0.0
  0
LINE
  5
202
330
1F
100
AcDbEntity
  8
0
  6
Continuous
 62
     7
370
    15
100
AcDbLine
 10
218.2103487135014
 20
154.577344953941
 30
0.0
 11
218.2103487135009
 21
154.3273332714306
 31
0.0
  0
LINE
  5
203
330
1F
100
AcDbEntity
  8
0
  6
Continuous
 62
     7
370
    15
100
AcDbLine
 10
230.2059231729349
 20
154.5773449539406
 30
0.0
 11
230.2059231729344
 21
154.3273332714302
 31
0.0
  0
LINE
  5
204
330
1F
100
AcDbEntity
  8
0
  6
Continuous
 62
     7
370
    15
100
AcDbLine
 10
218.2103487135017
 20
153.5836014150845
 30
0.0
 11
230.2059231729353
 21
153.583601415084
 31
0.0
  0
LINE
  5
205
330
1F
100
AcDbEntity
  8
0
  6
Continuous
 62
     7
370
    15
100
AcDbLine
 10
218.2103487135017
 20
153.5836014150845
 30
0.0
 11
218.2103487135016
 21
153.6998453735577
 31
0.0
  0
LINE
  5
206
330
1F
100
AcDbEntity
  8
0
  6
Continuous
 62
     7
370
    15
100
AcDbLine
 10
230.2059231729351
 20
153.6998453735573
 30
0.0
 11
230.2059231729353
 21
153.583601415084
 31
0.0
  0
LINE
  5
207
330
1F
100
AcDbEntity
  8
0
  6
Continuous
 62
     7
370
    15
100
AcDbLine
 10
218.2103487135018
 20
153.4148755668866
 30
0.0
 11
230.2059231729353
 21
153.4148755668861
 31
0.0
  0
LINE
  5
208
330
1F
100
AcDbEntity
  8
0
  6
Continuous
 62
     7
370
    15
100
AcDbLine
 10
218.2103487135016
 20
152.7415665983425
 30
0.0
 11
218.2103487135018
 21
153.4148755668866
 31
0.0
  0
LINE
  5
209
330
1F
100
AcDbEntity
  8
0
  6
Continuous
 62
     7
370
    15
100
AcDbLine
 10
230.2059231729353
 20
153.4148755668861
 30
0.0
 11
230.2059231729351
 21
152.7415665983421
 31
0.0
  0
LINE
  5
20A
330
1F
100
AcDbEntity
  8
0
  6
Continuous
 62
     7
370
    15
100
AcDbLine
 10
218.2103487135018
 20
153.4148755668866
 30
0.0
 11
218.2103487135017
 21
153.5836014150845
 31
0.0
  0
LINE
  5
20B
330
1F
100
AcDbEntity
  8
0
  6
Continuous
 62
     7
370
    15
100
AcDbLine
 10
230.2059231729353
 20
153.583601415084
 30
0.0
 11
230.2059231729353
 21
153.4148755668861
 31
0.0
  0
LINE
  5
20C
330
1F
100
AcDbEntity
  8
0
  6
Continuous
 62
     7
370
    15
100
AcDbLine
 10
218.2103487135018
 20
149.8823168873059
 30
0.0
 11
218.2103487135018
 21
149.8964431881176
 31
0.0
  0
LINE
  5
20D
330
1F
100
AcDbEntity
  8
0
  6
Continuous
 62
     7
370
    15
100
AcDbLine
 10
230.2059231729353
 20
149.8964431881172
 30
0.0
 11
230.2059231729353
 21
149.8823168873054
 31
0.0
  0
LINE
  5
20E
330
1F
100
AcDbEntity
  8
0
  6
Continuous
 62
     7
370
    15
100
AcDbLine
 10
219.9185060740643
 20
155.0642552971111
 30
0.0
 11
228.4977639497453
 21
155.0642552971108
 31
0.0
  0
LINE
  5
20F
330
1F
100
AcDbEntity
  8
0
  6
Continuous
 62
     7
370
    15
100
AcDbLine
 10
224.2081350119003
 20
156.5773341058954
 30
0.0
 11
219.9185060740644
 21
156.5773341058956
 31
0.0
  0
LINE
  5
210
330
1F
100
AcDbEntity
  8
0
  6
Continuous
 62
     7
370
    15
100
AcDbLine
 10
228.4977639497453
 20
156.5773341058953
 30
0.0
 11
224.2081350119003
 21
156.5773341058954
 31
0.0
  0
LINE
  5
211
330
1F
100
AcDbEntity
  8
0
  6
Continuous
 62
     7
370
    15
100
AcDbLine
 10
218.2103487135409
 20
101.6773584484325
 30
0.0
 11
230.2059231729744
 21
101.6773584484321
 31
0.0
  0
LINE
  5
212
330
1F
100
AcDbEntity
  8
0
  6
Continuous
 62
     7
370
    15
100
AcDbLine
 10
218.2103487135409
 20
101.6773584484325
 30
0.0
 11
218.2103487135405
 21
101.7037037014233
 31
0.0
  0
LINE
  5
213
330
1F
100
AcDbEntity
  8
0
  6
Continuous
 62
     7
370
    15
100
AcDbLine
 10
230.2059231729744
 20
101.6773584484321
 30
0.0
 11
230.205923172974
 21
101.7037037014228
 31
0.0
  0
LINE
  5
214
330
1F
100
AcDbEntity
  8
0
  6
Continuous
 62
     7
370
    15
100
AcDbLine
 10
245.2280264747259
 20
213.6515581358701
 30
0.0
 11
246.0765544878175
 21
214.1414029311872
 31
0.0
  0
LINE
  5
215
330
1F
100
AcDbEntity
  8
0
  6
Continuous
 62
     7
370
    15
100
AcDbLine
 10
268.9002754587075
 20
239.6625734673433
 30
0.0
 11
277.3824275032102
 21
244.5592156146659
 31
0.0
  0
LINE
  5
216
330
1F
100
AcDbEntity
  8
0
  6
Continuous
 62
     7
370
    15
100
AcDbLine
 10
281.0195846258633
 20
234.9734476279731
 30
0.0
 11
272.5374325813606
 21
230.0768054806506
 31
0.0
  0
LINE
  5
217
330
1F
100
AcDbEntity
  8
0
  6
Continuous
 62
     7
370
    15
100
AcDbLine
 10
270.9377002138511
 20
246.9137015799462
 30
0.0
 11
270.937700213851
 21
248.1491921789183
 31
0.0
  0
LINE
  5
218
330
1F
100
AcDbEntity
  8
0
  6
Continuous
 62
     7
370
    15
100
AcDbLine
 10
262.3584457816554
 20
248.1491921789233
 30
0.0
 11
262.3584457816554
 21
246.9137015799514
 31
0.0
  0
LINE
  5
219
330
1F
100
AcDbEntity
  8
0
  6
Continuous
 62
     7
370
    15
100
AcDbLine
 10
266.2233328635382
 20
251.3710278065997
 30
0.0
 11
264.0733931450368
 21
250.1298940253867
 31
0.0
  0
LINE
  5
21A
330
1F
100
AcDbEntity
  8
0
  6
Continuous
 62
     7
370
    15
100
AcDbLine
 10
263.2170468915465
 20
249.6355358559573
 30
0.0
 11
257.7411808190356
 21
246.4743856592771
 31
0.0
  0
LINE
  5
21B
330
1F
100
AcDbEntity
  8
0
  6
Continuous
 62
     7
370
    15
100
AcDbLine
 10
255.80563816766
 20
255.649255057747
 30
0.0
 11
255.80563816766
 21
256.884745656719
 31
0.0
  0
LINE
  5
21C
330
1F
100
AcDbEntity
  8
0
  6
Continuous
 62
     7
370
    15
100
AcDbLine
 10
247.2263837354643
 20
256.8847456567241
 30
0.0
 11
247.2263837354643
 21
255.6492550577521
 31
0.0
  0
LINE
  5
21D
330
1F
100
AcDbEntity
  8
0
  6
Continuous
 62
     7
370
    15
100
AcDbLine
 10
249.394991873687
 20
261.2531971153493
 30
0.0
 11
240.9128398291843
 21
256.3565549680268
 31
0.0
  0
LINE
  5
21E
330
1F
100
AcDbEntity
  8
0
  6
Continuous
 62
     7
370
    15
100
AcDbLine
 10
272.768623850512
 20
195.0107182314798
 30
0.0
 11
281.2507758950147
 21
199.9073603788023
 31
0.0
  0
LINE
  5
21F
330
1F
100
AcDbEntity
  8
0
  6
Continuous
 62
     7
370
    15
100
AcDbLine
 10
267.0760808298203
 20
201.8760214517208
 30
0.0
 11
266.2071866692748
 21
201.3744195297361
 31
0.0
  0
LINE
  5
220
330
1F
100
AcDbEntity
  8
0
  6
Continuous
 62
     7
370
    15
100
AcDbLine
 10
240.8636478715359
 20
252.9443499393779
 30
0.0
 11
236.8945197794898
 21
250.6530210641509
 31
0.0
  0
LINE
  5
221
330
1F
100
AcDbEntity
  8
0
  6
Continuous
 62
     7
370
    15
100
AcDbLine
 10
257.5755858512409
 20
207.6944063423128
 30
0.0
 11
257.6192974015027
 21
207.7196426026338
 31
0.0
  0
ARC
  5
222
330
1F
100
AcDbEntity
  8
0
  6
Continuous
 62
     7
370
    15
100
AcDbCircle
 10
257.3684884974629
 20
208.1526720974117
 30
0.0
 40
0.5028884729622633
100
AcDbArc
 50
234.3774442476211
 51
294.3189435352753
  0
LINE
  5
223
330
1F
100
AcDbEntity
  8
0
  6
Continuous
 62
     7
370
    15
100
AcDbLine
 10
255.0977278462615
 20
208.8856807834511
 30
0.0
 11
257.0755846164665
 21
207.7438883737441
 31
0.0
  0
ARC
  5
224
330
1F
100
AcDbEntity
  8
0
  6
Continuous
 62
     7
370
    15
100
AcDbCircle
 10
255.8720498942226
 20
210.1244083836752
 30
0.0
 40
1.460828772141284
100
AcDbArc
 50
205.8633601208086
 51
237.9907155018051
  0
LINE
  5
225
330
1F
100
AcDbEntity
  8
0
  6
Continuous
 62
     7
370
    15
100
AcDbLine
 10
245.0816214938893
 20
214.8943156689272
 30
0.0
 11
244.986878012615
 21
215.0121830897653
 31
0.0
  0
ARC
  5
226
330
1F
100
AcDbEntity
  8
0
  6
Continuous
 62
     7
370
    15
100
AcDbCircle
 10
243.865479404031
 20
213.893279760594
 30
0.0
 40
1.575142683218784
100
AcDbArc
 50
5.617432799459312
 51
39.4586205351222
  0
ARC
  5
227
330
1F
100
AcDbEntity
  8
0
  6
Continuous
 62
     7
370
    15
100
AcDbCircle
 10
245.0155309258945
 20
214.0195535781392
 30
0.0
 40
0.4184586010027097
100
AcDbArc
 50
279.0872379958738
 51
3.824322724338507
  0
LINE
  5
228
330
1F
100
AcDbEntity
  8
0
  6
Continuous
 62
     7
370
    15
100
AcDbLine
 10
244.2392034567447
 20
213.5310171551153
 30
0.0
 11
245.0816214938894
 21
213.606347046759
 31
0.0
  0
ARC
  5
229
330
1F
100
AcDbEntity
  8
0
  6
Continuous
 62
     7
370
    15
100
AcDbCircle
 10
244.2139879217844
 20
214.1441131602709
 30
0.0
 40
0.6136143208409088
100
AcDbArc
 50
237.6500195987659
 51
272.355144930743
  0
LINE
  5
22A
330
1F
100
AcDbEntity
  8
0
  6
Continuous
 62
     7
370
    15
100
AcDbLine
 10
242.9610976414752
 20
214.1594669547462
 30
0.0
 11
243.8856493496554
 21
213.6257346144249
 31
0.0
  0
LINE
  5
22B
330
1F
100
AcDbEntity
  8
0
  6
Continuous
 62
     7
370
    15
100
AcDbLine
 10
257.6193053040368
 20
207.7196450451909
 30
0.0
 11
257.5755858512409
 21
207.6944063423128
 31
0.0
  0
LINE
  5
22C
330
1F
100
AcDbEntity
  8
0
  6
Continuous
 62
     7
370
    15
100
AcDbLine
 10
245.433057721841
 20
214.0474637092708
 30
0.0
 11
246.045534407313
 21
214.4010389737319
 31
0.0
  0
ARC
  5
22D
330
1F
100
AcDbEntity
  8
0
  6
Continuous
 62
     7
370
    15
100
AcDbCircle
 10
245.881634048365
 20
214.4647814381242
 30
0.0
 40
0.3775812978222856
100
AcDbArc
 50
301.0799970381152
 51
334.062213596256
  0
LWPOLYLINE
  5
22E
330
1F
100
AcDbEntity
  8
0
  6
Continuous
 62
     7
370
    15
100
AcDbPolyline
 90
        9
 70
   128
 43
0.0
 10
236.8664157340672
 20
250.6269512800761
 10
236.902953100459
 20
250.6572781662777
 10
236.9518618839778
 20
250.6641588610035
 10
237.0079527539007
 20
250.6468780422045
 10
237.0652698336974
 20
250.6072678665901
 10
237.1177281721143
 20
250.5495346439047
 10
237.1597617509697
 20
250.4797995781456
 10
237.1869082726778
 20
250.4054813265679
 10
237.1962859464714
 20
250.3344367213565
  0
LINE
  5
22F
330
1F
100
AcDbEntity
  8
0
  6
Continuous
 62
     7
370
    15
100
AcDbLine
 10
237.1962740926703
 20
250.1694292007221
 30
0.0
 11
237.1962859464714
 21
250.3344367213565
 31
0.0
  0
LINE
  5
230
330
1F
100
AcDbEntity
  8
0
  6
Continuous
 62
     7
370
    15
100
AcDbLine
 10
237.5025473382646
 20
249.7884280076565
 30
0.0
 11
237.1962740926703
 21
250.1694292007221
 31
0.0
  0
ARC
  5
231
330
1F
100
AcDbEntity
  8
0
  6
Continuous
 62
     7
370
    15
100
AcDbCircle
 10
237.6010684127868
 20
249.8423486466341
 30
0.0
 40
0.1123113415143885
100
AcDbArc
 50
208.6919123898584
 51
285.234371743133
  0
LINE
  5
232
330
1F
100
AcDbEntity
  8
0
  6
Continuous
 62
     7
370
    15
100
AcDbLine
 10
237.9819795938766
 20
249.9369450086938
 30
0.0
 11
237.6305802444174
 21
249.7339840342066
 31
0.0
  0
ARC
  5
233
330
1F
100
AcDbEntity
  8
0
  6
Continuous
 62
     7
370
    15
100
AcDbCircle
 10
236.6423775199678
 20
252.2262332703431
 30
0.0
 40
2.65242803132265
100
AcDbArc
 50
300.3345037615447
 51
325.3651770292149
  0
LINE
  5
234
330
1F
100
AcDbEntity
  8
0
  6
Continuous
 62
     7
370
    15
100
AcDbLine
 10
239.0240301302599
 20
251.002341030998
 30
0.0
 11
238.8247716843018
 21
250.7187419195131
 31
0.0
  0
LINE
  5
235
330
1F
100
AcDbEntity
  8
0
  6
Continuous
 62
     7
370
    15
100
AcDbLine
 10
239.6582019060015
 20
250.2550487868136
 30
0.0
 11
239.0240301302599
 21
251.002341030998
 31
0.0
  0
LINE
  5
236
330
1F
100
AcDbEntity
  8
0
  6
Continuous
 62
     7
370
    15
100
AcDbLine
 10
239.5706615845555
 20
250.1304957626257
 30
0.0
 11
239.6582019060015
 21
250.2550487868136
 31
0.0
  0
ARC
  5
237
330
1F
100
AcDbEntity
  8
0
  6
Continuous
 62
     7
370
    15
100
AcDbCircle
 10
239.7363795024324
 20
250.0655707889074
 30
0.0
 40
0.177982247760204
100
AcDbArc
 50
158.6057451530647
 51
224.523196616364
  0
LINE
  5
238
330
1F
100
AcDbEntity
  8
0
  6
Continuous
 62
     7
370
    15
100
AcDbLine
 10
239.6697040443779
 20
249.8658533234686
 30
0.0
 11
239.60948410039
 21
249.940769997811
 31
0.0
  0
LWPOLYLINE
  5
239
330
1F
100
AcDbEntity
  8
0
  6
Continuous
 62
     7
370
    15
100
AcDbPolyline
 90
        9
 70
   128
 43
0.0
 10
239.8246951285095
 20
249.8487019379215
 10
239.8155057984451
 20
249.828382267668
 10
239.8015604599442
 20
249.8138500342083
 10
239.7835756094312
 20
249.8058596839617
 10
239.7624718921284
 20
249.8048166300362
 10
239.7393306381179
 20
249.8107658412068
 10
239.7153385446031
 20
249.8233994413542
 10
239.6917270898139
 20
249.8420795176661
 10
239.6697040443779
 20
249.8658533234686
  0
ARC
  5
23A
330
1F
100
AcDbEntity
  8
0
  6
Continuous
 62
     7
370
    15
100
AcDbCircle
 10
243.8138260835392
 20
248.8633126965615
 30
0.0
 40
4.109033673914575
100
AcDbArc
 50
123.6726585325263
 51
166.1246463704128
  0
LWPOLYLINE
  5
23B
330
1F
100
AcDbEntity
  8
0
  6
Continuous
 62
     7
370
    15
100
AcDbPolyline
 90
        9
 70
   128
 43
0.0
 10
241.5123234315126
 20
252.4875174750915
 10
241.5316266881306
 20
252.4598749393551
 10
241.5472236562577
 20
252.4297848862622
 10
241.558310911594
 20
252.3987818545396
 10
241.564324740041
 20
252.3684688470666
 10
241.5649516744125
 20
252.3403774066928
 10
241.5601627387505
 20
252.3159721822275
 10
241.5502029116118
 20
252.2964866674675
 10
241.5355832235346
 20
252.2829277632322
  0
LINE
  5
23C
330
1F
100
AcDbEntity
  8
0
  6
Continuous
 62
     7
370
    15
100
AcDbLine
 10
241.4521008533467
 20
252.5624235027062
 30
0.0
 11
241.5123234315126
 21
252.4875174750915
 31
0.0
  0
LWPOLYLINE
  5
23D
330
1F
100
AcDbEntity
  8
0
  6
Continuous
 62
     7
370
    15
100
AcDbPolyline
 90
        9
 70
   128
 43
0.0
 10
241.3072078907005
 20
252.6012315375443
 10
241.3193198412913
 20
252.6137559769387
 10
241.3344953409332
 20
252.6214091785144
 10
241.3521522362813
 20
252.6239066745247
 10
241.3716135435811
 20
252.6211282483096
 10
241.3921285220938
 20
252.6131909407098
 10
241.4129121867657
 20
252.6004140724819
 10
241.4331611132972
 20
252.5832736180082
 10
241.4521008533467
 20
252.5624235027062
  0
LINE
  5
23E
330
1F
100
AcDbEntity
  8
0
  6
Continuous
 62
     7
370
    15
100
AcDbLine
 10
241.2197637167526
 20
252.4767811848685
 30
0.0
 11
241.3072078907005
 21
252.6012315375443
 31
0.0
  0
LINE
  5
23F
330
1F
100
AcDbEntity
  8
0
  6
Continuous
 62
     7
370
    15
100
AcDbLine
 10
240.6167950968882
 20
253.2684668572904
 30
0.0
 11
241.2197637167526
 21
252.4767811848685
 31
0.0
  0
LINE
  5
240
330
1F
100
AcDbEntity
  8
0
  6
Continuous
 62
     7
370
    15
100
AcDbLine
 10
240.8180462985275
 20
253.5548213128166
 30
0.0
 11
240.6167950968882
 21
253.2684668572904
 31
0.0
  0
ARC
  5
241
330
1F
100
AcDbEntity
  8
0
  6
Continuous
 62
     7
370
    15
100
AcDbCircle
 10
237.7753972857386
 20
255.6365154116597
 30
0.0
 40
3.686619499783402
100
AcDbArc
 50
325.6211737296442
 51
345.7015207863968
  0
LINE
  5
242
330
1F
100
AcDbEntity
  8
0
  6
Continuous
 62
     7
370
    15
100
AcDbLine
 10
241.4754054263951
 20
255.2021459983201
 30
0.0
 11
241.3478137450626
 21
254.726018856293
 31
0.0
  0
ARC
  5
243
330
1F
100
AcDbEntity
  8
0
  6
Continuous
 62
     7
370
    15
100
AcDbCircle
 10
241.2718056777449
 20
255.2321356409765
 30
0.0
 40
0.2057965896633333
100
AcDbArc
 50
351.6207538172475
 51
41.48007965629998
  0
LINE
  5
244
330
1F
100
AcDbEntity
  8
0
  6
Continuous
 62
     7
370
    15
100
AcDbLine
 10
241.1188141120349
 20
255.7505872729729
 30
0.0
 11
241.4259856123381
 21
255.3684469907824
 31
0.0
  0
LINE
  5
245
330
1F
100
AcDbEntity
  8
0
  6
Continuous
 62
     7
370
    15
100
AcDbLine
 10
240.9950525255609
 20
255.7395017994162
 30
0.0
 11
241.1188141120349
 21
255.7505872729729
 31
0.0
  0
ARC
  5
246
330
1F
100
AcDbEntity
  8
0
  6
Continuous
 62
     7
370
    15
100
AcDbCircle
 10
241.0467455404906
 20
256.0481968131393
 30
0.0
 40
0.3129932575792269
100
AcDbArc
 50
159.5103223465811
 51
260.4936472861896
  0
LINE
  5
247
330
1F
100
AcDbEntity
  8
0
  6
Continuous
 62
     7
370
    15
100
AcDbLine
 10
240.8566343725171
 20
256.3044138791986
 30
0.0
 11
240.7535537177717
 21
256.1577565428799
 31
0.0
  0
ARC
  5
248
330
1F
100
AcDbEntity
  8
0
  6
Continuous
 62
     7
370
    15
100
AcDbCircle
 10
241.0237317391471
 20
256.1615414027739
 30
0.0
 40
0.219850118158703
100
AcDbArc
 50
50.75383312049972
 51
139.4687199976836
  0
LINE
  5
249
330
1F
100
AcDbEntity
  8
0
  6
Continuous
 62
     7
370
    15
100
AcDbLine
 10
251.3407999168484
 20
250.4561786811905
 30
0.0
 11
241.1628206902363
 21
256.3318010225882
 31
0.0
  0
ARC
  5
24A
330
1F
100
AcDbEntity
  8
0
  6
Continuous
 62
     7
370
    15
100
AcDbCircle
 10
250.3470700837211
 20
248.9026546085937
 30
0.0
 40
1.844162689511162
100
AcDbArc
 50
2.605284460796322
 51
57.39451028791088
  0
LINE
  5
24B
330
1F
100
AcDbEntity
  8
0
  6
Continuous
 62
     7
370
    15
100
AcDbLine
 10
252.1893266128492
 20
248.9864812527469
 30
0.0
 11
252.1893266128495
 21
241.9642330739
 31
0.0
  0
ARC
  5
24C
330
1F
100
AcDbEntity
  8
0
  6
Continuous
 62
     7
370
    15
100
AcDbCircle
 10
252.4963869758043
 20
241.9782122036175
 30
0.0
 40
0.3073784028938676
100
AcDbArc
 50
182.606629102732
 51
237.3927548560761
  0
LINE
  5
24D
330
1F
100
AcDbEntity
  8
0
  6
Continuous
 62
     7
370
    15
100
AcDbLine
 10
252.3307477288496
 20
241.7192814745916
 30
0.0
 11
257.3511828588748
 21
238.8210459646994
 31
0.0
  0
ARC
  5
24E
330
1F
100
AcDbEntity
  8
0
  6
Continuous
 62
     7
370
    15
100
AcDbCircle
 10
257.4063881636925
 20
238.888730159823
 30
0.0
 40
0.0873428643310524
100
AcDbArc
 50
230.7982602765328
 51
9.214339838174385
  0
LINE
  5
24F
330
1F
100
AcDbEntity
  8
0
  6
Continuous
 62
     7
370
    15
100
AcDbLine
 10
257.4926039748748
 20
238.9027162190147
 30
0.0
 11
257.4926039748746
 21
245.9249643978616
 31
0.0
  0
ARC
  5
250
330
1F
100
AcDbEntity
  8
0
  6
Continuous
 62
     7
370
    15
100
AcDbCircle
 10
258.0098942221656
 20
246.0088791894806
 30
0.0
 40
0.5240523754310483
100
AcDbArc
 50
50.79680783675339
 51
189.2142519794223
  0
LINE
  5
251
330
1F
100
AcDbEntity
  8
0
  6
Continuous
 62
     7
370
    15
100
AcDbLine
 10
268.5191098974875
 20
240.5393514149501
 30
0.0
 11
258.3411333050533
 21
246.4149722356691
 31
0.0
  0
ARC
  5
252
330
1F
100
AcDbEntity
  8
0
  6
Continuous
 62
     7
370
    15
100
AcDbCircle
 10
268.1051975537676
 20
239.8931080504429
 30
0.0
 40
0.7674333289956124
100
AcDbArc
 50
20.22741886704888
 51
57.36084873641065
  0
LINE
  5
253
330
1F
100
AcDbEntity
  8
0
  6
Continuous
 62
     7
370
    15
100
AcDbLine
 10
268.9283768699521
 20
239.8927773469084
 30
0.0
 11
268.8253014835627
 21
240.1584460325465
 31
0.0
  0
LWPOLYLINE
  5
254
330
1F
100
AcDbEntity
  8
0
  6
Continuous
 62
     7
370
    15
100
AcDbPolyline
 90
        9
 70
   128
 43
0.0
 10
268.9283768699521
 20
239.8927773469084
 10
268.948665309154
 20
239.8188166298373
 10
268.9505513806249
 20
239.7512572835587
 10
268.9338296184782
 20
239.6972628492282
 10
268.9002807270636
 20
239.6625704259861
 10
268.8534608467241
 20
239.6508701134642
 10
268.798343305584
 20
239.6633791189513
 10
268.7407812472303
 20
239.698799121048
 10
268.686880696341
 20
239.7533496712065
  0
LINE
  5
255
330
1F
100
AcDbEntity
  8
0
  6
Continuous
 62
     7
370
    15
100
AcDbLine
 10
268.5631217440449
 20
239.9073257102843
 30
0.0
 11
268.686880696341
 21
239.7533496712065
 31
0.0
  0
LINE
  5
256
330
1F
100
AcDbEntity
  8
0
  6
Continuous
 62
     7
370
    15
100
AcDbLine
 10
268.2559449753857
 20
239.8798411347076
 30
0.0
 11
268.5631217440449
 21
239.9073257102843
 31
0.0
  0
LWPOLYLINE
  5
257
330
1F
100
AcDbEntity
  8
0
  6
Continuous
 62
     7
370
    15
100
AcDbPolyline
 90
        9
 70
   128
 43
0.0
 10
268.2065277955068
 20
239.770597524344
 10
268.2034247337851
 20
239.7920879144795
 10
268.2031402425578
 20
239.8122675310658
 10
268.2056848585366
 20
239.8305949255131
 10
268.2109848247368
 20
239.8466016457595
 10
268.2189084322569
 20
239.85982835986
 10
268.229234410142
 20
239.8699526107864
 10
268.2416888038769
 20
239.8766823550823
 10
268.2559449753857
 20
239.8798411347076
  0
LINE
  5
258
330
1F
100
AcDbEntity
  8
0
  6
Continuous
 62
     7
370
    15
100
AcDbLine
 10
268.3341168426613
 20
239.1471576834001
 30
0.0
 11
268.2065277955068
 21
239.770597524344
 31
0.0
  0
ARC
  5
259
330
1F
100
AcDbEntity
  8
0
  6
Continuous
 62
     7
370
    15
100
AcDbCircle
 10
279.2020372672504
 20
241.4063658565978
 30
0.0
 40
11.100257471115
100
AcDbArc
 50
191.7433166119004
 51
201.3547379955269
  0
LINE
  5
25A
330
1F
100
AcDbEntity
  8
0
  6
Continuous
 62
     7
370
    15
100
AcDbLine
 10
269.0651381250138
 20
236.8455879979241
 30
0.0
 11
268.8638816550185
 21
237.3643051863057
 31
0.0
  0
LINE
  5
25B
330
1F
100
AcDbEntity
  8
0
  6
Continuous
 62
     7
370
    15
100
AcDbLine
 10
268.4621695051494
 20
236.7500750755455
 30
0.0
 11
269.0651381250138
 21
236.8455879979241
 31
0.0
  0
LINE
  5
25C
330
1F
100
AcDbEntity
  8
0
  6
Continuous
 62
     7
370
    15
100
AcDbLine
 10
268.3747253312016
 20
236.9754863224486
 30
0.0
 11
268.4621695051494
 21
236.7500750755455
 31
0.0
  0
ARC
  5
25D
330
1F
100
AcDbEntity
  8
0
  6
Continuous
 62
     7
370
    15
100
AcDbCircle
 10
268.2032227543064
 20
236.9280201141462
 30
0.0
 40
0.1779499222036279
100
AcDbArc
 50
15.47031812391472
 51
81.40091916572462
  0
LINE
  5
25E
330
1F
100
AcDbEntity
  8
0
  6
Continuous
 62
     7
370
    15
100
AcDbLine
 10
268.1696071562114
 20
237.0985951432122
 30
0.0
 11
268.2298297343773
 21
237.1039696620961
 31
0.0
  0
LWPOLYLINE
  5
25F
330
1F
100
AcDbEntity
  8
0
  6
Continuous
 62
     7
370
    15
100
AcDbPolyline
 90
        9
 70
   128
 43
0.0
 10
268.1463473641894
 20
236.9208606155928
 10
268.1317276761123
 20
236.9512990523911
 10
268.1217704831516
 20
236.9822824181159
 10
268.1169815474896
 20
237.0122168300046
 10
268.1176084818611
 20
237.0395844273604
 10
268.12361967613
 20
237.062955536982
 10
268.1347095656444
 20
237.0811559754931
 10
268.1503038995934
 20
237.0932396731735
 10
268.1696071562114
 20
237.0985951432122
  0
ARC
  5
260
330
1F
100
AcDbEntity
  8
0
  6
Continuous
 62
     7
370
    15
100
AcDbCircle
 10
254.2588915187284
 20
228.9959183832905
 30
0.0
 40
15.98956344760415
100
AcDbArc
 50
12.70044895877781
 51
29.71144582345104
  0
ARC
  5
261
330
1F
100
AcDbEntity
  8
0
  6
Continuous
 62
     7
370
    15
100
AcDbCircle
 10
270.0461037997263
 20
232.5370724855763
 30
0.0
 40
0.1906206223126415
100
AcDbArc
 50
187.7747765134795
 51
259.7641738505185
  0
LINE
  5
262
330
1F
100
AcDbEntity
  8
0
  6
Continuous
 62
     7
370
    15
100
AcDbLine
 10
270.0724478044232
 20
232.3548753777273
 30
0.0
 11
270.0122304946134
 21
232.3494856500798
 31
0.0
  0
LWPOLYLINE
  5
263
330
1F
100
AcDbEntity
  8
0
  6
Continuous
 62
     7
370
    15
100
AcDbPolyline
 90
        9
 70
   128
 43
0.0
 10
270.1112703202579
 20
232.4997776198548
 10
270.1198524722858
 20
232.4729462524916
 10
270.1245729193191
 20
232.4468476089998
 10
270.1252525372513
 20
232.4224489813691
 10
270.1218649843022
 20
232.4007146340738
 10
270.1145419693735
 20
232.3824689212467
 10
270.1035627153363
 20
232.368426704206
 10
270.0893486906761
 20
232.359099053562
 10
270.0724478044232
 20
232.3548753777273
  0
LINE
  5
264
330
1F
100
AcDbEntity
  8
0
  6
Continuous
 62
     7
370
    15
100
AcDbLine
 10
270.0237313159008
 20
232.7254017874693
 30
0.0
 11
270.1112703202579
 21
232.4997776198548
 31
0.0
  0
LINE
  5
265
330
1F
100
AcDbEntity
  8
0
  6
Continuous
 62
     7
370
    15
100
AcDbLine
 10
270.6579044087314
 20
232.7404941243386
 30
0.0
 11
270.0237313159008
 21
232.7254017874693
 31
0.0
  0
LINE
  5
266
330
1F
100
AcDbEntity
  8
0
  6
Continuous
 62
     7
370
    15
100
AcDbLine
 10
270.8571589034225
 20
232.2268383891093
 30
0.0
 11
270.6579044087314
 21
232.7404941243386
 31
0.0
  0
ARC
  5
267
330
1F
100
AcDbEntity
  8
0
  6
Continuous
 62
     7
370
    15
100
AcDbCircle
 10
282.7177439371098
 20
236.8432097139942
 30
0.0
 40
12.72730771021688
100
AcDbArc
 50
201.2669593111971
 51
210.0394256798042
  0
LINE
  5
268
330
1F
100
AcDbEntity
  8
0
  6
Continuous
 62
     7
370
    15
100
AcDbLine
 10
272.0513477091289
 20
229.8632979362325
 30
0.0
 11
271.6999536280258
 21
230.4719729223185
 31
0.0
  0
ARC
  5
269
330
1F
100
AcDbEntity
  8
0
  6
Continuous
 62
     7
370
    15
100
AcDbCircle
 10
272.1966606217533
 20
229.9280705742183
 30
0.0
 40
0.1590953714191966
100
AcDbArc
 50
204.0247279130703
 51
263.7659986471141
  0
LINE
  5
26A
330
1F
100
AcDbEntity
  8
0
  6
Continuous
 62
     7
370
    15
100
AcDbLine
 10
272.4856604463211
 20
229.7973000916768
 30
0.0
 11
272.1793845665488
 21
229.7699159817349
 31
0.0
  0
LINE
  5
26B
330
1F
100
AcDbEntity
  8
0
  6
Continuous
 62
     7
370
    15
100
AcDbLine
 10
272.4856446412529
 20
229.9623235794366
 30
0.0
 11
272.4856604463211
 21
229.7973000916768
 31
0.0
  0
LWPOLYLINE
  5
26C
330
1F
100
AcDbEntity
  8
0
  6
Continuous
 62
     7
370
    15
100
AcDbPolyline
 90
        9
 70
   128
 43
0.0
 10
272.4856446412529
 20
229.9623235794366
 10
272.4950223150466
 20
230.02254095295
 10
272.5221701538436
 20
230.0655157373725
 10
272.5642063668771
 20
230.0867183453164
 10
272.6166633882049
 20
230.0838852200121
 10
272.6739778338236
 20
230.0573200245863
 10
272.7300700208355
 20
230.0098389431125
 10
272.7789814385324
 20
229.9464878482312
 10
272.8155174878352
 20
229.8739765770688
  0
LINE
  5
26D
330
1F
100
AcDbEntity
  8
0
  6
Continuous
 62
     7
370
    15
100
AcDbLine
 10
272.8155174878352
 20
229.8739765770688
 30
0.0
 11
272.8248214046439
 21
229.8500015760504
 31
0.0
  0
ARC
  5
26E
330
1F
100
AcDbEntity
  8
0
  6
Continuous
 62
     7
370
    15
100
AcDbCircle
 10
272.2213372981298
 20
229.6059239472426
 30
0.0
 40
0.6509738517787191
100
AcDbArc
 50
1.109082968922128
 51
22.02074625105445
  0
LINE
  5
26F
330
1F
100
AcDbEntity
  8
0
  6
Continuous
 62
     7
370
    15
100
AcDbLine
 10
272.8721891940141
 20
229.6185241584866
 30
0.0
 11
272.8721891940153
 21
195.2396394469971
 31
0.0
  0
ARC
  5
270
330
1F
100
AcDbEntity
  8
0
  6
Continuous
 62
     7
370
    15
100
AcDbCircle
 10
272.6566608151592
 20
195.2046679387318
 30
0.0
 40
0.2183471742035865
100
AcDbArc
 50
230.7972534800202
 51
9.216455755288611
  0
LINE
  5
271
330
1F
100
AcDbEntity
  8
0
  6
Continuous
 62
     7
370
    15
100
AcDbLine
 10
272.5186508919942
 20
195.0354676148826
 30
0.0
 11
268.7318513837036
 21
197.221540439155
 31
0.0
  0
ARC
  5
272
330
1F
100
AcDbEntity
  8
0
  6
Continuous
 62
     7
370
    15
100
AcDbCircle
 10
271.1624236776206
 20
201.0451935706869
 30
0.0
 40
4.530784142533242
100
AcDbArc
 50
203.0789422797012
 51
237.5572030284622
  0
LINE
  5
273
330
1F
100
AcDbEntity
  8
0
  6
Continuous
 62
     7
370
    15
100
AcDbLine
 10
266.9942579917907
 20
199.2691305758297
 30
0.0
 11
266.1834105783587
 21
201.0743964370621
 31
0.0
  0
LWPOLYLINE
  5
274
330
1F
100
AcDbEntity
  8
0
  6
Continuous
 62
     7
370
    15
100
AcDbPolyline
 90
        9
 70
   128
 43
0.0
 10
266.3203246157461
 20
201.3771221844567
 10
266.2696114202755
 20
201.3882688537164
 10
266.2243878518233
 20
201.382302581181
 10
266.1874724808839
 20
201.3595430257405
 10
266.1611833841252
 20
201.3214748284705
 10
266.1471695569954
 20
201.2704312442519
 10
266.1463055466009
 20
201.209654968914
 10
266.1586387681464
 20
201.1429148609951
 10
266.1834105783587
 20
201.0743964370621
  0
LINE
  5
275
330
1F
100
AcDbEntity
  8
0
  6
Continuous
 62
     7
370
    15
100
AcDbLine
 10
266.3203246157461
 20
201.3771221844567
 30
0.0
 11
266.842392359894
 21
201.1820820215894
 31
0.0
  0
LWPOLYLINE
  5
276
330
1F
100
AcDbEntity
  8
0
  6
Continuous
 62
     7
370
    15
100
AcDbPolyline
 90
        9
 70
   128
 43
0.0
 10
267.0760808298183
 20
201.368809756503
 10
267.0717871196263
 20
201.314588349468
 10
267.0590271612397
 20
201.2669578403594
 10
267.0381960813632
 20
201.2273935642623
 10
267.0099208143684
 20
201.1970910276689
 10
266.97506537065
 20
201.1769628671213
 10
266.9346834214206
 20
201.1676175518016
 10
266.8900077619991
 20
201.1693411314342
 10
266.842392359894
 20
201.1820820215894
  0
LINE
  5
277
330
1F
100
AcDbEntity
  8
0
  6
Continuous
 62
     7
370
    15
100
AcDbLine
 10
267.0760808298183
 20
202.2603642827443
 30
0.0
 11
267.0760808298183
 21
201.368809756503
 31
0.0
  0
LINE
  5
278
330
1F
100
AcDbEntity
  8
0
  6
Continuous
 62
     7
370
    15
100
AcDbLine
 10
267.0760808298183
 20
202.2603642827443
 30
0.0
 11
243.7275723259562
 21
215.7391713375774
 31
0.0
  0
LINE
  5
279
330
1F
100
AcDbEntity
  8
0
  6
Continuous
 62
     7
370
    15
100
AcDbLine
 10
243.7275723259562
 20
215.7367378563256
 30
0.0
 11
243.7275723259562
 21
215.7391713375774
 31
0.0
  0
LINE
  5
27A
330
1F
100
AcDbEntity
  8
0
  6
Continuous
 62
     7
370
    15
100
AcDbLine
 10
243.7275723259562
 20
215.7367378563256
 30
0.0
 11
241.7692743276383
 21
216.8672392273586
 31
0.0
  0
ARC
  5
27B
330
1F
100
AcDbEntity
  8
0
  6
Continuous
 62
     7
370
    15
100
AcDbCircle
 10
241.6830616467902
 20
216.7615710714692
 30
0.0
 40
0.136375897826974
100
AcDbArc
 50
50.78963494175204
 51
189.2223005425504
  0
LINE
  5
27C
330
1F
100
AcDbEntity
  8
0
  6
Continuous
 62
     7
370
    15
100
AcDbLine
 10
241.5484485490438
 20
216.7397147354716
 30
0.0
 11
241.5484485490439
 21
212.9356968425752
 31
0.0
  0
LINE
  5
27D
330
1F
100
AcDbEntity
  8
0
  6
Continuous
 62
     7
370
    15
100
AcDbLine
 10
241.5484485490439
 20
212.9356968425752
 30
0.0
 11
239.6498765863329
 21
214.0317191071607
 31
0.0
  0
LINE
  5
27E
330
1F
100
AcDbEntity
  8
0
  6
Continuous
 62
     7
370
    15
100
AcDbLine
 10
239.6498765863329
 20
214.0341282536
 30
0.0
 11
239.6498765863329
 21
214.0317191071607
 31
0.0
  0
LINE
  5
27F
330
1F
100
AcDbEntity
  8
0
  6
Continuous
 62
     7
370
    15
100
AcDbLine
 10
237.5871703075414
 20
215.2249032419906
 30
0.0
 11
239.6498765863329
 21
214.0341282536
 31
0.0
  0
LINE
  5
280
330
1F
100
AcDbEntity
  8
0
  6
Continuous
 62
     7
370
    15
100
AcDbLine
 10
237.5871703075414
 20
215.2224940955512
 30
0.0
 11
237.5871703075414
 21
215.2249032419906
 31
0.0
  0
LINE
  5
281
330
1F
100
AcDbEntity
  8
0
  6
Continuous
 62
     7
370
    15
100
AcDbLine
 10
237.5871703075414
 20
215.2224940955512
 30
0.0
 11
235.2914670305589
 21
216.5477753879506
 31
0.0
  0
LINE
  5
282
330
1F
100
AcDbEntity
  8
0
  6
Continuous
 62
     7
370
    15
100
AcDbLine
 10
235.2914670305589
 20
216.5477753879506
 30
0.0
 11
235.2914670305588
 21
222.3971586078419
 31
0.0
  0
ARC
  5
283
330
1F
100
AcDbEntity
  8
0
  6
Continuous
 62
     7
370
    15
100
AcDbCircle
 10
238.7949824776946
 20
222.4556701371989
 30
0.0
 40
3.504004007901094
100
AcDbArc
 50
160.0307351183755
 51
180.9567967093299
  0
LINE
  5
284
330
1F
100
AcDbEntity
  8
0
  6
Continuous
 62
     7
370
    15
100
AcDbLine
 10
235.5016533640823
 20
223.6523436251733
 30
0.0
 11
236.3876565109432
 21
225.9518764288856
 31
0.0
  0
ARC
  5
285
330
1F
100
AcDbEntity
  8
0
  6
Continuous
 62
     7
370
    15
100
AcDbCircle
 10
229.6892046186645
 20
228.3700414302718
 30
0.0
 40
7.121571436635332
100
AcDbArc
 50
340.1502370137079
 51
2.057688451294445
  0
LINE
  5
286
330
1F
100
AcDbEntity
  8
0
  6
Continuous
 62
     7
370
    15
100
AcDbLine
 10
236.8097440278891
 20
228.6243970848979
 30
0.0
 11
236.8061839362789
 21
228.6257465724753
 31
0.0
  0
LINE
  5
287
330
1F
100
AcDbEntity
  8
0
  6
Continuous
 62
     7
370
    15
100
AcDbLine
 10
236.8097440278891
 20
228.6243970848979
 30
0.0
 11
236.8097440278883
 21
250.4369306206941
 31
0.0
  0
ARC
  5
288
330
1F
100
AcDbEntity
  8
0
  6
Continuous
 62
     7
370
    15
100
AcDbCircle
 10
237.1163860632223
 20
250.4495124656629
 30
0.0
 40
0.3069000499456296
100
AcDbArc
 50
147.652747212026
 51
182.3495880912378
  0
LINE
  5
289
330
1F
100
AcDbEntity
  8
0
  6
Continuous
 62
     7
370
    15
100
AcDbLine
 10
236.8571105001694
 20
250.613719113093
 30
0.0
 11
236.8664157340672
 21
250.6269512800761
 31
0.0
  0
ARC
  5
28A
330
1F
100
AcDbEntity
  8
0
  6
Continuous
 62
     7
370
    15
100
AcDbCircle
 10
276.58734959827
 20
244.7897501977652
 30
0.0
 40
0.7674333289959092
100
AcDbArc
 50
20.22741886705349
 51
57.36084873639963
  0
LINE
  5
28B
330
1F
100
AcDbEntity
  8
0
  6
Continuous
 62
     7
370
    15
100
AcDbLine
 10
268.8253014835627
 20
240.1584460325465
 30
0.0
 11
277.3074535280654
 21
245.0550881798691
 31
0.0
  0
LINE
  5
28C
330
1F
100
AcDbEntity
  8
0
  6
Continuous
 62
     7
370
    15
100
AcDbLine
 10
277.0012619419901
 20
245.4359935622727
 30
0.0
 11
268.5191098974875
 21
240.5393514149501
 31
0.0
  0
LINE
  5
28D
330
1F
100
AcDbEntity
  8
0
  6
Continuous
 62
     7
370
    15
100
AcDbLine
 10
277.4105289144548
 20
244.789419494231
 30
0.0
 11
268.9283768699521
 21
239.8927773469084
 31
0.0
  0
LINE
  5
28E
330
1F
100
AcDbEntity
  8
0
  6
Continuous
 62
     7
370
    15
100
AcDbLine
 10
277.3074535280654
 20
245.0550881798691
 30
0.0
 11
277.4105289144548
 21
244.789419494231
 31
0.0
  0
ARC
  5
28F
330
1F
100
AcDbEntity
  8
0
  6
Continuous
 62
     7
370
    15
100
AcDbCircle
 10
277.2505187332281
 20
244.6921303213522
 30
0.0
 40
0.187265696953871
100
AcDbArc
 50
314.7828506335289
 51
31.30038110355549
  0
LINE
  5
290
330
1F
100
AcDbEntity
  8
0
  6
Continuous
 62
     7
370
    15
100
AcDbLine
 10
266.8232853495561
 20
251.3116143829916
 30
0.0
 11
268.374431620369
 21
250.4161567012021
 31
0.0
  0
LINE
  5
291
330
1F
100
AcDbEntity
  8
0
  6
Continuous
 62
     7
370
    15
100
AcDbLine
 10
270.5749791672152
 20
249.1458076425451
 30
0.0
 11
277.0012619419901
 21
245.4359935622727
 31
0.0
  0
LINE
  5
292
330
1F
100
AcDbEntity
  8
0
  6
Continuous
 62
     7
370
    15
100
AcDbLine
 10
268.3341168426613
 20
239.1471576834001
 30
0.0
 11
276.816268887164
 21
244.0437998307226
 31
0.0
  0
ARC
  5
293
330
1F
100
AcDbEntity
  8
0
  6
Continuous
 62
     7
370
    15
100
AcDbCircle
 10
287.6841893117487
 20
246.303008003919
 30
0.0
 40
11.10025747111045
100
AcDbArc
 50
191.7433166118984
 51
201.3547379955286
  0
LINE
  5
294
330
1F
100
AcDbEntity
  8
0
  6
Continuous
 62
     7
370
    15
100
AcDbLine
 10
277.3460336995212
 20
242.2609473336282
 30
0.0
 11
268.8638816550185
 21
237.3643051863057
 31
0.0
  0
LINE
  5
295
330
1F
100
AcDbEntity
  8
0
  6
Continuous
 62
     7
370
    15
100
AcDbLine
 10
276.7817558865897
 20
244.2124581359746
 30
0.0
 11
276.816268887164
 21
244.0437998307226
 31
0.0
  0
ARC
  5
296
330
1F
100
AcDbEntity
  8
0
  6
Continuous
 62
     7
370
    15
100
AcDbCircle
 10
262.8180190793366
 20
233.9098867074803
 30
0.0
 40
15.91143230124171
100
AcDbArc
 50
13.08639234123615
 51
27.90527888607496
  0
LINE
  5
297
330
1F
100
AcDbEntity
  8
0
  6
Continuous
 62
     7
370
    15
100
AcDbLine
 10
277.3460336995212
 20
242.2609473336282
 30
0.0
 11
277.5472901695165
 21
241.7422301452467
 31
0.0
  0
LINE
  5
298
330
1F
100
AcDbEntity
  8
0
  6
Continuous
 62
     7
370
    15
100
AcDbLine
 10
277.5472901695165
 20
241.7422301452467
 30
0.0
 11
269.0651381250138
 21
236.8455879979241
 31
0.0
  0
LWPOLYLINE
  5
299
330
1F
100
AcDbEntity
  8
0
  6
Continuous
 62
     7
370
    15
100
AcDbPolyline
 90
        7
 70
   128
 43
0.0
 10
281.2976695323379
 20
234.7706187243913
 10
281.261133483035
 20
234.8431299955537
 10
281.2122220653382
 20
234.9064810904351
 10
281.1561298783264
 20
234.9539621719089
 10
281.0988154327077
 20
234.9805273673346
 10
281.0463584113798
 20
234.983360492639
 10
281.0195846258633
 20
234.9734476279731
  0
LINE
  5
29A
330
1F
100
AcDbEntity
  8
0
  6
Continuous
 62
     7
370
    15
100
AcDbLine
 10
281.2976695323379
 20
234.7706187243913
 30
0.0
 11
272.8155174878352
 21
229.8739765770688
 31
0.0
  0
LINE
  5
29B
330
1F
100
AcDbEntity
  8
0
  6
Continuous
 62
     7
370
    15
100
AcDbLine
 10
281.3069734491466
 20
234.7466437233729
 30
0.0
 11
272.8248214046439
 21
229.8500015760504
 31
0.0
  0
ARC
  5
29C
330
1F
100
AcDbEntity
  8
0
  6
Continuous
 62
     7
370
    15
100
AcDbCircle
 10
280.7034893426372
 20
234.5025660945661
 30
0.0
 40
0.6509738517739302
100
AcDbArc
 50
1.109082968845226
 51
22.02074625113318
  0
LINE
  5
29D
330
1F
100
AcDbEntity
  8
0
  6
Continuous
 62
     7
370
    15
100
AcDbLine
 10
281.3543412385168
 20
234.5151663058092
 30
0.0
 11
272.8721891940141
 21
229.6185241584866
 31
0.0
  0
LINE
  5
29E
330
1F
100
AcDbEntity
  8
0
  6
Continuous
 62
     7
370
    15
100
AcDbLine
 10
281.3069734491466
 20
234.7466437233729
 30
0.0
 11
281.2976695323379
 21
234.7706187243913
 31
0.0
  0
LINE
  5
29F
330
1F
100
AcDbEntity
  8
0
  6
Continuous
 62
     7
370
    15
100
AcDbLine
 10
270.8571589034225
 20
232.2268383891093
 30
0.0
 11
279.3393109479252
 21
237.1234805364319
 31
0.0
  0
ARC
  5
2A0
330
1F
100
AcDbEntity
  8
0
  6
Continuous
 62
     7
370
    15
100
AcDbCircle
 10
291.1998959816157
 20
241.7398518613184
 30
0.0
 40
12.72730771022054
100
AcDbArc
 50
201.2669593111992
 51
210.0394256798035
  0
LINE
  5
2A1
330
1F
100
AcDbEntity
  8
0
  6
Continuous
 62
     7
370
    15
100
AcDbLine
 10
280.1821056725285
 20
235.3686150696411
 30
0.0
 11
271.6999536280258
 21
230.4719729223185
 31
0.0
  0
LWPOLYLINE
  5
2A2
330
1F
100
AcDbEntity
  8
0
  6
Continuous
 62
     7
370
    15
100
AcDbPolyline
 90
       48
 70
   128
 43
0.0
 10
263.6148499212134
 20
249.9002361097038
 10
264.0462018422986
 20
250.1180033692668
 10
264.5239851024635
 20
250.3006376305803
 10
265.0396728674188
 20
250.4448800793846
 10
265.584065270388
 20
250.5481539257763
 10
266.1474421944333
 20
250.6086191486381
 10
266.7197516161847
 20
250.6251960661575
 10
267.2907834615905
 20
250.5975896666843
 10
267.8503487300233
 20
250.5262896087307
 10
268.3884559842079
 20
250.4125717416499
 10
268.895508913574
 20
250.258463130028
 10
269.3624538482258
 20
250.0667146814692
 10
269.7809615172265
 20
249.8407479228445
 10
270.1435640258554
 20
249.584594173147
 10
270.443783930332
 20
249.302829154312
 10
270.6762738492517
 20
249.0004741471075
 10
270.8368796838579
 20
248.6829290812749
 10
270.9227380826301
 20
248.3558584846338
 10
270.9323106855975
 20
248.0251017630438
 10
270.8654368079002
 20
247.6965576288304
 10
270.7232991954747
 20
247.3760913393896
 10
270.5084398301217
 20
247.0694221669708
 10
270.2246953921447
 20
246.7820192321923
 10
269.877122186276
 20
246.5190155856997
 10
269.4719289701369
 20
246.2851025210027
 10
269.016343928247
 20
246.084452780205
 10
268.5184934998348
 20
245.9206506027889
 10
267.9872693528473
 20
245.7966149313447
 10
267.4321466256651
 20
245.7145613946062
 10
266.8630285105993
 20
245.6759551664135
 10
266.2900789835862
 20
245.6814813124799
 10
265.7235147041224
 20
245.7310463110711
 10
265.1734509158509
 20
245.8237620858792
 10
264.6497012490294
 20
245.9579764195952
 10
264.1616170356713
 20
246.1312896813737
 10
263.717897648727
 20
246.3406156539771
 10
263.3264693298946
 20
246.5822149887052
 10
262.9943152851368
 20
246.8517765617007
 10
262.7273610979364
 20
247.1444912268617
 10
262.5303746305312
 20
247.4551339324869
 10
262.4068659251486
 20
247.7781640860631
 10
262.3590437400685
 20
248.1078129932862
 10
262.3877602318843
 20
248.4382009503134
 10
262.4925004187905
 20
248.7634315258371
 10
262.6713953514736
 20
249.0777025706238
 10
262.9212576745149
 20
249.375402780605
 10
263.2376237732394
 20
249.6512211857381
 10
263.6148499212134
 20
249.9002361097038
  0
LWPOLYLINE
  5
2A3
330
1F
100
AcDbEntity
  8
0
  6
Continuous
 62
     7
370
    15
100
AcDbPolyline
 90
       19
 70
   128
 43
0.0
 10
263.6148459699399
 20
245.1626599301873
 10
264.0462031593803
 20
244.9448896292665
 10
264.5239837853666
 20
244.7622584093097
 10
265.0396741844994
 20
244.6180144398262
 10
265.5840626362012
 20
244.5147413537732
 10
266.1474421944242
 20
244.4542746102321
 10
266.7197529332645
 20
244.4376984530513
 10
267.2907847786705
 20
244.4653048525238
 10
267.8503460958365
 20
244.5366056708161
 10
268.3884573012885
 20
244.650322777557
 10
268.8955089135662
 20
244.8044306288389
 10
269.3624512140407
 20
244.9961805980758
 10
269.7809588830422
 20
245.2221473567
 10
270.1435627087611
 20
245.4782988253792
 10
270.4437839303278
 20
245.7600676459103
 10
270.6762751663376
 20
246.0624203720966
 10
270.836882318034
 20
246.3799661982684
 10
270.9227380826293
 20
246.7070352742308
 10
270.9377002138511
 20
246.9137015799462
  0
ARC
  5
2A4
330
1F
100
AcDbEntity
  8
0
  6
Continuous
 62
     7
370
    15
100
AcDbCircle
 10
264.5077860270695
 20
247.1296229676075
 30
0.0
 40
2.160158683107377
100
AcDbArc
 50
185.7366518650007
 51
245.5834285177949
  0
LWPOLYLINE
  5
2A5
330
1F
100
AcDbEntity
  8
0
  6
Continuous
 62
     7
370
    15
100
AcDbPolyline
 90
       42
 70
   128
 43
0.0
 10
264.3146245837512
 20
249.4962647957911
 10
263.9857698469775
 20
249.2748486679051
 10
263.7193201048692
 20
249.0270464851302
 10
263.521517042273
 20
248.7586695207716
 10
263.396998129614
 20
248.4760050205395
 10
263.3486807190628
 20
248.185682382831
 10
263.3777001413511
 20
247.8945036030655
 10
263.4833728272795
 20
247.6092942471806
 10
263.6632239665871
 20
247.3367399786822
 10
263.9130362402448
 20
247.0832291684076
 10
264.2269591388437
 20
246.8547031076836
 10
264.5976261835174
 20
246.6565199075897
 10
265.0163577576509
 20
246.4933221999202
 10
265.47333496263
 20
246.3689367723953
 10
265.957845913488
 20
246.2862795262483
 10
266.4585359858182
 20
246.2472870456882
 10
266.9636685993993
 20
246.2528724982198
 10
267.4614018068888
 20
246.3029089071792
 10
267.9400754192283
 20
246.3962185069836
 10
268.3884638867348
 20
246.5306153221321
 10
268.7960581561498
 20
246.7029523082429
 10
269.1533066979297
 20
246.9091875015725
 10
269.4518354601109
 20
247.1444866648219
 10
269.6846441145734
 20
247.4033365776934
 10
269.8462772786133
 20
247.6796682118571
 10
269.9329522725764
 20
247.9670034764376
 10
269.9426289255772
 20
248.2586110875709
 10
269.875083332483
 20
248.5476525535512
 10
269.7319025855579
 20
248.8273555321919
 10
269.5164373592586
 20
249.0911628573297
 10
269.2337400070503
 20
249.3328914497396
 10
268.8904381208612
 20
249.5468722195659
 10
268.4945764804011
 20
249.7280960514698
 10
268.0554352948761
 20
249.8723096073811
 10
267.5833062978572
 20
249.9761354601085
 10
267.0892556712566
 20
250.0371390031987
 10
266.5848645787916
 20
250.0538915590981
 10
266.0819565285584
 20
250.0259985117077
 10
265.5923141988939
 20
249.954115273508
 10
265.1274212889283
 20
249.8399259960589
 10
264.6981688077348
 20
249.686107834052
 10
264.3146245837512
 20
249.4962647957911
  0
LINE
  5
2A6
330
1F
100
AcDbEntity
  8
0
  6
Continuous
 62
     7
370
    15
100
AcDbLine
 10
281.3543412385168
 20
234.5151663058092
 30
0.0
 11
281.3543412385179
 21
203.810716610555
 31
0.0
  0
LINE
  5
2A7
330
1F
100
AcDbEntity
  8
0
  6
Continuous
 62
     7
370
    15
100
AcDbLine
 10
281.3543412385179
 20
203.810716610555
 30
0.0
 11
278.9516705770987
 21
202.4236843615321
 31
0.0
  0
LINE
  5
2A8
330
1F
100
AcDbEntity
  8
0
  6
Continuous
 62
     7
370
    15
100
AcDbLine
 10
278.9516705770987
 20
202.4236843615321
 30
0.0
 11
278.9516705770989
 21
198.7492493452968
 31
0.0
  0
LINE
  5
2A9
330
1F
100
AcDbEntity
  8
0
  6
Continuous
 62
     7
370
    15
100
AcDbLine
 10
272.8721891940153
 20
195.2396394469971
 30
0.0
 11
278.9516705770989
 21
198.7492493452968
 31
0.0
  0
ARC
  5
2AA
330
1F
100
AcDbEntity
  8
0
  6
Continuous
 62
     7
370
    15
100
AcDbCircle
 10
275.9280771842488
 20
220.7207786574111
 30
0.0
 40
4.93556558508262
100
AcDbArc
 50
344.0163184564539
 51
15.98368154355198
  0
SPLINE
  5
2AB
330
1F
100
AcDbEntity
  8
0
  6
Continuous
 62
     7
370
    15
100
AcDbSpline
210
0.0
220
0.0
230
1.0
 70
     8
 71
     3
 72
    10
 73
     6
 74
     0
 42
0.0000000001
 43
0.0000000001
 40
0.0
 40
0.0
 40
0.0
 40
0.0
 40
0.2603688627265476
 40
0.5207300424482629
 40
1.0
 40
1.0
 40
1.0
 40
1.0
 10
280.5351250414759
 20
222.9679563807846
 30
0.0
 10
280.5370995319228
 20
222.8836828456092
 30
0.0
 10
280.5410484545528
 20
222.715138262015
 30
0.0
 10
280.5775927122908
 20
222.4100147715808
 30
0.0
 10
280.6353856427321
 20
222.2096724447457
 30
0.0
 10
280.6728346006294
 20
222.0798536017586
 30
0.0
  0
LINE
  5
2AC
330
1F
100
AcDbEntity
  8
0
  6
Continuous
 62
     7
370
    15
100
AcDbLine
 10
280.5351224072978
 20
226.7354705342246
 30
0.0
 11
280.5351250414759
 21
222.9679563807846
 31
0.0
  0
LINE
  5
2AD
330
1F
100
AcDbEntity
  8
0
  6
Continuous
 62
     7
370
    15
100
AcDbLine
 10
273.6914067081446
 20
222.7846775561047
 30
0.0
 11
280.5351224072978
 21
226.7354705342246
 31
0.0
  0
LINE
  5
2AE
330
1F
100
AcDbEntity
  8
0
  6
Continuous
 62
     7
370
    15
100
AcDbLine
 10
273.6914067081447
 20
219.017161881986
 30
0.0
 11
273.6914067081446
 21
222.7846775561047
 31
0.0
  0
SPLINE
  5
2AF
330
1F
100
AcDbEntity
  8
0
  6
Continuous
 62
     7
370
    15
100
AcDbSpline
210
0.0
220
0.0
230
1.0
 70
     8
 71
     3
 72
    10
 73
     6
 74
     0
 42
0.0000000001
 43
0.0000000001
 40
0.0
 40
0.0
 40
0.0
 40
0.0
 40
0.2603426954519655
 40
0.5206959146552698
 40
1.0
 40
1.0
 40
1.0
 40
1.0
 10
273.5536971489914
 20
217.9700630302884
 30
0.0
 10
273.5752389386446
 20
218.0642177162777
 30
0.0
 10
273.6183233887282
 20
218.2525308942416
 30
0.0
 10
273.6753787710971
 20
218.6077112302927
 30
0.0
 10
273.6851044119685
 20
218.8561630417183
 30
0.0
 10
273.6914067081447
 20
219.017161881986
 30
0.0
  0
ARC
  5
2B0
330
1F
100
AcDbEntity
  8
0
  6
Continuous
 62
     7
370
    15
100
AcDbCircle
 10
278.2984179353985
 20
216.6109854067009
 30
0.0
 40
4.93553110899936
100
AcDbArc
 50
164.0161714627779
 51
195.9837730115017
  0
SPLINE
  5
2B1
330
1F
100
AcDbEntity
  8
0
  6
Continuous
 62
     7
370
    15
100
AcDbSpline
210
0.0
220
0.0
230
1.0
 70
     8
 71
     3
 72
    10
 73
     6
 74
     0
 42
0.0000000001
 43
0.0000000001
 40
0.0
 40
0.0
 40
0.0
 40
0.0
 40
0.2603688187612811
 40
0.5207546063151871
 40
1.0
 40
1.0
 40
1.0
 40
1.0
 10
273.6914067081449
 20
214.3638103625678
 30
0.0
 10
273.6894314019278
 20
214.4480833792245
 30
0.0
 10
273.6854806607585
 20
214.6166349047904
 30
0.0
 10
273.6489405746696
 20
214.9217616858587
 30
0.0
 10
273.5911447460771
 20
215.1221016988232
 30
0.0
 10
273.5536958319024
 20
215.2519123812545
 30
0.0
  0
LINE
  5
2B2
330
1F
100
AcDbEntity
  8
0
  6
Continuous
 62
     7
370
    15
100
AcDbLine
 10
273.6914053910561
 20
209.3622999201078
 30
0.0
 11
273.6914067081449
 21
214.3638103625678
 31
0.0
  0
LINE
  5
2B3
330
1F
100
AcDbEntity
  8
0
  6
Continuous
 62
     7
370
    15
100
AcDbLine
 10
280.5351250414763
 20
213.3130951792456
 30
0.0
 11
273.6914053910561
 21
209.3622999201078
 31
0.0
  0
LINE
  5
2B4
330
1F
100
AcDbEntity
  8
0
  6
Continuous
 62
     7
370
    15
100
AcDbLine
 10
280.5351250414761
 20
218.3146048613664
 30
0.0
 11
280.5351250414763
 21
213.3130951792456
 31
0.0
  0
SPLINE
  5
2B5
330
1F
100
AcDbEntity
  8
0
  6
Continuous
 62
     7
370
    15
100
AcDbSpline
210
0.0
220
0.0
230
1.0
 70
     8
 71
     3
 72
    10
 73
     6
 74
     0
 42
0.0000000001
 43
0.0000000001
 40
0.0
 40
0.0
 40
0.0
 40
0.0
 40
0.2603426479287372
 40
0.5206961252734118
 40
1.0
 40
1.0
 40
1.0
 40
1.0
 10
280.6728346006295
 20
219.361703713064
 30
0.0
 10
280.6512929525563
 20
219.2675490773272
 30
0.0
 10
280.6082087603467
 20
219.079235889324
 30
0.0
 10
280.551150663465
 20
218.724054527094
 30
0.0
 10
280.5414264254294
 20
218.4756032647399
 30
0.0
 10
280.5351250414761
 20
218.3146048613664
 30
0.0
  0
LINE
  5
2B6
330
1F
100
AcDbEntity
  8
0
  6
Continuous
 62
     7
370
    15
100
AcDbLine
 10
270.6579044087314
 20
232.7404941243386
 30
0.0
 11
279.1400564532341
 21
237.6371362716612
 31
0.0
  0
LINE
  5
2B7
330
1F
100
AcDbEntity
  8
0
  6
Continuous
 62
     7
370
    15
100
AcDbLine
 10
279.1400564532341
 20
237.6371362716612
 30
0.0
 11
279.3393109479252
 21
237.1234805364319
 31
0.0
  0
LINE
  5
2B8
330
1F
100
AcDbEntity
  8
0
  6
Continuous
 62
     7
370
    15
100
AcDbLine
 10
270.0237313159008
 20
232.7254017874693
 30
0.0
 11
278.5058833604034
 21
237.6220439347918
 31
0.0
  0
LINE
  5
2B9
330
1F
100
AcDbEntity
  8
0
  6
Continuous
 62
     7
370
    15
100
AcDbLine
 10
278.5058833604034
 20
237.6220439347918
 30
0.0
 11
279.1400564532341
 21
237.6371362716612
 31
0.0
  0
LINE
  5
2BA
330
1F
100
AcDbEntity
  8
0
  6
Continuous
 62
     7
370
    15
100
AcDbLine
 10
280.1821056725285
 20
235.3686150696411
 30
0.0
 11
280.5334997536316
 21
234.759940083555
 31
0.0
  0
LINE
  5
2BB
330
1F
100
AcDbEntity
  8
0
  6
Continuous
 62
     7
370
    15
100
AcDbLine
 10
280.5334997536316
 20
234.759940083555
 30
0.0
 11
272.0513477091289
 21
229.8632979362325
 31
0.0
  0
ARC
  5
2BC
330
1F
100
AcDbEntity
  8
0
  6
Continuous
 62
     7
370
    15
100
AcDbCircle
 10
280.7467426262091
 20
234.8820656919735
 30
0.0
 40
0.2457380453586022
100
AcDbArc
 50
209.8000533725486
 51
223.4737779824681
  0
ARC
  5
2BD
330
1F
100
AcDbEntity
  8
0
  6
Continuous
 62
     7
370
    15
100
AcDbCircle
 10
265.4122035799211
 20
245.8614189716062
 30
0.0
 40
2.282931236307713
100
AcDbArc
 50
118.7361088931701
 51
139.8753538027864
  0
ARC
  5
2BE
330
1F
100
AcDbEntity
  8
0
  6
Continuous
 62
     7
370
    15
100
AcDbCircle
 10
266.5968332115762
 20
243.8384369590949
 30
0.0
 40
4.626783937123115
100
AcDbArc
 50
49.04430856905263
 51
119.555094919389
  0
ELLIPSE
  5
2BF
330
1F
100
AcDbEntity
  8
0
  6
Continuous
 62
     7
370
    15
100
AcDbEllipse
 10
278.4556508677262
 20
227.5760417503467
 30
0.0
 11
-1.640049248022649
 21
1.917959669918132
 31
0.0
210
0.0
220
0.0
230
0.9999999999999998
 40
0.6665692548647498
 41
3.160235492196353
 42
3.803721241074688
  0
LINE
  5
2C0
330
1F
100
AcDbEntity
  8
0
  6
Continuous
 62
     7
370
    15
100
AcDbLine
 10
273.6914053910564
 20
221.968092316725
 30
0.0
 11
280.119246282151
 21
225.6788058783873
 31
0.0
  0
ARC
  5
2C1
330
1F
100
AcDbEntity
  8
0
  6
Continuous
 62
     7
370
    15
100
AcDbCircle
 10
266.4717726263395
 20
250.8209094177111
 30
0.0
 40
0.6036162336568421
100
AcDbArc
 50
54.38437309066728
 51
114.3044800661512
  0
LINE
  5
2C2
330
1F
100
AcDbEntity
  8
0
  6
Continuous
 62
     7
370
    15
100
AcDbLine
 10
280.119246282151
 20
225.6788058783873
 30
0.0
 11
280.1192462821511
 21
223.323025682906
 31
0.0
  0
SPLINE
  5
2C3
330
1F
100
AcDbEntity
  8
0
  6
Continuous
 62
     7
370
    15
100
AcDbSpline
210
0.0
220
0.0
230
1.0
 70
     8
 71
     3
 72
    10
 73
     6
 74
     0
 42
0.0000000001
 43
0.0000000001
 40
0.0
 40
0.0
 40
0.0
 40
0.0
 40
0.4918609007890255
 40
0.7449655053374358
 40
1.0
 40
1.0
 40
1.0
 40
1.0
 10
280.1192462821512
 20
223.323025682906
 30
0.0
 10
280.1269102470245
 20
223.1562446500067
 30
0.0
 10
280.138517978917
 20
222.9036404762346
 30
0.0
 10
280.2056857267506
 20
222.6023736745954
 30
0.0
 10
280.2546658274813
 20
222.4632205681122
 30
0.0
 10
280.2792488899888
 20
222.393379766159
 30
0.0
  0
ARC
  5
2C4
330
1F
100
AcDbEntity
  8
0
  6
Continuous
 62
     7
370
    15
100
AcDbCircle
 10
275.5879804071144
 20
220.9017530980231
 30
0.0
 40
4.92269744098748
100
AcDbArc
 50
342.3615178511321
 51
17.63848214887328
  0
SPLINE
  5
2C5
330
1F
100
AcDbEntity
  8
0
  6
Continuous
 62
     7
370
    15
100
AcDbSpline
210
0.0
220
0.0
230
1.0
 70
     8
 71
     3
 72
    10
 73
     6
 74
     0
 42
0.0000000001
 43
0.0000000001
 40
0.0
 40
0.0
 40
0.0
 40
0.0
 40
0.2455935121403138
 40
0.6194380931178687
 40
1.0
 40
1.0
 40
1.0
 40
1.0
 10
280.2792488899889
 20
219.4101264298875
 30
0.0
 10
280.2555477711328
 20
219.3155302177317
 30
0.0
 10
280.1957686029413
 20
219.0769388283936
 30
0.0
 10
280.1335284066807
 20
218.6988185468461
 30
0.0
 10
280.1240369175658
 20
218.4308993471888
 30
0.0
 10
280.1192489163293
 20
218.2957469550068
 30
0.0
  0
LINE
  5
2C6
330
1F
100
AcDbEntity
  8
0
  6
Continuous
 62
     7
370
    15
100
AcDbLine
 10
280.1192489163293
 20
218.2957469550068
 30
0.0
 11
280.1192489163294
 21
214.8352636104343
 31
0.0
  0
LINE
  5
2C7
330
1F
100
AcDbEntity
  8
0
  6
Continuous
 62
     7
370
    15
100
AcDbLine
 10
280.1192489163294
 20
214.8352636104343
 30
0.0
 11
273.6914040739677
 21
211.1245477677542
 31
0.0
  0
LINE
  5
2C8
330
1F
100
AcDbEntity
  8
0
  6
Continuous
 62
     7
370
    15
100
AcDbLine
 10
260.6714786573519
 20
253.8831234000695
 30
0.0
 11
252.1893266128492
 21
248.9864812527469
 31
0.0
  0
LINE
  5
2C9
330
1F
100
AcDbEntity
  8
0
  6
Continuous
 62
     7
370
    15
100
AcDbLine
 10
259.8229519613511
 20
255.3528208285131
 30
0.0
 11
251.3407999168484
 21
250.4561786811905
 31
0.0
  0
ARC
  5
2CA
330
1F
100
AcDbEntity
  8
0
  6
Continuous
 62
     7
370
    15
100
AcDbCircle
 10
258.8292221282237
 20
253.7992967559161
 30
0.0
 40
1.844162689511366
100
AcDbArc
 50
2.60528446079961
 51
57.39451028790758
  0
LINE
  5
2CB
330
1F
100
AcDbEntity
  8
0
  6
Continuous
 62
     7
370
    15
100
AcDbLine
 10
280.5351250414759
 20
222.9679563807846
 30
0.0
 11
280.1192462821511
 21
223.323025682906
 31
0.0
  0
LINE
  5
2CC
330
1F
100
AcDbEntity
  8
0
  6
Continuous
 62
     7
370
    15
100
AcDbLine
 10
241.1628206902363
 20
256.3318010225882
 30
0.0
 11
249.644972734739
 21
261.2284431699107
 31
0.0
  0
LINE
  5
2CD
330
1F
100
AcDbEntity
  8
0
  6
Continuous
 62
     7
370
    15
100
AcDbLine
 10
249.644972734739
 20
261.2284431699107
 30
0.0
 11
253.2423695741779
 21
259.1517101790028
 31
0.0
  0
LINE
  5
2CE
330
1F
100
AcDbEntity
  8
0
  6
Continuous
 62
     7
370
    15
100
AcDbLine
 10
255.4429171210241
 20
257.8813611203459
 30
0.0
 11
259.8229519613511
 21
255.3528208285131
 31
0.0
  0
LINE
  5
2CF
330
1F
100
AcDbEntity
  8
0
  6
Continuous
 62
     7
370
    15
100
AcDbLine
 10
260.6714786573519
 20
253.8831234000695
 30
0.0
 11
260.6714786573521
 21
248.1659998862163
 31
0.0
  0
LWPOLYLINE
  5
2D0
330
1F
100
AcDbEntity
  8
0
  6
Continuous
 62
     7
370
    15
100
AcDbPolyline
 90
       19
 70
   128
 43
0.0
 10
248.4827865579269
 20
253.8982118873094
 10
248.9141384790113
 20
253.6804446277459
 10
249.3919243733536
 20
253.4978103664318
 10
249.9076095041303
 20
253.3535694383056
 10
250.4520005900101
 20
253.2502948315739
 10
251.0153801482331
 20
253.1898280880328
 10
251.5876908870735
 20
253.173251930852
 10
252.1587227324795
 20
253.2008583303245
 10
252.7182840496454
 20
253.2721591486168
 10
253.2563926209195
 20
253.3858777760363
 10
253.7634442331971
 20
253.5399856273183
 10
254.2303891678497
 20
253.7317340758765
 10
254.6488968368512
 20
253.9577008345007
 10
255.011498028392
 20
254.2138538238585
 10
255.3117218841367
 20
254.495621123711
 10
255.5442104859685
 20
254.797975370576
 10
255.7048176376649
 20
255.1155211967477
 10
255.7906734022602
 20
255.4425902727101
 10
255.80563816766
 20
255.649255057747
  0
ARC
  5
2D1
330
1F
100
AcDbEntity
  8
0
  6
Continuous
 62
     7
370
    15
100
AcDbCircle
 10
249.375723083969
 20
255.8651754369582
 30
0.0
 40
2.160157689889084
100
AcDbArc
 50
185.7366276288556
 51
245.5835194156998
  0
LWPOLYLINE
  5
2D2
330
1F
100
AcDbEntity
  8
0
  6
Continuous
 62
     7
370
    15
100
AcDbPolyline
 90
       48
 70
   128
 43
0.0
 10
248.4827852408443
 20
258.6357911081831
 10
248.9141397961075
 20
258.8535568470676
 10
249.3919230562724
 20
259.036191108381
 10
249.9076108212278
 20
259.1804335571853
 10
250.4520005900189
 20
259.2837089242556
 10
251.0153775140641
 20
259.3441741471174
 10
251.5876895699936
 20
259.3607495439583
 10
252.1587214153995
 20
259.3331431444851
 10
252.7182866838322
 20
259.2618430865314
 10
253.2563939380168
 20
259.1481252194506
 10
253.763446867383
 20
258.9940166078287
 10
254.2303918020348
 20
258.80226815927
 10
254.6488994710354
 20
258.5763014006452
 10
255.0114993454863
 20
258.3201491716263
 10
255.311724518319
 20
258.0383811114341
 10
255.5442118030606
 20
257.7360276249082
 10
255.7048176376668
 20
257.4184825590756
 10
255.790676036439
 20
257.0914119624345
 10
255.8002512735845
 20
256.760653720166
 10
255.7333747617092
 20
256.4321111066312
 10
255.5912371492836
 20
256.1116448171903
 10
255.3763777839306
 20
255.8049756447715
 10
255.0926307117755
 20
255.5175742306716
 10
254.7450601400849
 20
255.2545690635004
 10
254.3398669239458
 20
255.0206559988033
 10
253.8842792478779
 20
254.8200077786844
 10
253.3864314536438
 20
254.6562040805896
 10
252.8552073066562
 20
254.5321684091454
 10
252.300084579474
 20
254.4501148724069
 10
251.7309690985862
 20
254.4115071235355
 10
251.158016937395
 20
254.4170347902807
 10
250.5914526579314
 20
254.4665997888718
 10
250.0413888696598
 20
254.55931556368
 10
249.5176418370163
 20
254.6935283767173
 10
249.0295523553021
 20
254.866844679853
 10
248.5858356025359
 20
255.0761691317778
 10
248.1944072837035
 20
255.317768466506
 10
247.8622532389457
 20
255.5873300395015
 10
247.5952990517453
 20
255.8800447046625
 10
247.3983125843401
 20
256.1906874102876
 10
247.2748038789576
 20
256.5137175638639
 10
247.2269816938775
 20
256.843366471087
 10
247.2556955515151
 20
257.1737559487928
 10
247.3604357384214
 20
257.4989865243165
 10
247.5393333052825
 20
257.8132560484245
 10
247.7891956283238
 20
258.1109562584057
 10
248.1055617270483
 20
258.3867746635387
 10
248.4827852408443
 20
258.6357911081831
  0
LWPOLYLINE
  5
2D3
330
1F
100
AcDbEntity
  8
0
  6
Continuous
 62
     7
370
    15
100
AcDbPolyline
 90
       42
 70
   128
 43
0.0
 10
249.1825572692041
 20
258.2318213149491
 10
248.8537051666084
 20
258.0104036663844
 10
248.5872527903221
 20
257.7626030042881
 10
248.3894497277258
 20
257.4942260399295
 10
248.2649308150669
 20
257.2115615396974
 10
248.2166134045157
 20
256.921238901989
 10
248.2456328268039
 20
256.6300601222234
 10
248.3513055127323
 20
256.3448507663386
 10
248.53115665204
 20
256.0722964978401
 10
248.7809715598757
 20
255.8187841668869
 10
249.0948918242965
 20
255.5902596268415
 10
249.4655615031483
 20
255.392074906069
 10
249.8842904431038
 20
255.2288787190781
 10
250.3412676480829
 20
255.1044932915533
 10
250.8257785989409
 20
255.0218360454063
 10
251.326468671271
 20
254.9828435648461
 10
251.8316012848522
 20
254.9884290173777
 10
252.3293371265197
 20
255.0384639056586
 10
252.8080081046812
 20
255.1317750261415
 10
253.2563939380096
 20
255.2661733619687
 10
253.6639908416027
 20
255.4385088274009
 10
254.0212393833826
 20
255.6447440207305
 10
254.3197655113857
 20
255.8800447046585
 10
254.5525768000263
 20
256.1388930968513
 10
254.7142125982441
 20
256.4152232103364
 10
254.8008849580293
 20
256.7025599955956
 10
254.8105616110301
 20
256.9941676067289
 10
254.7430160179359
 20
257.2832090727091
 10
254.5998352710108
 20
257.5629120513498
 10
254.3843700447114
 20
257.8267193764877
 10
254.1016753266811
 20
258.0684464482189
 10
253.7583708063141
 20
258.2824287387239
 10
253.3625118000319
 20
258.4636510499492
 10
252.923367980329
 20
258.6078661265391
 10
252.4512389833101
 20
258.7116919792665
 10
251.9571883567095
 20
258.7726955223565
 10
251.4527972642444
 20
258.789448078256
 10
250.9498892140112
 20
258.7615550308657
 10
250.4602468843468
 20
258.689671792666
 10
249.9953539743812
 20
258.5754825152169
 10
249.5661041273657
 20
258.4216628325313
 10
249.1825572692041
 20
258.2318213149491
  0
ARC
  5
2D4
330
1F
100
AcDbEntity
  8
0
  6
Continuous
 62
     7
370
    15
100
AcDbCircle
 10
250.280037836073
 20
254.5971086068479
 30
0.0
 40
2.282767191999865
100
AcDbArc
 50
118.7355489779315
 51
139.876303021976
  0
ARC
  5
2D5
330
1F
100
AcDbEntity
  8
0
  6
Continuous
 62
     7
370
    15
100
AcDbCircle
 10
251.4647661332993
 20
252.5739908027703
 30
0.0
 40
4.626786381019517
100
AcDbArc
 50
49.04429551691602
 51
119.5550811219229
  0
LINE
  5
2D6
330
1F
100
AcDbEntity
  8
0
  6
Continuous
 62
     7
370
    15
100
AcDbLine
 10
280.2792488899888
 20
222.393379766159
 30
0.0
 11
280.6728346006294
 21
222.0798536017586
 31
0.0
  0
ELLIPSE
  5
2D7
330
1F
100
AcDbEntity
  8
0
  6
Continuous
 62
     7
370
    15
100
AcDbEllipse
 10
278.039758452111
 20
214.3217759204264
 30
0.0
 11
-1.968059097627247
 21
2.301551603901771
 31
0.0
210
0.0
220
0.0
230
1.0
 40
0.6665692548647366
 41
3.803721094094866
 42
4.389393117030335
  0
LINE
  5
2D8
330
1F
100
AcDbEntity
  8
0
  6
Continuous
 62
     7
370
    15
100
AcDbLine
 10
280.6728346006295
 20
219.361703713064
 30
0.0
 11
280.2792488899889
 21
219.4101264298875
 31
0.0
  0
LINE
  5
2D9
330
1F
100
AcDbEntity
  8
0
  6
Continuous
 62
     7
370
    15
100
AcDbLine
 10
280.5351250414761
 20
218.3146048613664
 30
0.0
 11
280.1192489163293
 21
218.2957469550068
 31
0.0
  0
ARC
  5
2DA
330
1F
100
AcDbEntity
  8
0
  6
Continuous
 62
     7
370
    15
100
AcDbCircle
 10
249.498382145597
 20
261.0226881982458
 30
0.0
 40
0.2526339430675339
100
AcDbArc
 50
54.53194314926008
 51
114.1576875995606
  0
LINE
  5
2DB
330
1F
100
AcDbEntity
  8
0
  6
Continuous
 62
     7
370
    15
100
AcDbLine
 10
241.2197637167526
 20
252.4767811848685
 30
0.0
 11
241.4218525870065
 21
252.5934446064151
 31
0.0
  0
LINE
  5
2DC
330
1F
100
AcDbEntity
  8
0
  6
Continuous
 62
     7
370
    15
100
AcDbLine
 10
278.9516705770989
 20
198.7492493452968
 30
0.0
 11
281.354341238518
 21
200.1362815943197
 31
0.0
  0
ARC
  5
2DD
330
1F
100
AcDbEntity
  8
0
  6
Continuous
 62
     7
370
    15
100
AcDbCircle
 10
281.1093447692449
 20
200.1092320780349
 30
0.0
 40
0.246485184722223
100
AcDbArc
 50
305.0150502756661
 51
6.300382213856026
  0
LINE
  5
2DE
330
1F
100
AcDbEntity
  8
0
  6
Continuous
 62
     7
370
    15
100
AcDbLine
 10
240.0497527141132
 20
250.4810862569932
 30
0.0
 11
239.6582019060015
 21
250.2550487868136
 31
0.0
  0
LINE
  5
2DF
330
1F
100
AcDbEntity
  8
0
  6
Continuous
 62
     7
370
    15
100
AcDbLine
 10
241.5359546426425
 20
252.4524441856799
 30
0.0
 11
239.0240301302599
 21
251.002341030998
 31
0.0
  0
LINE
  5
2E0
330
1F
100
AcDbEntity
  8
0
  6
Continuous
 62
     7
370
    15
100
AcDbLine
 10
281.3543412385179
 20
203.810716610555
 30
0.0
 11
281.354341238518
 21
200.1362815943197
 31
0.0
  0
LINE
  5
2E1
330
1F
100
AcDbEntity
  8
0
  6
Continuous
 62
     7
370
    15
100
AcDbLine
 10
237.1962740926703
 20
250.1694292007221
 30
0.0
 11
241.2116372775329
 21
252.4874490268991
 31
0.0
  0
LINE
  5
2E2
330
1F
100
AcDbEntity
  8
0
  6
Continuous
 62
     7
370
    15
100
AcDbLine
 10
236.8097440278891
 20
228.6278017696158
 30
0.0
 11
236.8061839362789
 21
228.6257465724753
 31
0.0
  0
LINE
  5
2E3
330
1F
100
AcDbEntity
  8
0
  6
Continuous
 62
     7
370
    15
100
AcDbLine
 10
243.7296651804026
 20
215.7379460354806
 30
0.0
 11
243.7275723259562
 21
215.7367378563256
 31
0.0
  0
LINE
  5
2E4
330
1F
100
AcDbEntity
  8
0
  6
Continuous
 62
     7
370
    15
100
AcDbLine
 10
243.3147083833929
 20
213.955336941293
 30
0.0
 11
241.5484485490439
 21
212.9356968425752
 31
0.0
  0
LINE
  5
2E5
330
1F
100
AcDbEntity
  8
0
  6
Continuous
 62
     7
370
    15
100
AcDbLine
 10
237.5892657961659
 20
215.2237037953849
 30
0.0
 11
237.5871703075414
 21
215.2224940955512
 31
0.0
  0
LINE
  5
2E6
330
1F
100
AcDbEntity
  8
0
  6
Continuous
 62
     8
370
    15
100
AcDbLine
 10
245.1363307374346
 20
214.9258986429633
 30
0.0
 11
245.0816214938893
 21
214.8943156689272
 31
0.0
  0
LINE
  5
2E7
330
1F
100
AcDbEntity
  8
0
  6
Continuous
 62
     8
370
    15
100
AcDbLine
 10
258.3411333050533
 20
246.4149722356691
 30
0.0
 11
262.5234177663545
 21
248.8293536636196
 31
0.0
  0
LINE
  5
2E8
330
1F
100
AcDbEntity
  8
0
  6
Continuous
 62
     8
370
    15
100
AcDbLine
 10
265.469886823597
 20
250.5303140444024
 30
0.0
 11
266.8232853495561
 21
251.3116143829916
 31
0.0
  0
SPLINE
  5
2E9
330
1F
100
AcDbEntity
  8
0
  6
Continuous
 62
     8
370
    15
100
AcDbSpline
210
0.0
220
0.0
230
1.0
 70
     8
 71
     3
 72
    26
 73
    22
 74
     0
 42
0.0000000001
 43
0.0000000001
 40
0.0
 40
0.0
 40
0.0
 40
0.0
 40
0.0448617673621641
 40
0.0893565901499022
 40
0.1342003378965341
 40
0.2060572025313569
 40
0.2794394471017059
 40
0.3528213019237731
 40
0.3887764141751497
 40
0.4247706730275154
 40
0.4917961132927748
 40
0.5588611043863072
 40
0.6036967778669928
 40
0.6481916266114504
 40
0.6930623910736622
 40
0.7649195017220109
 40
0.838301356544078
 40
0.911683601114427
 40
0.9476387133658034
 40
0.983632720071087
 40
1.0
 40
1.0
 40
1.0
 40
1.0
 10
263.2614130350394
 20
244.5610452728955
 30
0.0
 10
263.4087174341129
 20
244.4818195798649
 30
0.0
 10
263.7021213633212
 20
244.3240162163833
 30
0.0
 10
264.2039304194739
 20
244.1300278995241
 30
0.0
 10
264.848597233515
 20
243.9401278903155
 30
0.0
 10
265.6666672235354
 20
243.7901947987196
 30
0.0
 10
266.6479243508391
 20
243.7314966013736
 30
0.0
 10
267.4687783476679
 20
243.7806859018675
 30
0.0
 10
268.0997188290923
 20
243.8762695557066
 30
0.0
 10
268.6838479605486
 20
244.0025906611198
 30
0.0
 10
269.3570206137644
 20
244.2150225485459
 30
0.0
 10
269.9773591407307
 20
244.512892411621
 30
0.0
 10
270.4429328624256
 20
244.8166276652771
 30
0.0
 10
270.7818998943061
 20
245.1046648290448
 30
0.0
 10
271.109939239667
 20
245.4773934853399
 30
0.0
 10
271.3703028337247
 20
245.9495667598543
 30
0.0
 10
271.4710032765931
 20
246.515847855725
 30
0.0
 10
271.3884728125902
 20
246.9904915842229
 30
0.0
 10
271.217582717281
 20
247.3531396851726
 30
0.0
 10
271.0917135128503
 20
247.5713745513647
 30
0.0
 10
270.9743795283287
 20
247.688910606969
 30
0.0
 10
270.9377028480314
 20
247.7256504513747
 30
0.0
  0
SPLINE
  5
2EA
330
1F
100
AcDbEntity
  8
0
  6
Continuous
 62
     8
370
    15
100
AcDbSpline
210
0.0
220
0.0
230
1.0
 70
     8
 71
     3
 72
    15
 73
    11
 74
     0
 42
0.0000000001
 43
0.0000000001
 40
0.0
 40
0.0
 40
0.0
 40
0.0
 40
0.039290918139875
 40
0.201853267823696
 40
0.3678654416378828
 40
0.5338776154520695
 40
0.615218870033444
 40
0.6966486859747385
 40
0.8482577324407188
 40
0.9999999999999998
 40
0.9999999999999998
 40
0.9999999999999998
 40
0.9999999999999998
 10
262.3584457816577
 20
247.7344323703484
 30
0.0
 10
262.3222317842166
 20
247.6946305592759
 30
0.0
 10
262.1361858970113
 20
247.4901526287359
 30
0.0
 10
261.9310180287482
 20
247.0812720893213
 30
0.0
 10
261.82306431902
 20
246.5165784927623
 30
0.0
 10
261.9098895419353
 20
246.0423365512941
 30
0.0
 10
262.0750564217588
 20
245.6780312326964
 30
0.0
 10
262.294740328374
 20
245.341325364819
 30
0.0
 10
262.6567555117205
 20
244.9492100127303
 30
0.0
 10
263.0598015261148
 20
244.6904713957689
 30
0.0
 10
263.2614130350394
 20
244.5610452728955
 30
0.0
  0
LINE
  5
2EB
330
1F
100
AcDbEntity
  8
0
  6
Continuous
 62
     8
370
    15
100
AcDbLine
 10
268.2065277955068
 20
239.770597524344
 30
0.0
 11
268.4214029659277
 21
239.8946423198601
 31
0.0
  0
LINE
  5
2EC
330
1F
100
AcDbEntity
  8
0
  6
Continuous
 62
     8
370
    15
100
AcDbLine
 10
269.8572354592148
 20
232.511285442255
 30
0.0
 11
270.0611353268656
 21
232.6289943303454
 31
0.0
  0
LINE
  5
2ED
330
1F
100
AcDbEntity
  8
0
  6
Continuous
 62
     8
370
    15
100
AcDbLine
 10
268.3425251389397
 20
237.0341116343402
 30
0.0
 11
268.1463473641894
 21
236.9208606155928
 31
0.0
  0
LINE
  5
2EE
330
1F
100
AcDbEntity
  8
0
  6
Continuous
 62
     8
370
    15
100
AcDbLine
 10
272.4856459583425
 20
229.9467169199033
 30
0.0
 11
272.1793845665488
 21
229.7699159817349
 31
0.0
  0
ARC
  5
2EF
330
1F
100
AcDbEntity
  8
0
  6
Continuous
 62
     8
370
    15
100
AcDbCircle
 10
265.0138958407012
 20
247.8009960057008
 30
0.0
 40
1.684016765270622
100
AcDbArc
 50
114.534436395577
 51
170.8927579249668
  0
LWPOLYLINE
  5
2F0
330
1F
100
AcDbEntity
  8
0
  6
Continuous
 62
     8
370
    15
100
AcDbPolyline
 90
       17
 70
   128
 43
0.0
 10
269.9450444668325
 20
248.0675462574385
 10
269.9426289255772
 20
248.0953123281653
 10
269.875083332483
 20
248.3843537941456
 10
269.7319025855579
 20
248.6640567727862
 10
269.5164373592586
 20
248.9278640979241
 10
269.2337400070503
 20
249.169592690334
 10
268.8904381208612
 20
249.3835734601603
 10
268.4945764804011
 20
249.5647972920643
 10
268.0554352948761
 20
249.7090108479755
 10
267.5833062978572
 20
249.812836700703
 10
267.0892556712566
 20
249.8738402437931
 10
266.5848645787916
 20
249.8905927996925
 10
266.0819565285584
 20
249.8626997523021
 10
265.5923141988939
 20
249.7908165141025
 10
265.1274212889283
 20
249.6766272366533
 10
264.6981688077348
 20
249.5228090746464
 10
264.3146245837512
 20
249.3329660363855
  0
LINE
  5
2F1
330
1F
100
AcDbEntity
  8
0
  6
Continuous
 62
     8
370
    15
100
AcDbLine
 10
270.1112611006347
 20
232.3772818166956
 30
0.0
 11
270.0724478044232
 21
232.3548753777273
 31
0.0
  0
LINE
  5
2F2
330
1F
100
AcDbEntity
  8
0
  6
Continuous
 62
     8
370
    15
100
AcDbLine
 10
270.1245031136014
 20
232.4142992534252
 30
0.0
 11
270.0122304946134
 21
232.3494856500798
 31
0.0
  0
SPLINE
  5
2F3
330
1F
100
AcDbEntity
  8
0
  6
Continuous
 62
     8
370
    15
100
AcDbSpline
210
0.0
220
0.0
230
1.0
 70
     8
 71
     3
 72
    15
 73
    11
 74
     0
 42
0.0000000001
 43
0.0000000001
 40
0.0
 40
0.0
 40
0.0
 40
0.0
 40
0.0392908927433524
 40
0.2018531373515328
 40
0.3678652038602116
 40
0.5338772703688904
 40
0.6152184723736108
 40
0.6966482356810076
 40
0.8482565823761774
 40
1.0
 40
1.0
 40
1.0
 40
1.0
 10
247.2263837354666
 20
256.4699858481491
 30
0.0
 10
247.1901697380144
 20
256.4301840370729
 30
0.0
 10
247.0041238507517
 20
256.2257061065135
 30
0.0
 10
246.7989559839953
 20
255.8168255676061
 30
0.0
 10
246.6910022675355
 20
255.2521319687812
 30
0.0
 10
246.7778275111855
 20
254.7778900342929
 30
0.0
 10
246.9429943494035
 20
254.4135847016891
 30
0.0
 10
247.162677997995
 20
254.076879533023
 30
0.0
 10
247.5246923948386
 20
253.6847630820886
 30
0.0
 10
247.9277400597315
 20
253.4260242495405
 30
0.0
 10
248.1293536230263
 20
253.2965972300176
 30
0.0
  0
SPLINE
  5
2F4
330
1F
100
AcDbEntity
  8
0
  6
Continuous
 62
     8
370
    15
100
AcDbSpline
210
0.0
220
0.0
230
1.0
 70
     8
 71
     3
 72
    26
 73
    22
 74
     0
 42
0.0000000001
 43
0.0000000001
 40
0.0
 40
0.0
 40
0.0
 40
0.0
 40
0.0448614888920118
 40
0.0893565819187591
 40
0.1341998008382973
 40
0.2060571543971211
 40
0.2794391807443091
 40
0.3528210323972618
 40
0.3887761430958585
 40
0.4247704003937537
 40
0.4917958377644106
 40
0.5588608518085293
 40
0.6036965576545322
 40
0.6481913525643871
 40
0.693062115088782
 40
0.7649192226338645
 40
0.8383010742868172
 40
0.9116831006340053
 40
0.9476382113326017
 40
0.9836327207779348
 40
0.9999999999999998
 40
0.9999999999999998
 40
0.9999999999999998
 40
0.9999999999999998
 10
248.1293536230263
 20
253.2965972300176
 30
0.0
 10
248.2766572828998
 20
253.2173721683802
 30
0.0
 10
248.5700615339736
 20
253.0595690975264
 30
0.0
 10
249.0718673774117
 20
252.8655802791474
 30
0.0
 10
249.7165376834539
 20
252.6756831197001
 30
0.0
 10
250.5346039985305
 20
252.5257456286797
 30
0.0
 10
251.5158635097051
 20
252.4670508639081
 30
0.0
 10
252.3367163027991
 20
252.5162392739448
 30
0.0
 10
252.9676567349484
 20
252.6118230807814
 30
0.0
 10
253.5517861900814
 20
252.7381439671703
 30
0.0
 10
254.2249565901651
 20
252.9505772802361
 30
0.0
 10
254.8453039348797
 20
253.2484422011531
 30
0.0
 10
255.3108648100378
 20
253.5521839797649
 30
0.0
 10
255.6498396035971
 20
253.8402177123792
 30
0.0
 10
255.977876420491
 20
254.2129472866992
 30
0.0
 10
256.2382412074037
 20
254.6851201341247
 30
0.0
 10
256.3389403998319
 20
255.2514007974033
 30
0.0
 10
256.2564129578162
 20
255.7260439651111
 30
0.0
 10
256.0855236909233
 20
256.0886931274616
 30
0.0
 10
255.9596495147716
 20
256.3069283168833
 30
0.0
 10
255.8423147413292
 20
256.4244655814046
 30
0.0
 10
255.8056381676623
 20
256.461205449854
 30
0.0
  0
LINE
  5
2F5
330
1F
100
AcDbEntity
  8
0
  6
Continuous
 62
     8
370
    15
100
AcDbLine
 10
252.1893266128495
 20
241.9642330739
 30
0.0
 11
257.4926026577972
 21
245.0257491684396
 31
0.0
  0
LINE
  5
2F6
330
1F
100
AcDbEntity
  8
0
  6
Continuous
 62
     8
370
    15
100
AcDbLine
 10
257.3511828588748
 20
238.8210459646994
 30
0.0
 11
257.4926039748752
 21
238.9026866371957
 31
0.0
  0
LINE
  5
2F7
330
1F
100
AcDbEntity
  8
0
  6
Continuous
 62
     8
370
    15
100
AcDbLine
 10
257.4926026577969
 20
244.699156896635
 30
0.0
 11
252.3307477288496
 21
241.7192814745916
 31
0.0
  0
ARC
  5
2F8
330
1F
100
AcDbEntity
  8
0
  6
Continuous
 62
     8
370
    15
100
AcDbCircle
 10
249.8818398132741
 20
256.5365439306098
 30
0.0
 40
1.684029270438911
100
AcDbArc
 50
114.534664327783
 51
170.892529992758
  0
LWPOLYLINE
  5
2F9
330
1F
100
AcDbEntity
  8
0
  6
Continuous
 62
     8
370
    15
100
AcDbPolyline
 90
       17
 70
   128
 43
0.0
 10
254.8129771522853
 20
256.8031027765965
 10
254.8105616110301
 20
256.8308688473233
 10
254.7430160179359
 20
257.1199103133035
 10
254.5998352710108
 20
257.3996132919441
 10
254.3843700447115
 20
257.6634206170821
 10
254.1016753266811
 20
257.9051476888133
 10
253.7583708063141
 20
258.1191299793183
 10
253.3625118000319
 20
258.3003522905436
 10
252.923367980329
 20
258.4445673671335
 10
252.4512389833101
 20
258.5483932198609
 10
251.9571883567095
 20
258.609396762951
 10
251.4527972642444
 20
258.6261493188505
 10
250.9498892140112
 20
258.5982562714601
 10
250.4602468843468
 20
258.5263730332604
 10
249.9953539743812
 20
258.4121837558113
 10
249.5661041273657
 20
258.2583640731257
 10
249.1825572692041
 20
258.0685225555435
  0
LINE
  5
2FA
330
1F
100
AcDbEntity
  8
0
  6
Continuous
 62
     8
370
    15
100
AcDbLine
 10
241.3072078907005
 20
252.6012315375443
 30
0.0
 11
241.3460580654045
 21
252.6236592660133
 31
0.0
  0
LINE
  5
2FB
330
1F
100
AcDbEntity
  8
0
  6
Continuous
 62
     8
370
    15
100
AcDbLine
 10
239.5706615845555
 20
250.1304957626257
 30
0.0
 11
240.0091508110182
 21
250.383630204944
 31
0.0
  0
LINE
  5
2FC
330
1F
100
AcDbEntity
  8
0
  6
Continuous
 62
     8
370
    15
100
AcDbLine
 10
239.6697040443779
 20
249.8658533234686
 30
0.0
 11
239.8637494520113
 21
249.9778733528818
 31
0.0
  0
LINE
  5
2FD
330
1F
100
AcDbEntity
  8
0
  6
Continuous
 62
     8
370
    15
100
AcDbLine
 10
239.60948410039
 20
249.940769997811
 30
0.0
 11
239.9082762803743
 21
250.1132605724614
 31
0.0
  0
LINE
  5
2FE
330
1F
100
AcDbEntity
  8
0
  6
Continuous
 62
     8
370
    15
100
AcDbLine
 10
266.842392359894
 20
201.1820820215894
 30
0.0
 11
267.0717726316476
 21
201.3145004338674
 31
0.0
  0
LINE
  5
2FF
330
1F
100
AcDbEntity
  8
0
  6
Continuous
 62
     8
370
    15
100
AcDbLine
 10
266.3203246157461
 20
201.3771221844567
 30
0.0
 11
267.076083463998
 21
201.8134124808516
 31
0.0
  0
LINE
  5
300
330
1F
100
AcDbEntity
  8
0
  6
Continuous
 62
     8
370
    15
100
AcDbLine
 10
237.1962859464714
 20
250.3344367213565
 30
0.0
 11
241.1243432517326
 21
252.6020559360469
 31
0.0
  0
LINE
  5
301
330
1F
100
AcDbEntity
  8
0
  6
Continuous
 62
     8
370
    15
100
AcDbLine
 10
237.5025473382646
 20
249.7884280076565
 30
0.0
 11
238.5691747556881
 21
250.4041789091074
 31
0.0
  0
LINE
  5
302
330
1F
100
AcDbEntity
  8
0
  6
Continuous
 62
     8
370
    15
100
AcDbLine
 10
241.7693098890422
 20
216.8672152731272
 30
0.0
 11
241.5484485490438
 21
216.7397147354716
 31
0.0
  0
LINE
  5
303
330
1F
100
AcDbEntity
  8
0
  6
Continuous
 62
     7
370
    15
100
AcDbLine
 10
177.9686531103197
 20
64.80466968933867
 30
0.0
 11
177.9686531103324
 21
76.80024414877222
 31
0.0
  0
LINE
  5
304
330
1F
100
AcDbEntity
  8
0
  6
Continuous
 62
     7
370
    15
100
AcDbLine
 10
138.0564441955757
 20
76.80024414881481
 30
0.0
 11
138.0564441955629
 21
64.80466968938124
 31
0.0
  0
CIRCLE
  5
305
330
1F
100
AcDbEntity
  8
0
  6
Continuous
 62
     7
370
    15
100
AcDbCircle
 10
147.3125641759028
 20
70.80245698850212
 30
0.0
 40
4.28962832697411
  0
CIRCLE
  5
306
330
1F
100
AcDbEntity
  8
0
  6
Continuous
 62
     7
370
    15
100
AcDbCircle
 10
147.3125613049164
 20
70.80245698850198
 30
0.0
 40
3.299999936646372
  0
CIRCLE
  5
307
330
1F
100
AcDbEntity
  8
0
  6
Continuous
 62
     7
370
    15
100
AcDbCircle
 10
168.7125319645865
 20
70.80245698850332
 30
0.0
 40
4.28962832697411
  0
CIRCLE
  5
308
330
1F
100
AcDbEntity
  8
0
  6
Continuous
 62
     7
370
    15
100
AcDbCircle
 10
168.712534835573
 20
70.80245698850339
 30
0.0
 40
3.299999936646344
  0
SPLINE
  5
309
330
1F
100
AcDbEntity
  8
0
  6
Continuous
 62
     7
370
    15
100
AcDbSpline
210
0.0
220
0.0
230
1.0
 70
     8
 71
     3
 72
    31
 73
    27
 74
     0
 42
0.0000000001
 43
0.0000000001
 40
0.0
 40
0.0
 40
0.0
 40
0.0
 40
0.0401228496430648
 40
0.0799177385368437
 40
0.1200244836500176
 40
0.1521816408591922
 40
0.1843739617793888
 40
0.2500047752532572
 40
0.2828462315337177
 40
0.3157235084583709
 40
0.3478807447893395
 40
0.3800729927339768
 40
0.4400185830786651
 40
0.4999995156587892
 40
0.5400994293360877
 40
0.5798943182298665
 40
0.6200253851948501
 40
0.6521825424040247
 40
0.6843748633242213
 40
0.7500056767980898
 40
0.7828471330785502
 40
0.8157244100032034
 40
0.8478816463341718
 40
0.8800738942788093
 40
0.9400106135021648
 40
0.9999999999999998
 40
0.9999999999999998
 40
0.9999999999999998
 40
0.9999999999999998
 10
168.7125286138712
 20
75.59191271286326
 30
0.0
 10
168.5113258093393
 20
75.58479188762039
 30
0.0
 10
168.1105648148312
 20
75.57060844215257
 30
0.0
 10
167.5181575665306
 20
75.45342691833479
 30
0.0
 10
166.9829139716051
 20
75.27977728882262
 30
0.0
 10
166.5056366335685
 20
75.06244058681201
 30
0.0
 10
165.9424680739453
 20
74.73355488510321
 30
0.0
 10
165.4299366787175
 20
74.31718928279102
 30
0.0
 10
164.988449729422
 20
73.82780010901308
 30
0.0
 10
164.6988297029474
 20
73.43083753606649
 30
0.0
 10
164.4525364023023
 20
73.00946663714973
 30
0.0
 10
164.194268679869
 20
72.44172154608944
 30
0.0
 10
163.9784556570803
 20
71.70550028856819
 30
0.0
 10
163.9046497808578
 20
70.90200965239704
 30
0.0
 10
163.947511827284
 20
70.20074808029952
 30
0.0
 10
164.0605670322911
 20
69.60829458786278
 30
0.0
 10
164.2353546976935
 20
69.07295548846083
 30
0.0
 10
164.4525015532478
 20
68.5955612078942
 30
0.0
 10
164.7814610451525
 20
68.0323929800285
 30
0.0
 10
165.1977945064899
 20
67.51987043470063
 30
0.0
 10
165.6871892156505
 20
67.07836095563924
 30
0.0
 10
166.084149971894
 20
66.78880929677402
 30
0.0
 10
166.5055239349331
 20
66.54226459788647
 30
0.0
 10
167.0732150661295
 20
66.2852193043403
 30
0.0
 10
167.8095246776091
 20
66.06089200411962
 30
0.0
 10
168.4114391886383
 20
66.02896818305641
 30
0.0
 10
168.712528613861
 20
66.01299926262218
 30
0.0
  0
SPLINE
  5
30A
330
1F
100
AcDbEntity
  8
0
  6
Continuous
 62
     7
370
    15
100
AcDbSpline
210
0.0
220
0.0
230
1.0
 70
     8
 71
     3
 72
    31
 73
    27
 74
     0
 42
0.0000000001
 43
0.0000000001
 40
0.0
 40
0.0
 40
0.0
 40
0.0
 40
0.0401230668012103
 40
0.0799179489913869
 40
0.1200248995698034
 40
0.1521818070843881
 40
0.1843741038020972
 40
0.2500050602722177
 40
0.2828463258790995
 40
0.315723578086309
 40
0.347880790241167
 40
0.3800730139833718
 40
0.4400186285962198
 40
0.4999996163256022
 40
0.5400993455141587
 40
0.5798942509192742
 40
0.6200253644664656
 40
0.652182394803355
 40
0.6843748164963336
 40
0.7500054243868669
 40
0.7828470399740139
 40
0.8157242921812233
 40
0.8478815043360814
 40
0.880073502565231
 40
0.9400101767276012
 40
0.9999999999999998
 40
0.9999999999999998
 40
0.9999999999999998
 40
0.9999999999999998
 10
168.712528613861
 20
66.01299926262218
 30
0.0
 10
168.9137327242912
 20
66.0201197607503
 30
0.0
 10
169.3144952062292
 20
66.03430251524952
 30
0.0
 10
169.906904087498
 20
66.15148841314251
 30
0.0
 10
170.4421489479151
 20
66.32513463610095
 30
0.0
 10
170.9194251638432
 20
66.54247426754756
 30
0.0
 10
171.4825933042479
 20
66.87135970279673
 30
0.0
 10
171.9951285809036
 20
67.28772155011376
 30
0.0
 10
172.4366110161515
 20
67.77711505501637
 30
0.0
 10
172.7262313802191
 20
68.17407614151838
 30
0.0
 10
172.9725247071382
 20
68.59544720672554
 30
0.0
 10
173.230791397462
 20
69.16319278310908
 30
0.0
 10
173.4466133857552
 20
69.89941324991912
 30
0.0
 10
173.5204055209933
 20
70.70290463848522
 30
0.0
 10
173.4775600550017
 20
71.40416695243239
 30
0.0
 10
173.3644972928316
 20
71.99661977009253
 30
0.0
 10
173.1897042819905
 20
72.53195639292314
 30
0.0
 10
172.9725648337921
 20
73.00935483259634
 30
0.0
 10
172.6435971285746
 20
73.57251749494071
 30
0.0
 10
172.2272711966069
 20
74.08504669642567
 30
0.0
 10
171.7378717117363
 20
74.5265515409358
 30
0.0
 10
171.3409112328013
 20
74.81610485725915
 30
0.0
 10
170.9195377476128
 20
75.06264819418523
 30
0.0
 10
170.3518490251203
 20
75.31969588037035
 30
0.0
 10
169.6155375515584
 20
75.54402274212598
 30
0.0
 10
169.01362051244
 20
75.57594467355611
 30
0.0
 10
168.7125286138712
 20
75.59191271286326
 30
0.0
  0
SPLINE
  5
30B
330
1F
100
AcDbEntity
  8
0
  6
Continuous
 62
     7
370
    15
100
AcDbSpline
210
0.0
220
0.0
230
1.0
 70
     8
 71
     3
 72
    31
 73
    27
 74
     0
 42
0.0000000001
 43
0.0000000001
 40
0.0
 40
0.0
 40
0.0
 40
0.0
 40
0.0401228373418852
 40
0.0799179806622873
 40
0.120024477861393
 40
0.1521818507305401
 40
0.1843741617809612
 40
0.2500049551332174
 40
0.2828464013448853
 40
0.315723522097576
 40
0.3478807485695256
 40
0.3800729866444098
 40
0.4400186279463516
 40
0.4999996654973046
 40
0.5400994432175245
 40
0.5798943199106727
 40
0.6200254513251103
 40
0.6521825986752902
 40
0.6843749097257113
 40
0.7500055468364213
 40
0.7828471770453711
 40
0.8157242437348507
 40
0.8478814702068003
 40
0.8800739337951679
 40
0.9400103967384065
 40
1.0
 40
1.0
 40
1.0
 40
1.0
 10
147.3125649667338
 20
66.01299926264501
 30
0.0
 10
147.5137677733973
 20
66.02012003453904
 30
0.0
 10
147.9145301091991
 20
66.03430342106477
 30
0.0
 10
148.5069374472129
 20
66.15148608907468
 30
0.0
 10
149.0421813835162
 20
66.32513826102439
 30
0.0
 10
149.519459903198
 20
66.54247219224027
 30
0.0
 10
150.0826291808692
 20
66.87135919169302
 30
0.0
 10
150.5951601236916
 20
67.28772488870493
 30
0.0
 10
151.0366479799415
 20
67.77711254104033
 30
0.0
 10
151.3262633709869
 20
68.17407755934266
 30
0.0
 10
151.5725575249262
 20
68.59544700311665
 30
0.0
 10
151.8308242777864
 20
69.16319288834305
 30
0.0
 10
152.0466431460704
 20
69.89941335474014
 30
0.0
 10
152.1204474441277
 20
70.70290493855113
 30
0.0
 10
152.0775850823249
 20
71.40416624067867
 30
0.0
 10
151.9645314398223
 20
71.99662004970925
 30
0.0
 10
151.7897380240898
 20
72.53195764001505
 30
0.0
 10
151.5725923776051
 20
73.0093528173457
 30
0.0
 10
151.2436321544839
 20
73.57251953583599
 30
0.0
 10
150.8273036099614
 20
74.08504675703868
 30
0.0
 10
150.3379047562968
 20
74.52655037175555
 30
0.0
 10
149.9409470626948
 20
74.8161057606051
 30
0.0
 10
149.5195724302888
 20
75.06265007178481
 30
0.0
 10
148.9518802534257
 20
75.3196925486559
 30
0.0
 10
148.2155705825503
 20
75.54402349739163
 30
0.0
 10
147.6136557433054
 20
75.57594492616388
 30
0.0
 10
147.312564966744
 20
75.5919127128861
 30
0.0
  0
SPLINE
  5
30C
330
1F
100
AcDbEntity
  8
0
  6
Continuous
 62
     7
370
    15
100
AcDbSpline
210
0.0
220
0.0
230
1.0
 70
     8
 71
     3
 72
    31
 73
    27
 74
     0
 42
0.0000000001
 43
0.0000000001
 40
0.0
 40
0.0
 40
0.0
 40
0.0
 40
0.0401230736880593
 40
0.0799179394941836
 40
0.1200246613387744
 40
0.1521817998914492
 40
0.1843741021347452
 40
0.2500048775318254
 40
0.2828463147587788
 40
0.3157235726091429
 40
0.3478807902835657
 40
0.3800730195513448
 40
0.4400186444534461
 40
0.4999995191178834
 40
0.5400993941906558
 40
0.5798943064262938
 40
0.6200253501085835
 40
0.6521824886612583
 40
0.6843747909045543
 40
0.7500055663016346
 40
0.7828470035285879
 40
0.815724261378952
 40
0.8478814790533748
 40
0.8800737083211538
 40
0.940010154867063
 40
0.9999999999999998
 40
0.9999999999999998
 40
0.9999999999999998
 40
0.9999999999999998
 10
147.312564966744
 20
75.5919127128861
 30
0.0
 10
147.1113609143817
 20
75.58479195668474
 30
0.0
 10
146.7105986645178
 20
75.57060869226993
 30
0.0
 10
146.1181901937583
 20
75.45342691601212
 30
0.0
 10
145.5829465991876
 20
75.27977728935315
 30
0.0
 10
145.1056692613639
 20
75.06244058666992
 30
0.0
 10
144.5425007002845
 20
74.73355488545627
 30
0.0
 10
144.0299693143074
 20
74.31718928113986
 30
0.0
 10
143.5884823432958
 20
73.82780011188406
 30
0.0
 10
143.2988623823596
 20
73.43083752532885
 30
0.0
 10
143.0525688408069
 20
73.00946667642546
 30
0.0
 10
142.7943021281105
 20
72.44172102912654
 30
0.0
 10
142.5784809641785
 20
71.70550120893375
 30
0.0
 10
142.5046861740144
 20
70.90200969750483
 30
0.0
 10
142.5475379349497
 20
70.20074747711203
 30
0.0
 10
142.6606013419368
 20
69.6082950783523
 30
0.0
 10
142.8353869572513
 20
69.07295543210723
 30
0.0
 10
143.0525342683331
 20
68.5955612213537
 30
0.0
 10
143.3814936204172
 20
68.03239297184771
 30
0.0
 10
143.7978271428273
 20
67.51987043728338
 30
0.0
 10
144.2872218410714
 20
67.07836095324438
 30
0.0
 10
144.6841826020546
 20
66.78880930508054
 30
0.0
 10
145.1055565545172
 20
66.54226456790524
 30
0.0
 10
145.6732466473701
 20
66.28521994939018
 30
0.0
 10
146.4095570484073
 20
66.06089074660632
 30
0.0
 10
147.0114729905822
 20
66.02896782864991
 30
0.0
 10
147.3125649667338
 20
66.01299926264501
 30
0.0
  0
LINE
  5
30D
330
1F
100
AcDbEntity
  8
0
  6
Continuous
 62
     7
370
    15
100
AcDbLine
 10
177.3563643968772
 20
76.80024414877286
 30
0.0
 11
177.3563643968645
 21
64.80466968933929
 31
0.0
  0
LINE
  5
30E
330
1F
100
AcDbEntity
  8
0
  6
Continuous
 62
     7
370
    15
100
AcDbLine
 10
177.3563643968645
 20
64.80466968933929
 30
0.0
 11
162.9625318623128
 21
64.80466968935465
 31
0.0
  0
LINE
  5
30F
330
1F
100
AcDbEntity
  8
0
  6
Continuous
 62
     7
370
    15
100
AcDbLine
 10
162.9625318623128
 20
64.80466968935465
 30
0.0
 11
162.9625318623256
 21
76.80024414878821
 31
0.0
  0
LINE
  5
310
330
1F
100
AcDbEntity
  8
0
  6
Continuous
 62
     7
370
    15
100
AcDbLine
 10
162.9625318623256
 20
76.80024414878821
 30
0.0
 11
177.3563643968772
 21
76.80024414877286
 31
0.0
  0
LINE
  5
311
330
1F
100
AcDbEntity
  8
0
  6
Continuous
 62
     7
370
    15
100
AcDbLine
 10
153.0625654435825
 20
76.80024414879877
 30
0.0
 11
153.0625654435697
 21
64.80466968936521
 31
0.0
  0
LINE
  5
312
330
1F
100
AcDbEntity
  8
0
  6
Continuous
 62
     7
370
    15
100
AcDbLine
 10
153.0625654435697
 20
64.80466968936521
 30
0.0
 11
138.6687291837278
 21
64.80466968938057
 31
0.0
  0
LINE
  5
313
330
1F
100
AcDbEntity
  8
0
  6
Continuous
 62
     7
370
    15
100
AcDbLine
 10
138.6687291837278
 20
64.80466968938057
 30
0.0
 11
138.6687291837406
 21
76.80024414881413
 31
0.0
  0
LINE
  5
314
330
1F
100
AcDbEntity
  8
0
  6
Continuous
 62
     7
370
    15
100
AcDbLine
 10
138.6687291837406
 20
76.80024414881413
 30
0.0
 11
153.0625654435825
 21
76.80024414879877
 31
0.0
  0
LINE
  5
315
330
1F
100
AcDbEntity
  8
0
  6
Continuous
 62
     7
370
    15
100
AcDbLine
 10
138.6687291837278
 20
64.80466968938057
 30
0.0
 11
138.2357163405958
 21
64.80466968938102
 31
0.0
  0
LINE
  5
316
330
1F
100
AcDbEntity
  8
0
  6
Continuous
 62
     7
370
    15
100
AcDbLine
 10
138.2357163406086
 20
76.8002441488146
 30
0.0
 11
138.2357163405958
 21
64.80466968938102
 31
0.0
  0
LINE
  5
317
330
1F
100
AcDbEntity
  8
0
  6
Continuous
 62
     7
370
    15
100
AcDbLine
 10
138.6687291837406
 20
76.80024414881413
 30
0.0
 11
138.2357163406086
 21
76.8002441488146
 31
0.0
  0
LINE
  5
318
330
1F
100
AcDbEntity
  8
0
  6
Continuous
 62
     7
370
    15
100
AcDbLine
 10
161.7625301755014
 20
64.80466968935599
 30
0.0
 11
162.9625318623128
 21
64.80466968935465
 31
0.0
  0
LINE
  5
319
330
1F
100
AcDbEntity
  8
0
  6
Continuous
 62
     7
370
    15
100
AcDbLine
 10
161.7625301755142
 20
76.80024414878954
 30
0.0
 11
161.7625301755014
 21
64.80466968935599
 31
0.0
  0
LINE
  5
31A
330
1F
100
AcDbEntity
  8
0
  6
Continuous
 62
     7
370
    15
100
AcDbLine
 10
161.7625301755142
 20
76.80024414878954
 30
0.0
 11
162.9625318623256
 21
76.80024414878821
 31
0.0
  0
LINE
  5
31B
330
1F
100
AcDbEntity
  8
0
  6
Continuous
 62
     7
370
    15
100
AcDbLine
 10
154.2625634051036
 20
76.80024414879753
 30
0.0
 11
154.2625634050908
 21
64.80466968936397
 31
0.0
  0
LINE
  5
31C
330
1F
100
AcDbEntity
  8
0
  6
Continuous
 62
     7
370
    15
100
AcDbLine
 10
153.0625654435697
 20
64.80466968936521
 30
0.0
 11
154.2625634050908
 21
64.80466968936397
 31
0.0
  0
LINE
  5
31D
330
1F
100
AcDbEntity
  8
0
  6
Continuous
 62
     7
370
    15
100
AcDbLine
 10
153.0625654435825
 20
76.80024414879877
 30
0.0
 11
154.2625634051036
 21
76.80024414879753
 31
0.0
  0
LINE
  5
31E
330
1F
100
AcDbEntity
  8
0
  6
Continuous
 62
     7
370
    15
100
AcDbLine
 10
177.7893846905771
 20
64.80466968933885
 30
0.0
 11
177.7893846905898
 21
76.80024414877241
 31
0.0
  0
LINE
  5
31F
330
1F
100
AcDbEntity
  8
0
  6
Continuous
 62
     7
370
    15
100
AcDbLine
 10
177.7893846905771
 20
64.80466968933885
 30
0.0
 11
177.3563643968645
 21
64.80466968933929
 31
0.0
  0
LINE
  5
320
330
1F
100
AcDbEntity
  8
0
  6
Continuous
 62
     7
370
    15
100
AcDbLine
 10
177.7893846905898
 20
76.80024414877241
 30
0.0
 11
177.3563643968772
 21
76.80024414877286
 31
0.0
  0
LINE
  5
321
330
1F
100
AcDbEntity
  8
0
  6
Continuous
 62
     7
370
    15
100
AcDbLine
 10
177.9351552999687
 20
76.80024414877227
 30
0.0
 11
177.9351552999559
 21
64.80466968933869
 31
0.0
  0
LINE
  5
322
330
1F
100
AcDbEntity
  8
0
  6
Continuous
 62
     7
370
    15
100
AcDbLine
 10
177.9351552999559
 20
64.80466968933869
 30
0.0
 11
177.7893846905771
 21
64.80466968933885
 31
0.0
  0
LINE
  5
323
330
1F
100
AcDbEntity
  8
0
  6
Continuous
 62
     7
370
    15
100
AcDbLine
 10
177.7893846905898
 20
76.80024414877241
 30
0.0
 11
177.9351552999687
 21
76.80024414877227
 31
0.0
  0
LINE
  5
324
330
1F
100
AcDbEntity
  8
0
  6
Continuous
 62
     7
370
    15
100
AcDbLine
 10
138.0899382806364
 20
64.8046696893812
 30
0.0
 11
138.0899382806491
 21
76.80024414881476
 31
0.0
  0
LINE
  5
325
330
1F
100
AcDbEntity
  8
0
  6
Continuous
 62
     7
370
    15
100
AcDbLine
 10
138.2357163405958
 20
64.80466968938102
 30
0.0
 11
138.0899382806364
 21
64.8046696893812
 31
0.0
  0
LINE
  5
326
330
1F
100
AcDbEntity
  8
0
  6
Continuous
 62
     7
370
    15
100
AcDbLine
 10
138.0899382806491
 20
76.80024414881476
 30
0.0
 11
138.2357163406086
 21
76.8002441488146
 31
0.0
  0
LINE
  5
327
330
1F
100
AcDbEntity
  8
0
  6
Continuous
 62
     7
370
    15
100
AcDbLine
 10
177.9351552999559
 20
64.80466968933869
 30
0.0
 11
177.9686531103197
 21
64.80466968933867
 31
0.0
  0
LINE
  5
328
330
1F
100
AcDbEntity
  8
0
  6
Continuous
 62
     7
370
    15
100
AcDbLine
 10
177.9686531103324
 20
76.80024414877222
 30
0.0
 11
177.9351552999687
 21
76.80024414877227
 31
0.0
  0
LINE
  5
329
330
1F
100
AcDbEntity
  8
0
  6
Continuous
 62
     7
370
    15
100
AcDbLine
 10
138.0564441955629
 20
64.80466968938124
 30
0.0
 11
138.0899382806364
 21
64.8046696893812
 31
0.0
  0
LINE
  5
32A
330
1F
100
AcDbEntity
  8
0
  6
Continuous
 62
     7
370
    15
100
AcDbLine
 10
138.0899382806491
 20
76.80024414881476
 30
0.0
 11
138.0564441955757
 21
76.80024414881481
 31
0.0
  0
LINE
  5
32B
330
1F
100
AcDbEntity
  8
0
  6
Continuous
 62
     7
370
    15
100
AcDbLine
 10
178.1285649216842
 20
76.8002441487722
 30
0.0
 11
178.1285649216714
 21
64.80466968933864
 31
0.0
  0
LINE
  5
32C
330
1F
100
AcDbEntity
  8
0
  6
Continuous
 62
     7
370
    15
100
AcDbLine
 10
178.1285649216714
 20
64.80466968933864
 30
0.0
 11
177.9686531103197
 21
64.80466968933879
 31
0.0
  0
LINE
  5
32D
330
1F
100
AcDbEntity
  8
0
  6
Continuous
 62
     7
370
    15
100
AcDbLine
 10
177.9686531103324
 20
76.80024414877235
 30
0.0
 11
178.1285649216842
 21
76.8002441487722
 31
0.0
  0
LINE
  5
32E
330
1F
100
AcDbEntity
  8
0
  6
Continuous
 62
     7
370
    15
100
AcDbLine
 10
137.8965323842111
 20
64.80466968938157
 30
0.0
 11
137.8965323842239
 21
76.80024414881512
 31
0.0
  0
LINE
  5
32F
330
1F
100
AcDbEntity
  8
0
  6
Continuous
 62
     7
370
    15
100
AcDbLine
 10
138.0564441955629
 20
64.80466968938138
 30
0.0
 11
137.8965323842111
 21
64.80466968938157
 31
0.0
  0
LINE
  5
330
330
1F
100
AcDbEntity
  8
0
  6
Continuous
 62
     7
370
    15
100
AcDbLine
 10
137.8965323842239
 20
76.80024414881512
 30
0.0
 11
138.0564441955757
 21
76.80024414881494
 31
0.0
  0
LINE
  5
331
330
1F
100
AcDbEntity
  8
0
  6
Continuous
 62
     7
370
    15
100
AcDbLine
 10
179.2487597144189
 20
64.80466968933765
 30
0.0
 11
179.2487597144317
 21
76.8002441487712
 31
0.0
  0
LINE
  5
332
330
1F
100
AcDbEntity
  8
0
  6
Continuous
 62
     7
370
    15
100
AcDbLine
 10
178.1285649216714
 20
64.80466968933874
 30
0.0
 11
179.2487597144189
 21
64.80466968933765
 31
0.0
  0
LINE
  5
333
330
1F
100
AcDbEntity
  8
0
  6
Continuous
 62
     7
370
    15
100
AcDbLine
 10
178.1285649216842
 20
76.80024414877229
 30
0.0
 11
179.2487597144317
 21
76.8002441487712
 31
0.0
  0
LINE
  5
334
330
1F
100
AcDbEntity
  8
0
  6
Continuous
 62
     7
370
    15
100
AcDbLine
 10
136.7763338661861
 20
76.80024414881652
 30
0.0
 11
136.7763338661733
 21
64.80466968938296
 31
0.0
  0
LINE
  5
335
330
1F
100
AcDbEntity
  8
0
  6
Continuous
 62
     7
370
    15
100
AcDbLine
 10
136.7763338661733
 20
64.80466968938296
 30
0.0
 11
137.8965323842111
 21
64.80466968938165
 31
0.0
  0
LINE
  5
336
330
1F
100
AcDbEntity
  8
0
  6
Continuous
 62
     7
370
    15
100
AcDbLine
 10
136.7763338661861
 20
76.80024414881652
 30
0.0
 11
137.8965323842239
 21
76.80024414881521
 31
0.0
  0
LINE
  5
337
330
1F
100
AcDbEntity
  8
0
  6
Continuous
 62
     7
370
    15
100
AcDbLine
 10
180.3810766017976
 20
64.8046696893364
 30
0.0
 11
180.3810766018104
 21
76.80024414876996
 31
0.0
  0
LINE
  5
338
330
1F
100
AcDbEntity
  8
0
  6
Continuous
 62
     7
370
    15
100
AcDbLine
 10
179.4842204130235
 20
64.80466968933737
 30
0.0
 11
179.4842204130363
 21
76.80024414877093
 31
0.0
  0
LINE
  5
339
330
1F
100
AcDbEntity
  8
0
  6
Continuous
 62
     7
370
    15
100
AcDbLine
 10
180.3810766017976
 20
64.8046696893364
 30
0.0
 11
179.4842204130235
 21
64.80466968933737
 31
0.0
  0
LINE
  5
33A
330
1F
100
AcDbEntity
  8
0
  6
Continuous
 62
     7
370
    15
100
AcDbLine
 10
179.4842204130363
 20
76.80024414877093
 30
0.0
 11
180.3810766018104
 21
76.80024414876996
 31
0.0
  0
LINE
  5
33B
330
1F
100
AcDbEntity
  8
0
  6
Continuous
 62
     7
370
    15
100
AcDbLine
 10
180.6628650105539
 20
64.80466968933612
 30
0.0
 11
180.6628650105666
 21
76.80024414876967
 31
0.0
  0
LINE
  5
33C
330
1F
100
AcDbEntity
  8
0
  6
Continuous
 62
     7
370
    15
100
AcDbLine
 10
180.6628650105539
 20
64.80466968933612
 30
0.0
 11
180.3810766017976
 21
64.8046696893364
 31
0.0
  0
LINE
  5
33D
330
1F
100
AcDbEntity
  8
0
  6
Continuous
 62
     7
370
    15
100
AcDbLine
 10
180.3810766018104
 20
76.80024414876996
 30
0.0
 11
180.6628650105666
 21
76.80024414876967
 31
0.0
  0
LINE
  5
33E
330
1F
100
AcDbEntity
  8
0
  6
Continuous
 62
     7
370
    15
100
AcDbLine
 10
136.5408768928718
 20
76.80024414881675
 30
0.0
 11
136.540876892859
 21
64.80466968938319
 31
0.0
  0
LINE
  5
33F
330
1F
100
AcDbEntity
  8
0
  6
Continuous
 62
     7
370
    15
100
AcDbLine
 10
135.6440225667429
 20
76.80024414881768
 30
0.0
 11
135.6440225667301
 21
64.80466968938412
 31
0.0
  0
LINE
  5
340
330
1F
100
AcDbEntity
  8
0
  6
Continuous
 62
     7
370
    15
100
AcDbLine
 10
136.540876892859
 20
64.80466968938319
 30
0.0
 11
135.6440225667301
 21
64.80466968938412
 31
0.0
  0
LINE
  5
341
330
1F
100
AcDbEntity
  8
0
  6
Continuous
 62
     7
370
    15
100
AcDbLine
 10
135.6440225667429
 20
76.80024414881768
 30
0.0
 11
136.5408768928718
 21
76.80024414881675
 31
0.0
  0
LINE
  5
342
330
1F
100
AcDbEntity
  8
0
  6
Continuous
 62
     7
370
    15
100
AcDbLine
 10
135.3622285700512
 20
76.80024414881799
 30
0.0
 11
135.3622285700384
 21
64.80466968938443
 31
0.0
  0
LINE
  5
343
330
1F
100
AcDbEntity
  8
0
  6
Continuous
 62
     7
370
    15
100
AcDbLine
 10
135.6440225667301
 20
64.80466968938412
 30
0.0
 11
135.3622285700384
 21
64.80466968938443
 31
0.0
  0
LINE
  5
344
330
1F
100
AcDbEntity
  8
0
  6
Continuous
 62
     7
370
    15
100
AcDbLine
 10
135.3622285700512
 20
76.80024414881799
 30
0.0
 11
135.6440225667429
 21
76.80024414881768
 31
0.0
  0
LINE
  5
345
330
1F
100
AcDbEntity
  8
0
  6
Continuous
 62
     7
370
    15
100
AcDbLine
 10
134.170340565497
 20
64.80466968938578
 30
0.0
 11
134.1703405655098
 21
76.80024414881933
 31
0.0
  0
LINE
  5
346
330
1F
100
AcDbEntity
  8
0
  6
Continuous
 62
     7
370
    15
100
AcDbLine
 10
135.3622285700384
 20
64.80466968938443
 30
0.0
 11
134.170340565497
 21
64.80466968938578
 31
0.0
  0
LINE
  5
347
330
1F
100
AcDbEntity
  8
0
  6
Continuous
 62
     7
370
    15
100
AcDbLine
 10
134.1703405655098
 20
76.80024414881933
 30
0.0
 11
135.3622285700512
 21
76.80024414881799
 31
0.0
  0
LINE
  5
348
330
1F
100
AcDbEntity
  8
0
  6
Continuous
 62
     7
370
    15
100
AcDbLine
 10
181.8547567403983
 20
76.80024414876846
 30
0.0
 11
181.8547567403856
 21
64.8046696893349
 31
0.0
  0
LINE
  5
349
330
1F
100
AcDbEntity
  8
0
  6
Continuous
 62
     7
370
    15
100
AcDbLine
 10
181.8547567403856
 20
64.8046696893349
 30
0.0
 11
180.6628650105539
 21
64.80466968933612
 31
0.0
  0
LINE
  5
34A
330
1F
100
AcDbEntity
  8
0
  6
Continuous
 62
     7
370
    15
100
AcDbLine
 10
180.6628650105666
 20
76.80024414876967
 30
0.0
 11
181.8547567403983
 21
76.80024414876846
 31
0.0
  0
LINE
  5
34B
330
1F
100
AcDbEntity
  8
0
  6
Continuous
 62
     7
370
    15
100
AcDbLine
 10
179.4679557955932
 20
76.80024414877095
 30
0.0
 11
179.4679557955804
 21
64.8046696893374
 31
0.0
  0
LINE
  5
34C
330
1F
100
AcDbEntity
  8
0
  6
Continuous
 62
     7
370
    15
100
AcDbLine
 10
179.4679557955804
 20
64.8046696893374
 30
0.0
 11
179.2487597144189
 21
64.80466968933765
 31
0.0
  0
LINE
  5
34D
330
1F
100
AcDbEntity
  8
0
  6
Continuous
 62
     7
370
    15
100
AcDbLine
 10
179.2487597144317
 20
76.8002441487712
 30
0.0
 11
179.4679557955932
 21
76.80024414877095
 31
0.0
  0
LINE
  5
34E
330
1F
100
AcDbEntity
  8
0
  6
Continuous
 62
     7
370
    15
100
AcDbLine
 10
136.5571433729473
 20
64.80466968938319
 30
0.0
 11
136.55714337296
 21
76.80024414881675
 31
0.0
  0
LINE
  5
34F
330
1F
100
AcDbEntity
  8
0
  6
Continuous
 62
     7
370
    15
100
AcDbLine
 10
136.7763338661733
 20
64.80466968938296
 30
0.0
 11
136.5571433729473
 21
64.80466968938319
 31
0.0
  0
LINE
  5
350
330
1F
100
AcDbEntity
  8
0
  6
Continuous
 62
     7
370
    15
100
AcDbLine
 10
136.55714337296
 20
76.80024414881675
 30
0.0
 11
136.7763338661861
 21
76.80024414881652
 31
0.0
  0
LINE
  5
351
330
1F
100
AcDbEntity
  8
0
  6
Continuous
 62
     7
370
    15
100
AcDbLine
 10
136.5571433729473
 20
64.80466968938319
 30
0.0
 11
136.540876892859
 21
64.8046696893832
 31
0.0
  0
LINE
  5
352
330
1F
100
AcDbEntity
  8
0
  6
Continuous
 62
     7
370
    15
100
AcDbLine
 10
136.5408768928718
 20
76.80024414881677
 30
0.0
 11
136.55714337296
 21
76.80024414881675
 31
0.0
  0
LINE
  5
353
330
1F
100
AcDbEntity
  8
0
  6
Continuous
 62
     7
370
    15
100
AcDbLine
 10
179.4842204130235
 20
64.80466968933739
 30
0.0
 11
179.4679557955804
 21
64.8046696893374
 31
0.0
  0
LINE
  5
354
330
1F
100
AcDbEntity
  8
0
  6
Continuous
 62
     7
370
    15
100
AcDbLine
 10
179.4679557955932
 20
76.80024414877095
 30
0.0
 11
179.4842204130363
 21
76.80024414877094
 31
0.0
  0
LINE
  5
355
330
1F
100
AcDbEntity
  8
0
  6
Continuous
 62
     7
370
    15
100
AcDbLine
 10
161.5625305152479
 20
64.80466968935655
 30
0.0
 11
161.5625305152607
 21
76.80024414879011
 31
0.0
  0
LINE
  5
356
330
1F
100
AcDbEntity
  8
0
  6
Continuous
 62
     7
370
    15
100
AcDbLine
 10
161.7625301755014
 20
64.80466968935633
 30
0.0
 11
161.5625305152479
 21
64.80466968935655
 31
0.0
  0
LINE
  5
357
330
1F
100
AcDbEntity
  8
0
  6
Continuous
 62
     7
370
    15
100
AcDbLine
 10
161.5625305152607
 20
76.80024414879011
 30
0.0
 11
161.7625301755142
 21
76.80024414878989
 31
0.0
  0
LINE
  5
358
330
1F
100
AcDbEntity
  8
0
  6
Continuous
 62
     7
370
    15
100
AcDbLine
 10
154.4625630653572
 20
76.80024414879767
 30
0.0
 11
154.4625630653444
 21
64.80466968936413
 31
0.0
  0
LINE
  5
359
330
1F
100
AcDbEntity
  8
0
  6
Continuous
 62
     7
370
    15
100
AcDbLine
 10
154.4625630653444
 20
64.80466968936413
 30
0.0
 11
154.2625634050908
 21
64.80466968936433
 31
0.0
  0
LINE
  5
35A
330
1F
100
AcDbEntity
  8
0
  6
Continuous
 62
     7
370
    15
100
AcDbLine
 10
154.2625634051036
 20
76.80024414879788
 30
0.0
 11
154.4625630653572
 21
76.80024414879767
 31
0.0
  0
LINE
  5
35B
330
1F
100
AcDbEntity
  8
0
  6
Continuous
 62
     7
370
    15
100
AcDbLine
 10
182.96589162714
 20
76.80024414876729
 30
0.0
 11
182.9658916271272
 21
64.80466968933374
 31
0.0
  0
LINE
  5
35C
330
1F
100
AcDbEntity
  8
0
  6
Continuous
 62
     7
370
    15
100
AcDbLine
 10
183.4324022806358
 20
76.80024414876678
 30
0.0
 11
183.432402280623
 21
64.80466968933322
 31
0.0
  0
LINE
  5
35D
330
1F
100
AcDbEntity
  8
0
  6
Continuous
 62
     7
370
    15
100
AcDbLine
 10
182.9658916271272
 20
64.80466968933374
 30
0.0
 11
183.432402280623
 21
64.80466968933322
 31
0.0
  0
LINE
  5
35E
330
1F
100
AcDbEntity
  8
0
  6
Continuous
 62
     7
370
    15
100
AcDbLine
 10
183.4324022806358
 20
76.80024414876678
 30
0.0
 11
182.96589162714
 21
76.80024414876729
 31
0.0
  0
LINE
  5
35F
330
1F
100
AcDbEntity
  8
0
  6
Continuous
 62
     7
370
    15
100
AcDbLine
 10
132.5926950252595
 20
64.80466968938745
 30
0.0
 11
132.5926950252723
 21
76.80024414882101
 31
0.0
  0
LINE
  5
360
330
1F
100
AcDbEntity
  8
0
  6
Continuous
 62
     7
370
    15
100
AcDbLine
 10
133.059201953465
 20
64.80466968938697
 30
0.0
 11
133.0592019534778
 21
76.80024414882052
 31
0.0
  0
LINE
  5
361
330
1F
100
AcDbEntity
  8
0
  6
Continuous
 62
     7
370
    15
100
AcDbLine
 10
132.5926950252595
 20
64.80466968938745
 30
0.0
 11
133.059201953465
 21
64.80466968938697
 31
0.0
  0
LINE
  5
362
330
1F
100
AcDbEntity
  8
0
  6
Continuous
 62
     7
370
    15
100
AcDbLine
 10
133.0592019534778
 20
76.80024414882052
 30
0.0
 11
132.5926950252723
 21
76.80024414882101
 31
0.0
  0
LINE
  5
363
330
1F
100
AcDbEntity
  8
0
  6
Continuous
 62
     7
370
    15
100
AcDbLine
 10
154.4625630653444
 20
64.80466968936413
 30
0.0
 11
161.5625305152479
 21
64.80466968935655
 31
0.0
  0
LINE
  5
364
330
1F
100
AcDbEntity
  8
0
  6
Continuous
 62
     7
370
    15
100
AcDbLine
 10
154.4625630653572
 20
76.80024414879767
 30
0.0
 11
161.5625305152607
 21
76.80024414879011
 31
0.0
  0
LINE
  5
365
330
1F
100
AcDbEntity
  8
0
  6
Continuous
 62
     7
370
    15
100
AcDbLine
 10
183.4455600059699
 20
76.80024414876678
 30
0.0
 11
183.4455600059572
 21
64.80466968933322
 31
0.0
  0
LINE
  5
366
330
1F
100
AcDbEntity
  8
0
  6
Continuous
 62
     7
370
    15
100
AcDbLine
 10
183.432402280623
 20
64.80466968933322
 30
0.0
 11
183.4455600059572
 21
64.80466968933322
 31
0.0
  0
LINE
  5
367
330
1F
100
AcDbEntity
  8
0
  6
Continuous
 62
     7
370
    15
100
AcDbLine
 10
183.4455600059699
 20
76.80024414876678
 30
0.0
 11
183.4324022806358
 21
76.80024414876678
 31
0.0
  0
LINE
  5
368
330
1F
100
AcDbEntity
  8
0
  6
Continuous
 62
     7
370
    15
100
AcDbLine
 10
132.5795354372802
 20
64.80466968938748
 30
0.0
 11
132.579535437293
 21
76.80024414882104
 31
0.0
  0
LINE
  5
369
330
1F
100
AcDbEntity
  8
0
  6
Continuous
 62
     7
370
    15
100
AcDbLine
 10
132.5795354372802
 20
64.80466968938748
 30
0.0
 11
132.5926950252595
 21
64.80466968938745
 31
0.0
  0
LINE
  5
36A
330
1F
100
AcDbEntity
  8
0
  6
Continuous
 62
     7
370
    15
100
AcDbLine
 10
132.5926950252723
 20
76.80024414882101
 30
0.0
 11
132.579535437293
 21
76.80024414882104
 31
0.0
  0
LINE
  5
36B
330
1F
100
AcDbEntity
  8
0
  6
Continuous
 62
     7
370
    15
100
AcDbLine
 10
183.5125481761169
 20
76.80024414876671
 30
0.0
 11
183.5125481761041
 21
64.80466968933315
 31
0.0
  0
LINE
  5
36C
330
1F
100
AcDbEntity
  8
0
  6
Continuous
 62
     7
370
    15
100
AcDbLine
 10
183.5125481761041
 20
64.80466968933315
 30
0.0
 11
183.4455600059572
 21
64.80466968933322
 31
0.0
  0
LINE
  5
36D
330
1F
100
AcDbEntity
  8
0
  6
Continuous
 62
     7
370
    15
100
AcDbLine
 10
183.5125481761169
 20
76.80024414876671
 30
0.0
 11
183.4455600059699
 21
76.80024414876678
 31
0.0
  0
LINE
  5
36E
330
1F
100
AcDbEntity
  8
0
  6
Continuous
 62
     7
370
    15
100
AcDbLine
 10
132.5125491297784
 20
64.80466968938756
 30
0.0
 11
132.5125491297912
 21
76.80024414882112
 31
0.0
  0
LINE
  5
36F
330
1F
100
AcDbEntity
  8
0
  6
Continuous
 62
     7
370
    15
100
AcDbLine
 10
132.5795354372802
 20
64.80466968938748
 30
0.0
 11
132.5125491297784
 21
64.80466968938756
 31
0.0
  0
LINE
  5
370
330
1F
100
AcDbEntity
  8
0
  6
Continuous
 62
     7
370
    15
100
AcDbLine
 10
132.579535437293
 20
76.80024414882104
 30
0.0
 11
132.5125491297912
 21
76.80024414882112
 31
0.0
  0
LINE
  5
371
330
1F
100
AcDbEntity
  8
0
  6
Continuous
 62
     7
370
    15
100
AcDbLine
 10
133.6733868396821
 20
64.80466968938633
 30
0.0
 11
133.6733868396949
 21
76.80024414881988
 31
0.0
  0
LINE
  5
372
330
1F
100
AcDbEntity
  8
0
  6
Continuous
 62
     7
370
    15
100
AcDbLine
 10
134.170340565497
 20
64.80466968938578
 30
0.0
 11
133.6733868396821
 21
64.80466968938633
 31
0.0
  0
LINE
  5
373
330
1F
100
AcDbEntity
  8
0
  6
Continuous
 62
     7
370
    15
100
AcDbLine
 10
133.6733868396949
 20
76.80024414881988
 30
0.0
 11
134.1703405655098
 21
76.80024414881933
 31
0.0
  0
LINE
  5
374
330
1F
100
AcDbEntity
  8
0
  6
Continuous
 62
     7
370
    15
100
AcDbLine
 10
182.3517030156326
 20
76.80024414876796
 30
0.0
 11
182.3517030156198
 21
64.8046696893344
 31
0.0
  0
LINE
  5
375
330
1F
100
AcDbEntity
  8
0
  6
Continuous
 62
     7
370
    15
100
AcDbLine
 10
182.3517030156198
 20
64.8046696893344
 30
0.0
 11
181.8547567403856
 21
64.8046696893349
 31
0.0
  0
LINE
  5
376
330
1F
100
AcDbEntity
  8
0
  6
Continuous
 62
     7
370
    15
100
AcDbLine
 10
181.8547567403983
 20
76.80024414876846
 30
0.0
 11
182.3517030156326
 21
76.80024414876796
 31
0.0
  0
LINE
  5
377
330
1F
100
AcDbEntity
  8
0
  6
Continuous
 62
     7
370
    15
100
AcDbLine
 10
182.5327744758796
 20
76.80024414876776
 30
0.0
 11
182.5327744758668
 21
64.8046696893342
 31
0.0
  0
LINE
  5
378
330
1F
100
AcDbEntity
  8
0
  6
Continuous
 62
     7
370
    15
100
AcDbLine
 10
182.9658916271272
 20
64.80466968933374
 30
0.0
 11
182.5327744758668
 21
64.8046696893342
 31
0.0
  0
LINE
  5
379
330
1F
100
AcDbEntity
  8
0
  6
Continuous
 62
     7
370
    15
100
AcDbLine
 10
182.5327744758796
 20
76.80024414876776
 30
0.0
 11
182.96589162714
 21
76.80024414876729
 31
0.0
  0
LINE
  5
37A
330
1F
100
AcDbEntity
  8
0
  6
Continuous
 62
     7
370
    15
100
AcDbLine
 10
133.4923209673706
 20
64.80466968938651
 30
0.0
 11
133.4923209673833
 21
76.80024414882007
 31
0.0
  0
LINE
  5
37B
330
1F
100
AcDbEntity
  8
0
  6
Continuous
 62
     7
370
    15
100
AcDbLine
 10
133.4923209673706
 20
64.80466968938651
 30
0.0
 11
133.059201953465
 21
64.80466968938697
 31
0.0
  0
LINE
  5
37C
330
1F
100
AcDbEntity
  8
0
  6
Continuous
 62
     7
370
    15
100
AcDbLine
 10
133.0592019534778
 20
76.80024414882052
 30
0.0
 11
133.4923209673833
 21
76.80024414882007
 31
0.0
  0
LINE
  5
37D
330
1F
100
AcDbEntity
  8
0
  6
Continuous
 62
     7
370
    15
100
AcDbLine
 10
182.5327744758668
 20
64.8046696893342
 30
0.0
 11
182.3517030156198
 21
64.8046696893344
 31
0.0
  0
LINE
  5
37E
330
1F
100
AcDbEntity
  8
0
  6
Continuous
 62
     7
370
    15
100
AcDbLine
 10
182.3517030156326
 20
76.80024414876796
 30
0.0
 11
182.5327744758796
 21
76.80024414876776
 31
0.0
  0
LINE
  5
37F
330
1F
100
AcDbEntity
  8
0
  6
Continuous
 62
     7
370
    15
100
AcDbLine
 10
133.6733868396821
 20
64.80466968938633
 30
0.0
 11
133.4923209673706
 21
64.80466968938651
 31
0.0
  0
LINE
  5
380
330
1F
100
AcDbEntity
  8
0
  6
Continuous
 62
     7
370
    15
100
AcDbLine
 10
133.4923209673833
 20
76.80024414882007
 30
0.0
 11
133.6733868396949
 21
76.80024414881988
 31
0.0
  0
SPLINE
  5
381
330
1F
100
AcDbEntity
  8
0
  6
Continuous
 62
     7
370
    15
100
AcDbSpline
210
0.0
220
0.0
230
1.0
 70
    24
 71
     3
 72
    10
 73
     6
 74
     0
 42
0.0000000001
 43
0.0000000001
 40
0.0
 40
0.0
 40
0.0
 40
0.0
 40
0.2618928695054463
 40
0.5237947734537613
 40
1.0
 40
1.0
 40
1.0
 40
1.0
 10
132.5125491297794
 20
65.76846561953546
 30
0.0
 10
132.5125491297795
 20
65.79909937229823
 30
0.0
 10
132.5125491297795
 20
65.86036793458752
 30
0.0
 10
132.5125491297796
 20
65.94076511262922
 30
0.0
 10
132.5125491297796
 20
65.95441299325623
 30
0.0
 10
132.5125491297796
 20
65.96321820840366
 30
0.0
  0
SPLINE
  5
382
330
1F
100
AcDbEntity
  8
0
  6
Continuous
 62
     7
370
    15
100
AcDbSpline
210
0.0
220
0.0
230
1.0
 70
    24
 71
     3
 72
    10
 73
     6
 74
     0
 42
0.0000000001
 43
0.0000000001
 40
0.0
 40
0.0
 40
0.0
 40
0.0
 40
0.2603426479287372
 40
0.5206961252734118
 40
1.0
 40
1.0
 40
1.0
 40
1.0
 10
183.5125481761159
 20
75.83644821862026
 30
0.0
 10
183.5125481761158
 20
75.8059837277593
 30
0.0
 10
183.5125481761158
 20
75.74505347881262
 30
0.0
 10
183.5125481761157
 20
75.66436114435946
 30
0.0
 10
183.5125481761157
 20
75.65060899504572
 30
0.0
 10
183.5125481761157
 20
75.64169749239733
 30
0.0
  0
LINE
  5
383
330
1F
100
AcDbEntity
  8
0
  6
Continuous
 62
     7
370
    15
100
AcDbLine
 10
132.5075143999528
 20
76.8002441488222
 30
0.0
 11
132.5075143999518
 21
75.86249172315158
 31
0.0
  0
LINE
  5
384
330
1F
100
AcDbEntity
  8
0
  6
Continuous
 62
     7
370
    15
100
AcDbLine
 10
132.5075143999516
 20
75.61565398797549
 30
0.0
 11
132.5075143999413
 21
65.9892617128805
 31
0.0
  0
LINE
  5
385
330
1F
100
AcDbEntity
  8
0
  6
Continuous
 62
     7
370
    15
100
AcDbLine
 10
132.5075143999411
 20
65.74242211505927
 30
0.0
 11
132.5075143999401
 21
64.80466968938864
 31
0.0
  0
LINE
  5
386
330
1F
100
AcDbEntity
  8
0
  6
Continuous
 62
     7
370
    15
100
AcDbLine
 10
132.5125491297784
 20
64.80466968938864
 30
0.0
 11
132.5075143999401
 21
64.80466968938864
 31
0.0
  0
LINE
  5
387
330
1F
100
AcDbEntity
  8
0
  6
Continuous
 62
     7
370
    15
100
AcDbLine
 10
132.5125491297912
 20
76.8002441488222
 30
0.0
 11
132.5075143999528
 21
76.8002441488222
 31
0.0
  0
LINE
  5
388
330
1F
100
AcDbEntity
  8
0
  6
Continuous
 62
     7
370
    15
100
AcDbLine
 10
131.9156272388044
 20
64.80466968938944
 30
0.0
 11
131.9156272388172
 21
76.800244148823
 31
0.0
  0
LINE
  5
389
330
1F
100
AcDbEntity
  8
0
  6
Continuous
 62
     7
370
    15
100
AcDbLine
 10
132.5075143999401
 20
64.80466968938867
 30
0.0
 11
131.9156272388044
 21
64.80466968938944
 31
0.0
  0
LINE
  5
38A
330
1F
100
AcDbEntity
  8
0
  6
Continuous
 62
     7
370
    15
100
AcDbLine
 10
131.9156272388172
 20
76.800244148823
 30
0.0
 11
132.5075143999528
 21
76.80024414882223
 31
0.0
  0
LINE
  5
38B
330
1F
100
AcDbEntity
  8
0
  6
Continuous
 62
     7
370
    15
100
AcDbLine
 10
130.6626295722198
 20
76.80024414882447
 30
0.0
 11
130.662629572207
 21
64.80466968939092
 31
0.0
  0
LINE
  5
38C
330
1F
100
AcDbEntity
  8
0
  6
Continuous
 62
     7
370
    15
100
AcDbLine
 10
130.662629572207
 20
64.80466968939092
 30
0.0
 11
131.9156272388044
 21
64.80466968938944
 31
0.0
  0
LINE
  5
38D
330
1F
100
AcDbEntity
  8
0
  6
Continuous
 62
     7
370
    15
100
AcDbLine
 10
130.6626295722198
 20
76.80024414882447
 30
0.0
 11
131.9156272388172
 21
76.800244148823
 31
0.0
  0
LINE
  5
38E
330
1F
100
AcDbEntity
  8
0
  6
Continuous
 62
     7
370
    15
100
AcDbLine
 10
130.3653812087121
 20
64.80466968939129
 30
0.0
 11
130.3653812087249
 21
76.80024414882485
 31
0.0
  0
LINE
  5
38F
330
1F
100
AcDbEntity
  8
0
  6
Continuous
 62
     7
370
    15
100
AcDbLine
 10
130.662629572207
 20
64.80466968939092
 30
0.0
 11
130.3653812087121
 21
64.80466968939129
 31
0.0
  0
LINE
  5
390
330
1F
100
AcDbEntity
  8
0
  6
Continuous
 62
     7
370
    15
100
AcDbLine
 10
130.6626295722198
 20
76.80024414882447
 30
0.0
 11
130.3653812087249
 21
76.80024414882485
 31
0.0
  0
LINE
  5
391
330
1F
100
AcDbEntity
  8
0
  6
Continuous
 62
     7
370
    15
100
AcDbLine
 10
183.5125481761133
 20
73.40235471347714
 30
0.0
 11
183.5125481761157
 21
75.64149260143185
 31
0.0
  0
LINE
  5
392
330
1F
100
AcDbEntity
  8
0
  6
Continuous
 62
     7
370
    15
100
AcDbLine
 10
183.5125481761159
 20
75.83636253694439
 30
0.0
 11
183.5125481761169
 21
76.80024414876843
 31
0.0
  0
ENDSEC
  0
SECTION
  2
OBJECTS
  0
DICTIONARY
  5
C
330
0
100
AcDbDictionary
281
     1
  3
ACAD_COLOR
350
701
  3
ACAD_GROUP
350
D
  3
ACAD_LAYOUT
350
1A
  3
ACAD_MATERIAL
350
6D7
  3
ACAD_MLEADERSTYLE
350
726
  3
ACAD_MLINESTYLE
350
17
  3
ACAD_PLOTSETTINGS
350
19
  3
ACAD_PLOTSTYLENAME
350
E
  3
ACAD_SCALELIST
350
704
  3
ACAD_TABLESTYLE
350
702
  3
ACAD_VISUALSTYLE
350
6F0
  3
ACDB_RECOMPOSE_DATA
350
746
  3
AcDbVariableDictionary
350
72F
  3
DWGPROPS
350
747
  0
DICTIONARY
  5
72D
330
10
100
AcDbDictionary
280
     1
281
     1
  3
ADSK_XREC_LAYER_RECONCILED
360
72E
  0
DICTIONARY
  5
701
102
{ACAD_REACTORS
330
C
102
}
330
C
100
AcDbDictionary
281
     1
  0
DICTIONARY
  5
D
102
{ACAD_REACTORS
330
C
102
}
330
C
100
AcDbDictionary
281
     1
  0
DICTIONARY
  5
1A
102
{ACAD_REACTORS
330
C
102
}
330
C
100
AcDbDictionary
281
     1
  3
Layout1
350
1E
  3
Layout2
350
26
  3
Model
350
22
  0
DICTIONARY
  5
6D7
102
{ACAD_REACTORS
330
C
102
}
330
C
100
AcDbDictionary
281
     1
  3
ByBlock
350
6E0
  3
ByLayer
350
6D8
  3
Global
350
6E8
  0
DICTIONARY
  5
726
102
{ACAD_REACTORS
330
C
102
}
330
C
100
AcDbDictionary
281
     1
  3
Standard
350
727
  0
DICTIONARY
  5
17
102
{ACAD_REACTORS
330
C
102
}
330
C
100
AcDbDictionary
281
     1
  3
Standard
350
18
  0
DICTIONARY
  5
19
102
{ACAD_REACTORS
330
C
102
}
330
C
100
AcDbDictionary
281
     1
  0
ACDBDICTIONARYWDFLT
  5
E
102
{ACAD_REACTORS
330
C
102
}
330
C
100
AcDbDictionary
281
     1
  3
Normal
350
F
100
AcDbDictionaryWithDefault
340
F
  0
DICTIONARY
  5
704
102
{ACAD_REACTORS
330
C
102
}
330
C
100
AcDbDictionary
281
     1
  3
A0
350
705
  3
A1
350
706
  3
A2
350
707
  3
A3
350
708
  3
A4
350
709
  3
A5
350
70A
  3
A6
350
70B
  3
A7
350
70C
  3
A8
350
70D
  3
A9
350
70E
  3
B0
350
70F
  3
B1
350
710
  3
B2
350
711
  3
B3
350
712
  3
B4
350
713
  3
B5
350
714
  3
B6
350
715
  3
B7
350
716
  3
B8
350
717
  3
B9
350
718
  3
C0
350
719
  3
C1
350
71A
  3
C2
350
71B
  3
C3
350
71C
  3
C4
350
71D
  3
C5
350
71E
  3
C6
350
71F
  3
C7
350
720
  3
C8
350
721
  3
C9
350
722
  3
D0
350
723
  3
D1
350
724
  3
D2
350
725
  0
DICTIONARY
  5
702
102
{ACAD_REACTORS
330
C
102
}
330
C
100
AcDbDictionary
281
     1
  3
Standard
350
703
  0
DICTIONARY
  5
6F0
102
{ACAD_REACTORS
330
C
102
}
330
C
100
AcDbDictionary
281
     1
  3
2dWireframe
350
6F6
  3
3D Hidden
350
6F8
  3
3dWireframe
350
6F7
  3
Basic
350
6F5
  3
Brighten
350
6FC
  3
ColorChange
350
700
  3
Conceptual
350
6F9
  3
Dim
350
6FB
  3
Facepattern
350
6FF
  3
Flat
350
6F1
  3
FlatWithEdges
350
6F2
  3
Gouraud
350
6F3
  3
GouraudWithEdges
350
6F4
  3
Linepattern
350
6FE
  3
Realistic
350
6FA
  3
Thicken
350
6FD
  0
XRECORD
  5
746
102
{ACAD_REACTORS
330
C
102
}
330
C
100
AcDbXrecord
280
     1
 90
        1
330
703
  0
DICTIONARY
  5
72F
102
{ACAD_REACTORS
330
C
102
}
330
C
100
AcDbDictionary
281
     1
  3
CANNOSCALE
350
732
  3
CMLEADERSTYLE
350
731
  3
CTABLESTYLE
350
730
  3
DIMASSOC
350
735
  3
INDEXCTL
350
734
  3
SORTENTS
350
733
  0
XRECORD
  5
747
102
{ACAD_REACTORS
330
C
102
}
330
C
100
AcDbXrecord
280
     1
  1
DWGPROPS COOKIE
  2

  3

  4

  6

  7

  8
musa.degirmenci
  9

300
=
301
=
302
=
303
=
304
=
305
=
306
=
307
=
308
=
309
=
 40
0.0018775810185185
 41
2459747.698492281
 42
2459747.702078993
  1

 90
        0
  0
XRECORD
  5
72E
102
{ACAD_REACTORS
330
72D
102
}
330
72D
100
AcDbXrecord
280
     1
290
     1
  0
LAYOUT
  5
1E
102
{ACAD_XDICTIONARY
360
748
102
}
102
{ACAD_REACTORS
330
1A
102
}
330
1A
100
AcDbPlotSettings
  1

  2
none_device
  4

  6

 40
0.0
 41
0.0
 42
0.0
 43
0.0
 44
0.0
 45
0.0
 46
0.0
 47
0.0
 48
0.0
 49
0.0
140
0.0
141
0.0
142
1.0
143
1.0
 70
   688
 72
     0
 73
     0
 74
     5
  7

 75
    16
147
1.0
148
0.0
149
0.0
100
AcDbLayout
  1
Layout1
 70
     1
 71
     1
 10
0.0
 20
0.0
 11
420.0
 21
297.0
 12
0.0
 22
0.0
 32
0.0
 14
1.000000000000000E+20
 24
1.000000000000000E+20
 34
1.000000000000000E+20
 15
-1.000000000000000E+20
 25
-1.000000000000000E+20
 35
-1.000000000000000E+20
146
0.0
 13
0.0
 23
0.0
 33
0.0
 16
1.0
 26
0.0
 36
0.0
 17
0.0
 27
1.0
 37
0.0
 76
     0
330
1B
  0
LAYOUT
  5
26
102
{ACAD_XDICTIONARY
360
74C
102
}
102
{ACAD_REACTORS
330
1A
102
}
330
1A
100
AcDbPlotSettings
  1

  2
none_device
  4

  6

 40
0.0
 41
0.0
 42
0.0
 43
0.0
 44
0.0
 45
0.0
 46
0.0
 47
0.0
 48
0.0
 49
0.0
140
0.0
141
0.0
142
1.0
143
1.0
 70
   688
 72
     0
 73
     0
 74
     5
  7

 75
    16
147
1.0
148
0.0
149
0.0
100
AcDbLayout
  1
Layout2
 70
     1
 71
     2
 10
0.0
 20
0.0
 11
0.0
 21
0.0
 12
0.0
 22
0.0
 32
0.0
 14
0.0
 24
0.0
 34
0.0
 15
0.0
 25
0.0
 35
0.0
146
0.0
 13
0.0
 23
0.0
 33
0.0
 16
1.0
 26
0.0
 36
0.0
 17
0.0
 27
1.0
 37
0.0
 76
     0
330
23
  0
LAYOUT
  5
22
102
{ACAD_XDICTIONARY
360
74A
102
}
102
{ACAD_REACTORS
330
1A
102
}
330
1A
100
AcDbPlotSettings
  1

  2
none_device
  4

  6

 40
0.0
 41
0.0
 42
0.0
 43
0.0
 44
0.0
 45
0.0
 46
0.0
 47
0.0
 48
0.0
 49
0.0
140
0.0
141
0.0
142
1.0
143
1.0
 70
  1712
 72
     0
 73
     0
 74
     0
  7

 75
     0
147
1.0
148
0.0
149
0.0
100
AcDbLayout
  1
Model
 70
     1
 71
     0
 10
0.0
 20
0.0
 11
431.7999999999999
 21
279.4
 12
0.0
 22
0.0
 32
0.0
 14
0.0
 24
0.0
 34
0.0
 15
431.7999999999999
 25
279.4
 35
0.0
146
0.0
 13
0.0
 23
0.0
 33
0.0
 16
1.0
 26
0.0
 36
0.0
 17
0.0
 27
1.0
 37
0.0
 76
     0
330
1F
331
29
  0
MATERIAL
  5
6E0
102
{ACAD_XDICTIONARY
360
6E1
102
}
102
{ACAD_REACTORS
330
6D7
102
}
330
6D7
100
AcDbMaterial
  1
ByBlock
 72
     0
 43
0.0008202099737533
 43
0.0
 43
0.0
 43
0.0
 43
0.0
 43
0.0008202099737533
 43
0.0
 43
0.0
 43
0.0
 43
0.0
 43
1.0
 43
0.0
 43
0.0
 43
0.0
 43
0.0
 43
1.0
 77
     0
 47
0.0008202099737533
 47
0.0
 47
0.0
 47
0.0
 47
0.0
 47
0.0008202099737533
 47
0.0
 47
0.0
 47
0.0
 47
0.0
 47
1.0
 47
0.0
 47
0.0
 47
0.0
 47
0.0
 47
1.0
171
     0
 49
0.0008202099737533
 49
0.0
 49
0.0
 49
0.0
 49
0.0
 49
0.0008202099737533
 49
0.0
 49
0.0
 49
0.0
 49
0.0
 49
1.0
 49
0.0
 49
0.0
 49
0.0
 49
0.0
 49
1.0
175
     0
142
0.0008202099737533
142
0.0
142
0.0
142
0.0
142
0.0
142
0.0008202099737533
142
0.0
142
0.0
142
0.0
142
0.0
142
1.0
142
0.0
142
0.0
142
0.0
142
0.0
142
1.0
179
     0
144
0.0008202099737533
144
0.0
144
0.0
144
0.0
144
0.0
144
0.0008202099737533
144
0.0
144
0.0
144
0.0
144
0.0
144
1.0
144
0.0
144
0.0
144
0.0
144
0.0
144
1.0
147
0.0008202099737533
147
0.0
147
0.0
147
0.0
147
0.0
147
0.0008202099737533
147
0.0
147
0.0
147
0.0
147
0.0
147
1.0
147
0.0
147
0.0
147
0.0
147
0.0
147
1.0
  0
MATERIAL
  5
6D8
102
{ACAD_XDICTIONARY
360
6D9
102
}
102
{ACAD_REACTORS
330
6D7
102
}
330
6D7
100
AcDbMaterial
  1
ByLayer
 72
     0
 43
0.0008202099737533
 43
0.0
 43
0.0
 43
0.0
 43
0.0
 43
0.0008202099737533
 43
0.0
 43
0.0
 43
0.0
 43
0.0
 43
1.0
 43
0.0
 43
0.0
 43
0.0
 43
0.0
 43
1.0
 77
     0
 47
0.0008202099737533
 47
0.0
 47
0.0
 47
0.0
 47
0.0
 47
0.0008202099737533
 47
0.0
 47
0.0
 47
0.0
 47
0.0
 47
1.0
 47
0.0
 47
0.0
 47
0.0
 47
0.0
 47
1.0
171
     0
 49
0.0008202099737533
 49
0.0
 49
0.0
 49
0.0
 49
0.0
 49
0.0008202099737533
 49
0.0
 49
0.0
 49
0.0
 49
0.0
 49
1.0
 49
0.0
 49
0.0
 49
0.0
 49
0.0
 49
1.0
175
     0
142
0.0008202099737533
142
0.0
142
0.0
142
0.0
142
0.0
142
0.0008202099737533
142
0.0
142
0.0
142
0.0
142
0.0
142
1.0
142
0.0
142
0.0
142
0.0
142
0.0
142
1.0
179
     0
144
0.0008202099737533
144
0.0
144
0.0
144
0.0
144
0.0
144
0.0008202099737533
144
0.0
144
0.0
144
0.0
144
0.0
144
1.0
144
0.0
144
0.0
144
0.0
144
0.0
144
1.0
147
0.0008202099737533
147
0.0
147
0.0
147
0.0
147
0.0
147
0.0008202099737533
147
0.0
147
0.0
147
0.0
147
0.0
147
1.0
147
0.0
147
0.0
147
0.0
147
0.0
147
1.0
  0
MATERIAL
  5
6E8
102
{ACAD_XDICTIONARY
360
6E9
102
}
102
{ACAD_REACTORS
330
6D7
102
}
330
6D7
100
AcDbMaterial
  1
Global
 72
     0
 43
0.0008202099737533
 43
0.0
 43
0.0
 43
0.0
 43
0.0
 43
0.0008202099737533
 43
0.0
 43
0.0
 43
0.0
 43
0.0
 43
1.0
 43
0.0
 43
0.0
 43
0.0
 43
0.0
 43
1.0
 77
     0
 47
0.0008202099737533
 47
0.0
 47
0.0
 47
0.0
 47
0.0
 47
0.0008202099737533
 47
0.0
 47
0.0
 47
0.0
 47
0.0
 47
1.0
 47
0.0
 47
0.0
 47
0.0
 47
0.0
 47
1.0
171
     0
 49
0.0008202099737533
 49
0.0
 49
0.0
 49
0.0
 49
0.0
 49
0.0008202099737533
 49
0.0
 49
0.0
 49
0.0
 49
0.0
 49
1.0
 49
0.0
 49
0.0
 49
0.0
 49
0.0
 49
1.0
175
     0
142
0.0008202099737533
142
0.0
142
0.0
142
0.0
142
0.0
142
0.0008202099737533
142
0.0
142
0.0
142
0.0
142
0.0
142
1.0
142
0.0
142
0.0
142
0.0
142
0.0
142
1.0
179
     0
144
0.0008202099737533
144
0.0
144
0.0
144
0.0
144
0.0
144
0.0008202099737533
144
0.0
144
0.0
144
0.0
144
0.0
144
1.0
144
0.0
144
0.0
144
0.0
144
0.0
144
1.0
147
0.0008202099737533
147
0.0
147
0.0
147
0.0
147
0.0
147
0.0008202099737533
147
0.0
147
0.0
147
0.0
147
0.0
147
1.0
147
0.0
147
0.0
147
0.0
147
0.0
147
1.0
  0
MLEADERSTYLE
  5
727
102
{ACAD_REACTORS
330
726
102
}
330
726
100
AcDbMLeaderStyle
170
     2
171
     1
172
     0
 90
        2
 40
0.0
 41
0.0
173
     1
 91
-1056964608
340
14
 92
       -2
290
     1
 42
2.0
291
     1
 43
0.36
  3
Standard
 44
4.0
300

342
11
174
     1
178
     6
175
     1
176
     0
 93
-1056964608
 45
4.0
292
     0
297
     0
 46
4.0
 94
-1056964608
 47
1.0
 49
1.0
140
1.0
293
     1
141
0.0
294
     1
177
     0
142
1.0
295
     0
296
     0
143
0.125
1001
ACAD_MLEADERVER
1070
     2
  0
MLINESTYLE
  5
18
102
{ACAD_REACTORS
330
17
102
}
330
17
100
AcDbMlineStyle
  2
STANDARD
 70
     0
  3

 62
   256
 51
90.0
 52
90.0
 71
     2
 49
0.5
 62
   256
  6
BYLAYER
 49
-0.5
 62
   256
  6
BYLAYER
  0
ACDBPLACEHOLDER
  5
F
102
{ACAD_REACTORS
330
E
102
}
330
E
  0
SCALE
  5
705
102
{ACAD_REACTORS
330
704
102
}
330
704
100
AcDbScale
 70
     0
300
1:1
140
1.0
141
1.0
290
     1
  0
SCALE
  5
706
102
{ACAD_REACTORS
330
704
102
}
330
704
100
AcDbScale
 70
     0
300
1:2
140
1.0
141
2.0
290
     0
  0
SCALE
  5
707
102
{ACAD_REACTORS
330
704
102
}
330
704
100
AcDbScale
 70
     0
300
1:4
140
1.0
141
4.0
290
     0
  0
SCALE
  5
708
102
{ACAD_REACTORS
330
704
102
}
330
704
100
AcDbScale
 70
     0
300
1:5
140
1.0
141
5.0
290
     0
  0
SCALE
  5
709
102
{ACAD_REACTORS
330
704
102
}
330
704
100
AcDbScale
 70
     0
300
1:8
140
1.0
141
8.0
290
     0
  0
SCALE
  5
70A
102
{ACAD_REACTORS
330
704
102
}
330
704
100
AcDbScale
 70
     0
300
1:10
140
1.0
141
10.0
290
     0
  0
SCALE
  5
70B
102
{ACAD_REACTORS
330
704
102
}
330
704
100
AcDbScale
 70
     0
300
1:16
140
1.0
141
16.0
290
     0
  0
SCALE
  5
70C
102
{ACAD_REACTORS
330
704
102
}
330
704
100
AcDbScale
 70
     0
300
1:20
140
1.0
141
20.0
290
     0
  0
SCALE
  5
70D
102
{ACAD_REACTORS
330
704
102
}
330
704
100
AcDbScale
 70
     0
300
1:30
140
1.0
141
30.0
290
     0
  0
SCALE
  5
70E
102
{ACAD_REACTORS
330
704
102
}
330
704
100
AcDbScale
 70
     0
300
1:40
140
1.0
141
40.0
290
     0
  0
SCALE
  5
70F
102
{ACAD_REACTORS
330
704
102
}
330
704
100
AcDbScale
 70
     0
300
1:50
140
1.0
141
50.0
290
     0
  0
SCALE
  5
710
102
{ACAD_REACTORS
330
704
102
}
330
704
100
AcDbScale
 70
     0
300
1:100
140
1.0
141
100.0
290
     0
  0
SCALE
  5
711
102
{ACAD_REACTORS
330
704
102
}
330
704
100
AcDbScale
 70
     0
300
2:1
140
2.0
141
1.0
290
     0
  0
SCALE
  5
712
102
{ACAD_REACTORS
330
704
102
}
330
704
100
AcDbScale
 70
     0
300
4:1
140
4.0
141
1.0
290
     0
  0
SCALE
  5
713
102
{ACAD_REACTORS
330
704
102
}
330
704
100
AcDbScale
 70
     0
300
8:1
140
8.0
141
1.0
290
     0
  0
SCALE
  5
714
102
{ACAD_REACTORS
330
704
102
}
330
704
100
AcDbScale
 70
     0
300
10:1
140
10.0
141
1.0
290
     0
  0
SCALE
  5
715
102
{ACAD_REACTORS
330
704
102
}
330
704
100
AcDbScale
 70
     0
300
100:1
140
100.0
141
1.0
290
     0
  0
SCALE
  5
716
102
{ACAD_REACTORS
330
704
102
}
330
704
100
AcDbScale
 70
     0
300
1/128" = 1'-0"
140
0.0078125
141
12.0
290
     0
  0
SCALE
  5
717
102
{ACAD_REACTORS
330
704
102
}
330
704
100
AcDbScale
 70
     0
300
1/64" = 1'-0"
140
0.015625
141
12.0
290
     0
  0
SCALE
  5
718
102
{ACAD_REACTORS
330
704
102
}
330
704
100
AcDbScale
 70
     0
300
1/32" = 1'-0"
140
0.03125
141
12.0
290
     0
  0
SCALE
  5
719
102
{ACAD_REACTORS
330
704
102
}
330
704
100
AcDbScale
 70
     0
300
1/16" = 1'-0"
140
0.0625
141
12.0
290
     0
  0
SCALE
  5
71A
102
{ACAD_REACTORS
330
704
102
}
330
704
100
AcDbScale
 70
     0
300
3/32" = 1'-0"
140
0.09375
141
12.0
290
     0
  0
SCALE
  5
71B
102
{ACAD_REACTORS
330
704
102
}
330
704
100
AcDbScale
 70
     0
300
1/8" = 1'-0"
140
0.125
141
12.0
290
     0
  0
SCALE
  5
71C
102
{ACAD_REACTORS
330
704
102
}
330
704
100
AcDbScale
 70
     0
300
3/16" = 1'-0"
140
0.1875
141
12.0
290
     0
  0
SCALE
  5
71D
102
{ACAD_REACTORS
330
704
102
}
330
704
100
AcDbScale
 70
     0
300
1/4" = 1'-0"
140
0.25
141
12.0
290
     0
  0
SCALE
  5
71E
102
{ACAD_REACTORS
330
704
102
}
330
704
100
AcDbScale
 70
     0
300
3/8" = 1'-0"
140
0.375
141
12.0
290
     0
  0
SCALE
  5
71F
102
{ACAD_REACTORS
330
704
102
}
330
704
100
AcDbScale
 70
     0
300
1/2" = 1'-0"
140
0.5
141
12.0
290
     0
  0
SCALE
  5
720
102
{ACAD_REACTORS
330
704
102
}
330
704
100
AcDbScale
 70
     0
300
3/4" = 1'-0"
140
0.75
141
12.0
290
     0
  0
SCALE
  5
721
102
{ACAD_REACTORS
330
704
102
}
330
704
100
AcDbScale
 70
     0
300
1" = 1'-0"
140
1.0
141
12.0
290
     0
  0
SCALE
  5
722
102
{ACAD_REACTORS
330
704
102
}
330
704
100
AcDbScale
 70
     0
300
1-1/2" = 1'-0"
140
1.5
141
12.0
290
     0
  0
SCALE
  5
723
102
{ACAD_REACTORS
330
704
102
}
330
704
100
AcDbScale
 70
     0
300
3" = 1'-0"
140
3.0
141
12.0
290
     0
  0
SCALE
  5
724
102
{ACAD_REACTORS
330
704
102
}
330
704
100
AcDbScale
 70
     0
300
6" = 1'-0"
140
6.0
141
12.0
290
     0
  0
SCALE
  5
725
102
{ACAD_REACTORS
330
704
102
}
330
704
100
AcDbScale
 70
     0
300
1'-0" = 1'-0"
140
12.0
141
12.0
290
     0
  0
TABLESTYLE
  5
703
102
{ACAD_XDICTIONARY
360
744
102
}
102
{ACAD_REACTORS
330
702
102
}
330
702
100
AcDbTableStyle
  3
Standard
 70
     0
 71
     0
 40
1.5
 41
1.5
280
     0
281
     0
  7
Standard
140
4.5
170
     2
 62
     0
 63
     7
283
     0
274
    -2
284
     1
 64
     0
275
    -2
285
     1
 65
     0
276
    -2
286
     1
 66
     0
277
    -2
287
     1
 67
     0
278
    -2
288
     1
 68
     0
279
    -2
289
     1
 69
     0
  7
Standard
140
6.0
170
     5
 62
     0
 63
     7
283
     0
274
    -2
284
     1
 64
     0
275
    -2
285
     1
 65
     0
276
    -2
286
     1
 66
     0
277
    -2
287
     1
 67
     0
278
    -2
288
     1
 68
     0
279
    -2
289
     1
 69
     0
  7
Standard
140
4.5
170
     5
 62
     0
 63
     7
283
     0
274
    -2
284
     1
 64
     0
275
    -2
285
     1
 65
     0
276
    -2
286
     1
 66
     0
277
    -2
287
     1
 67
     0
278
    -2
288
     1
 68
     0
279
    -2
289
     1
 69
     0
  0
VISUALSTYLE
  5
6F6
102
{ACAD_REACTORS
330
6F0
102
}
330
6F0
100
AcDbVisualStyle
  2
2dWireframe
 70
     4
 71
     0
 72
     2
 73
     0
 90
        0
 40
-0.6
 41
-30.0
 62
     5
 63
     7
 74
     1
 91
        4
 64
     7
 65
   257
 75
     1
175
     1
 42
1.0
 92
        0
 66
   257
 43
1.0
 76
     1
 77
     6
 78
     2
 67
     7
 79
     5
170
     0
171
     0
290
     0
174
     0
 93
        1
 44
0.0
173
     0
291
     0
 45
0.0
1001
ACAD
1000
AcDbSavedByObjectVersion
1070
     0
  0
VISUALSTYLE
  5
6F8
102
{ACAD_REACTORS
330
6F0
102
}
330
6F0
100
AcDbVisualStyle
  2
3D Hidden
 70
     6
 71
     1
 72
     2
 73
     2
 90
        0
 40
-0.6
 41
-30.0
 62
     5
 63
     7
 74
     2
 91
        2
 64
     7
 65
   257
 75
     2
175
     1
 42
40.0
 92
        0
 66
   257
 43
1.0
 76
     1
 77
     6
 78
     2
 67
     7
 79
     3
170
     0
171
     0
290
     0
174
     0
 93
        1
 44
0.0
173
     0
291
     0
 45
0.0
1001
ACAD
1000
AcDbSavedByObjectVersion
1070
     0
  0
VISUALSTYLE
  5
6F7
102
{ACAD_REACTORS
330
6F0
102
}
330
6F0
100
AcDbVisualStyle
  2
3dWireframe
 70
     5
 71
     0
 72
     2
 73
     0
 90
        0
 40
-0.6
 41
-30.0
 62
     5
 63
     7
 74
     1
 91
        4
 64
     7
 65
   257
 75
     1
175
     1
 42
1.0
 92
        0
 66
   257
 43
1.0
 76
     1
 77
     6
 78
     2
 67
     7
 79
     5
170
     0
171
     0
290
     0
174
     0
 93
        1
 44
0.0
173
     0
291
     0
 45
0.0
1001
ACAD
1000
AcDbSavedByObjectVersion
1070
     0
  0
VISUALSTYLE
  5
6F5
102
{ACAD_REACTORS
330
6F0
102
}
330
6F0
100
AcDbVisualStyle
  2
Basic
 70
     7
 71
     1
 72
     0
 73
     1
 90
        0
 40
-0.6
 41
-30.0
 62
     5
 63
     7
 74
     0
 91
        4
 64
     7
 65
   257
 75
     1
175
     1
 42
1.0
 92
        8
 66
     7
 43
1.0
 76
     1
 77
     6
 78
     2
 67
     7
 79
     5
170
     0
171
     0
290
     0
174
     0
 93
        1
 44
0.0
173
     0
291
     1
 45
0.0
1001
ACAD
1000
AcDbSavedByObjectVersion
1070
     0
  0
VISUALSTYLE
  5
6FC
102
{ACAD_REACTORS
330
6F0
102
}
330
6F0
100
AcDbVisualStyle
  2
Brighten
 70
    12
 71
     2
 72
     2
 73
     0
 90
        0
 40
-0.6
 41
-30.0
 62
     5
 63
     7
 74
     1
 91
        4
 64
     7
 65
   257
 75
     1
175
     1
 42
1.0
 92
        8
 66
     7
 43
1.0
 76
     1
 77
     6
 78
     2
 67
     7
 79
     5
170
     0
171
     0
290
     0
174
     0
 93
        1
 44
50.0
173
     0
291
     1
 45
0.0
1001
ACAD
1000
AcDbSavedByObjectVersion
1070
     0
  0
VISUALSTYLE
  5
700
102
{ACAD_REACTORS
330
6F0
102
}
330
6F0
100
AcDbVisualStyle
  2
ColorChange
 70
    16
 71
     2
 72
     2
 73
     3
 90
        0
 40
-0.6
 41
-30.0
 62
     5
 63
     8
 74
     1
 91
        4
 64
     7
 65
   257
 75
     1
175
     1
 42
1.0
 92
        8
 66
     8
 43
1.0
 76
     1
 77
     6
 78
     2
 67
     7
 79
     5
170
     0
171
     0
290
     0
174
     0
 93
        1
 44
0.0
173
     0
291
     1
 45
0.0
1001
ACAD
1000
AcDbSavedByObjectVersion
1070
     0
  0
VISUALSTYLE
  5
6F9
102
{ACAD_REACTORS
330
6F0
102
}
330
6F0
100
AcDbVisualStyle
  2
Conceptual
 70
     9
 71
     3
 72
     2
 73
     0
 90
        0
 40
-0.6
 41
-30.0
 62
     5
 63
     7
 74
     2
 91
        2
 64
     7
 65
   257
 75
     1
175
     1
 42
40.0
 92
        8
 66
     7
 43
1.0
 76
     1
 77
     6
 78
     2
 67
     7
 79
     3
170
     0
171
     0
290
     0
174
     0
 93
        1
 44
0.0
173
     0
291
     0
 45
0.0
1001
ACAD
1000
AcDbSavedByObjectVersion
1070
     0
  0
VISUALSTYLE
  5
6FB
102
{ACAD_REACTORS
330
6F0
102
}
330
6F0
100
AcDbVisualStyle
  2
Dim
 70
    11
 71
     2
 72
     2
 73
     0
 90
        0
 40
-0.6
 41
-30.0
 62
     5
 63
     7
 74
     1
 91
        4
 64
     7
 65
   257
 75
     1
175
     1
 42
1.0
 92
        8
 66
     7
 43
1.0
 76
     1
 77
     6
 78
     2
 67
     7
 79
     5
170
     0
171
     0
290
     0
174
     0
 93
        1
 44
-50.0
173
     0
291
     1
 45
0.0
1001
ACAD
1000
AcDbSavedByObjectVersion
1070
     0
  0
VISUALSTYLE
  5
6FF
102
{ACAD_REACTORS
330
6F0
102
}
330
6F0
100
AcDbVisualStyle
  2
Facepattern
 70
    15
 71
     2
 72
     2
 73
     0
 90
        0
 40
-0.6
 41
-30.0
 62
     5
 63
     7
 74
     1
 91
        4
 64
     7
 65
   257
 75
     1
175
     1
 42
1.0
 92
        8
 66
     7
 43
1.0
 76
     1
 77
     6
 78
     2
 67
     7
 79
     5
170
     0
171
     0
290
     0
174
     0
 93
        1
 44
0.0
173
     0
291
     1
 45
0.0
1001
ACAD
1000
AcDbSavedByObjectVersion
1070
     0
  0
VISUALSTYLE
  5
6F1
102
{ACAD_REACTORS
330
6F0
102
}
330
6F0
100
AcDbVisualStyle
  2
Flat
 70
     0
 71
     2
 72
     1
 73
     1
 90
        2
 40
-0.6
 41
30.0
 62
     5
 63
     7
 74
     0
 91
        4
 64
     7
 65
   257
 75
     1
175
     1
 42
1.0
 92
        8
 66
     7
 43
1.0
 76
     1
 77
     6
 78
     2
 67
     7
 79
     5
170
     0
171
     0
290
     0
174
     0
 93
       13
 44
0.0
173
     0
291
     1
 45
0.0
1001
ACAD
1000
AcDbSavedByObjectVersion
1070
     0
  0
VISUALSTYLE
  5
6F2
102
{ACAD_REACTORS
330
6F0
102
}
330
6F0
100
AcDbVisualStyle
  2
FlatWithEdges
 70
     1
 71
     2
 72
     1
 73
     1
 90
        2
 40
-0.6
 41
30.0
 62
     5
 63
     7
 74
     1
 91
        4
 64
     7
 65
   257
 75
     1
175
     1
 42
1.0
 92
        0
 66
   257
 43
1.0
 76
     1
 77
     6
 78
     2
 67
     7
 79
     5
170
     0
171
     0
290
     0
174
     0
 93
       13
 44
0.0
173
     0
291
     1
 45
0.0
1001
ACAD
1000
AcDbSavedByObjectVersion
1070
     0
  0
VISUALSTYLE
  5
6F3
102
{ACAD_REACTORS
330
6F0
102
}
330
6F0
100
AcDbVisualStyle
  2
Gouraud
 70
     2
 71
     2
 72
     2
 73
     1
 90
        2
 40
-0.6
 41
30.0
 62
     5
 63
     7
 74
     0
 91
        4
 64
     7
 65
   257
 75
     1
175
     1
 42
1.0
 92
        0
 66
     7
 43
1.0
 76
     1
 77
     6
 78
     2
 67
     7
 79
     5
170
     0
171
     0
290
     0
174
     0
 93
       13
 44
0.0
173
     0
291
     1
 45
0.0
1001
ACAD
1000
AcDbSavedByObjectVersion
1070
     0
  0
VISUALSTYLE
  5
6F4
102
{ACAD_REACTORS
330
6F0
102
}
330
6F0
100
AcDbVisualStyle
  2
GouraudWithEdges
 70
     3
 71
     2
 72
     2
 73
     1
 90
        2
 40
-0.6
 41
30.0
 62
     5
 63
     7
 74
     1
 91
        4
 64
     7
 65
   257
 75
     1
175
     1
 42
1.0
 92
        0
 66
   257
 43
1.0
 76
     1
 77
     6
 78
     2
 67
     7
 79
     5
170
     0
171
     0
290
     0
174
     0
 93
       13
 44
0.0
173
     0
291
     1
 45
0.0
1001
ACAD
1000
AcDbSavedByObjectVersion
1070
     0
  0
VISUALSTYLE
  5
6FE
102
{ACAD_REACTORS
330
6F0
102
}
330
6F0
100
AcDbVisualStyle
  2
Linepattern
 70
    14
 71
     2
 72
     2
 73
     0
 90
        0
 40
-0.6
 41
-30.0
 62
     5
 63
     7
 74
     1
 91
        4
 64
     7
 65
   257
 75
     7
175
     7
 42
1.0
 92
        8
 66
     7
 43
1.0
 76
     1
 77
     6
 78
     2
 67
     7
 79
     5
170
     0
171
     0
290
     0
174
     0
 93
        1
 44
0.0
173
     0
291
     1
 45
0.0
1001
ACAD
1000
AcDbSavedByObjectVersion
1070
     0
  0
VISUALSTYLE
  5
6FA
102
{ACAD_REACTORS
330
6F0
102
}
330
6F0
100
AcDbVisualStyle
  2
Realistic
 70
     8
 71
     2
 72
     2
 73
     0
 90
        0
 40
-0.6
 41
-30.0
 62
     5
 63
     7
 74
     1
 91
        0
 64
     7
 65
   257
 75
     1
175
     1
 42
1.0
 92
        8
 66
     8
 43
1.0
 76
     1
 77
     6
 78
     2
 67
     7
 79
     5
170
     0
171
     0
290
     0
174
     0
 93
       13
 44
0.0
173
     0
291
     0
 45
0.0
1001
ACAD
1000
AcDbSavedByObjectVersion
1070
     0
  0
VISUALSTYLE
  5
6FD
102
{ACAD_REACTORS
330
6F0
102
}
330
6F0
100
AcDbVisualStyle
  2
Thicken
 70
    13
 71
     2
 72
     2
 73
     0
 90
        0
 40
-0.6
 41
-30.0
 62
     5
 63
     7
 74
     1
 91
        4
 64
     7
 65
   257
 75
     1
175
     1
 42
1.0
 92
       12
 66
     7
 43
1.0
 76
     1
 77
     6
 78
     2
 67
     7
 79
     5
170
     0
171
     0
290
     0
174
     0
 93
        1
 44
0.0
173
     0
291
     1
 45
0.0
1001
ACAD
1000
AcDbSavedByObjectVersion
1070
     0
  0
DICTIONARYVAR
  5
732
102
{ACAD_REACTORS
330
72F
102
}
330
72F
100
DictionaryVariables
280
     0
  1
1:1
  0
DICTIONARYVAR
  5
731
102
{ACAD_REACTORS
330
72F
102
}
330
72F
100
DictionaryVariables
280
     0
  1
STANDARD
  0
DICTIONARYVAR
  5
730
102
{ACAD_REACTORS
330
72F
102
}
330
72F
100
DictionaryVariables
280
     0
  1
STANDARD
  0
DICTIONARYVAR
  5
735
102
{ACAD_REACTORS
330
72F
102
}
330
72F
100
DictionaryVariables
280
     0
  1
1
  0
DICTIONARYVAR
  5
734
102
{ACAD_REACTORS
330
72F
102
}
330
72F
100
DictionaryVariables
280
     0
  1
0
  0
DICTIONARYVAR
  5
733
102
{ACAD_REACTORS
330
72F
102
}
330
72F
100
DictionaryVariables
280
     0
  1
127
  0
DICTIONARY
  5
748
330
1E
100
AcDbDictionary
280
     1
281
     1
  3
ACAD_XREC_ROUNDTRIP
360
749
  0
DICTIONARY
  5
74C
330
26
100
AcDbDictionary
280
     1
281
     1
  3
ACAD_XREC_ROUNDTRIP
360
74D
  0
DICTIONARY
  5
74A
330
22
100
AcDbDictionary
280
     1
281
     1
  3
ACAD_XREC_ROUNDTRIP
360
74B
  0
DICTIONARY
  5
6E1
330
6E0
100
AcDbDictionary
280
     1
281
     1
  3
ACAD_XREC_ROUNDTRIP
360
74F
  3
BUMPTILE
360
6E3
  3
DIFFUSETILE
360
6E2
  3
OPACITYTILE
360
6E6
  3
REFLECTIONTILE
360
6E5
  3
REFRACTIONTILE
360
6E7
  3
SPECULARTILE
360
6E4
  0
DICTIONARY
  5
6D9
330
6D8
100
AcDbDictionary
280
     1
281
     1
  3
ACAD_XREC_ROUNDTRIP
360
74E
  3
BUMPTILE
360
6DB
  3
DIFFUSETILE
360
6DA
  3
OPACITYTILE
360
6DE
  3
REFLECTIONTILE
360
6DD
  3
REFRACTIONTILE
360
6DF
  3
SPECULARTILE
360
6DC
  0
DICTIONARY
  5
6E9
330
6E8
100
AcDbDictionary
280
     1
281
     1
  3
ACAD_XREC_ROUNDTRIP
360
750
  3
BUMPTILE
360
6EB
  3
DIFFUSETILE
360
6EA
  3
OPACITYTILE
360
6EE
  3
REFLECTIONTILE
360
6ED
  3
REFRACTIONTILE
360
6EF
  3
SPECULARTILE
360
6EC
  0
DICTIONARY
  5
744
330
703
100
AcDbDictionary
280
     1
281
     1
  3
ACAD_ROUNDTRIP_2008_TABLESTYLE_CELLSTYLEMAP
360
745
  3
ACAD_XREC_ROUNDTRIP
360
751
  0
XRECORD
  5
749
102
{ACAD_REACTORS
330
748
102
}
330
748
100
AcDbXrecord
280
     1
102
SHADEPLOT
 70
     0
102
SHADEPLOTRESLEVEL
 70
     2
102
SHADEPLOTCUSTOMDPI
 70
   300
  0
XRECORD
  5
74D
102
{ACAD_REACTORS
330
74C
102
}
330
74C
100
AcDbXrecord
280
     1
102
SHADEPLOT
 70
     0
102
SHADEPLOTRESLEVEL
 70
     2
102
SHADEPLOTCUSTOMDPI
 70
   300
  0
XRECORD
  5
74B
102
{ACAD_REACTORS
330
74A
102
}
330
74A
100
AcDbXrecord
280
     1
102
SHADEPLOT
 70
     0
102
SHADEPLOTRESLEVEL
 70
     2
102
SHADEPLOTCUSTOMDPI
 70
   300
  0
XRECORD
  5
74F
102
{ACAD_REACTORS
330
6E1
102
}
330
6E1
100
AcDbXrecord
280
     1
102
MATERIAL
148
0.0
149
0.0
149
0.0
 93
        0
 94
      127
282
     0
 72
     0
 77
     0
171
     0
175
     0
179
     0
273
     0
  0
XRECORD
  5
6E3
102
{ACAD_REACTORS
330
6E1
102
}
330
6E1
100
AcDbXrecord
280
     1
270
     1
271
     1
  0
XRECORD
  5
6E2
102
{ACAD_REACTORS
330
6E1
102
}
330
6E1
100
AcDbXrecord
280
     1
270
     1
271
     1
  0
XRECORD
  5
6E6
102
{ACAD_REACTORS
330
6E1
102
}
330
6E1
100
AcDbXrecord
280
     1
270
     1
271
     1
  0
XRECORD
  5
6E5
102
{ACAD_REACTORS
330
6E1
102
}
330
6E1
100
AcDbXrecord
280
     1
270
     1
271
     1
  0
XRECORD
  5
6E7
102
{ACAD_REACTORS
330
6E1
102
}
330
6E1
100
AcDbXrecord
280
     1
270
     1
271
     1
  0
XRECORD
  5
6E4
102
{ACAD_REACTORS
330
6E1
102
}
330
6E1
100
AcDbXrecord
280
     1
270
     1
271
     1
  0
XRECORD
  5
74E
102
{ACAD_REACTORS
330
6D9
102
}
330
6D9
100
AcDbXrecord
280
     1
102
MATERIAL
148
0.0
149
0.0
149
0.0
 93
        0
 94
      127
282
     0
 72
     0
 77
     0
171
     0
175
     0
179
     0
273
     0
  0
XRECORD
  5
6DB
102
{ACAD_REACTORS
330
6D9
102
}
330
6D9
100
AcDbXrecord
280
     1
270
     1
271
     1
  0
XRECORD
  5
6DA
102
{ACAD_REACTORS
330
6D9
102
}
330
6D9
100
AcDbXrecord
280
     1
270
     1
271
     1
  0
XRECORD
  5
6DE
102
{ACAD_REACTORS
330
6D9
102
}
330
6D9
100
AcDbXrecord
280
     1
270
     1
271
     1
  0
XRECORD
  5
6DD
102
{ACAD_REACTORS
330
6D9
102
}
330
6D9
100
AcDbXrecord
280
     1
270
     1
271
     1
  0
XRECORD
  5
6DF
102
{ACAD_REACTORS
330
6D9
102
}
330
6D9
100
AcDbXrecord
280
     1
270
     1
271
     1
  0
XRECORD
  5
6DC
102
{ACAD_REACTORS
330
6D9
102
}
330
6D9
100
AcDbXrecord
280
     1
270
     1
271
     1
  0
XRECORD
  5
750
102
{ACAD_REACTORS
330
6E9
102
}
330
6E9
100
AcDbXrecord
280
     1
102
MATERIAL
148
0.0
149
0.0
149
0.0
 93
        0
 94
      127
282
     0
 72
     0
 77
     0
171
     0
175
     0
179
     0
273
     0
  0
XRECORD
  5
6EB
102
{ACAD_REACTORS
330
6E9
102
}
330
6E9
100
AcDbXrecord
280
     1
270
     1
271
     1
  0
XRECORD
  5
6EA
102
{ACAD_REACTORS
330
6E9
102
}
330
6E9
100
AcDbXrecord
280
     1
270
     1
271
     1
  0
XRECORD
  5
6EE
102
{ACAD_REACTORS
330
6E9
102
}
330
6E9
100
AcDbXrecord
280
     1
270
     1
271
     1
  0
XRECORD
  5
6ED
102
{ACAD_REACTORS
330
6E9
102
}
330
6E9
100
AcDbXrecord
280
     1
270
     1
271
     1
  0
XRECORD
  5
6EF
102
{ACAD_REACTORS
330
6E9
102
}
330
6E9
100
AcDbXrecord
280
     1
270
     1
271
     1
  0
XRECORD
  5
6EC
102
{ACAD_REACTORS
330
6E9
102
}
330
6E9
100
AcDbXrecord
280
     1
270
     1
271
     1
  0
CELLSTYLEMAP
  5
745
102
{ACAD_REACTORS
330
744
102
}
330
744
100
AcDbCellStyleMap
 90
        3
300
CELLSTYLE
  1
TABLEFORMAT_BEGIN
 90
        5
170
     1
 91
        0
 92
    32768
 62
   257
 93
        1
300
CONTENTFORMAT
  1
CONTENTFORMAT_BEGIN
 90
        0
 91
        0
 92
      512
 93
        0
300

 40
0.0
140
1.0
 94
        5
 62
     0
340
11
144
6.0
309
CONTENTFORMAT_END
171
     1
301
MARGIN
  1
CELLMARGIN_BEGIN
 40
1.5
 40
1.5
 40
1.5
 40
1.5
 40
4.5
 40
4.5
309
CELLMARGIN_END
 94
        6
 95
        1
302
GRIDFORMAT
  1
GRIDFORMAT_BEGIN
 90
        0
 91
        1
 62
     0
 92
       -2
340
0
 93
        0
 40
1.125
309
GRIDFORMAT_END
 95
        2
302
GRIDFORMAT
  1
GRIDFORMAT_BEGIN
 90
        0
 91
        1
 62
     0
 92
       -2
340
0
 93
        0
 40
1.125
309
GRIDFORMAT_END
 95
        4
302
GRIDFORMAT
  1
GRIDFORMAT_BEGIN
 90
        0
 91
        1
 62
     0
 92
       -2
340
0
 93
        0
 40
1.125
309
GRIDFORMAT_END
 95
        8
302
GRIDFORMAT
  1
GRIDFORMAT_BEGIN
 90
        0
 91
        1
 62
     0
 92
       -2
340
0
 93
        0
 40
1.125
309
GRIDFORMAT_END
 95
       16
302
GRIDFORMAT
  1
GRIDFORMAT_BEGIN
 90
        0
 91
        1
 62
     0
 92
       -2
340
0
 93
        0
 40
1.125
309
GRIDFORMAT_END
 95
       32
302
GRIDFORMAT
  1
GRIDFORMAT_BEGIN
 90
        0
 91
        1
 62
     0
 92
       -2
340
0
 93
        0
 40
1.125
309
GRIDFORMAT_END
309
TABLEFORMAT_END
  1
CELLSTYLE_BEGIN
 90
        1
 91
        1
300
_TITLE
309
CELLSTYLE_END
300
CELLSTYLE
  1
TABLEFORMAT_BEGIN
 90
        5
170
     1
 91
        0
 92
        0
 62
   257
 93
        1
300
CONTENTFORMAT
  1
CONTENTFORMAT_BEGIN
 90
        0
 91
        0
 92
      512
 93
        0
300

 40
0.0
140
1.0
 94
        5
 62
     0
340
11
144
4.5
309
CONTENTFORMAT_END
171
     1
301
MARGIN
  1
CELLMARGIN_BEGIN
 40
1.5
 40
1.5
 40
1.5
 40
1.5
 40
4.5
 40
4.5
309
CELLMARGIN_END
 94
        6
 95
        1
302
GRIDFORMAT
  1
GRIDFORMAT_BEGIN
 90
        0
 91
        1
 62
     0
 92
       -2
340
0
 93
        0
 40
1.125
309
GRIDFORMAT_END
 95
        2
302
GRIDFORMAT
  1
GRIDFORMAT_BEGIN
 90
        0
 91
        1
 62
     0
 92
       -2
340
0
 93
        0
 40
1.125
309
GRIDFORMAT_END
 95
        4
302
GRIDFORMAT
  1
GRIDFORMAT_BEGIN
 90
        0
 91
        1
 62
     0
 92
       -2
340
0
 93
        0
 40
1.125
309
GRIDFORMAT_END
 95
        8
302
GRIDFORMAT
  1
GRIDFORMAT_BEGIN
 90
        0
 91
        1
 62
     0
 92
       -2
340
0
 93
        0
 40
1.125
309
GRIDFORMAT_END
 95
       16
302
GRIDFORMAT
  1
GRIDFORMAT_BEGIN
 90
        0
 91
        1
 62
     0
 92
       -2
340
0
 93
        0
 40
1.125
309
GRIDFORMAT_END
 95
       32
302
GRIDFORMAT
  1
GRIDFORMAT_BEGIN
 90
        0
 91
        1
 62
     0
 92
       -2
340
0
 93
        0
 40
1.125
309
GRIDFORMAT_END
309
TABLEFORMAT_END
  1
CELLSTYLE_BEGIN
 90
        2
 91
        1
300
_HEADER
309
CELLSTYLE_END
300
CELLSTYLE
  1
TABLEFORMAT_BEGIN
 90
        5
170
     1
 91
        0
 92
        0
 62
   257
 93
        1
300
CONTENTFORMAT
  1
CONTENTFORMAT_BEGIN
 90
        0
 91
        0
 92
      512
 93
        0
300

 40
0.0
140
1.0
 94
        2
 62
     0
340
11
144
4.5
309
CONTENTFORMAT_END
171
     1
301
MARGIN
  1
CELLMARGIN_BEGIN
 40
1.5
 40
1.5
 40
1.5
 40
1.5
 40
4.5
 40
4.5
309
CELLMARGIN_END
 94
        6
 95
        1
302
GRIDFORMAT
  1
GRIDFORMAT_BEGIN
 90
        0
 91
        1
 62
     0
 92
       -2
340
0
 93
        0
 40
1.125
309
GRIDFORMAT_END
 95
        2
302
GRIDFORMAT
  1
GRIDFORMAT_BEGIN
 90
        0
 91
        1
 62
     0
 92
       -2
340
0
 93
        0
 40
1.125
309
GRIDFORMAT_END
 95
        4
302
GRIDFORMAT
  1
GRIDFORMAT_BEGIN
 90
        0
 91
        1
 62
     0
 92
       -2
340
0
 93
        0
 40
1.125
309
GRIDFORMAT_END
 95
        8
302
GRIDFORMAT
  1
GRIDFORMAT_BEGIN
 90
        0
 91
        1
 62
     0
 92
       -2
340
0
 93
        0
 40
1.125
309
GRIDFORMAT_END
 95
       16
302
GRIDFORMAT
  1
GRIDFORMAT_BEGIN
 90
        0
 91
        1
 62
     0
 92
       -2
340
0
 93
        0
 40
1.125
309
GRIDFORMAT_END
 95
       32
302
GRIDFORMAT
  1
GRIDFORMAT_BEGIN
 90
        0
 91
        1
 62
     0
 92
       -2
340
0
 93
        0
 40
1.125
309
GRIDFORMAT_END
309
TABLEFORMAT_END
  1
CELLSTYLE_BEGIN
 90
        3
 91
        2
300
_DATA
309
CELLSTYLE_END
  0
XRECORD
  5
751
102
{ACAD_REACTORS
330
744
102
}
330
744
100
AcDbXrecord
280
     1
102
ACAD_ROUNDTRIP_PRE2007_TABLESTYLE
 90
      512
 91
        0
  1

 92
      512
 93
        0
  2

 94
      512
 95
        0
  3

  0
ENDSEC
  0
EOF
